  0
SECTION
  2
HEADER
  9
$ACADVER
  1
AC1024
  9
$ACADMAINTVER
 70
     6
  9
$DWGCODEPAGE
  3
UNDEFINED
  9
$INSBASE
 10
0.0
 20
0.0
 30
0.0
  9
$EXTMIN
 10
1.000000000000000E+20
 20
1.000000000000000E+20
 30
1.000000000000000E+20
  9
$EXTMAX
 10
-1.000000000000000E+20
 20
-1.000000000000000E+20
 30
-1.000000000000000E+20
  9
$LIMMIN
 10
0.0
 20
0.0
  9
$LIMMAX
 10
12.0
 20
9.0
  9
$ORTHOMODE
 70
     0
  9
$REGENMODE
 70
     1
  9
$FILLMODE
 70
     1
  9
$QTEXTMODE
 70
     0
  9
$MIRRTEXT
 70
     1
  9
$LTSCALE
 40
1.0
  9
$ATTMODE
 70
     1
  9
$TEXTSIZE
 40
0.2
  9
$TRACEWID
 40
0.05
  9
$TEXTSTYLE
  7
Standard
  9
$CLAYER
  8
0
  9
$CELTYPE
  6
ByLayer
  9
$CECOLOR
 62
   256
  9
$CELTSCALE
 40
1.0
  9
$DISPSILH
 70
     0
  9
$DIMSCALE
 40
1.0
  9
$DIMASZ
 40
0.18
  9
$DIMEXO
 40
0.0625
  9
$DIMDLI
 40
0.38
  9
$DIMRND
 40
0.0
  9
$DIMDLE
 40
0.0
  9
$DIMEXE
 40
0.18
  9
$DIMTP
 40
0.0
  9
$DIMTM
 40
0.0
  9
$DIMTXT
 40
0.18
  9
$DIMCEN
 40
0.09
  9
$DIMTSZ
 40
0.0
  9
$DIMTOL
 70
     0
  9
$DIMLIM
 70
     0
  9
$DIMTIH
 70
     1
  9
$DIMTOH
 70
     1
  9
$DIMSE1
 70
     0
  9
$DIMSE2
 70
     0
  9
$DIMTAD
 70
     0
  9
$DIMZIN
 70
     0
  9
$DIMBLK
  1

  9
$DIMASO
 70
     1
  9
$DIMSHO
 70
     1
  9
$DIMPOST
  1

  9
$DIMAPOST
  1

  9
$DIMALT
 70
     0
  9
$DIMALTD
 70
     2
  9
$DIMALTF
 40
25.4
  9
$DIMLFAC
 40
1.0
  9
$DIMTOFL
 70
     0
  9
$DIMTVP
 40
0.0
  9
$DIMTIX
 70
     0
  9
$DIMSOXD
 70
     0
  9
$DIMSAH
 70
     0
  9
$DIMBLK1
  1

  9
$DIMBLK2
  1

  9
$DIMSTYLE
  2
Standard
  9
$DIMCLRD
 70
     0
  9
$DIMCLRE
 70
     0
  9
$DIMCLRT
 70
     0
  9
$DIMTFAC
 40
1.0
  9
$DIMGAP
 40
0.09
  9
$DIMJUST
 70
     0
  9
$DIMSD1
 70
     0
  9
$DIMSD2
 70
     0
  9
$DIMTOLJ
 70
     1
  9
$DIMTZIN
 70
     0
  9
$DIMALTZ
 70
     0
  9
$DIMALTTZ
 70
     0
  9
$DIMUPT
 70
     0
  9
$DIMDEC
 70
     4
  9
$DIMTDEC
 70
     4
  9
$DIMALTU
 70
     2
  9
$DIMALTTD
 70
     2
  9
$DIMTXSTY
  7
Standard
  9
$DIMAUNIT
 70
     0
  9
$DIMADEC
 70
     0
  9
$DIMALTRND
 40
0.0
  9
$DIMAZIN
 70
     0
  9
$DIMDSEP
 70
    46
  9
$DIMATFIT
 70
     3
  9
$DIMFRAC
 70
     0
  9
$DIMLDRBLK
  1

  9
$DIMLUNIT
 70
     2
  9
$DIMLWD
 70
    -2
  9
$DIMLWE
 70
    -2
  9
$DIMTMOVE
 70
     0
  9
$DIMFXL
 40
1.0
  9
$DIMFXLON
 70
     0
  9
$DIMJOGANG
 40
0.7853981633974483
  9
$DIMTFILL
 70
     0
  9
$DIMTFILLCLR
 70
     0
  9
$DIMARCSYM
 70
     0
  9
$DIMLTYPE
  6

  9
$DIMLTEX1
  6

  9
$DIMLTEX2
  6

  9
$DIMTXTDIRECTION
 70
     0
  9
$LUNITS
 70
     2
  9
$LUPREC
 70
     4
  9
$SKETCHINC
 40
0.1
  9
$FILLETRAD
 40
0.5
  9
$AUNITS
 70
     0
  9
$AUPREC
 70
     0
  9
$MENU
  1
.
  9
$ELEVATION
 40
0.0
  9
$PELEVATION
 40
0.0
  9
$THICKNESS
 40
0.0
  9
$LIMCHECK
 70
     0
  9
$CHAMFERA
 40
0.5
  9
$CHAMFERB
 40
0.5
  9
$CHAMFERC
 40
1.0
  9
$CHAMFERD
 40
0.0
  9
$SKPOLY
 70
     0
  9
$TDCREATE
 40
2457917.632222211
  9
$TDUCREATE
 40
2457917.257222222
  9
$TDUPDATE
 40
2457917.632222211
  9
$TDUUPDATE
 40
2457917.257222222
  9
$TDINDWG
 40
0.0000000116
  9
$TDUSRTIMER
 40
0.0000000116
  9
$USRTIMER
 70
     1
  9
$ANGBASE
 50
0.0
  9
$ANGDIR
 70
     0
  9
$PDMODE
 70
     0
  9
$PDSIZE
 40
0.0
  9
$PLINEWID
 40
0.0
  9
$SPLFRAME
 70
     0
  9
$SPLINETYPE
 70
     6
  9
$SPLINESEGS
 70
     8
  9
$HANDSEED
  5
BE
  9
$SURFTAB1
 70
     6
  9
$SURFTAB2
 70
     6
  9
$SURFTYPE
 70
     6
  9
$SURFU
 70
     6
  9
$SURFV
 70
     6
  9
$UCSBASE
  2

  9
$UCSNAME
  2

  9
$UCSORG
 10
0.0
 20
0.0
 30
0.0
  9
$UCSXDIR
 10
1.0
 20
0.0
 30
0.0
  9
$UCSYDIR
 10
0.0
 20
1.0
 30
0.0
  9
$UCSORTHOREF
  2

  9
$UCSORTHOVIEW
 70
     0
  9
$UCSORGTOP
 10
0.0
 20
0.0
 30
0.0
  9
$UCSORGBOTTOM
 10
0.0
 20
0.0
 30
0.0
  9
$UCSORGLEFT
 10
0.0
 20
0.0
 30
0.0
  9
$UCSORGRIGHT
 10
0.0
 20
0.0
 30
0.0
  9
$UCSORGFRONT
 10
0.0
 20
0.0
 30
0.0
  9
$UCSORGBACK
 10
0.0
 20
0.0
 30
0.0
  9
$PUCSBASE
  2

  9
$PUCSNAME
  2

  9
$PUCSORG
 10
0.0
 20
0.0
 30
0.0
  9
$PUCSXDIR
 10
1.0
 20
0.0
 30
0.0
  9
$PUCSYDIR
 10
0.0
 20
1.0
 30
0.0
  9
$PUCSORTHOREF
  2

  9
$PUCSORTHOVIEW
 70
     0
  9
$PUCSORGTOP
 10
0.0
 20
0.0
 30
0.0
  9
$PUCSORGBOTTOM
 10
0.0
 20
0.0
 30
0.0
  9
$PUCSORGLEFT
 10
0.0
 20
0.0
 30
0.0
  9
$PUCSORGRIGHT
 10
0.0
 20
0.0
 30
0.0
  9
$PUCSORGFRONT
 10
0.0
 20
0.0
 30
0.0
  9
$PUCSORGBACK
 10
0.0
 20
0.0
 30
0.0
  9
$USERI1
 70
     0
  9
$USERI2
 70
     0
  9
$USERI3
 70
     0
  9
$USERI4
 70
     0
  9
$USERI5
 70
     0
  9
$USERR1
 40
0.0
  9
$USERR2
 40
0.0
  9
$USERR3
 40
0.0
  9
$USERR4
 40
0.0
  9
$USERR5
 40
0.0
  9
$WORLDVIEW
 70
     1
  9
$SHADEDGE
 70
     3
  9
$SHADEDIF
 70
    70
  9
$TILEMODE
 70
     1
  9
$MAXACTVP
 70
    64
  9
$PINSBASE
 10
0.0
 20
0.0
 30
0.0
  9
$PLIMCHECK
 70
     0
  9
$PEXTMIN
 10
1.000000000000000E+20
 20
1.000000000000000E+20
 30
1.000000000000000E+20
  9
$PEXTMAX
 10
-1.000000000000000E+20
 20
-1.000000000000000E+20
 30
-1.000000000000000E+20
  9
$PLIMMIN
 10
0.0
 20
0.0
  9
$PLIMMAX
 10
12.0
 20
9.0
  9
$UNITMODE
 70
     0
  9
$VISRETAIN
 70
     1
  9
$PLINEGEN
 70
     0
  9
$PSLTSCALE
 70
     1
  9
$TREEDEPTH
 70
  3020
  9
$CMLSTYLE
  2
Standard
  9
$CMLJUST
 70
     0
  9
$CMLSCALE
 40
1.0
  9
$PROXYGRAPHICS
 70
     1
  9
$MEASUREMENT
 70
     0
  9
$CELWEIGHT
370
    -1
  9
$ENDCAPS
280
     0
  9
$JOINSTYLE
280
     0
  9
$LWDISPLAY
290
     1
  9
$INSUNITS
 70
     1
  9
$HYPERLINKBASE
  1

  9
$STYLESHEET
  1

  9
$XEDIT
290
     1
  9
$CEPSNTYPE
380
     0
  9
$PSTYLEMODE
290
     1
  9
$FINGERPRINTGUID
  2
{561E03AD-E494-80A4-7F1D-16103488628D}
  9
$VERSIONGUID
  2
{FAEB1C32-E019-11D5-929B-00C0DF256EC4}
  9
$EXTNAMES
290
     1
  9
$PSVPSCALE
 40
0.0
  9
$OLESTARTUP
290
     0
  9
$SORTENTS
280
   127
  9
$INDEXCTL
280
     0
  9
$HIDETEXT
280
     1
  9
$XCLIPFRAME
280
     2
  9
$HALOGAP
280
     0
  9
$OBSCOLOR
 70
   257
  9
$OBSLTYPE
280
     0
  9
$INTERSECTIONDISPLAY
280
     0
  9
$INTERSECTIONCOLOR
 70
   257
  9
$DIMASSOC
280
     2
  9
$PROJECTNAME
  1

  9
$CAMERADISPLAY
290
     0
  9
$LENSLENGTH
 40
50.0
  9
$CAMERAHEIGHT
 40
0.0
  9
$STEPSPERSEC
 40
2.0
  9
$STEPSIZE
 40
6.0
  9
$3DDWFPREC
 40
2.0
  9
$PSOLWIDTH
 40
0.25
  9
$PSOLHEIGHT
 40
4.0
  9
$LOFTANG1
 40
1.570796326794897
  9
$LOFTANG2
 40
1.570796326794897
  9
$LOFTMAG1
 40
0.0
  9
$LOFTMAG2
 40
0.0
  9
$LOFTPARAM
 70
     7
  9
$LOFTNORMALS
280
     1
  9
$LATITUDE
 40
37.795
  9
$LONGITUDE
 40
-122.394
  9
$NORTHDIRECTION
 40
0.0
  9
$TIMEZONE
 70
 -8000
  9
$LIGHTGLYPHDISPLAY
280
     1
  9
$TILEMODELIGHTSYNCH
280
     1
  9
$CMATERIAL
347
3C
  9
$SOLIDHIST
280
     1
  9
$SHOWHIST
280
     1
  9
$DWFFRAME
280
     2
  9
$DGNFRAME
280
     2
  9
$REALWORLDSCALE
290
     1
  9
$INTERFERECOLOR
 62
   256
  9
$CSHADOW
280
     0
  9
$SHADOWPLANELOCATION
 40
0.0
  0
ENDSEC
  0
SECTION
  2
CLASSES
  0
CLASS
  1
ACDBDICTIONARYWDFLT
  2
AcDbDictionaryWithDefault
  3
ObjectDBX Classes
 90
        0
 91
        4
280
     0
281
     0
  0
CLASS
  1
VISUALSTYLE
  2
AcDbVisualStyle
  3
ObjectDBX Classes
 90
     4095
 91
        4
280
     0
281
     0
  0
CLASS
  1
MATERIAL
  2
AcDbMaterial
  3
ObjectDBX Classes
 90
     1153
 91
        4
280
     0
281
     0
  0
CLASS
  1
SUN
  2
AcDbSun
  3
SCENEOE
 90
     1024
 91
        4
280
     0
281
     0
  0
ENDSEC
  0
SECTION
  2
TABLES
  0
TABLE
  2
VPORT
  5
8
330
0
100
AcDbSymbolTable
 70
     1
  0
VPORT
  5
29
330
8
100
AcDbSymbolTableRecord
100
AcDbViewportTableRecord
  2
*Active
 70
     0
 10
0.0
 20
0.0
 11
1.0
 21
1.0
 12
0.0
 22
0.0
 13
0.0
 23
0.0
 14
0.5
 24
0.5
 15
0.5
 25
0.5
 16
0.0
 26
0.0
 36
1.0
 17
91.00082462281999
 27
-128.4993055234307
 37
0.0
 40
256.9986110468615
 41
0.7081814508812795
 42
50.0
 43
0.0
 44
0.0
 50
0.0
 51
0.0
 71
     0
 72
   100
 73
     1
 74
     3
 75
     0
 76
     0
 77
     0
 78
     0
281
     0
 65
     1
110
0.0
120
0.0
130
0.0
111
1.0
121
0.0
131
0.0
112
0.0
122
1.0
132
0.0
 79
     0
146
0.0
 60
     3
 61
     5
292
     1
282
     1
141
0.0
142
0.0
 63
   250
361
3F
  0
ENDTAB
  0
TABLE
  2
LTYPE
  5
5
330
0
100
AcDbSymbolTable
 70
     1
  0
LTYPE
  5
14
330
5
100
AcDbSymbolTableRecord
100
AcDbLinetypeTableRecord
  2
ByBlock
 70
     0
  3

 72
    65
 73
     0
 40
0.0
  0
LTYPE
  5
15
330
5
100
AcDbSymbolTableRecord
100
AcDbLinetypeTableRecord
  2
ByLayer
 70
     0
  3

 72
    65
 73
     0
 40
0.0
  0
LTYPE
  5
16
330
5
100
AcDbSymbolTableRecord
100
AcDbLinetypeTableRecord
  2
Continuous
 70
     0
  3
Solid line
 72
    65
 73
     0
 40
0.0
  0
ENDTAB
  0
TABLE
  2
LAYER
  5
2
330
0
100
AcDbSymbolTable
 70
     2
  0
LAYER
  5
10
330
2
100
AcDbSymbolTableRecord
100
AcDbLayerTableRecord
  2
0
 70
     0
 62
     7
  6
Continuous
370
    -3
390
F
347
3E
  0
LAYER
  5
40
330
2
100
AcDbSymbolTableRecord
100
AcDbLayerTableRecord
  2
_U+30EC_U+30A4_U+30E4_U+30FC 1
 70
     0
 62
     7
  6
Continuous
370
    -3
390
F
347
3E
  0
ENDTAB
  0
TABLE
  2
STYLE
  5
3
330
0
100
AcDbSymbolTable
 70
     1
  0
STYLE
  5
11
330
3
100
AcDbSymbolTableRecord
100
AcDbTextStyleTableRecord
  2
Standard
 70
     0
 40
0.0
 41
1.0
 50
0.0
 71
     0
 42
0.2
  3
txt
  4

  0
ENDTAB
  0
TABLE
  2
VIEW
  5
6
330
0
100
AcDbSymbolTable
 70
     0
  0
ENDTAB
  0
TABLE
  2
UCS
  5
7
330
0
100
AcDbSymbolTable
 70
     0
  0
ENDTAB
  0
TABLE
  2
APPID
  5
9
330
0
100
AcDbSymbolTable
 70
     1
  0
APPID
  5
12
330
9
100
AcDbSymbolTableRecord
100
AcDbRegAppTableRecord
  2
ACAD
 70
     0
  0
ENDTAB
  0
TABLE
  2
DIMSTYLE
  5
A
330
0
100
AcDbSymbolTable
 70
     1
100
AcDbDimStyleTable
  0
DIMSTYLE
105
27
330
A
100
AcDbSymbolTableRecord
100
AcDbDimStyleTableRecord
  2
Standard
 70
     0
178
     0
340
11
  0
ENDTAB
  0
TABLE
  2
BLOCK_RECORD
  5
1
330
0
100
AcDbSymbolTable
 70
     7
  0
BLOCK_RECORD
  5
1F
330
1
100
AcDbSymbolTableRecord
100
AcDbBlockTableRecord
  2
*Model_Space
340
22
 70
     0
280
     1
281
     0
  0
BLOCK_RECORD
  5
1B
330
1
100
AcDbSymbolTableRecord
100
AcDbBlockTableRecord
  2
*Paper_Space
340
1E
 70
     0
280
     1
281
     0
  0
BLOCK_RECORD
  5
23
330
1
100
AcDbSymbolTableRecord
100
AcDbBlockTableRecord
  2
*Paper_Space0
340
26
 70
     0
280
     1
281
     0
  0
BLOCK_RECORD
  5
41
330
1
100
AcDbSymbolTableRecord
100
AcDbBlockTableRecord
  2
block 2
340
0
102
{BLKREFS
331
42
102
}
 70
     0
280
     1
281
     0
  0
BLOCK_RECORD
  5
47
330
1
100
AcDbSymbolTableRecord
100
AcDbBlockTableRecord
  2
block 3
340
0
102
{BLKREFS
331
48
102
}
 70
     0
280
     1
281
     0
  0
BLOCK_RECORD
  5
84
330
1
100
AcDbSymbolTableRecord
100
AcDbBlockTableRecord
  2
block 4
340
0
102
{BLKREFS
331
85
102
}
 70
     0
280
     1
281
     0
  0
BLOCK_RECORD
  5
8C
330
1
100
AcDbSymbolTableRecord
100
AcDbBlockTableRecord
  2
block 5
340
0
102
{BLKREFS
331
8D
102
}
 70
     0
280
     1
281
     0
  0
BLOCK_RECORD
  5
94
330
1
100
AcDbSymbolTableRecord
100
AcDbBlockTableRecord
  2
block 6
340
0
102
{BLKREFS
331
95
102
}
 70
     0
280
     1
281
     0
  0
BLOCK_RECORD
  5
9C
330
1
100
AcDbSymbolTableRecord
100
AcDbBlockTableRecord
  2
block 7
340
0
102
{BLKREFS
331
9D
102
}
 70
     0
280
     1
281
     0
  0
ENDTAB
  0
ENDSEC
  0
SECTION
  2
BLOCKS
  0
BLOCK
  5
20
330
1F
100
AcDbEntity
  8
0
100
AcDbBlockBegin
  2
*Model_Space
 70
     0
 10
0.0
 20
0.0
 30
0.0
  3
*Model_Space
  1

  0
ENDBLK
  5
21
330
1F
100
AcDbEntity
  8
0
100
AcDbBlockEnd
  0
BLOCK
  5
1C
330
1B
100
AcDbEntity
 67
     1
  8
0
100
AcDbBlockBegin
  2
*Paper_Space
 70
     0
 10
0.0
 20
0.0
 30
0.0
  3
*Paper_Space
  1

  0
ENDBLK
  5
1D
330
1B
100
AcDbEntity
 67
     1
  8
0
100
AcDbBlockEnd
  0
BLOCK
  5
24
330
23
100
AcDbEntity
  8
0
100
AcDbBlockBegin
  2
*Paper_Space0
 70
     0
 10
0.0
 20
0.0
 30
0.0
  3
*Paper_Space0
  1

  0
ENDBLK
  5
25
330
23
100
AcDbEntity
  8
0
100
AcDbBlockEnd
  0
BLOCK
  5
43
330
41
100
AcDbEntity
  8
0
100
AcDbBlockBegin
  2
block 2
 70
     0
 10
0.0
 20
0.0
 30
0.0
  3
block 2
  1

  0
SPLINE
  5
45
330
41
100
AcDbEntity
  8
_U+30EC_U+30A4_U+30E4_U+30FC 1
370
     0
100
AcDbSpline
210
0.0
220
0.0
230
1.0
 70
    11
 71
     3
 72
    32
 73
    28
 74
     0
 42
0.0000000001
 43
0.0000000001
 12
1.0
 22
0.0
 32
0.0
 13
1.0
 23
0.0
 33
0.0
 40
0.0
 40
0.0
 40
0.0
 40
0.0
 40
1.0
 40
1.0
 40
1.0
 40
2.0
 40
2.0
 40
2.0
 40
3.0
 40
3.0
 40
3.0
 40
4.0
 40
4.0
 40
4.0
 40
5.0
 40
5.0
 40
5.0
 40
6.0
 40
6.0
 40
6.0
 40
7.0
 40
7.0
 40
7.0
 40
8.0
 40
8.0
 40
8.0
 40
9.0
 40
9.0
 40
9.0
 40
9.0
 10
85.84660030987077
 20
-124.9396719132096
 30
0.0
 10
85.84660030987077
 20
-124.9396719132096
 30
0.0
 10
94.68636452879403
 20
-124.9396719132096
 30
0.0
 10
94.68636452879403
 20
-124.9396719132096
 30
0.0
 10
94.68636452879403
 20
-124.9396719132096
 30
0.0
 10
94.68636452879403
 20
-123.167316358097
 30
0.0
 10
94.68636452879403
 20
-123.167316358097
 30
0.0
 10
94.68636452879403
 20
-122.7254974693188
 30
0.0
 10
94.32843620459221
 20
-122.4173460805067
 30
0.0
 10
93.88644093809067
 20
-122.4173460805067
 30
0.0
 10
93.88644093809067
 20
-122.4173460805067
 30
0.0
 10
84.62136784112904
 20
-122.4173460805067
 30
0.0
 10
84.62136784112904
 20
-122.4173460805067
 30
0.0
 10
83.9123550814397
 20
-122.4173460805067
 30
0.0
 10
83.27121676446316
 20
-123.1128827469994
 30
0.0
 10
83.27121676446316
 20
-123.7674619135027
 30
0.0
 10
83.27121676446316
 20
-123.7674619135027
 30
0.0
 10
83.27121676446316
 20
-132.9152366334376
 30
0.0
 10
83.27121676446316
 20
-132.9152366334376
 30
0.0
 10
83.27121676446316
 20
-133.3568791333276
 30
0.0
 10
83.5794055346606
 20
-133.7151955221269
 30
0.0
 10
84.02122230088449
 20
-133.7151955221269
 30
0.0
 10
84.02122230088449
 20
-133.7151955221269
 30
0.0
 10
85.84660030987077
 20
-133.7151955221269
 30
0.0
 10
85.84660030987077
 20
-133.7151955221269
 30
0.0
 10
85.84660030987077
 20
-133.7151955221269
 30
0.0
 10
85.84660030987077
 20
-124.9396719132096
 30
0.0
 10
85.84660030987077
 20
-124.9396719132096
 30
0.0
  0
HATCH
  5
46
330
41
100
AcDbEntity
  8
_U+30EC_U+30A4_U+30E4_U+30FC 1
 62
     2
420
 16773120
100
AcDbHatch
 10
0.0
 20
0.0
 30
0.0
210
0.0
220
0.0
230
1.0
  2
SOLID
 70
     1
 71
     0
 91
        1
 92
        1
 93
        1
 72
     4
 94
        3
 73
     0
 74
     1
 95
       32
 96
       28
 40
0.0
 40
0.0
 40
0.0
 40
0.0
 40
1.0
 40
1.0
 40
1.0
 40
2.0
 40
2.0
 40
2.0
 40
3.0
 40
3.0
 40
3.0
 40
4.0
 40
4.0
 40
4.0
 40
5.0
 40
5.0
 40
5.0
 40
6.0
 40
6.0
 40
6.0
 40
7.0
 40
7.0
 40
7.0
 40
8.0
 40
8.0
 40
8.0
 40
9.0
 40
9.0
 40
9.0
 40
9.0
 10
85.84660030987077
 20
-124.9396719132096
 10
85.84660030987077
 20
-124.9396719132096
 10
94.68636452879403
 20
-124.9396719132096
 10
94.68636452879403
 20
-124.9396719132096
 10
94.68636452879403
 20
-124.9396719132096
 10
94.68636452879403
 20
-123.167316358097
 10
94.68636452879403
 20
-123.167316358097
 10
94.68636452879403
 20
-122.7254974693188
 10
94.32843620459221
 20
-122.4173460805067
 10
93.88644093809067
 20
-122.4173460805067
 10
93.88644093809067
 20
-122.4173460805067
 10
84.62136784112904
 20
-122.4173460805067
 10
84.62136784112904
 20
-122.4173460805067
 10
83.9123550814397
 20
-122.4173460805067
 10
83.27121676446316
 20
-123.1128827469994
 10
83.27121676446316
 20
-123.7674619135027
 10
83.27121676446316
 20
-123.7674619135027
 10
83.27121676446316
 20
-132.9152366334376
 10
83.27121676446316
 20
-132.9152366334376
 10
83.27121676446316
 20
-133.3568791333276
 10
83.5794055346606
 20
-133.7151955221269
 10
84.02122230088449
 20
-133.7151955221269
 10
84.02122230088449
 20
-133.7151955221269
 10
85.84660030987077
 20
-133.7151955221269
 10
85.84660030987077
 20
-133.7151955221269
 10
85.84660030987077
 20
-133.7151955221269
 10
85.84660030987077
 20
-124.9396719132096
 10
85.84660030987077
 20
-124.9396719132096
 97
        0
 97
        0
 75
     2
 76
     1
 98
        0
  0
INSERT
  5
48
330
41
100
AcDbEntity
  8
_U+30EC_U+30A4_U+30E4_U+30FC 1
100
AcDbBlockReference
  2
block 3
 10
0.0
 20
0.0
 30
0.0
  0
ENDBLK
  5
44
330
41
100
AcDbEntity
  8
0
100
AcDbBlockEnd
  0
BLOCK
  5
49
330
47
100
AcDbEntity
  8
0
100
AcDbBlockBegin
  2
block 3
 70
     0
 10
0.0
 20
0.0
 30
0.0
  3
block 3
  1

  0
SPLINE
  5
4B
330
47
100
AcDbEntity
  8
_U+30EC_U+30A4_U+30E4_U+30FC 1
 62
     7
420
 16711422
370
     9
100
AcDbSpline
210
0.0
220
0.0
230
1.0
 70
    11
 71
     3
 72
    23
 73
    19
 74
     0
 42
0.0000000001
 43
0.0000000001
 12
1.0
 22
0.0
 32
0.0
 13
1.0
 23
0.0
 33
0.0
 40
0.0
 40
0.0
 40
0.0
 40
0.0
 40
1.0
 40
1.0
 40
1.0
 40
2.0
 40
2.0
 40
2.0
 40
3.0
 40
3.0
 40
3.0
 40
4.0
 40
4.0
 40
4.0
 40
5.0
 40
5.0
 40
5.0
 40
6.0
 40
6.0
 40
6.0
 40
6.0
 10
86.61727862354246
 20
-124.273556913376
 30
0.0
 10
86.61727862354246
 20
-124.273556913376
 30
0.0
 10
86.64913445606308
 20
-123.2522652469648
 30
0.0
 10
87.92590775682321
 20
-123.2841210802901
 30
0.0
 10
87.92590775682321
 20
-123.2841210802901
 30
0.0
 10
92.42639958645054
 20
-123.4117560802581
 30
0.0
 10
92.42639958645054
 20
-123.4117560802581
 30
0.0
 10
92.42639958645054
 20
-123.4117560802581
 30
0.0
 10
91.6285221068061
 20
-124.3054127467013
 30
0.0
 10
91.6285221068061
 20
-124.3054127467013
 30
0.0
 10
91.6285221068061
 20
-124.3054127467013
 30
0.0
 10
91.46867849977293
 20
-124.4330477466696
 30
0.0
 10
91.46867849977293
 20
-124.4330477466696
 30
0.0
 10
91.46867849977293
 20
-124.4330477466696
 30
0.0
 10
86.64931084494746
 20
-124.4011919133443
 30
0.0
 10
86.64931084494746
 20
-124.4011919133443
 30
0.0
 10
86.64931084494746
 20
-124.4011919133443
 30
0.0
 10
86.61727862354246
 20
-124.273556913376
 30
0.0
 10
86.61727862354246
 20
-124.273556913376
 30
0.0
  0
HATCH
  5
4C
330
47
100
AcDbEntity
  8
_U+30EC_U+30A4_U+30E4_U+30FC 1
 62
     7
420
 16711422
100
AcDbHatch
 10
0.0
 20
0.0
 30
0.0
210
0.0
220
0.0
230
1.0
  2
SOLID
 70
     1
 71
     0
 91
        1
 92
        1
 93
        1
 72
     4
 94
        3
 73
     0
 74
     1
 95
       23
 96
       19
 40
0.0
 40
0.0
 40
0.0
 40
0.0
 40
1.0
 40
1.0
 40
1.0
 40
2.0
 40
2.0
 40
2.0
 40
3.0
 40
3.0
 40
3.0
 40
4.0
 40
4.0
 40
4.0
 40
5.0
 40
5.0
 40
5.0
 40
6.0
 40
6.0
 40
6.0
 40
6.0
 10
86.61727862354246
 20
-124.273556913376
 10
86.61727862354246
 20
-124.273556913376
 10
86.64913445606308
 20
-123.2522652469648
 10
87.92590775682321
 20
-123.2841210802901
 10
87.92590775682321
 20
-123.2841210802901
 10
92.42639958645054
 20
-123.4117560802581
 10
92.42639958645054
 20
-123.4117560802581
 10
92.42639958645054
 20
-123.4117560802581
 10
91.6285221068061
 20
-124.3054127467013
 10
91.6285221068061
 20
-124.3054127467013
 10
91.6285221068061
 20
-124.3054127467013
 10
91.46867849977293
 20
-124.4330477466696
 10
91.46867849977293
 20
-124.4330477466696
 10
91.46867849977293
 20
-124.4330477466696
 10
86.64931084494746
 20
-124.4011919133443
 10
86.64931084494746
 20
-124.4011919133443
 10
86.64931084494746
 20
-124.4011919133443
 10
86.61727862354246
 20
-124.273556913376
 10
86.61727862354246
 20
-124.273556913376
 97
        0
 97
        0
 75
     2
 76
     1
 98
        0
  0
SPLINE
  5
4D
330
47
100
AcDbEntity
  8
_U+30EC_U+30A4_U+30E4_U+30FC 1
 62
     7
420
 16711422
370
     9
100
AcDbSpline
210
0.0
220
0.0
230
1.0
 70
    11
 71
     3
 72
    17
 73
    13
 74
     0
 42
0.0000000001
 43
0.0000000001
 12
1.0
 22
0.0
 32
0.0
 13
1.0
 23
0.0
 33
0.0
 40
0.0
 40
0.0
 40
0.0
 40
0.0
 40
1.0
 40
1.0
 40
1.0
 40
2.0
 40
2.0
 40
2.0
 40
3.0
 40
3.0
 40
3.0
 40
4.0
 40
4.0
 40
4.0
 40
4.0
 10
85.34068171166672
 20
-125.5821860797155
 30
0.0
 10
85.34068171166672
 20
-125.5821860797155
 30
0.0
 10
85.34068171166672
 20
-130.4974741340423
 30
0.0
 10
85.34068171166672
 20
-130.4974741340423
 30
0.0
 10
85.34068171166672
 20
-130.4974741340423
 30
0.0
 10
84.25550201712973
 20
-131.5185894115649
 30
0.0
 10
84.25550201712973
 20
-131.5185894115649
 30
0.0
 10
84.25550201712973
 20
-131.5185894115649
 30
0.0
 10
84.28735784965035
 20
-126.5076985794843
 30
0.0
 10
84.28735784965035
 20
-126.5076985794843
 30
0.0
 10
84.28735784965035
 20
-126.5076985794843
 30
0.0
 10
84.92574450003042
 20
-125.6142183019297
 30
0.0
 10
85.34068171166672
 20
-125.5821860797155
 30
0.0
  0
HATCH
  5
4E
330
47
100
AcDbEntity
  8
_U+30EC_U+30A4_U+30E4_U+30FC 1
 62
     7
420
 16711422
100
AcDbHatch
 10
0.0
 20
0.0
 30
0.0
210
0.0
220
0.0
230
1.0
  2
SOLID
 70
     1
 71
     0
 91
        1
 92
        1
 93
        1
 72
     4
 94
        3
 73
     0
 74
     1
 95
       17
 96
       13
 40
0.0
 40
0.0
 40
0.0
 40
0.0
 40
1.0
 40
1.0
 40
1.0
 40
2.0
 40
2.0
 40
2.0
 40
3.0
 40
3.0
 40
3.0
 40
4.0
 40
4.0
 40
4.0
 40
4.0
 10
85.34068171166672
 20
-125.5821860797155
 10
85.34068171166672
 20
-125.5821860797155
 10
85.34068171166672
 20
-130.4974741340423
 10
85.34068171166672
 20
-130.4974741340423
 10
85.34068171166672
 20
-130.4974741340423
 10
84.25550201712973
 20
-131.5185894115649
 10
84.25550201712973
 20
-131.5185894115649
 10
84.25550201712973
 20
-131.5185894115649
 10
84.28735784965035
 20
-126.5076985794843
 10
84.28735784965035
 20
-126.5076985794843
 10
84.28735784965035
 20
-126.5076985794843
 10
84.92574450003042
 20
-125.6142183019297
 10
85.34068171166672
 20
-125.5821860797155
 97
        0
 97
        0
 75
     2
 76
     1
 98
        0
  0
SPLINE
  5
4F
330
47
100
AcDbEntity
  8
_U+30EC_U+30A4_U+30E4_U+30FC 1
 62
   179
420
  2234388
370
    25
100
AcDbSpline
210
0.0
220
0.0
230
1.0
 70
    11
 71
     3
 72
    32
 73
    28
 74
     0
 42
0.0000000001
 43
0.0000000001
 12
1.0
 22
0.0
 32
0.0
 13
1.0
 23
0.0
 33
0.0
 40
0.0
 40
0.0
 40
0.0
 40
0.0
 40
1.0
 40
1.0
 40
1.0
 40
2.0
 40
2.0
 40
2.0
 40
3.0
 40
3.0
 40
3.0
 40
4.0
 40
4.0
 40
4.0
 40
5.0
 40
5.0
 40
5.0
 40
6.0
 40
6.0
 40
6.0
 40
7.0
 40
7.0
 40
7.0
 40
8.0
 40
8.0
 40
8.0
 40
9.0
 40
9.0
 40
9.0
 40
9.0
 10
85.84660030987077
 20
-124.9396719132096
 30
0.0
 10
85.84660030987077
 20
-124.9396719132096
 30
0.0
 10
94.68636452879403
 20
-124.9396719132096
 30
0.0
 10
94.68636452879403
 20
-124.9396719132096
 30
0.0
 10
94.68636452879403
 20
-124.9396719132096
 30
0.0
 10
94.68636452879403
 20
-123.167316358097
 30
0.0
 10
94.68636452879403
 20
-123.167316358097
 30
0.0
 10
94.68636452879403
 20
-122.7254974693188
 30
0.0
 10
94.32843620459221
 20
-122.4173460805067
 30
0.0
 10
93.88644093809067
 20
-122.4173460805067
 30
0.0
 10
93.88644093809067
 20
-122.4173460805067
 30
0.0
 10
84.62136784112904
 20
-122.4173460805067
 30
0.0
 10
84.62136784112904
 20
-122.4173460805067
 30
0.0
 10
83.9123550814397
 20
-122.4173460805067
 30
0.0
 10
83.27121676446316
 20
-123.1128827469994
 30
0.0
 10
83.27121676446316
 20
-123.7674619135027
 30
0.0
 10
83.27121676446316
 20
-123.7674619135027
 30
0.0
 10
83.27121676446316
 20
-132.9152366334376
 30
0.0
 10
83.27121676446316
 20
-132.9152366334376
 30
0.0
 10
83.27121676446316
 20
-133.3568791333276
 30
0.0
 10
83.5794055346606
 20
-133.7151955221269
 30
0.0
 10
84.02122230088449
 20
-133.7151955221269
 30
0.0
 10
84.02122230088449
 20
-133.7151955221269
 30
0.0
 10
85.84660030987077
 20
-133.7151955221269
 30
0.0
 10
85.84660030987077
 20
-133.7151955221269
 30
0.0
 10
85.84660030987077
 20
-133.7151955221269
 30
0.0
 10
85.84660030987077
 20
-124.9396719132096
 30
0.0
 10
85.84660030987077
 20
-124.9396719132096
 30
0.0
  0
SPLINE
  5
50
330
47
100
AcDbEntity
  8
_U+30EC_U+30A4_U+30E4_U+30FC 1
 62
   179
420
  2234388
370
    25
100
AcDbSpline
210
0.0
220
0.0
230
1.0
 70
     8
 71
     3
 72
    11
 73
     7
 74
     0
 42
0.0000000001
 43
0.0000000001
 12
1.0
 22
0.0
 32
0.0
 13
1.0
 23
0.0
 33
0.0
 40
0.0
 40
0.0
 40
0.0
 40
0.0
 40
1.0
 40
1.0
 40
1.0
 40
2.0
 40
2.0
 40
2.0
 40
2.0
 10
86.5139147372906
 20
-124.4105052466752
 30
0.0
 10
86.5139147372906
 20
-124.4105052466752
 30
0.0
 10
86.71235223222804
 20
-123.3521719136065
 30
0.0
 10
87.66044248581802
 20
-123.3742205247121
 30
0.0
 10
87.66044248581802
 20
-123.3742205247121
 30
0.0
 10
92.64342846980257
 20
-123.3742205247121
 30
0.0
 10
92.64342846980257
 20
-123.3742205247121
 30
0.0
  0
SPLINE
  5
51
330
47
100
AcDbEntity
  8
_U+30EC_U+30A4_U+30E4_U+30FC 1
 62
   179
420
  2234388
370
    25
100
AcDbSpline
210
0.0
220
0.0
230
1.0
 70
    11
 71
     3
 72
    44
 73
    40
 74
     0
 42
0.0000000001
 43
0.0000000001
 12
1.0
 22
0.0
 32
0.0
 13
1.0
 23
0.0
 33
0.0
 40
0.0
 40
0.0
 40
0.0
 40
0.0
 40
1.0
 40
1.0
 40
1.0
 40
2.0
 40
2.0
 40
2.0
 40
3.0
 40
3.0
 40
3.0
 40
4.0
 40
4.0
 40
4.0
 40
5.0
 40
5.0
 40
5.0
 40
6.0
 40
6.0
 40
6.0
 40
7.0
 40
7.0
 40
7.0
 40
8.0
 40
8.0
 40
8.0
 40
9.0
 40
9.0
 40
9.0
 40
10.0
 40
10.0
 40
10.0
 40
11.0
 40
11.0
 40
11.0
 40
12.0
 40
12.0
 40
12.0
 40
13.0
 40
13.0
 40
13.0
 40
13.0
 10
92.35679653267071
 20
-123.5726580246624
 30
0.0
 10
92.35679653267071
 20
-123.5726580246624
 30
0.0
 10
92.59933124870535
 20
-123.2419288580785
 30
0.0
 10
92.84186596474001
 20
-123.4403663580289
 30
0.0
 10
92.84186596474001
 20
-123.4403663580289
 30
0.0
 10
93.12849790187185
 20
-123.594706635768
 30
0.0
 10
92.90801179638582
 20
-123.8372413579296
 30
0.0
 10
92.90801179638582
 20
-123.8372413579296
 30
0.0
 10
91.82762987950422
 20
-124.9396719132096
 30
0.0
 10
91.82762987950422
 20
-124.9396719132096
 30
0.0
 10
91.82762987950422
 20
-124.9396719132096
 30
0.0
 10
85.84660030987077
 20
-124.9396719132096
 30
0.0
 10
85.84660030987077
 20
-124.9396719132096
 30
0.0
 10
85.84660030987077
 20
-124.9396719132096
 30
0.0
 10
85.84660030987077
 20
-130.7165844117654
 30
0.0
 10
85.84660030987077
 20
-130.7165844117654
 30
0.0
 10
85.84660030987077
 20
-130.7165844117654
 30
0.0
 10
84.66183145120785
 20
-132.0174524669957
 30
0.0
 10
84.66183145120785
 20
-132.0174524669957
 30
0.0
 10
84.66183145120785
 20
-132.0174524669957
 30
0.0
 10
84.46339395627041
 20
-132.1938413558405
 30
0.0
 10
84.37519951407599
 20
-132.0615496892069
 30
0.0
 10
84.37519951407599
 20
-132.0615496892069
 30
0.0
 10
84.08856757694414
 20
-131.9292580225734
 30
0.0
 10
84.37519951407599
 20
-131.620577467095
 30
0.0
 10
84.57931673109076
 20
-131.4007616338163
 30
0.0
 10
85.34533837821458
 20
-130.5401955229206
 30
0.0
 10
85.34533837821458
 20
-130.5401955229206
 30
0.0
 10
85.34533837821458
 20
-130.5401955229206
 30
0.0
 10
85.34533837821458
 20
-124.807380246576
 30
0.0
 10
85.34533837821458
 20
-124.807380246576
 30
0.0
 10
85.34533837821458
 20
-124.807380246576
 30
0.0
 10
85.32328976766597
 20
-124.4546024688864
 30
0.0
 10
85.78631058918666
 20
-124.4546024688864
 30
0.0
 10
86.24933141070736
 20
-124.4546024688864
 30
0.0
 10
91.51894933182375
 20
-124.4546024688864
 30
0.0
 10
91.51894933182375
 20
-124.4546024688864
 30
0.0
 10
91.51894933182375
 20
-124.4546024688864
 30
0.0
 10
92.35679653267071
 20
-123.5726580246624
 30
0.0
 10
92.35679653267071
 20
-123.5726580246624
 30
0.0
  0
HATCH
  5
52
330
47
100
AcDbEntity
  8
_U+30EC_U+30A4_U+30E4_U+30FC 1
 62
   253
420
 11711154
100
AcDbHatch
 10
0.0
 20
0.0
 30
0.0
210
0.0
220
0.0
230
1.0
  2
SOLID
 70
     1
 71
     0
 91
        1
 92
        1
 93
        1
 72
     4
 94
        3
 73
     0
 74
     1
 95
       44
 96
       40
 40
0.0
 40
0.0
 40
0.0
 40
0.0
 40
1.0
 40
1.0
 40
1.0
 40
2.0
 40
2.0
 40
2.0
 40
3.0
 40
3.0
 40
3.0
 40
4.0
 40
4.0
 40
4.0
 40
5.0
 40
5.0
 40
5.0
 40
6.0
 40
6.0
 40
6.0
 40
7.0
 40
7.0
 40
7.0
 40
8.0
 40
8.0
 40
8.0
 40
9.0
 40
9.0
 40
9.0
 40
10.0
 40
10.0
 40
10.0
 40
11.0
 40
11.0
 40
11.0
 40
12.0
 40
12.0
 40
12.0
 40
13.0
 40
13.0
 40
13.0
 40
13.0
 10
92.35679653267071
 20
-123.5726580246624
 10
92.35679653267071
 20
-123.5726580246624
 10
92.59933124870535
 20
-123.2419288580785
 10
92.84186596474001
 20
-123.4403663580289
 10
92.84186596474001
 20
-123.4403663580289
 10
93.12849790187185
 20
-123.594706635768
 10
92.90801179638582
 20
-123.8372413579296
 10
92.90801179638582
 20
-123.8372413579296
 10
91.82762987950422
 20
-124.9396719132096
 10
91.82762987950422
 20
-124.9396719132096
 10
91.82762987950422
 20
-124.9396719132096
 10
85.84660030987077
 20
-124.9396719132096
 10
85.84660030987077
 20
-124.9396719132096
 10
85.84660030987077
 20
-124.9396719132096
 10
85.84660030987077
 20
-130.7165844117654
 10
85.84660030987077
 20
-130.7165844117654
 10
85.84660030987077
 20
-130.7165844117654
 10
84.66183145120785
 20
-132.0174524669957
 10
84.66183145120785
 20
-132.0174524669957
 10
84.66183145120785
 20
-132.0174524669957
 10
84.46339395627041
 20
-132.1938413558405
 10
84.37519951407599
 20
-132.0615496892069
 10
84.37519951407599
 20
-132.0615496892069
 10
84.08856757694414
 20
-131.9292580225734
 10
84.37519951407599
 20
-131.620577467095
 10
84.57931673109076
 20
-131.4007616338163
 10
85.34533837821458
 20
-130.5401955229206
 10
85.34533837821458
 20
-130.5401955229206
 10
85.34533837821458
 20
-130.5401955229206
 10
85.34533837821458
 20
-124.807380246576
 10
85.34533837821458
 20
-124.807380246576
 10
85.34533837821458
 20
-124.807380246576
 10
85.32328976766597
 20
-124.4546024688864
 10
85.78631058918666
 20
-124.4546024688864
 10
86.24933141070736
 20
-124.4546024688864
 10
91.51894933182375
 20
-124.4546024688864
 10
91.51894933182375
 20
-124.4546024688864
 10
91.51894933182375
 20
-124.4546024688864
 10
92.35679653267071
 20
-123.5726580246624
 10
92.35679653267071
 20
-123.5726580246624
 97
        0
 97
        0
 75
     2
 76
     1
 98
        0
  0
SPLINE
  5
53
330
47
100
AcDbEntity
  8
_U+30EC_U+30A4_U+30E4_U+30FC 1
 62
   179
420
  2234388
370
    25
100
AcDbSpline
210
0.0
220
0.0
230
1.0
 70
     8
 71
     3
 72
    11
 73
     7
 74
     0
 42
0.0000000001
 43
0.0000000001
 12
1.0
 22
0.0
 32
0.0
 13
1.0
 23
0.0
 33
0.0
 40
0.0
 40
0.0
 40
0.0
 40
0.0
 40
1.0
 40
1.0
 40
1.0
 40
2.0
 40
2.0
 40
2.0
 40
2.0
 10
85.23509532547156
 20
-125.6231788574832
 30
0.0
 10
85.23509532547156
 20
-125.6231788574832
 30
0.0
 10
84.28700507188158
 20
-125.7554705241167
 30
0.0
 10
84.24290785078436
 20
-126.8138038571855
 30
0.0
 10
84.24290785078436
 20
-126.8138038571855
 30
0.0
 10
84.24290785078436
 20
-131.9072094114677
 30
0.0
 10
84.24290785078436
 20
-131.9072094114677
 30
0.0
  0
POLYLINE
  5
54
330
47
100
AcDbEntity
  8
_U+30EC_U+30A4_U+30E4_U+30FC 1
 62
   179
420
  2234388
370
     9
100
AcDb2dPolyline
 66
     1
 10
0.0
 20
0.0
 30
0.0
  0
VERTEX
  5
55
330
54
100
AcDbEntity
  8
_U+30EC_U+30A4_U+30E4_U+30FC 1
 62
   179
420
  2234388
370
     9
100
AcDbVertex
100
AcDb2dVertex
 10
78.35592883430705
 20
-119.8684913589218
 30
0.0
  0
VERTEX
  5
56
330
54
100
AcDbEntity
  8
_U+30EC_U+30A4_U+30E4_U+30FC 1
 62
   179
420
  2234388
370
     9
100
AcDbVertex
100
AcDb2dVertex
 10
97.29568529555804
 20
-119.8684913589218
 30
0.0
  0
SEQEND
  5
57
330
54
100
AcDbEntity
  8
_U+30EC_U+30A4_U+30E4_U+30FC 1
 62
   179
420
  2234388
370
     9
  0
POLYLINE
  5
58
330
47
100
AcDbEntity
  8
_U+30EC_U+30A4_U+30E4_U+30FC 1
 62
   179
420
  2234388
370
     9
100
AcDb2dPolyline
 66
     1
 10
0.0
 20
0.0
 30
0.0
  0
VERTEX
  5
59
330
58
100
AcDbEntity
  8
_U+30EC_U+30A4_U+30E4_U+30FC 1
 62
   179
420
  2234388
370
     9
100
AcDbVertex
100
AcDb2dVertex
 10
94.67190064027415
 20
-117.8400191372067
 30
0.0
  0
VERTEX
  5
5A
330
58
100
AcDbEntity
  8
_U+30EC_U+30A4_U+30E4_U+30FC 1
 62
   179
420
  2234388
370
     9
100
AcDbVertex
100
AcDb2dVertex
 10
94.67190064027415
 20
-123.167316358097
 30
0.0
  0
SEQEND
  5
5B
330
58
100
AcDbEntity
  8
_U+30EC_U+30A4_U+30E4_U+30FC 1
 62
   179
420
  2234388
370
     9
  0
POLYLINE
  5
5C
330
47
100
AcDbEntity
  8
_U+30EC_U+30A4_U+30E4_U+30FC 1
 62
   179
420
  2234388
370
     9
100
AcDb2dPolyline
 66
     1
 10
0.0
 20
0.0
 30
0.0
  0
VERTEX
  5
5D
330
5C
100
AcDbEntity
  8
_U+30EC_U+30A4_U+30E4_U+30FC 1
 62
   179
420
  2234388
370
     9
100
AcDbVertex
100
AcDb2dVertex
 10
83.22867176554857
 20
-117.8400191372067
 30
0.0
  0
VERTEX
  5
5E
330
5C
100
AcDbEntity
  8
_U+30EC_U+30A4_U+30E4_U+30FC 1
 62
   179
420
  2234388
370
     9
100
AcDbVertex
100
AcDb2dVertex
 10
83.22867176554857
 20
-123.4624149691345
 30
0.0
  0
SEQEND
  5
5F
330
5C
100
AcDbEntity
  8
_U+30EC_U+30A4_U+30E4_U+30FC 1
 62
   179
420
  2234388
370
     9
  0
POLYLINE
  5
60
330
47
100
AcDbEntity
  8
_U+30EC_U+30A4_U+30E4_U+30FC 1
 62
   179
420
  2234388
370
     9
100
AcDb2dPolyline
 66
     1
 10
0.0
 20
0.0
 30
0.0
  0
VERTEX
  5
61
330
60
100
AcDbEntity
  8
_U+30EC_U+30A4_U+30E4_U+30FC 1
 62
   179
420
  2234388
370
     9
100
AcDbVertex
100
AcDb2dVertex
 10
78.48822049759868
 20
-122.3379358027489
 30
0.0
  0
VERTEX
  5
62
330
60
100
AcDbEntity
  8
_U+30EC_U+30A4_U+30E4_U+30FC 1
 62
   179
420
  2234388
370
     9
100
AcDbVertex
100
AcDb2dVertex
 10
85.23509532547156
 20
-122.3379358027489
 30
0.0
  0
SEQEND
  5
63
330
60
100
AcDbEntity
  8
_U+30EC_U+30A4_U+30E4_U+30FC 1
 62
   179
420
  2234388
370
     9
  0
POLYLINE
  5
64
330
47
100
AcDbEntity
  8
_U+30EC_U+30A4_U+30E4_U+30FC 1
 62
   179
420
  2234388
370
     9
100
AcDb2dPolyline
 66
     1
 10
0.0
 20
0.0
 30
0.0
  0
VERTEX
  5
65
330
64
100
AcDbEntity
  8
_U+30EC_U+30A4_U+30E4_U+30FC 1
 62
   179
420
  2234388
370
     9
100
AcDbVertex
100
AcDb2dVertex
 10
83.22867176554857
 20
-117.8400191372067
 30
0.0
  0
VERTEX
  5
66
330
64
100
AcDbEntity
  8
_U+30EC_U+30A4_U+30E4_U+30FC 1
 62
   179
420
  2234388
370
     9
100
AcDbVertex
100
AcDb2dVertex
 10
83.22867176554857
 20
-139.425785798477
 30
0.0
  0
SEQEND
  5
67
330
64
100
AcDbEntity
  8
_U+30EC_U+30A4_U+30E4_U+30FC 1
 62
   179
420
  2234388
370
     9
  0
POLYLINE
  5
68
330
47
100
AcDbEntity
  8
_U+30EC_U+30A4_U+30E4_U+30FC 1
 62
   179
420
  2234388
370
     9
100
AcDb2dPolyline
 66
     1
 10
0.0
 20
0.0
 30
0.0
  0
VERTEX
  5
69
330
68
100
AcDbEntity
  8
_U+30EC_U+30A4_U+30E4_U+30FC 1
 62
   179
420
  2234388
370
     9
100
AcDbVertex
100
AcDb2dVertex
 10
80.47259544697305
 20
-117.4651927484115
 30
0.0
  0
VERTEX
  5
6A
330
68
100
AcDbEntity
  8
_U+30EC_U+30A4_U+30E4_U+30FC 1
 62
   179
420
  2234388
370
     9
100
AcDbVertex
100
AcDb2dVertex
 10
80.47259544697305
 20
-138.6320357986754
 30
0.0
  0
SEQEND
  5
6B
330
68
100
AcDbEntity
  8
_U+30EC_U+30A4_U+30E4_U+30FC 1
 62
   179
420
  2234388
370
     9
  0
POLYLINE
  5
6C
330
47
100
AcDbEntity
  8
_U+30EC_U+30A4_U+30E4_U+30FC 1
 62
   179
420
  2234388
370
     9
100
AcDb2dPolyline
 66
     1
 10
0.0
 20
0.0
 30
0.0
  0
VERTEX
  5
6D
330
6C
100
AcDbEntity
  8
_U+30EC_U+30A4_U+30E4_U+30FC 1
 62
   179
420
  2234388
370
     9
100
AcDbVertex
100
AcDb2dVertex
 10
85.85245642083247
 20
-133.5608552443877
 30
0.0
  0
VERTEX
  5
6E
330
6C
100
AcDbEntity
  8
_U+30EC_U+30A4_U+30E4_U+30FC 1
 62
   179
420
  2234388
370
     9
100
AcDbVertex
100
AcDb2dVertex
 10
85.85245642083247
 20
-139.425785798477
 30
0.0
  0
SEQEND
  5
6F
330
6C
100
AcDbEntity
  8
_U+30EC_U+30A4_U+30E4_U+30FC 1
 62
   179
420
  2234388
370
     9
  0
POLYLINE
  5
70
330
47
100
AcDbEntity
  8
_U+30EC_U+30A4_U+30E4_U+30FC 1
 62
   179
420
  2234388
370
     9
100
AcDb2dPolyline
 66
     1
 10
0.0
 20
0.0
 30
0.0
  0
VERTEX
  5
71
330
70
100
AcDbEntity
  8
_U+30EC_U+30A4_U+30E4_U+30FC 1
 62
   179
420
  2234388
370
     9
100
AcDbVertex
100
AcDb2dVertex
 10
85.01460921998552
 20
-133.7372441332325
 30
0.0
  0
VERTEX
  5
72
330
70
100
AcDbEntity
  8
_U+30EC_U+30A4_U+30E4_U+30FC 1
 62
   179
420
  2234388
370
     9
100
AcDbVertex
100
AcDb2dVertex
 10
78.55436632924449
 20
-133.7372441332325
 30
0.0
  0
SEQEND
  5
73
330
70
100
AcDbEntity
  8
_U+30EC_U+30A4_U+30E4_U+30FC 1
 62
   179
420
  2234388
370
     9
  0
POLYLINE
  5
74
330
47
100
AcDbEntity
  8
_U+30EC_U+30A4_U+30E4_U+30FC 1
 62
   179
420
  2234388
370
     9
100
AcDb2dPolyline
 66
     1
 10
0.0
 20
0.0
 30
0.0
  0
VERTEX
  5
75
330
74
100
AcDbEntity
  8
_U+30EC_U+30A4_U+30E4_U+30FC 1
 62
   179
420
  2234388
370
     9
100
AcDbVertex
100
AcDb2dVertex
 10
90.74724796262261
 20
-137.4193621878675
 30
0.0
  0
VERTEX
  5
76
330
74
100
AcDbEntity
  8
_U+30EC_U+30A4_U+30E4_U+30FC 1
 62
   179
420
  2234388
370
     9
100
AcDbVertex
100
AcDb2dVertex
 10
78.37797744485566
 20
-137.4193621878675
 30
0.0
  0
SEQEND
  5
77
330
74
100
AcDbEntity
  8
_U+30EC_U+30A4_U+30E4_U+30FC 1
 62
   179
420
  2234388
370
     9
  0
SPLINE
  5
78
330
47
100
AcDbEntity
  8
_U+30EC_U+30A4_U+30E4_U+30FC 1
 62
   179
420
  2234388
370
     9
100
AcDbSpline
210
0.0
220
0.0
230
1.0
 70
    11
 71
     3
 72
    17
 73
    13
 74
     0
 42
0.0000000001
 43
0.0000000001
 12
1.0
 22
0.0
 32
0.0
 13
1.0
 23
0.0
 33
0.0
 40
0.0
 40
0.0
 40
0.0
 40
0.0
 40
1.0
 40
1.0
 40
1.0
 40
2.0
 40
2.0
 40
2.0
 40
3.0
 40
3.0
 40
3.0
 40
4.0
 40
4.0
 40
4.0
 40
4.0
 10
83.34046704047422
 20
-137.4310744100867
 30
0.0
 10
83.34046704047422
 20
-137.4861782989616
 30
0.0
 10
83.29569954161633
 20
-137.5309810767284
 30
0.0
 10
83.24056037635638
 20
-137.5309810767284
 30
0.0
 10
83.18528009998892
 20
-137.5309810767284
 30
0.0
 10
83.14047732335416
 20
-137.4861782989616
 30
0.0
 10
83.14047732335416
 20
-137.4310744100867
 30
0.0
 10
83.14047732335416
 20
-137.3759352434336
 30
0.0
 10
83.18528009998892
 20
-137.3311677434451
 30
0.0
 10
83.24056037635638
 20
-137.3311677434451
 30
0.0
 10
83.29569954161633
 20
-137.3311677434451
 30
0.0
 10
83.34046704047422
 20
-137.3759352434336
 30
0.0
 10
83.34046704047422
 20
-137.4310744100867
 30
0.0
  0
HATCH
  5
79
330
47
100
AcDbEntity
  8
_U+30EC_U+30A4_U+30E4_U+30FC 1
 62
   179
420
  2234388
100
AcDbHatch
 10
0.0
 20
0.0
 30
0.0
210
0.0
220
0.0
230
1.0
  2
SOLID
 70
     1
 71
     0
 91
        1
 92
        1
 93
        1
 72
     4
 94
        3
 73
     0
 74
     1
 95
       17
 96
       13
 40
0.0
 40
0.0
 40
0.0
 40
0.0
 40
1.0
 40
1.0
 40
1.0
 40
2.0
 40
2.0
 40
2.0
 40
3.0
 40
3.0
 40
3.0
 40
4.0
 40
4.0
 40
4.0
 40
4.0
 10
83.34046704047422
 20
-137.4310744100867
 10
83.34046704047422
 20
-137.4861782989616
 10
83.29569954161633
 20
-137.5309810767284
 10
83.24056037635638
 20
-137.5309810767284
 10
83.18528009998892
 20
-137.5309810767284
 10
83.14047732335416
 20
-137.4861782989616
 10
83.14047732335416
 20
-137.4310744100867
 10
83.14047732335416
 20
-137.3759352434336
 10
83.18528009998892
 20
-137.3311677434451
 10
83.24056037635638
 20
-137.3311677434451
 10
83.29569954161633
 20
-137.3311677434451
 10
83.34046704047422
 20
-137.3759352434336
 10
83.34046704047422
 20
-137.4310744100867
 97
        0
 97
        0
 75
     2
 76
     1
 98
        0
  0
SPLINE
  5
7A
330
47
100
AcDbEntity
  8
_U+30EC_U+30A4_U+30E4_U+30FC 1
 62
   179
420
  2234388
370
     9
100
AcDbSpline
210
0.0
220
0.0
230
1.0
 70
    11
 71
     3
 72
    17
 73
    13
 74
     0
 42
0.0000000001
 43
0.0000000001
 12
1.0
 22
0.0
 32
0.0
 13
1.0
 23
0.0
 33
0.0
 40
0.0
 40
0.0
 40
0.0
 40
0.0
 40
1.0
 40
1.0
 40
1.0
 40
2.0
 40
2.0
 40
2.0
 40
3.0
 40
3.0
 40
3.0
 40
4.0
 40
4.0
 40
4.0
 40
4.0
 10
83.34046704047422
 20
-119.8581549700355
 30
0.0
 10
83.34046704047422
 20
-119.9134352477993
 30
0.0
 10
83.29569954161633
 20
-119.958238025566
 30
0.0
 10
83.24056037635638
 20
-119.958238025566
 30
0.0
 10
83.18528009998892
 20
-119.958238025566
 30
0.0
 10
83.14047732335416
 20
-119.9134352477993
 30
0.0
 10
83.14047732335416
 20
-119.8581549700355
 30
0.0
 10
83.14047732335416
 20
-119.8030158033827
 30
0.0
 10
83.18528009998892
 20
-119.7582483033938
 30
0.0
 10
83.24056037635638
 20
-119.7582483033938
 30
0.0
 10
83.29569954161633
 20
-119.7582483033938
 30
0.0
 10
83.34046704047422
 20
-119.8030158033827
 30
0.0
 10
83.34046704047422
 20
-119.8581549700355
 30
0.0
  0
HATCH
  5
7B
330
47
100
AcDbEntity
  8
_U+30EC_U+30A4_U+30E4_U+30FC 1
 62
   179
420
  2234388
100
AcDbHatch
 10
0.0
 20
0.0
 30
0.0
210
0.0
220
0.0
230
1.0
  2
SOLID
 70
     1
 71
     0
 91
        1
 92
        1
 93
        1
 72
     4
 94
        3
 73
     0
 74
     1
 95
       17
 96
       13
 40
0.0
 40
0.0
 40
0.0
 40
0.0
 40
1.0
 40
1.0
 40
1.0
 40
2.0
 40
2.0
 40
2.0
 40
3.0
 40
3.0
 40
3.0
 40
4.0
 40
4.0
 40
4.0
 40
4.0
 10
83.34046704047422
 20
-119.8581549700355
 10
83.34046704047422
 20
-119.9134352477993
 10
83.29569954161633
 20
-119.958238025566
 10
83.24056037635638
 20
-119.958238025566
 10
83.18528009998892
 20
-119.958238025566
 10
83.14047732335416
 20
-119.9134352477993
 10
83.14047732335416
 20
-119.8581549700355
 10
83.14047732335416
 20
-119.8030158033827
 10
83.18528009998892
 20
-119.7582483033938
 10
83.24056037635638
 20
-119.7582483033938
 10
83.29569954161633
 20
-119.7582483033938
 10
83.34046704047422
 20
-119.8030158033827
 10
83.34046704047422
 20
-119.8581549700355
 97
        0
 97
        0
 75
     2
 76
     1
 98
        0
  0
SPLINE
  5
7C
330
47
100
AcDbEntity
  8
_U+30EC_U+30A4_U+30E4_U+30FC 1
 62
   179
420
  2234388
370
     9
100
AcDbSpline
210
0.0
220
0.0
230
1.0
 70
    11
 71
     3
 72
    17
 73
    13
 74
     0
 42
0.0000000001
 43
0.0000000001
 12
1.0
 22
0.0
 32
0.0
 13
1.0
 23
0.0
 33
0.0
 40
0.0
 40
0.0
 40
0.0
 40
0.0
 40
1.0
 40
1.0
 40
1.0
 40
2.0
 40
2.0
 40
2.0
 40
3.0
 40
3.0
 40
3.0
 40
4.0
 40
4.0
 40
4.0
 40
4.0
 10
94.76147091576681
 20
-119.8581549700355
 30
0.0
 10
94.76147091576681
 20
-119.9134352477993
 30
0.0
 10
94.71670341690891
 20
-119.958238025566
 30
0.0
 10
94.6615666430014
 20
-119.958238025566
 30
0.0
 10
94.6064603641659
 20
-119.958238025566
 30
0.0
 10
94.56165758753113
 20
-119.9134352477993
 30
0.0
 10
94.56165758753113
 20
-119.8581549700355
 30
0.0
 10
94.56165758753113
 20
-119.8030158033827
 30
0.0
 10
94.6064603641659
 20
-119.7582483033938
 30
0.0
 10
94.6615666430014
 20
-119.7582483033938
 30
0.0
 10
94.71670341690891
 20
-119.7582483033938
 30
0.0
 10
94.76147091576681
 20
-119.8030158033827
 30
0.0
 10
94.76147091576681
 20
-119.8581549700355
 30
0.0
  0
HATCH
  5
7D
330
47
100
AcDbEntity
  8
_U+30EC_U+30A4_U+30E4_U+30FC 1
 62
   179
420
  2234388
100
AcDbHatch
 10
0.0
 20
0.0
 30
0.0
210
0.0
220
0.0
230
1.0
  2
SOLID
 70
     1
 71
     0
 91
        1
 92
        1
 93
        1
 72
     4
 94
        3
 73
     0
 74
     1
 95
       17
 96
       13
 40
0.0
 40
0.0
 40
0.0
 40
0.0
 40
1.0
 40
1.0
 40
1.0
 40
2.0
 40
2.0
 40
2.0
 40
3.0
 40
3.0
 40
3.0
 40
4.0
 40
4.0
 40
4.0
 40
4.0
 10
94.76147091576681
 20
-119.8581549700355
 10
94.76147091576681
 20
-119.9134352477993
 10
94.71670341690891
 20
-119.958238025566
 10
94.6615666430014
 20
-119.958238025566
 10
94.6064603641659
 20
-119.958238025566
 10
94.56165758753113
 20
-119.9134352477993
 10
94.56165758753113
 20
-119.8581549700355
 10
94.56165758753113
 20
-119.8030158033827
 10
94.6064603641659
 20
-119.7582483033938
 10
94.6615666430014
 20
-119.7582483033938
 10
94.71670341690891
 20
-119.7582483033938
 10
94.76147091576681
 20
-119.8030158033827
 10
94.76147091576681
 20
-119.8581549700355
 97
        0
 97
        0
 75
     2
 76
     1
 98
        0
  0
SPLINE
  5
7E
330
47
100
AcDbEntity
  8
_U+30EC_U+30A4_U+30E4_U+30FC 1
 62
   179
420
  2234388
370
     9
100
AcDbSpline
210
0.0
220
0.0
230
1.0
 70
    11
 71
     3
 72
    17
 73
    13
 74
     0
 42
0.0000000001
 43
0.0000000001
 12
1.0
 22
0.0
 32
0.0
 13
1.0
 23
0.0
 33
0.0
 40
0.0
 40
0.0
 40
0.0
 40
0.0
 40
1.0
 40
1.0
 40
1.0
 40
2.0
 40
2.0
 40
2.0
 40
3.0
 40
3.0
 40
3.0
 40
4.0
 40
4.0
 40
4.0
 40
4.0
 10
80.5843907218987
 20
-122.3716966360738
 30
0.0
 10
80.5843907218987
 20
-122.4269769138375
 30
0.0
 10
80.5396232230408
 20
-122.4717796916043
 30
0.0
 10
80.48448609099015
 20
-122.4717796916043
 30
0.0
 10
80.42920378141339
 20
-122.4717796916043
 30
0.0
 10
80.38440100477864
 20
-122.4269769138375
 30
0.0
 10
80.38440100477864
 20
-122.3716966360738
 30
0.0
 10
80.38440100477864
 20
-122.316557469421
 30
0.0
 10
80.42920378141339
 20
-122.2717899694321
 30
0.0
 10
80.48448609099015
 20
-122.2717899694321
 30
0.0
 10
80.5396232230408
 20
-122.2717899694321
 30
0.0
 10
80.5843907218987
 20
-122.316557469421
 30
0.0
 10
80.5843907218987
 20
-122.3716966360738
 30
0.0
  0
HATCH
  5
7F
330
47
100
AcDbEntity
  8
_U+30EC_U+30A4_U+30E4_U+30FC 1
 62
   179
420
  2234388
100
AcDbHatch
 10
0.0
 20
0.0
 30
0.0
210
0.0
220
0.0
230
1.0
  2
SOLID
 70
     1
 71
     0
 91
        1
 92
        1
 93
        1
 72
     4
 94
        3
 73
     0
 74
     1
 95
       17
 96
       13
 40
0.0
 40
0.0
 40
0.0
 40
0.0
 40
1.0
 40
1.0
 40
1.0
 40
2.0
 40
2.0
 40
2.0
 40
3.0
 40
3.0
 40
3.0
 40
4.0
 40
4.0
 40
4.0
 40
4.0
 10
80.5843907218987
 20
-122.3716966360738
 10
80.5843907218987
 20
-122.4269769138375
 10
80.5396232230408
 20
-122.4717796916043
 10
80.48448609099015
 20
-122.4717796916043
 10
80.42920378141339
 20
-122.4717796916043
 10
80.38440100477864
 20
-122.4269769138375
 10
80.38440100477864
 20
-122.3716966360738
 10
80.38440100477864
 20
-122.316557469421
 10
80.42920378141339
 20
-122.2717899694321
 10
80.48448609099015
 20
-122.2717899694321
 10
80.5396232230408
 20
-122.2717899694321
 10
80.5843907218987
 20
-122.316557469421
 10
80.5843907218987
 20
-122.3716966360738
 97
        0
 97
        0
 75
     2
 76
     1
 98
        0
  0
SPLINE
  5
80
330
47
100
AcDbEntity
  8
_U+30EC_U+30A4_U+30E4_U+30FC 1
 62
   179
420
  2234388
370
     9
100
AcDbSpline
210
0.0
220
0.0
230
1.0
 70
    11
 71
     3
 72
    17
 73
    13
 74
     0
 42
0.0000000001
 43
0.0000000001
 12
1.0
 22
0.0
 32
0.0
 13
1.0
 23
0.0
 33
0.0
 40
0.0
 40
0.0
 40
0.0
 40
0.0
 40
1.0
 40
1.0
 40
1.0
 40
2.0
 40
2.0
 40
2.0
 40
3.0
 40
3.0
 40
3.0
 40
4.0
 40
4.0
 40
4.0
 40
4.0
 10
80.5843907218987
 20
-133.7489563554517
 30
0.0
 10
80.5843907218987
 20
-133.8040602443266
 30
0.0
 10
80.5396232230408
 20
-133.8488630220933
 30
0.0
 10
80.48448609099015
 20
-133.8488630220933
 30
0.0
 10
80.42920378141339
 20
-133.8488630220933
 30
0.0
 10
80.38440100477864
 20
-133.8040602443266
 30
0.0
 10
80.38440100477864
 20
-133.7489563554517
 30
0.0
 10
80.38440100477864
 20
-133.6938171887986
 30
0.0
 10
80.42920378141339
 20
-133.6490496888101
 30
0.0
 10
80.48448609099015
 20
-133.6490496888101
 30
0.0
 10
80.5396232230408
 20
-133.6490496888101
 30
0.0
 10
80.5843907218987
 20
-133.6938171887986
 30
0.0
 10
80.5843907218987
 20
-133.7489563554517
 30
0.0
  0
HATCH
  5
81
330
47
100
AcDbEntity
  8
_U+30EC_U+30A4_U+30E4_U+30FC 1
 62
   179
420
  2234388
100
AcDbHatch
 10
0.0
 20
0.0
 30
0.0
210
0.0
220
0.0
230
1.0
  2
SOLID
 70
     1
 71
     0
 91
        1
 92
        1
 93
        1
 72
     4
 94
        3
 73
     0
 74
     1
 95
       17
 96
       13
 40
0.0
 40
0.0
 40
0.0
 40
0.0
 40
1.0
 40
1.0
 40
1.0
 40
2.0
 40
2.0
 40
2.0
 40
3.0
 40
3.0
 40
3.0
 40
4.0
 40
4.0
 40
4.0
 40
4.0
 10
80.5843907218987
 20
-133.7489563554517
 10
80.5843907218987
 20
-133.8040602443266
 10
80.5396232230408
 20
-133.8488630220933
 10
80.48448609099015
 20
-133.8488630220933
 10
80.42920378141339
 20
-133.8488630220933
 10
80.38440100477864
 20
-133.8040602443266
 10
80.38440100477864
 20
-133.7489563554517
 10
80.38440100477864
 20
-133.6938171887986
 10
80.42920378141339
 20
-133.6490496888101
 10
80.48448609099015
 20
-133.6490496888101
 10
80.5396232230408
 20
-133.6490496888101
 10
80.5843907218987
 20
-133.6938171887986
 10
80.5843907218987
 20
-133.7489563554517
 97
        0
 97
        0
 75
     2
 76
     1
 98
        0
  0
SPLINE
  5
82
330
47
100
AcDbEntity
  8
_U+30EC_U+30A4_U+30E4_U+30FC 1
 62
   179
420
  2234388
370
     9
100
AcDbSpline
210
0.0
220
0.0
230
1.0
 70
    11
 71
     3
 72
    17
 73
    13
 74
     0
 42
0.0000000001
 43
0.0000000001
 12
1.0
 22
0.0
 32
0.0
 13
1.0
 23
0.0
 33
0.0
 40
0.0
 40
0.0
 40
0.0
 40
0.0
 40
1.0
 40
1.0
 40
1.0
 40
2.0
 40
2.0
 40
2.0
 40
3.0
 40
3.0
 40
3.0
 40
4.0
 40
4.0
 40
4.0
 40
4.0
 10
85.96425169575812
 20
-137.4310744100867
 30
0.0
 10
85.96425169575812
 20
-137.4861782989616
 30
0.0
 10
85.91948419690023
 20
-137.5309810767284
 30
0.0
 10
85.8643472007563
 20
-137.5309810767284
 30
0.0
 10
85.80906475527281
 20
-137.5309810767284
 30
0.0
 10
85.76426197863806
 20
-137.4861782989616
 30
0.0
 10
85.76426197863806
 20
-137.4310744100867
 30
0.0
 10
85.76426197863806
 20
-137.3759352434336
 30
0.0
 10
85.80906475527281
 20
-137.3311677434451
 30
0.0
 10
85.8643472007563
 20
-137.3311677434451
 30
0.0
 10
85.91948419690023
 20
-137.3311677434451
 30
0.0
 10
85.96425169575812
 20
-137.3759352434336
 30
0.0
 10
85.96425169575812
 20
-137.4310744100867
 30
0.0
  0
HATCH
  5
83
330
47
100
AcDbEntity
  8
_U+30EC_U+30A4_U+30E4_U+30FC 1
 62
   179
420
  2234388
100
AcDbHatch
 10
0.0
 20
0.0
 30
0.0
210
0.0
220
0.0
230
1.0
  2
SOLID
 70
     1
 71
     0
 91
        1
 92
        1
 93
        1
 72
     4
 94
        3
 73
     0
 74
     1
 95
       17
 96
       13
 40
0.0
 40
0.0
 40
0.0
 40
0.0
 40
1.0
 40
1.0
 40
1.0
 40
2.0
 40
2.0
 40
2.0
 40
3.0
 40
3.0
 40
3.0
 40
4.0
 40
4.0
 40
4.0
 40
4.0
 10
85.96425169575812
 20
-137.4310744100867
 10
85.96425169575812
 20
-137.4861782989616
 10
85.91948419690023
 20
-137.5309810767284
 10
85.8643472007563
 20
-137.5309810767284
 10
85.80906475527281
 20
-137.5309810767284
 10
85.76426197863806
 20
-137.4861782989616
 10
85.76426197863806
 20
-137.4310744100867
 10
85.76426197863806
 20
-137.3759352434336
 10
85.80906475527281
 20
-137.3311677434451
 10
85.8643472007563
 20
-137.3311677434451
 10
85.91948419690023
 20
-137.3311677434451
 10
85.96425169575812
 20
-137.3759352434336
 10
85.96425169575812
 20
-137.4310744100867
 97
        0
 97
        0
 75
     2
 76
     1
 98
        0
  0
INSERT
  5
85
330
47
100
AcDbEntity
  8
_U+30EC_U+30A4_U+30E4_U+30FC 1
100
AcDbBlockReference
  2
block 4
 10
0.0
 20
0.0
 30
0.0
  0
INSERT
  5
8D
330
47
100
AcDbEntity
  8
_U+30EC_U+30A4_U+30E4_U+30FC 1
100
AcDbBlockReference
  2
block 5
 10
0.0
 20
0.0
 30
0.0
  0
INSERT
  5
95
330
47
100
AcDbEntity
  8
_U+30EC_U+30A4_U+30E4_U+30FC 1
100
AcDbBlockReference
  2
block 6
 10
0.0
 20
0.0
 30
0.0
  0
INSERT
  5
9D
330
47
100
AcDbEntity
  8
_U+30EC_U+30A4_U+30E4_U+30FC 1
100
AcDbBlockReference
  2
block 7
 10
0.0
 20
0.0
 30
0.0
  0
POLYLINE
  5
B7
330
47
100
AcDbEntity
  8
_U+30EC_U+30A4_U+30E4_U+30FC 1
 62
   179
420
  2234388
370
     9
100
AcDb2dPolyline
 66
     1
 10
0.0
 20
0.0
 30
0.0
  0
VERTEX
  5
B8
330
B7
100
AcDbEntity
  8
_U+30EC_U+30A4_U+30E4_U+30FC 1
 62
   179
420
  2234388
370
     9
100
AcDbVertex
100
AcDb2dVertex
 10
85.84660030987077
 20
-127.8337196902638
 30
0.0
  0
VERTEX
  5
B9
330
B7
100
AcDbEntity
  8
_U+30EC_U+30A4_U+30E4_U+30FC 1
 62
   179
420
  2234388
370
     9
100
AcDbVertex
100
AcDb2dVertex
 10
89.73043886645638
 20
-131.7176971892927
 30
0.0
  0
VERTEX
  5
BA
330
B7
100
AcDbEntity
  8
_U+30EC_U+30A4_U+30E4_U+30FC 1
 62
   179
420
  2234388
370
     9
100
AcDbVertex
100
AcDb2dVertex
 10
102.5770154385979
 20
-131.7176971892927
 30
0.0
  0
SEQEND
  5
BB
330
B7
100
AcDbEntity
  8
_U+30EC_U+30A4_U+30E4_U+30FC 1
 62
   179
420
  2234388
370
     9
  0
ENDBLK
  5
4A
330
47
100
AcDbEntity
  8
0
100
AcDbBlockEnd
  0
BLOCK
  5
86
330
84
100
AcDbEntity
  8
0
100
AcDbBlockBegin
  2
block 4
 70
     0
 10
0.0
 20
0.0
 30
0.0
  3
block 4
  1

  0
SPLINE
  5
88
330
84
100
AcDbEntity
  8
_U+30EC_U+30A4_U+30E4_U+30FC 1
370
     0
100
AcDbSpline
210
0.0
220
0.0
230
1.0
 70
    11
 71
     3
 72
    62
 73
    58
 74
     0
 42
0.0000000001
 43
0.0000000001
 12
1.0
 22
0.0
 32
0.0
 13
1.0
 23
0.0
 33
0.0
 40
0.0
 40
0.0
 40
0.0
 40
0.0
 40
1.0
 40
1.0
 40
1.0
 40
2.0
 40
2.0
 40
2.0
 40
3.0
 40
3.0
 40
3.0
 40
4.0
 40
4.0
 40
4.0
 40
5.0
 40
5.0
 40
5.0
 40
6.0
 40
6.0
 40
6.0
 40
7.0
 40
7.0
 40
7.0
 40
8.0
 40
8.0
 40
8.0
 40
9.0
 40
9.0
 40
9.0
 40
10.0
 40
10.0
 40
10.0
 40
11.0
 40
11.0
 40
11.0
 40
12.0
 40
12.0
 40
12.0
 40
13.0
 40
13.0
 40
13.0
 40
14.0
 40
14.0
 40
14.0
 40
15.0
 40
15.0
 40
15.0
 40
16.0
 40
16.0
 40
16.0
 40
17.0
 40
17.0
 40
17.0
 40
18.0
 40
18.0
 40
18.0
 40
19.0
 40
19.0
 40
19.0
 40
19.0
 10
88.3530910694916
 20
-119.3901285508816
 30
0.0
 10
88.25783417932443
 20
-119.3901285508816
 30
0.0
 10
88.03993188988238
 20
-119.3689412136473
 30
0.0
 10
87.91521943331634
 20
-119.1827338026696
 30
0.0
 10
87.84114988038347
 20
-119.0705959446247
 30
0.0
 10
87.8368435110269
 20
-118.9712049398753
 30
0.0
 10
87.8327093964446
 20
-118.8866278457124
 30
0.0
 10
87.8327093964446
 20
-118.8866278457124
 30
0.0
 10
88.05267874317781
 20
-118.8866278457124
 30
0.0
 10
88.05267874317781
 20
-118.8866278457124
 30
0.0
 10
88.05474580046895
 20
-118.9606973986453
 30
0.0
 10
88.06542559647323
 20
-119.195480655965
 30
0.0
 10
88.34878470013503
 20
-119.195480655965
 30
0.0
 10
88.48641626477077
 20
-119.195480655965
 30
0.0
 10
88.6386894852188
 20
-119.1257174723887
 30
0.0
 10
88.6386894852188
 20
-118.8971353869424
 30
0.0
 10
88.6386894852188
 20
-118.7808634143152
 30
0.0
 10
88.6006211801068
 20
-118.7321153131989
 30
0.0
 10
88.56892630164249
 20
-118.7004204347346
 30
0.0
 10
88.49485674870962
 20
-118.6263508818018
 30
0.0
 10
88.37841252130818
 20
-118.6137762832806
 30
0.0
 10
88.32346324831845
 20
-118.6137762832806
 30
0.0
 10
88.30451522314956
 20
-118.6137762832806
 30
0.0
 10
88.2685139753287
 20
-118.6158433405717
 30
0.0
 10
88.24095321144671
 20
-118.619977455154
 30
0.0
 10
88.24095321144671
 20
-118.619977455154
 30
0.0
 10
88.24095321144671
 20
-118.4255018150117
 30
0.0
 10
88.24095321144671
 20
-118.4255018150117
 30
0.0
 10
88.27902151655871
 20
-118.4317029868851
 30
0.0
 10
88.32139619102729
 20
-118.4339422989505
 30
0.0
 10
88.327769617675
 20
-118.4339422989505
 30
0.0
 10
88.39322643189475
 20
-118.4339422989505
 30
0.0
 10
88.59218069616793
 20
-118.4127549617163
 30
0.0
 10
88.59218069616793
 20
-118.1757323923311
 30
0.0
 10
88.59218069616793
 20
-117.9981377200664
 30
0.0
 10
88.46092255817992
 20
-117.9430161923025
 30
0.0
 10
88.35102401220044
 20
-117.9430161923025
 30
0.0
 10
88.08661293370751
 20
-117.9430161923025
 30
0.0
 10
88.07800019499439
 20
-118.1757323923311
 30
0.0
 10
88.07386608041209
 20
-118.2477348879728
 30
0.0
 10
88.07386608041209
 20
-118.2477348879728
 30
0.0
 10
87.87077770155662
 20
-118.2477348879728
 30
0.0
 10
87.87077770155662
 20
-118.2477348879728
 30
0.0
 10
87.87921818549547
 20
-118.1228501766325
 30
0.0
 10
87.90677894937748
 20
-117.7463012400947
 30
0.0
 10
88.36359861072161
 20
-117.7463012400947
 30
0.0
 10
88.58787432681137
 20
-117.7463012400947
 30
0.0
 10
88.82903101077886
 20
-117.8732530087261
 30
0.0
 10
88.82903101077886
 20
-118.1693589656834
 30
0.0
 10
88.82903101077886
 20
-118.3555663766611
 30
0.0
 10
88.73394637538597
 20
-118.4380764135328
 30
0.0
 10
88.63438311586224
 20
-118.4993991131703
 30
0.0
 10
88.69587807027395
 20
-118.5269598770523
 30
0.0
 10
88.87777911189514
 20
-118.6074028566329
 30
0.0
 10
88.87777911189514
 20
-118.8845607884212
 30
0.0
 10
88.87777911189514
 20
-119.223041419847
 30
0.0
 10
88.63024900127994
 20
-119.3901285508816
 30
0.0
 10
88.3530910694916
 20
-119.3901285508816
 30
0.0
  0
HATCH
  5
89
330
84
100
AcDbEntity
  8
_U+30EC_U+30A4_U+30E4_U+30FC 1
 62
   179
420
  2234388
100
AcDbHatch
 10
0.0
 20
0.0
 30
0.0
210
0.0
220
0.0
230
1.0
  2
SOLID
 70
     1
 71
     0
 91
        1
 92
        1
 93
        1
 72
     4
 94
        3
 73
     0
 74
     1
 95
       62
 96
       58
 40
0.0
 40
0.0
 40
0.0
 40
0.0
 40
1.0
 40
1.0
 40
1.0
 40
2.0
 40
2.0
 40
2.0
 40
3.0
 40
3.0
 40
3.0
 40
4.0
 40
4.0
 40
4.0
 40
5.0
 40
5.0
 40
5.0
 40
6.0
 40
6.0
 40
6.0
 40
7.0
 40
7.0
 40
7.0
 40
8.0
 40
8.0
 40
8.0
 40
9.0
 40
9.0
 40
9.0
 40
10.0
 40
10.0
 40
10.0
 40
11.0
 40
11.0
 40
11.0
 40
12.0
 40
12.0
 40
12.0
 40
13.0
 40
13.0
 40
13.0
 40
14.0
 40
14.0
 40
14.0
 40
15.0
 40
15.0
 40
15.0
 40
16.0
 40
16.0
 40
16.0
 40
17.0
 40
17.0
 40
17.0
 40
18.0
 40
18.0
 40
18.0
 40
19.0
 40
19.0
 40
19.0
 40
19.0
 10
88.3530910694916
 20
-119.3901285508816
 10
88.25783417932443
 20
-119.3901285508816
 10
88.03993188988238
 20
-119.3689412136473
 10
87.91521943331634
 20
-119.1827338026696
 10
87.84114988038347
 20
-119.0705959446247
 10
87.8368435110269
 20
-118.9712049398753
 10
87.8327093964446
 20
-118.8866278457124
 10
87.8327093964446
 20
-118.8866278457124
 10
88.05267874317781
 20
-118.8866278457124
 10
88.05267874317781
 20
-118.8866278457124
 10
88.05474580046895
 20
-118.9606973986453
 10
88.06542559647323
 20
-119.195480655965
 10
88.34878470013503
 20
-119.195480655965
 10
88.48641626477077
 20
-119.195480655965
 10
88.6386894852188
 20
-119.1257174723887
 10
88.6386894852188
 20
-118.8971353869424
 10
88.6386894852188
 20
-118.7808634143152
 10
88.6006211801068
 20
-118.7321153131989
 10
88.56892630164249
 20
-118.7004204347346
 10
88.49485674870962
 20
-118.6263508818018
 10
88.37841252130818
 20
-118.6137762832806
 10
88.32346324831845
 20
-118.6137762832806
 10
88.30451522314956
 20
-118.6137762832806
 10
88.2685139753287
 20
-118.6158433405717
 10
88.24095321144671
 20
-118.619977455154
 10
88.24095321144671
 20
-118.619977455154
 10
88.24095321144671
 20
-118.4255018150117
 10
88.24095321144671
 20
-118.4255018150117
 10
88.27902151655871
 20
-118.4317029868851
 10
88.32139619102729
 20
-118.4339422989505
 10
88.327769617675
 20
-118.4339422989505
 10
88.39322643189475
 20
-118.4339422989505
 10
88.59218069616793
 20
-118.4127549617163
 10
88.59218069616793
 20
-118.1757323923311
 10
88.59218069616793
 20
-117.9981377200664
 10
88.46092255817992
 20
-117.9430161923025
 10
88.35102401220044
 20
-117.9430161923025
 10
88.08661293370751
 20
-117.9430161923025
 10
88.07800019499439
 20
-118.1757323923311
 10
88.07386608041209
 20
-118.2477348879728
 10
88.07386608041209
 20
-118.2477348879728
 10
87.87077770155662
 20
-118.2477348879728
 10
87.87077770155662
 20
-118.2477348879728
 10
87.87921818549547
 20
-118.1228501766325
 10
87.90677894937748
 20
-117.7463012400947
 10
88.36359861072161
 20
-117.7463012400947
 10
88.58787432681137
 20
-117.7463012400947
 10
88.82903101077886
 20
-117.8732530087261
 10
88.82903101077886
 20
-118.1693589656834
 10
88.82903101077886
 20
-118.3555663766611
 10
88.73394637538597
 20
-118.4380764135328
 10
88.63438311586224
 20
-118.4993991131703
 10
88.69587807027395
 20
-118.5269598770523
 10
88.87777911189514
 20
-118.6074028566329
 10
88.87777911189514
 20
-118.8845607884212
 10
88.87777911189514
 20
-119.223041419847
 10
88.63024900127994
 20
-119.3901285508816
 10
88.3530910694916
 20
-119.3901285508816
 97
        0
 97
        0
 75
     2
 76
     1
 98
        0
  0
SPLINE
  5
8A
330
84
100
AcDbEntity
  8
_U+30EC_U+30A4_U+30E4_U+30FC 1
370
     0
100
AcDbSpline
210
0.0
220
0.0
230
1.0
 70
    11
 71
     3
 72
    53
 73
    49
 74
     0
 42
0.0000000001
 43
0.0000000001
 12
1.0
 22
0.0
 32
0.0
 13
1.0
 23
0.0
 33
0.0
 40
0.0
 40
0.0
 40
0.0
 40
0.0
 40
1.0
 40
1.0
 40
1.0
 40
2.0
 40
2.0
 40
2.0
 40
3.0
 40
3.0
 40
3.0
 40
4.0
 40
4.0
 40
4.0
 40
5.0
 40
5.0
 40
5.0
 40
6.0
 40
6.0
 40
6.0
 40
7.0
 40
7.0
 40
7.0
 40
8.0
 40
8.0
 40
8.0
 40
9.0
 40
9.0
 40
9.0
 40
10.0
 40
10.0
 40
10.0
 40
11.0
 40
11.0
 40
11.0
 40
12.0
 40
12.0
 40
12.0
 40
13.0
 40
13.0
 40
13.0
 40
14.0
 40
14.0
 40
14.0
 40
15.0
 40
15.0
 40
15.0
 40
16.0
 40
16.0
 40
16.0
 40
16.0
 10
89.51942814602292
 20
-119.3901285508816
 30
0.0
 10
89.4410522237335
 20
-119.3901285508816
 30
0.0
 10
89.33959416169289
 20
-119.3732475830039
 30
0.0
 10
89.23796384487801
 20
-119.3096855713011
 30
0.0
 10
89.06450328719568
 20
-119.1996147705473
 30
0.0
 10
89.0433159499614
 20
-119.0685288873336
 30
0.0
 10
89.02436792479253
 20
-118.9606973986453
 30
0.0
 10
89.02436792479253
 20
-118.9606973986453
 30
0.0
 10
89.24640432881688
 20
-118.9606973986453
 30
0.0
 10
89.24640432881688
 20
-118.9606973986453
 30
0.0
 10
89.30152585658087
 20
-119.1594794081442
 30
0.0
 10
89.42847762521232
 20
-119.1891072293173
 30
0.0
 10
89.52149520331407
 20
-119.1891072293173
 30
0.0
 10
89.66102157046669
 20
-119.1891072293173
 30
0.0
 10
89.813467045689
 20
-119.0897162245679
 30
0.0
 10
89.813467045689
 20
-118.8570000245392
 30
0.0
 10
89.813467045689
 20
-118.6010294299852
 30
0.0
 10
89.63363306135896
 20
-118.5312662464089
 30
0.0
 10
89.51305471937522
 20
-118.5312662464089
 30
0.0
 10
89.48135984091091
 20
-118.5312662464089
 30
0.0
 10
89.33959416169289
 20
-118.5312662464089
 30
0.0
 10
89.25071069817344
 20
-118.6602850723315
 30
0.0
 10
89.25071069817344
 20
-118.6602850723315
 30
0.0
 10
89.07518308319996
 20
-118.6411647923883
 30
0.0
 10
89.07518308319996
 20
-118.6411647923883
 30
0.0
 10
89.07518308319996
 20
-118.6411647923883
 30
0.0
 10
89.1957614251837
 20
-117.795049341211
 30
0.0
 10
89.1957614251837
 20
-117.795049341211
 30
0.0
 10
89.1957614251837
 20
-117.795049341211
 30
0.0
 10
89.9741807500759
 20
-117.795049341211
 30
0.0
 10
89.9741807500759
 20
-117.795049341211
 30
0.0
 10
89.9741807500759
 20
-117.795049341211
 30
0.0
 10
89.9741807500759
 20
-117.9896972361276
 30
0.0
 10
89.9741807500759
 20
-117.9896972361276
 30
0.0
 10
89.9741807500759
 20
-117.9896972361276
 30
0.0
 10
89.35854218686175
 20
-117.9896972361276
 30
0.0
 10
89.35854218686175
 20
-117.9896972361276
 30
0.0
 10
89.35854218686175
 20
-117.9896972361276
 30
0.0
 10
89.29308537264201
 20
-118.4127549617163
 30
0.0
 10
89.29308537264201
 20
-118.4127549617163
 30
0.0
 10
89.35440807227945
 20
-118.3788207711866
 30
0.0
 10
89.4369181091512
 20
-118.3386854087834
 30
0.0
 10
89.55525713906952
 20
-118.3386854087834
 30
0.0
 10
89.80916067633244
 20
-118.3386854087834
 30
0.0
 10
90.04618324571763
 20
-118.5248928197611
 30
0.0
 10
90.04618324571763
 20
-118.8378797445961
 30
0.0
 10
90.04618324571763
 20
-119.1553452935619
 30
0.0
 10
89.82190752962786
 20
-119.3901285508816
 30
0.0
 10
89.51942814602292
 20
-119.3901285508816
 30
0.0
  0
HATCH
  5
8B
330
84
100
AcDbEntity
  8
_U+30EC_U+30A4_U+30E4_U+30FC 1
 62
   179
420
  2234388
100
AcDbHatch
 10
0.0
 20
0.0
 30
0.0
210
0.0
220
0.0
230
1.0
  2
SOLID
 70
     1
 71
     0
 91
        1
 92
        1
 93
        1
 72
     4
 94
        3
 73
     0
 74
     1
 95
       53
 96
       49
 40
0.0
 40
0.0
 40
0.0
 40
0.0
 40
1.0
 40
1.0
 40
1.0
 40
2.0
 40
2.0
 40
2.0
 40
3.0
 40
3.0
 40
3.0
 40
4.0
 40
4.0
 40
4.0
 40
5.0
 40
5.0
 40
5.0
 40
6.0
 40
6.0
 40
6.0
 40
7.0
 40
7.0
 40
7.0
 40
8.0
 40
8.0
 40
8.0
 40
9.0
 40
9.0
 40
9.0
 40
10.0
 40
10.0
 40
10.0
 40
11.0
 40
11.0
 40
11.0
 40
12.0
 40
12.0
 40
12.0
 40
13.0
 40
13.0
 40
13.0
 40
14.0
 40
14.0
 40
14.0
 40
15.0
 40
15.0
 40
15.0
 40
16.0
 40
16.0
 40
16.0
 40
16.0
 10
89.51942814602292
 20
-119.3901285508816
 10
89.4410522237335
 20
-119.3901285508816
 10
89.33959416169289
 20
-119.3732475830039
 10
89.23796384487801
 20
-119.3096855713011
 10
89.06450328719568
 20
-119.1996147705473
 10
89.0433159499614
 20
-119.0685288873336
 10
89.02436792479253
 20
-118.9606973986453
 10
89.02436792479253
 20
-118.9606973986453
 10
89.24640432881688
 20
-118.9606973986453
 10
89.24640432881688
 20
-118.9606973986453
 10
89.30152585658087
 20
-119.1594794081442
 10
89.42847762521232
 20
-119.1891072293173
 10
89.52149520331407
 20
-119.1891072293173
 10
89.66102157046669
 20
-119.1891072293173
 10
89.813467045689
 20
-119.0897162245679
 10
89.813467045689
 20
-118.8570000245392
 10
89.813467045689
 20
-118.6010294299852
 10
89.63363306135896
 20
-118.5312662464089
 10
89.51305471937522
 20
-118.5312662464089
 10
89.48135984091091
 20
-118.5312662464089
 10
89.33959416169289
 20
-118.5312662464089
 10
89.25071069817344
 20
-118.6602850723315
 10
89.25071069817344
 20
-118.6602850723315
 10
89.07518308319996
 20
-118.6411647923883
 10
89.07518308319996
 20
-118.6411647923883
 10
89.07518308319996
 20
-118.6411647923883
 10
89.1957614251837
 20
-117.795049341211
 10
89.1957614251837
 20
-117.795049341211
 10
89.1957614251837
 20
-117.795049341211
 10
89.9741807500759
 20
-117.795049341211
 10
89.9741807500759
 20
-117.795049341211
 10
89.9741807500759
 20
-117.795049341211
 10
89.9741807500759
 20
-117.9896972361276
 10
89.9741807500759
 20
-117.9896972361276
 10
89.9741807500759
 20
-117.9896972361276
 10
89.35854218686175
 20
-117.9896972361276
 10
89.35854218686175
 20
-117.9896972361276
 10
89.35854218686175
 20
-117.9896972361276
 10
89.29308537264201
 20
-118.4127549617163
 10
89.29308537264201
 20
-118.4127549617163
 10
89.35440807227945
 20
-118.3788207711866
 10
89.4369181091512
 20
-118.3386854087834
 10
89.55525713906952
 20
-118.3386854087834
 10
89.80916067633244
 20
-118.3386854087834
 10
90.04618324571763
 20
-118.5248928197611
 10
90.04618324571763
 20
-118.8378797445961
 10
90.04618324571763
 20
-119.1553452935619
 10
89.82190752962786
 20
-119.3901285508816
 10
89.51942814602292
 20
-119.3901285508816
 97
        0
 97
        0
 75
     2
 76
     1
 98
        0
  0
ENDBLK
  5
87
330
84
100
AcDbEntity
  8
0
100
AcDbBlockEnd
  0
BLOCK
  5
8E
330
8C
100
AcDbEntity
  8
0
100
AcDbBlockBegin
  2
block 5
 70
     0
 10
0.0
 20
0.0
 30
0.0
  3
block 5
  1

  0
SPLINE
  5
90
330
8C
100
AcDbEntity
  8
_U+30EC_U+30A4_U+30E4_U+30FC 1
370
     0
100
AcDbSpline
210
0.0
220
0.0
230
1.0
 70
    11
 71
     3
 72
    29
 73
    25
 74
     0
 42
0.0000000001
 43
0.0000000001
 12
1.0
 22
0.0
 32
0.0
 13
1.0
 23
0.0
 33
0.0
 40
0.0
 40
0.0
 40
0.0
 40
0.0
 40
1.0
 40
1.0
 40
1.0
 40
2.0
 40
2.0
 40
2.0
 40
3.0
 40
3.0
 40
3.0
 40
4.0
 40
4.0
 40
4.0
 40
5.0
 40
5.0
 40
5.0
 40
6.0
 40
6.0
 40
6.0
 40
7.0
 40
7.0
 40
7.0
 40
8.0
 40
8.0
 40
8.0
 40
8.0
 10
84.54023164119134
 20
-136.7885497704904
 30
0.0
 10
84.27375350540726
 20
-136.7885497704904
 30
0.0
 10
84.01984996814434
 20
-136.6510904606289
 30
0.0
 10
84.01984996814434
 20
-136.3017577784246
 30
0.0
 10
84.01984996814434
 20
-136.046131693419
 30
0.0
 10
84.16161564736238
 20
-135.9507025484776
 30
0.0
 10
84.26738007875954
 20
-135.8893798488402
 30
0.0
 10
84.14249536741924
 20
-135.8301242064939
 30
0.0
 10
84.06635875719522
 20
-135.7160915459321
 30
0.0
 10
84.06635875719522
 20
-135.5552055867709
 30
0.0
 10
84.06635875719522
 20
-135.2799424574995
 30
0.0
 10
84.2653130214684
 20
-135.1448947144777
 30
0.0
 10
84.54023164119134
 20
-135.1448947144777
 30
0.0
 10
84.82376299962739
 20
-135.1448947144777
 30
0.0
 10
85.01410452518745
 20
-135.2885551962126
 30
0.0
 10
85.01410452518745
 20
-135.5552055867709
 30
0.0
 10
85.01410452518745
 20
-135.7160915459321
 30
0.0
 10
84.93590085767228
 20
-135.8301242064939
 30
0.0
 10
84.81101614633197
 20
-135.8893798488402
 30
0.0
 10
84.89989960985142
 20
-135.9400227524733
 30
0.0
 10
85.05854625694717
 20
-136.0354518974148
 30
0.0
 10
85.05854625694717
 20
-136.2976236638423
 30
0.0
 10
85.05854625694717
 20
-136.6721055430889
 30
0.0
 10
84.77932126786767
 20
-136.7885497704904
 30
0.0
 10
84.54023164119134
 20
-136.7885497704904
 30
0.0
  0
SPLINE
  5
91
330
8C
100
AcDbEntity
  8
_U+30EC_U+30A4_U+30E4_U+30FC 1
370
     0
100
AcDbSpline
210
0.0
220
0.0
230
1.0
 70
    11
 71
     3
 72
    17
 73
    13
 74
     0
 42
0.0000000001
 43
0.0000000001
 12
1.0
 22
0.0
 32
0.0
 13
1.0
 23
0.0
 33
0.0
 40
0.0
 40
0.0
 40
0.0
 40
0.0
 40
1.0
 40
1.0
 40
1.0
 40
2.0
 40
2.0
 40
2.0
 40
3.0
 40
3.0
 40
3.0
 40
4.0
 40
4.0
 40
4.0
 40
4.0
 10
84.54023164119134
 20
-135.9972113375285
 30
0.0
 10
84.39639890468216
 20
-135.9972113375285
 30
0.0
 10
84.2441256842341
 20
-136.0840277437568
 30
0.0
 10
84.2441256842341
 20
-136.2872883773865
 30
0.0
 10
84.2441256842341
 20
-136.4922715587589
 30
0.0
 10
84.37107745286556
 20
-136.5939018755737
 30
0.0
 10
84.54023164119134
 20
-136.5939018755737
 30
0.0
 10
84.72643905216908
 20
-136.5939018755737
 30
0.0
 10
84.83650985292282
 20
-136.4712564762989
 30
0.0
 10
84.83650985292282
 20
-136.29348954926
 30
0.0
 10
84.83650985292282
 20
-136.0712808904614
 30
0.0
 10
84.67355683647051
 20
-135.9972113375285
 30
0.0
 10
84.54023164119134
 20
-135.9972113375285
 30
0.0
  0
SPLINE
  5
92
330
8C
100
AcDbEntity
  8
_U+30EC_U+30A4_U+30E4_U+30FC 1
370
     0
100
AcDbSpline
210
0.0
220
0.0
230
1.0
 70
    11
 71
     3
 72
    17
 73
    13
 74
     0
 42
0.0000000001
 43
0.0000000001
 12
1.0
 22
0.0
 32
0.0
 13
1.0
 23
0.0
 33
0.0
 40
0.0
 40
0.0
 40
0.0
 40
0.0
 40
1.0
 40
1.0
 40
1.0
 40
2.0
 40
2.0
 40
2.0
 40
3.0
 40
3.0
 40
3.0
 40
4.0
 40
4.0
 40
4.0
 40
4.0
 10
84.54023164119134
 20
-135.3371310425546
 30
0.0
 10
84.37521156744786
 20
-135.3371310425546
 30
0.0
 10
84.29063447328498
 20
-135.4322156779475
 30
0.0
 10
84.29063447328498
 20
-135.5679524400664
 30
0.0
 10
84.29063447328498
 20
-135.6905978393413
 30
0.0
 10
84.36263696892671
 20
-135.8091091240339
 30
0.0
 10
84.54023164119134
 20
-135.8091091240339
 30
0.0
 10
84.71799856823023
 20
-135.8091091240339
 30
0.0
 10
84.78982880909768
 20
-135.6905978393413
 30
0.0
 10
84.78982880909768
 20
-135.5679524400664
 30
0.0
 10
84.78982880909768
 20
-135.4322156779475
 30
0.0
 10
84.70318465764365
 20
-135.3371310425546
 30
0.0
 10
84.54023164119134
 20
-135.3371310425546
 30
0.0
  0
HATCH
  5
93
330
8C
100
AcDbEntity
  8
_U+30EC_U+30A4_U+30E4_U+30FC 1
 62
   179
420
  2234388
100
AcDbHatch
 10
0.0
 20
0.0
 30
0.0
210
0.0
220
0.0
230
1.0
  2
SOLID
 70
     1
 71
     0
 91
        3
 92
        1
 93
        1
 72
     4
 94
        3
 73
     0
 74
     1
 95
       29
 96
       25
 40
0.0
 40
0.0
 40
0.0
 40
0.0
 40
1.0
 40
1.0
 40
1.0
 40
2.0
 40
2.0
 40
2.0
 40
3.0
 40
3.0
 40
3.0
 40
4.0
 40
4.0
 40
4.0
 40
5.0
 40
5.0
 40
5.0
 40
6.0
 40
6.0
 40
6.0
 40
7.0
 40
7.0
 40
7.0
 40
8.0
 40
8.0
 40
8.0
 40
8.0
 10
84.54023164119134
 20
-136.7885497704904
 10
84.27375350540726
 20
-136.7885497704904
 10
84.01984996814434
 20
-136.6510904606289
 10
84.01984996814434
 20
-136.3017577784246
 10
84.01984996814434
 20
-136.046131693419
 10
84.16161564736238
 20
-135.9507025484776
 10
84.26738007875954
 20
-135.8893798488402
 10
84.14249536741924
 20
-135.8301242064939
 10
84.06635875719522
 20
-135.7160915459321
 10
84.06635875719522
 20
-135.5552055867709
 10
84.06635875719522
 20
-135.2799424574995
 10
84.2653130214684
 20
-135.1448947144777
 10
84.54023164119134
 20
-135.1448947144777
 10
84.82376299962739
 20
-135.1448947144777
 10
85.01410452518745
 20
-135.2885551962126
 10
85.01410452518745
 20
-135.5552055867709
 10
85.01410452518745
 20
-135.7160915459321
 10
84.93590085767228
 20
-135.8301242064939
 10
84.81101614633197
 20
-135.8893798488402
 10
84.89989960985142
 20
-135.9400227524733
 10
85.05854625694717
 20
-136.0354518974148
 10
85.05854625694717
 20
-136.2976236638423
 10
85.05854625694717
 20
-136.6721055430889
 10
84.77932126786767
 20
-136.7885497704904
 10
84.54023164119134
 20
-136.7885497704904
 97
        0
 97
        0
 92
        1
 93
        1
 72
     4
 94
        3
 73
     0
 74
     1
 95
       17
 96
       13
 40
0.0
 40
0.0
 40
0.0
 40
0.0
 40
1.0
 40
1.0
 40
1.0
 40
2.0
 40
2.0
 40
2.0
 40
3.0
 40
3.0
 40
3.0
 40
4.0
 40
4.0
 40
4.0
 40
4.0
 10
84.54023164119134
 20
-135.9972113375285
 10
84.39639890468216
 20
-135.9972113375285
 10
84.2441256842341
 20
-136.0840277437568
 10
84.2441256842341
 20
-136.2872883773865
 10
84.2441256842341
 20
-136.4922715587589
 10
84.37107745286556
 20
-136.5939018755737
 10
84.54023164119134
 20
-136.5939018755737
 10
84.72643905216908
 20
-136.5939018755737
 10
84.83650985292282
 20
-136.4712564762989
 10
84.83650985292282
 20
-136.29348954926
 10
84.83650985292282
 20
-136.0712808904614
 10
84.67355683647051
 20
-135.9972113375285
 10
84.54023164119134
 20
-135.9972113375285
 97
        0
 97
        0
 92
        1
 93
        1
 72
     4
 94
        3
 73
     0
 74
     1
 95
       17
 96
       13
 40
0.0
 40
0.0
 40
0.0
 40
0.0
 40
1.0
 40
1.0
 40
1.0
 40
2.0
 40
2.0
 40
2.0
 40
3.0
 40
3.0
 40
3.0
 40
4.0
 40
4.0
 40
4.0
 40
4.0
 10
84.54023164119134
 20
-135.3371310425546
 10
84.37521156744786
 20
-135.3371310425546
 10
84.29063447328498
 20
-135.4322156779475
 10
84.29063447328498
 20
-135.5679524400664
 10
84.29063447328498
 20
-135.6905978393413
 10
84.36263696892671
 20
-135.8091091240339
 10
84.54023164119134
 20
-135.8091091240339
 10
84.71799856823023
 20
-135.8091091240339
 10
84.78982880909768
 20
-135.6905978393413
 10
84.78982880909768
 20
-135.5679524400664
 10
84.78982880909768
 20
-135.4322156779475
 10
84.70318465764365
 20
-135.3371310425546
 10
84.54023164119134
 20
-135.3371310425546
 97
        0
 97
        0
 75
     2
 76
     1
 98
        0
  0
ENDBLK
  5
8F
330
8C
100
AcDbEntity
  8
0
100
AcDbBlockEnd
  0
BLOCK
  5
96
330
94
100
AcDbEntity
  8
0
100
AcDbBlockBegin
  2
block 6
 70
     0
 10
0.0
 20
0.0
 30
0.0
  3
block 6
  1

  0
SPLINE
  5
98
330
94
100
AcDbEntity
  8
_U+30EC_U+30A4_U+30E4_U+30FC 1
370
     0
100
AcDbSpline
210
0.0
220
0.0
230
1.0
 70
    11
 71
     3
 72
    62
 73
    58
 74
     0
 42
0.0000000001
 43
0.0000000001
 12
1.0
 22
0.0
 32
0.0
 13
1.0
 23
0.0
 33
0.0
 40
0.0
 40
0.0
 40
0.0
 40
0.0
 40
1.0
 40
1.0
 40
1.0
 40
2.0
 40
2.0
 40
2.0
 40
3.0
 40
3.0
 40
3.0
 40
4.0
 40
4.0
 40
4.0
 40
5.0
 40
5.0
 40
5.0
 40
6.0
 40
6.0
 40
6.0
 40
7.0
 40
7.0
 40
7.0
 40
8.0
 40
8.0
 40
8.0
 40
9.0
 40
9.0
 40
9.0
 40
10.0
 40
10.0
 40
10.0
 40
11.0
 40
11.0
 40
11.0
 40
12.0
 40
12.0
 40
12.0
 40
13.0
 40
13.0
 40
13.0
 40
14.0
 40
14.0
 40
14.0
 40
15.0
 40
15.0
 40
15.0
 40
16.0
 40
16.0
 40
16.0
 40
17.0
 40
17.0
 40
17.0
 40
18.0
 40
18.0
 40
18.0
 40
19.0
 40
19.0
 40
19.0
 40
19.0
 10
80.03146292487061
 20
-128.6345255212268
 30
0.0
 10
80.03146292487061
 20
-128.729782411394
 30
0.0
 10
80.01027558763633
 20
-128.9478569556103
 30
0.0
 10
79.82406817665857
 20
-129.0725694121763
 30
0.0
 10
79.71193031861368
 20
-129.1462944555606
 30
0.0
 10
79.61253931386423
 20
-129.1507730796915
 30
0.0
 10
79.52796221970135
 20
-129.1549071942738
 30
0.0
 10
79.52796221970135
 20
-129.1549071942738
 30
0.0
 10
79.52796221970135
 20
-128.9347655927663
 30
0.0
 10
79.52796221970135
 20
-128.9347655927663
 30
0.0
 10
79.60203177263422
 20
-128.9326985354752
 30
0.0
 10
79.836815029954
 20
-128.9223632490194
 30
0.0
 10
79.836815029954
 20
-128.6388318905834
 30
0.0
 10
79.836815029954
 20
-128.5012003259476
 30
0.0
 10
79.76705184637768
 20
-128.3489271054996
 30
0.0
 10
79.53846976093136
 20
-128.3489271054996
 30
0.0
 10
79.42219778830417
 20
-128.3489271054996
 30
0.0
 10
79.37344968718789
 20
-128.3869954106116
 30
0.0
 10
79.34175480872359
 20
-128.4186902890759
 30
0.0
 10
79.26768525579072
 20
-128.4927598420088
 30
0.0
 10
79.25511065726955
 20
-128.6092040694102
 30
0.0
 10
79.25511065726955
 20
-128.6641533423999
 30
0.0
 10
79.25511065726955
 20
-128.6831013675688
 30
0.0
 10
79.25717771456071
 20
-128.7191026153897
 30
0.0
 10
79.26131182914301
 20
-128.7466633792717
 30
0.0
 10
79.26131182914301
 20
-128.7466633792717
 30
0.0
 10
79.06683618900065
 20
-128.7466633792717
 30
0.0
 10
79.06683618900065
 20
-128.7466633792717
 30
0.0
 10
79.07303736087411
 20
-128.7085950741597
 30
0.0
 10
79.07527667293952
 20
-128.6662203996911
 30
0.0
 10
79.07527667293952
 20
-128.6598469730434
 30
0.0
 10
79.07527667293952
 20
-128.5943901588236
 30
0.0
 10
79.05408933570523
 20
-128.3954358945504
 30
0.0
 10
78.81706676632004
 20
-128.3954358945504
 30
0.0
 10
78.6394720940554
 20
-128.3954358945504
 30
0.0
 10
78.58435056629142
 20
-128.5266940325385
 30
0.0
 10
78.58435056629142
 20
-128.6365925785179
 30
0.0
 10
78.58435056629142
 20
-128.9010036570109
 30
0.0
 10
78.81706676632004
 20
-128.909616395724
 30
0.0
 10
78.88906926196177
 20
-128.9137505103063
 30
0.0
 10
78.88906926196177
 20
-128.9137505103063
 30
0.0
 10
78.88906926196177
 20
-129.1166666343875
 30
0.0
 10
78.88906926196177
 20
-129.1166666343875
 30
0.0
 10
78.76418455062145
 20
-129.1083984052229
 30
0.0
 10
78.38763561408365
 20
-129.0808376413409
 30
0.0
 10
78.38763561408365
 20
-128.6240179799968
 30
0.0
 10
78.38763561408365
 20
-128.399742263907
 30
0.0
 10
78.5145873827151
 20
-128.1585855799395
 30
0.0
 10
78.81069333967233
 20
-128.1585855799395
 30
0.0
 10
78.99690075065008
 20
-128.1585855799395
 30
0.0
 10
79.07941078752182
 20
-128.2536702153324
 30
0.0
 10
79.14073348715927
 20
-128.3532334748562
 30
0.0
 10
79.16829425104126
 20
-128.2917385204444
 30
0.0
 10
79.24873723062184
 20
-128.1098374788232
 30
0.0
 10
79.5258951624102
 20
-128.1098374788232
 30
0.0
 10
79.86437579383599
 20
-128.1098374788232
 30
0.0
 10
80.03146292487061
 20
-128.3573675894384
 30
0.0
 10
80.03146292487061
 20
-128.6345255212268
 30
0.0
  0
HATCH
  5
99
330
94
100
AcDbEntity
  8
_U+30EC_U+30A4_U+30E4_U+30FC 1
 62
   179
420
  2234388
100
AcDbHatch
 10
0.0
 20
0.0
 30
0.0
210
0.0
220
0.0
230
1.0
  2
SOLID
 70
     1
 71
     0
 91
        1
 92
        1
 93
        1
 72
     4
 94
        3
 73
     0
 74
     1
 95
       62
 96
       58
 40
0.0
 40
0.0
 40
0.0
 40
0.0
 40
1.0
 40
1.0
 40
1.0
 40
2.0
 40
2.0
 40
2.0
 40
3.0
 40
3.0
 40
3.0
 40
4.0
 40
4.0
 40
4.0
 40
5.0
 40
5.0
 40
5.0
 40
6.0
 40
6.0
 40
6.0
 40
7.0
 40
7.0
 40
7.0
 40
8.0
 40
8.0
 40
8.0
 40
9.0
 40
9.0
 40
9.0
 40
10.0
 40
10.0
 40
10.0
 40
11.0
 40
11.0
 40
11.0
 40
12.0
 40
12.0
 40
12.0
 40
13.0
 40
13.0
 40
13.0
 40
14.0
 40
14.0
 40
14.0
 40
15.0
 40
15.0
 40
15.0
 40
16.0
 40
16.0
 40
16.0
 40
17.0
 40
17.0
 40
17.0
 40
18.0
 40
18.0
 40
18.0
 40
19.0
 40
19.0
 40
19.0
 40
19.0
 10
80.03146292487061
 20
-128.6345255212268
 10
80.03146292487061
 20
-128.729782411394
 10
80.01027558763633
 20
-128.9478569556103
 10
79.82406817665857
 20
-129.0725694121763
 10
79.71193031861368
 20
-129.1462944555606
 10
79.61253931386423
 20
-129.1507730796915
 10
79.52796221970135
 20
-129.1549071942738
 10
79.52796221970135
 20
-129.1549071942738
 10
79.52796221970135
 20
-128.9347655927663
 10
79.52796221970135
 20
-128.9347655927663
 10
79.60203177263422
 20
-128.9326985354752
 10
79.836815029954
 20
-128.9223632490194
 10
79.836815029954
 20
-128.6388318905834
 10
79.836815029954
 20
-128.5012003259476
 10
79.76705184637768
 20
-128.3489271054996
 10
79.53846976093136
 20
-128.3489271054996
 10
79.42219778830417
 20
-128.3489271054996
 10
79.37344968718789
 20
-128.3869954106116
 10
79.34175480872359
 20
-128.4186902890759
 10
79.26768525579072
 20
-128.4927598420088
 10
79.25511065726955
 20
-128.6092040694102
 10
79.25511065726955
 20
-128.6641533423999
 10
79.25511065726955
 20
-128.6831013675688
 10
79.25717771456071
 20
-128.7191026153897
 10
79.26131182914301
 20
-128.7466633792717
 10
79.26131182914301
 20
-128.7466633792717
 10
79.06683618900065
 20
-128.7466633792717
 10
79.06683618900065
 20
-128.7466633792717
 10
79.07303736087411
 20
-128.7085950741597
 10
79.07527667293952
 20
-128.6662203996911
 10
79.07527667293952
 20
-128.6598469730434
 10
79.07527667293952
 20
-128.5943901588236
 10
79.05408933570523
 20
-128.3954358945504
 10
78.81706676632004
 20
-128.3954358945504
 10
78.6394720940554
 20
-128.3954358945504
 10
78.58435056629142
 20
-128.5266940325385
 10
78.58435056629142
 20
-128.6365925785179
 10
78.58435056629142
 20
-128.9010036570109
 10
78.81706676632004
 20
-128.909616395724
 10
78.88906926196177
 20
-128.9137505103063
 10
78.88906926196177
 20
-128.9137505103063
 10
78.88906926196177
 20
-129.1166666343875
 10
78.88906926196177
 20
-129.1166666343875
 10
78.76418455062145
 20
-129.1083984052229
 10
78.38763561408365
 20
-129.0808376413409
 10
78.38763561408365
 20
-128.6240179799968
 10
78.38763561408365
 20
-128.399742263907
 10
78.5145873827151
 20
-128.1585855799395
 10
78.81069333967233
 20
-128.1585855799395
 10
78.99690075065008
 20
-128.1585855799395
 10
79.07941078752182
 20
-128.2536702153324
 10
79.14073348715927
 20
-128.3532334748562
 10
79.16829425104126
 20
-128.2917385204444
 10
79.24873723062184
 20
-128.1098374788232
 10
79.5258951624102
 20
-128.1098374788232
 10
79.86437579383599
 20
-128.1098374788232
 10
80.03146292487061
 20
-128.3573675894384
 10
80.03146292487061
 20
-128.6345255212268
 97
        0
 97
        0
 75
     2
 76
     1
 98
        0
  0
SPLINE
  5
9A
330
94
100
AcDbEntity
  8
_U+30EC_U+30A4_U+30E4_U+30FC 1
370
     0
100
AcDbSpline
210
0.0
220
0.0
230
1.0
 70
    11
 71
     3
 72
    53
 73
    49
 74
     0
 42
0.0000000001
 43
0.0000000001
 12
1.0
 22
0.0
 32
0.0
 13
1.0
 23
0.0
 33
0.0
 40
0.0
 40
0.0
 40
0.0
 40
0.0
 40
1.0
 40
1.0
 40
1.0
 40
2.0
 40
2.0
 40
2.0
 40
3.0
 40
3.0
 40
3.0
 40
4.0
 40
4.0
 40
4.0
 40
5.0
 40
5.0
 40
5.0
 40
6.0
 40
6.0
 40
6.0
 40
7.0
 40
7.0
 40
7.0
 40
8.0
 40
8.0
 40
8.0
 40
9.0
 40
9.0
 40
9.0
 40
10.0
 40
10.0
 40
10.0
 40
11.0
 40
11.0
 40
11.0
 40
12.0
 40
12.0
 40
12.0
 40
13.0
 40
13.0
 40
13.0
 40
14.0
 40
14.0
 40
14.0
 40
15.0
 40
15.0
 40
15.0
 40
16.0
 40
16.0
 40
16.0
 40
16.0
 10
80.03146292487061
 20
-127.4681884446955
 30
0.0
 10
80.03146292487061
 20
-127.5465643669849
 30
0.0
 10
80.01458195699288
 20
-127.6480224290255
 30
0.0
 10
79.95101994529003
 20
-127.7496527458404
 30
0.0
 10
79.8409491445363
 20
-127.9231133035227
 30
0.0
 10
79.70986326132254
 20
-127.944300640757
 30
0.0
 10
79.60203177263422
 20
-127.9632486659259
 30
0.0
 10
79.60203177263422
 20
-127.9632486659259
 30
0.0
 10
79.60203177263422
 20
-127.7412122619015
 30
0.0
 10
79.60203177263422
 20
-127.7412122619015
 30
0.0
 10
79.80081378213313
 20
-127.6860907341375
 30
0.0
 10
79.83044160330628
 20
-127.5591389655061
 30
0.0
 10
79.83044160330628
 20
-127.4661213874043
 30
0.0
 10
79.83044160330628
 20
-127.3265950202517
 30
0.0
 10
79.73105059855682
 20
-127.1741495450294
 30
0.0
 10
79.4983343985282
 20
-127.1741495450294
 30
0.0
 10
79.24236380397413
 20
-127.1741495450294
 30
0.0
 10
79.17260062039783
 20
-127.3539835293594
 30
0.0
 10
79.17260062039783
 20
-127.4745618713432
 30
0.0
 10
79.17260062039783
 20
-127.5062567498075
 30
0.0
 10
79.17260062039783
 20
-127.6480224290255
 30
0.0
 10
79.30161944632043
 20
-127.7369058925449
 30
0.0
 10
79.30161944632043
 20
-127.7369058925449
 30
0.0
 10
79.28249916637729
 20
-127.9124335075184
 30
0.0
 10
79.28249916637729
 20
-127.9124335075184
 30
0.0
 10
79.28249916637729
 20
-127.9124335075184
 30
0.0
 10
78.43638371519994
 20
-127.7918551655347
 30
0.0
 10
78.43638371519994
 20
-127.7918551655347
 30
0.0
 10
78.43638371519994
 20
-127.7918551655347
 30
0.0
 10
78.43638371519994
 20
-127.0134358406425
 30
0.0
 10
78.43638371519994
 20
-127.0134358406425
 30
0.0
 10
78.43638371519994
 20
-127.0134358406425
 30
0.0
 10
78.63103161011655
 20
-127.0134358406425
 30
0.0
 10
78.63103161011655
 20
-127.0134358406425
 30
0.0
 10
78.63103161011655
 20
-127.0134358406425
 30
0.0
 10
78.63103161011655
 20
-127.6290744038566
 30
0.0
 10
78.63103161011655
 20
-127.6290744038566
 30
0.0
 10
78.63103161011655
 20
-127.6290744038566
 30
0.0
 10
79.05408933570523
 20
-127.6945312180764
 30
0.0
 10
79.05408933570523
 20
-127.6945312180764
 30
0.0
 10
79.02015514517552
 20
-127.6332085184389
 30
0.0
 10
78.98001978277236
 20
-127.5506984815672
 30
0.0
 10
78.98001978277236
 20
-127.4323594516489
 30
0.0
 10
78.98001978277236
 20
-127.1784559143859
 30
0.0
 10
79.16622719375012
 20
-126.9414333450008
 30
0.0
 10
79.47921411858506
 20
-126.9414333450008
 30
0.0
 10
79.79667966755083
 20
-126.9414333450008
 30
0.0
 10
80.03146292487061
 20
-127.1657090610905
 30
0.0
 10
80.03146292487061
 20
-127.4681884446955
 30
0.0
  0
HATCH
  5
9B
330
94
100
AcDbEntity
  8
_U+30EC_U+30A4_U+30E4_U+30FC 1
 62
   179
420
  2234388
100
AcDbHatch
 10
0.0
 20
0.0
 30
0.0
210
0.0
220
0.0
230
1.0
  2
SOLID
 70
     1
 71
     0
 91
        1
 92
        1
 93
        1
 72
     4
 94
        3
 73
     0
 74
     1
 95
       53
 96
       49
 40
0.0
 40
0.0
 40
0.0
 40
0.0
 40
1.0
 40
1.0
 40
1.0
 40
2.0
 40
2.0
 40
2.0
 40
3.0
 40
3.0
 40
3.0
 40
4.0
 40
4.0
 40
4.0
 40
5.0
 40
5.0
 40
5.0
 40
6.0
 40
6.0
 40
6.0
 40
7.0
 40
7.0
 40
7.0
 40
8.0
 40
8.0
 40
8.0
 40
9.0
 40
9.0
 40
9.0
 40
10.0
 40
10.0
 40
10.0
 40
11.0
 40
11.0
 40
11.0
 40
12.0
 40
12.0
 40
12.0
 40
13.0
 40
13.0
 40
13.0
 40
14.0
 40
14.0
 40
14.0
 40
15.0
 40
15.0
 40
15.0
 40
16.0
 40
16.0
 40
16.0
 40
16.0
 10
80.03146292487061
 20
-127.4681884446955
 10
80.03146292487061
 20
-127.5465643669849
 10
80.01458195699288
 20
-127.6480224290255
 10
79.95101994529003
 20
-127.7496527458404
 10
79.8409491445363
 20
-127.9231133035227
 10
79.70986326132254
 20
-127.944300640757
 10
79.60203177263422
 20
-127.9632486659259
 10
79.60203177263422
 20
-127.9632486659259
 10
79.60203177263422
 20
-127.7412122619015
 10
79.60203177263422
 20
-127.7412122619015
 10
79.80081378213313
 20
-127.6860907341375
 10
79.83044160330628
 20
-127.5591389655061
 10
79.83044160330628
 20
-127.4661213874043
 10
79.83044160330628
 20
-127.3265950202517
 10
79.73105059855682
 20
-127.1741495450294
 10
79.4983343985282
 20
-127.1741495450294
 10
79.24236380397413
 20
-127.1741495450294
 10
79.17260062039783
 20
-127.3539835293594
 10
79.17260062039783
 20
-127.4745618713432
 10
79.17260062039783
 20
-127.5062567498075
 10
79.17260062039783
 20
-127.6480224290255
 10
79.30161944632043
 20
-127.7369058925449
 10
79.30161944632043
 20
-127.7369058925449
 10
79.28249916637729
 20
-127.9124335075184
 10
79.28249916637729
 20
-127.9124335075184
 10
79.28249916637729
 20
-127.9124335075184
 10
78.43638371519994
 20
-127.7918551655347
 10
78.43638371519994
 20
-127.7918551655347
 10
78.43638371519994
 20
-127.7918551655347
 10
78.43638371519994
 20
-127.0134358406425
 10
78.43638371519994
 20
-127.0134358406425
 10
78.43638371519994
 20
-127.0134358406425
 10
78.63103161011655
 20
-127.0134358406425
 10
78.63103161011655
 20
-127.0134358406425
 10
78.63103161011655
 20
-127.0134358406425
 10
78.63103161011655
 20
-127.6290744038566
 10
78.63103161011655
 20
-127.6290744038566
 10
78.63103161011655
 20
-127.6290744038566
 10
79.05408933570523
 20
-127.6945312180764
 10
79.05408933570523
 20
-127.6945312180764
 10
79.02015514517552
 20
-127.6332085184389
 10
78.98001978277236
 20
-127.5506984815672
 10
78.98001978277236
 20
-127.4323594516489
 10
78.98001978277236
 20
-127.1784559143859
 10
79.16622719375012
 20
-126.9414333450008
 10
79.47921411858506
 20
-126.9414333450008
 10
79.79667966755083
 20
-126.9414333450008
 10
80.03146292487061
 20
-127.1657090610905
 10
80.03146292487061
 20
-127.4681884446955
 97
        0
 97
        0
 75
     2
 76
     1
 98
        0
  0
ENDBLK
  5
97
330
94
100
AcDbEntity
  8
0
100
AcDbBlockEnd
  0
BLOCK
  5
9E
330
9C
100
AcDbEntity
  8
0
100
AcDbBlockBegin
  2
block 7
 70
     0
 10
0.0
 20
0.0
 30
0.0
  3
block 7
  1

  0
SPLINE
  5
A0
330
9C
100
AcDbEntity
  8
_U+30EC_U+30A4_U+30E4_U+30FC 1
370
     0
100
AcDbSpline
210
0.0
220
0.0
230
1.0
 70
    11
 71
     3
 72
    26
 73
    22
 74
     0
 42
0.0000000001
 43
0.0000000001
 12
1.0
 22
0.0
 32
0.0
 13
1.0
 23
0.0
 33
0.0
 40
0.0
 40
0.0
 40
0.0
 40
0.0
 40
1.0
 40
1.0
 40
1.0
 40
2.0
 40
2.0
 40
2.0
 40
3.0
 40
3.0
 40
3.0
 40
4.0
 40
4.0
 40
4.0
 40
5.0
 40
5.0
 40
5.0
 40
6.0
 40
6.0
 40
6.0
 40
7.0
 40
7.0
 40
7.0
 40
7.0
 10
91.32121308480859
 20
-130.6283745333151
 30
0.0
 10
91.24300941729342
 20
-130.949801942089
 30
0.0
 10
91.22388913735028
 20
-131.0218044377307
 30
0.0
 10
91.09693736871883
 20
-131.1909586260564
 30
0.0
 10
91.09693736871883
 20
-131.1909586260564
 30
0.0
 10
90.87490096469448
 20
-131.1341145505498
 30
0.0
 10
90.87490096469448
 20
-131.1341145505498
 30
0.0
 10
90.97429196944393
 20
-130.9942436738487
 30
0.0
 10
91.02924124243367
 20
-130.8715982745738
 30
0.0
 10
91.04405515302024
 20
-130.833702224236
 30
0.0
 10
91.0800564008411
 20
-130.7448187607166
 30
0.0
 10
91.12243107530968
 20
-130.5753200628423
 30
0.0
 10
91.12656518989198
 20
-130.5036620767491
 30
0.0
 10
91.12656518989198
 20
-130.5036620767491
 30
0.0
 10
91.34240042204287
 20
-130.5670518336777
 30
0.0
 10
91.34240042204287
 20
-130.5670518336777
 30
0.0
 10
91.37185598844177
 20
-130.5753200628423
 30
0.0
 10
91.38046872715489
 20
-130.5777316296819
 30
0.0
 10
91.38046872715489
 20
-130.5946125975597
 30
0.0
 10
91.38046872715489
 20
-130.6176947373109
 30
0.0
 10
91.34446747933403
 20
-130.6242404187328
 30
0.0
 10
91.32121308480859
 20
-130.6283745333151
 30
0.0
  0
SPLINE
  5
A1
330
9C
100
AcDbEntity
  8
_U+30EC_U+30A4_U+30E4_U+30FC 1
370
     0
100
AcDbSpline
210
0.0
220
0.0
230
1.0
 70
    11
 71
     3
 72
    89
 73
    85
 74
     0
 42
0.0000000001
 43
0.0000000001
 12
1.0
 22
0.0
 32
0.0
 13
1.0
 23
0.0
 33
0.0
 40
0.0
 40
0.0
 40
0.0
 40
0.0
 40
1.0
 40
1.0
 40
1.0
 40
2.0
 40
2.0
 40
2.0
 40
3.0
 40
3.0
 40
3.0
 40
4.0
 40
4.0
 40
4.0
 40
5.0
 40
5.0
 40
5.0
 40
6.0
 40
6.0
 40
6.0
 40
7.0
 40
7.0
 40
7.0
 40
8.0
 40
8.0
 40
8.0
 40
9.0
 40
9.0
 40
9.0
 40
10.0
 40
10.0
 40
10.0
 40
11.0
 40
11.0
 40
11.0
 40
12.0
 40
12.0
 40
12.0
 40
13.0
 40
13.0
 40
13.0
 40
14.0
 40
14.0
 40
14.0
 40
15.0
 40
15.0
 40
15.0
 40
16.0
 40
16.0
 40
16.0
 40
17.0
 40
17.0
 40
17.0
 40
18.0
 40
18.0
 40
18.0
 40
19.0
 40
19.0
 40
19.0
 40
20.0
 40
20.0
 40
20.0
 40
21.0
 40
21.0
 40
21.0
 40
22.0
 40
22.0
 40
22.0
 40
23.0
 40
23.0
 40
23.0
 40
24.0
 40
24.0
 40
24.0
 40
25.0
 40
25.0
 40
25.0
 40
26.0
 40
26.0
 40
26.0
 40
27.0
 40
27.0
 40
27.0
 40
28.0
 40
28.0
 40
28.0
 40
28.0
 10
92.27516002467426
 20
-129.8732096029484
 30
0.0
 10
92.27516002467426
 20
-129.9452120985901
 30
0.0
 10
92.28170570609625
 20
-130.012735970101
 30
0.0
 10
92.28583982067855
 20
-130.0657904405738
 30
0.0
 10
92.28583982067855
 20
-130.0657904405738
 30
0.0
 10
92.07017684330191
 20
-130.0657904405738
 30
0.0
 10
92.07017684330191
 20
-130.0657904405738
 30
0.0
 10
92.07637801517535
 20
-130.0148030273921
 30
0.0
 10
92.08292369659733
 20
-129.9472791558812
 30
0.0
 10
92.08292369659733
 20
-129.8732096029484
 30
0.0
 10
92.08292369659733
 20
-129.8732096029484
 30
0.0
 10
91.62369246841352
 20
-129.8732096029484
 30
0.0
 10
91.62369246841352
 20
-129.8732096029484
 30
0.0
 10
91.62369246841352
 20
-129.9452120985901
 30
0.0
 10
91.62782658299582
 20
-129.9896538303498
 30
0.0
 10
91.63643932170895
 20
-130.0657904405738
 30
0.0
 10
91.63643932170895
 20
-130.0657904405738
 30
0.0
 10
91.41009654832804
 20
-130.0657904405738
 30
0.0
 10
91.41009654832804
 20
-130.0657904405738
 30
0.0
 10
91.42077634433231
 20
-129.9896538303498
 30
0.0
 10
91.42904457349691
 20
-129.9217854492904
 30
0.0
 10
91.42904457349691
 20
-129.8732096029484
 30
0.0
 10
91.25558401581458
 20
-129.8732096029484
 30
0.0
 10
91.0800564008411
 20
-129.8794107748218
 30
0.0
 10
90.90659584315877
 20
-129.8900905708261
 30
0.0
 10
90.90659584315877
 20
-129.8900905708261
 30
0.0
 10
90.90659584315877
 20
-129.6826958226141
 30
0.0
 10
90.90659584315877
 20
-129.6826958226141
 30
0.0
 10
91.0800564008411
 20
-129.6933756186183
 30
0.0
 10
91.25558401581458
 20
-129.6995767904918
 30
0.0
 10
91.42904457349691
 20
-129.6995767904918
 30
0.0
 10
91.42904457349691
 20
-129.6995767904918
 30
0.0
 10
91.42904457349691
 20
-129.6299858616897
 30
0.0
 10
91.42904457349691
 20
-129.6299858616897
 30
0.0
 10
91.42904457349691
 20
-129.5938123590946
 30
0.0
 10
91.42284340162345
 20
-129.4353379667731
 30
0.0
 10
91.42077634433231
 20
-129.399164464178
 30
0.0
 10
91.42077634433231
 20
-129.399164464178
 30
0.0
 10
91.6385063790001
 20
-129.4205240561865
 30
0.0
 10
91.6385063790001
 20
-129.4205240561865
 30
0.0
 10
91.6619330282998
 20
-129.4225911134777
 30
0.0
 10
91.67881399617752
 20
-129.42672522806
 30
0.0
 10
91.67881399617752
 20
-129.4456732532289
 30
0.0
 10
91.67881399617752
 20
-129.4649657879463
 30
0.0
 10
91.6619330282998
 20
-129.4732340171109
 30
0.0
 10
91.62782658299582
 20
-129.4921820422798
 30
0.0
 10
91.62575952570468
 20
-129.5156086915794
 30
0.0
 10
91.62369246841352
 20
-129.6234401802677
 30
0.0
 10
91.62369246841352
 20
-129.6320529189809
 30
0.0
 10
91.62369246841352
 20
-129.6320529189809
 30
0.0
 10
91.62369246841352
 20
-129.6995767904918
 30
0.0
 10
91.62369246841352
 20
-129.6995767904918
 30
0.0
 10
91.62369246841352
 20
-129.6995767904918
 30
0.0
 10
92.08292369659733
 20
-129.6995767904918
 30
0.0
 10
92.08292369659733
 20
-129.6995767904918
 30
0.0
 10
92.08292369659733
 20
-129.6995767904918
 30
0.0
 10
92.08292369659733
 20
-129.6106933269723
 30
0.0
 10
92.08292369659733
 20
-129.6106933269723
 30
0.0
 10
92.08292369659733
 20
-129.5686631620523
 30
0.0
 10
92.07844507246651
 20
-129.4436061959377
 30
0.0
 10
92.07637801517535
 20
-129.4012315214691
 30
0.0
 10
92.07637801517535
 20
-129.4012315214691
 30
0.0
 10
92.28583982067855
 20
-129.4205240561865
 30
0.0
 10
92.28583982067855
 20
-129.4205240561865
 30
0.0
 10
92.30065373126511
 20
-129.4225911134777
 30
0.0
 10
92.32614743785597
 20
-129.4246581707689
 30
0.0
 10
92.32614743785597
 20
-129.4436061959377
 30
0.0
 10
92.32614743785597
 20
-129.4604871638154
 30
0.0
 10
92.3113335272694
 20
-129.4670328452374
 30
0.0
 10
92.27757159151395
 20
-129.481846755824
 30
0.0
 10
92.27516002467426
 20
-129.5283555448749
 30
0.0
 10
92.27516002467426
 20
-129.578998448508
 30
0.0
 10
92.27516002467426
 20
-129.6234401802677
 30
0.0
 10
92.27516002467426
 20
-129.6234401802677
 30
0.0
 10
92.27516002467426
 20
-129.6995767904918
 30
0.0
 10
92.27516002467426
 20
-129.6995767904918
 30
0.0
 10
92.63482799333435
 20
-129.6933756186183
 30
0.0
 10
92.67513561051177
 20
-129.6913085613272
 30
0.0
 10
92.81914060179523
 20
-129.6826958226141
 30
0.0
 10
92.81914060179523
 20
-129.6826958226141
 30
0.0
 10
92.81914060179523
 20
-129.8900905708261
 30
0.0
 10
92.81914060179523
 20
-129.8900905708261
 30
0.0
 10
92.62001408274777
 20
-129.8773437175307
 30
0.0
 10
92.45740557584399
 20
-129.8752766602395
 30
0.0
 10
92.27516002467426
 20
-129.8732096029484
 30
0.0
  0
SPLINE
  5
A2
330
9C
100
AcDbEntity
  8
_U+30EC_U+30A4_U+30E4_U+30FC 1
370
     0
100
AcDbSpline
210
0.0
220
0.0
230
1.0
 70
    11
 71
     3
 72
    56
 73
    52
 74
     0
 42
0.0000000001
 43
0.0000000001
 12
1.0
 22
0.0
 32
0.0
 13
1.0
 23
0.0
 33
0.0
 40
0.0
 40
0.0
 40
0.0
 40
0.0
 40
1.0
 40
1.0
 40
1.0
 40
2.0
 40
2.0
 40
2.0
 40
3.0
 40
3.0
 40
3.0
 40
4.0
 40
4.0
 40
4.0
 40
5.0
 40
5.0
 40
5.0
 40
6.0
 40
6.0
 40
6.0
 40
7.0
 40
7.0
 40
7.0
 40
8.0
 40
8.0
 40
8.0
 40
9.0
 40
9.0
 40
9.0
 40
10.0
 40
10.0
 40
10.0
 40
11.0
 40
11.0
 40
11.0
 40
12.0
 40
12.0
 40
12.0
 40
13.0
 40
13.0
 40
13.0
 40
14.0
 40
14.0
 40
14.0
 40
15.0
 40
15.0
 40
15.0
 40
16.0
 40
16.0
 40
16.0
 40
17.0
 40
17.0
 40
17.0
 40
17.0
 10
92.36645505503338
 20
-131.1106879012501
 30
0.0
 10
92.31753469914284
 20
-131.2715738604113
 30
0.0
 10
92.26482473821852
 20
-131.3053357961667
 30
0.0
 10
92.1252983710659
 20
-131.3053357961667
 30
0.0
 10
92.1252983710659
 20
-131.3053357961667
 30
0.0
 10
91.77803274615272
 20
-131.3053357961667
 30
0.0
 10
91.77803274615272
 20
-131.3053357961667
 30
0.0
 10
91.6426404935824
 20
-131.3053357961667
 30
0.0
 10
91.59199758994923
 20
-131.3053357961667
 30
0.0
 10
91.5475558581895
 20
-131.2546928925336
 30
0.0
 10
91.49691295455634
 20
-131.1954372501873
 30
0.0
 10
91.49691295455634
 20
-131.1465168942967
 30
0.0
 10
91.49691295455634
 20
-130.9584146808021
 30
0.0
 10
91.49691295455634
 20
-130.9584146808021
 30
0.0
 10
91.49691295455634
 20
-130.6686821504926
 30
0.0
 10
91.49691295455634
 20
-130.6686821504926
 30
0.0
 10
91.49691295455634
 20
-130.6008137694331
 30
0.0
 10
91.49243433042551
 20
-130.4357936956897
 30
0.0
 10
91.49036727313435
 20
-130.3724039387611
 30
0.0
 10
91.49036727313435
 20
-130.3724039387611
 30
0.0
 10
91.71257593193297
 20
-130.4020317599342
 30
0.0
 10
91.71257593193297
 20
-130.4020317599342
 30
0.0
 10
91.73600258123267
 20
-130.4040988172254
 30
0.0
 10
91.7528835491104
 20
-130.4106444986473
 30
0.0
 10
91.7528835491104
 20
-130.4251138996854
 30
0.0
 10
91.7528835491104
 20
-130.446473491694
 30
0.0
 10
91.733591014393
 20
-130.4547417208586
 30
0.0
 10
91.70430770276838
 20
-130.467488574154
 30
0.0
 10
91.70189613592869
 20
-130.5312228406311
 30
0.0
 10
91.69776202134639
 20
-130.5460367512177
 30
0.0
 10
91.69776202134639
 20
-130.681429003788
 30
0.0
 10
91.69776202134639
 20
-130.681429003788
 30
0.0
 10
91.69776202134639
 20
-131.025938552313
 30
0.0
 10
91.69776202134639
 20
-131.025938552313
 30
0.0
 10
91.69776202134639
 20
-131.1044867293767
 30
0.0
 10
91.7211886706461
 20
-131.1234347545455
 30
0.0
 10
91.82488604475212
 20
-131.1234347545455
 30
0.0
 10
91.82488604475212
 20
-131.1234347545455
 30
0.0
 10
92.0384819648376
 20
-131.1234347545455
 30
0.0
 10
92.0384819648376
 20
-131.1234347545455
 30
0.0
 10
92.12736542835705
 20
-131.1234347545455
 30
0.0
 10
92.13976777210395
 20
-131.1024196720855
 30
0.0
 10
92.15044756810822
 20
-131.0769259654947
 30
0.0
 10
92.18214244657253
 20
-131.0028564125618
 30
0.0
 10
92.1886881279945
 20
-130.8884792424515
 30
0.0
 10
92.19075518528565
 20
-130.854717306696
 30
0.0
 10
92.19075518528565
 20
-130.854717306696
 30
0.0
 10
92.40228404807999
 20
-130.9711615340975
 30
0.0
 10
92.40228404807999
 20
-130.9711615340975
 30
0.0
 10
92.39608287620653
 20
-130.9942436738487
 30
0.0
 10
92.37265622690684
 20
-131.0917398760812
 30
0.0
 10
92.36645505503338
 20
-131.1106879012501
 30
0.0
  0
SPLINE
  5
A3
330
9C
100
AcDbEntity
  8
_U+30EC_U+30A4_U+30E4_U+30FC 1
370
     0
100
AcDbSpline
210
0.0
220
0.0
230
1.0
 70
    11
 71
     3
 72
    17
 73
    13
 74
     0
 42
0.0000000001
 43
0.0000000001
 12
1.0
 22
0.0
 32
0.0
 13
1.0
 23
0.0
 33
0.0
 40
0.0
 40
0.0
 40
0.0
 40
0.0
 40
1.0
 40
1.0
 40
1.0
 40
2.0
 40
2.0
 40
2.0
 40
3.0
 40
3.0
 40
3.0
 40
4.0
 40
4.0
 40
4.0
 40
4.0
 10
91.94546438673586
 20
-130.7679009004678
 30
0.0
 10
91.90929088414073
 20
-130.5098632486225
 30
0.0
 10
91.80145939545241
 20
-130.3172824109971
 30
0.0
 10
91.78044431299239
 20
-130.2814534179505
 30
0.0
 10
91.78044431299239
 20
-130.2814534179505
 30
0.0
 10
91.97061358377819
 20
-130.2328775716084
 30
0.0
 10
91.97061358377819
 20
-130.2328775716084
 30
0.0
 10
92.00885414366445
 20
-130.3004014431193
 30
0.0
 10
92.05742999000648
 20
-130.3913519639299
 30
0.0
 10
92.13976777210395
 20
-130.6769503796572
 30
0.0
 10
92.13976777210395
 20
-130.6769503796572
 30
0.0
 10
91.94546438673586
 20
-130.7679009004678
 30
0.0
 10
91.94546438673586
 20
-130.7679009004678
 30
0.0
  0
SPLINE
  5
A4
330
9C
100
AcDbEntity
  8
_U+30EC_U+30A4_U+30E4_U+30FC 1
370
     0
100
AcDbSpline
210
0.0
220
0.0
230
1.0
 70
    11
 71
     3
 72
    23
 73
    19
 74
     0
 42
0.0000000001
 43
0.0000000001
 12
1.0
 22
0.0
 32
0.0
 13
1.0
 23
0.0
 33
0.0
 40
0.0
 40
0.0
 40
0.0
 40
0.0
 40
1.0
 40
1.0
 40
1.0
 40
2.0
 40
2.0
 40
2.0
 40
3.0
 40
3.0
 40
3.0
 40
4.0
 40
4.0
 40
4.0
 40
5.0
 40
5.0
 40
5.0
 40
6.0
 40
6.0
 40
6.0
 40
6.0
 10
92.62655976416976
 20
-131.0703802840727
 30
0.0
 10
92.58831920428348
 20
-130.9584146808021
 30
0.0
 10
92.55869138311033
 20
-130.8950249238735
 30
0.0
 10
92.49530162618173
 20
-130.7892604924763
 30
0.0
 10
92.44018009841774
 20
-130.7003770289569
 30
0.0
 10
92.37679034148914
 20
-130.5946125975597
 30
0.0
 10
92.32201332327367
 20
-130.5288112737914
 30
0.0
 10
92.32201332327367
 20
-130.5288112737914
 30
0.0
 10
92.51424965135061
 20
-130.4337266383985
 30
0.0
 10
92.51424965135061
 20
-130.4337266383985
 30
0.0
 10
92.533542186068
 20
-130.4633544595717
 30
0.0
 10
92.6244927068786
 20
-130.5946125975597
 30
0.0
 10
92.64137367475632
 20
-130.6221733614417
 30
0.0
 10
92.6961506929718
 20
-130.7065782008303
 30
0.0
 10
92.78296709920009
 20
-130.8653971027003
 30
0.0
 10
92.80432669120864
 20
-130.9119058917512
 30
0.0
 10
92.80432669120864
 20
-130.9119058917512
 30
0.0
 10
92.62655976416976
 20
-131.0703802840727
 30
0.0
 10
92.62655976416976
 20
-131.0703802840727
 30
0.0
  0
HATCH
  5
A5
330
9C
100
AcDbEntity
  8
_U+30EC_U+30A4_U+30E4_U+30FC 1
 62
   179
420
  2234388
100
AcDbHatch
 10
0.0
 20
0.0
 30
0.0
210
0.0
220
0.0
230
1.0
  2
SOLID
 70
     1
 71
     0
 91
        5
 92
        1
 93
        1
 72
     4
 94
        3
 73
     0
 74
     1
 95
       26
 96
       22
 40
0.0
 40
0.0
 40
0.0
 40
0.0
 40
1.0
 40
1.0
 40
1.0
 40
2.0
 40
2.0
 40
2.0
 40
3.0
 40
3.0
 40
3.0
 40
4.0
 40
4.0
 40
4.0
 40
5.0
 40
5.0
 40
5.0
 40
6.0
 40
6.0
 40
6.0
 40
7.0
 40
7.0
 40
7.0
 40
7.0
 10
91.32121308480859
 20
-130.6283745333151
 10
91.24300941729342
 20
-130.949801942089
 10
91.22388913735028
 20
-131.0218044377307
 10
91.09693736871883
 20
-131.1909586260564
 10
91.09693736871883
 20
-131.1909586260564
 10
90.87490096469448
 20
-131.1341145505498
 10
90.87490096469448
 20
-131.1341145505498
 10
90.97429196944393
 20
-130.9942436738487
 10
91.02924124243367
 20
-130.8715982745738
 10
91.04405515302024
 20
-130.833702224236
 10
91.0800564008411
 20
-130.7448187607166
 10
91.12243107530968
 20
-130.5753200628423
 10
91.12656518989198
 20
-130.5036620767491
 10
91.12656518989198
 20
-130.5036620767491
 10
91.34240042204287
 20
-130.5670518336777
 10
91.34240042204287
 20
-130.5670518336777
 10
91.37185598844177
 20
-130.5753200628423
 10
91.38046872715489
 20
-130.5777316296819
 10
91.38046872715489
 20
-130.5946125975597
 10
91.38046872715489
 20
-130.6176947373109
 10
91.34446747933403
 20
-130.6242404187328
 10
91.32121308480859
 20
-130.6283745333151
 97
        0
 97
        0
 92
        1
 93
        1
 72
     4
 94
        3
 73
     0
 74
     1
 95
       89
 96
       85
 40
0.0
 40
0.0
 40
0.0
 40
0.0
 40
1.0
 40
1.0
 40
1.0
 40
2.0
 40
2.0
 40
2.0
 40
3.0
 40
3.0
 40
3.0
 40
4.0
 40
4.0
 40
4.0
 40
5.0
 40
5.0
 40
5.0
 40
6.0
 40
6.0
 40
6.0
 40
7.0
 40
7.0
 40
7.0
 40
8.0
 40
8.0
 40
8.0
 40
9.0
 40
9.0
 40
9.0
 40
10.0
 40
10.0
 40
10.0
 40
11.0
 40
11.0
 40
11.0
 40
12.0
 40
12.0
 40
12.0
 40
13.0
 40
13.0
 40
13.0
 40
14.0
 40
14.0
 40
14.0
 40
15.0
 40
15.0
 40
15.0
 40
16.0
 40
16.0
 40
16.0
 40
17.0
 40
17.0
 40
17.0
 40
18.0
 40
18.0
 40
18.0
 40
19.0
 40
19.0
 40
19.0
 40
20.0
 40
20.0
 40
20.0
 40
21.0
 40
21.0
 40
21.0
 40
22.0
 40
22.0
 40
22.0
 40
23.0
 40
23.0
 40
23.0
 40
24.0
 40
24.0
 40
24.0
 40
25.0
 40
25.0
 40
25.0
 40
26.0
 40
26.0
 40
26.0
 40
27.0
 40
27.0
 40
27.0
 40
28.0
 40
28.0
 40
28.0
 40
28.0
 10
92.27516002467426
 20
-129.8732096029484
 10
92.27516002467426
 20
-129.9452120985901
 10
92.28170570609625
 20
-130.012735970101
 10
92.28583982067855
 20
-130.0657904405738
 10
92.28583982067855
 20
-130.0657904405738
 10
92.07017684330191
 20
-130.0657904405738
 10
92.07017684330191
 20
-130.0657904405738
 10
92.07637801517535
 20
-130.0148030273921
 10
92.08292369659733
 20
-129.9472791558812
 10
92.08292369659733
 20
-129.8732096029484
 10
92.08292369659733
 20
-129.8732096029484
 10
91.62369246841352
 20
-129.8732096029484
 10
91.62369246841352
 20
-129.8732096029484
 10
91.62369246841352
 20
-129.9452120985901
 10
91.62782658299582
 20
-129.9896538303498
 10
91.63643932170895
 20
-130.0657904405738
 10
91.63643932170895
 20
-130.0657904405738
 10
91.41009654832804
 20
-130.0657904405738
 10
91.41009654832804
 20
-130.0657904405738
 10
91.42077634433231
 20
-129.9896538303498
 10
91.42904457349691
 20
-129.9217854492904
 10
91.42904457349691
 20
-129.8732096029484
 10
91.25558401581458
 20
-129.8732096029484
 10
91.0800564008411
 20
-129.8794107748218
 10
90.90659584315877
 20
-129.8900905708261
 10
90.90659584315877
 20
-129.8900905708261
 10
90.90659584315877
 20
-129.6826958226141
 10
90.90659584315877
 20
-129.6826958226141
 10
91.0800564008411
 20
-129.6933756186183
 10
91.25558401581458
 20
-129.6995767904918
 10
91.42904457349691
 20
-129.6995767904918
 10
91.42904457349691
 20
-129.6995767904918
 10
91.42904457349691
 20
-129.6299858616897
 10
91.42904457349691
 20
-129.6299858616897
 10
91.42904457349691
 20
-129.5938123590946
 10
91.42284340162345
 20
-129.4353379667731
 10
91.42077634433231
 20
-129.399164464178
 10
91.42077634433231
 20
-129.399164464178
 10
91.6385063790001
 20
-129.4205240561865
 10
91.6385063790001
 20
-129.4205240561865
 10
91.6619330282998
 20
-129.4225911134777
 10
91.67881399617752
 20
-129.42672522806
 10
91.67881399617752
 20
-129.4456732532289
 10
91.67881399617752
 20
-129.4649657879463
 10
91.6619330282998
 20
-129.4732340171109
 10
91.62782658299582
 20
-129.4921820422798
 10
91.62575952570468
 20
-129.5156086915794
 10
91.62369246841352
 20
-129.6234401802677
 10
91.62369246841352
 20
-129.6320529189809
 10
91.62369246841352
 20
-129.6320529189809
 10
91.62369246841352
 20
-129.6995767904918
 10
91.62369246841352
 20
-129.6995767904918
 10
91.62369246841352
 20
-129.6995767904918
 10
92.08292369659733
 20
-129.6995767904918
 10
92.08292369659733
 20
-129.6995767904918
 10
92.08292369659733
 20
-129.6995767904918
 10
92.08292369659733
 20
-129.6106933269723
 10
92.08292369659733
 20
-129.6106933269723
 10
92.08292369659733
 20
-129.5686631620523
 10
92.07844507246651
 20
-129.4436061959377
 10
92.07637801517535
 20
-129.4012315214691
 10
92.07637801517535
 20
-129.4012315214691
 10
92.28583982067855
 20
-129.4205240561865
 10
92.28583982067855
 20
-129.4205240561865
 10
92.30065373126511
 20
-129.4225911134777
 10
92.32614743785597
 20
-129.4246581707689
 10
92.32614743785597
 20
-129.4436061959377
 10
92.32614743785597
 20
-129.4604871638154
 10
92.3113335272694
 20
-129.4670328452374
 10
92.27757159151395
 20
-129.481846755824
 10
92.27516002467426
 20
-129.5283555448749
 10
92.27516002467426
 20
-129.578998448508
 10
92.27516002467426
 20
-129.6234401802677
 10
92.27516002467426
 20
-129.6234401802677
 10
92.27516002467426
 20
-129.6995767904918
 10
92.27516002467426
 20
-129.6995767904918
 10
92.63482799333435
 20
-129.6933756186183
 10
92.67513561051177
 20
-129.6913085613272
 10
92.81914060179523
 20
-129.6826958226141
 10
92.81914060179523
 20
-129.6826958226141
 10
92.81914060179523
 20
-129.8900905708261
 10
92.81914060179523
 20
-129.8900905708261
 10
92.62001408274777
 20
-129.8773437175307
 10
92.45740557584399
 20
-129.8752766602395
 10
92.27516002467426
 20
-129.8732096029484
 97
        0
 97
        0
 92
        1
 93
        1
 72
     4
 94
        3
 73
     0
 74
     1
 95
       56
 96
       52
 40
0.0
 40
0.0
 40
0.0
 40
0.0
 40
1.0
 40
1.0
 40
1.0
 40
2.0
 40
2.0
 40
2.0
 40
3.0
 40
3.0
 40
3.0
 40
4.0
 40
4.0
 40
4.0
 40
5.0
 40
5.0
 40
5.0
 40
6.0
 40
6.0
 40
6.0
 40
7.0
 40
7.0
 40
7.0
 40
8.0
 40
8.0
 40
8.0
 40
9.0
 40
9.0
 40
9.0
 40
10.0
 40
10.0
 40
10.0
 40
11.0
 40
11.0
 40
11.0
 40
12.0
 40
12.0
 40
12.0
 40
13.0
 40
13.0
 40
13.0
 40
14.0
 40
14.0
 40
14.0
 40
15.0
 40
15.0
 40
15.0
 40
16.0
 40
16.0
 40
16.0
 40
17.0
 40
17.0
 40
17.0
 40
17.0
 10
92.36645505503338
 20
-131.1106879012501
 10
92.31753469914284
 20
-131.2715738604113
 10
92.26482473821852
 20
-131.3053357961667
 10
92.1252983710659
 20
-131.3053357961667
 10
92.1252983710659
 20
-131.3053357961667
 10
91.77803274615272
 20
-131.3053357961667
 10
91.77803274615272
 20
-131.3053357961667
 10
91.6426404935824
 20
-131.3053357961667
 10
91.59199758994923
 20
-131.3053357961667
 10
91.5475558581895
 20
-131.2546928925336
 10
91.49691295455634
 20
-131.1954372501873
 10
91.49691295455634
 20
-131.1465168942967
 10
91.49691295455634
 20
-130.9584146808021
 10
91.49691295455634
 20
-130.9584146808021
 10
91.49691295455634
 20
-130.6686821504926
 10
91.49691295455634
 20
-130.6686821504926
 10
91.49691295455634
 20
-130.6008137694331
 10
91.49243433042551
 20
-130.4357936956897
 10
91.49036727313435
 20
-130.3724039387611
 10
91.49036727313435
 20
-130.3724039387611
 10
91.71257593193297
 20
-130.4020317599342
 10
91.71257593193297
 20
-130.4020317599342
 10
91.73600258123267
 20
-130.4040988172254
 10
91.7528835491104
 20
-130.4106444986473
 10
91.7528835491104
 20
-130.4251138996854
 10
91.7528835491104
 20
-130.446473491694
 10
91.733591014393
 20
-130.4547417208586
 10
91.70430770276838
 20
-130.467488574154
 10
91.70189613592869
 20
-130.5312228406311
 10
91.69776202134639
 20
-130.5460367512177
 10
91.69776202134639
 20
-130.681429003788
 10
91.69776202134639
 20
-130.681429003788
 10
91.69776202134639
 20
-131.025938552313
 10
91.69776202134639
 20
-131.025938552313
 10
91.69776202134639
 20
-131.1044867293767
 10
91.7211886706461
 20
-131.1234347545455
 10
91.82488604475212
 20
-131.1234347545455
 10
91.82488604475212
 20
-131.1234347545455
 10
92.0384819648376
 20
-131.1234347545455
 10
92.0384819648376
 20
-131.1234347545455
 10
92.12736542835705
 20
-131.1234347545455
 10
92.13976777210395
 20
-131.1024196720855
 10
92.15044756810822
 20
-131.0769259654947
 10
92.18214244657253
 20
-131.0028564125618
 10
92.1886881279945
 20
-130.8884792424515
 10
92.19075518528565
 20
-130.854717306696
 10
92.19075518528565
 20
-130.854717306696
 10
92.40228404807999
 20
-130.9711615340975
 10
92.40228404807999
 20
-130.9711615340975
 10
92.39608287620653
 20
-130.9942436738487
 10
92.37265622690684
 20
-131.0917398760812
 10
92.36645505503338
 20
-131.1106879012501
 97
        0
 97
        0
 92
        1
 93
        1
 72
     4
 94
        3
 73
     0
 74
     1
 95
       17
 96
       13
 40
0.0
 40
0.0
 40
0.0
 40
0.0
 40
1.0
 40
1.0
 40
1.0
 40
2.0
 40
2.0
 40
2.0
 40
3.0
 40
3.0
 40
3.0
 40
4.0
 40
4.0
 40
4.0
 40
4.0
 10
91.94546438673586
 20
-130.7679009004678
 10
91.90929088414073
 20
-130.5098632486225
 10
91.80145939545241
 20
-130.3172824109971
 10
91.78044431299239
 20
-130.2814534179505
 10
91.78044431299239
 20
-130.2814534179505
 10
91.97061358377819
 20
-130.2328775716084
 10
91.97061358377819
 20
-130.2328775716084
 10
92.00885414366445
 20
-130.3004014431193
 10
92.05742999000648
 20
-130.3913519639299
 10
92.13976777210395
 20
-130.6769503796572
 10
92.13976777210395
 20
-130.6769503796572
 10
91.94546438673586
 20
-130.7679009004678
 10
91.94546438673586
 20
-130.7679009004678
 97
        0
 97
        0
 92
        1
 93
        1
 72
     4
 94
        3
 73
     0
 74
     1
 95
       23
 96
       19
 40
0.0
 40
0.0
 40
0.0
 40
0.0
 40
1.0
 40
1.0
 40
1.0
 40
2.0
 40
2.0
 40
2.0
 40
3.0
 40
3.0
 40
3.0
 40
4.0
 40
4.0
 40
4.0
 40
5.0
 40
5.0
 40
5.0
 40
6.0
 40
6.0
 40
6.0
 40
6.0
 10
92.62655976416976
 20
-131.0703802840727
 10
92.58831920428348
 20
-130.9584146808021
 10
92.55869138311033
 20
-130.8950249238735
 10
92.49530162618173
 20
-130.7892604924763
 10
92.44018009841774
 20
-130.7003770289569
 10
92.37679034148914
 20
-130.5946125975597
 10
92.32201332327367
 20
-130.5288112737914
 10
92.32201332327367
 20
-130.5288112737914
 10
92.51424965135061
 20
-130.4337266383985
 10
92.51424965135061
 20
-130.4337266383985
 10
92.533542186068
 20
-130.4633544595717
 10
92.6244927068786
 20
-130.5946125975597
 10
92.64137367475632
 20
-130.6221733614417
 10
92.6961506929718
 20
-130.7065782008303
 10
92.78296709920009
 20
-130.8653971027003
 10
92.80432669120864
 20
-130.9119058917512
 10
92.80432669120864
 20
-130.9119058917512
 10
92.62655976416976
 20
-131.0703802840727
 10
92.62655976416976
 20
-131.0703802840727
 97
        0
 97
        0
 75
     2
 76
     1
 98
        0
  0
SPLINE
  5
A6
330
9C
100
AcDbEntity
  8
_U+30EC_U+30A4_U+30E4_U+30FC 1
370
     0
100
AcDbSpline
210
0.0
220
0.0
230
1.0
 70
    11
 71
     3
 72
    83
 73
    79
 74
     0
 42
0.0000000001
 43
0.0000000001
 12
1.0
 22
0.0
 32
0.0
 13
1.0
 23
0.0
 33
0.0
 40
0.0
 40
0.0
 40
0.0
 40
0.0
 40
1.0
 40
1.0
 40
1.0
 40
2.0
 40
2.0
 40
2.0
 40
3.0
 40
3.0
 40
3.0
 40
4.0
 40
4.0
 40
4.0
 40
5.0
 40
5.0
 40
5.0
 40
6.0
 40
6.0
 40
6.0
 40
7.0
 40
7.0
 40
7.0
 40
8.0
 40
8.0
 40
8.0
 40
9.0
 40
9.0
 40
9.0
 40
10.0
 40
10.0
 40
10.0
 40
11.0
 40
11.0
 40
11.0
 40
12.0
 40
12.0
 40
12.0
 40
13.0
 40
13.0
 40
13.0
 40
14.0
 40
14.0
 40
14.0
 40
15.0
 40
15.0
 40
15.0
 40
16.0
 40
16.0
 40
16.0
 40
17.0
 40
17.0
 40
17.0
 40
18.0
 40
18.0
 40
18.0
 40
19.0
 40
19.0
 40
19.0
 40
20.0
 40
20.0
 40
20.0
 40
21.0
 40
21.0
 40
21.0
 40
22.0
 40
22.0
 40
22.0
 40
23.0
 40
23.0
 40
23.0
 40
24.0
 40
24.0
 40
24.0
 40
25.0
 40
25.0
 40
25.0
 40
26.0
 40
26.0
 40
26.0
 40
26.0
 10
93.58601885681183
 20
-130.0020561740967
 30
0.0
 10
93.65354272832273
 20
-130.2390787434819
 30
0.0
 10
93.82304142619702
 20
-130.4230468423943
 30
0.0
 10
93.85680336195247
 20
-130.4547417208586
 30
0.0
 10
93.85680336195247
 20
-130.4547417208586
 30
0.0
 10
93.73415796267757
 20
-130.6028808267243
 30
0.0
 10
93.73415796267757
 20
-130.6028808267243
 30
0.0
 10
93.664222524327
 20
-130.5353569552134
 30
0.0
 10
93.60703393927186
 20
-130.4571532876982
 30
0.0
 10
93.55639103563868
 20
-130.3744709960522
 30
0.0
 10
93.55639103563868
 20
-130.3744709960522
 30
0.0
 10
93.55639103563868
 20
-130.6518011826148
 30
0.0
 10
93.55639103563868
 20
-130.6518011826148
 30
0.0
 10
93.55639103563868
 20
-130.7892604924763
 30
0.0
 10
93.56259220751214
 20
-131.2164523326473
 30
0.0
 10
93.57533906080756
 20
-131.3308295027576
 30
0.0
 10
93.57533906080756
 20
-131.3308295027576
 30
0.0
 10
93.3469292301355
 20
-131.3308295027576
 30
0.0
 10
93.3469292301355
 20
-131.3308295027576
 30
0.0
 10
93.3510633447178
 20
-131.2522813256939
 30
0.0
 10
93.35760902613977
 20
-131.1699435435964
 30
0.0
 10
93.36381019801321
 20
-131.0111246417264
 30
0.0
 10
93.36587725530437
 20
-130.9584146808021
 30
0.0
 10
93.37655705130864
 20
-130.6896972329526
 30
0.0
 10
93.37655705130864
 20
-130.6580023544883
 30
0.0
 10
93.37655705130864
 20
-130.6580023544883
 30
0.0
 10
93.37655705130864
 20
-130.4485405489851
 30
0.0
 10
93.37655705130864
 20
-130.4485405489851
 30
0.0
 10
93.30248749837577
 20
-130.6390543293194
 30
0.0
 10
93.18190915639202
 20
-130.806141460354
 30
0.0
 10
93.1374674246323
 20
-130.8526502494049
 30
0.0
 10
93.1374674246323
 20
-130.8526502494049
 30
0.0
 10
92.94488658700683
 20
-130.7530869898812
 30
0.0
 10
92.94488658700683
 20
-130.7530869898812
 30
0.0
 10
93.01275496806626
 20
-130.6938313475349
 30
0.0
 10
93.12265351404572
 20
-130.5946125975597
 30
0.0
 10
93.21567109214747
 20
-130.3978976453519
 30
0.0
 10
93.26459144803802
 20
-130.2942002712459
 30
0.0
 10
93.3193684662535
 20
-130.137448426667
 30
0.0
 10
93.33831649142238
 20
-130.0020561740967
 30
0.0
 10
93.3235025808358
 20
-130.0020561740967
 30
0.0
 10
93.17570798451858
 20
-130.0020561740967
 30
0.0
 10
93.05926375711714
 20
-130.019281651523
 30
0.0
 10
93.05926375711714
 20
-130.019281651523
 30
0.0
 10
93.05926375711714
 20
-129.8118869033109
 30
0.0
 10
93.05926375711714
 20
-129.8118869033109
 30
0.0
 10
93.17777504180972
 20
-129.8287678711887
 30
0.0
 10
93.33418237684008
 20
-129.8287678711887
 30
0.0
 10
93.33624943413122
 20
-129.8287678711887
 30
0.0
 10
93.33624943413122
 20
-129.8287678711887
 30
0.0
 10
93.3744899940175
 20
-129.8287678711887
 30
0.0
 10
93.3744899940175
 20
-129.8287678711887
 30
0.0
 10
93.3744899940175
 20
-129.6193060656855
 30
0.0
 10
93.3744899940175
 20
-129.60655921239
 30
0.0
 10
93.36794431259551
 20
-129.3950303495957
 30
0.0
 10
93.36794431259551
 20
-129.3950303495957
 30
0.0
 10
93.59015297139413
 20
-129.4119113174734
 30
0.0
 10
93.59015297139413
 20
-129.4119113174734
 30
0.0
 10
93.59876571010726
 20
-129.4139783747646
 30
0.0
 10
93.62391490714958
 20
-129.4160454320557
 30
0.0
 10
93.62391490714958
 20
-129.4394720813554
 30
0.0
 10
93.62391490714958
 20
-129.4584201065243
 30
0.0
 10
93.609100996563
 20
-129.4649657879463
 30
0.0
 10
93.57533906080756
 20
-129.4797796985328
 30
0.0
 10
93.57327200351641
 20
-129.5283555448749
 30
0.0
 10
93.56259220751214
 20
-129.7736463434246
 30
0.0
 10
93.56259220751214
 20
-129.8287678711887
 30
0.0
 10
93.56259220751214
 20
-129.8287678711887
 30
0.0
 10
93.61151256340268
 20
-129.8287678711887
 30
0.0
 10
93.61151256340268
 20
-129.8287678711887
 30
0.0
 10
93.6559542951624
 20
-129.8287678711887
 30
0.0
 10
93.79754771960617
 20
-129.8267008138975
 30
0.0
 10
93.89263235499907
 20
-129.8118869033109
 30
0.0
 10
93.89263235499907
 20
-129.8118869033109
 30
0.0
 10
93.89263235499907
 20
-130.019281651523
 30
0.0
 10
93.89263235499907
 20
-130.019281651523
 30
0.0
 10
93.76998695572418
 20
-130.0020561740967
 30
0.0
 10
93.62391490714958
 20
-130.0020561740967
 30
0.0
 10
93.58601885681183
 20
-130.0020561740967
 30
0.0
  0
SPLINE
  5
A7
330
9C
100
AcDbEntity
  8
_U+30EC_U+30A4_U+30E4_U+30FC 1
370
     0
100
AcDbSpline
210
0.0
220
0.0
230
1.0
 70
    11
 71
     3
 72
    80
 73
    76
 74
     0
 42
0.0000000001
 43
0.0000000001
 12
1.0
 22
0.0
 32
0.0
 13
1.0
 23
0.0
 33
0.0
 40
0.0
 40
0.0
 40
0.0
 40
0.0
 40
1.0
 40
1.0
 40
1.0
 40
2.0
 40
2.0
 40
2.0
 40
3.0
 40
3.0
 40
3.0
 40
4.0
 40
4.0
 40
4.0
 40
5.0
 40
5.0
 40
5.0
 40
6.0
 40
6.0
 40
6.0
 40
7.0
 40
7.0
 40
7.0
 40
8.0
 40
8.0
 40
8.0
 40
9.0
 40
9.0
 40
9.0
 40
10.0
 40
10.0
 40
10.0
 40
11.0
 40
11.0
 40
11.0
 40
12.0
 40
12.0
 40
12.0
 40
13.0
 40
13.0
 40
13.0
 40
14.0
 40
14.0
 40
14.0
 40
15.0
 40
15.0
 40
15.0
 40
16.0
 40
16.0
 40
16.0
 40
17.0
 40
17.0
 40
17.0
 40
18.0
 40
18.0
 40
18.0
 40
19.0
 40
19.0
 40
19.0
 40
20.0
 40
20.0
 40
20.0
 40
21.0
 40
21.0
 40
21.0
 40
22.0
 40
22.0
 40
22.0
 40
23.0
 40
23.0
 40
23.0
 40
24.0
 40
24.0
 40
24.0
 40
25.0
 40
25.0
 40
25.0
 40
25.0
 10
94.66261119595241
 20
-129.9958550022233
 30
0.0
 10
94.66261119595241
 20
-129.9958550022233
 30
0.0
 10
94.66261119595241
 20
-131.0493652016127
 30
0.0
 10
94.66261119595241
 20
-131.0493652016127
 30
0.0
 10
94.66261119595241
 20
-131.2102511607738
 30
0.0
 10
94.66261119595241
 20
-131.2736409177024
 30
0.0
 10
94.55271264997293
 20
-131.3012016815844
 30
0.0
 10
94.52308482879978
 20
-131.309469910749
 30
0.0
 10
94.43213430798919
 20
-131.3263508786268
 30
0.0
 10
94.32843693388317
 20
-131.3201497067533
 30
0.0
 10
94.32843693388317
 20
-131.3201497067533
 30
0.0
 10
94.195111738604
 20
-131.1127549585413
 30
0.0
 10
94.195111738604
 20
-131.1127549585413
 30
0.0
 10
94.26504717695458
 20
-131.1234347545455
 30
0.0
 10
94.34772946860058
 20
-131.1255018118367
 30
0.0
 10
94.39423825765145
 20
-131.1255018118367
 30
0.0
 10
94.4555609572889
 20
-131.1255018118367
 30
0.0
 10
94.47450898245776
 20
-131.1127549585413
 30
0.0
 10
94.47450898245776
 20
-131.0431640297392
 30
0.0
 10
94.47450898245776
 20
-131.0431640297392
 30
0.0
 10
94.47450898245776
 20
-130.323828092419
 30
0.0
 10
94.47450898245776
 20
-130.323828092419
 30
0.0
 10
94.33050399117433
 20
-130.653868239906
 30
0.0
 10
94.04731714228679
 20
-130.9201741209158
 30
0.0
 10
93.92673880030304
 20
-130.9921766165575
 30
0.0
 10
93.92673880030304
 20
-130.9921766165575
 30
0.0
 10
93.70453014150442
 20
-130.8674641599915
 30
0.0
 10
93.70453014150442
 20
-130.8674641599915
 30
0.0
 10
93.87988550170364
 20
-130.7806477537632
 30
0.0
 10
94.01321069698281
 20
-130.6834960610791
 30
0.0
 10
94.15308157368396
 20
-130.4971163953271
 30
0.0
 10
94.29880911271002
 20
-130.2983343858282
 30
0.0
 10
94.35393064047402
 20
-130.1353813693759
 30
0.0
 10
94.38355846164717
 20
-129.9958550022233
 30
0.0
 10
94.38355846164717
 20
-129.9958550022233
 30
0.0
 10
94.3136230232966
 20
-129.9958550022233
 30
0.0
 10
94.3136230232966
 20
-129.9958550022233
 30
0.0
 10
94.23955347036373
 20
-129.9958550022233
 30
0.0
 10
94.08521319262454
 20
-130.0020561740967
 30
0.0
 10
93.99839678639624
 20
-130.0148030273921
 30
0.0
 10
93.99839678639624
 20
-130.0148030273921
 30
0.0
 10
93.99839678639624
 20
-129.8053412218889
 30
0.0
 10
93.99839678639624
 20
-129.8053412218889
 30
0.0
 10
94.10622827508456
 20
-129.8201551324755
 30
0.0
 10
94.26504717695458
 20
-129.8246337566063
 30
0.0
 10
94.3136230232966
 20
-129.8246337566063
 30
0.0
 10
94.3136230232966
 20
-129.8246337566063
 30
0.0
 10
94.47450898245776
 20
-129.8246337566063
 30
0.0
 10
94.47450898245776
 20
-129.8246337566063
 30
0.0
 10
94.47450898245776
 20
-129.6913085613272
 30
0.0
 10
94.47244192516662
 20
-129.5366237740395
 30
0.0
 10
94.4596950718712
 20
-129.4057101456
 30
0.0
 10
94.4596950718712
 20
-129.4057101456
 30
0.0
 10
94.67742510653898
 20
-129.4225911134777
 30
0.0
 10
94.67742510653898
 20
-129.4225911134777
 30
0.0
 10
94.69223901712556
 20
-129.4246581707689
 30
0.0
 10
94.70705292771213
 20
-129.4287922853511
 30
0.0
 10
94.70705292771213
 20
-129.4456732532289
 30
0.0
 10
94.70705292771213
 20
-129.4649657879463
 30
0.0
 10
94.70085175583868
 20
-129.4690999025286
 30
0.0
 10
94.66708982008323
 20
-129.4859808704063
 30
0.0
 10
94.66261119595241
 20
-129.5411023981703
 30
0.0
 10
94.66261119595241
 20
-129.557983366048
 30
0.0
 10
94.66261119595241
 20
-129.7123236437872
 30
0.0
 10
94.66261119595241
 20
-129.7123236437872
 30
0.0
 10
94.66261119595241
 20
-129.8222221897667
 30
0.0
 10
94.66261119595241
 20
-129.8222221897667
 30
0.0
 10
94.73909231572496
 20
-129.8201551324755
 30
0.0
 10
94.84485674712212
 20
-129.8180880751844
 30
0.0
 10
94.94614255438847
 20
-129.8053412218889
 30
0.0
 10
94.94614255438847
 20
-129.8053412218889
 30
0.0
 10
94.94614255438847
 20
-130.012735970101
 30
0.0
 10
94.94614255438847
 20
-130.012735970101
 30
0.0
 10
94.8403781229913
 20
-129.9999891168056
 30
0.0
 10
94.72186683829871
 20
-129.9979220595144
 30
0.0
 10
94.66261119595241
 20
-129.9958550022233
 30
0.0
  0
HATCH
  5
A8
330
9C
100
AcDbEntity
  8
_U+30EC_U+30A4_U+30E4_U+30FC 1
 62
   179
420
  2234388
100
AcDbHatch
 10
0.0
 20
0.0
 30
0.0
210
0.0
220
0.0
230
1.0
  2
SOLID
 70
     1
 71
     0
 91
        2
 92
        1
 93
        1
 72
     4
 94
        3
 73
     0
 74
     1
 95
       83
 96
       79
 40
0.0
 40
0.0
 40
0.0
 40
0.0
 40
1.0
 40
1.0
 40
1.0
 40
2.0
 40
2.0
 40
2.0
 40
3.0
 40
3.0
 40
3.0
 40
4.0
 40
4.0
 40
4.0
 40
5.0
 40
5.0
 40
5.0
 40
6.0
 40
6.0
 40
6.0
 40
7.0
 40
7.0
 40
7.0
 40
8.0
 40
8.0
 40
8.0
 40
9.0
 40
9.0
 40
9.0
 40
10.0
 40
10.0
 40
10.0
 40
11.0
 40
11.0
 40
11.0
 40
12.0
 40
12.0
 40
12.0
 40
13.0
 40
13.0
 40
13.0
 40
14.0
 40
14.0
 40
14.0
 40
15.0
 40
15.0
 40
15.0
 40
16.0
 40
16.0
 40
16.0
 40
17.0
 40
17.0
 40
17.0
 40
18.0
 40
18.0
 40
18.0
 40
19.0
 40
19.0
 40
19.0
 40
20.0
 40
20.0
 40
20.0
 40
21.0
 40
21.0
 40
21.0
 40
22.0
 40
22.0
 40
22.0
 40
23.0
 40
23.0
 40
23.0
 40
24.0
 40
24.0
 40
24.0
 40
25.0
 40
25.0
 40
25.0
 40
26.0
 40
26.0
 40
26.0
 40
26.0
 10
93.58601885681183
 20
-130.0020561740967
 10
93.65354272832273
 20
-130.2390787434819
 10
93.82304142619702
 20
-130.4230468423943
 10
93.85680336195247
 20
-130.4547417208586
 10
93.85680336195247
 20
-130.4547417208586
 10
93.73415796267757
 20
-130.6028808267243
 10
93.73415796267757
 20
-130.6028808267243
 10
93.664222524327
 20
-130.5353569552134
 10
93.60703393927186
 20
-130.4571532876982
 10
93.55639103563868
 20
-130.3744709960522
 10
93.55639103563868
 20
-130.3744709960522
 10
93.55639103563868
 20
-130.6518011826148
 10
93.55639103563868
 20
-130.6518011826148
 10
93.55639103563868
 20
-130.7892604924763
 10
93.56259220751214
 20
-131.2164523326473
 10
93.57533906080756
 20
-131.3308295027576
 10
93.57533906080756
 20
-131.3308295027576
 10
93.3469292301355
 20
-131.3308295027576
 10
93.3469292301355
 20
-131.3308295027576
 10
93.3510633447178
 20
-131.2522813256939
 10
93.35760902613977
 20
-131.1699435435964
 10
93.36381019801321
 20
-131.0111246417264
 10
93.36587725530437
 20
-130.9584146808021
 10
93.37655705130864
 20
-130.6896972329526
 10
93.37655705130864
 20
-130.6580023544883
 10
93.37655705130864
 20
-130.6580023544883
 10
93.37655705130864
 20
-130.4485405489851
 10
93.37655705130864
 20
-130.4485405489851
 10
93.30248749837577
 20
-130.6390543293194
 10
93.18190915639202
 20
-130.806141460354
 10
93.1374674246323
 20
-130.8526502494049
 10
93.1374674246323
 20
-130.8526502494049
 10
92.94488658700683
 20
-130.7530869898812
 10
92.94488658700683
 20
-130.7530869898812
 10
93.01275496806626
 20
-130.6938313475349
 10
93.12265351404572
 20
-130.5946125975597
 10
93.21567109214747
 20
-130.3978976453519
 10
93.26459144803802
 20
-130.2942002712459
 10
93.3193684662535
 20
-130.137448426667
 10
93.33831649142238
 20
-130.0020561740967
 10
93.3235025808358
 20
-130.0020561740967
 10
93.17570798451858
 20
-130.0020561740967
 10
93.05926375711714
 20
-130.019281651523
 10
93.05926375711714
 20
-130.019281651523
 10
93.05926375711714
 20
-129.8118869033109
 10
93.05926375711714
 20
-129.8118869033109
 10
93.17777504180972
 20
-129.8287678711887
 10
93.33418237684008
 20
-129.8287678711887
 10
93.33624943413122
 20
-129.8287678711887
 10
93.33624943413122
 20
-129.8287678711887
 10
93.3744899940175
 20
-129.8287678711887
 10
93.3744899940175
 20
-129.8287678711887
 10
93.3744899940175
 20
-129.6193060656855
 10
93.3744899940175
 20
-129.60655921239
 10
93.36794431259551
 20
-129.3950303495957
 10
93.36794431259551
 20
-129.3950303495957
 10
93.59015297139413
 20
-129.4119113174734
 10
93.59015297139413
 20
-129.4119113174734
 10
93.59876571010726
 20
-129.4139783747646
 10
93.62391490714958
 20
-129.4160454320557
 10
93.62391490714958
 20
-129.4394720813554
 10
93.62391490714958
 20
-129.4584201065243
 10
93.609100996563
 20
-129.4649657879463
 10
93.57533906080756
 20
-129.4797796985328
 10
93.57327200351641
 20
-129.5283555448749
 10
93.56259220751214
 20
-129.7736463434246
 10
93.56259220751214
 20
-129.8287678711887
 10
93.56259220751214
 20
-129.8287678711887
 10
93.61151256340268
 20
-129.8287678711887
 10
93.61151256340268
 20
-129.8287678711887
 10
93.6559542951624
 20
-129.8287678711887
 10
93.79754771960617
 20
-129.8267008138975
 10
93.89263235499907
 20
-129.8118869033109
 10
93.89263235499907
 20
-129.8118869033109
 10
93.89263235499907
 20
-130.019281651523
 10
93.89263235499907
 20
-130.019281651523
 10
93.76998695572418
 20
-130.0020561740967
 10
93.62391490714958
 20
-130.0020561740967
 10
93.58601885681183
 20
-130.0020561740967
 97
        0
 97
        0
 92
        1
 93
        1
 72
     4
 94
        3
 73
     0
 74
     1
 95
       80
 96
       76
 40
0.0
 40
0.0
 40
0.0
 40
0.0
 40
1.0
 40
1.0
 40
1.0
 40
2.0
 40
2.0
 40
2.0
 40
3.0
 40
3.0
 40
3.0
 40
4.0
 40
4.0
 40
4.0
 40
5.0
 40
5.0
 40
5.0
 40
6.0
 40
6.0
 40
6.0
 40
7.0
 40
7.0
 40
7.0
 40
8.0
 40
8.0
 40
8.0
 40
9.0
 40
9.0
 40
9.0
 40
10.0
 40
10.0
 40
10.0
 40
11.0
 40
11.0
 40
11.0
 40
12.0
 40
12.0
 40
12.0
 40
13.0
 40
13.0
 40
13.0
 40
14.0
 40
14.0
 40
14.0
 40
15.0
 40
15.0
 40
15.0
 40
16.0
 40
16.0
 40
16.0
 40
17.0
 40
17.0
 40
17.0
 40
18.0
 40
18.0
 40
18.0
 40
19.0
 40
19.0
 40
19.0
 40
20.0
 40
20.0
 40
20.0
 40
21.0
 40
21.0
 40
21.0
 40
22.0
 40
22.0
 40
22.0
 40
23.0
 40
23.0
 40
23.0
 40
24.0
 40
24.0
 40
24.0
 40
25.0
 40
25.0
 40
25.0
 40
25.0
 10
94.66261119595241
 20
-129.9958550022233
 10
94.66261119595241
 20
-129.9958550022233
 10
94.66261119595241
 20
-131.0493652016127
 10
94.66261119595241
 20
-131.0493652016127
 10
94.66261119595241
 20
-131.2102511607738
 10
94.66261119595241
 20
-131.2736409177024
 10
94.55271264997293
 20
-131.3012016815844
 10
94.52308482879978
 20
-131.309469910749
 10
94.43213430798919
 20
-131.3263508786268
 10
94.32843693388317
 20
-131.3201497067533
 10
94.32843693388317
 20
-131.3201497067533
 10
94.195111738604
 20
-131.1127549585413
 10
94.195111738604
 20
-131.1127549585413
 10
94.26504717695458
 20
-131.1234347545455
 10
94.34772946860058
 20
-131.1255018118367
 10
94.39423825765145
 20
-131.1255018118367
 10
94.4555609572889
 20
-131.1255018118367
 10
94.47450898245776
 20
-131.1127549585413
 10
94.47450898245776
 20
-131.0431640297392
 10
94.47450898245776
 20
-131.0431640297392
 10
94.47450898245776
 20
-130.323828092419
 10
94.47450898245776
 20
-130.323828092419
 10
94.33050399117433
 20
-130.653868239906
 10
94.04731714228679
 20
-130.9201741209158
 10
93.92673880030304
 20
-130.9921766165575
 10
93.92673880030304
 20
-130.9921766165575
 10
93.70453014150442
 20
-130.8674641599915
 10
93.70453014150442
 20
-130.8674641599915
 10
93.87988550170364
 20
-130.7806477537632
 10
94.01321069698281
 20
-130.6834960610791
 10
94.15308157368396
 20
-130.4971163953271
 10
94.29880911271002
 20
-130.2983343858282
 10
94.35393064047402
 20
-130.1353813693759
 10
94.38355846164717
 20
-129.9958550022233
 10
94.38355846164717
 20
-129.9958550022233
 10
94.3136230232966
 20
-129.9958550022233
 10
94.3136230232966
 20
-129.9958550022233
 10
94.23955347036373
 20
-129.9958550022233
 10
94.08521319262454
 20
-130.0020561740967
 10
93.99839678639624
 20
-130.0148030273921
 10
93.99839678639624
 20
-130.0148030273921
 10
93.99839678639624
 20
-129.8053412218889
 10
93.99839678639624
 20
-129.8053412218889
 10
94.10622827508456
 20
-129.8201551324755
 10
94.26504717695458
 20
-129.8246337566063
 10
94.3136230232966
 20
-129.8246337566063
 10
94.3136230232966
 20
-129.8246337566063
 10
94.47450898245776
 20
-129.8246337566063
 10
94.47450898245776
 20
-129.8246337566063
 10
94.47450898245776
 20
-129.6913085613272
 10
94.47244192516662
 20
-129.5366237740395
 10
94.4596950718712
 20
-129.4057101456
 10
94.4596950718712
 20
-129.4057101456
 10
94.67742510653898
 20
-129.4225911134777
 10
94.67742510653898
 20
-129.4225911134777
 10
94.69223901712556
 20
-129.4246581707689
 10
94.70705292771213
 20
-129.4287922853511
 10
94.70705292771213
 20
-129.4456732532289
 10
94.70705292771213
 20
-129.4649657879463
 10
94.70085175583868
 20
-129.4690999025286
 10
94.66708982008323
 20
-129.4859808704063
 10
94.66261119595241
 20
-129.5411023981703
 10
94.66261119595241
 20
-129.557983366048
 10
94.66261119595241
 20
-129.7123236437872
 10
94.66261119595241
 20
-129.7123236437872
 10
94.66261119595241
 20
-129.8222221897667
 10
94.66261119595241
 20
-129.8222221897667
 10
94.73909231572496
 20
-129.8201551324755
 10
94.84485674712212
 20
-129.8180880751844
 10
94.94614255438847
 20
-129.8053412218889
 10
94.94614255438847
 20
-129.8053412218889
 10
94.94614255438847
 20
-130.012735970101
 10
94.94614255438847
 20
-130.012735970101
 10
94.8403781229913
 20
-129.9999891168056
 10
94.72186683829871
 20
-129.9979220595144
 10
94.66261119595241
 20
-129.9958550022233
 97
        0
 97
        0
 75
     2
 76
     1
 98
        0
  0
SPLINE
  5
A9
330
9C
100
AcDbEntity
  8
_U+30EC_U+30A4_U+30E4_U+30FC 1
370
     0
100
AcDbSpline
210
0.0
220
0.0
230
1.0
 70
    11
 71
     3
 72
    23
 73
    19
 74
     0
 42
0.0000000001
 43
0.0000000001
 12
1.0
 22
0.0
 32
0.0
 13
1.0
 23
0.0
 33
0.0
 40
0.0
 40
0.0
 40
0.0
 40
0.0
 40
1.0
 40
1.0
 40
1.0
 40
2.0
 40
2.0
 40
2.0
 40
3.0
 40
3.0
 40
3.0
 40
4.0
 40
4.0
 40
4.0
 40
5.0
 40
5.0
 40
5.0
 40
6.0
 40
6.0
 40
6.0
 40
6.0
 10
95.8649495203046
 20
-131.3814724063907
 30
0.0
 10
95.69992944656113
 20
-131.1888915687653
 30
0.0
 10
95.46738550130677
 20
-130.9139729490423
 30
0.0
 10
95.46738550130677
 20
-130.3662027668876
 30
0.0
 10
95.46738550130677
 20
-129.8180880751844
 30
0.0
 10
95.69992944656113
 20
-129.5431694554614
 30
0.0
 10
95.8649495203046
 20
-129.350588617836
 30
0.0
 10
95.8649495203046
 20
-129.350588617836
 30
0.0
 10
95.97691512357522
 20
-129.4501518773597
 30
0.0
 10
95.97691512357522
 20
-129.4501518773597
 30
0.0
 10
95.8373887564226
 20
-129.6172390083943
 30
0.0
 10
95.62585989362826
 20
-129.8732096029484
 30
0.0
 10
95.62585989362826
 20
-130.3662027668876
 30
0.0
 10
95.62585989362826
 20
-130.8588514212784
 30
0.0
 10
95.8373887564226
 20
-131.1148220158324
 30
0.0
 10
95.97691512357522
 20
-131.281909146867
 30
0.0
 10
95.97691512357522
 20
-131.281909146867
 30
0.0
 10
95.8649495203046
 20
-131.3814724063907
 30
0.0
 10
95.8649495203046
 20
-131.3814724063907
 30
0.0
  0
HATCH
  5
AA
330
9C
100
AcDbEntity
  8
_U+30EC_U+30A4_U+30E4_U+30FC 1
 62
   179
420
  2234388
100
AcDbHatch
 10
0.0
 20
0.0
 30
0.0
210
0.0
220
0.0
230
1.0
  2
SOLID
 70
     1
 71
     0
 91
        1
 92
        1
 93
        1
 72
     4
 94
        3
 73
     0
 74
     1
 95
       23
 96
       19
 40
0.0
 40
0.0
 40
0.0
 40
0.0
 40
1.0
 40
1.0
 40
1.0
 40
2.0
 40
2.0
 40
2.0
 40
3.0
 40
3.0
 40
3.0
 40
4.0
 40
4.0
 40
4.0
 40
5.0
 40
5.0
 40
5.0
 40
6.0
 40
6.0
 40
6.0
 40
6.0
 10
95.8649495203046
 20
-131.3814724063907
 10
95.69992944656113
 20
-131.1888915687653
 10
95.46738550130677
 20
-130.9139729490423
 10
95.46738550130677
 20
-130.3662027668876
 10
95.46738550130677
 20
-129.8180880751844
 10
95.69992944656113
 20
-129.5431694554614
 10
95.8649495203046
 20
-129.350588617836
 10
95.8649495203046
 20
-129.350588617836
 10
95.97691512357522
 20
-129.4501518773597
 10
95.97691512357522
 20
-129.4501518773597
 10
95.8373887564226
 20
-129.6172390083943
 10
95.62585989362826
 20
-129.8732096029484
 10
95.62585989362826
 20
-130.3662027668876
 10
95.62585989362826
 20
-130.8588514212784
 10
95.8373887564226
 20
-131.1148220158324
 10
95.97691512357522
 20
-131.281909146867
 10
95.97691512357522
 20
-131.281909146867
 10
95.8649495203046
 20
-131.3814724063907
 10
95.8649495203046
 20
-131.3814724063907
 97
        0
 97
        0
 75
     2
 76
     1
 98
        0
  0
SPLINE
  5
AB
330
9C
100
AcDbEntity
  8
_U+30EC_U+30A4_U+30E4_U+30FC 1
370
     0
100
AcDbSpline
210
0.0
220
0.0
230
1.0
 70
    11
 71
     3
 72
    38
 73
    34
 74
     0
 42
0.0000000001
 43
0.0000000001
 12
1.0
 22
0.0
 32
0.0
 13
1.0
 23
0.0
 33
0.0
 40
0.0
 40
0.0
 40
0.0
 40
0.0
 40
1.0
 40
1.0
 40
1.0
 40
2.0
 40
2.0
 40
2.0
 40
3.0
 40
3.0
 40
3.0
 40
4.0
 40
4.0
 40
4.0
 40
5.0
 40
5.0
 40
5.0
 40
6.0
 40
6.0
 40
6.0
 40
7.0
 40
7.0
 40
7.0
 40
8.0
 40
8.0
 40
8.0
 40
9.0
 40
9.0
 40
9.0
 40
10.0
 40
10.0
 40
10.0
 40
11.0
 40
11.0
 40
11.0
 40
11.0
 10
97.82520885141176
 20
-129.9452120985901
 30
0.0
 10
97.63882918565974
 20
-130.2053168077265
 30
0.0
 10
97.55855846085342
 20
-130.3172824109971
 30
0.0
 10
97.3597764513545
 20
-130.4867811088714
 30
0.0
 10
97.3597764513545
 20
-130.4867811088714
 30
0.0
 10
97.19268932031989
 20
-130.3365749457145
 30
0.0
 10
97.19268932031989
 20
-130.3365749457145
 30
0.0
 10
97.3914713298188
 20
-130.2180636610219
 30
0.0
 10
97.54787866484915
 20
-130.0296169379787
 30
0.0
 10
97.68120386012832
 20
-129.8012071073067
 30
0.0
 10
97.68120386012832
 20
-129.8012071073067
 30
0.0
 10
96.83922252353325
 20
-129.8012071073067
 30
0.0
 10
96.83922252353325
 20
-129.8012071073067
 30
0.0
 10
96.67626950708093
 20
-129.8012071073067
 30
0.0
 10
96.4247775366577
 20
-129.8074082791801
 30
0.0
 10
96.21738278844566
 20
-129.8160210178932
 30
0.0
 10
96.21738278844566
 20
-129.8160210178932
 30
0.0
 10
96.21738278844566
 20
-129.6234401802677
 30
0.0
 10
96.21738278844566
 20
-129.6234401802677
 30
0.0
 10
96.38446991948028
 20
-129.634119976272
 30
0.0
 10
96.64044051403434
 20
-129.6382540908543
 30
0.0
 10
96.82854272752898
 20
-129.6382540908543
 30
0.0
 10
96.82854272752898
 20
-129.6382540908543
 30
0.0
 10
97.33428274476366
 20
-129.6382540908543
 30
0.0
 10
97.33428274476366
 20
-129.6382540908543
 30
0.0
 10
97.46967499733397
 20
-129.6382540908543
 30
0.0
 10
97.64296330024204
 20
-129.6234401802677
 30
0.0
 10
97.82073022728093
 20
-129.5982909832254
 30
0.0
 10
97.82073022728093
 20
-129.5982909832254
 30
0.0
 10
97.9774820718598
 20
-129.7905273113024
 30
0.0
 10
97.9774820718598
 20
-129.7905273113024
 30
0.0
 10
97.93097328280892
 20
-129.8118869033109
 30
0.0
 10
97.91615937222235
 20
-129.8180880751844
 30
0.0
 10
97.82520885141176
 20
-129.9452120985901
 30
0.0
  0
SPLINE
  5
AC
330
9C
100
AcDbEntity
  8
_U+30EC_U+30A4_U+30E4_U+30FC 1
370
     0
100
AcDbSpline
210
0.0
220
0.0
230
1.0
 70
    11
 71
     3
 72
    29
 73
    25
 74
     0
 42
0.0000000001
 43
0.0000000001
 12
1.0
 22
0.0
 32
0.0
 13
1.0
 23
0.0
 33
0.0
 40
0.0
 40
0.0
 40
0.0
 40
0.0
 40
1.0
 40
1.0
 40
1.0
 40
2.0
 40
2.0
 40
2.0
 40
3.0
 40
3.0
 40
3.0
 40
4.0
 40
4.0
 40
4.0
 40
5.0
 40
5.0
 40
5.0
 40
6.0
 40
6.0
 40
6.0
 40
7.0
 40
7.0
 40
7.0
 40
8.0
 40
8.0
 40
8.0
 40
8.0
 10
97.16064993230707
 20
-130.0316839952699
 30
0.0
 10
97.12688799655162
 20
-130.3934190212211
 30
0.0
 10
97.08692488892272
 20
-130.8188883136494
 30
0.0
 10
96.59806583956576
 20
-131.1868245114741
 30
0.0
 10
96.59806583956576
 20
-131.1868245114741
 30
0.0
 10
96.39067109135372
 20
-131.053499316195
 30
0.0
 10
96.39067109135372
 20
-131.053499316195
 30
0.0
 10
96.62976071803007
 20
-130.9181070636246
 30
0.0
 10
96.75688474143578
 20
-130.7213921114169
 30
0.0
 10
96.78203393847811
 20
-130.681429003788
 30
0.0
 10
96.904679337753
 20
-130.4909152234537
 30
0.0
 10
96.93671872576583
 20
-130.3045355577017
 30
0.0
 10
96.93671872576583
 20
-130.061311816443
 30
0.0
 10
96.93671872576583
 20
-130.0148030273921
 30
0.0
 10
96.93671872576583
 20
-129.9810410916367
 30
0.0
 10
96.932240101635
 20
-129.909038595995
 30
0.0
 10
96.932240101635
 20
-129.909038595995
 30
0.0
 10
97.16064993230707
 20
-129.9324652452947
 30
0.0
 10
97.16064993230707
 20
-129.9324652452947
 30
0.0
 10
97.20750323090647
 20
-129.936599359877
 30
0.0
 10
97.21783851736221
 20
-129.964160123759
 30
0.0
 10
97.21783851736221
 20
-129.9789740343455
 30
0.0
 10
97.21783851736221
 20
-129.9999891168056
 30
0.0
 10
97.21163734548877
 20
-130.0020561740967
 30
0.0
 10
97.16064993230707
 20
-130.0316839952699
 30
0.0
  0
HATCH
  5
AD
330
9C
100
AcDbEntity
  8
_U+30EC_U+30A4_U+30E4_U+30FC 1
 62
   179
420
  2234388
100
AcDbHatch
 10
0.0
 20
0.0
 30
0.0
210
0.0
220
0.0
230
1.0
  2
SOLID
 70
     1
 71
     0
 91
        2
 92
        1
 93
        1
 72
     4
 94
        3
 73
     0
 74
     1
 95
       38
 96
       34
 40
0.0
 40
0.0
 40
0.0
 40
0.0
 40
1.0
 40
1.0
 40
1.0
 40
2.0
 40
2.0
 40
2.0
 40
3.0
 40
3.0
 40
3.0
 40
4.0
 40
4.0
 40
4.0
 40
5.0
 40
5.0
 40
5.0
 40
6.0
 40
6.0
 40
6.0
 40
7.0
 40
7.0
 40
7.0
 40
8.0
 40
8.0
 40
8.0
 40
9.0
 40
9.0
 40
9.0
 40
10.0
 40
10.0
 40
10.0
 40
11.0
 40
11.0
 40
11.0
 40
11.0
 10
97.82520885141176
 20
-129.9452120985901
 10
97.63882918565974
 20
-130.2053168077265
 10
97.55855846085342
 20
-130.3172824109971
 10
97.3597764513545
 20
-130.4867811088714
 10
97.3597764513545
 20
-130.4867811088714
 10
97.19268932031989
 20
-130.3365749457145
 10
97.19268932031989
 20
-130.3365749457145
 10
97.3914713298188
 20
-130.2180636610219
 10
97.54787866484915
 20
-130.0296169379787
 10
97.68120386012832
 20
-129.8012071073067
 10
97.68120386012832
 20
-129.8012071073067
 10
96.83922252353325
 20
-129.8012071073067
 10
96.83922252353325
 20
-129.8012071073067
 10
96.67626950708093
 20
-129.8012071073067
 10
96.4247775366577
 20
-129.8074082791801
 10
96.21738278844566
 20
-129.8160210178932
 10
96.21738278844566
 20
-129.8160210178932
 10
96.21738278844566
 20
-129.6234401802677
 10
96.21738278844566
 20
-129.6234401802677
 10
96.38446991948028
 20
-129.634119976272
 10
96.64044051403434
 20
-129.6382540908543
 10
96.82854272752898
 20
-129.6382540908543
 10
96.82854272752898
 20
-129.6382540908543
 10
97.33428274476366
 20
-129.6382540908543
 10
97.33428274476366
 20
-129.6382540908543
 10
97.46967499733397
 20
-129.6382540908543
 10
97.64296330024204
 20
-129.6234401802677
 10
97.82073022728093
 20
-129.5982909832254
 10
97.82073022728093
 20
-129.5982909832254
 10
97.9774820718598
 20
-129.7905273113024
 10
97.9774820718598
 20
-129.7905273113024
 10
97.93097328280892
 20
-129.8118869033109
 10
97.91615937222235
 20
-129.8180880751844
 10
97.82520885141176
 20
-129.9452120985901
 97
        0
 97
        0
 92
        1
 93
        1
 72
     4
 94
        3
 73
     0
 74
     1
 95
       29
 96
       25
 40
0.0
 40
0.0
 40
0.0
 40
0.0
 40
1.0
 40
1.0
 40
1.0
 40
2.0
 40
2.0
 40
2.0
 40
3.0
 40
3.0
 40
3.0
 40
4.0
 40
4.0
 40
4.0
 40
5.0
 40
5.0
 40
5.0
 40
6.0
 40
6.0
 40
6.0
 40
7.0
 40
7.0
 40
7.0
 40
8.0
 40
8.0
 40
8.0
 40
8.0
 10
97.16064993230707
 20
-130.0316839952699
 10
97.12688799655162
 20
-130.3934190212211
 10
97.08692488892272
 20
-130.8188883136494
 10
96.59806583956576
 20
-131.1868245114741
 10
96.59806583956576
 20
-131.1868245114741
 10
96.39067109135372
 20
-131.053499316195
 10
96.39067109135372
 20
-131.053499316195
 10
96.62976071803007
 20
-130.9181070636246
 10
96.75688474143578
 20
-130.7213921114169
 10
96.78203393847811
 20
-130.681429003788
 10
96.904679337753
 20
-130.4909152234537
 10
96.93671872576583
 20
-130.3045355577017
 10
96.93671872576583
 20
-130.061311816443
 10
96.93671872576583
 20
-130.0148030273921
 10
96.93671872576583
 20
-129.9810410916367
 10
96.932240101635
 20
-129.909038595995
 10
96.932240101635
 20
-129.909038595995
 10
97.16064993230707
 20
-129.9324652452947
 10
97.16064993230707
 20
-129.9324652452947
 10
97.20750323090647
 20
-129.936599359877
 10
97.21783851736221
 20
-129.964160123759
 10
97.21783851736221
 20
-129.9789740343455
 10
97.21783851736221
 20
-129.9999891168056
 10
97.21163734548877
 20
-130.0020561740967
 10
97.16064993230707
 20
-130.0316839952699
 97
        0
 97
        0
 75
     2
 76
     1
 98
        0
  0
SPLINE
  5
AE
330
9C
100
AcDbEntity
  8
_U+30EC_U+30A4_U+30E4_U+30FC 1
370
     0
100
AcDbSpline
210
0.0
220
0.0
230
1.0
 70
    11
 71
     3
 72
    35
 73
    31
 74
     0
 42
0.0000000001
 43
0.0000000001
 12
1.0
 22
0.0
 32
0.0
 13
1.0
 23
0.0
 33
0.0
 40
0.0
 40
0.0
 40
0.0
 40
0.0
 40
1.0
 40
1.0
 40
1.0
 40
2.0
 40
2.0
 40
2.0
 40
3.0
 40
3.0
 40
3.0
 40
4.0
 40
4.0
 40
4.0
 40
5.0
 40
5.0
 40
5.0
 40
6.0
 40
6.0
 40
6.0
 40
7.0
 40
7.0
 40
7.0
 40
8.0
 40
8.0
 40
8.0
 40
9.0
 40
9.0
 40
9.0
 40
10.0
 40
10.0
 40
10.0
 40
10.0
 10
98.88802080861133
 20
-129.7505642036735
 30
0.0
 10
98.87975257944673
 20
-129.7567653755469
 30
0.0
 10
98.83737790497815
 20
-129.7822590821378
 30
0.0
 10
98.83117673310471
 20
-129.7884602540112
 30
0.0
 10
98.82910967581356
 20
-130.4423393771116
 30
0.0
 10
98.74642738416756
 20
-130.8736653318649
 30
0.0
 10
98.30855574799232
 20
-131.1193006399632
 30
0.0
 10
98.30855574799232
 20
-131.1193006399632
 30
0.0
 10
98.1414686169577
 20
-130.9415337129244
 30
0.0
 10
98.1414686169577
 20
-130.9415337129244
 30
0.0
 10
98.22380639905516
 20
-130.9053602103292
 30
0.0
 10
98.39330509692945
 20
-130.8357692815272
 30
0.0
 10
98.5180175534955
 20
-130.5670518336777
 30
0.0
 10
98.55591360383325
 20
-130.4843695420317
 30
0.0
 10
98.5814073104241
 20
-130.3872178493476
 30
0.0
 10
98.59415416371952
 20
-130.2625053927816
 30
0.0
 10
98.60690101701495
 20
-130.1522623372536
 30
0.0
 10
98.60690101701495
 20
-130.0657904405738
 30
0.0
 10
98.60690101701495
 20
-130.0148030273921
 30
0.0
 10
98.60690101701495
 20
-129.8118869033109
 30
0.0
 10
98.59208710642837
 20
-129.7081895292049
 30
0.0
 10
98.5814073104241
 20
-129.6403211481455
 30
0.0
 10
98.5814073104241
 20
-129.6403211481455
 30
0.0
 10
98.83117673310471
 20
-129.6744275934495
 30
0.0
 10
98.83117673310471
 20
-129.6744275934495
 30
0.0
 10
98.88388669402903
 20
-129.6806287653229
 30
0.0
 10
98.90076766190676
 20
-129.6847628799052
 30
0.0
 10
98.90076766190676
 20
-129.7188693252092
 30
0.0
 10
98.90076766190676
 20
-129.7336832357958
 30
0.0
 10
98.89663354732446
 20
-129.7419514649604
 30
0.0
 10
98.88802080861133
 20
-129.7505642036735
 30
0.0
  0
SPLINE
  5
AF
330
9C
100
AcDbEntity
  8
_U+30EC_U+30A4_U+30E4_U+30FC 1
370
     0
100
AcDbSpline
210
0.0
220
0.0
230
1.0
 70
    11
 71
     3
 72
    50
 73
    46
 74
     0
 42
0.0000000001
 43
0.0000000001
 12
1.0
 22
0.0
 32
0.0
 13
1.0
 23
0.0
 33
0.0
 40
0.0
 40
0.0
 40
0.0
 40
0.0
 40
1.0
 40
1.0
 40
1.0
 40
2.0
 40
2.0
 40
2.0
 40
3.0
 40
3.0
 40
3.0
 40
4.0
 40
4.0
 40
4.0
 40
5.0
 40
5.0
 40
5.0
 40
6.0
 40
6.0
 40
6.0
 40
7.0
 40
7.0
 40
7.0
 40
8.0
 40
8.0
 40
8.0
 40
9.0
 40
9.0
 40
9.0
 40
10.0
 40
10.0
 40
10.0
 40
11.0
 40
11.0
 40
11.0
 40
12.0
 40
12.0
 40
12.0
 40
13.0
 40
13.0
 40
13.0
 40
14.0
 40
14.0
 40
14.0
 40
15.0
 40
15.0
 40
15.0
 40
15.0
 10
99.27731659844457
 20
-131.0938069333724
 30
0.0
 10
99.27731659844457
 20
-131.0938069333724
 30
0.0
 10
99.12711043528768
 20
-130.9814968205532
 30
0.0
 10
99.12711043528768
 20
-130.9814968205532
 30
0.0
 10
99.1357231740008
 20
-130.937399598342
 30
0.0
 10
99.1398572885831
 20
-130.7995957789321
 30
0.0
 10
99.1398572885831
 20
-130.7468858180077
 30
0.0
 10
99.14192434587424
 20
-130.6769503796572
 30
0.0
 10
99.1439914031654
 20
-130.5629177190954
 30
0.0
 10
99.1439914031654
 20
-130.495049338036
 30
0.0
 10
99.1439914031654
 20
-130.495049338036
 30
0.0
 10
99.1439914031654
 20
-130.0633788737342
 30
0.0
 10
99.1439914031654
 20
-130.0633788737342
 30
0.0
 10
99.1439914031654
 20
-130.0296169379787
 30
0.0
 10
99.13365611670964
 20
-129.6699489693186
 30
0.0
 10
99.12917749257882
 20
-129.6044921550989
 30
0.0
 10
99.12917749257882
 20
-129.6044921550989
 30
0.0
 10
99.36620006196401
 20
-129.6299858616897
 30
0.0
 10
99.36620006196401
 20
-129.6299858616897
 30
0.0
 10
99.393760825846
 20
-129.6320529189809
 30
0.0
 10
99.42338864701915
 20
-129.6423882054366
 30
0.0
 10
99.42338864701915
 20
-129.6720160266098
 30
0.0
 10
99.42338864701915
 20
-129.689241504036
 30
0.0
 10
99.41477590830603
 20
-129.6995767904918
 30
0.0
 10
99.39996199771946
 20
-129.7102565864961
 30
0.0
 10
99.38101397255059
 20
-129.7250704970826
 30
0.0
 10
99.37894691525943
 20
-129.7271375543738
 30
0.0
 10
99.36413300467287
 20
-129.7398844076692
 30
0.0
 10
99.35138615137744
 20
-129.8329019857709
 30
0.0
 10
99.34931909408628
 20
-130.1036864909116
 30
0.0
 10
99.34931909408628
 20
-130.2053168077265
 30
0.0
 10
99.34931909408628
 20
-130.2053168077265
 30
0.0
 10
99.34931909408628
 20
-130.7933946070586
 30
0.0
 10
99.34931909408628
 20
-130.7933946070586
 30
0.0
 10
99.40444062185028
 20
-130.7637667858855
 30
0.0
 10
99.5398328744206
 20
-130.6896972329526
 30
0.0
 10
99.70485294816407
 20
-130.5077961913314
 30
0.0
 10
99.81061737956124
 20
-130.3913519639299
 30
0.0
 10
99.85919322590327
 20
-130.3069471245413
 30
0.0
 10
99.91844886824956
 20
-130.1905028971399
 30
0.0
 10
99.91844886824956
 20
-130.1905028971399
 30
0.0
 10
100.0600422926933
 20
-130.3596570854656
 30
0.0
 10
100.0600422926933
 20
-130.3596570854656
 30
0.0
 10
99.78925778755269
 20
-130.7871934351851
 30
0.0
 10
99.46162920690543
 20
-130.9839083873929
 30
0.0
 10
99.27731659844457
 20
-131.0938069333724
 30
0.0
  0
HATCH
  5
B0
330
9C
100
AcDbEntity
  8
_U+30EC_U+30A4_U+30E4_U+30FC 1
 62
   179
420
  2234388
100
AcDbHatch
 10
0.0
 20
0.0
 30
0.0
210
0.0
220
0.0
230
1.0
  2
SOLID
 70
     1
 71
     0
 91
        2
 92
        1
 93
        1
 72
     4
 94
        3
 73
     0
 74
     1
 95
       35
 96
       31
 40
0.0
 40
0.0
 40
0.0
 40
0.0
 40
1.0
 40
1.0
 40
1.0
 40
2.0
 40
2.0
 40
2.0
 40
3.0
 40
3.0
 40
3.0
 40
4.0
 40
4.0
 40
4.0
 40
5.0
 40
5.0
 40
5.0
 40
6.0
 40
6.0
 40
6.0
 40
7.0
 40
7.0
 40
7.0
 40
8.0
 40
8.0
 40
8.0
 40
9.0
 40
9.0
 40
9.0
 40
10.0
 40
10.0
 40
10.0
 40
10.0
 10
98.88802080861133
 20
-129.7505642036735
 10
98.87975257944673
 20
-129.7567653755469
 10
98.83737790497815
 20
-129.7822590821378
 10
98.83117673310471
 20
-129.7884602540112
 10
98.82910967581356
 20
-130.4423393771116
 10
98.74642738416756
 20
-130.8736653318649
 10
98.30855574799232
 20
-131.1193006399632
 10
98.30855574799232
 20
-131.1193006399632
 10
98.1414686169577
 20
-130.9415337129244
 10
98.1414686169577
 20
-130.9415337129244
 10
98.22380639905516
 20
-130.9053602103292
 10
98.39330509692945
 20
-130.8357692815272
 10
98.5180175534955
 20
-130.5670518336777
 10
98.55591360383325
 20
-130.4843695420317
 10
98.5814073104241
 20
-130.3872178493476
 10
98.59415416371952
 20
-130.2625053927816
 10
98.60690101701495
 20
-130.1522623372536
 10
98.60690101701495
 20
-130.0657904405738
 10
98.60690101701495
 20
-130.0148030273921
 10
98.60690101701495
 20
-129.8118869033109
 10
98.59208710642837
 20
-129.7081895292049
 10
98.5814073104241
 20
-129.6403211481455
 10
98.5814073104241
 20
-129.6403211481455
 10
98.83117673310471
 20
-129.6744275934495
 10
98.83117673310471
 20
-129.6744275934495
 10
98.88388669402903
 20
-129.6806287653229
 10
98.90076766190676
 20
-129.6847628799052
 10
98.90076766190676
 20
-129.7188693252092
 10
98.90076766190676
 20
-129.7336832357958
 10
98.89663354732446
 20
-129.7419514649604
 10
98.88802080861133
 20
-129.7505642036735
 97
        0
 97
        0
 92
        1
 93
        1
 72
     4
 94
        3
 73
     0
 74
     1
 95
       50
 96
       46
 40
0.0
 40
0.0
 40
0.0
 40
0.0
 40
1.0
 40
1.0
 40
1.0
 40
2.0
 40
2.0
 40
2.0
 40
3.0
 40
3.0
 40
3.0
 40
4.0
 40
4.0
 40
4.0
 40
5.0
 40
5.0
 40
5.0
 40
6.0
 40
6.0
 40
6.0
 40
7.0
 40
7.0
 40
7.0
 40
8.0
 40
8.0
 40
8.0
 40
9.0
 40
9.0
 40
9.0
 40
10.0
 40
10.0
 40
10.0
 40
11.0
 40
11.0
 40
11.0
 40
12.0
 40
12.0
 40
12.0
 40
13.0
 40
13.0
 40
13.0
 40
14.0
 40
14.0
 40
14.0
 40
15.0
 40
15.0
 40
15.0
 40
15.0
 10
99.27731659844457
 20
-131.0938069333724
 10
99.27731659844457
 20
-131.0938069333724
 10
99.12711043528768
 20
-130.9814968205532
 10
99.12711043528768
 20
-130.9814968205532
 10
99.1357231740008
 20
-130.937399598342
 10
99.1398572885831
 20
-130.7995957789321
 10
99.1398572885831
 20
-130.7468858180077
 10
99.14192434587424
 20
-130.6769503796572
 10
99.1439914031654
 20
-130.5629177190954
 10
99.1439914031654
 20
-130.495049338036
 10
99.1439914031654
 20
-130.495049338036
 10
99.1439914031654
 20
-130.0633788737342
 10
99.1439914031654
 20
-130.0633788737342
 10
99.1439914031654
 20
-130.0296169379787
 10
99.13365611670964
 20
-129.6699489693186
 10
99.12917749257882
 20
-129.6044921550989
 10
99.12917749257882
 20
-129.6044921550989
 10
99.36620006196401
 20
-129.6299858616897
 10
99.36620006196401
 20
-129.6299858616897
 10
99.393760825846
 20
-129.6320529189809
 10
99.42338864701915
 20
-129.6423882054366
 10
99.42338864701915
 20
-129.6720160266098
 10
99.42338864701915
 20
-129.689241504036
 10
99.41477590830603
 20
-129.6995767904918
 10
99.39996199771946
 20
-129.7102565864961
 10
99.38101397255059
 20
-129.7250704970826
 10
99.37894691525943
 20
-129.7271375543738
 10
99.36413300467287
 20
-129.7398844076692
 10
99.35138615137744
 20
-129.8329019857709
 10
99.34931909408628
 20
-130.1036864909116
 10
99.34931909408628
 20
-130.2053168077265
 10
99.34931909408628
 20
-130.2053168077265
 10
99.34931909408628
 20
-130.7933946070586
 10
99.34931909408628
 20
-130.7933946070586
 10
99.40444062185028
 20
-130.7637667858855
 10
99.5398328744206
 20
-130.6896972329526
 10
99.70485294816407
 20
-130.5077961913314
 10
99.81061737956124
 20
-130.3913519639299
 10
99.85919322590327
 20
-130.3069471245413
 10
99.91844886824956
 20
-130.1905028971399
 10
99.91844886824956
 20
-130.1905028971399
 10
100.0600422926933
 20
-130.3596570854656
 10
100.0600422926933
 20
-130.3596570854656
 10
99.78925778755269
 20
-130.7871934351851
 10
99.46162920690543
 20
-130.9839083873929
 10
99.27731659844457
 20
-131.0938069333724
 97
        0
 97
        0
 75
     2
 76
     1
 98
        0
  0
SPLINE
  5
B1
330
9C
100
AcDbEntity
  8
_U+30EC_U+30A4_U+30E4_U+30FC 1
370
     0
100
AcDbSpline
210
0.0
220
0.0
230
1.0
 70
    11
 71
     3
 72
    20
 73
    16
 74
     0
 42
0.0000000001
 43
0.0000000001
 12
1.0
 22
0.0
 32
0.0
 13
1.0
 23
0.0
 33
0.0
 40
0.0
 40
0.0
 40
0.0
 40
0.0
 40
1.0
 40
1.0
 40
1.0
 40
2.0
 40
2.0
 40
2.0
 40
3.0
 40
3.0
 40
3.0
 40
4.0
 40
4.0
 40
4.0
 40
5.0
 40
5.0
 40
5.0
 40
5.0
 10
101.317846654358
 20
-131.309469910749
 30
0.0
 10
101.1803873444966
 20
-131.2016384220607
 30
0.0
 10
101.0511962637997
 20
-131.1127549585413
 30
0.0
 10
100.8183078089968
 20
-131.0028564125618
 30
0.0
 10
100.628138538211
 20
-130.9119058917512
 30
0.0
 10
100.4314235860033
 20
-130.8316351669449
 30
0.0
 10
100.2240288377912
 20
-130.7954616643497
 30
0.0
 10
100.2240288377912
 20
-130.7954616643497
 30
0.0
 10
100.3129123013107
 20
-130.6008137694331
 30
0.0
 10
100.3129123013107
 20
-130.6008137694331
 30
0.0
 10
100.7318359123171
 20
-130.7086452581215
 30
0.0
 10
101.1507595233234
 20
-130.9012260957469
 30
0.0
 10
101.4129312897509
 20
-131.0917398760812
 30
0.0
 10
101.4129312897509
 20
-131.0917398760812
 30
0.0
 10
101.317846654358
 20
-131.309469910749
 30
0.0
 10
101.317846654358
 20
-131.309469910749
 30
0.0
  0
SPLINE
  5
B2
330
9C
100
AcDbEntity
  8
_U+30EC_U+30A4_U+30E4_U+30FC 1
370
     0
100
AcDbSpline
210
0.0
220
0.0
230
1.0
 70
    11
 71
     3
 72
    17
 73
    13
 74
     0
 42
0.0000000001
 43
0.0000000001
 12
1.0
 22
0.0
 32
0.0
 13
1.0
 23
0.0
 33
0.0
 40
0.0
 40
0.0
 40
0.0
 40
0.0
 40
1.0
 40
1.0
 40
1.0
 40
2.0
 40
2.0
 40
2.0
 40
3.0
 40
3.0
 40
3.0
 40
4.0
 40
4.0
 40
4.0
 40
4.0
 10
101.214149280252
 20
-130.5415581270868
 30
0.0
 10
100.9878065068711
 20
-130.3744709960522
 30
0.0
 10
100.6577663593842
 20
-130.247691482195
 30
0.0
 10
100.4293565287121
 20
-130.2115179795999
 30
0.0
 10
100.4293565287121
 20
-130.2115179795999
 30
0.0
 10
100.4989474575142
 20
-130.012735970101
 30
0.0
 10
100.4989474575142
 20
-130.012735970101
 30
0.0
 10
100.6853271232662
 20
-130.0444308485653
 30
0.0
 10
101.0532633210909
 20
-130.192569954431
 30
0.0
 10
101.2923529477672
 20
-130.3448431748791
 30
0.0
 10
101.2923529477672
 20
-130.3448431748791
 30
0.0
 10
101.214149280252
 20
-130.5415581270868
 30
0.0
 10
101.214149280252
 20
-130.5415581270868
 30
0.0
  0
SPLINE
  5
B3
330
9C
100
AcDbEntity
  8
_U+30EC_U+30A4_U+30E4_U+30FC 1
370
     0
100
AcDbSpline
210
0.0
220
0.0
230
1.0
 70
    11
 71
     3
 72
    20
 73
    16
 74
     0
 42
0.0000000001
 43
0.0000000001
 12
1.0
 22
0.0
 32
0.0
 13
1.0
 23
0.0
 33
0.0
 40
0.0
 40
0.0
 40
0.0
 40
0.0
 40
1.0
 40
1.0
 40
1.0
 40
2.0
 40
2.0
 40
2.0
 40
3.0
 40
3.0
 40
3.0
 40
4.0
 40
4.0
 40
4.0
 40
5.0
 40
5.0
 40
5.0
 40
5.0
 10
101.2458441587163
 20
-129.9748399197632
 30
0.0
 10
101.1824544017877
 20
-129.9197183919993
 30
0.0
 10
101.110451906146
 20
-129.8563286350706
 30
0.0
 10
100.8651611075962
 20
-129.7460855795427
 30
0.0
 10
100.6302055955022
 20
-129.6423882054366
 30
0.0
 10
100.5327093932696
 20
-129.6255072375589
 30
0.0
 10
100.4334906432944
 20
-129.6086262696812
 30
0.0
 10
100.4334906432944
 20
-129.6086262696812
 30
0.0
 10
100.5010145148053
 20
-129.4036430883088
 30
0.0
 10
100.5010145148053
 20
-129.4036430883088
 30
0.0
 10
100.8207193758365
 20
-129.4670328452374
 30
0.0
 10
101.1907226309523
 20
-129.661680740154
 30
0.0
 10
101.3199137116492
 20
-129.7588324328381
 30
0.0
 10
101.3199137116492
 20
-129.7588324328381
 30
0.0
 10
101.2458441587163
 20
-129.9748399197632
 30
0.0
 10
101.2458441587163
 20
-129.9748399197632
 30
0.0
  0
HATCH
  5
B4
330
9C
100
AcDbEntity
  8
_U+30EC_U+30A4_U+30E4_U+30FC 1
 62
   179
420
  2234388
100
AcDbHatch
 10
0.0
 20
0.0
 30
0.0
210
0.0
220
0.0
230
1.0
  2
SOLID
 70
     1
 71
     0
 91
        3
 92
        1
 93
        1
 72
     4
 94
        3
 73
     0
 74
     1
 95
       20
 96
       16
 40
0.0
 40
0.0
 40
0.0
 40
0.0
 40
1.0
 40
1.0
 40
1.0
 40
2.0
 40
2.0
 40
2.0
 40
3.0
 40
3.0
 40
3.0
 40
4.0
 40
4.0
 40
4.0
 40
5.0
 40
5.0
 40
5.0
 40
5.0
 10
101.317846654358
 20
-131.309469910749
 10
101.1803873444966
 20
-131.2016384220607
 10
101.0511962637997
 20
-131.1127549585413
 10
100.8183078089968
 20
-131.0028564125618
 10
100.628138538211
 20
-130.9119058917512
 10
100.4314235860033
 20
-130.8316351669449
 10
100.2240288377912
 20
-130.7954616643497
 10
100.2240288377912
 20
-130.7954616643497
 10
100.3129123013107
 20
-130.6008137694331
 10
100.3129123013107
 20
-130.6008137694331
 10
100.7318359123171
 20
-130.7086452581215
 10
101.1507595233234
 20
-130.9012260957469
 10
101.4129312897509
 20
-131.0917398760812
 10
101.4129312897509
 20
-131.0917398760812
 10
101.317846654358
 20
-131.309469910749
 10
101.317846654358
 20
-131.309469910749
 97
        0
 97
        0
 92
        1
 93
        1
 72
     4
 94
        3
 73
     0
 74
     1
 95
       17
 96
       13
 40
0.0
 40
0.0
 40
0.0
 40
0.0
 40
1.0
 40
1.0
 40
1.0
 40
2.0
 40
2.0
 40
2.0
 40
3.0
 40
3.0
 40
3.0
 40
4.0
 40
4.0
 40
4.0
 40
4.0
 10
101.214149280252
 20
-130.5415581270868
 10
100.9878065068711
 20
-130.3744709960522
 10
100.6577663593842
 20
-130.247691482195
 10
100.4293565287121
 20
-130.2115179795999
 10
100.4293565287121
 20
-130.2115179795999
 10
100.4989474575142
 20
-130.012735970101
 10
100.4989474575142
 20
-130.012735970101
 10
100.6853271232662
 20
-130.0444308485653
 10
101.0532633210909
 20
-130.192569954431
 10
101.2923529477672
 20
-130.3448431748791
 10
101.2923529477672
 20
-130.3448431748791
 10
101.214149280252
 20
-130.5415581270868
 10
101.214149280252
 20
-130.5415581270868
 97
        0
 97
        0
 92
        1
 93
        1
 72
     4
 94
        3
 73
     0
 74
     1
 95
       20
 96
       16
 40
0.0
 40
0.0
 40
0.0
 40
0.0
 40
1.0
 40
1.0
 40
1.0
 40
2.0
 40
2.0
 40
2.0
 40
3.0
 40
3.0
 40
3.0
 40
4.0
 40
4.0
 40
4.0
 40
5.0
 40
5.0
 40
5.0
 40
5.0
 10
101.2458441587163
 20
-129.9748399197632
 10
101.1824544017877
 20
-129.9197183919993
 10
101.110451906146
 20
-129.8563286350706
 10
100.8651611075962
 20
-129.7460855795427
 10
100.6302055955022
 20
-129.6423882054366
 10
100.5327093932696
 20
-129.6255072375589
 10
100.4334906432944
 20
-129.6086262696812
 10
100.4334906432944
 20
-129.6086262696812
 10
100.5010145148053
 20
-129.4036430883088
 10
100.5010145148053
 20
-129.4036430883088
 10
100.8207193758365
 20
-129.4670328452374
 10
101.1907226309523
 20
-129.661680740154
 10
101.3199137116492
 20
-129.7588324328381
 10
101.3199137116492
 20
-129.7588324328381
 10
101.2458441587163
 20
-129.9748399197632
 10
101.2458441587163
 20
-129.9748399197632
 97
        0
 97
        0
 75
     2
 76
     1
 98
        0
  0
SPLINE
  5
B5
330
9C
100
AcDbEntity
  8
_U+30EC_U+30A4_U+30E4_U+30FC 1
370
     0
100
AcDbSpline
210
0.0
220
0.0
230
1.0
 70
    11
 71
     3
 72
    23
 73
    19
 74
     0
 42
0.0000000001
 43
0.0000000001
 12
1.0
 22
0.0
 32
0.0
 13
1.0
 23
0.0
 33
0.0
 40
0.0
 40
0.0
 40
0.0
 40
0.0
 40
1.0
 40
1.0
 40
1.0
 40
2.0
 40
2.0
 40
2.0
 40
3.0
 40
3.0
 40
3.0
 40
4.0
 40
4.0
 40
4.0
 40
5.0
 40
5.0
 40
5.0
 40
6.0
 40
6.0
 40
6.0
 40
6.0
 10
101.6254936811908
 20
-131.281909146867
 30
0.0
 10
101.7650200483435
 20
-131.1148220158324
 30
0.0
 10
101.9765489111378
 20
-130.8588514212784
 30
0.0
 10
101.9765489111378
 20
-130.3662027668876
 30
0.0
 10
101.9765489111378
 20
-129.8732096029484
 30
0.0
 10
101.7650200483435
 20
-129.6172390083943
 30
0.0
 10
101.6254936811908
 20
-129.4501518773597
 30
0.0
 10
101.6254936811908
 20
-129.4501518773597
 30
0.0
 10
101.7374592844615
 20
-129.350588617836
 30
0.0
 10
101.7374592844615
 20
-129.350588617836
 30
0.0
 10
101.9004123009138
 20
-129.5431694554614
 30
0.0
 10
102.1353678130078
 20
-129.8180880751844
 30
0.0
 10
102.1353678130078
 20
-130.3662027668876
 30
0.0
 10
102.1353678130078
 20
-130.9139729490423
 30
0.0
 10
101.9004123009138
 20
-131.1888915687653
 30
0.0
 10
101.7374592844615
 20
-131.3814724063907
 30
0.0
 10
101.7374592844615
 20
-131.3814724063907
 30
0.0
 10
101.6254936811908
 20
-131.281909146867
 30
0.0
 10
101.6254936811908
 20
-131.281909146867
 30
0.0
  0
HATCH
  5
B6
330
9C
100
AcDbEntity
  8
_U+30EC_U+30A4_U+30E4_U+30FC 1
 62
   179
420
  2234388
100
AcDbHatch
 10
0.0
 20
0.0
 30
0.0
210
0.0
220
0.0
230
1.0
  2
SOLID
 70
     1
 71
     0
 91
        1
 92
        1
 93
        1
 72
     4
 94
        3
 73
     0
 74
     1
 95
       23
 96
       19
 40
0.0
 40
0.0
 40
0.0
 40
0.0
 40
1.0
 40
1.0
 40
1.0
 40
2.0
 40
2.0
 40
2.0
 40
3.0
 40
3.0
 40
3.0
 40
4.0
 40
4.0
 40
4.0
 40
5.0
 40
5.0
 40
5.0
 40
6.0
 40
6.0
 40
6.0
 40
6.0
 10
101.6254936811908
 20
-131.281909146867
 10
101.7650200483435
 20
-131.1148220158324
 10
101.9765489111378
 20
-130.8588514212784
 10
101.9765489111378
 20
-130.3662027668876
 10
101.9765489111378
 20
-129.8732096029484
 10
101.7650200483435
 20
-129.6172390083943
 10
101.6254936811908
 20
-129.4501518773597
 10
101.6254936811908
 20
-129.4501518773597
 10
101.7374592844615
 20
-129.350588617836
 10
101.7374592844615
 20
-129.350588617836
 10
101.9004123009138
 20
-129.5431694554614
 10
102.1353678130078
 20
-129.8180880751844
 10
102.1353678130078
 20
-130.3662027668876
 10
102.1353678130078
 20
-130.9139729490423
 10
101.9004123009138
 20
-131.1888915687653
 10
101.7374592844615
 20
-131.3814724063907
 10
101.7374592844615
 20
-131.3814724063907
 10
101.6254936811908
 20
-131.281909146867
 10
101.6254936811908
 20
-131.281909146867
 97
        0
 97
        0
 75
     2
 76
     1
 98
        0
  0
ENDBLK
  5
9F
330
9C
100
AcDbEntity
  8
0
100
AcDbBlockEnd
  0
ENDSEC
  0
SECTION
  2
ENTITIES
  0
INSERT
  5
42
330
1F
100
AcDbEntity
  8
_U+30EC_U+30A4_U+30E4_U+30FC 1
100
AcDbBlockReference
  2
block 2
 10
0.0
 20
0.0
 30
0.0
  0
ENDSEC
  0
SECTION
  2
OBJECTS
  0
DICTIONARY
  5
C
330
0
100
AcDbDictionary
281
     1
  3
ACAD_GROUP
350
D
  3
ACAD_LAYOUT
350
1A
  3
ACAD_MATERIAL
350
3B
  3
ACAD_MLEADERSTYLE
350
BD
  3
ACAD_MLINESTYLE
350
17
  3
ACAD_PLOTSETTINGS
350
19
  3
ACAD_PLOTSTYLENAME
350
E
  3
ACAD_TABLESTYLE
350
BC
  3
ACAD_VISUALSTYLE
350
2A
  0
SUN
  5
3F
330
29
100
AcDbSun
 90
        1
290
     0
 63
     7
421
 16777215
 40
1.0
291
     1
 91
  2455826
 92
 54000000
292
     0
 70
     2
 71
   256
280
     1
  0
DICTIONARY
  5
D
102
{ACAD_REACTORS
330
C
102
}
330
C
100
AcDbDictionary
281
     1
  0
DICTIONARY
  5
1A
102
{ACAD_REACTORS
330
C
102
}
330
C
100
AcDbDictionary
281
     1
  3
Layout1
350
1E
  3
Layout2
350
26
  3
Model
350
22
  0
DICTIONARY
  5
3B
102
{ACAD_REACTORS
330
C
102
}
330
C
100
AcDbDictionary
281
     1
  3
ByBlock
350
3D
  3
ByLayer
350
3C
  3
Global
350
3E
  0
DICTIONARY
  5
BD
102
{ACAD_REACTORS
330
C
102
}
330
C
100
AcDbDictionary
281
     1
  0
DICTIONARY
  5
17
102
{ACAD_REACTORS
330
C
102
}
330
C
100
AcDbDictionary
281
     1
  3
Standard
350
18
  0
DICTIONARY
  5
19
102
{ACAD_REACTORS
330
C
102
}
330
C
100
AcDbDictionary
281
     1
  0
ACDBDICTIONARYWDFLT
  5
E
102
{ACAD_REACTORS
330
C
102
}
330
C
100
AcDbDictionary
281
     1
  3
Normal
350
F
100
AcDbDictionaryWithDefault
340
F
  0
DICTIONARY
  5
BC
102
{ACAD_REACTORS
330
C
102
}
330
C
100
AcDbDictionary
281
     1
  0
DICTIONARY
  5
2A
102
{ACAD_REACTORS
330
C
102
}
330
C
100
AcDbDictionary
281
     1
  3
2dWireframe
350
2F
  3
3D Hidden
350
31
  3
3dWireframe
350
30
  3
Basic
350
32
  3
Brighten
350
36
  3
ColorChange
350
3A
  3
Conceptual
350
34
  3
Dim
350
35
  3
Facepattern
350
39
  3
Flat
350
2B
  3
FlatWithEdges
350
2C
  3
Gouraud
350
2D
  3
GouraudWithEdges
350
2E
  3
Linepattern
350
38
  3
Realistic
350
33
  3
Thicken
350
37
  0
LAYOUT
  5
1E
102
{ACAD_REACTORS
330
1A
102
}
330
1A
100
AcDbPlotSettings
  1

  2
none_device
  4

  6

 40
0.0
 41
0.0
 42
0.0
 43
0.0
 44
0.0
 45
0.0
 46
0.0
 47
0.0
 48
0.0
 49
0.0
140
0.0
141
0.0
142
1.0
143
1.0
 70
   688
 72
     0
 73
     0
 74
     5
  7

 75
    16
 76
     0
 77
     2
 78
   300
147
1.0
148
0.0
149
0.0
100
AcDbLayout
  1
Layout1
 70
     1
 71
     1
 10
0.0
 20
0.0
 11
12.0
 21
9.0
 12
0.0
 22
0.0
 32
0.0
 14
1.000000000000000E+20
 24
1.000000000000000E+20
 34
1.000000000000000E+20
 15
-1.000000000000000E+20
 25
-1.000000000000000E+20
 35
-1.000000000000000E+20
146
0.0
 13
0.0
 23
0.0
 33
0.0
 16
1.0
 26
0.0
 36
0.0
 17
0.0
 27
1.0
 37
0.0
 76
     0
330
1B
  0
LAYOUT
  5
26
102
{ACAD_REACTORS
330
1A
102
}
330
1A
100
AcDbPlotSettings
  1

  2
none_device
  4

  6

 40
0.0
 41
0.0
 42
0.0
 43
0.0
 44
0.0
 45
0.0
 46
0.0
 47
0.0
 48
0.0
 49
0.0
140
0.0
141
0.0
142
1.0
143
1.0
 70
   688
 72
     0
 73
     0
 74
     5
  7

 75
    16
 76
     0
 77
     2
 78
   300
147
1.0
148
0.0
149
0.0
100
AcDbLayout
  1
Layout2
 70
     1
 71
     2
 10
0.0
 20
0.0
 11
0.0
 21
0.0
 12
0.0
 22
0.0
 32
0.0
 14
0.0
 24
0.0
 34
0.0
 15
0.0
 25
0.0
 35
0.0
146
0.0
 13
0.0
 23
0.0
 33
0.0
 16
1.0
 26
0.0
 36
0.0
 17
0.0
 27
1.0
 37
0.0
 76
     0
330
23
  0
LAYOUT
  5
22
102
{ACAD_REACTORS
330
1A
102
}
330
1A
100
AcDbPlotSettings
  1

  2
none_device
  4

  6

 40
0.0
 41
0.0
 42
0.0
 43
0.0
 44
0.0
 45
0.0
 46
0.0
 47
0.0
 48
0.0
 49
0.0
140
0.0
141
0.0
142
1.0
143
1.0
 70
  1712
 72
     0
 73
     0
 74
     0
  7

 75
     0
 76
     0
 77
     2
 78
   300
147
1.0
148
0.0
149
0.0
100
AcDbLayout
  1
Model
 70
     1
 71
     0
 10
0.0
 20
0.0
 11
12.0
 21
9.0
 12
0.0
 22
0.0
 32
0.0
 14
1.000000000000000E+20
 24
1.000000000000000E+20
 34
1.000000000000000E+20
 15
-1.000000000000000E+20
 25
-1.000000000000000E+20
 35
-1.000000000000000E+20
146
0.0
 13
0.0
 23
0.0
 33
0.0
 16
1.0
 26
0.0
 36
0.0
 17
0.0
 27
1.0
 37
0.0
 76
     0
330
1F
331
29
  0
MATERIAL
  5
3D
102
{ACAD_REACTORS
330
3B
102
}
330
3B
100
AcDbMaterial
  1
ByBlock
 72
     1
 94
      127
  0
MATERIAL
  5
3C
102
{ACAD_REACTORS
330
3B
102
}
330
3B
100
AcDbMaterial
  1
ByLayer
 72
     1
 94
      127
  0
MATERIAL
  5
3E
102
{ACAD_REACTORS
330
3B
102
}
330
3B
100
AcDbMaterial
  1
Global
 72
     1
 94
      127
  0
MLINESTYLE
  5
18
102
{ACAD_REACTORS
330
17
102
}
330
17
100
AcDbMlineStyle
  2
Standard
 70
     0
  3

 62
   256
 51
90.0
 52
90.0
 71
     2
 49
0.5
 62
   256
  6
BYLAYER
 49
-0.5
 62
   256
  6
BYLAYER
  0
ACDBPLACEHOLDER
  5
F
102
{ACAD_REACTORS
330
E
102
}
330
E
  0
VISUALSTYLE
  5
2F
102
{ACAD_REACTORS
330
2A
102
}
330
2A
100
AcDbVisualStyle
  2
2dWireframe
 70
     4
177
     2
291
     0
 71
     0
176
     1
 72
     2
176
     1
 73
     0
176
     1
 90
        0
176
     1
 40
-0.6
176
     1
 41
-30.0
176
     1
 62
     5
 63
     7
421
 16777215
176
     1
 74
     1
176
     1
 91
        4
176
     1
 64
     7
176
     1
 65
   257
176
     1
 75
     1
176
     1
175
     1
176
     1
 42
1.0
176
     1
 92
        0
176
     1
 66
   257
176
     1
 43
1.0
176
     1
 76
     1
176
     1
 77
     6
176
     1
 78
     2
176
     1
 67
     7
176
     1
 79
     5
176
     1
170
     0
176
     1
171
     0
176
     1
290
     0
176
     1
 93
        1
176
     1
 44
0.0
176
     1
173
     0
176
     1
  0
VISUALSTYLE
  5
31
102
{ACAD_REACTORS
330
2A
102
}
330
2A
100
AcDbVisualStyle
  2
3D Hidden
 70
     6
177
     2
291
     0
 71
     1
176
     1
 72
     2
176
     1
 73
     2
176
     1
 90
        0
176
     1
 40
-0.6
176
     1
 41
-30.0
176
     1
 62
     5
 63
     7
421
 16777215
176
     1
 74
     2
176
     1
 91
        2
176
     1
 64
     7
176
     1
 65
   257
176
     1
 75
     2
176
     1
175
     1
176
     1
 42
40.0
176
     1
 92
        0
176
     1
 66
   257
176
     1
 43
1.0
176
     1
 76
     1
176
     1
 77
     6
176
     1
 78
     2
176
     1
 67
     7
176
     1
 79
     3
176
     1
170
     0
176
     1
171
     0
176
     1
290
     0
176
     1
 93
        1
176
     1
 44
0.0
176
     1
173
     0
176
     1
  0
VISUALSTYLE
  5
30
102
{ACAD_REACTORS
330
2A
102
}
330
2A
100
AcDbVisualStyle
  2
3dWireframe
 70
     5
177
     2
291
     0
 71
     0
176
     1
 72
     2
176
     1
 73
     0
176
     1
 90
        0
176
     1
 40
-0.6
176
     1
 41
-30.0
176
     1
 62
     5
 63
     7
421
 16777215
176
     1
 74
     1
176
     1
 91
        4
176
     1
 64
     7
176
     1
 65
   257
176
     1
 75
     1
176
     1
175
     1
176
     1
 42
1.0
176
     1
 92
        0
176
     1
 66
   257
176
     1
 43
1.0
176
     1
 76
     1
176
     1
 77
     6
176
     1
 78
     2
176
     1
 67
     7
176
     1
 79
     5
176
     1
170
     0
176
     1
171
     0
176
     1
290
     0
176
     1
 93
        1
176
     1
 44
0.0
176
     1
173
     0
176
     1
  0
VISUALSTYLE
  5
32
102
{ACAD_REACTORS
330
2A
102
}
330
2A
100
AcDbVisualStyle
  2
Basic
 70
     7
177
     2
291
     1
 71
     1
176
     1
 72
     0
176
     1
 73
     1
176
     1
 90
        0
176
     1
 40
-0.6
176
     1
 41
-30.0
176
     1
 62
     5
 63
     7
421
 16777215
176
     1
 74
     0
176
     1
 91
        4
176
     1
 64
     7
176
     1
 65
   257
176
     1
 75
     1
176
     1
175
     1
176
     1
 42
1.0
176
     1
 92
        8
176
     1
 66
     7
176
     1
 43
1.0
176
     1
 76
     1
176
     1
 77
     6
176
     1
 78
     2
176
     1
 67
     7
176
     1
 79
     5
176
     1
170
     0
176
     1
171
     0
176
     1
290
     0
176
     1
 93
        1
176
     1
 44
0.0
176
     1
173
     0
176
     1
  0
VISUALSTYLE
  5
36
102
{ACAD_REACTORS
330
2A
102
}
330
2A
100
AcDbVisualStyle
  2
Brighten
 70
    12
177
     2
291
     1
 71
     2
176
     1
 72
     2
176
     1
 73
     0
176
     1
 90
        0
176
     1
 40
-0.6
176
     1
 41
-30.0
176
     1
 62
     5
 63
     7
421
 16777215
176
     1
 74
     1
176
     1
 91
        4
176
     1
 64
     7
176
     1
 65
   257
176
     1
 75
     1
176
     1
175
     1
176
     1
 42
1.0
176
     1
 92
        8
176
     1
 66
     7
176
     1
 43
1.0
176
     1
 76
     1
176
     1
 77
     6
176
     1
 78
     2
176
     1
 67
     7
176
     1
 79
     5
176
     1
170
     0
176
     1
171
     0
176
     1
290
     0
176
     1
 93
        1
176
     1
 44
50.0
176
     1
173
     0
176
     1
  0
VISUALSTYLE
  5
3A
102
{ACAD_REACTORS
330
2A
102
}
330
2A
100
AcDbVisualStyle
  2
ColorChange
 70
    16
177
     2
291
     1
 71
     2
176
     1
 72
     2
176
     1
 73
     3
176
     1
 90
        0
176
     1
 40
-0.6
176
     1
 41
-30.0
176
     1
 62
     5
 63
     8
421
  8421504
176
     1
 74
     1
176
     1
 91
        4
176
     1
 64
     7
176
     1
 65
   257
176
     1
 75
     1
176
     1
175
     1
176
     1
 42
1.0
176
     1
 92
        8
176
     1
 66
     8
424
  8421504
176
     1
 43
1.0
176
     1
 76
     1
176
     1
 77
     6
176
     1
 78
     2
176
     1
 67
     7
176
     1
 79
     5
176
     1
170
     0
176
     1
171
     0
176
     1
290
     0
176
     1
 93
        1
176
     1
 44
0.0
176
     1
173
     0
176
     1
  0
VISUALSTYLE
  5
34
102
{ACAD_REACTORS
330
2A
102
}
330
2A
100
AcDbVisualStyle
  2
Conceptual
 70
     9
177
     2
291
     0
 71
     3
176
     1
 72
     2
176
     1
 73
     0
176
     1
 90
        0
176
     1
 40
-0.6
176
     1
 41
-30.0
176
     1
 62
     5
 63
     7
421
 16777215
176
     1
 74
     2
176
     1
 91
        2
176
     1
 64
     7
176
     1
 65
   257
176
     1
 75
     1
176
     1
175
     1
176
     1
 42
40.0
176
     1
 92
        8
176
     1
 66
     7
176
     1
 43
1.0
176
     1
 76
     1
176
     1
 77
     6
176
     1
 78
     2
176
     1
 67
     7
176
     1
 79
     3
176
     1
170
     0
176
     1
171
     0
176
     1
290
     0
176
     1
 93
        1
176
     1
 44
0.0
176
     1
173
     0
176
     1
  0
VISUALSTYLE
  5
35
102
{ACAD_REACTORS
330
2A
102
}
330
2A
100
AcDbVisualStyle
  2
Dim
 70
    11
177
     2
291
     1
 71
     2
176
     1
 72
     2
176
     1
 73
     0
176
     1
 90
        0
176
     1
 40
-0.6
176
     1
 41
-30.0
176
     1
 62
     5
 63
     7
421
 16777215
176
     1
 74
     1
176
     1
 91
        4
176
     1
 64
     7
176
     1
 65
   257
176
     1
 75
     1
176
     1
175
     1
176
     1
 42
1.0
176
     1
 92
        8
176
     1
 66
     7
176
     1
 43
1.0
176
     1
 76
     1
176
     1
 77
     6
176
     1
 78
     2
176
     1
 67
     7
176
     1
 79
     5
176
     1
170
     0
176
     1
171
     0
176
     1
290
     0
176
     1
 93
        1
176
     1
 44
-50.0
176
     1
173
     0
176
     1
  0
VISUALSTYLE
  5
39
102
{ACAD_REACTORS
330
2A
102
}
330
2A
100
AcDbVisualStyle
  2
Facepattern
 70
    15
177
     2
291
     1
 71
     2
176
     1
 72
     2
176
     1
 73
     0
176
     1
 90
        0
176
     1
 40
-0.6
176
     1
 41
-30.0
176
     1
 62
     5
 63
     7
421
 16777215
176
     1
 74
     1
176
     1
 91
        4
176
     1
 64
     7
176
     1
 65
   257
176
     1
 75
     1
176
     1
175
     1
176
     1
 42
1.0
176
     1
 92
        8
176
     1
 66
     7
176
     1
 43
1.0
176
     1
 76
     1
176
     1
 77
     6
176
     1
 78
     2
176
     1
 67
     7
176
     1
 79
     5
176
     1
170
     0
176
     1
171
     0
176
     1
290
     0
176
     1
 93
        1
176
     1
 44
0.0
176
     1
173
     0
176
     1
  0
VISUALSTYLE
  5
2B
102
{ACAD_REACTORS
330
2A
102
}
330
2A
100
AcDbVisualStyle
  2
Flat
 70
     0
177
     2
291
     1
 71
     2
176
     1
 72
     1
176
     1
 73
     1
176
     1
 90
        2
176
     1
 40
-0.6
176
     1
 41
30.0
176
     1
 62
     5
 63
     7
421
 16777215
176
     1
 74
     0
176
     1
 91
        4
176
     1
 64
     7
176
     1
 65
   257
176
     1
 75
     1
176
     1
175
     1
176
     1
 42
1.0
176
     1
 92
        8
176
     1
 66
     7
176
     1
 43
1.0
176
     1
 76
     1
176
     1
 77
     6
176
     1
 78
     2
176
     1
 67
     7
176
     1
 79
     5
176
     1
170
     0
176
     1
171
     0
176
     1
290
     0
176
     1
 93
       13
176
     1
 44
0.0
176
     1
173
     0
176
     1
  0
VISUALSTYLE
  5
2C
102
{ACAD_REACTORS
330
2A
102
}
330
2A
100
AcDbVisualStyle
  2
FlatWithEdges
 70
     1
177
     2
291
     1
 71
     2
176
     1
 72
     1
176
     1
 73
     1
176
     1
 90
        2
176
     1
 40
-0.6
176
     1
 41
30.0
176
     1
 62
     5
 63
     7
421
 16777215
176
     1
 74
     1
176
     1
 91
        4
176
     1
 64
     7
176
     1
 65
   257
176
     1
 75
     1
176
     1
175
     1
176
     1
 42
1.0
176
     1
 92
        0
176
     1
 66
   257
176
     1
 43
1.0
176
     1
 76
     1
176
     1
 77
     6
176
     1
 78
     2
176
     1
 67
     7
176
     1
 79
     5
176
     1
170
     0
176
     1
171
     0
176
     1
290
     0
176
     1
 93
       13
176
     1
 44
0.0
176
     1
173
     0
176
     1
  0
VISUALSTYLE
  5
2D
102
{ACAD_REACTORS
330
2A
102
}
330
2A
100
AcDbVisualStyle
  2
Gouraud
 70
     2
177
     2
291
     1
 71
     2
176
     1
 72
     2
176
     1
 73
     1
176
     1
 90
        2
176
     1
 40
-0.6
176
     1
 41
30.0
176
     1
 62
     5
 63
     7
421
 16777215
176
     1
 74
     0
176
     1
 91
        4
176
     1
 64
     7
176
     1
 65
   257
176
     1
 75
     1
176
     1
175
     1
176
     1
 42
1.0
176
     1
 92
        0
176
     1
 66
     7
176
     1
 43
1.0
176
     1
 76
     1
176
     1
 77
     6
176
     1
 78
     2
176
     1
 67
     7
176
     1
 79
     5
176
     1
170
     0
176
     1
171
     0
176
     1
290
     0
176
     1
 93
       13
176
     1
 44
0.0
176
     1
173
     0
176
     1
  0
VISUALSTYLE
  5
2E
102
{ACAD_REACTORS
330
2A
102
}
330
2A
100
AcDbVisualStyle
  2
GouraudWithEdges
 70
     3
177
     2
291
     1
 71
     2
176
     1
 72
     2
176
     1
 73
     1
176
     1
 90
        2
176
     1
 40
-0.6
176
     1
 41
30.0
176
     1
 62
     5
 63
     7
421
 16777215
176
     1
 74
     1
176
     1
 91
        4
176
     1
 64
     7
176
     1
 65
   257
176
     1
 75
     1
176
     1
175
     1
176
     1
 42
1.0
176
     1
 92
        0
176
     1
 66
   257
176
     1
 43
1.0
176
     1
 76
     1
176
     1
 77
     6
176
     1
 78
     2
176
     1
 67
     7
176
     1
 79
     5
176
     1
170
     0
176
     1
171
     0
176
     1
290
     0
176
     1
 93
       13
176
     1
 44
0.0
176
     1
173
     0
176
     1
  0
VISUALSTYLE
  5
38
102
{ACAD_REACTORS
330
2A
102
}
330
2A
100
AcDbVisualStyle
  2
Linepattern
 70
    14
177
     2
291
     1
 71
     2
176
     1
 72
     2
176
     1
 73
     0
176
     1
 90
        0
176
     1
 40
-0.6
176
     1
 41
-30.0
176
     1
 62
     5
 63
     7
421
 16777215
176
     1
 74
     1
176
     1
 91
        4
176
     1
 64
     7
176
     1
 65
   257
176
     1
 75
     7
176
     1
175
     7
176
     1
 42
1.0
176
     1
 92
        8
176
     1
 66
     7
176
     1
 43
1.0
176
     1
 76
     1
176
     1
 77
     6
176
     1
 78
     2
176
     1
 67
     7
176
     1
 79
     5
176
     1
170
     0
176
     1
171
     0
176
     1
290
     0
176
     1
 93
        1
176
     1
 44
0.0
176
     1
173
     0
176
     1
  0
VISUALSTYLE
  5
33
102
{ACAD_REACTORS
330
2A
102
}
330
2A
100
AcDbVisualStyle
  2
Realistic
 70
     8
177
     2
291
     0
 71
     2
176
     1
 72
     2
176
     1
 73
     0
176
     1
 90
        0
176
     1
 40
-0.6
176
     1
 41
-30.0
176
     1
 62
     5
 63
     7
421
 16777215
176
     1
 74
     1
176
     1
 91
        0
176
     1
 64
     7
176
     1
 65
   257
176
     1
 75
     1
176
     1
175
     1
176
     1
 42
1.0
176
     1
 92
        8
176
     1
 66
     8
424
  7895160
176
     1
 43
1.0
176
     1
 76
     1
176
     1
 77
     6
176
     1
 78
     2
176
     1
 67
     7
176
     1
 79
     5
176
     1
170
     0
176
     1
171
     0
176
     1
290
     0
176
     1
 93
       13
176
     1
 44
0.0
176
     1
173
     0
176
     1
  0
VISUALSTYLE
  5
37
102
{ACAD_REACTORS
330
2A
102
}
330
2A
100
AcDbVisualStyle
  2
Thicken
 70
    13
177
     2
291
     1
 71
     2
176
     1
 72
     2
176
     1
 73
     0
176
     1
 90
        0
176
     1
 40
-0.6
176
     1
 41
-30.0
176
     1
 62
     5
 63
     7
421
 16777215
176
     1
 74
     1
176
     1
 91
        4
176
     1
 64
     7
176
     1
 65
   257
176
     1
 75
     1
176
     1
175
     1
176
     1
 42
1.0
176
     1
 92
       12
176
     1
 66
     7
176
     1
 43
1.0
176
     1
 76
     1
176
     1
 77
     6
176
     1
 78
     2
176
     1
 67
     7
176
     1
 79
     5
176
     1
170
     0
176
     1
171
     0
176
     1
290
     0
176
     1
 93
        1
176
     1
 44
0.0
176
     1
173
     0
176
     1
  0
ENDSEC
  0
EOF
