  0
SECTION
  2
HEADER
  9
$ACADVER
  1
AC1024
  9
$ACADMAINTVER
 70
     6
  9
$DWGCODEPAGE
  3
UNDEFINED
  9
$INSBASE
 10
0.0
 20
0.0
 30
0.0
  9
$EXTMIN
 10
1.000000000000000E+20
 20
1.000000000000000E+20
 30
1.000000000000000E+20
  9
$EXTMAX
 10
-1.000000000000000E+20
 20
-1.000000000000000E+20
 30
-1.000000000000000E+20
  9
$LIMMIN
 10
0.0
 20
0.0
  9
$LIMMAX
 10
12.0
 20
9.0
  9
$ORTHOMODE
 70
     0
  9
$REGENMODE
 70
     1
  9
$FILLMODE
 70
     1
  9
$QTEXTMODE
 70
     0
  9
$MIRRTEXT
 70
     1
  9
$LTSCALE
 40
1.0
  9
$ATTMODE
 70
     1
  9
$TEXTSIZE
 40
0.2
  9
$TRACEWID
 40
0.05
  9
$TEXTSTYLE
  7
Standard
  9
$CLAYER
  8
0
  9
$CELTYPE
  6
ByLayer
  9
$CECOLOR
 62
   256
  9
$CELTSCALE
 40
1.0
  9
$DISPSILH
 70
     0
  9
$DIMSCALE
 40
1.0
  9
$DIMASZ
 40
0.18
  9
$DIMEXO
 40
0.0625
  9
$DIMDLI
 40
0.38
  9
$DIMRND
 40
0.0
  9
$DIMDLE
 40
0.0
  9
$DIMEXE
 40
0.18
  9
$DIMTP
 40
0.0
  9
$DIMTM
 40
0.0
  9
$DIMTXT
 40
0.18
  9
$DIMCEN
 40
0.09
  9
$DIMTSZ
 40
0.0
  9
$DIMTOL
 70
     0
  9
$DIMLIM
 70
     0
  9
$DIMTIH
 70
     1
  9
$DIMTOH
 70
     1
  9
$DIMSE1
 70
     0
  9
$DIMSE2
 70
     0
  9
$DIMTAD
 70
     0
  9
$DIMZIN
 70
     0
  9
$DIMBLK
  1

  9
$DIMASO
 70
     1
  9
$DIMSHO
 70
     1
  9
$DIMPOST
  1

  9
$DIMAPOST
  1

  9
$DIMALT
 70
     0
  9
$DIMALTD
 70
     2
  9
$DIMALTF
 40
25.4
  9
$DIMLFAC
 40
1.0
  9
$DIMTOFL
 70
     0
  9
$DIMTVP
 40
0.0
  9
$DIMTIX
 70
     0
  9
$DIMSOXD
 70
     0
  9
$DIMSAH
 70
     0
  9
$DIMBLK1
  1

  9
$DIMBLK2
  1

  9
$DIMSTYLE
  2
Standard
  9
$DIMCLRD
 70
     0
  9
$DIMCLRE
 70
     0
  9
$DIMCLRT
 70
     0
  9
$DIMTFAC
 40
1.0
  9
$DIMGAP
 40
0.09
  9
$DIMJUST
 70
     0
  9
$DIMSD1
 70
     0
  9
$DIMSD2
 70
     0
  9
$DIMTOLJ
 70
     1
  9
$DIMTZIN
 70
     0
  9
$DIMALTZ
 70
     0
  9
$DIMALTTZ
 70
     0
  9
$DIMUPT
 70
     0
  9
$DIMDEC
 70
     4
  9
$DIMTDEC
 70
     4
  9
$DIMALTU
 70
     2
  9
$DIMALTTD
 70
     2
  9
$DIMTXSTY
  7
Standard
  9
$DIMAUNIT
 70
     0
  9
$DIMADEC
 70
     0
  9
$DIMALTRND
 40
0.0
  9
$DIMAZIN
 70
     0
  9
$DIMDSEP
 70
    46
  9
$DIMATFIT
 70
     3
  9
$DIMFRAC
 70
     0
  9
$DIMLDRBLK
  1

  9
$DIMLUNIT
 70
     2
  9
$DIMLWD
 70
    -2
  9
$DIMLWE
 70
    -2
  9
$DIMTMOVE
 70
     0
  9
$DIMFXL
 40
1.0
  9
$DIMFXLON
 70
     0
  9
$DIMJOGANG
 40
0.7853981633974483
  9
$DIMTFILL
 70
     0
  9
$DIMTFILLCLR
 70
     0
  9
$DIMARCSYM
 70
     0
  9
$DIMLTYPE
  6

  9
$DIMLTEX1
  6

  9
$DIMLTEX2
  6

  9
$DIMTXTDIRECTION
 70
     0
  9
$LUNITS
 70
     2
  9
$LUPREC
 70
     4
  9
$SKETCHINC
 40
0.1
  9
$FILLETRAD
 40
0.5
  9
$AUNITS
 70
     0
  9
$AUPREC
 70
     0
  9
$MENU
  1
.
  9
$ELEVATION
 40
0.0
  9
$PELEVATION
 40
0.0
  9
$THICKNESS
 40
0.0
  9
$LIMCHECK
 70
     0
  9
$CHAMFERA
 40
0.5
  9
$CHAMFERB
 40
0.5
  9
$CHAMFERC
 40
1.0
  9
$CHAMFERD
 40
0.0
  9
$SKPOLY
 70
     0
  9
$TDCREATE
 40
2457917.632083334
  9
$TDUCREATE
 40
2457917.257083334
  9
$TDUPDATE
 40
2457917.632083334
  9
$TDUUPDATE
 40
2457917.257083334
  9
$TDINDWG
 40
0.0000000116
  9
$TDUSRTIMER
 40
0.0000000116
  9
$USRTIMER
 70
     1
  9
$ANGBASE
 50
0.0
  9
$ANGDIR
 70
     0
  9
$PDMODE
 70
     0
  9
$PDSIZE
 40
0.0
  9
$PLINEWID
 40
0.0
  9
$SPLFRAME
 70
     0
  9
$SPLINETYPE
 70
     6
  9
$SPLINESEGS
 70
     8
  9
$HANDSEED
  5
DD
  9
$SURFTAB1
 70
     6
  9
$SURFTAB2
 70
     6
  9
$SURFTYPE
 70
     6
  9
$SURFU
 70
     6
  9
$SURFV
 70
     6
  9
$UCSBASE
  2

  9
$UCSNAME
  2

  9
$UCSORG
 10
0.0
 20
0.0
 30
0.0
  9
$UCSXDIR
 10
1.0
 20
0.0
 30
0.0
  9
$UCSYDIR
 10
0.0
 20
1.0
 30
0.0
  9
$UCSORTHOREF
  2

  9
$UCSORTHOVIEW
 70
     0
  9
$UCSORGTOP
 10
0.0
 20
0.0
 30
0.0
  9
$UCSORGBOTTOM
 10
0.0
 20
0.0
 30
0.0
  9
$UCSORGLEFT
 10
0.0
 20
0.0
 30
0.0
  9
$UCSORGRIGHT
 10
0.0
 20
0.0
 30
0.0
  9
$UCSORGFRONT
 10
0.0
 20
0.0
 30
0.0
  9
$UCSORGBACK
 10
0.0
 20
0.0
 30
0.0
  9
$PUCSBASE
  2

  9
$PUCSNAME
  2

  9
$PUCSORG
 10
0.0
 20
0.0
 30
0.0
  9
$PUCSXDIR
 10
1.0
 20
0.0
 30
0.0
  9
$PUCSYDIR
 10
0.0
 20
1.0
 30
0.0
  9
$PUCSORTHOREF
  2

  9
$PUCSORTHOVIEW
 70
     0
  9
$PUCSORGTOP
 10
0.0
 20
0.0
 30
0.0
  9
$PUCSORGBOTTOM
 10
0.0
 20
0.0
 30
0.0
  9
$PUCSORGLEFT
 10
0.0
 20
0.0
 30
0.0
  9
$PUCSORGRIGHT
 10
0.0
 20
0.0
 30
0.0
  9
$PUCSORGFRONT
 10
0.0
 20
0.0
 30
0.0
  9
$PUCSORGBACK
 10
0.0
 20
0.0
 30
0.0
  9
$USERI1
 70
     0
  9
$USERI2
 70
     0
  9
$USERI3
 70
     0
  9
$USERI4
 70
     0
  9
$USERI5
 70
     0
  9
$USERR1
 40
0.0
  9
$USERR2
 40
0.0
  9
$USERR3
 40
0.0
  9
$USERR4
 40
0.0
  9
$USERR5
 40
0.0
  9
$WORLDVIEW
 70
     1
  9
$SHADEDGE
 70
     3
  9
$SHADEDIF
 70
    70
  9
$TILEMODE
 70
     1
  9
$MAXACTVP
 70
    64
  9
$PINSBASE
 10
0.0
 20
0.0
 30
0.0
  9
$PLIMCHECK
 70
     0
  9
$PEXTMIN
 10
1.000000000000000E+20
 20
1.000000000000000E+20
 30
1.000000000000000E+20
  9
$PEXTMAX
 10
-1.000000000000000E+20
 20
-1.000000000000000E+20
 30
-1.000000000000000E+20
  9
$PLIMMIN
 10
0.0
 20
0.0
  9
$PLIMMAX
 10
12.0
 20
9.0
  9
$UNITMODE
 70
     0
  9
$VISRETAIN
 70
     1
  9
$PLINEGEN
 70
     0
  9
$PSLTSCALE
 70
     1
  9
$TREEDEPTH
 70
  3020
  9
$CMLSTYLE
  2
Standard
  9
$CMLJUST
 70
     0
  9
$CMLSCALE
 40
1.0
  9
$PROXYGRAPHICS
 70
     1
  9
$MEASUREMENT
 70
     0
  9
$CELWEIGHT
370
    -1
  9
$ENDCAPS
280
     0
  9
$JOINSTYLE
280
     0
  9
$LWDISPLAY
290
     1
  9
$INSUNITS
 70
     1
  9
$HYPERLINKBASE
  1

  9
$STYLESHEET
  1

  9
$XEDIT
290
     1
  9
$CEPSNTYPE
380
     0
  9
$PSTYLEMODE
290
     1
  9
$FINGERPRINTGUID
  2
{12CA29A8-57BC-317A-AE34-2AA0996691E5}
  9
$VERSIONGUID
  2
{FAEB1C32-E019-11D5-929B-00C0DF256EC4}
  9
$EXTNAMES
290
     1
  9
$PSVPSCALE
 40
0.0
  9
$OLESTARTUP
290
     0
  9
$SORTENTS
280
   127
  9
$INDEXCTL
280
     0
  9
$HIDETEXT
280
     1
  9
$XCLIPFRAME
280
     2
  9
$HALOGAP
280
     0
  9
$OBSCOLOR
 70
   257
  9
$OBSLTYPE
280
     0
  9
$INTERSECTIONDISPLAY
280
     0
  9
$INTERSECTIONCOLOR
 70
   257
  9
$DIMASSOC
280
     2
  9
$PROJECTNAME
  1

  9
$CAMERADISPLAY
290
     0
  9
$LENSLENGTH
 40
50.0
  9
$CAMERAHEIGHT
 40
0.0
  9
$STEPSPERSEC
 40
2.0
  9
$STEPSIZE
 40
6.0
  9
$3DDWFPREC
 40
2.0
  9
$PSOLWIDTH
 40
0.25
  9
$PSOLHEIGHT
 40
4.0
  9
$LOFTANG1
 40
1.570796326794897
  9
$LOFTANG2
 40
1.570796326794897
  9
$LOFTMAG1
 40
0.0
  9
$LOFTMAG2
 40
0.0
  9
$LOFTPARAM
 70
     7
  9
$LOFTNORMALS
280
     1
  9
$LATITUDE
 40
37.795
  9
$LONGITUDE
 40
-122.394
  9
$NORTHDIRECTION
 40
0.0
  9
$TIMEZONE
 70
 -8000
  9
$LIGHTGLYPHDISPLAY
280
     1
  9
$TILEMODELIGHTSYNCH
280
     1
  9
$CMATERIAL
347
3C
  9
$SOLIDHIST
280
     1
  9
$SHOWHIST
280
     1
  9
$DWFFRAME
280
     2
  9
$DGNFRAME
280
     2
  9
$REALWORLDSCALE
290
     1
  9
$INTERFERECOLOR
 62
   256
  9
$CSHADOW
280
     0
  9
$SHADOWPLANELOCATION
 40
0.0
  0
ENDSEC
  0
SECTION
  2
CLASSES
  0
CLASS
  1
ACDBDICTIONARYWDFLT
  2
AcDbDictionaryWithDefault
  3
ObjectDBX Classes
 90
        0
 91
        4
280
     0
281
     0
  0
CLASS
  1
VISUALSTYLE
  2
AcDbVisualStyle
  3
ObjectDBX Classes
 90
     4095
 91
        4
280
     0
281
     0
  0
CLASS
  1
MATERIAL
  2
AcDbMaterial
  3
ObjectDBX Classes
 90
     1153
 91
        4
280
     0
281
     0
  0
CLASS
  1
SUN
  2
AcDbSun
  3
SCENEOE
 90
     1024
 91
        4
280
     0
281
     0
  0
ENDSEC
  0
SECTION
  2
TABLES
  0
TABLE
  2
VPORT
  5
8
330
0
100
AcDbSymbolTable
 70
     1
  0
VPORT
  5
29
330
8
100
AcDbSymbolTableRecord
100
AcDbViewportTableRecord
  2
*Active
 70
     0
 10
0.0
 20
0.0
 11
1.0
 21
1.0
 12
0.0
 22
0.0
 13
0.0
 23
0.0
 14
0.5
 24
0.5
 15
0.5
 25
0.5
 16
0.0
 26
0.0
 36
1.0
 17
91.00082462281999
 27
-128.4993055234307
 37
0.0
 40
256.9986110468615
 41
0.7081814508812795
 42
50.0
 43
0.0
 44
0.0
 50
0.0
 51
0.0
 71
     0
 72
   100
 73
     1
 74
     3
 75
     0
 76
     0
 77
     0
 78
     0
281
     0
 65
     1
110
0.0
120
0.0
130
0.0
111
1.0
121
0.0
131
0.0
112
0.0
122
1.0
132
0.0
 79
     0
146
0.0
 60
     3
 61
     5
292
     1
282
     1
141
0.0
142
0.0
 63
   250
361
3F
  0
ENDTAB
  0
TABLE
  2
LTYPE
  5
5
330
0
100
AcDbSymbolTable
 70
     1
  0
LTYPE
  5
14
330
5
100
AcDbSymbolTableRecord
100
AcDbLinetypeTableRecord
  2
ByBlock
 70
     0
  3

 72
    65
 73
     0
 40
0.0
  0
LTYPE
  5
15
330
5
100
AcDbSymbolTableRecord
100
AcDbLinetypeTableRecord
  2
ByLayer
 70
     0
  3

 72
    65
 73
     0
 40
0.0
  0
LTYPE
  5
16
330
5
100
AcDbSymbolTableRecord
100
AcDbLinetypeTableRecord
  2
Continuous
 70
     0
  3
Solid line
 72
    65
 73
     0
 40
0.0
  0
ENDTAB
  0
TABLE
  2
LAYER
  5
2
330
0
100
AcDbSymbolTable
 70
     2
  0
LAYER
  5
10
330
2
100
AcDbSymbolTableRecord
100
AcDbLayerTableRecord
  2
0
 70
     0
 62
     7
  6
Continuous
370
    -3
390
F
347
3E
  0
LAYER
  5
40
330
2
100
AcDbSymbolTableRecord
100
AcDbLayerTableRecord
  2
_U+30EC_U+30A4_U+30E4_U+30FC 1
 70
     0
 62
     7
  6
Continuous
370
    -3
390
F
347
3E
  0
ENDTAB
  0
TABLE
  2
STYLE
  5
3
330
0
100
AcDbSymbolTable
 70
     1
  0
STYLE
  5
11
330
3
100
AcDbSymbolTableRecord
100
AcDbTextStyleTableRecord
  2
Standard
 70
     0
 40
0.0
 41
1.0
 50
0.0
 71
     0
 42
0.2
  3
txt
  4

  0
ENDTAB
  0
TABLE
  2
VIEW
  5
6
330
0
100
AcDbSymbolTable
 70
     0
  0
ENDTAB
  0
TABLE
  2
UCS
  5
7
330
0
100
AcDbSymbolTable
 70
     0
  0
ENDTAB
  0
TABLE
  2
APPID
  5
9
330
0
100
AcDbSymbolTable
 70
     1
  0
APPID
  5
12
330
9
100
AcDbSymbolTableRecord
100
AcDbRegAppTableRecord
  2
ACAD
 70
     0
  0
ENDTAB
  0
TABLE
  2
DIMSTYLE
  5
A
330
0
100
AcDbSymbolTable
 70
     1
100
AcDbDimStyleTable
  0
DIMSTYLE
105
27
330
A
100
AcDbSymbolTableRecord
100
AcDbDimStyleTableRecord
  2
Standard
 70
     0
178
     0
340
11
  0
ENDTAB
  0
TABLE
  2
BLOCK_RECORD
  5
1
330
0
100
AcDbSymbolTable
 70
     8
  0
BLOCK_RECORD
  5
1F
330
1
100
AcDbSymbolTableRecord
100
AcDbBlockTableRecord
  2
*Model_Space
340
22
 70
     0
280
     1
281
     0
  0
BLOCK_RECORD
  5
1B
330
1
100
AcDbSymbolTableRecord
100
AcDbBlockTableRecord
  2
*Paper_Space
340
1E
 70
     0
280
     1
281
     0
  0
BLOCK_RECORD
  5
23
330
1
100
AcDbSymbolTableRecord
100
AcDbBlockTableRecord
  2
*Paper_Space0
340
26
 70
     0
280
     1
281
     0
  0
BLOCK_RECORD
  5
53
330
1
100
AcDbSymbolTableRecord
100
AcDbBlockTableRecord
  2
block 2
340
0
102
{BLKREFS
331
54
102
}
 70
     0
280
     1
281
     0
  0
BLOCK_RECORD
  5
63
330
1
100
AcDbSymbolTableRecord
100
AcDbBlockTableRecord
  2
block 3
340
0
102
{BLKREFS
331
64
102
}
 70
     0
280
     1
281
     0
  0
BLOCK_RECORD
  5
78
330
1
100
AcDbSymbolTableRecord
100
AcDbBlockTableRecord
  2
block 4
340
0
102
{BLKREFS
331
79
102
}
 70
     0
280
     1
281
     0
  0
BLOCK_RECORD
  5
8B
330
1
100
AcDbSymbolTableRecord
100
AcDbBlockTableRecord
  2
block 5
340
0
102
{BLKREFS
331
8C
102
}
 70
     0
280
     1
281
     0
  0
BLOCK_RECORD
  5
9B
330
1
100
AcDbSymbolTableRecord
100
AcDbBlockTableRecord
  2
block 6
340
0
102
{BLKREFS
331
9C
102
}
 70
     0
280
     1
281
     0
  0
BLOCK_RECORD
  5
BA
330
1
100
AcDbSymbolTableRecord
100
AcDbBlockTableRecord
  2
block 7
340
0
102
{BLKREFS
331
BB
102
}
 70
     0
280
     1
281
     0
  0
BLOCK_RECORD
  5
C2
330
1
100
AcDbSymbolTableRecord
100
AcDbBlockTableRecord
  2
block 8
340
0
102
{BLKREFS
331
C3
102
}
 70
     0
280
     1
281
     0
  0
ENDTAB
  0
ENDSEC
  0
SECTION
  2
BLOCKS
  0
BLOCK
  5
20
330
1F
100
AcDbEntity
  8
0
100
AcDbBlockBegin
  2
*Model_Space
 70
     0
 10
0.0
 20
0.0
 30
0.0
  3
*Model_Space
  1

  0
ENDBLK
  5
21
330
1F
100
AcDbEntity
  8
0
100
AcDbBlockEnd
  0
BLOCK
  5
1C
330
1B
100
AcDbEntity
 67
     1
  8
0
100
AcDbBlockBegin
  2
*Paper_Space
 70
     0
 10
0.0
 20
0.0
 30
0.0
  3
*Paper_Space
  1

  0
ENDBLK
  5
1D
330
1B
100
AcDbEntity
 67
     1
  8
0
100
AcDbBlockEnd
  0
BLOCK
  5
24
330
23
100
AcDbEntity
  8
0
100
AcDbBlockBegin
  2
*Paper_Space0
 70
     0
 10
0.0
 20
0.0
 30
0.0
  3
*Paper_Space0
  1

  0
ENDBLK
  5
25
330
23
100
AcDbEntity
  8
0
100
AcDbBlockEnd
  0
BLOCK
  5
55
330
53
100
AcDbEntity
  8
0
100
AcDbBlockBegin
  2
block 2
 70
     0
 10
0.0
 20
0.0
 30
0.0
  3
block 2
  1

  0
SPLINE
  5
57
330
53
100
AcDbEntity
  8
_U+30EC_U+30A4_U+30E4_U+30FC 1
370
     0
100
AcDbSpline
210
0.0
220
0.0
230
1.0
 70
    11
 71
     3
 72
    32
 73
    28
 74
     0
 42
0.0000000001
 43
0.0000000001
 12
1.0
 22
0.0
 32
0.0
 13
1.0
 23
0.0
 33
0.0
 40
0.0
 40
0.0
 40
0.0
 40
0.0
 40
1.0
 40
1.0
 40
1.0
 40
2.0
 40
2.0
 40
2.0
 40
3.0
 40
3.0
 40
3.0
 40
4.0
 40
4.0
 40
4.0
 40
5.0
 40
5.0
 40
5.0
 40
6.0
 40
6.0
 40
6.0
 40
7.0
 40
7.0
 40
7.0
 40
8.0
 40
8.0
 40
8.0
 40
9.0
 40
9.0
 40
9.0
 40
9.0
 10
98.53076440679092
 20
-120.2238416583121
 30
0.0
 10
98.53076440679092
 20
-120.4091877954185
 30
0.0
 10
98.46117347798888
 20
-120.6713595618461
 30
0.0
 10
98.12872176366227
 20
-120.712011688572
 30
0.0
 10
98.12872176366227
 20
-120.712011688572
 30
0.0
 10
98.12872176366227
 20
-120.4839463674485
 30
0.0
 10
98.12872176366227
 20
-120.4839463674485
 30
0.0
 10
98.18797740600857
 20
-120.4725775523471
 30
0.0
 10
98.33611651187431
 20
-120.4384711070432
 30
0.0
 10
98.33611651187431
 20
-120.2214300914724
 30
0.0
 10
98.33611651187431
 20
-119.9096489500573
 30
0.0
 10
98.00607636438737
 20
-119.8689968233314
 30
0.0
 10
97.80109318301501
 20
-119.8552164413904
 30
0.0
 10
97.88136390782132
 20
-119.9523681340744
 30
0.0
 10
97.93855249287648
 20
-120.0247151392647
 30
0.0
 10
97.93855249287648
 20
-120.2193630341813
 30
0.0
 10
97.93855249287648
 20
-120.4115993622582
 30
0.0
 10
97.8327880614793
 20
-120.7347493187746
 30
0.0
 10
97.42661130376835
 20
-120.7347493187746
 30
0.0
 10
97.10690644273717
 20
-120.7347493187746
 30
0.0
 10
96.88710935077823
 20
-120.5221869273347
 30
0.0
 10
96.88710935077823
 20
-120.1831895315862
 30
0.0
 10
96.88710935077823
 20
-119.6336968016888
 30
0.0
 10
97.44142521435492
 20
-119.6223279865875
 30
0.0
 10
97.65502113444042
 20
-119.6223279865875
 30
0.0
 10
97.88549802240362
 20
-119.6223279865875
 30
0.0
 10
98.53076440679092
 20
-119.6426540499505
 30
0.0
 10
98.53076440679092
 20
-120.2238416583121
 30
0.0
  0
SPLINE
  5
58
330
53
100
AcDbEntity
  8
_U+30EC_U+30A4_U+30E4_U+30FC 1
370
     0
100
AcDbSpline
210
0.0
220
0.0
230
1.0
 70
    11
 71
     3
 72
    17
 73
    13
 74
     0
 42
0.0000000001
 43
0.0000000001
 12
1.0
 22
0.0
 32
0.0
 13
1.0
 23
0.0
 33
0.0
 40
0.0
 40
0.0
 40
0.0
 40
0.0
 40
1.0
 40
1.0
 40
1.0
 40
2.0
 40
2.0
 40
2.0
 40
3.0
 40
3.0
 40
3.0
 40
4.0
 40
4.0
 40
4.0
 40
4.0
 10
97.07969018840369
 20
-120.1807779647465
 30
0.0
 10
97.07969018840369
 20
-120.3075574786037
 30
0.0
 10
97.13653426391032
 20
-120.4949706730013
 30
0.0
 10
97.42213267963753
 20
-120.4949706730013
 30
0.0
 10
97.64847545301843
 20
-120.4949706730013
 30
0.0
 10
97.74390459795985
 20
-120.3457980384899
 30
0.0
 10
97.74390459795985
 20
-120.2011040281095
 30
0.0
 10
97.74390459795985
 20
-119.9210177651586
 30
0.0
 10
97.53444279245667
 20
-119.8800211288842
 30
0.0
 10
97.41799856505523
 20
-119.8800211288842
 30
0.0
 10
97.24229869530748
 20
-119.8800211288842
 30
0.0
 10
97.07969018840369
 20
-119.9819959552476
 30
0.0
 10
97.07969018840369
 20
-120.1807779647465
 30
0.0
  0
HATCH
  5
59
330
53
100
AcDbEntity
  8
_U+30EC_U+30A4_U+30E4_U+30FC 1
 62
     7
420
 16777215
100
AcDbHatch
 10
0.0
 20
0.0
 30
0.0
210
0.0
220
0.0
230
1.0
  2
SOLID
 70
     1
 71
     0
 91
        2
 92
        1
 93
        1
 72
     4
 94
        3
 73
     0
 74
     1
 95
       32
 96
       28
 40
0.0
 40
0.0
 40
0.0
 40
0.0
 40
1.0
 40
1.0
 40
1.0
 40
2.0
 40
2.0
 40
2.0
 40
3.0
 40
3.0
 40
3.0
 40
4.0
 40
4.0
 40
4.0
 40
5.0
 40
5.0
 40
5.0
 40
6.0
 40
6.0
 40
6.0
 40
7.0
 40
7.0
 40
7.0
 40
8.0
 40
8.0
 40
8.0
 40
9.0
 40
9.0
 40
9.0
 40
9.0
 10
98.53076440679092
 20
-120.2238416583121
 10
98.53076440679092
 20
-120.4091877954185
 10
98.46117347798888
 20
-120.6713595618461
 10
98.12872176366227
 20
-120.712011688572
 10
98.12872176366227
 20
-120.712011688572
 10
98.12872176366227
 20
-120.4839463674485
 10
98.12872176366227
 20
-120.4839463674485
 10
98.18797740600857
 20
-120.4725775523471
 10
98.33611651187431
 20
-120.4384711070432
 10
98.33611651187431
 20
-120.2214300914724
 10
98.33611651187431
 20
-119.9096489500573
 10
98.00607636438737
 20
-119.8689968233314
 10
97.80109318301501
 20
-119.8552164413904
 10
97.88136390782132
 20
-119.9523681340744
 10
97.93855249287648
 20
-120.0247151392647
 10
97.93855249287648
 20
-120.2193630341813
 10
97.93855249287648
 20
-120.4115993622582
 10
97.8327880614793
 20
-120.7347493187746
 10
97.42661130376835
 20
-120.7347493187746
 10
97.10690644273717
 20
-120.7347493187746
 10
96.88710935077823
 20
-120.5221869273347
 10
96.88710935077823
 20
-120.1831895315862
 10
96.88710935077823
 20
-119.6336968016888
 10
97.44142521435492
 20
-119.6223279865875
 10
97.65502113444042
 20
-119.6223279865875
 10
97.88549802240362
 20
-119.6223279865875
 10
98.53076440679092
 20
-119.6426540499505
 10
98.53076440679092
 20
-120.2238416583121
 97
        0
 97
        0
 92
        1
 93
        1
 72
     4
 94
        3
 73
     0
 74
     1
 95
       17
 96
       13
 40
0.0
 40
0.0
 40
0.0
 40
0.0
 40
1.0
 40
1.0
 40
1.0
 40
2.0
 40
2.0
 40
2.0
 40
3.0
 40
3.0
 40
3.0
 40
4.0
 40
4.0
 40
4.0
 40
4.0
 10
97.07969018840369
 20
-120.1807779647465
 10
97.07969018840369
 20
-120.3075574786037
 10
97.13653426391032
 20
-120.4949706730013
 10
97.42213267963753
 20
-120.4949706730013
 10
97.64847545301843
 20
-120.4949706730013
 10
97.74390459795985
 20
-120.3457980384899
 10
97.74390459795985
 20
-120.2011040281095
 10
97.74390459795985
 20
-119.9210177651586
 10
97.53444279245667
 20
-119.8800211288842
 10
97.41799856505523
 20
-119.8800211288842
 10
97.24229869530748
 20
-119.8800211288842
 10
97.07969018840369
 20
-119.9819959552476
 10
97.07969018840369
 20
-120.1807779647465
 97
        0
 97
        0
 75
     2
 76
     1
 98
        0
  0
ENDBLK
  5
56
330
53
100
AcDbEntity
  8
0
100
AcDbBlockEnd
  0
BLOCK
  5
65
330
63
100
AcDbEntity
  8
0
100
AcDbBlockBegin
  2
block 3
 70
     0
 10
0.0
 20
0.0
 30
0.0
  3
block 3
  1

  0
SPLINE
  5
67
330
63
100
AcDbEntity
  8
_U+30EC_U+30A4_U+30E4_U+30FC 1
370
     0
100
AcDbSpline
210
0.0
220
0.0
230
1.0
 70
    11
 71
     3
 72
    32
 73
    28
 74
     0
 42
0.0000000001
 43
0.0000000001
 12
1.0
 22
0.0
 32
0.0
 13
1.0
 23
0.0
 33
0.0
 40
0.0
 40
0.0
 40
0.0
 40
0.0
 40
1.0
 40
1.0
 40
1.0
 40
2.0
 40
2.0
 40
2.0
 40
3.0
 40
3.0
 40
3.0
 40
4.0
 40
4.0
 40
4.0
 40
5.0
 40
5.0
 40
5.0
 40
6.0
 40
6.0
 40
6.0
 40
7.0
 40
7.0
 40
7.0
 40
8.0
 40
8.0
 40
8.0
 40
9.0
 40
9.0
 40
9.0
 40
9.0
 10
98.53076440679092
 20
-127.6738606451649
 30
0.0
 10
98.53076440679092
 20
-128.2257649419019
 30
0.0
 10
97.97644854321423
 20
-128.2347221901636
 30
0.0
 10
97.76285262312874
 20
-128.2347221901636
 30
0.0
 10
97.53237573516552
 20
-128.2347221901636
 30
0.0
 10
96.88504229348707
 20
-128.2143961268006
 30
0.0
 10
96.88504229348707
 20
-127.6332085184389
 30
0.0
 10
96.88504229348707
 20
-127.4478623813325
 30
0.0
 10
96.95463322228912
 20
-127.185690614905
 30
0.0
 10
97.2867404270672
 20
-127.145038488179
 30
0.0
 10
97.2867404270672
 20
-127.145038488179
 30
0.0
 10
97.2867404270672
 20
-127.3734483188511
 30
0.0
 10
97.2867404270672
 20
-127.3734483188511
 30
0.0
 10
97.22989635156058
 20
-127.3844726244039
 30
0.0
 10
97.08175724569485
 20
-127.4185790697079
 30
0.0
 10
97.08175724569485
 20
-127.6356200852786
 30
0.0
 10
97.08175724569485
 20
-127.9477457362422
 30
0.0
 10
97.40973033589063
 20
-127.9904649202593
 30
0.0
 10
97.614713517263
 20
-128.0042453022003
 30
0.0
 10
97.53650984974782
 20
-127.9046820426766
 30
0.0
 10
97.47725420740153
 20
-127.8323350374864
 30
0.0
 10
97.47725420740153
 20
-127.6380316521183
 30
0.0
 10
97.47725420740153
 20
-127.4457953240413
 30
0.0
 10
97.58508569608985
 20
-127.1223008579764
 30
0.0
 10
97.9912624538008
 20
-127.1223008579764
 30
0.0
 10
98.31096731483198
 20
-127.1223008579764
 30
0.0
 10
98.53076440679092
 20
-127.3348632494163
 30
0.0
 10
98.53076440679092
 20
-127.6738606451649
 30
0.0
  0
SPLINE
  5
68
330
63
100
AcDbEntity
  8
_U+30EC_U+30A4_U+30E4_U+30FC 1
370
     0
100
AcDbSpline
210
0.0
220
0.0
230
1.0
 70
    11
 71
     3
 72
    17
 73
    13
 74
     0
 42
0.0000000001
 43
0.0000000001
 12
1.0
 22
0.0
 32
0.0
 13
1.0
 23
0.0
 33
0.0
 40
0.0
 40
0.0
 40
0.0
 40
0.0
 40
1.0
 40
1.0
 40
1.0
 40
2.0
 40
2.0
 40
2.0
 40
3.0
 40
3.0
 40
3.0
 40
4.0
 40
4.0
 40
4.0
 40
4.0
 10
97.67190210231814
 20
-127.6559461486416
 30
0.0
 10
97.67190210231814
 20
-127.9363769211409
 30
0.0
 10
97.88343096511248
 20
-127.9770290478669
 30
0.0
 10
97.99987519251393
 20
-127.9770290478669
 30
0.0
 10
98.17557506226167
 20
-127.9770290478669
 30
0.0
 10
98.33852807871398
 20
-127.875398731052
 30
0.0
 10
98.33852807871398
 20
-127.6786837788442
 30
0.0
 10
98.33852807871398
 20
-127.5498372076959
 30
0.0
 10
98.27927243636769
 20
-127.3620795037498
 30
0.0
 10
97.99332951109194
 20
-127.3620795037498
 30
0.0
 10
97.7693983045507
 20
-127.3620795037498
 30
0.0
 10
97.67190210231814
 20
-127.5112521382611
 30
0.0
 10
97.67190210231814
 20
-127.6559461486416
 30
0.0
  0
HATCH
  5
69
330
63
100
AcDbEntity
  8
_U+30EC_U+30A4_U+30E4_U+30FC 1
 62
     7
420
 16777215
100
AcDbHatch
 10
0.0
 20
0.0
 30
0.0
210
0.0
220
0.0
230
1.0
  2
SOLID
 70
     1
 71
     0
 91
        2
 92
        1
 93
        1
 72
     4
 94
        3
 73
     0
 74
     1
 95
       32
 96
       28
 40
0.0
 40
0.0
 40
0.0
 40
0.0
 40
1.0
 40
1.0
 40
1.0
 40
2.0
 40
2.0
 40
2.0
 40
3.0
 40
3.0
 40
3.0
 40
4.0
 40
4.0
 40
4.0
 40
5.0
 40
5.0
 40
5.0
 40
6.0
 40
6.0
 40
6.0
 40
7.0
 40
7.0
 40
7.0
 40
8.0
 40
8.0
 40
8.0
 40
9.0
 40
9.0
 40
9.0
 40
9.0
 10
98.53076440679092
 20
-127.6738606451649
 10
98.53076440679092
 20
-128.2257649419019
 10
97.97644854321423
 20
-128.2347221901636
 10
97.76285262312874
 20
-128.2347221901636
 10
97.53237573516552
 20
-128.2347221901636
 10
96.88504229348707
 20
-128.2143961268006
 10
96.88504229348707
 20
-127.6332085184389
 10
96.88504229348707
 20
-127.4478623813325
 10
96.95463322228912
 20
-127.185690614905
 10
97.2867404270672
 20
-127.145038488179
 10
97.2867404270672
 20
-127.145038488179
 10
97.2867404270672
 20
-127.3734483188511
 10
97.2867404270672
 20
-127.3734483188511
 10
97.22989635156058
 20
-127.3844726244039
 10
97.08175724569485
 20
-127.4185790697079
 10
97.08175724569485
 20
-127.6356200852786
 10
97.08175724569485
 20
-127.9477457362422
 10
97.40973033589063
 20
-127.9904649202593
 10
97.614713517263
 20
-128.0042453022003
 10
97.53650984974782
 20
-127.9046820426766
 10
97.47725420740153
 20
-127.8323350374864
 10
97.47725420740153
 20
-127.6380316521183
 10
97.47725420740153
 20
-127.4457953240413
 10
97.58508569608985
 20
-127.1223008579764
 10
97.9912624538008
 20
-127.1223008579764
 10
98.31096731483198
 20
-127.1223008579764
 10
98.53076440679092
 20
-127.3348632494163
 10
98.53076440679092
 20
-127.6738606451649
 97
        0
 97
        0
 92
        1
 93
        1
 72
     4
 94
        3
 73
     0
 74
     1
 95
       17
 96
       13
 40
0.0
 40
0.0
 40
0.0
 40
0.0
 40
1.0
 40
1.0
 40
1.0
 40
2.0
 40
2.0
 40
2.0
 40
3.0
 40
3.0
 40
3.0
 40
4.0
 40
4.0
 40
4.0
 40
4.0
 10
97.67190210231814
 20
-127.6559461486416
 10
97.67190210231814
 20
-127.9363769211409
 10
97.88343096511248
 20
-127.9770290478669
 10
97.99987519251393
 20
-127.9770290478669
 10
98.17557506226167
 20
-127.9770290478669
 10
98.33852807871398
 20
-127.875398731052
 10
98.33852807871398
 20
-127.6786837788442
 10
98.33852807871398
 20
-127.5498372076959
 10
98.27927243636769
 20
-127.3620795037498
 10
97.99332951109194
 20
-127.3620795037498
 10
97.7693983045507
 20
-127.3620795037498
 10
97.67190210231814
 20
-127.5112521382611
 10
97.67190210231814
 20
-127.6559461486416
 97
        0
 97
        0
 75
     2
 76
     1
 98
        0
  0
ENDBLK
  5
66
330
63
100
AcDbEntity
  8
0
100
AcDbBlockEnd
  0
BLOCK
  5
7A
330
78
100
AcDbEntity
  8
0
100
AcDbBlockBegin
  2
block 4
 70
     0
 10
0.0
 20
0.0
 30
0.0
  3
block 4
  1

  0
SPLINE
  5
7C
330
78
100
AcDbEntity
  8
_U+30EC_U+30A4_U+30E4_U+30FC 1
370
     0
100
AcDbSpline
210
0.0
220
0.0
230
1.0
 70
    11
 71
     3
 72
    32
 73
    28
 74
     0
 42
0.0000000001
 43
0.0000000001
 12
1.0
 22
0.0
 32
0.0
 13
1.0
 23
0.0
 33
0.0
 40
0.0
 40
0.0
 40
0.0
 40
0.0
 40
1.0
 40
1.0
 40
1.0
 40
2.0
 40
2.0
 40
2.0
 40
3.0
 40
3.0
 40
3.0
 40
4.0
 40
4.0
 40
4.0
 40
5.0
 40
5.0
 40
5.0
 40
6.0
 40
6.0
 40
6.0
 40
7.0
 40
7.0
 40
7.0
 40
8.0
 40
8.0
 40
8.0
 40
9.0
 40
9.0
 40
9.0
 40
9.0
 10
98.53076440679092
 20
-133.6290527009677
 30
0.0
 10
98.53076440679092
 20
-134.1809569977048
 30
0.0
 10
97.97644854321423
 20
-134.1899142459664
 30
0.0
 10
97.76285262312874
 20
-134.1899142459664
 30
0.0
 10
97.53237573516552
 20
-134.1899142459664
 30
0.0
 10
96.88504229348707
 20
-134.1695881826034
 30
0.0
 10
96.88504229348707
 20
-133.5884005742418
 30
0.0
 10
96.88504229348707
 20
-133.4030544371354
 30
0.0
 10
96.95463322228912
 20
-133.1408826707078
 30
0.0
 10
97.2867404270672
 20
-133.1002305439819
 30
0.0
 10
97.2867404270672
 20
-133.1002305439819
 30
0.0
 10
97.2867404270672
 20
-133.328640374654
 30
0.0
 10
97.2867404270672
 20
-133.328640374654
 30
0.0
 10
97.22989635156058
 20
-133.3396646802068
 30
0.0
 10
97.08175724569485
 20
-133.3737711255107
 30
0.0
 10
97.08175724569485
 20
-133.5908121410815
 30
0.0
 10
97.08175724569485
 20
-133.9029377920451
 30
0.0
 10
97.40973033589063
 20
-133.9456569760622
 30
0.0
 10
97.614713517263
 20
-133.9594373580032
 30
0.0
 10
97.53650984974782
 20
-133.8598740984795
 30
0.0
 10
97.47725420740153
 20
-133.7875270932892
 30
0.0
 10
97.47725420740153
 20
-133.5932237079211
 30
0.0
 10
97.47725420740153
 20
-133.4009873798442
 30
0.0
 10
97.58508569608985
 20
-133.0774929137793
 30
0.0
 10
97.9912624538008
 20
-133.0774929137793
 30
0.0
 10
98.31096731483198
 20
-133.0774929137793
 30
0.0
 10
98.53076440679092
 20
-133.2900553052192
 30
0.0
 10
98.53076440679092
 20
-133.6290527009677
 30
0.0
  0
SPLINE
  5
7D
330
78
100
AcDbEntity
  8
_U+30EC_U+30A4_U+30E4_U+30FC 1
370
     0
100
AcDbSpline
210
0.0
220
0.0
230
1.0
 70
    11
 71
     3
 72
    17
 73
    13
 74
     0
 42
0.0000000001
 43
0.0000000001
 12
1.0
 22
0.0
 32
0.0
 13
1.0
 23
0.0
 33
0.0
 40
0.0
 40
0.0
 40
0.0
 40
0.0
 40
1.0
 40
1.0
 40
1.0
 40
2.0
 40
2.0
 40
2.0
 40
3.0
 40
3.0
 40
3.0
 40
4.0
 40
4.0
 40
4.0
 40
4.0
 10
97.67190210231814
 20
-133.6111382044444
 30
0.0
 10
97.67190210231814
 20
-133.8915689769438
 30
0.0
 10
97.88343096511248
 20
-133.9322211036697
 30
0.0
 10
97.99987519251393
 20
-133.9322211036697
 30
0.0
 10
98.17557506226167
 20
-133.9322211036697
 30
0.0
 10
98.33852807871398
 20
-133.8305907868549
 30
0.0
 10
98.33852807871398
 20
-133.6338758346471
 30
0.0
 10
98.33852807871398
 20
-133.5050292634988
 30
0.0
 10
98.27927243636769
 20
-133.3172715595526
 30
0.0
 10
97.99332951109194
 20
-133.3172715595526
 30
0.0
 10
97.7693983045507
 20
-133.3172715595526
 30
0.0
 10
97.67190210231814
 20
-133.4664441940639
 30
0.0
 10
97.67190210231814
 20
-133.6111382044444
 30
0.0
  0
HATCH
  5
7E
330
78
100
AcDbEntity
  8
_U+30EC_U+30A4_U+30E4_U+30FC 1
 62
     7
420
 16777215
100
AcDbHatch
 10
0.0
 20
0.0
 30
0.0
210
0.0
220
0.0
230
1.0
  2
SOLID
 70
     1
 71
     0
 91
        2
 92
        1
 93
        1
 72
     4
 94
        3
 73
     0
 74
     1
 95
       32
 96
       28
 40
0.0
 40
0.0
 40
0.0
 40
0.0
 40
1.0
 40
1.0
 40
1.0
 40
2.0
 40
2.0
 40
2.0
 40
3.0
 40
3.0
 40
3.0
 40
4.0
 40
4.0
 40
4.0
 40
5.0
 40
5.0
 40
5.0
 40
6.0
 40
6.0
 40
6.0
 40
7.0
 40
7.0
 40
7.0
 40
8.0
 40
8.0
 40
8.0
 40
9.0
 40
9.0
 40
9.0
 40
9.0
 10
98.53076440679092
 20
-133.6290527009677
 10
98.53076440679092
 20
-134.1809569977048
 10
97.97644854321423
 20
-134.1899142459664
 10
97.76285262312874
 20
-134.1899142459664
 10
97.53237573516552
 20
-134.1899142459664
 10
96.88504229348707
 20
-134.1695881826034
 10
96.88504229348707
 20
-133.5884005742418
 10
96.88504229348707
 20
-133.4030544371354
 10
96.95463322228912
 20
-133.1408826707078
 10
97.2867404270672
 20
-133.1002305439819
 10
97.2867404270672
 20
-133.1002305439819
 10
97.2867404270672
 20
-133.328640374654
 10
97.2867404270672
 20
-133.328640374654
 10
97.22989635156058
 20
-133.3396646802068
 10
97.08175724569485
 20
-133.3737711255107
 10
97.08175724569485
 20
-133.5908121410815
 10
97.08175724569485
 20
-133.9029377920451
 10
97.40973033589063
 20
-133.9456569760622
 10
97.614713517263
 20
-133.9594373580032
 10
97.53650984974782
 20
-133.8598740984795
 10
97.47725420740153
 20
-133.7875270932892
 10
97.47725420740153
 20
-133.5932237079211
 10
97.47725420740153
 20
-133.4009873798442
 10
97.58508569608985
 20
-133.0774929137793
 10
97.9912624538008
 20
-133.0774929137793
 10
98.31096731483198
 20
-133.0774929137793
 10
98.53076440679092
 20
-133.2900553052192
 10
98.53076440679092
 20
-133.6290527009677
 97
        0
 97
        0
 92
        1
 93
        1
 72
     4
 94
        3
 73
     0
 74
     1
 95
       17
 96
       13
 40
0.0
 40
0.0
 40
0.0
 40
0.0
 40
1.0
 40
1.0
 40
1.0
 40
2.0
 40
2.0
 40
2.0
 40
3.0
 40
3.0
 40
3.0
 40
4.0
 40
4.0
 40
4.0
 40
4.0
 10
97.67190210231814
 20
-133.6111382044444
 10
97.67190210231814
 20
-133.8915689769438
 10
97.88343096511248
 20
-133.9322211036697
 10
97.99987519251393
 20
-133.9322211036697
 10
98.17557506226167
 20
-133.9322211036697
 10
98.33852807871398
 20
-133.8305907868549
 10
98.33852807871398
 20
-133.6338758346471
 10
98.33852807871398
 20
-133.5050292634988
 10
98.27927243636769
 20
-133.3172715595526
 10
97.99332951109194
 20
-133.3172715595526
 10
97.7693983045507
 20
-133.3172715595526
 10
97.67190210231814
 20
-133.4664441940639
 10
97.67190210231814
 20
-133.6111382044444
 97
        0
 97
        0
 75
     2
 76
     1
 98
        0
  0
ENDBLK
  5
7B
330
78
100
AcDbEntity
  8
0
100
AcDbBlockEnd
  0
BLOCK
  5
8D
330
8B
100
AcDbEntity
  8
0
100
AcDbBlockBegin
  2
block 5
 70
     0
 10
0.0
 20
0.0
 30
0.0
  3
block 5
  1

  0
SPLINE
  5
8F
330
8B
100
AcDbEntity
  8
_U+30EC_U+30A4_U+30E4_U+30FC 1
370
     0
100
AcDbSpline
210
0.0
220
0.0
230
1.0
 70
    11
 71
     3
 72
    44
 73
    40
 74
     0
 42
0.0000000001
 43
0.0000000001
 12
1.0
 22
0.0
 32
0.0
 13
1.0
 23
0.0
 33
0.0
 40
0.0
 40
0.0
 40
0.0
 40
0.0
 40
1.0
 40
1.0
 40
1.0
 40
2.0
 40
2.0
 40
2.0
 40
3.0
 40
3.0
 40
3.0
 40
4.0
 40
4.0
 40
4.0
 40
5.0
 40
5.0
 40
5.0
 40
6.0
 40
6.0
 40
6.0
 40
7.0
 40
7.0
 40
7.0
 40
8.0
 40
8.0
 40
8.0
 40
9.0
 40
9.0
 40
9.0
 40
10.0
 40
10.0
 40
10.0
 40
11.0
 40
11.0
 40
11.0
 40
12.0
 40
12.0
 40
12.0
 40
13.0
 40
13.0
 40
13.0
 40
13.0
 10
93.3744899940175
 20
-143.9863877678229
 30
0.0
 10
93.1416015392146
 20
-144.1452066696929
 30
0.0
 10
93.04203827969089
 20
-144.2192762226258
 30
0.0
 10
92.9900173378636
 20
-144.3629367043607
 30
0.0
 10
92.9900173378636
 20
-144.3629367043607
 30
0.0
 10
93.82235240709997
 20
-144.3629367043607
 30
0.0
 10
93.82235240709997
 20
-144.3629367043607
 30
0.0
 10
93.82235240709997
 20
-144.3629367043607
 30
0.0
 10
93.82235240709997
 20
-144.5682643952815
 30
0.0
 10
93.82235240709997
 20
-144.5682643952815
 30
0.0
 10
93.82235240709997
 20
-144.5682643952815
 30
0.0
 10
92.72336694730528
 20
-144.5682643952815
 30
0.0
 10
92.72336694730528
 20
-144.5682643952815
 30
0.0
 10
92.75747339260924
 20
-144.2106634839126
 30
0.0
 10
92.82740883095983
 20
-144.1324598163974
 30
0.0
 10
93.23875323189866
 20
-143.8341145473748
 30
0.0
 10
93.51229381342749
 20
-143.6353325378759
 30
0.0
 10
93.58257376132659
 20
-143.5674641568165
 30
0.0
 10
93.58257376132659
 20
-143.430004846955
 30
0.0
 10
93.58257376132659
 20
-143.3114935622624
 30
0.0
 10
93.50574813200551
 20
-143.1805799338229
 30
0.0
 10
93.29525279785675
 20
-143.1805799338229
 30
0.0
 10
93.01723359219709
 20
-143.1805799338229
 30
0.0
 10
93.00827634393544
 20
-143.4110568217861
 30
0.0
 10
93.00379771980461
 20
-143.5275010491876
 30
0.0
 10
93.00379771980461
 20
-143.5275010491876
 30
0.0
 10
92.76401907403122
 20
-143.5275010491876
 30
0.0
 10
92.76401907403122
 20
-143.5275010491876
 30
0.0
 10
92.77297632229288
 20
-143.4003770257819
 30
0.0
 10
92.7843451373942
 20
-143.2884114225112
 30
0.0
 10
92.87047252452544
 20
-143.1699001378186
 30
0.0
 10
92.98795028057246
 20
-143.0090141786575
 30
0.0
 10
93.18673229007138
 20
-142.975252242902
 30
0.0
 10
93.3111002370889
 20
-142.975252242902
 30
0.0
 10
93.60737844882038
 20
-142.975252242902
 30
0.0
 10
93.82889808852195
 20
-143.1592203418144
 30
0.0
 10
93.82889808852195
 20
-143.4320719042462
 30
0.0
 10
93.82889808852195
 20
-143.6608262444667
 30
0.0
 10
93.70453014150442
 20
-143.7600449944419
 30
0.0
 10
93.3744899940175
 20
-143.9863877678229
 30
0.0
  0
HATCH
  5
90
330
8B
100
AcDbEntity
  8
_U+30EC_U+30A4_U+30E4_U+30FC 1
 62
     7
420
 16777215
100
AcDbHatch
 10
0.0
 20
0.0
 30
0.0
210
0.0
220
0.0
230
1.0
  2
SOLID
 70
     1
 71
     0
 91
        1
 92
        1
 93
        1
 72
     4
 94
        3
 73
     0
 74
     1
 95
       44
 96
       40
 40
0.0
 40
0.0
 40
0.0
 40
0.0
 40
1.0
 40
1.0
 40
1.0
 40
2.0
 40
2.0
 40
2.0
 40
3.0
 40
3.0
 40
3.0
 40
4.0
 40
4.0
 40
4.0
 40
5.0
 40
5.0
 40
5.0
 40
6.0
 40
6.0
 40
6.0
 40
7.0
 40
7.0
 40
7.0
 40
8.0
 40
8.0
 40
8.0
 40
9.0
 40
9.0
 40
9.0
 40
10.0
 40
10.0
 40
10.0
 40
11.0
 40
11.0
 40
11.0
 40
12.0
 40
12.0
 40
12.0
 40
13.0
 40
13.0
 40
13.0
 40
13.0
 10
93.3744899940175
 20
-143.9863877678229
 10
93.1416015392146
 20
-144.1452066696929
 10
93.04203827969089
 20
-144.2192762226258
 10
92.9900173378636
 20
-144.3629367043607
 10
92.9900173378636
 20
-144.3629367043607
 10
93.82235240709997
 20
-144.3629367043607
 10
93.82235240709997
 20
-144.3629367043607
 10
93.82235240709997
 20
-144.3629367043607
 10
93.82235240709997
 20
-144.5682643952815
 10
93.82235240709997
 20
-144.5682643952815
 10
93.82235240709997
 20
-144.5682643952815
 10
92.72336694730528
 20
-144.5682643952815
 10
92.72336694730528
 20
-144.5682643952815
 10
92.75747339260924
 20
-144.2106634839126
 10
92.82740883095983
 20
-144.1324598163974
 10
93.23875323189866
 20
-143.8341145473748
 10
93.51229381342749
 20
-143.6353325378759
 10
93.58257376132659
 20
-143.5674641568165
 10
93.58257376132659
 20
-143.430004846955
 10
93.58257376132659
 20
-143.3114935622624
 10
93.50574813200551
 20
-143.1805799338229
 10
93.29525279785675
 20
-143.1805799338229
 10
93.01723359219709
 20
-143.1805799338229
 10
93.00827634393544
 20
-143.4110568217861
 10
93.00379771980461
 20
-143.5275010491876
 10
93.00379771980461
 20
-143.5275010491876
 10
92.76401907403122
 20
-143.5275010491876
 10
92.76401907403122
 20
-143.5275010491876
 10
92.77297632229288
 20
-143.4003770257819
 10
92.7843451373942
 20
-143.2884114225112
 10
92.87047252452544
 20
-143.1699001378186
 10
92.98795028057246
 20
-143.0090141786575
 10
93.18673229007138
 20
-142.975252242902
 10
93.3111002370889
 20
-142.975252242902
 10
93.60737844882038
 20
-142.975252242902
 10
93.82889808852195
 20
-143.1592203418144
 10
93.82889808852195
 20
-143.4320719042462
 10
93.82889808852195
 20
-143.6608262444667
 10
93.70453014150442
 20
-143.7600449944419
 10
93.3744899940175
 20
-143.9863877678229
 97
        0
 97
        0
 75
     2
 76
     1
 98
        0
  0
POLYLINE
  5
91
330
8B
100
AcDbEntity
  8
_U+30EC_U+30A4_U+30E4_U+30FC 1
370
     0
100
AcDb2dPolyline
 66
     1
 10
0.0
 20
0.0
 30
0.0
  0
VERTEX
  5
92
330
91
100
AcDbEntity
  8
_U+30EC_U+30A4_U+30E4_U+30FC 1
370
     0
100
AcDbVertex
100
AcDb2dVertex
 10
94.06247556242188
 20
-144.5682643952815
 30
0.0
  0
VERTEX
  5
93
330
91
100
AcDbEntity
  8
_U+30EC_U+30A4_U+30E4_U+30FC 1
370
     0
100
AcDbVertex
100
AcDb2dVertex
 10
94.06247556242188
 20
-144.3164279153098
 30
0.0
  0
VERTEX
  5
94
330
91
100
AcDbEntity
  8
_U+30EC_U+30A4_U+30E4_U+30FC 1
370
     0
100
AcDbVertex
100
AcDb2dVertex
 10
94.3315375198199
 20
-144.3164279153098
 30
0.0
  0
VERTEX
  5
95
330
91
100
AcDbEntity
  8
_U+30EC_U+30A4_U+30E4_U+30FC 1
370
     0
100
AcDbVertex
100
AcDb2dVertex
 10
94.3315375198199
 20
-144.5682643952815
 30
0.0
  0
VERTEX
  5
96
330
91
100
AcDbEntity
  8
_U+30EC_U+30A4_U+30E4_U+30FC 1
370
     0
100
AcDbVertex
100
AcDb2dVertex
 10
94.06247556242188
 20
-144.5682643952815
 30
0.0
  0
SEQEND
  5
97
330
91
100
AcDbEntity
  8
_U+30EC_U+30A4_U+30E4_U+30FC 1
370
     0
  0
HATCH
  5
98
330
8B
100
AcDbEntity
  8
_U+30EC_U+30A4_U+30E4_U+30FC 1
 62
     7
420
 16777215
100
AcDbHatch
 10
0.0
 20
0.0
 30
0.0
210
0.0
220
0.0
230
1.0
  2
SOLID
 70
     1
 71
     0
 91
        1
 92
        1
 93
        4
 72
     1
 10
94.06247556242188
 20
-144.5682643952815
 11
94.06247556242188
 21
-144.3164279153098
 72
     1
 10
94.06247556242188
 20
-144.3164279153098
 11
94.3315375198199
 21
-144.3164279153098
 72
     1
 10
94.3315375198199
 20
-144.3164279153098
 11
94.3315375198199
 21
-144.5682643952815
 72
     1
 10
94.3315375198199
 20
-144.5682643952815
 11
94.06247556242188
 21
-144.5682643952815
 97
        0
 75
     2
 76
     1
 98
        0
  0
SPLINE
  5
99
330
8B
100
AcDbEntity
  8
_U+30EC_U+30A4_U+30E4_U+30FC 1
370
     0
100
AcDbSpline
210
0.0
220
0.0
230
1.0
 70
    11
 71
     3
 72
    53
 73
    49
 74
     0
 42
0.0000000001
 43
0.0000000001
 12
1.0
 22
0.0
 32
0.0
 13
1.0
 23
0.0
 33
0.0
 40
0.0
 40
0.0
 40
0.0
 40
0.0
 40
1.0
 40
1.0
 40
1.0
 40
2.0
 40
2.0
 40
2.0
 40
3.0
 40
3.0
 40
3.0
 40
4.0
 40
4.0
 40
4.0
 40
5.0
 40
5.0
 40
5.0
 40
6.0
 40
6.0
 40
6.0
 40
7.0
 40
7.0
 40
7.0
 40
8.0
 40
8.0
 40
8.0
 40
9.0
 40
9.0
 40
9.0
 40
10.0
 40
10.0
 40
10.0
 40
11.0
 40
11.0
 40
11.0
 40
12.0
 40
12.0
 40
12.0
 40
13.0
 40
13.0
 40
13.0
 40
14.0
 40
14.0
 40
14.0
 40
15.0
 40
15.0
 40
15.0
 40
16.0
 40
16.0
 40
16.0
 40
16.0
 10
95.09841577483651
 20
-144.6189072989147
 30
0.0
 10
95.01504446409346
 20
-144.6189072989147
 30
0.0
 10
94.90617944675957
 20
-144.602026331037
 30
0.0
 10
94.79800344852272
 20
-144.5386365741084
 30
0.0
 10
94.61231280186776
 20
-144.4287380281289
 30
0.0
 10
94.58991968121363
 20
-144.2974798901409
 30
0.0
 10
94.56959361785066
 20
-144.1896484014526
 30
0.0
 10
94.56959361785066
 20
-144.1896484014526
 30
0.0
 10
94.80696069678437
 20
-144.1896484014526
 30
0.0
 10
94.80696069678437
 20
-144.1896484014526
 30
0.0
 10
94.86552732003362
 20
-144.3884304109515
 30
0.0
 10
95.00126408215246
 20
-144.4180582321247
 30
0.0
 10
95.10082734167618
 20
-144.4180582321247
 30
0.0
 10
95.24999997618751
 20
-144.4180582321247
 30
0.0
 10
95.41260848309129
 20
-144.3184949726009
 30
0.0
 10
95.41260848309129
 20
-144.0859510273466
 30
0.0
 10
95.41260848309129
 20
-143.8299804327925
 30
0.0
 10
95.22071666456289
 20
-143.7600449944419
 30
0.0
 10
95.09187009341454
 20
-143.7600449944419
 30
0.0
 10
95.05776364811057
 20
-143.7600449944419
 30
0.0
 10
94.90617944675957
 20
-143.7600449944419
 30
0.0
 10
94.8114393209152
 20
-143.8892360751388
 30
0.0
 10
94.8114393209152
 20
-143.8892360751388
 30
0.0
 10
94.62368161696908
 20
-143.8702880499699
 30
0.0
 10
94.62368161696908
 20
-143.8702880499699
 30
0.0
 10
94.62368161696908
 20
-143.8702880499699
 30
0.0
 10
94.75252818811742
 20
-143.0238280892441
 30
0.0
 10
94.75252818811742
 20
-143.0238280892441
 30
0.0
 10
94.75252818811742
 20
-143.0238280892441
 30
0.0
 10
95.58451874780526
 20
-143.0238280892441
 30
0.0
 10
95.58451874780526
 20
-143.0238280892441
 30
0.0
 10
95.58451874780526
 20
-143.0238280892441
 30
0.0
 10
95.58451874780526
 20
-143.2184759841607
 30
0.0
 10
95.58451874780526
 20
-143.2184759841607
 30
0.0
 10
95.58451874780526
 20
-143.2184759841607
 30
0.0
 10
94.92685001967106
 20
-143.2184759841607
 30
0.0
 10
94.92685001967106
 20
-143.2184759841607
 30
0.0
 10
94.92685001967106
 20
-143.2184759841607
 30
0.0
 10
94.85657007177197
 20
-143.6415337097494
 30
0.0
 10
94.85657007177197
 20
-143.6415337097494
 30
0.0
 10
94.92202688599173
 20
-143.6077717739939
 30
0.0
 10
95.01022133041411
 20
-143.5674641568165
 30
0.0
 10
95.13700084427131
 20
-143.5674641568165
 30
0.0
 10
95.40812985896048
 20
-143.5674641568165
 30
0.0
 10
95.66134437712634
 20
-143.7538438225685
 30
0.0
 10
95.66134437712634
 20
-144.0670030021777
 30
0.0
 10
95.66134437712634
 20
-144.3842962963692
 30
0.0
 10
95.42191024090147
 20
-144.6189072989147
 30
0.0
 10
95.09841577483651
 20
-144.6189072989147
 30
0.0
  0
HATCH
  5
9A
330
8B
100
AcDbEntity
  8
_U+30EC_U+30A4_U+30E4_U+30FC 1
 62
     7
420
 16777215
100
AcDbHatch
 10
0.0
 20
0.0
 30
0.0
210
0.0
220
0.0
230
1.0
  2
SOLID
 70
     1
 71
     0
 91
        1
 92
        1
 93
        1
 72
     4
 94
        3
 73
     0
 74
     1
 95
       53
 96
       49
 40
0.0
 40
0.0
 40
0.0
 40
0.0
 40
1.0
 40
1.0
 40
1.0
 40
2.0
 40
2.0
 40
2.0
 40
3.0
 40
3.0
 40
3.0
 40
4.0
 40
4.0
 40
4.0
 40
5.0
 40
5.0
 40
5.0
 40
6.0
 40
6.0
 40
6.0
 40
7.0
 40
7.0
 40
7.0
 40
8.0
 40
8.0
 40
8.0
 40
9.0
 40
9.0
 40
9.0
 40
10.0
 40
10.0
 40
10.0
 40
11.0
 40
11.0
 40
11.0
 40
12.0
 40
12.0
 40
12.0
 40
13.0
 40
13.0
 40
13.0
 40
14.0
 40
14.0
 40
14.0
 40
15.0
 40
15.0
 40
15.0
 40
16.0
 40
16.0
 40
16.0
 40
16.0
 10
95.09841577483651
 20
-144.6189072989147
 10
95.01504446409346
 20
-144.6189072989147
 10
94.90617944675957
 20
-144.602026331037
 10
94.79800344852272
 20
-144.5386365741084
 10
94.61231280186776
 20
-144.4287380281289
 10
94.58991968121363
 20
-144.2974798901409
 10
94.56959361785066
 20
-144.1896484014526
 10
94.56959361785066
 20
-144.1896484014526
 10
94.80696069678437
 20
-144.1896484014526
 10
94.80696069678437
 20
-144.1896484014526
 10
94.86552732003362
 20
-144.3884304109515
 10
95.00126408215246
 20
-144.4180582321247
 10
95.10082734167618
 20
-144.4180582321247
 10
95.24999997618751
 20
-144.4180582321247
 10
95.41260848309129
 20
-144.3184949726009
 10
95.41260848309129
 20
-144.0859510273466
 10
95.41260848309129
 20
-143.8299804327925
 10
95.22071666456289
 20
-143.7600449944419
 10
95.09187009341454
 20
-143.7600449944419
 10
95.05776364811057
 20
-143.7600449944419
 10
94.90617944675957
 20
-143.7600449944419
 10
94.8114393209152
 20
-143.8892360751388
 10
94.8114393209152
 20
-143.8892360751388
 10
94.62368161696908
 20
-143.8702880499699
 10
94.62368161696908
 20
-143.8702880499699
 10
94.62368161696908
 20
-143.8702880499699
 10
94.75252818811742
 20
-143.0238280892441
 10
94.75252818811742
 20
-143.0238280892441
 10
94.75252818811742
 20
-143.0238280892441
 10
95.58451874780526
 20
-143.0238280892441
 10
95.58451874780526
 20
-143.0238280892441
 10
95.58451874780526
 20
-143.0238280892441
 10
95.58451874780526
 20
-143.2184759841607
 10
95.58451874780526
 20
-143.2184759841607
 10
95.58451874780526
 20
-143.2184759841607
 10
94.92685001967106
 20
-143.2184759841607
 10
94.92685001967106
 20
-143.2184759841607
 10
94.92685001967106
 20
-143.2184759841607
 10
94.85657007177197
 20
-143.6415337097494
 10
94.85657007177197
 20
-143.6415337097494
 10
94.92202688599173
 20
-143.6077717739939
 10
95.01022133041411
 20
-143.5674641568165
 10
95.13700084427131
 20
-143.5674641568165
 10
95.40812985896048
 20
-143.5674641568165
 10
95.66134437712634
 20
-143.7538438225685
 10
95.66134437712634
 20
-144.0670030021777
 10
95.66134437712634
 20
-144.3842962963692
 10
95.42191024090147
 20
-144.6189072989147
 10
95.09841577483651
 20
-144.6189072989147
 97
        0
 97
        0
 75
     2
 76
     1
 98
        0
  0
ENDBLK
  5
8E
330
8B
100
AcDbEntity
  8
0
100
AcDbBlockEnd
  0
BLOCK
  5
9D
330
9B
100
AcDbEntity
  8
0
100
AcDbBlockBegin
  2
block 6
 70
     0
 10
0.0
 20
0.0
 30
0.0
  3
block 6
  1

  0
SPLINE
  5
9F
330
9B
100
AcDbEntity
  8
_U+30EC_U+30A4_U+30E4_U+30FC 1
370
     0
100
AcDbSpline
210
0.0
220
0.0
230
1.0
 70
    11
 71
     3
 72
    32
 73
    28
 74
     0
 42
0.0000000001
 43
0.0000000001
 12
1.0
 22
0.0
 32
0.0
 13
1.0
 23
0.0
 33
0.0
 40
0.0
 40
0.0
 40
0.0
 40
0.0
 40
1.0
 40
1.0
 40
1.0
 40
2.0
 40
2.0
 40
2.0
 40
3.0
 40
3.0
 40
3.0
 40
4.0
 40
4.0
 40
4.0
 40
5.0
 40
5.0
 40
5.0
 40
6.0
 40
6.0
 40
6.0
 40
7.0
 40
7.0
 40
7.0
 40
8.0
 40
8.0
 40
8.0
 40
9.0
 40
9.0
 40
9.0
 40
9.0
 10
90.88558076069874
 20
-112.5746961524119
 30
0.0
 10
90.33367646396172
 20
-112.5746961524119
 30
0.0
 10
90.32471921570007
 20
-112.0207247983837
 30
0.0
 10
90.32471921570007
 20
-111.8067843687497
 30
0.0
 10
90.32471921570007
 20
-111.5763074807865
 30
0.0
 10
90.34504527906304
 20
-110.928974039108
 30
0.0
 10
90.92623288742469
 20
-110.928974039108
 30
0.0
 10
91.11157902453114
 20
-110.928974039108
 30
0.0
 10
91.37357853618438
 20
-110.9989094774586
 30
0.0
 10
91.41423066291034
 20
-111.3310166822367
 30
0.0
 10
91.41423066291034
 20
-111.3310166822367
 30
0.0
 10
91.18599308701253
 20
-111.3310166822367
 30
0.0
 10
91.18599308701253
 20
-111.3310166822367
 30
0.0
 10
91.17496878145974
 20
-111.2738280971815
 30
0.0
 10
91.14086233615576
 20
-111.1256889913158
 30
0.0
 10
90.92382132058502
 20
-111.1256889913158
 30
0.0
 10
90.61169566962138
 20
-111.1256889913158
 30
0.0
 10
90.56897648560428
 20
-111.4536620815116
 30
0.0
 10
90.55519610366329
 20
-111.658645262884
 30
0.0
 10
90.65475936318701
 20
-111.5804415953688
 30
0.0
 10
90.72710636837725
 20
-111.5211859530225
 30
0.0
 10
90.92140975374535
 20
-111.5211859530225
 30
0.0
 10
91.11364608182228
 20
-111.5211859530225
 30
0.0
 10
91.43696829311298
 20
-111.6293619512593
 30
0.0
 10
91.43696829311298
 20
-112.0355387089703
 30
0.0
 10
91.43696829311298
 20
-112.354899060453
 30
0.0
 10
91.22457815644734
 20
-112.5746961524119
 30
0.0
 10
90.88558076069874
 20
-112.5746961524119
 30
0.0
  0
SPLINE
  5
A0
330
9B
100
AcDbEntity
  8
_U+30EC_U+30A4_U+30E4_U+30FC 1
370
     0
100
AcDbSpline
210
0.0
220
0.0
230
1.0
 70
    11
 71
     3
 72
    17
 73
    13
 74
     0
 42
0.0000000001
 43
0.0000000001
 12
1.0
 22
0.0
 32
0.0
 13
1.0
 23
0.0
 33
0.0
 40
0.0
 40
0.0
 40
0.0
 40
0.0
 40
1.0
 40
1.0
 40
1.0
 40
2.0
 40
2.0
 40
2.0
 40
3.0
 40
3.0
 40
3.0
 40
4.0
 40
4.0
 40
4.0
 40
4.0
 10
90.90349525722205
 20
-111.7158338479391
 30
0.0
 10
90.6230644847227
 20
-111.7158338479391
 30
0.0
 10
90.58241235799676
 20
-111.9273627107334
 30
0.0
 10
90.58241235799676
 20
-112.0438069381349
 30
0.0
 10
90.58241235799676
 20
-112.2195068078826
 30
0.0
 10
90.68404267481164
 20
-112.3824598243349
 30
0.0
 10
90.88075762701939
 20
-112.3824598243349
 30
0.0
 10
91.00960419816774
 20
-112.3824598243349
 30
0.0
 10
91.19736190211385
 20
-112.3232041819886
 30
0.0
 10
91.19736190211385
 20
-112.0376057662614
 30
0.0
 10
91.19736190211385
 20
-111.8133300501717
 30
0.0
 10
91.04818926760254
 20
-111.7158338479391
 30
0.0
 10
90.90349525722205
 20
-111.7158338479391
 30
0.0
  0
HATCH
  5
A1
330
9B
100
AcDbEntity
  8
_U+30EC_U+30A4_U+30E4_U+30FC 1
 62
     7
420
 16777215
100
AcDbHatch
 10
0.0
 20
0.0
 30
0.0
210
0.0
220
0.0
230
1.0
  2
SOLID
 70
     1
 71
     0
 91
        2
 92
        1
 93
        1
 72
     4
 94
        3
 73
     0
 74
     1
 95
       32
 96
       28
 40
0.0
 40
0.0
 40
0.0
 40
0.0
 40
1.0
 40
1.0
 40
1.0
 40
2.0
 40
2.0
 40
2.0
 40
3.0
 40
3.0
 40
3.0
 40
4.0
 40
4.0
 40
4.0
 40
5.0
 40
5.0
 40
5.0
 40
6.0
 40
6.0
 40
6.0
 40
7.0
 40
7.0
 40
7.0
 40
8.0
 40
8.0
 40
8.0
 40
9.0
 40
9.0
 40
9.0
 40
9.0
 10
90.88558076069874
 20
-112.5746961524119
 10
90.33367646396172
 20
-112.5746961524119
 10
90.32471921570007
 20
-112.0207247983837
 10
90.32471921570007
 20
-111.8067843687497
 10
90.32471921570007
 20
-111.5763074807865
 10
90.34504527906304
 20
-110.928974039108
 10
90.92623288742469
 20
-110.928974039108
 10
91.11157902453114
 20
-110.928974039108
 10
91.37357853618438
 20
-110.9989094774586
 10
91.41423066291034
 20
-111.3310166822367
 10
91.41423066291034
 20
-111.3310166822367
 10
91.18599308701253
 20
-111.3310166822367
 10
91.18599308701253
 20
-111.3310166822367
 10
91.17496878145974
 20
-111.2738280971815
 10
91.14086233615576
 20
-111.1256889913158
 10
90.92382132058502
 20
-111.1256889913158
 10
90.61169566962138
 20
-111.1256889913158
 10
90.56897648560428
 20
-111.4536620815116
 10
90.55519610366329
 20
-111.658645262884
 10
90.65475936318701
 20
-111.5804415953688
 10
90.72710636837725
 20
-111.5211859530225
 10
90.92140975374535
 20
-111.5211859530225
 10
91.11364608182228
 20
-111.5211859530225
 10
91.43696829311298
 20
-111.6293619512593
 10
91.43696829311298
 20
-112.0355387089703
 10
91.43696829311298
 20
-112.354899060453
 10
91.22457815644734
 20
-112.5746961524119
 10
90.88558076069874
 20
-112.5746961524119
 97
        0
 97
        0
 92
        1
 93
        1
 72
     4
 94
        3
 73
     0
 74
     1
 95
       17
 96
       13
 40
0.0
 40
0.0
 40
0.0
 40
0.0
 40
1.0
 40
1.0
 40
1.0
 40
2.0
 40
2.0
 40
2.0
 40
3.0
 40
3.0
 40
3.0
 40
4.0
 40
4.0
 40
4.0
 40
4.0
 10
90.90349525722205
 20
-111.7158338479391
 10
90.6230644847227
 20
-111.7158338479391
 10
90.58241235799676
 20
-111.9273627107334
 10
90.58241235799676
 20
-112.0438069381349
 10
90.58241235799676
 20
-112.2195068078826
 10
90.68404267481164
 20
-112.3824598243349
 10
90.88075762701939
 20
-112.3824598243349
 10
91.00960419816774
 20
-112.3824598243349
 10
91.19736190211385
 20
-112.3232041819886
 10
91.19736190211385
 20
-112.0376057662614
 10
91.19736190211385
 20
-111.8133300501717
 10
91.04818926760254
 20
-111.7158338479391
 10
90.90349525722205
 20
-111.7158338479391
 97
        0
 97
        0
 75
     2
 76
     1
 98
        0
  0
POLYLINE
  5
A2
330
9B
100
AcDbEntity
  8
_U+30EC_U+30A4_U+30E4_U+30FC 1
370
     0
100
AcDb2dPolyline
 66
     1
 10
0.0
 20
0.0
 30
0.0
  0
VERTEX
  5
A3
330
A2
100
AcDbEntity
  8
_U+30EC_U+30A4_U+30E4_U+30FC 1
370
     0
100
AcDbVertex
100
AcDb2dVertex
 10
91.66847870972177
 20
-112.5240532487787
 30
0.0
  0
VERTEX
  5
A4
330
A2
100
AcDbEntity
  8
_U+30EC_U+30A4_U+30E4_U+30FC 1
370
     0
100
AcDbVertex
100
AcDb2dVertex
 10
91.66847870972177
 20
-112.272216768807
 30
0.0
  0
VERTEX
  5
A5
330
A2
100
AcDbEntity
  8
_U+30EC_U+30A4_U+30E4_U+30FC 1
370
     0
100
AcDbVertex
100
AcDb2dVertex
 10
91.93719615757126
 20
-112.272216768807
 30
0.0
  0
VERTEX
  5
A6
330
A2
100
AcDbEntity
  8
_U+30EC_U+30A4_U+30E4_U+30FC 1
370
     0
100
AcDbVertex
100
AcDb2dVertex
 10
91.93719615757126
 20
-112.5240532487787
 30
0.0
  0
VERTEX
  5
A7
330
A2
100
AcDbEntity
  8
_U+30EC_U+30A4_U+30E4_U+30FC 1
370
     0
100
AcDbVertex
100
AcDb2dVertex
 10
91.66847870972177
 20
-112.5240532487787
 30
0.0
  0
SEQEND
  5
A8
330
A2
100
AcDbEntity
  8
_U+30EC_U+30A4_U+30E4_U+30FC 1
370
     0
  0
HATCH
  5
A9
330
9B
100
AcDbEntity
  8
_U+30EC_U+30A4_U+30E4_U+30FC 1
 62
     7
420
 16777215
100
AcDbHatch
 10
0.0
 20
0.0
 30
0.0
210
0.0
220
0.0
230
1.0
  2
SOLID
 70
     1
 71
     0
 91
        1
 92
        1
 93
        4
 72
     1
 10
91.66847870972177
 20
-112.5240532487787
 11
91.66847870972177
 21
-112.272216768807
 72
     1
 10
91.66847870972177
 20
-112.272216768807
 11
91.93719615757126
 21
-112.272216768807
 72
     1
 10
91.93719615757126
 20
-112.272216768807
 11
91.93719615757126
 21
-112.5240532487787
 72
     1
 10
91.93719615757126
 20
-112.5240532487787
 11
91.66847870972177
 21
-112.5240532487787
 97
        0
 75
     2
 76
     1
 98
        0
  0
SPLINE
  5
AA
330
9B
100
AcDbEntity
  8
_U+30EC_U+30A4_U+30E4_U+30FC 1
370
     0
100
AcDbSpline
210
0.0
220
0.0
230
1.0
 70
    11
 71
     3
 72
    53
 73
    49
 74
     0
 42
0.0000000001
 43
0.0000000001
 12
1.0
 22
0.0
 32
0.0
 13
1.0
 23
0.0
 33
0.0
 40
0.0
 40
0.0
 40
0.0
 40
0.0
 40
1.0
 40
1.0
 40
1.0
 40
2.0
 40
2.0
 40
2.0
 40
3.0
 40
3.0
 40
3.0
 40
4.0
 40
4.0
 40
4.0
 40
5.0
 40
5.0
 40
5.0
 40
6.0
 40
6.0
 40
6.0
 40
7.0
 40
7.0
 40
7.0
 40
8.0
 40
8.0
 40
8.0
 40
9.0
 40
9.0
 40
9.0
 40
10.0
 40
10.0
 40
10.0
 40
11.0
 40
11.0
 40
11.0
 40
12.0
 40
12.0
 40
12.0
 40
13.0
 40
13.0
 40
13.0
 40
14.0
 40
14.0
 40
14.0
 40
15.0
 40
15.0
 40
15.0
 40
16.0
 40
16.0
 40
16.0
 40
16.0
 10
92.70407441258787
 20
-112.5746961524119
 30
0.0
 10
92.62070310184482
 20
-112.5746961524119
 30
0.0
 10
92.51252710360798
 20
-112.5578151845342
 30
0.0
 10
92.40366208627408
 20
-112.4944254276056
 30
0.0
 10
92.21831594916765
 20
-112.3845268816261
 30
0.0
 10
92.195578318965
 20
-112.2532687436381
 30
0.0
 10
92.17559676515054
 20
-112.1454372549498
 30
0.0
 10
92.17559676515054
 20
-112.1454372549498
 30
0.0
 10
92.41261933453573
 20
-112.1454372549498
 30
0.0
 10
92.41261933453573
 20
-112.1454372549498
 30
0.0
 10
92.47118595778498
 20
-112.3442192644487
 30
0.0
 10
92.60692271990384
 20
-112.3738470856218
 30
0.0
 10
92.70683048897608
 20
-112.3738470856218
 30
0.0
 10
92.85565861393887
 20
-112.3738470856218
 30
0.0
 10
93.0189561399397
 20
-112.2742838260981
 30
0.0
 10
93.0189561399397
 20
-112.0417398808437
 30
0.0
 10
93.0189561399397
 20
-111.7857692862897
 30
0.0
 10
92.82671981186277
 20
-111.7158338479391
 30
0.0
 10
92.69787324071443
 20
-111.7158338479391
 30
0.0
 10
92.66342228586193
 20
-111.7158338479391
 30
0.0
 10
92.51252710360798
 20
-111.7158338479391
 30
0.0
 10
92.41744246821509
 20
-111.845024928636
 30
0.0
 10
92.41744246821509
 20
-111.845024928636
 30
0.0
 10
92.22934025472044
 20
-111.8260769034671
 30
0.0
 10
92.22934025472044
 20
-111.8260769034671
 30
0.0
 10
92.22934025472044
 20
-111.8260769034671
 30
0.0
 10
92.35818682586878
 20
-110.9796169427412
 30
0.0
 10
92.35818682586878
 20
-110.9796169427412
 30
0.0
 10
92.35818682586878
 20
-110.9796169427412
 30
0.0
 10
93.19052189510515
 20
-110.9796169427412
 30
0.0
 10
93.19052189510515
 20
-110.9796169427412
 30
0.0
 10
93.19052189510515
 20
-110.9796169427412
 30
0.0
 10
93.19052189510515
 20
-111.1742648376578
 30
0.0
 10
93.19052189510515
 20
-111.1742648376578
 30
0.0
 10
93.19052189510515
 20
-111.1742648376578
 30
0.0
 10
92.53250865742243
 20
-111.1742648376578
 30
0.0
 10
92.53250865742243
 20
-111.1742648376578
 30
0.0
 10
92.53250865742243
 20
-111.1742648376578
 30
0.0
 10
92.46222870952333
 20
-111.5973225632465
 30
0.0
 10
92.46222870952333
 20
-111.5973225632465
 30
0.0
 10
92.52768552374309
 20
-111.5635606274911
 30
0.0
 10
92.61587996816547
 20
-111.5232530103136
 30
0.0
 10
92.74265948202267
 20
-111.5232530103136
 30
0.0
 10
93.01413300626037
 20
-111.5232530103136
 30
0.0
 10
93.2670030148777
 20
-111.7096326760657
 30
0.0
 10
93.2670030148777
 20
-112.0227918556749
 30
0.0
 10
93.2670030148777
 20
-112.3400851498664
 30
0.0
 10
93.02791338820136
 20
-112.5746961524119
 30
0.0
 10
92.70407441258787
 20
-112.5746961524119
 30
0.0
  0
HATCH
  5
AB
330
9B
100
AcDbEntity
  8
_U+30EC_U+30A4_U+30E4_U+30FC 1
 62
     7
420
 16777215
100
AcDbHatch
 10
0.0
 20
0.0
 30
0.0
210
0.0
220
0.0
230
1.0
  2
SOLID
 70
     1
 71
     0
 91
        1
 92
        1
 93
        1
 72
     4
 94
        3
 73
     0
 74
     1
 95
       53
 96
       49
 40
0.0
 40
0.0
 40
0.0
 40
0.0
 40
1.0
 40
1.0
 40
1.0
 40
2.0
 40
2.0
 40
2.0
 40
3.0
 40
3.0
 40
3.0
 40
4.0
 40
4.0
 40
4.0
 40
5.0
 40
5.0
 40
5.0
 40
6.0
 40
6.0
 40
6.0
 40
7.0
 40
7.0
 40
7.0
 40
8.0
 40
8.0
 40
8.0
 40
9.0
 40
9.0
 40
9.0
 40
10.0
 40
10.0
 40
10.0
 40
11.0
 40
11.0
 40
11.0
 40
12.0
 40
12.0
 40
12.0
 40
13.0
 40
13.0
 40
13.0
 40
14.0
 40
14.0
 40
14.0
 40
15.0
 40
15.0
 40
15.0
 40
16.0
 40
16.0
 40
16.0
 40
16.0
 10
92.70407441258787
 20
-112.5746961524119
 10
92.62070310184482
 20
-112.5746961524119
 10
92.51252710360798
 20
-112.5578151845342
 10
92.40366208627408
 20
-112.4944254276056
 10
92.21831594916765
 20
-112.3845268816261
 10
92.195578318965
 20
-112.2532687436381
 10
92.17559676515054
 20
-112.1454372549498
 10
92.17559676515054
 20
-112.1454372549498
 10
92.41261933453573
 20
-112.1454372549498
 10
92.41261933453573
 20
-112.1454372549498
 10
92.47118595778498
 20
-112.3442192644487
 10
92.60692271990384
 20
-112.3738470856218
 10
92.70683048897608
 20
-112.3738470856218
 10
92.85565861393887
 20
-112.3738470856218
 10
93.0189561399397
 20
-112.2742838260981
 10
93.0189561399397
 20
-112.0417398808437
 10
93.0189561399397
 20
-111.7857692862897
 10
92.82671981186277
 20
-111.7158338479391
 10
92.69787324071443
 20
-111.7158338479391
 10
92.66342228586193
 20
-111.7158338479391
 10
92.51252710360798
 20
-111.7158338479391
 10
92.41744246821509
 20
-111.845024928636
 10
92.41744246821509
 20
-111.845024928636
 10
92.22934025472044
 20
-111.8260769034671
 10
92.22934025472044
 20
-111.8260769034671
 10
92.22934025472044
 20
-111.8260769034671
 10
92.35818682586878
 20
-110.9796169427412
 10
92.35818682586878
 20
-110.9796169427412
 10
92.35818682586878
 20
-110.9796169427412
 10
93.19052189510515
 20
-110.9796169427412
 10
93.19052189510515
 20
-110.9796169427412
 10
93.19052189510515
 20
-110.9796169427412
 10
93.19052189510515
 20
-111.1742648376578
 10
93.19052189510515
 20
-111.1742648376578
 10
93.19052189510515
 20
-111.1742648376578
 10
92.53250865742243
 20
-111.1742648376578
 10
92.53250865742243
 20
-111.1742648376578
 10
92.53250865742243
 20
-111.1742648376578
 10
92.46222870952333
 20
-111.5973225632465
 10
92.46222870952333
 20
-111.5973225632465
 10
92.52768552374309
 20
-111.5635606274911
 10
92.61587996816547
 20
-111.5232530103136
 10
92.74265948202267
 20
-111.5232530103136
 10
93.01413300626037
 20
-111.5232530103136
 10
93.2670030148777
 20
-111.7096326760657
 10
93.2670030148777
 20
-112.0227918556749
 10
93.2670030148777
 20
-112.3400851498664
 10
93.02791338820136
 20
-112.5746961524119
 10
92.70407441258787
 20
-112.5746961524119
 97
        0
 97
        0
 75
     2
 76
     1
 98
        0
  0
ENDBLK
  5
9E
330
9B
100
AcDbEntity
  8
0
100
AcDbBlockEnd
  0
BLOCK
  5
BC
330
BA
100
AcDbEntity
  8
0
100
AcDbBlockBegin
  2
block 7
 70
     0
 10
0.0
 20
0.0
 30
0.0
  3
block 7
  1

  0
SPLINE
  5
BE
330
BA
100
AcDbEntity
  8
_U+30EC_U+30A4_U+30E4_U+30FC 1
370
     0
100
AcDbSpline
210
0.0
220
0.0
230
1.0
 70
    11
 71
     3
 72
    44
 73
    40
 74
     0
 42
0.0000000001
 43
0.0000000001
 12
1.0
 22
0.0
 32
0.0
 13
1.0
 23
0.0
 33
0.0
 40
0.0
 40
0.0
 40
0.0
 40
0.0
 40
1.0
 40
1.0
 40
1.0
 40
2.0
 40
2.0
 40
2.0
 40
3.0
 40
3.0
 40
3.0
 40
4.0
 40
4.0
 40
4.0
 40
5.0
 40
5.0
 40
5.0
 40
6.0
 40
6.0
 40
6.0
 40
7.0
 40
7.0
 40
7.0
 40
8.0
 40
8.0
 40
8.0
 40
9.0
 40
9.0
 40
9.0
 40
10.0
 40
10.0
 40
10.0
 40
11.0
 40
11.0
 40
11.0
 40
12.0
 40
12.0
 40
12.0
 40
13.0
 40
13.0
 40
13.0
 40
13.0
 10
83.26744111416578
 20
-135.1676323446803
 30
0.0
 10
83.42608776126154
 20
-135.4005207994832
 30
0.0
 10
83.50015731419441
 20
-135.5000840590069
 30
0.0
 10
83.6439900507036
 20
-135.5521050008342
 30
0.0
 10
83.6439900507036
 20
-135.5521050008342
 30
0.0
 10
83.6439900507036
 20
-134.7197699315979
 30
0.0
 10
83.6439900507036
 20
-134.7197699315979
 30
0.0
 10
83.6439900507036
 20
-134.7197699315979
 30
0.0
 10
83.84914548685022
 20
-134.7197699315979
 30
0.0
 10
83.84914548685022
 20
-134.7197699315979
 30
0.0
 10
83.84914548685022
 20
-134.7197699315979
 30
0.0
 10
83.84914548685022
 20
-135.8187553913925
 30
0.0
 10
83.84914548685022
 20
-135.8187553913925
 30
0.0
 10
83.49154457548129
 20
-135.7846489460886
 30
0.0
 10
83.41334090796612
 20
-135.714713507738
 30
0.0
 10
83.11499563894348
 20
-135.3033691067992
 30
0.0
 10
82.91621362944456
 20
-135.0298285252703
 30
0.0
 10
82.8485175031594
 20
-134.9595485773712
 30
0.0
 10
82.71105819329793
 20
-134.9595485773712
 30
0.0
 10
82.59254690860534
 20
-134.9595485773712
 30
0.0
 10
82.46128877061732
 20
-135.0363742066923
 30
0.0
 10
82.46128877061732
 20
-135.2468695408411
 30
0.0
 10
82.46128877061732
 20
-135.5248887465007
 30
0.0
 10
82.69193791335479
 20
-135.5338459947624
 30
0.0
 10
82.80838214075624
 20
-135.5383246188932
 30
0.0
 10
82.80838214075624
 20
-135.5383246188932
 30
0.0
 10
82.80838214075624
 20
-135.7781032646666
 30
0.0
 10
82.80838214075624
 20
-135.7781032646666
 30
0.0
 10
82.68143037212478
 20
-135.7691460164049
 30
0.0
 10
82.5692925140799
 20
-135.7577772013036
 30
0.0
 10
82.4507812293873
 20
-135.6716498141724
 30
0.0
 10
82.29006752500041
 20
-135.5541720581253
 30
0.0
 10
82.25613333447069
 20
-135.3553900486264
 30
0.0
 10
82.25613333447069
 20
-135.2310221016089
 30
0.0
 10
82.25613333447069
 20
-134.9347438898774
 30
0.0
 10
82.44027368815729
 20
-134.7132242501759
 30
0.0
 10
82.71312525058909
 20
-134.7132242501759
 30
0.0
 10
82.94153508126115
 20
-134.7132242501759
 30
0.0
 10
83.04109834078487
 20
-134.8375921971934
 30
0.0
 10
83.26744111416578
 20
-135.1676323446803
 30
0.0
  0
HATCH
  5
BF
330
BA
100
AcDbEntity
  8
_U+30EC_U+30A4_U+30E4_U+30FC 1
 62
     7
420
 16777215
100
AcDbHatch
 10
0.0
 20
0.0
 30
0.0
210
0.0
220
0.0
230
1.0
  2
SOLID
 70
     1
 71
     0
 91
        1
 92
        1
 93
        1
 72
     4
 94
        3
 73
     0
 74
     1
 95
       44
 96
       40
 40
0.0
 40
0.0
 40
0.0
 40
0.0
 40
1.0
 40
1.0
 40
1.0
 40
2.0
 40
2.0
 40
2.0
 40
3.0
 40
3.0
 40
3.0
 40
4.0
 40
4.0
 40
4.0
 40
5.0
 40
5.0
 40
5.0
 40
6.0
 40
6.0
 40
6.0
 40
7.0
 40
7.0
 40
7.0
 40
8.0
 40
8.0
 40
8.0
 40
9.0
 40
9.0
 40
9.0
 40
10.0
 40
10.0
 40
10.0
 40
11.0
 40
11.0
 40
11.0
 40
12.0
 40
12.0
 40
12.0
 40
13.0
 40
13.0
 40
13.0
 40
13.0
 10
83.26744111416578
 20
-135.1676323446803
 10
83.42608776126154
 20
-135.4005207994832
 10
83.50015731419441
 20
-135.5000840590069
 10
83.6439900507036
 20
-135.5521050008342
 10
83.6439900507036
 20
-135.5521050008342
 10
83.6439900507036
 20
-134.7197699315979
 10
83.6439900507036
 20
-134.7197699315979
 10
83.6439900507036
 20
-134.7197699315979
 10
83.84914548685022
 20
-134.7197699315979
 10
83.84914548685022
 20
-134.7197699315979
 10
83.84914548685022
 20
-134.7197699315979
 10
83.84914548685022
 20
-135.8187553913925
 10
83.84914548685022
 20
-135.8187553913925
 10
83.49154457548129
 20
-135.7846489460886
 10
83.41334090796612
 20
-135.714713507738
 10
83.11499563894348
 20
-135.3033691067992
 10
82.91621362944456
 20
-135.0298285252703
 10
82.8485175031594
 20
-134.9595485773712
 10
82.71105819329793
 20
-134.9595485773712
 10
82.59254690860534
 20
-134.9595485773712
 10
82.46128877061732
 20
-135.0363742066923
 10
82.46128877061732
 20
-135.2468695408411
 10
82.46128877061732
 20
-135.5248887465007
 10
82.69193791335479
 20
-135.5338459947624
 10
82.80838214075624
 20
-135.5383246188932
 10
82.80838214075624
 20
-135.5383246188932
 10
82.80838214075624
 20
-135.7781032646666
 10
82.80838214075624
 20
-135.7781032646666
 10
82.68143037212478
 20
-135.7691460164049
 10
82.5692925140799
 20
-135.7577772013036
 10
82.4507812293873
 20
-135.6716498141724
 10
82.29006752500041
 20
-135.5541720581253
 10
82.25613333447069
 20
-135.3553900486264
 10
82.25613333447069
 20
-135.2310221016089
 10
82.25613333447069
 20
-134.9347438898774
 10
82.44027368815729
 20
-134.7132242501759
 10
82.71312525058909
 20
-134.7132242501759
 10
82.94153508126115
 20
-134.7132242501759
 10
83.04109834078487
 20
-134.8375921971934
 10
83.26744111416578
 20
-135.1676323446803
 97
        0
 97
        0
 75
     2
 76
     1
 98
        0
  0
SPLINE
  5
C0
330
BA
100
AcDbEntity
  8
_U+30EC_U+30A4_U+30E4_U+30FC 1
370
     0
100
AcDbSpline
210
0.0
220
0.0
230
1.0
 70
    11
 71
     3
 72
    44
 73
    40
 74
     0
 42
0.0000000001
 43
0.0000000001
 12
1.0
 22
0.0
 32
0.0
 13
1.0
 23
0.0
 33
0.0
 40
0.0
 40
0.0
 40
0.0
 40
0.0
 40
1.0
 40
1.0
 40
1.0
 40
2.0
 40
2.0
 40
2.0
 40
3.0
 40
3.0
 40
3.0
 40
4.0
 40
4.0
 40
4.0
 40
5.0
 40
5.0
 40
5.0
 40
6.0
 40
6.0
 40
6.0
 40
7.0
 40
7.0
 40
7.0
 40
8.0
 40
8.0
 40
8.0
 40
9.0
 40
9.0
 40
9.0
 40
10.0
 40
10.0
 40
10.0
 40
11.0
 40
11.0
 40
11.0
 40
12.0
 40
12.0
 40
12.0
 40
13.0
 40
13.0
 40
13.0
 40
13.0
 10
83.26744111416578
 20
-133.9098279830156
 30
0.0
 10
83.42608776126154
 20
-134.1427164378185
 30
0.0
 10
83.50015731419441
 20
-134.2422796973422
 30
0.0
 10
83.6439900507036
 20
-134.293956129621
 30
0.0
 10
83.6439900507036
 20
-134.293956129621
 30
0.0
 10
83.6439900507036
 20
-133.4623100794817
 30
0.0
 10
83.6439900507036
 20
-133.4623100794817
 30
0.0
 10
83.6439900507036
 20
-133.4623100794817
 30
0.0
 10
83.84914548685022
 20
-133.4623100794817
 30
0.0
 10
83.84914548685022
 20
-133.4623100794817
 30
0.0
 10
83.84914548685022
 20
-133.4623100794817
 30
0.0
 10
83.84914548685022
 20
-134.5609510297278
 30
0.0
 10
83.84914548685022
 20
-134.5609510297278
 30
0.0
 10
83.49154457548129
 20
-134.5268445844239
 30
0.0
 10
83.41334090796612
 20
-134.4569091460733
 30
0.0
 10
83.11499563894348
 20
-134.0455647451344
 30
0.0
 10
82.91621362944456
 20
-133.7720241636056
 30
0.0
 10
82.8485175031594
 20
-133.7017442157065
 30
0.0
 10
82.71105819329793
 20
-133.7017442157065
 30
0.0
 10
82.59254690860534
 20
-133.7017442157065
 30
0.0
 10
82.46128877061732
 20
-133.7785698450276
 30
0.0
 10
82.46128877061732
 20
-133.9890651791764
 30
0.0
 10
82.46128877061732
 20
-134.267084384836
 30
0.0
 10
82.69193791335479
 20
-134.2760416330977
 30
0.0
 10
82.80838214075624
 20
-134.2805202572285
 30
0.0
 10
82.80838214075624
 20
-134.2805202572285
 30
0.0
 10
82.80838214075624
 20
-134.5202989030019
 30
0.0
 10
82.80838214075624
 20
-134.5202989030019
 30
0.0
 10
82.68143037212478
 20
-134.5109971451917
 30
0.0
 10
82.5692925140799
 20
-134.4999728396389
 30
0.0
 10
82.4507812293873
 20
-134.4138454525076
 30
0.0
 10
82.29006752500041
 20
-134.2963676964606
 30
0.0
 10
82.25613333447069
 20
-134.0975856869617
 30
0.0
 10
82.25613333447069
 20
-133.9732177399442
 30
0.0
 10
82.25613333447069
 20
-133.6769395282127
 30
0.0
 10
82.44027368815729
 20
-133.4554198885112
 30
0.0
 10
82.71312525058909
 20
-133.4554198885112
 30
0.0
 10
82.94153508126115
 20
-133.4554198885112
 30
0.0
 10
83.04109834078487
 20
-133.5797878355287
 30
0.0
 10
83.26744111416578
 20
-133.9098279830156
 30
0.0
  0
HATCH
  5
C1
330
BA
100
AcDbEntity
  8
_U+30EC_U+30A4_U+30E4_U+30FC 1
 62
     7
420
 16777215
100
AcDbHatch
 10
0.0
 20
0.0
 30
0.0
210
0.0
220
0.0
230
1.0
  2
SOLID
 70
     1
 71
     0
 91
        1
 92
        1
 93
        1
 72
     4
 94
        3
 73
     0
 74
     1
 95
       44
 96
       40
 40
0.0
 40
0.0
 40
0.0
 40
0.0
 40
1.0
 40
1.0
 40
1.0
 40
2.0
 40
2.0
 40
2.0
 40
3.0
 40
3.0
 40
3.0
 40
4.0
 40
4.0
 40
4.0
 40
5.0
 40
5.0
 40
5.0
 40
6.0
 40
6.0
 40
6.0
 40
7.0
 40
7.0
 40
7.0
 40
8.0
 40
8.0
 40
8.0
 40
9.0
 40
9.0
 40
9.0
 40
10.0
 40
10.0
 40
10.0
 40
11.0
 40
11.0
 40
11.0
 40
12.0
 40
12.0
 40
12.0
 40
13.0
 40
13.0
 40
13.0
 40
13.0
 10
83.26744111416578
 20
-133.9098279830156
 10
83.42608776126154
 20
-134.1427164378185
 10
83.50015731419441
 20
-134.2422796973422
 10
83.6439900507036
 20
-134.293956129621
 10
83.6439900507036
 20
-134.293956129621
 10
83.6439900507036
 20
-133.4623100794817
 10
83.6439900507036
 20
-133.4623100794817
 10
83.6439900507036
 20
-133.4623100794817
 10
83.84914548685022
 20
-133.4623100794817
 10
83.84914548685022
 20
-133.4623100794817
 10
83.84914548685022
 20
-133.4623100794817
 10
83.84914548685022
 20
-134.5609510297278
 10
83.84914548685022
 20
-134.5609510297278
 10
83.49154457548129
 20
-134.5268445844239
 10
83.41334090796612
 20
-134.4569091460733
 10
83.11499563894348
 20
-134.0455647451344
 10
82.91621362944456
 20
-133.7720241636056
 10
82.8485175031594
 20
-133.7017442157065
 10
82.71105819329793
 20
-133.7017442157065
 10
82.59254690860534
 20
-133.7017442157065
 10
82.46128877061732
 20
-133.7785698450276
 10
82.46128877061732
 20
-133.9890651791764
 10
82.46128877061732
 20
-134.267084384836
 10
82.69193791335479
 20
-134.2760416330977
 10
82.80838214075624
 20
-134.2805202572285
 10
82.80838214075624
 20
-134.2805202572285
 10
82.80838214075624
 20
-134.5202989030019
 10
82.80838214075624
 20
-134.5202989030019
 10
82.68143037212478
 20
-134.5109971451917
 10
82.5692925140799
 20
-134.4999728396389
 10
82.4507812293873
 20
-134.4138454525076
 10
82.29006752500041
 20
-134.2963676964606
 10
82.25613333447069
 20
-134.0975856869617
 10
82.25613333447069
 20
-133.9732177399442
 10
82.25613333447069
 20
-133.6769395282127
 10
82.44027368815729
 20
-133.4554198885112
 10
82.71312525058909
 20
-133.4554198885112
 10
82.94153508126115
 20
-133.4554198885112
 10
83.04109834078487
 20
-133.5797878355287
 10
83.26744111416578
 20
-133.9098279830156
 97
        0
 97
        0
 75
     2
 76
     1
 98
        0
  0
ENDBLK
  5
BD
330
BA
100
AcDbEntity
  8
0
100
AcDbBlockEnd
  0
BLOCK
  5
C4
330
C2
100
AcDbEntity
  8
0
100
AcDbBlockBegin
  2
block 8
 70
     0
 10
0.0
 20
0.0
 30
0.0
  3
block 8
  1

  0
SPLINE
  5
C6
330
C2
100
AcDbEntity
  8
_U+30EC_U+30A4_U+30E4_U+30FC 1
370
     0
100
AcDbSpline
210
0.0
220
0.0
230
1.0
 70
    11
 71
     3
 72
    26
 73
    22
 74
     0
 42
0.0000000001
 43
0.0000000001
 12
1.0
 22
0.0
 32
0.0
 13
1.0
 23
0.0
 33
0.0
 40
0.0
 40
0.0
 40
0.0
 40
0.0
 40
1.0
 40
1.0
 40
1.0
 40
2.0
 40
2.0
 40
2.0
 40
3.0
 40
3.0
 40
3.0
 40
4.0
 40
4.0
 40
4.0
 40
5.0
 40
5.0
 40
5.0
 40
6.0
 40
6.0
 40
6.0
 40
7.0
 40
7.0
 40
7.0
 40
7.0
 10
93.85680336195247
 20
-121.2423841385262
 30
0.0
 10
93.85680336195247
 20
-121.2423841385262
 30
0.0
 10
93.85680336195247
 20
-120.1380587807294
 30
0.0
 10
93.85680336195247
 20
-120.1380587807294
 30
0.0
 10
93.85680336195247
 20
-120.1380587807294
 30
0.0
 10
93.52676321446553
 20
-120.1380587807294
 30
0.0
 10
93.52676321446553
 20
-120.1380587807294
 30
0.0
 10
93.52676321446553
 20
-120.1380587807294
 30
0.0
 10
93.52676321446553
 20
-119.9899196748636
 30
0.0
 10
93.52676321446553
 20
-119.9899196748636
 30
0.0
 10
93.85887041924362
 20
-119.9752780190513
 30
0.0
 10
93.90572371784302
 20
-119.812325002599
 30
0.0
 10
93.93535153901617
 20
-119.698120087263
 30
0.0
 10
93.93535153901617
 20
-119.698120087263
 30
0.0
 10
94.08142358759076
 20
-119.698120087263
 30
0.0
 10
94.08142358759076
 20
-119.698120087263
 30
0.0
 10
94.08142358759076
 20
-119.698120087263
 30
0.0
 10
94.08142358759076
 20
-121.2423841385262
 30
0.0
 10
94.08142358759076
 20
-121.2423841385262
 30
0.0
 10
94.08142358759076
 20
-121.2423841385262
 30
0.0
 10
93.85680336195247
 20
-121.2423841385262
 30
0.0
 10
93.85680336195247
 20
-121.2423841385262
 30
0.0
  0
HATCH
  5
C7
330
C2
100
AcDbEntity
  8
_U+30EC_U+30A4_U+30E4_U+30FC 1
 62
     7
420
 16777215
100
AcDbHatch
 10
0.0
 20
0.0
 30
0.0
210
0.0
220
0.0
230
1.0
  2
SOLID
 70
     1
 71
     0
 91
        1
 92
        1
 93
        1
 72
     4
 94
        3
 73
     0
 74
     1
 95
       26
 96
       22
 40
0.0
 40
0.0
 40
0.0
 40
0.0
 40
1.0
 40
1.0
 40
1.0
 40
2.0
 40
2.0
 40
2.0
 40
3.0
 40
3.0
 40
3.0
 40
4.0
 40
4.0
 40
4.0
 40
5.0
 40
5.0
 40
5.0
 40
6.0
 40
6.0
 40
6.0
 40
7.0
 40
7.0
 40
7.0
 40
7.0
 10
93.85680336195247
 20
-121.2423841385262
 10
93.85680336195247
 20
-121.2423841385262
 10
93.85680336195247
 20
-120.1380587807294
 10
93.85680336195247
 20
-120.1380587807294
 10
93.85680336195247
 20
-120.1380587807294
 10
93.52676321446553
 20
-120.1380587807294
 10
93.52676321446553
 20
-120.1380587807294
 10
93.52676321446553
 20
-120.1380587807294
 10
93.52676321446553
 20
-119.9899196748636
 10
93.52676321446553
 20
-119.9899196748636
 10
93.85887041924362
 20
-119.9752780190513
 10
93.90572371784302
 20
-119.812325002599
 10
93.93535153901617
 20
-119.698120087263
 10
93.93535153901617
 20
-119.698120087263
 10
94.08142358759076
 20
-119.698120087263
 10
94.08142358759076
 20
-119.698120087263
 10
94.08142358759076
 20
-119.698120087263
 10
94.08142358759076
 20
-121.2423841385262
 10
94.08142358759076
 20
-121.2423841385262
 10
94.08142358759076
 20
-121.2423841385262
 10
93.85680336195247
 20
-121.2423841385262
 10
93.85680336195247
 20
-121.2423841385262
 97
        0
 97
        0
 75
     2
 76
     1
 98
        0
  0
ENDBLK
  5
C5
330
C2
100
AcDbEntity
  8
0
100
AcDbBlockEnd
  0
ENDSEC
  0
SECTION
  2
ENTITIES
  0
SPLINE
  5
41
330
1F
100
AcDbEntity
  8
_U+30EC_U+30A4_U+30E4_U+30FC 1
370
     0
100
AcDbSpline
210
0.0
220
0.0
230
1.0
 70
    11
 71
     3
 72
    80
 73
    76
 74
     0
 42
0.0000000001
 43
0.0000000001
 12
1.0
 22
0.0
 32
0.0
 13
1.0
 23
0.0
 33
0.0
 40
0.0
 40
0.0
 40
0.0
 40
0.0
 40
1.0
 40
1.0
 40
1.0
 40
2.0
 40
2.0
 40
2.0
 40
3.0
 40
3.0
 40
3.0
 40
4.0
 40
4.0
 40
4.0
 40
5.0
 40
5.0
 40
5.0
 40
6.0
 40
6.0
 40
6.0
 40
7.0
 40
7.0
 40
7.0
 40
8.0
 40
8.0
 40
8.0
 40
9.0
 40
9.0
 40
9.0
 40
10.0
 40
10.0
 40
10.0
 40
11.0
 40
11.0
 40
11.0
 40
12.0
 40
12.0
 40
12.0
 40
13.0
 40
13.0
 40
13.0
 40
14.0
 40
14.0
 40
14.0
 40
15.0
 40
15.0
 40
15.0
 40
16.0
 40
16.0
 40
16.0
 40
17.0
 40
17.0
 40
17.0
 40
18.0
 40
18.0
 40
18.0
 40
19.0
 40
19.0
 40
19.0
 40
20.0
 40
20.0
 40
20.0
 40
21.0
 40
21.0
 40
21.0
 40
22.0
 40
22.0
 40
22.0
 40
23.0
 40
23.0
 40
23.0
 40
24.0
 40
24.0
 40
24.0
 40
25.0
 40
25.0
 40
25.0
 40
25.0
 10
93.04788818170616
 20
-135.8108366327139
 30
0.0
 10
92.92801664343455
 20
-136.1436119104087
 30
0.0
 10
92.48429041830695
 20
-136.5129349658718
 30
0.0
 10
92.48429041830695
 20
-136.5129349658718
 30
0.0
 10
92.07291626213532
 20
-136.7775182991389
 30
0.0
 10
92.04744570722957
 20
-136.5356891325329
 30
0.0
 10
92.04744570722957
 20
-136.5356891325329
 30
0.0
 10
92.04744570722957
 20
-136.5356891325329
 30
0.0
 10
92.04744570722957
 20
-131.6756813559699
 30
0.0
 10
92.04744570722957
 20
-131.6756813559699
 30
0.0
 10
92.04744570722957
 20
-131.6756813559699
 30
0.0
 10
89.55422410417029
 20
-131.6756813559699
 30
0.0
 10
89.55422410417029
 20
-131.6756813559699
 30
0.0
 10
89.55422410417029
 20
-131.6756813559699
 30
0.0
 10
89.55422410417029
 20
-131.8258941337104
 30
0.0
 10
89.55422410417029
 20
-131.8258941337104
 30
0.0
 10
89.55422410417029
 20
-131.8258941337104
 30
0.0
 10
89.55422410417029
 20
-136.6376419102848
 30
0.0
 10
89.55422410417029
 20
-136.6376419102848
 30
0.0
 10
89.55422410417029
 20
-136.6376419102848
 30
0.0
 10
89.45431744005245
 20
-136.6376419102848
 30
0.0
 10
89.45431744005245
 20
-136.6376419102848
 30
0.0
 10
89.45431744005245
 20
-136.6376419102848
 30
0.0
 10
89.45431744005245
 20
-144.9351516304328
 30
0.0
 10
89.45431744005245
 20
-144.9351516304328
 30
0.0
 10
89.45431744005245
 20
-144.9351516304328
 30
0.0
 10
89.45086021791843
 20
-145.041972741517
 30
0.0
 10
89.45086021791843
 20
-145.041972741517
 30
0.0
 10
88.49553802006851
 20
-146.2766949634306
 30
0.0
 10
88.55409912968561
 20
-145.2328255192475
 30
0.0
 10
88.55409912968561
 20
-145.2328255192475
 30
0.0
 10
88.55409912968561
 20
-145.2328255192475
 30
0.0
 10
88.55409912968561
 20
-123.637745524646
 30
0.0
 10
88.55409912968561
 20
-123.637745524646
 30
0.0
 10
88.55409912968561
 20
-123.637745524646
 30
0.0
 10
95.05431174162915
 20
-123.637745524646
 30
0.0
 10
95.05431174162915
 20
-123.637745524646
 30
0.0
 10
95.05431174162915
 20
-123.637745524646
 30
0.0
 10
95.05431174162915
 20
-115.7534796932839
 30
0.0
 10
95.05431174162915
 20
-115.7534796932839
 30
0.0
 10
95.05431174162915
 20
-115.7534796932839
 30
0.0
 10
95.02125646469467
 20
-115.5019844155688
 30
0.0
 10
95.34440090089502
 20
-115.7372871932879
 30
0.0
 10
95.34440090089502
 20
-115.7372871932879
 30
0.0
 10
95.94038608712614
 20
-116.2998619153694
 30
0.0
 10
96.05408393834504
 20
-116.7536046930339
 30
0.0
 10
96.05408393834504
 20
-116.7536046930339
 30
0.0
 10
96.05408393834504
 20
-123.9844908023374
 30
0.0
 10
96.05408393834504
 20
-123.9844908023374
 30
0.0
 10
96.05408393834504
 20
-123.9844908023374
 30
0.0
 10
96.05408393834504
 20
-124.3209349689199
 30
0.0
 10
96.05408393834504
 20
-124.3209349689199
 30
0.0
 10
96.05408393834504
 20
-124.4197833022283
 30
0.0
 10
96.016865883739
 20
-124.6382233021737
 30
0.0
 10
95.68613672550994
 20
-124.6382233021737
 30
0.0
 10
95.68613672550994
 20
-124.6382233021737
 30
0.0
 10
93.55433594656338
 20
-124.6376941355074
 30
0.0
 10
93.55433594656338
 20
-124.6376941355074
 30
0.0
 10
93.55433594656338
 20
-124.6376941355074
 30
0.0
 10
89.55422410417029
 20
-124.6376941355074
 30
0.0
 10
89.55422410417029
 20
-124.6376941355074
 30
0.0
 10
89.55422410417029
 20
-124.6376941355074
 30
0.0
 10
89.55422410417029
 20
-130.6376680228961
 30
0.0
 10
89.55422410417029
 20
-130.6376680228961
 30
0.0
 10
89.55422410417029
 20
-130.6376680228961
 30
0.0
 10
92.54009986132759
 20
-130.6376680228961
 30
0.0
 10
92.54009986132759
 20
-130.6376680228961
 30
0.0
 10
92.82052290972895
 20
-130.6376680228961
 30
0.0
 10
93.04721790394548
 20
-130.8547321895083
 30
0.0
 10
93.04721790394548
 20
-131.1227374672193
 30
0.0
 10
93.04721790394548
 20
-131.1227374672193
 30
0.0
 10
93.04721790394548
 20
-131.1410113561039
 30
0.0
 10
93.04721790394548
 20
-131.1410113561039
 30
0.0
 10
93.04721790394548
 20
-131.1410113561039
 30
0.0
 10
93.04788818170616
 20
-135.8108366327139
 30
0.0
 10
93.04788818170616
 20
-135.8108366327139
 30
0.0
  0
HATCH
  5
42
330
1F
100
AcDbEntity
  8
_U+30EC_U+30A4_U+30E4_U+30FC 1
 62
   253
420
 11711154
100
AcDbHatch
 10
0.0
 20
0.0
 30
0.0
210
0.0
220
0.0
230
1.0
  2
SOLID
 70
     1
 71
     0
 91
        1
 92
        1
 93
        1
 72
     4
 94
        3
 73
     0
 74
     1
 95
       80
 96
       76
 40
0.0
 40
0.0
 40
0.0
 40
0.0
 40
1.0
 40
1.0
 40
1.0
 40
2.0
 40
2.0
 40
2.0
 40
3.0
 40
3.0
 40
3.0
 40
4.0
 40
4.0
 40
4.0
 40
5.0
 40
5.0
 40
5.0
 40
6.0
 40
6.0
 40
6.0
 40
7.0
 40
7.0
 40
7.0
 40
8.0
 40
8.0
 40
8.0
 40
9.0
 40
9.0
 40
9.0
 40
10.0
 40
10.0
 40
10.0
 40
11.0
 40
11.0
 40
11.0
 40
12.0
 40
12.0
 40
12.0
 40
13.0
 40
13.0
 40
13.0
 40
14.0
 40
14.0
 40
14.0
 40
15.0
 40
15.0
 40
15.0
 40
16.0
 40
16.0
 40
16.0
 40
17.0
 40
17.0
 40
17.0
 40
18.0
 40
18.0
 40
18.0
 40
19.0
 40
19.0
 40
19.0
 40
20.0
 40
20.0
 40
20.0
 40
21.0
 40
21.0
 40
21.0
 40
22.0
 40
22.0
 40
22.0
 40
23.0
 40
23.0
 40
23.0
 40
24.0
 40
24.0
 40
24.0
 40
25.0
 40
25.0
 40
25.0
 40
25.0
 10
93.04788818170616
 20
-135.8108366327139
 10
92.92801664343455
 20
-136.1436119104087
 10
92.48429041830695
 20
-136.5129349658718
 10
92.48429041830695
 20
-136.5129349658718
 10
92.07291626213532
 20
-136.7775182991389
 10
92.04744570722957
 20
-136.5356891325329
 10
92.04744570722957
 20
-136.5356891325329
 10
92.04744570722957
 20
-136.5356891325329
 10
92.04744570722957
 20
-131.6756813559699
 10
92.04744570722957
 20
-131.6756813559699
 10
92.04744570722957
 20
-131.6756813559699
 10
89.55422410417029
 20
-131.6756813559699
 10
89.55422410417029
 20
-131.6756813559699
 10
89.55422410417029
 20
-131.6756813559699
 10
89.55422410417029
 20
-131.8258941337104
 10
89.55422410417029
 20
-131.8258941337104
 10
89.55422410417029
 20
-131.8258941337104
 10
89.55422410417029
 20
-136.6376419102848
 10
89.55422410417029
 20
-136.6376419102848
 10
89.55422410417029
 20
-136.6376419102848
 10
89.45431744005245
 20
-136.6376419102848
 10
89.45431744005245
 20
-136.6376419102848
 10
89.45431744005245
 20
-136.6376419102848
 10
89.45431744005245
 20
-144.9351516304328
 10
89.45431744005245
 20
-144.9351516304328
 10
89.45431744005245
 20
-144.9351516304328
 10
89.45086021791843
 20
-145.041972741517
 10
89.45086021791843
 20
-145.041972741517
 10
88.49553802006851
 20
-146.2766949634306
 10
88.55409912968561
 20
-145.2328255192475
 10
88.55409912968561
 20
-145.2328255192475
 10
88.55409912968561
 20
-145.2328255192475
 10
88.55409912968561
 20
-123.637745524646
 10
88.55409912968561
 20
-123.637745524646
 10
88.55409912968561
 20
-123.637745524646
 10
95.05431174162915
 20
-123.637745524646
 10
95.05431174162915
 20
-123.637745524646
 10
95.05431174162915
 20
-123.637745524646
 10
95.05431174162915
 20
-115.7534796932839
 10
95.05431174162915
 20
-115.7534796932839
 10
95.05431174162915
 20
-115.7534796932839
 10
95.02125646469467
 20
-115.5019844155688
 10
95.34440090089502
 20
-115.7372871932879
 10
95.34440090089502
 20
-115.7372871932879
 10
95.94038608712614
 20
-116.2998619153694
 10
96.05408393834504
 20
-116.7536046930339
 10
96.05408393834504
 20
-116.7536046930339
 10
96.05408393834504
 20
-123.9844908023374
 10
96.05408393834504
 20
-123.9844908023374
 10
96.05408393834504
 20
-123.9844908023374
 10
96.05408393834504
 20
-124.3209349689199
 10
96.05408393834504
 20
-124.3209349689199
 10
96.05408393834504
 20
-124.4197833022283
 10
96.016865883739
 20
-124.6382233021737
 10
95.68613672550994
 20
-124.6382233021737
 10
95.68613672550994
 20
-124.6382233021737
 10
93.55433594656338
 20
-124.6376941355074
 10
93.55433594656338
 20
-124.6376941355074
 10
93.55433594656338
 20
-124.6376941355074
 10
89.55422410417029
 20
-124.6376941355074
 10
89.55422410417029
 20
-124.6376941355074
 10
89.55422410417029
 20
-124.6376941355074
 10
89.55422410417029
 20
-130.6376680228961
 10
89.55422410417029
 20
-130.6376680228961
 10
89.55422410417029
 20
-130.6376680228961
 10
92.54009986132759
 20
-130.6376680228961
 10
92.54009986132759
 20
-130.6376680228961
 10
92.82052290972895
 20
-130.6376680228961
 10
93.04721790394548
 20
-130.8547321895083
 10
93.04721790394548
 20
-131.1227374672193
 10
93.04721790394548
 20
-131.1227374672193
 10
93.04721790394548
 20
-131.1410113561039
 10
93.04721790394548
 20
-131.1410113561039
 10
93.04721790394548
 20
-131.1410113561039
 10
93.04788818170616
 20
-135.8108366327139
 10
93.04788818170616
 20
-135.8108366327139
 97
        0
 97
        0
 75
     2
 76
     1
 98
        0
  0
SPLINE
  5
43
330
1F
100
AcDbEntity
  8
_U+30EC_U+30A4_U+30E4_U+30FC 1
 62
     7
420
 16777215
370
     9
100
AcDbSpline
210
0.0
220
0.0
230
1.0
 70
    11
 71
     3
 72
    17
 73
    13
 74
     0
 42
0.0000000001
 43
0.0000000001
 12
1.0
 22
0.0
 32
0.0
 13
1.0
 23
0.0
 33
0.0
 40
0.0
 40
0.0
 40
0.0
 40
0.0
 40
1.0
 40
1.0
 40
1.0
 40
2.0
 40
2.0
 40
2.0
 40
3.0
 40
3.0
 40
3.0
 40
4.0
 40
4.0
 40
4.0
 40
4.0
 10
92.15423153783857
 20
-144.0180705195511
 30
0.0
 10
92.15423153783857
 20
-143.9629666306762
 30
0.0
 10
92.10946403898069
 20
-143.9181638529095
 30
0.0
 10
92.05432487372074
 20
-143.9181638529095
 30
0.0
 10
91.99922098623767
 20
-143.9181638529095
 30
0.0
 10
91.9544182096029
 20
-143.9629666306762
 30
0.0
 10
91.9544182096029
 20
-144.0180705195511
 30
0.0
 10
91.9544182096029
 20
-144.0732096862042
 30
0.0
 10
91.99922098623767
 20
-144.1179771861927
 30
0.0
 10
92.05432487372074
 20
-144.1179771861927
 30
0.0
 10
92.10946403898069
 20
-144.1179771861927
 30
0.0
 10
92.15423153783857
 20
-144.0732096862042
 30
0.0
 10
92.15423153783857
 20
-144.0180705195511
 30
0.0
  0
SPLINE
  5
44
330
1F
100
AcDbEntity
  8
_U+30EC_U+30A4_U+30E4_U+30FC 1
 62
     7
420
 16777215
370
     9
100
AcDbSpline
210
0.0
220
0.0
230
1.0
 70
    11
 71
     3
 72
    17
 73
    13
 74
     0
 42
0.0000000001
 43
0.0000000001
 12
1.0
 22
0.0
 32
0.0
 13
1.0
 23
0.0
 33
0.0
 40
0.0
 40
0.0
 40
0.0
 40
0.0
 40
1.0
 40
1.0
 40
1.0
 40
2.0
 40
2.0
 40
2.0
 40
3.0
 40
3.0
 40
3.0
 40
4.0
 40
4.0
 40
4.0
 40
4.0
 10
89.75266386645086
 20
-144.0180705195511
 30
0.0
 10
89.75266386645086
 20
-143.9629666306762
 30
0.0
 10
89.70786108868414
 20
-143.9181638529095
 30
0.0
 10
89.65275493498989
 20
-143.9181638529095
 30
0.0
 10
89.59761576972994
 20
-143.9181638529095
 30
0.0
 10
89.55284827087206
 20
-143.9629666306762
 30
0.0
 10
89.55284827087206
 20
-144.0180705195511
 30
0.0
 10
89.55284827087206
 20
-144.0732096862042
 30
0.0
 10
89.59761576972994
 20
-144.1179771861927
 30
0.0
 10
89.65275493498989
 20
-144.1179771861927
 30
0.0
 10
89.70786108868414
 20
-144.1179771861927
 30
0.0
 10
89.75266386645086
 20
-144.0732096862042
 30
0.0
 10
89.75266386645086
 20
-144.0180705195511
 30
0.0
  0
SPLINE
  5
45
330
1F
100
AcDbEntity
  8
_U+30EC_U+30A4_U+30E4_U+30FC 1
 62
     7
420
 16777215
370
     9
100
AcDbSpline
210
0.0
220
0.0
230
1.0
 70
    11
 71
     3
 72
    17
 73
    13
 74
     0
 42
0.0000000001
 43
0.0000000001
 12
1.0
 22
0.0
 32
0.0
 13
1.0
 23
0.0
 33
0.0
 40
0.0
 40
0.0
 40
0.0
 40
0.0
 40
1.0
 40
1.0
 40
1.0
 40
2.0
 40
2.0
 40
2.0
 40
3.0
 40
3.0
 40
3.0
 40
4.0
 40
4.0
 40
4.0
 40
4.0
 10
98.95829164203032
 20
-115.541954137781
 30
0.0
 10
98.90318775454725
 20
-115.541954137781
 30
0.0
 10
98.85838497791248
 20
-115.5867569155478
 30
0.0
 10
98.85838497791248
 20
-115.641860804423
 30
0.0
 10
98.85838497791248
 20
-115.6969999710758
 30
0.0
 10
98.90318775454725
 20
-115.7417674710646
 30
0.0
 10
98.95829164203032
 20
-115.7417674710646
 30
0.0
 10
99.01343330857986
 20
-115.7417674710646
 30
0.0
 10
99.05819830614816
 20
-115.6969999710758
 30
0.0
 10
99.05819830614816
 20
-115.641860804423
 30
0.0
 10
99.05819830614816
 20
-115.5867569155478
 30
0.0
 10
99.01343330857986
 20
-115.541954137781
 30
0.0
 10
98.95829164203032
 20
-115.541954137781
 30
0.0
  0
SPLINE
  5
46
330
1F
100
AcDbEntity
  8
_U+30EC_U+30A4_U+30E4_U+30FC 1
 62
     7
420
 16777215
370
     9
100
AcDbSpline
210
0.0
220
0.0
230
1.0
 70
    11
 71
     3
 72
    17
 73
    13
 74
     0
 42
0.0000000001
 43
0.0000000001
 12
1.0
 22
0.0
 32
0.0
 13
1.0
 23
0.0
 33
0.0
 40
0.0
 40
0.0
 40
0.0
 40
0.0
 40
1.0
 40
1.0
 40
1.0
 40
2.0
 40
2.0
 40
2.0
 40
3.0
 40
3.0
 40
3.0
 40
4.0
 40
4.0
 40
4.0
 40
4.0
 10
98.95829164203032
 20
-124.5407155244204
 30
0.0
 10
98.90318775454725
 20
-124.5407155244204
 30
0.0
 10
98.85838497791248
 20
-124.5855183021871
 30
0.0
 10
98.85838497791248
 20
-124.640622191062
 30
0.0
 10
98.85838497791248
 20
-124.6957613577151
 30
0.0
 10
98.90318775454725
 20
-124.7405288577037
 30
0.0
 10
98.95829164203032
 20
-124.7405288577037
 30
0.0
 10
99.01343330857986
 20
-124.7405288577037
 30
0.0
 10
99.05819830614816
 20
-124.6957613577151
 30
0.0
 10
99.05819830614816
 20
-124.640622191062
 30
0.0
 10
99.05819830614816
 20
-124.5855183021871
 30
0.0
 10
99.01343330857986
 20
-124.5407155244204
 30
0.0
 10
98.95829164203032
 20
-124.5407155244204
 30
0.0
  0
POLYLINE
  5
47
330
1F
100
AcDbEntity
  8
_U+30EC_U+30A4_U+30E4_U+30FC 1
 62
     7
420
 16777215
370
     9
100
AcDb2dPolyline
 66
     1
 10
0.0
 20
0.0
 30
0.0
  0
VERTEX
  5
48
330
47
100
AcDbEntity
  8
_U+30EC_U+30A4_U+30E4_U+30FC 1
 62
     7
420
 16777215
370
     9
100
AcDbVertex
100
AcDb2dVertex
 10
98.95829164203032
 20
-124.6418216355064
 30
0.0
  0
VERTEX
  5
49
330
47
100
AcDbEntity
  8
_U+30EC_U+30A4_U+30E4_U+30FC 1
 62
     7
420
 16777215
370
     9
100
AcDbVertex
100
AcDb2dVertex
 10
98.95829164203032
 20
-115.641860804423
 30
0.0
  0
SEQEND
  5
4A
330
47
100
AcDbEntity
  8
_U+30EC_U+30A4_U+30E4_U+30FC 1
 62
     7
420
 16777215
370
     9
  0
POLYLINE
  5
4B
330
1F
100
AcDbEntity
  8
_U+30EC_U+30A4_U+30E4_U+30FC 1
 62
     7
420
 16777215
370
     9
100
AcDb2dPolyline
 66
     1
 10
0.0
 20
0.0
 30
0.0
  0
VERTEX
  5
4C
330
4B
100
AcDbEntity
  8
_U+30EC_U+30A4_U+30E4_U+30FC 1
 62
     7
420
 16777215
370
     9
100
AcDbVertex
100
AcDb2dVertex
 10
100.0069941152757
 20
-124.640622191062
 30
0.0
  0
VERTEX
  5
4D
330
4B
100
AcDbEntity
  8
_U+30EC_U+30A4_U+30E4_U+30FC 1
 62
     7
420
 16777215
370
     9
100
AcDbVertex
100
AcDb2dVertex
 10
97.95851944531441
 20
-124.640622191062
 30
0.0
  0
SEQEND
  5
4E
330
4B
100
AcDbEntity
  8
_U+30EC_U+30A4_U+30E4_U+30FC 1
 62
     7
420
 16777215
370
     9
  0
POLYLINE
  5
4F
330
1F
100
AcDbEntity
  8
_U+30EC_U+30A4_U+30E4_U+30FC 1
 62
     7
420
 16777215
370
     9
100
AcDb2dPolyline
 66
     1
 10
0.0
 20
0.0
 30
0.0
  0
VERTEX
  5
50
330
4F
100
AcDbEntity
  8
_U+30EC_U+30A4_U+30E4_U+30FC 1
 62
     7
420
 16777215
370
     9
100
AcDbVertex
100
AcDb2dVertex
 10
100.0069941152757
 20
-115.641860804423
 30
0.0
  0
VERTEX
  5
51
330
4F
100
AcDbEntity
  8
_U+30EC_U+30A4_U+30E4_U+30FC 1
 62
     7
420
 16777215
370
     9
100
AcDbVertex
100
AcDb2dVertex
 10
97.95851944531441
 20
-115.641860804423
 30
0.0
  0
SEQEND
  5
52
330
4F
100
AcDbEntity
  8
_U+30EC_U+30A4_U+30E4_U+30FC 1
 62
     7
420
 16777215
370
     9
  0
INSERT
  5
54
330
1F
100
AcDbEntity
  8
_U+30EC_U+30A4_U+30E4_U+30FC 1
100
AcDbBlockReference
  2
block 2
 10
0.0
 20
0.0
 30
0.0
  0
SPLINE
  5
5A
330
1F
100
AcDbEntity
  8
_U+30EC_U+30A4_U+30E4_U+30FC 1
 62
     7
420
 16777215
370
     9
100
AcDbSpline
210
0.0
220
0.0
230
1.0
 70
    11
 71
     3
 72
    17
 73
    13
 74
     0
 42
0.0000000001
 43
0.0000000001
 12
1.0
 22
0.0
 32
0.0
 13
1.0
 23
0.0
 33
0.0
 40
0.0
 40
0.0
 40
0.0
 40
0.0
 40
1.0
 40
1.0
 40
1.0
 40
2.0
 40
2.0
 40
2.0
 40
3.0
 40
3.0
 40
3.0
 40
4.0
 40
4.0
 40
4.0
 40
4.0
 10
98.95829164203032
 20
-130.5326108007
 30
0.0
 10
98.90318775454725
 20
-130.5326108007
 30
0.0
 10
98.85838497791248
 20
-130.5773783006892
 30
0.0
 10
98.85838497791248
 20
-130.6325174673416
 30
0.0
 10
98.85838497791248
 20
-130.6876213562172
 30
0.0
 10
98.90318775454725
 20
-130.7324241339833
 30
0.0
 10
98.95829164203032
 20
-130.7324241339833
 30
0.0
 10
99.01343330857986
 20
-130.7324241339833
 30
0.0
 10
99.05819830614816
 20
-130.6876213562172
 30
0.0
 10
99.05819830614816
 20
-130.6325174673416
 30
0.0
 10
99.05819830614816
 20
-130.5773783006892
 30
0.0
 10
99.01343330857986
 20
-130.5326108007
 30
0.0
 10
98.95829164203032
 20
-130.5326108007
 30
0.0
  0
POLYLINE
  5
5B
330
1F
100
AcDbEntity
  8
_U+30EC_U+30A4_U+30E4_U+30FC 1
 62
     7
420
 16777215
370
     9
100
AcDb2dPolyline
 66
     1
 10
0.0
 20
0.0
 30
0.0
  0
VERTEX
  5
5C
330
5B
100
AcDbEntity
  8
_U+30EC_U+30A4_U+30E4_U+30FC 1
 62
     7
420
 16777215
370
     9
100
AcDbVertex
100
AcDb2dVertex
 10
98.95829164203032
 20
-130.6407724673396
 30
0.0
  0
VERTEX
  5
5D
330
5B
100
AcDbEntity
  8
_U+30EC_U+30A4_U+30E4_U+30FC 1
 62
     7
420
 16777215
370
     9
100
AcDbVertex
100
AcDb2dVertex
 10
98.95829164203032
 20
-124.6407985799509
 30
0.0
  0
SEQEND
  5
5E
330
5B
100
AcDbEntity
  8
_U+30EC_U+30A4_U+30E4_U+30FC 1
 62
     7
420
 16777215
370
     9
  0
POLYLINE
  5
5F
330
1F
100
AcDbEntity
  8
_U+30EC_U+30A4_U+30E4_U+30FC 1
 62
     7
420
 16777215
370
     9
100
AcDb2dPolyline
 66
     1
 10
0.0
 20
0.0
 30
0.0
  0
VERTEX
  5
60
330
5F
100
AcDbEntity
  8
_U+30EC_U+30A4_U+30E4_U+30FC 1
 62
     7
420
 16777215
370
     9
100
AcDbVertex
100
AcDb2dVertex
 10
100.0069941152757
 20
-130.6325174673416
 30
0.0
  0
VERTEX
  5
61
330
5F
100
AcDbEntity
  8
_U+30EC_U+30A4_U+30E4_U+30FC 1
 62
     7
420
 16777215
370
     9
100
AcDbVertex
100
AcDb2dVertex
 10
97.95851944531441
 20
-130.6325174673416
 30
0.0
  0
SEQEND
  5
62
330
5F
100
AcDbEntity
  8
_U+30EC_U+30A4_U+30E4_U+30FC 1
 62
     7
420
 16777215
370
     9
  0
INSERT
  5
64
330
1F
100
AcDbEntity
  8
_U+30EC_U+30A4_U+30E4_U+30FC 1
100
AcDbBlockReference
  2
block 3
 10
0.0
 20
0.0
 30
0.0
  0
SPLINE
  5
6A
330
1F
100
AcDbEntity
  8
_U+30EC_U+30A4_U+30E4_U+30FC 1
 62
     7
420
 16777215
370
     9
100
AcDbSpline
210
0.0
220
0.0
230
1.0
 70
    11
 71
     3
 72
    17
 73
    13
 74
     0
 42
0.0000000001
 43
0.0000000001
 12
1.0
 22
0.0
 32
0.0
 13
1.0
 23
0.0
 33
0.0
 40
0.0
 40
0.0
 40
0.0
 40
0.0
 40
1.0
 40
1.0
 40
1.0
 40
2.0
 40
2.0
 40
2.0
 40
3.0
 40
3.0
 40
3.0
 40
4.0
 40
4.0
 40
4.0
 40
4.0
 10
98.95829164203032
 20
-130.5326108007
 30
0.0
 10
98.90318775454725
 20
-130.5326108007
 30
0.0
 10
98.85838497791248
 20
-130.5773783006892
 30
0.0
 10
98.85838497791248
 20
-130.6325174673416
 30
0.0
 10
98.85838497791248
 20
-130.6876213562172
 30
0.0
 10
98.90318775454725
 20
-130.7324241339833
 30
0.0
 10
98.95829164203032
 20
-130.7324241339833
 30
0.0
 10
99.01343330857986
 20
-130.7324241339833
 30
0.0
 10
99.05819830614816
 20
-130.6876213562172
 30
0.0
 10
99.05819830614816
 20
-130.6325174673416
 30
0.0
 10
99.05819830614816
 20
-130.5773783006892
 30
0.0
 10
99.01343330857986
 20
-130.5326108007
 30
0.0
 10
98.95829164203032
 20
-130.5326108007
 30
0.0
  0
POLYLINE
  5
6B
330
1F
100
AcDbEntity
  8
_U+30EC_U+30A4_U+30E4_U+30FC 1
 62
     7
420
 16777215
370
     9
100
AcDb2dPolyline
 66
     1
 10
0.0
 20
0.0
 30
0.0
  0
VERTEX
  5
6C
330
6B
100
AcDbEntity
  8
_U+30EC_U+30A4_U+30E4_U+30FC 1
 62
     7
420
 16777215
370
     9
100
AcDbVertex
100
AcDb2dVertex
 10
100.0069941152757
 20
-130.6325174673416
 30
0.0
  0
VERTEX
  5
6D
330
6B
100
AcDbEntity
  8
_U+30EC_U+30A4_U+30E4_U+30FC 1
 62
     7
420
 16777215
370
     9
100
AcDbVertex
100
AcDb2dVertex
 10
97.95851944531441
 20
-130.6325174673416
 30
0.0
  0
SEQEND
  5
6E
330
6B
100
AcDbEntity
  8
_U+30EC_U+30A4_U+30E4_U+30FC 1
 62
     7
420
 16777215
370
     9
  0
SPLINE
  5
6F
330
1F
100
AcDbEntity
  8
_U+30EC_U+30A4_U+30E4_U+30FC 1
 62
     7
420
 16777215
370
     9
100
AcDbSpline
210
0.0
220
0.0
230
1.0
 70
    11
 71
     3
 72
    17
 73
    13
 74
     0
 42
0.0000000001
 43
0.0000000001
 12
1.0
 22
0.0
 32
0.0
 13
1.0
 23
0.0
 33
0.0
 40
0.0
 40
0.0
 40
0.0
 40
0.0
 40
1.0
 40
1.0
 40
1.0
 40
2.0
 40
2.0
 40
2.0
 40
3.0
 40
3.0
 40
3.0
 40
4.0
 40
4.0
 40
4.0
 40
4.0
 10
98.95829164203032
 20
-136.5325846880893
 30
0.0
 10
98.90318775454725
 20
-136.5325846880893
 30
0.0
 10
98.85838497791248
 20
-136.5773521880779
 30
0.0
 10
98.85838497791248
 20
-136.632491354731
 30
0.0
 10
98.85838497791248
 20
-136.6875952436059
 30
0.0
 10
98.90318775454725
 20
-136.7323980213726
 30
0.0
 10
98.95829164203032
 20
-136.7323980213726
 30
0.0
 10
99.01343330857986
 20
-136.7323980213726
 30
0.0
 10
99.05819830614816
 20
-136.6875952436059
 30
0.0
 10
99.05819830614816
 20
-136.632491354731
 30
0.0
 10
99.05819830614816
 20
-136.5773521880779
 30
0.0
 10
99.01343330857986
 20
-136.5325846880893
 30
0.0
 10
98.95829164203032
 20
-136.5325846880893
 30
0.0
  0
POLYLINE
  5
70
330
1F
100
AcDbEntity
  8
_U+30EC_U+30A4_U+30E4_U+30FC 1
 62
     7
420
 16777215
370
     9
100
AcDb2dPolyline
 66
     1
 10
0.0
 20
0.0
 30
0.0
  0
VERTEX
  5
71
330
70
100
AcDbEntity
  8
_U+30EC_U+30A4_U+30E4_U+30FC 1
 62
     7
420
 16777215
370
     9
100
AcDbVertex
100
AcDb2dVertex
 10
98.95829164203032
 20
-136.632491354731
 30
0.0
  0
VERTEX
  5
72
330
70
100
AcDbEntity
  8
_U+30EC_U+30A4_U+30E4_U+30FC 1
 62
     7
420
 16777215
370
     9
100
AcDbVertex
100
AcDb2dVertex
 10
98.95829164203032
 20
-130.6325174673416
 30
0.0
  0
SEQEND
  5
73
330
70
100
AcDbEntity
  8
_U+30EC_U+30A4_U+30E4_U+30FC 1
 62
     7
420
 16777215
370
     9
  0
POLYLINE
  5
74
330
1F
100
AcDbEntity
  8
_U+30EC_U+30A4_U+30E4_U+30FC 1
 62
     7
420
 16777215
370
     9
100
AcDb2dPolyline
 66
     1
 10
0.0
 20
0.0
 30
0.0
  0
VERTEX
  5
75
330
74
100
AcDbEntity
  8
_U+30EC_U+30A4_U+30E4_U+30FC 1
 62
     7
420
 16777215
370
     9
100
AcDbVertex
100
AcDb2dVertex
 10
100.0069941152757
 20
-136.632491354731
 30
0.0
  0
VERTEX
  5
76
330
74
100
AcDbEntity
  8
_U+30EC_U+30A4_U+30E4_U+30FC 1
 62
     7
420
 16777215
370
     9
100
AcDbVertex
100
AcDb2dVertex
 10
97.95851944531441
 20
-136.632491354731
 30
0.0
  0
SEQEND
  5
77
330
74
100
AcDbEntity
  8
_U+30EC_U+30A4_U+30E4_U+30FC 1
 62
     7
420
 16777215
370
     9
  0
INSERT
  5
79
330
1F
100
AcDbEntity
  8
_U+30EC_U+30A4_U+30E4_U+30FC 1
100
AcDbBlockReference
  2
block 4
 10
0.0
 20
0.0
 30
0.0
  0
POLYLINE
  5
7F
330
1F
100
AcDbEntity
  8
_U+30EC_U+30A4_U+30E4_U+30FC 1
 62
     7
420
 16777215
370
     9
100
AcDb2dPolyline
 66
     1
 10
0.0
 20
0.0
 30
0.0
  0
VERTEX
  5
80
330
7F
100
AcDbEntity
  8
_U+30EC_U+30A4_U+30E4_U+30FC 1
 62
     7
420
 16777215
370
     9
100
AcDbVertex
100
AcDb2dVertex
 10
89.65275493498989
 20
-144.0180705195511
 30
0.0
  0
VERTEX
  5
81
330
7F
100
AcDbEntity
  8
_U+30EC_U+30A4_U+30E4_U+30FC 1
 62
     7
420
 16777215
370
     9
100
AcDbVertex
100
AcDb2dVertex
 10
92.15285570454034
 20
-144.0180705195511
 30
0.0
  0
SEQEND
  5
82
330
7F
100
AcDbEntity
  8
_U+30EC_U+30A4_U+30E4_U+30FC 1
 62
     7
420
 16777215
370
     9
  0
POLYLINE
  5
83
330
1F
100
AcDbEntity
  8
_U+30EC_U+30A4_U+30E4_U+30FC 1
 62
     7
420
 16777215
370
     9
100
AcDb2dPolyline
 66
     1
 10
0.0
 20
0.0
 30
0.0
  0
VERTEX
  5
84
330
83
100
AcDbEntity
  8
_U+30EC_U+30A4_U+30E4_U+30FC 1
 62
     7
420
 16777215
370
     9
100
AcDbVertex
100
AcDb2dVertex
 10
89.65275493498989
 20
-142.9694032975907
 30
0.0
  0
VERTEX
  5
85
330
83
100
AcDbEntity
  8
_U+30EC_U+30A4_U+30E4_U+30FC 1
 62
     7
420
 16777215
370
     9
100
AcDbVertex
100
AcDb2dVertex
 10
89.65275493498989
 20
-145.017842741523
 30
0.0
  0
SEQEND
  5
86
330
83
100
AcDbEntity
  8
_U+30EC_U+30A4_U+30E4_U+30FC 1
 62
     7
420
 16777215
370
     9
  0
POLYLINE
  5
87
330
1F
100
AcDbEntity
  8
_U+30EC_U+30A4_U+30E4_U+30FC 1
 62
     7
420
 16777215
370
     9
100
AcDb2dPolyline
 66
     1
 10
0.0
 20
0.0
 30
0.0
  0
VERTEX
  5
88
330
87
100
AcDbEntity
  8
_U+30EC_U+30A4_U+30E4_U+30FC 1
 62
     7
420
 16777215
370
     9
100
AcDbVertex
100
AcDb2dVertex
 10
92.05432487372074
 20
-138.495581354265
 30
0.0
  0
VERTEX
  5
89
330
87
100
AcDbEntity
  8
_U+30EC_U+30A4_U+30E4_U+30FC 1
 62
     7
420
 16777215
370
     9
100
AcDbVertex
100
AcDb2dVertex
 10
92.05432487372074
 20
-145.017842741523
 30
0.0
  0
SEQEND
  5
8A
330
87
100
AcDbEntity
  8
_U+30EC_U+30A4_U+30E4_U+30FC 1
 62
     7
420
 16777215
370
     9
  0
INSERT
  5
8C
330
1F
100
AcDbEntity
  8
_U+30EC_U+30A4_U+30E4_U+30FC 1
100
AcDbBlockReference
  2
block 5
 10
0.0
 20
0.0
 30
0.0
  0
INSERT
  5
9C
330
1F
100
AcDbEntity
  8
_U+30EC_U+30A4_U+30E4_U+30FC 1
100
AcDbBlockReference
  2
block 6
 10
0.0
 20
0.0
 30
0.0
  0
SPLINE
  5
AC
330
1F
100
AcDbEntity
  8
_U+30EC_U+30A4_U+30E4_U+30FC 1
 62
     7
420
 16777215
370
     9
100
AcDbSpline
210
0.0
220
0.0
230
1.0
 70
    11
 71
     3
 72
    17
 73
    13
 74
     0
 42
0.0000000001
 43
0.0000000001
 12
1.0
 22
0.0
 32
0.0
 13
1.0
 23
0.0
 33
0.0
 40
0.0
 40
0.0
 40
0.0
 40
0.0
 40
1.0
 40
1.0
 40
1.0
 40
2.0
 40
2.0
 40
2.0
 40
3.0
 40
3.0
 40
3.0
 40
4.0
 40
4.0
 40
4.0
 40
4.0
 10
84.5460850652719
 20
-145.6379555191462
 30
0.0
 10
84.5460850652719
 20
-145.5828516302713
 30
0.0
 10
84.501317566414
 20
-145.5380488525045
 30
0.0
 10
84.44618053444401
 20
-145.5380488525045
 30
0.0
 10
84.39036895813344
 20
-145.5380488525045
 30
0.0
 10
84.34556618149867
 20
-145.5828516302713
 30
0.0
 10
84.34556618149867
 20
-145.6379555191462
 30
0.0
 10
84.34556618149867
 20
-145.6930946857993
 30
0.0
 10
84.39036895813344
 20
-145.7378621857878
 30
0.0
 10
84.44618053444401
 20
-145.7378621857878
 30
0.0
 10
84.501317566414
 20
-145.7378621857878
 30
0.0
 10
84.5460850652719
 20
-145.6930946857993
 30
0.0
 10
84.5460850652719
 20
-145.6379555191462
 30
0.0
  0
SPLINE
  5
AD
330
1F
100
AcDbEntity
  8
_U+30EC_U+30A4_U+30E4_U+30FC 1
 62
     7
420
 16777215
370
     9
100
AcDbSpline
210
0.0
220
0.0
230
1.0
 70
    11
 71
     3
 72
    17
 73
    13
 74
     0
 42
0.0000000001
 43
0.0000000001
 12
1.0
 22
0.0
 32
0.0
 13
1.0
 23
0.0
 33
0.0
 40
0.0
 40
0.0
 40
0.0
 40
0.0
 40
1.0
 40
1.0
 40
1.0
 40
2.0
 40
2.0
 40
2.0
 40
3.0
 40
3.0
 40
3.0
 40
4.0
 40
4.0
 40
4.0
 40
4.0
 10
84.5460850652719
 20
-123.637745524646
 30
0.0
 10
84.5460850652719
 20
-123.5826416357711
 30
0.0
 10
84.501317566414
 20
-123.5378388580043
 30
0.0
 10
84.44618053444401
 20
-123.5378388580043
 30
0.0
 10
84.39036895813344
 20
-123.5378388580043
 30
0.0
 10
84.34556618149867
 20
-123.5826416357711
 30
0.0
 10
84.34556618149867
 20
-123.637745524646
 30
0.0
 10
84.34556618149867
 20
-123.6935549690767
 30
0.0
 10
84.39036895813344
 20
-123.7383577468431
 30
0.0
 10
84.44618053444401
 20
-123.7383577468431
 30
0.0
 10
84.501317566414
 20
-123.7383577468431
 30
0.0
 10
84.5460850652719
 20
-123.6935549690767
 30
0.0
 10
84.5460850652719
 20
-123.637745524646
 30
0.0
  0
POLYLINE
  5
AE
330
1F
100
AcDbEntity
  8
_U+30EC_U+30A4_U+30E4_U+30FC 1
 62
     7
420
 16777215
370
     9
100
AcDb2dPolyline
 66
     1
 10
0.0
 20
0.0
 30
0.0
  0
VERTEX
  5
AF
330
AE
100
AcDbEntity
  8
_U+30EC_U+30A4_U+30E4_U+30FC 1
 62
     7
420
 16777215
370
     9
100
AcDbVertex
100
AcDb2dVertex
 10
84.44618053444401
 20
-145.6379555191462
 30
0.0
  0
VERTEX
  5
B0
330
AE
100
AcDbEntity
  8
_U+30EC_U+30A4_U+30E4_U+30FC 1
 62
     7
420
 16777215
370
     9
100
AcDbVertex
100
AcDb2dVertex
 10
84.44618053444401
 20
-123.637745524646
 30
0.0
  0
SEQEND
  5
B1
330
AE
100
AcDbEntity
  8
_U+30EC_U+30A4_U+30E4_U+30FC 1
 62
     7
420
 16777215
370
     9
  0
POLYLINE
  5
B2
330
1F
100
AcDbEntity
  8
_U+30EC_U+30A4_U+30E4_U+30FC 1
 62
     7
420
 16777215
370
     9
100
AcDb2dPolyline
 66
     1
 10
0.0
 20
0.0
 30
0.0
  0
VERTEX
  5
B3
330
B2
100
AcDbEntity
  8
_U+30EC_U+30A4_U+30E4_U+30FC 1
 62
     7
420
 16777215
370
     9
100
AcDbVertex
100
AcDb2dVertex
 10
85.49488087439943
 20
-145.6379555191462
 30
0.0
  0
VERTEX
  5
B4
330
B2
100
AcDbEntity
  8
_U+30EC_U+30A4_U+30E4_U+30FC 1
 62
     7
420
 16777215
370
     9
100
AcDbVertex
100
AcDb2dVertex
 10
83.44573592667747
 20
-145.6379555191462
 30
0.0
  0
SEQEND
  5
B5
330
B2
100
AcDbEntity
  8
_U+30EC_U+30A4_U+30E4_U+30FC 1
 62
     7
420
 16777215
370
     9
  0
POLYLINE
  5
B6
330
1F
100
AcDbEntity
  8
_U+30EC_U+30A4_U+30E4_U+30FC 1
 62
     7
420
 16777215
370
     9
100
AcDb2dPolyline
 66
     1
 10
0.0
 20
0.0
 30
0.0
  0
VERTEX
  5
B7
330
B6
100
AcDbEntity
  8
_U+30EC_U+30A4_U+30E4_U+30FC 1
 62
     7
420
 16777215
370
     9
100
AcDbVertex
100
AcDb2dVertex
 10
85.49488087439943
 20
-123.637745524646
 30
0.0
  0
VERTEX
  5
B8
330
B6
100
AcDbEntity
  8
_U+30EC_U+30A4_U+30E4_U+30FC 1
 62
     7
420
 16777215
370
     9
100
AcDbVertex
100
AcDb2dVertex
 10
83.44573592667747
 20
-123.637745524646
 30
0.0
  0
SEQEND
  5
B9
330
B6
100
AcDbEntity
  8
_U+30EC_U+30A4_U+30E4_U+30FC 1
 62
     7
420
 16777215
370
     9
  0
INSERT
  5
BB
330
1F
100
AcDbEntity
  8
_U+30EC_U+30A4_U+30E4_U+30FC 1
100
AcDbBlockReference
  2
block 7
 10
0.0
 20
0.0
 30
0.0
  0
INSERT
  5
C3
330
1F
100
AcDbEntity
  8
_U+30EC_U+30A4_U+30E4_U+30FC 1
100
AcDbBlockReference
  2
block 8
 10
0.0
 20
0.0
 30
0.0
  0
POLYLINE
  5
C8
330
1F
100
AcDbEntity
  8
_U+30EC_U+30A4_U+30E4_U+30FC 1
 62
     7
420
 16777215
370
     9
100
AcDb2dPolyline
 66
     1
 10
0.0
 20
0.0
 30
0.0
  0
VERTEX
  5
C9
330
C8
100
AcDbEntity
  8
_U+30EC_U+30A4_U+30E4_U+30FC 1
 62
     7
420
 16777215
370
     9
100
AcDbVertex
100
AcDb2dVertex
 10
96.97391669265593
 20
-122.007030247276
 30
0.0
  0
VERTEX
  5
CA
330
C8
100
AcDbEntity
  8
_U+30EC_U+30A4_U+30E4_U+30FC 1
 62
     7
420
 16777215
370
     9
100
AcDbVertex
100
AcDb2dVertex
 10
93.13505956837112
 20
-122.007030247276
 30
0.0
  0
SEQEND
  5
CB
330
C8
100
AcDbEntity
  8
_U+30EC_U+30A4_U+30E4_U+30FC 1
 62
     7
420
 16777215
370
     9
  0
SPLINE
  5
CC
330
1F
100
AcDbEntity
  8
_U+30EC_U+30A4_U+30E4_U+30FC 1
 62
     7
420
 16777215
370
    25
100
AcDbSpline
210
0.0
220
0.0
230
1.0
 70
    11
 71
     3
 72
    80
 73
    76
 74
     0
 42
0.0000000001
 43
0.0000000001
 12
1.0
 22
0.0
 32
0.0
 13
1.0
 23
0.0
 33
0.0
 40
0.0
 40
0.0
 40
0.0
 40
0.0
 40
1.0
 40
1.0
 40
1.0
 40
2.0
 40
2.0
 40
2.0
 40
3.0
 40
3.0
 40
3.0
 40
4.0
 40
4.0
 40
4.0
 40
5.0
 40
5.0
 40
5.0
 40
6.0
 40
6.0
 40
6.0
 40
7.0
 40
7.0
 40
7.0
 40
8.0
 40
8.0
 40
8.0
 40
9.0
 40
9.0
 40
9.0
 40
10.0
 40
10.0
 40
10.0
 40
11.0
 40
11.0
 40
11.0
 40
12.0
 40
12.0
 40
12.0
 40
13.0
 40
13.0
 40
13.0
 40
14.0
 40
14.0
 40
14.0
 40
15.0
 40
15.0
 40
15.0
 40
16.0
 40
16.0
 40
16.0
 40
17.0
 40
17.0
 40
17.0
 40
18.0
 40
18.0
 40
18.0
 40
19.0
 40
19.0
 40
19.0
 40
20.0
 40
20.0
 40
20.0
 40
21.0
 40
21.0
 40
21.0
 40
22.0
 40
22.0
 40
22.0
 40
23.0
 40
23.0
 40
23.0
 40
24.0
 40
24.0
 40
24.0
 40
25.0
 40
25.0
 40
25.0
 40
25.0
 10
93.04788818170616
 20
-135.8108366327139
 30
0.0
 10
92.92801664343455
 20
-136.1436119104087
 30
0.0
 10
92.48429041830695
 20
-136.5129349658718
 30
0.0
 10
92.48429041830695
 20
-136.5129349658718
 30
0.0
 10
92.07291626213532
 20
-136.7775182991389
 30
0.0
 10
92.04744570722957
 20
-136.5356891325329
 30
0.0
 10
92.04744570722957
 20
-136.5356891325329
 30
0.0
 10
92.04744570722957
 20
-136.5356891325329
 30
0.0
 10
92.04744570722957
 20
-131.6756813559699
 30
0.0
 10
92.04744570722957
 20
-131.6756813559699
 30
0.0
 10
92.04744570722957
 20
-131.6756813559699
 30
0.0
 10
89.55422410417029
 20
-131.6756813559699
 30
0.0
 10
89.55422410417029
 20
-131.6756813559699
 30
0.0
 10
89.55422410417029
 20
-131.6756813559699
 30
0.0
 10
89.55422410417029
 20
-131.8258941337104
 30
0.0
 10
89.55422410417029
 20
-131.8258941337104
 30
0.0
 10
89.55422410417029
 20
-131.8258941337104
 30
0.0
 10
89.55422410417029
 20
-136.6376419102848
 30
0.0
 10
89.55422410417029
 20
-136.6376419102848
 30
0.0
 10
89.55422410417029
 20
-136.6376419102848
 30
0.0
 10
89.45431744005245
 20
-136.6376419102848
 30
0.0
 10
89.45431744005245
 20
-136.6376419102848
 30
0.0
 10
89.45431744005245
 20
-136.6376419102848
 30
0.0
 10
89.45431744005245
 20
-144.9351516304328
 30
0.0
 10
89.45431744005245
 20
-144.9351516304328
 30
0.0
 10
89.45431744005245
 20
-144.9351516304328
 30
0.0
 10
89.45086021791843
 20
-145.041972741517
 30
0.0
 10
89.45086021791843
 20
-145.041972741517
 30
0.0
 10
88.49553802006851
 20
-146.2766949634306
 30
0.0
 10
88.55409912968561
 20
-145.2328255192475
 30
0.0
 10
88.55409912968561
 20
-145.2328255192475
 30
0.0
 10
88.55409912968561
 20
-145.2328255192475
 30
0.0
 10
88.55409912968561
 20
-123.637745524646
 30
0.0
 10
88.55409912968561
 20
-123.637745524646
 30
0.0
 10
88.55409912968561
 20
-123.637745524646
 30
0.0
 10
95.05431174162915
 20
-123.637745524646
 30
0.0
 10
95.05431174162915
 20
-123.637745524646
 30
0.0
 10
95.05431174162915
 20
-123.637745524646
 30
0.0
 10
95.05431174162915
 20
-115.7534796932839
 30
0.0
 10
95.05431174162915
 20
-115.7534796932839
 30
0.0
 10
95.05431174162915
 20
-115.7534796932839
 30
0.0
 10
95.02125646469467
 20
-115.5019844155688
 30
0.0
 10
95.34440090089502
 20
-115.7372871932879
 30
0.0
 10
95.34440090089502
 20
-115.7372871932879
 30
0.0
 10
95.94038608712614
 20
-116.2998619153694
 30
0.0
 10
96.05408393834504
 20
-116.7536046930339
 30
0.0
 10
96.05408393834504
 20
-116.7536046930339
 30
0.0
 10
96.05408393834504
 20
-123.9844908023374
 30
0.0
 10
96.05408393834504
 20
-123.9844908023374
 30
0.0
 10
96.05408393834504
 20
-123.9844908023374
 30
0.0
 10
96.05408393834504
 20
-124.3209349689199
 30
0.0
 10
96.05408393834504
 20
-124.3209349689199
 30
0.0
 10
96.05408393834504
 20
-124.4197833022283
 30
0.0
 10
96.016865883739
 20
-124.6382233021737
 30
0.0
 10
95.68613672550994
 20
-124.6382233021737
 30
0.0
 10
95.68613672550994
 20
-124.6382233021737
 30
0.0
 10
93.55433594656338
 20
-124.6376941355074
 30
0.0
 10
93.55433594656338
 20
-124.6376941355074
 30
0.0
 10
93.55433594656338
 20
-124.6376941355074
 30
0.0
 10
89.55422410417029
 20
-124.6376941355074
 30
0.0
 10
89.55422410417029
 20
-124.6376941355074
 30
0.0
 10
89.55422410417029
 20
-124.6376941355074
 30
0.0
 10
89.55422410417029
 20
-130.6376680228961
 30
0.0
 10
89.55422410417029
 20
-130.6376680228961
 30
0.0
 10
89.55422410417029
 20
-130.6376680228961
 30
0.0
 10
92.54009986132759
 20
-130.6376680228961
 30
0.0
 10
92.54009986132759
 20
-130.6376680228961
 30
0.0
 10
92.82052290972895
 20
-130.6376680228961
 30
0.0
 10
93.04721790394548
 20
-130.8547321895083
 30
0.0
 10
93.04721790394548
 20
-131.1227374672193
 30
0.0
 10
93.04721790394548
 20
-131.1227374672193
 30
0.0
 10
93.04721790394548
 20
-131.1410113561039
 30
0.0
 10
93.04721790394548
 20
-131.1410113561039
 30
0.0
 10
93.04721790394548
 20
-131.1410113561039
 30
0.0
 10
93.04788818170616
 20
-135.8108366327139
 30
0.0
 10
93.04788818170616
 20
-135.8108366327139
 30
0.0
  0
POLYLINE
  5
CD
330
1F
100
AcDbEntity
  8
_U+30EC_U+30A4_U+30E4_U+30FC 1
 62
     7
420
 16777215
370
     9
100
AcDb2dPolyline
 66
     1
 10
0.0
 20
0.0
 30
0.0
  0
VERTEX
  5
CE
330
CD
100
AcDbEntity
  8
_U+30EC_U+30A4_U+30E4_U+30FC 1
 62
     7
420
 16777215
370
     9
100
AcDbVertex
100
AcDb2dVertex
 10
95.05431174162915
 20
-114.0033844159436
 30
0.0
  0
VERTEX
  5
CF
330
CD
100
AcDbEntity
  8
_U+30EC_U+30A4_U+30E4_U+30FC 1
 62
     7
420
 16777215
370
     9
100
AcDbVertex
100
AcDb2dVertex
 10
95.05431174162915
 20
-111.9544158053447
 30
0.0
  0
SEQEND
  5
D0
330
CD
100
AcDbEntity
  8
_U+30EC_U+30A4_U+30E4_U+30FC 1
 62
     7
420
 16777215
370
     9
  0
POLYLINE
  5
D1
330
1F
100
AcDbEntity
  8
_U+30EC_U+30A4_U+30E4_U+30FC 1
 62
     7
420
 16777215
370
     9
100
AcDb2dPolyline
 66
     1
 10
0.0
 20
0.0
 30
0.0
  0
VERTEX
  5
D2
330
D1
100
AcDbEntity
  8
_U+30EC_U+30A4_U+30E4_U+30FC 1
 62
     7
420
 16777215
370
     9
100
AcDbVertex
100
AcDb2dVertex
 10
88.55409912968561
 20
-121.7483030251185
 30
0.0
  0
VERTEX
  5
D3
330
D1
100
AcDbEntity
  8
_U+30EC_U+30A4_U+30E4_U+30FC 1
 62
     7
420
 16777215
370
     9
100
AcDbVertex
100
AcDb2dVertex
 10
88.55409912968561
 20
-111.9544158053447
 30
0.0
  0
SEQEND
  5
D4
330
D1
100
AcDbEntity
  8
_U+30EC_U+30A4_U+30E4_U+30FC 1
 62
     7
420
 16777215
370
     9
  0
SPLINE
  5
D5
330
1F
100
AcDbEntity
  8
_U+30EC_U+30A4_U+30E4_U+30FC 1
 62
     7
420
 16777215
370
     9
100
AcDbSpline
210
0.0
220
0.0
230
1.0
 70
    11
 71
     3
 72
    17
 73
    13
 74
     0
 42
0.0000000001
 43
0.0000000001
 12
1.0
 22
0.0
 32
0.0
 13
1.0
 23
0.0
 33
0.0
 40
0.0
 40
0.0
 40
0.0
 40
0.0
 40
1.0
 40
1.0
 40
1.0
 40
2.0
 40
2.0
 40
2.0
 40
3.0
 40
3.0
 40
3.0
 40
4.0
 40
4.0
 40
4.0
 40
4.0
 10
95.15457118351576
 20
-113.0123963606357
 30
0.0
 10
95.15457118351576
 20
-112.9572571939829
 30
0.0
 10
95.10976840688099
 20
-112.912489693994
 30
0.0
 10
95.05466451939792
 20
-112.912489693994
 30
0.0
 10
94.99952775402821
 20
-112.912489693994
 30
0.0
 10
94.95475785528008
 20
-112.9572571939829
 30
0.0
 10
94.95475785528008
 20
-113.0123963606357
 30
0.0
 10
94.95475785528008
 20
-113.0675002495109
 30
0.0
 10
94.99952775402821
 20
-113.1123030272776
 30
0.0
 10
95.05466451939792
 20
-113.1123030272776
 30
0.0
 10
95.10976840688099
 20
-113.1123030272776
 30
0.0
 10
95.15457118351576
 20
-113.0675002495109
 30
0.0
 10
95.15457118351576
 20
-113.0123963606357
 30
0.0
  0
SPLINE
  5
D6
330
1F
100
AcDbEntity
  8
_U+30EC_U+30A4_U+30E4_U+30FC 1
 62
     7
420
 16777215
370
     9
100
AcDbSpline
210
0.0
220
0.0
230
1.0
 70
    11
 71
     3
 72
    17
 73
    13
 74
     0
 42
0.0000000001
 43
0.0000000001
 12
1.0
 22
0.0
 32
0.0
 13
1.0
 23
0.0
 33
0.0
 40
0.0
 40
0.0
 40
0.0
 40
0.0
 40
1.0
 40
1.0
 40
1.0
 40
2.0
 40
2.0
 40
2.0
 40
3.0
 40
3.0
 40
3.0
 40
4.0
 40
4.0
 40
4.0
 40
4.0
 10
88.65333551604276
 20
-113.0123963606357
 30
0.0
 10
88.65333551604276
 20
-112.9572571939829
 30
0.0
 10
88.60853273940799
 20
-112.912489693994
 30
0.0
 10
88.55342885192492
 20
-112.912489693994
 30
0.0
 10
88.49828968666498
 20
-112.912489693994
 30
0.0
 10
88.4535221878071
 20
-112.9572571939829
 30
0.0
 10
88.4535221878071
 20
-113.0123963606357
 30
0.0
 10
88.4535221878071
 20
-113.0675002495109
 30
0.0
 10
88.49828968666498
 20
-113.1123030272776
 30
0.0
 10
88.55342885192492
 20
-113.1123030272776
 30
0.0
 10
88.60853273940799
 20
-113.1123030272776
 30
0.0
 10
88.65333551604276
 20
-113.0675002495109
 30
0.0
 10
88.65333551604276
 20
-113.0123963606357
 30
0.0
  0
POLYLINE
  5
D7
330
1F
100
AcDbEntity
  8
_U+30EC_U+30A4_U+30E4_U+30FC 1
 62
     7
420
 16777215
370
     9
100
AcDb2dPolyline
 66
     1
 10
0.0
 20
0.0
 30
0.0
  0
VERTEX
  5
D8
330
D7
100
AcDbEntity
  8
_U+30EC_U+30A4_U+30E4_U+30FC 1
 62
     7
420
 16777215
370
     9
100
AcDbVertex
100
AcDb2dVertex
 10
88.55342885192492
 20
-113.0123963606357
 30
0.0
  0
VERTEX
  5
D9
330
D7
100
AcDbEntity
  8
_U+30EC_U+30A4_U+30E4_U+30FC 1
 62
     7
420
 16777215
370
     9
100
AcDbVertex
100
AcDb2dVertex
 10
95.05293590833091
 20
-113.0123963606357
 30
0.0
  0
SEQEND
  5
DA
330
D7
100
AcDbEntity
  8
_U+30EC_U+30A4_U+30E4_U+30FC 1
 62
     7
420
 16777215
370
     9
  0
ENDSEC
  0
SECTION
  2
OBJECTS
  0
DICTIONARY
  5
C
330
0
100
AcDbDictionary
281
     1
  3
ACAD_GROUP
350
D
  3
ACAD_LAYOUT
350
1A
  3
ACAD_MATERIAL
350
3B
  3
ACAD_MLEADERSTYLE
350
DC
  3
ACAD_MLINESTYLE
350
17
  3
ACAD_PLOTSETTINGS
350
19
  3
ACAD_PLOTSTYLENAME
350
E
  3
ACAD_TABLESTYLE
350
DB
  3
ACAD_VISUALSTYLE
350
2A
  0
SUN
  5
3F
330
29
100
AcDbSun
 90
        1
290
     0
 63
     7
421
 16777215
 40
1.0
291
     1
 91
  2455826
 92
 54000000
292
     0
 70
     2
 71
   256
280
     1
  0
DICTIONARY
  5
D
102
{ACAD_REACTORS
330
C
102
}
330
C
100
AcDbDictionary
281
     1
  0
DICTIONARY
  5
1A
102
{ACAD_REACTORS
330
C
102
}
330
C
100
AcDbDictionary
281
     1
  3
Layout1
350
1E
  3
Layout2
350
26
  3
Model
350
22
  0
DICTIONARY
  5
3B
102
{ACAD_REACTORS
330
C
102
}
330
C
100
AcDbDictionary
281
     1
  3
ByBlock
350
3D
  3
ByLayer
350
3C
  3
Global
350
3E
  0
DICTIONARY
  5
DC
102
{ACAD_REACTORS
330
C
102
}
330
C
100
AcDbDictionary
281
     1
  0
DICTIONARY
  5
17
102
{ACAD_REACTORS
330
C
102
}
330
C
100
AcDbDictionary
281
     1
  3
Standard
350
18
  0
DICTIONARY
  5
19
102
{ACAD_REACTORS
330
C
102
}
330
C
100
AcDbDictionary
281
     1
  0
ACDBDICTIONARYWDFLT
  5
E
102
{ACAD_REACTORS
330
C
102
}
330
C
100
AcDbDictionary
281
     1
  3
Normal
350
F
100
AcDbDictionaryWithDefault
340
F
  0
DICTIONARY
  5
DB
102
{ACAD_REACTORS
330
C
102
}
330
C
100
AcDbDictionary
281
     1
  0
DICTIONARY
  5
2A
102
{ACAD_REACTORS
330
C
102
}
330
C
100
AcDbDictionary
281
     1
  3
2dWireframe
350
2F
  3
3D Hidden
350
31
  3
3dWireframe
350
30
  3
Basic
350
32
  3
Brighten
350
36
  3
ColorChange
350
3A
  3
Conceptual
350
34
  3
Dim
350
35
  3
Facepattern
350
39
  3
Flat
350
2B
  3
FlatWithEdges
350
2C
  3
Gouraud
350
2D
  3
GouraudWithEdges
350
2E
  3
Linepattern
350
38
  3
Realistic
350
33
  3
Thicken
350
37
  0
LAYOUT
  5
1E
102
{ACAD_REACTORS
330
1A
102
}
330
1A
100
AcDbPlotSettings
  1

  2
none_device
  4

  6

 40
0.0
 41
0.0
 42
0.0
 43
0.0
 44
0.0
 45
0.0
 46
0.0
 47
0.0
 48
0.0
 49
0.0
140
0.0
141
0.0
142
1.0
143
1.0
 70
   688
 72
     0
 73
     0
 74
     5
  7

 75
    16
 76
     0
 77
     2
 78
   300
147
1.0
148
0.0
149
0.0
100
AcDbLayout
  1
Layout1
 70
     1
 71
     1
 10
0.0
 20
0.0
 11
12.0
 21
9.0
 12
0.0
 22
0.0
 32
0.0
 14
1.000000000000000E+20
 24
1.000000000000000E+20
 34
1.000000000000000E+20
 15
-1.000000000000000E+20
 25
-1.000000000000000E+20
 35
-1.000000000000000E+20
146
0.0
 13
0.0
 23
0.0
 33
0.0
 16
1.0
 26
0.0
 36
0.0
 17
0.0
 27
1.0
 37
0.0
 76
     0
330
1B
  0
LAYOUT
  5
26
102
{ACAD_REACTORS
330
1A
102
}
330
1A
100
AcDbPlotSettings
  1

  2
none_device
  4

  6

 40
0.0
 41
0.0
 42
0.0
 43
0.0
 44
0.0
 45
0.0
 46
0.0
 47
0.0
 48
0.0
 49
0.0
140
0.0
141
0.0
142
1.0
143
1.0
 70
   688
 72
     0
 73
     0
 74
     5
  7

 75
    16
 76
     0
 77
     2
 78
   300
147
1.0
148
0.0
149
0.0
100
AcDbLayout
  1
Layout2
 70
     1
 71
     2
 10
0.0
 20
0.0
 11
0.0
 21
0.0
 12
0.0
 22
0.0
 32
0.0
 14
0.0
 24
0.0
 34
0.0
 15
0.0
 25
0.0
 35
0.0
146
0.0
 13
0.0
 23
0.0
 33
0.0
 16
1.0
 26
0.0
 36
0.0
 17
0.0
 27
1.0
 37
0.0
 76
     0
330
23
  0
LAYOUT
  5
22
102
{ACAD_REACTORS
330
1A
102
}
330
1A
100
AcDbPlotSettings
  1

  2
none_device
  4

  6

 40
0.0
 41
0.0
 42
0.0
 43
0.0
 44
0.0
 45
0.0
 46
0.0
 47
0.0
 48
0.0
 49
0.0
140
0.0
141
0.0
142
1.0
143
1.0
 70
  1712
 72
     0
 73
     0
 74
     0
  7

 75
     0
 76
     0
 77
     2
 78
   300
147
1.0
148
0.0
149
0.0
100
AcDbLayout
  1
Model
 70
     1
 71
     0
 10
0.0
 20
0.0
 11
12.0
 21
9.0
 12
0.0
 22
0.0
 32
0.0
 14
1.000000000000000E+20
 24
1.000000000000000E+20
 34
1.000000000000000E+20
 15
-1.000000000000000E+20
 25
-1.000000000000000E+20
 35
-1.000000000000000E+20
146
0.0
 13
0.0
 23
0.0
 33
0.0
 16
1.0
 26
0.0
 36
0.0
 17
0.0
 27
1.0
 37
0.0
 76
     0
330
1F
331
29
  0
MATERIAL
  5
3D
102
{ACAD_REACTORS
330
3B
102
}
330
3B
100
AcDbMaterial
  1
ByBlock
 72
     1
 94
      127
  0
MATERIAL
  5
3C
102
{ACAD_REACTORS
330
3B
102
}
330
3B
100
AcDbMaterial
  1
ByLayer
 72
     1
 94
      127
  0
MATERIAL
  5
3E
102
{ACAD_REACTORS
330
3B
102
}
330
3B
100
AcDbMaterial
  1
Global
 72
     1
 94
      127
  0
MLINESTYLE
  5
18
102
{ACAD_REACTORS
330
17
102
}
330
17
100
AcDbMlineStyle
  2
Standard
 70
     0
  3

 62
   256
 51
90.0
 52
90.0
 71
     2
 49
0.5
 62
   256
  6
BYLAYER
 49
-0.5
 62
   256
  6
BYLAYER
  0
ACDBPLACEHOLDER
  5
F
102
{ACAD_REACTORS
330
E
102
}
330
E
  0
VISUALSTYLE
  5
2F
102
{ACAD_REACTORS
330
2A
102
}
330
2A
100
AcDbVisualStyle
  2
2dWireframe
 70
     4
177
     2
291
     0
 71
     0
176
     1
 72
     2
176
     1
 73
     0
176
     1
 90
        0
176
     1
 40
-0.6
176
     1
 41
-30.0
176
     1
 62
     5
 63
     7
421
 16777215
176
     1
 74
     1
176
     1
 91
        4
176
     1
 64
     7
176
     1
 65
   257
176
     1
 75
     1
176
     1
175
     1
176
     1
 42
1.0
176
     1
 92
        0
176
     1
 66
   257
176
     1
 43
1.0
176
     1
 76
     1
176
     1
 77
     6
176
     1
 78
     2
176
     1
 67
     7
176
     1
 79
     5
176
     1
170
     0
176
     1
171
     0
176
     1
290
     0
176
     1
 93
        1
176
     1
 44
0.0
176
     1
173
     0
176
     1
  0
VISUALSTYLE
  5
31
102
{ACAD_REACTORS
330
2A
102
}
330
2A
100
AcDbVisualStyle
  2
3D Hidden
 70
     6
177
     2
291
     0
 71
     1
176
     1
 72
     2
176
     1
 73
     2
176
     1
 90
        0
176
     1
 40
-0.6
176
     1
 41
-30.0
176
     1
 62
     5
 63
     7
421
 16777215
176
     1
 74
     2
176
     1
 91
        2
176
     1
 64
     7
176
     1
 65
   257
176
     1
 75
     2
176
     1
175
     1
176
     1
 42
40.0
176
     1
 92
        0
176
     1
 66
   257
176
     1
 43
1.0
176
     1
 76
     1
176
     1
 77
     6
176
     1
 78
     2
176
     1
 67
     7
176
     1
 79
     3
176
     1
170
     0
176
     1
171
     0
176
     1
290
     0
176
     1
 93
        1
176
     1
 44
0.0
176
     1
173
     0
176
     1
  0
VISUALSTYLE
  5
30
102
{ACAD_REACTORS
330
2A
102
}
330
2A
100
AcDbVisualStyle
  2
3dWireframe
 70
     5
177
     2
291
     0
 71
     0
176
     1
 72
     2
176
     1
 73
     0
176
     1
 90
        0
176
     1
 40
-0.6
176
     1
 41
-30.0
176
     1
 62
     5
 63
     7
421
 16777215
176
     1
 74
     1
176
     1
 91
        4
176
     1
 64
     7
176
     1
 65
   257
176
     1
 75
     1
176
     1
175
     1
176
     1
 42
1.0
176
     1
 92
        0
176
     1
 66
   257
176
     1
 43
1.0
176
     1
 76
     1
176
     1
 77
     6
176
     1
 78
     2
176
     1
 67
     7
176
     1
 79
     5
176
     1
170
     0
176
     1
171
     0
176
     1
290
     0
176
     1
 93
        1
176
     1
 44
0.0
176
     1
173
     0
176
     1
  0
VISUALSTYLE
  5
32
102
{ACAD_REACTORS
330
2A
102
}
330
2A
100
AcDbVisualStyle
  2
Basic
 70
     7
177
     2
291
     1
 71
     1
176
     1
 72
     0
176
     1
 73
     1
176
     1
 90
        0
176
     1
 40
-0.6
176
     1
 41
-30.0
176
     1
 62
     5
 63
     7
421
 16777215
176
     1
 74
     0
176
     1
 91
        4
176
     1
 64
     7
176
     1
 65
   257
176
     1
 75
     1
176
     1
175
     1
176
     1
 42
1.0
176
     1
 92
        8
176
     1
 66
     7
176
     1
 43
1.0
176
     1
 76
     1
176
     1
 77
     6
176
     1
 78
     2
176
     1
 67
     7
176
     1
 79
     5
176
     1
170
     0
176
     1
171
     0
176
     1
290
     0
176
     1
 93
        1
176
     1
 44
0.0
176
     1
173
     0
176
     1
  0
VISUALSTYLE
  5
36
102
{ACAD_REACTORS
330
2A
102
}
330
2A
100
AcDbVisualStyle
  2
Brighten
 70
    12
177
     2
291
     1
 71
     2
176
     1
 72
     2
176
     1
 73
     0
176
     1
 90
        0
176
     1
 40
-0.6
176
     1
 41
-30.0
176
     1
 62
     5
 63
     7
421
 16777215
176
     1
 74
     1
176
     1
 91
        4
176
     1
 64
     7
176
     1
 65
   257
176
     1
 75
     1
176
     1
175
     1
176
     1
 42
1.0
176
     1
 92
        8
176
     1
 66
     7
176
     1
 43
1.0
176
     1
 76
     1
176
     1
 77
     6
176
     1
 78
     2
176
     1
 67
     7
176
     1
 79
     5
176
     1
170
     0
176
     1
171
     0
176
     1
290
     0
176
     1
 93
        1
176
     1
 44
50.0
176
     1
173
     0
176
     1
  0
VISUALSTYLE
  5
3A
102
{ACAD_REACTORS
330
2A
102
}
330
2A
100
AcDbVisualStyle
  2
ColorChange
 70
    16
177
     2
291
     1
 71
     2
176
     1
 72
     2
176
     1
 73
     3
176
     1
 90
        0
176
     1
 40
-0.6
176
     1
 41
-30.0
176
     1
 62
     5
 63
     8
421
  8421504
176
     1
 74
     1
176
     1
 91
        4
176
     1
 64
     7
176
     1
 65
   257
176
     1
 75
     1
176
     1
175
     1
176
     1
 42
1.0
176
     1
 92
        8
176
     1
 66
     8
424
  8421504
176
     1
 43
1.0
176
     1
 76
     1
176
     1
 77
     6
176
     1
 78
     2
176
     1
 67
     7
176
     1
 79
     5
176
     1
170
     0
176
     1
171
     0
176
     1
290
     0
176
     1
 93
        1
176
     1
 44
0.0
176
     1
173
     0
176
     1
  0
VISUALSTYLE
  5
34
102
{ACAD_REACTORS
330
2A
102
}
330
2A
100
AcDbVisualStyle
  2
Conceptual
 70
     9
177
     2
291
     0
 71
     3
176
     1
 72
     2
176
     1
 73
     0
176
     1
 90
        0
176
     1
 40
-0.6
176
     1
 41
-30.0
176
     1
 62
     5
 63
     7
421
 16777215
176
     1
 74
     2
176
     1
 91
        2
176
     1
 64
     7
176
     1
 65
   257
176
     1
 75
     1
176
     1
175
     1
176
     1
 42
40.0
176
     1
 92
        8
176
     1
 66
     7
176
     1
 43
1.0
176
     1
 76
     1
176
     1
 77
     6
176
     1
 78
     2
176
     1
 67
     7
176
     1
 79
     3
176
     1
170
     0
176
     1
171
     0
176
     1
290
     0
176
     1
 93
        1
176
     1
 44
0.0
176
     1
173
     0
176
     1
  0
VISUALSTYLE
  5
35
102
{ACAD_REACTORS
330
2A
102
}
330
2A
100
AcDbVisualStyle
  2
Dim
 70
    11
177
     2
291
     1
 71
     2
176
     1
 72
     2
176
     1
 73
     0
176
     1
 90
        0
176
     1
 40
-0.6
176
     1
 41
-30.0
176
     1
 62
     5
 63
     7
421
 16777215
176
     1
 74
     1
176
     1
 91
        4
176
     1
 64
     7
176
     1
 65
   257
176
     1
 75
     1
176
     1
175
     1
176
     1
 42
1.0
176
     1
 92
        8
176
     1
 66
     7
176
     1
 43
1.0
176
     1
 76
     1
176
     1
 77
     6
176
     1
 78
     2
176
     1
 67
     7
176
     1
 79
     5
176
     1
170
     0
176
     1
171
     0
176
     1
290
     0
176
     1
 93
        1
176
     1
 44
-50.0
176
     1
173
     0
176
     1
  0
VISUALSTYLE
  5
39
102
{ACAD_REACTORS
330
2A
102
}
330
2A
100
AcDbVisualStyle
  2
Facepattern
 70
    15
177
     2
291
     1
 71
     2
176
     1
 72
     2
176
     1
 73
     0
176
     1
 90
        0
176
     1
 40
-0.6
176
     1
 41
-30.0
176
     1
 62
     5
 63
     7
421
 16777215
176
     1
 74
     1
176
     1
 91
        4
176
     1
 64
     7
176
     1
 65
   257
176
     1
 75
     1
176
     1
175
     1
176
     1
 42
1.0
176
     1
 92
        8
176
     1
 66
     7
176
     1
 43
1.0
176
     1
 76
     1
176
     1
 77
     6
176
     1
 78
     2
176
     1
 67
     7
176
     1
 79
     5
176
     1
170
     0
176
     1
171
     0
176
     1
290
     0
176
     1
 93
        1
176
     1
 44
0.0
176
     1
173
     0
176
     1
  0
VISUALSTYLE
  5
2B
102
{ACAD_REACTORS
330
2A
102
}
330
2A
100
AcDbVisualStyle
  2
Flat
 70
     0
177
     2
291
     1
 71
     2
176
     1
 72
     1
176
     1
 73
     1
176
     1
 90
        2
176
     1
 40
-0.6
176
     1
 41
30.0
176
     1
 62
     5
 63
     7
421
 16777215
176
     1
 74
     0
176
     1
 91
        4
176
     1
 64
     7
176
     1
 65
   257
176
     1
 75
     1
176
     1
175
     1
176
     1
 42
1.0
176
     1
 92
        8
176
     1
 66
     7
176
     1
 43
1.0
176
     1
 76
     1
176
     1
 77
     6
176
     1
 78
     2
176
     1
 67
     7
176
     1
 79
     5
176
     1
170
     0
176
     1
171
     0
176
     1
290
     0
176
     1
 93
       13
176
     1
 44
0.0
176
     1
173
     0
176
     1
  0
VISUALSTYLE
  5
2C
102
{ACAD_REACTORS
330
2A
102
}
330
2A
100
AcDbVisualStyle
  2
FlatWithEdges
 70
     1
177
     2
291
     1
 71
     2
176
     1
 72
     1
176
     1
 73
     1
176
     1
 90
        2
176
     1
 40
-0.6
176
     1
 41
30.0
176
     1
 62
     5
 63
     7
421
 16777215
176
     1
 74
     1
176
     1
 91
        4
176
     1
 64
     7
176
     1
 65
   257
176
     1
 75
     1
176
     1
175
     1
176
     1
 42
1.0
176
     1
 92
        0
176
     1
 66
   257
176
     1
 43
1.0
176
     1
 76
     1
176
     1
 77
     6
176
     1
 78
     2
176
     1
 67
     7
176
     1
 79
     5
176
     1
170
     0
176
     1
171
     0
176
     1
290
     0
176
     1
 93
       13
176
     1
 44
0.0
176
     1
173
     0
176
     1
  0
VISUALSTYLE
  5
2D
102
{ACAD_REACTORS
330
2A
102
}
330
2A
100
AcDbVisualStyle
  2
Gouraud
 70
     2
177
     2
291
     1
 71
     2
176
     1
 72
     2
176
     1
 73
     1
176
     1
 90
        2
176
     1
 40
-0.6
176
     1
 41
30.0
176
     1
 62
     5
 63
     7
421
 16777215
176
     1
 74
     0
176
     1
 91
        4
176
     1
 64
     7
176
     1
 65
   257
176
     1
 75
     1
176
     1
175
     1
176
     1
 42
1.0
176
     1
 92
        0
176
     1
 66
     7
176
     1
 43
1.0
176
     1
 76
     1
176
     1
 77
     6
176
     1
 78
     2
176
     1
 67
     7
176
     1
 79
     5
176
     1
170
     0
176
     1
171
     0
176
     1
290
     0
176
     1
 93
       13
176
     1
 44
0.0
176
     1
173
     0
176
     1
  0
VISUALSTYLE
  5
2E
102
{ACAD_REACTORS
330
2A
102
}
330
2A
100
AcDbVisualStyle
  2
GouraudWithEdges
 70
     3
177
     2
291
     1
 71
     2
176
     1
 72
     2
176
     1
 73
     1
176
     1
 90
        2
176
     1
 40
-0.6
176
     1
 41
30.0
176
     1
 62
     5
 63
     7
421
 16777215
176
     1
 74
     1
176
     1
 91
        4
176
     1
 64
     7
176
     1
 65
   257
176
     1
 75
     1
176
     1
175
     1
176
     1
 42
1.0
176
     1
 92
        0
176
     1
 66
   257
176
     1
 43
1.0
176
     1
 76
     1
176
     1
 77
     6
176
     1
 78
     2
176
     1
 67
     7
176
     1
 79
     5
176
     1
170
     0
176
     1
171
     0
176
     1
290
     0
176
     1
 93
       13
176
     1
 44
0.0
176
     1
173
     0
176
     1
  0
VISUALSTYLE
  5
38
102
{ACAD_REACTORS
330
2A
102
}
330
2A
100
AcDbVisualStyle
  2
Linepattern
 70
    14
177
     2
291
     1
 71
     2
176
     1
 72
     2
176
     1
 73
     0
176
     1
 90
        0
176
     1
 40
-0.6
176
     1
 41
-30.0
176
     1
 62
     5
 63
     7
421
 16777215
176
     1
 74
     1
176
     1
 91
        4
176
     1
 64
     7
176
     1
 65
   257
176
     1
 75
     7
176
     1
175
     7
176
     1
 42
1.0
176
     1
 92
        8
176
     1
 66
     7
176
     1
 43
1.0
176
     1
 76
     1
176
     1
 77
     6
176
     1
 78
     2
176
     1
 67
     7
176
     1
 79
     5
176
     1
170
     0
176
     1
171
     0
176
     1
290
     0
176
     1
 93
        1
176
     1
 44
0.0
176
     1
173
     0
176
     1
  0
VISUALSTYLE
  5
33
102
{ACAD_REACTORS
330
2A
102
}
330
2A
100
AcDbVisualStyle
  2
Realistic
 70
     8
177
     2
291
     0
 71
     2
176
     1
 72
     2
176
     1
 73
     0
176
     1
 90
        0
176
     1
 40
-0.6
176
     1
 41
-30.0
176
     1
 62
     5
 63
     7
421
 16777215
176
     1
 74
     1
176
     1
 91
        0
176
     1
 64
     7
176
     1
 65
   257
176
     1
 75
     1
176
     1
175
     1
176
     1
 42
1.0
176
     1
 92
        8
176
     1
 66
     8
424
  7895160
176
     1
 43
1.0
176
     1
 76
     1
176
     1
 77
     6
176
     1
 78
     2
176
     1
 67
     7
176
     1
 79
     5
176
     1
170
     0
176
     1
171
     0
176
     1
290
     0
176
     1
 93
       13
176
     1
 44
0.0
176
     1
173
     0
176
     1
  0
VISUALSTYLE
  5
37
102
{ACAD_REACTORS
330
2A
102
}
330
2A
100
AcDbVisualStyle
  2
Thicken
 70
    13
177
     2
291
     1
 71
     2
176
     1
 72
     2
176
     1
 73
     0
176
     1
 90
        0
176
     1
 40
-0.6
176
     1
 41
-30.0
176
     1
 62
     5
 63
     7
421
 16777215
176
     1
 74
     1
176
     1
 91
        4
176
     1
 64
     7
176
     1
 65
   257
176
     1
 75
     1
176
     1
175
     1
176
     1
 42
1.0
176
     1
 92
       12
176
     1
 66
     7
176
     1
 43
1.0
176
     1
 76
     1
176
     1
 77
     6
176
     1
 78
     2
176
     1
 67
     7
176
     1
 79
     5
176
     1
170
     0
176
     1
171
     0
176
     1
290
     0
176
     1
 93
        1
176
     1
 44
0.0
176
     1
173
     0
176
     1
  0
ENDSEC
  0
EOF
