  0
SECTION
  2
HEADER
  9
$ACADVER
  1
AC1024
  9
$ACADMAINTVER
 70
     6
  9
$DWGCODEPAGE
  3
UNDEFINED
  9
$INSBASE
 10
0.0
 20
0.0
 30
0.0
  9
$EXTMIN
 10
1.000000000000000E+20
 20
1.000000000000000E+20
 30
1.000000000000000E+20
  9
$EXTMAX
 10
-1.000000000000000E+20
 20
-1.000000000000000E+20
 30
-1.000000000000000E+20
  9
$LIMMIN
 10
0.0
 20
0.0
  9
$LIMMAX
 10
12.0
 20
9.0
  9
$ORTHOMODE
 70
     0
  9
$REGENMODE
 70
     1
  9
$FILLMODE
 70
     1
  9
$QTEXTMODE
 70
     0
  9
$MIRRTEXT
 70
     1
  9
$LTSCALE
 40
1.0
  9
$ATTMODE
 70
     1
  9
$TEXTSIZE
 40
0.2
  9
$TRACEWID
 40
0.05
  9
$TEXTSTYLE
  7
Standard
  9
$CLAYER
  8
0
  9
$CELTYPE
  6
ByLayer
  9
$CECOLOR
 62
   256
  9
$CELTSCALE
 40
1.0
  9
$DISPSILH
 70
     0
  9
$DIMSCALE
 40
1.0
  9
$DIMASZ
 40
0.18
  9
$DIMEXO
 40
0.0625
  9
$DIMDLI
 40
0.38
  9
$DIMRND
 40
0.0
  9
$DIMDLE
 40
0.0
  9
$DIMEXE
 40
0.18
  9
$DIMTP
 40
0.0
  9
$DIMTM
 40
0.0
  9
$DIMTXT
 40
0.18
  9
$DIMCEN
 40
0.09
  9
$DIMTSZ
 40
0.0
  9
$DIMTOL
 70
     0
  9
$DIMLIM
 70
     0
  9
$DIMTIH
 70
     1
  9
$DIMTOH
 70
     1
  9
$DIMSE1
 70
     0
  9
$DIMSE2
 70
     0
  9
$DIMTAD
 70
     0
  9
$DIMZIN
 70
     0
  9
$DIMBLK
  1

  9
$DIMASO
 70
     1
  9
$DIMSHO
 70
     1
  9
$DIMPOST
  1

  9
$DIMAPOST
  1

  9
$DIMALT
 70
     0
  9
$DIMALTD
 70
     2
  9
$DIMALTF
 40
25.4
  9
$DIMLFAC
 40
1.0
  9
$DIMTOFL
 70
     0
  9
$DIMTVP
 40
0.0
  9
$DIMTIX
 70
     0
  9
$DIMSOXD
 70
     0
  9
$DIMSAH
 70
     0
  9
$DIMBLK1
  1

  9
$DIMBLK2
  1

  9
$DIMSTYLE
  2
Standard
  9
$DIMCLRD
 70
     0
  9
$DIMCLRE
 70
     0
  9
$DIMCLRT
 70
     0
  9
$DIMTFAC
 40
1.0
  9
$DIMGAP
 40
0.09
  9
$DIMJUST
 70
     0
  9
$DIMSD1
 70
     0
  9
$DIMSD2
 70
     0
  9
$DIMTOLJ
 70
     1
  9
$DIMTZIN
 70
     0
  9
$DIMALTZ
 70
     0
  9
$DIMALTTZ
 70
     0
  9
$DIMUPT
 70
     0
  9
$DIMDEC
 70
     4
  9
$DIMTDEC
 70
     4
  9
$DIMALTU
 70
     2
  9
$DIMALTTD
 70
     2
  9
$DIMTXSTY
  7
Standard
  9
$DIMAUNIT
 70
     0
  9
$DIMADEC
 70
     0
  9
$DIMALTRND
 40
0.0
  9
$DIMAZIN
 70
     0
  9
$DIMDSEP
 70
    46
  9
$DIMATFIT
 70
     3
  9
$DIMFRAC
 70
     0
  9
$DIMLDRBLK
  1

  9
$DIMLUNIT
 70
     2
  9
$DIMLWD
 70
    -2
  9
$DIMLWE
 70
    -2
  9
$DIMTMOVE
 70
     0
  9
$DIMFXL
 40
1.0
  9
$DIMFXLON
 70
     0
  9
$DIMJOGANG
 40
0.7853981633974483
  9
$DIMTFILL
 70
     0
  9
$DIMTFILLCLR
 70
     0
  9
$DIMARCSYM
 70
     0
  9
$DIMLTYPE
  6

  9
$DIMLTEX1
  6

  9
$DIMLTEX2
  6

  9
$DIMTXTDIRECTION
 70
     0
  9
$LUNITS
 70
     2
  9
$LUPREC
 70
     4
  9
$SKETCHINC
 40
0.1
  9
$FILLETRAD
 40
0.5
  9
$AUNITS
 70
     0
  9
$AUPREC
 70
     0
  9
$MENU
  1
.
  9
$ELEVATION
 40
0.0
  9
$PELEVATION
 40
0.0
  9
$THICKNESS
 40
0.0
  9
$LIMCHECK
 70
     0
  9
$CHAMFERA
 40
0.5
  9
$CHAMFERB
 40
0.5
  9
$CHAMFERC
 40
1.0
  9
$CHAMFERD
 40
0.0
  9
$SKPOLY
 70
     0
  9
$TDCREATE
 40
2457917.632071748
  9
$TDUCREATE
 40
2457917.257071759
  9
$TDUPDATE
 40
2457917.632071748
  9
$TDUUPDATE
 40
2457917.257071759
  9
$TDINDWG
 40
0.0000000116
  9
$TDUSRTIMER
 40
0.0000000116
  9
$USRTIMER
 70
     1
  9
$ANGBASE
 50
0.0
  9
$ANGDIR
 70
     0
  9
$PDMODE
 70
     0
  9
$PDSIZE
 40
0.0
  9
$PLINEWID
 40
0.0
  9
$SPLFRAME
 70
     0
  9
$SPLINETYPE
 70
     6
  9
$SPLINESEGS
 70
     8
  9
$HANDSEED
  5
D2
  9
$SURFTAB1
 70
     6
  9
$SURFTAB2
 70
     6
  9
$SURFTYPE
 70
     6
  9
$SURFU
 70
     6
  9
$SURFV
 70
     6
  9
$UCSBASE
  2

  9
$UCSNAME
  2

  9
$UCSORG
 10
0.0
 20
0.0
 30
0.0
  9
$UCSXDIR
 10
1.0
 20
0.0
 30
0.0
  9
$UCSYDIR
 10
0.0
 20
1.0
 30
0.0
  9
$UCSORTHOREF
  2

  9
$UCSORTHOVIEW
 70
     0
  9
$UCSORGTOP
 10
0.0
 20
0.0
 30
0.0
  9
$UCSORGBOTTOM
 10
0.0
 20
0.0
 30
0.0
  9
$UCSORGLEFT
 10
0.0
 20
0.0
 30
0.0
  9
$UCSORGRIGHT
 10
0.0
 20
0.0
 30
0.0
  9
$UCSORGFRONT
 10
0.0
 20
0.0
 30
0.0
  9
$UCSORGBACK
 10
0.0
 20
0.0
 30
0.0
  9
$PUCSBASE
  2

  9
$PUCSNAME
  2

  9
$PUCSORG
 10
0.0
 20
0.0
 30
0.0
  9
$PUCSXDIR
 10
1.0
 20
0.0
 30
0.0
  9
$PUCSYDIR
 10
0.0
 20
1.0
 30
0.0
  9
$PUCSORTHOREF
  2

  9
$PUCSORTHOVIEW
 70
     0
  9
$PUCSORGTOP
 10
0.0
 20
0.0
 30
0.0
  9
$PUCSORGBOTTOM
 10
0.0
 20
0.0
 30
0.0
  9
$PUCSORGLEFT
 10
0.0
 20
0.0
 30
0.0
  9
$PUCSORGRIGHT
 10
0.0
 20
0.0
 30
0.0
  9
$PUCSORGFRONT
 10
0.0
 20
0.0
 30
0.0
  9
$PUCSORGBACK
 10
0.0
 20
0.0
 30
0.0
  9
$USERI1
 70
     0
  9
$USERI2
 70
     0
  9
$USERI3
 70
     0
  9
$USERI4
 70
     0
  9
$USERI5
 70
     0
  9
$USERR1
 40
0.0
  9
$USERR2
 40
0.0
  9
$USERR3
 40
0.0
  9
$USERR4
 40
0.0
  9
$USERR5
 40
0.0
  9
$WORLDVIEW
 70
     1
  9
$SHADEDGE
 70
     3
  9
$SHADEDIF
 70
    70
  9
$TILEMODE
 70
     1
  9
$MAXACTVP
 70
    64
  9
$PINSBASE
 10
0.0
 20
0.0
 30
0.0
  9
$PLIMCHECK
 70
     0
  9
$PEXTMIN
 10
1.000000000000000E+20
 20
1.000000000000000E+20
 30
1.000000000000000E+20
  9
$PEXTMAX
 10
-1.000000000000000E+20
 20
-1.000000000000000E+20
 30
-1.000000000000000E+20
  9
$PLIMMIN
 10
0.0
 20
0.0
  9
$PLIMMAX
 10
12.0
 20
9.0
  9
$UNITMODE
 70
     0
  9
$VISRETAIN
 70
     1
  9
$PLINEGEN
 70
     0
  9
$PSLTSCALE
 70
     1
  9
$TREEDEPTH
 70
  3020
  9
$CMLSTYLE
  2
Standard
  9
$CMLJUST
 70
     0
  9
$CMLSCALE
 40
1.0
  9
$PROXYGRAPHICS
 70
     1
  9
$MEASUREMENT
 70
     0
  9
$CELWEIGHT
370
    -1
  9
$ENDCAPS
280
     0
  9
$JOINSTYLE
280
     0
  9
$LWDISPLAY
290
     1
  9
$INSUNITS
 70
     1
  9
$HYPERLINKBASE
  1

  9
$STYLESHEET
  1

  9
$XEDIT
290
     1
  9
$CEPSNTYPE
380
     0
  9
$PSTYLEMODE
290
     1
  9
$FINGERPRINTGUID
  2
{25D5879B-5B2B-D958-0D30-FEAF7B12F002}
  9
$VERSIONGUID
  2
{FAEB1C32-E019-11D5-929B-00C0DF256EC4}
  9
$EXTNAMES
290
     1
  9
$PSVPSCALE
 40
0.0
  9
$OLESTARTUP
290
     0
  9
$SORTENTS
280
   127
  9
$INDEXCTL
280
     0
  9
$HIDETEXT
280
     1
  9
$XCLIPFRAME
280
     2
  9
$HALOGAP
280
     0
  9
$OBSCOLOR
 70
   257
  9
$OBSLTYPE
280
     0
  9
$INTERSECTIONDISPLAY
280
     0
  9
$INTERSECTIONCOLOR
 70
   257
  9
$DIMASSOC
280
     2
  9
$PROJECTNAME
  1

  9
$CAMERADISPLAY
290
     0
  9
$LENSLENGTH
 40
50.0
  9
$CAMERAHEIGHT
 40
0.0
  9
$STEPSPERSEC
 40
2.0
  9
$STEPSIZE
 40
6.0
  9
$3DDWFPREC
 40
2.0
  9
$PSOLWIDTH
 40
0.25
  9
$PSOLHEIGHT
 40
4.0
  9
$LOFTANG1
 40
1.570796326794897
  9
$LOFTANG2
 40
1.570796326794897
  9
$LOFTMAG1
 40
0.0
  9
$LOFTMAG2
 40
0.0
  9
$LOFTPARAM
 70
     7
  9
$LOFTNORMALS
280
     1
  9
$LATITUDE
 40
37.795
  9
$LONGITUDE
 40
-122.394
  9
$NORTHDIRECTION
 40
0.0
  9
$TIMEZONE
 70
 -8000
  9
$LIGHTGLYPHDISPLAY
280
     1
  9
$TILEMODELIGHTSYNCH
280
     1
  9
$CMATERIAL
347
3C
  9
$SOLIDHIST
280
     1
  9
$SHOWHIST
280
     1
  9
$DWFFRAME
280
     2
  9
$DGNFRAME
280
     2
  9
$REALWORLDSCALE
290
     1
  9
$INTERFERECOLOR
 62
   256
  9
$CSHADOW
280
     0
  9
$SHADOWPLANELOCATION
 40
0.0
  0
ENDSEC
  0
SECTION
  2
CLASSES
  0
CLASS
  1
ACDBDICTIONARYWDFLT
  2
AcDbDictionaryWithDefault
  3
ObjectDBX Classes
 90
        0
 91
        4
280
     0
281
     0
  0
CLASS
  1
VISUALSTYLE
  2
AcDbVisualStyle
  3
ObjectDBX Classes
 90
     4095
 91
        4
280
     0
281
     0
  0
CLASS
  1
MATERIAL
  2
AcDbMaterial
  3
ObjectDBX Classes
 90
     1153
 91
        4
280
     0
281
     0
  0
CLASS
  1
SUN
  2
AcDbSun
  3
SCENEOE
 90
     1024
 91
        4
280
     0
281
     0
  0
ENDSEC
  0
SECTION
  2
TABLES
  0
TABLE
  2
VPORT
  5
8
330
0
100
AcDbSymbolTable
 70
     1
  0
VPORT
  5
29
330
8
100
AcDbSymbolTableRecord
100
AcDbViewportTableRecord
  2
*Active
 70
     0
 10
0.0
 20
0.0
 11
1.0
 21
1.0
 12
0.0
 22
0.0
 13
0.0
 23
0.0
 14
0.5
 24
0.5
 15
0.5
 25
0.5
 16
0.0
 26
0.0
 36
1.0
 17
91.00082462281999
 27
-128.4993055234307
 37
0.0
 40
256.9986110468615
 41
0.7081814508812795
 42
50.0
 43
0.0
 44
0.0
 50
0.0
 51
0.0
 71
     0
 72
   100
 73
     1
 74
     3
 75
     0
 76
     0
 77
     0
 78
     0
281
     0
 65
     1
110
0.0
120
0.0
130
0.0
111
1.0
121
0.0
131
0.0
112
0.0
122
1.0
132
0.0
 79
     0
146
0.0
 60
     3
 61
     5
292
     1
282
     1
141
0.0
142
0.0
 63
   250
361
3F
  0
ENDTAB
  0
TABLE
  2
LTYPE
  5
5
330
0
100
AcDbSymbolTable
 70
     1
  0
LTYPE
  5
14
330
5
100
AcDbSymbolTableRecord
100
AcDbLinetypeTableRecord
  2
ByBlock
 70
     0
  3

 72
    65
 73
     0
 40
0.0
  0
LTYPE
  5
15
330
5
100
AcDbSymbolTableRecord
100
AcDbLinetypeTableRecord
  2
ByLayer
 70
     0
  3

 72
    65
 73
     0
 40
0.0
  0
LTYPE
  5
16
330
5
100
AcDbSymbolTableRecord
100
AcDbLinetypeTableRecord
  2
Continuous
 70
     0
  3
Solid line
 72
    65
 73
     0
 40
0.0
  0
ENDTAB
  0
TABLE
  2
LAYER
  5
2
330
0
100
AcDbSymbolTable
 70
     2
  0
LAYER
  5
10
330
2
100
AcDbSymbolTableRecord
100
AcDbLayerTableRecord
  2
0
 70
     0
 62
     7
  6
Continuous
370
    -3
390
F
347
3E
  0
LAYER
  5
40
330
2
100
AcDbSymbolTableRecord
100
AcDbLayerTableRecord
  2
_U+30EC_U+30A4_U+30E4_U+30FC 1
 70
     0
 62
     7
  6
Continuous
370
    -3
390
F
347
3E
  0
ENDTAB
  0
TABLE
  2
STYLE
  5
3
330
0
100
AcDbSymbolTable
 70
     1
  0
STYLE
  5
11
330
3
100
AcDbSymbolTableRecord
100
AcDbTextStyleTableRecord
  2
Standard
 70
     0
 40
0.0
 41
1.0
 50
0.0
 71
     0
 42
0.2
  3
txt
  4

  0
ENDTAB
  0
TABLE
  2
VIEW
  5
6
330
0
100
AcDbSymbolTable
 70
     0
  0
ENDTAB
  0
TABLE
  2
UCS
  5
7
330
0
100
AcDbSymbolTable
 70
     0
  0
ENDTAB
  0
TABLE
  2
APPID
  5
9
330
0
100
AcDbSymbolTable
 70
     1
  0
APPID
  5
12
330
9
100
AcDbSymbolTableRecord
100
AcDbRegAppTableRecord
  2
ACAD
 70
     0
  0
ENDTAB
  0
TABLE
  2
DIMSTYLE
  5
A
330
0
100
AcDbSymbolTable
 70
     1
100
AcDbDimStyleTable
  0
DIMSTYLE
105
27
330
A
100
AcDbSymbolTableRecord
100
AcDbDimStyleTableRecord
  2
Standard
 70
     0
178
     0
340
11
  0
ENDTAB
  0
TABLE
  2
BLOCK_RECORD
  5
1
330
0
100
AcDbSymbolTable
 70
     7
  0
BLOCK_RECORD
  5
1F
330
1
100
AcDbSymbolTableRecord
100
AcDbBlockTableRecord
  2
*Model_Space
340
22
 70
     0
280
     1
281
     0
  0
BLOCK_RECORD
  5
1B
330
1
100
AcDbSymbolTableRecord
100
AcDbBlockTableRecord
  2
*Paper_Space
340
1E
 70
     0
280
     1
281
     0
  0
BLOCK_RECORD
  5
23
330
1
100
AcDbSymbolTableRecord
100
AcDbBlockTableRecord
  2
*Paper_Space0
340
26
 70
     0
280
     1
281
     0
  0
BLOCK_RECORD
  5
53
330
1
100
AcDbSymbolTableRecord
100
AcDbBlockTableRecord
  2
block 2
340
0
102
{BLKREFS
331
54
102
}
 70
     0
280
     1
281
     0
  0
BLOCK_RECORD
  5
67
330
1
100
AcDbSymbolTableRecord
100
AcDbBlockTableRecord
  2
block 3
340
0
102
{BLKREFS
331
68
102
}
 70
     0
280
     1
281
     0
  0
BLOCK_RECORD
  5
7D
330
1
100
AcDbSymbolTableRecord
100
AcDbBlockTableRecord
  2
block 4
340
0
102
{BLKREFS
331
7E
102
}
 70
     0
280
     1
281
     0
  0
BLOCK_RECORD
  5
94
330
1
100
AcDbSymbolTableRecord
100
AcDbBlockTableRecord
  2
block 5
340
0
102
{BLKREFS
331
95
102
}
 70
     0
280
     1
281
     0
  0
BLOCK_RECORD
  5
A9
330
1
100
AcDbSymbolTableRecord
100
AcDbBlockTableRecord
  2
block 6
340
0
102
{BLKREFS
331
AA
102
}
 70
     0
280
     1
281
     0
  0
BLOCK_RECORD
  5
BD
330
1
100
AcDbSymbolTableRecord
100
AcDbBlockTableRecord
  2
block 7
340
0
102
{BLKREFS
331
BE
102
}
 70
     0
280
     1
281
     0
  0
ENDTAB
  0
ENDSEC
  0
SECTION
  2
BLOCKS
  0
BLOCK
  5
20
330
1F
100
AcDbEntity
  8
0
100
AcDbBlockBegin
  2
*Model_Space
 70
     0
 10
0.0
 20
0.0
 30
0.0
  3
*Model_Space
  1

  0
ENDBLK
  5
21
330
1F
100
AcDbEntity
  8
0
100
AcDbBlockEnd
  0
BLOCK
  5
1C
330
1B
100
AcDbEntity
 67
     1
  8
0
100
AcDbBlockBegin
  2
*Paper_Space
 70
     0
 10
0.0
 20
0.0
 30
0.0
  3
*Paper_Space
  1

  0
ENDBLK
  5
1D
330
1B
100
AcDbEntity
 67
     1
  8
0
100
AcDbBlockEnd
  0
BLOCK
  5
24
330
23
100
AcDbEntity
  8
0
100
AcDbBlockBegin
  2
*Paper_Space0
 70
     0
 10
0.0
 20
0.0
 30
0.0
  3
*Paper_Space0
  1

  0
ENDBLK
  5
25
330
23
100
AcDbEntity
  8
0
100
AcDbBlockEnd
  0
BLOCK
  5
55
330
53
100
AcDbEntity
  8
0
100
AcDbBlockBegin
  2
block 2
 70
     0
 10
0.0
 20
0.0
 30
0.0
  3
block 2
  1

  0
SPLINE
  5
57
330
53
100
AcDbEntity
  8
_U+30EC_U+30A4_U+30E4_U+30FC 1
370
     0
100
AcDbSpline
210
0.0
220
0.0
230
1.0
 70
    11
 71
     3
 72
    53
 73
    49
 74
     0
 42
0.0000000001
 43
0.0000000001
 12
1.0
 22
0.0
 32
0.0
 13
1.0
 23
0.0
 33
0.0
 40
0.0
 40
0.0
 40
0.0
 40
0.0
 40
1.0
 40
1.0
 40
1.0
 40
2.0
 40
2.0
 40
2.0
 40
3.0
 40
3.0
 40
3.0
 40
4.0
 40
4.0
 40
4.0
 40
5.0
 40
5.0
 40
5.0
 40
6.0
 40
6.0
 40
6.0
 40
7.0
 40
7.0
 40
7.0
 40
8.0
 40
8.0
 40
8.0
 40
9.0
 40
9.0
 40
9.0
 40
10.0
 40
10.0
 40
10.0
 40
11.0
 40
11.0
 40
11.0
 40
12.0
 40
12.0
 40
12.0
 40
13.0
 40
13.0
 40
13.0
 40
14.0
 40
14.0
 40
14.0
 40
15.0
 40
15.0
 40
15.0
 40
16.0
 40
16.0
 40
16.0
 40
16.0
 10
87.8368435110269
 20
-126.8158596145634
 30
0.0
 10
87.8368435110269
 20
-126.8844170147199
 30
0.0
 10
87.81996254314917
 20
-126.9733004782393
 30
0.0
 10
87.75640053144632
 20
-127.0621839417588
 30
0.0
 10
87.64632973069259
 20
-127.213940397884
 30
0.0
 10
87.51524384747883
 20
-127.2325439135044
 30
0.0
 10
87.40741235879051
 20
-127.2492526266078
 30
0.0
 10
87.40741235879051
 20
-127.2492526266078
 30
0.0
 10
87.40741235879051
 20
-127.0547769864655
 30
0.0
 10
87.40741235879051
 20
-127.0547769864655
 30
0.0
 10
87.60619436828942
 20
-127.006545649672
 30
0.0
 10
87.63582218946257
 20
-126.8956135750469
 30
0.0
 10
87.63582218946257
 20
-126.8139648120465
 30
0.0
 10
87.63582218946257
 20
-126.6918361770944
 30
0.0
 10
87.53643118471312
 20
-126.5585109818152
 30
0.0
 10
87.30371498468449
 20
-126.5585109818152
 30
0.0
 10
87.04774439013043
 20
-126.5585109818152
 30
0.0
 10
86.97798120655412
 20
-126.7159518454912
 30
0.0
 10
86.97798120655412
 20
-126.8215440221141
 30
0.0
 10
86.97798120655412
 20
-126.8492770407703
 30
0.0
 10
86.97798120655412
 20
-126.9733004782393
 30
0.0
 10
87.10700003247672
 20
-127.0509873814317
 30
0.0
 10
87.10700003247672
 20
-127.0509873814317
 30
0.0
 10
87.0878797525336
 20
-127.2048108948481
 30
0.0
 10
87.0878797525336
 20
-127.2048108948481
 30
0.0
 10
87.0878797525336
 20
-127.2048108948481
 30
0.0
 10
86.24176430135623
 20
-127.0992187182252
 30
0.0
 10
86.24176430135623
 20
-127.0992187182252
 30
0.0
 10
86.24176430135623
 20
-127.0992187182252
 30
0.0
 10
86.24176430135623
 20
-126.4177788312428
 30
0.0
 10
86.24176430135623
 20
-126.4177788312428
 30
0.0
 10
86.24176430135623
 20
-126.4177788312428
 30
0.0
 10
86.43641219627284
 20
-126.4177788312428
 30
0.0
 10
86.43641219627284
 20
-126.4177788312428
 30
0.0
 10
86.43641219627284
 20
-126.4177788312428
 30
0.0
 10
86.43641219627284
 20
-126.9565917651359
 30
0.0
 10
86.43641219627284
 20
-126.9565917651359
 30
0.0
 10
86.43641219627284
 20
-126.9565917651359
 30
0.0
 10
86.85946992186153
 20
-127.0141248597395
 30
0.0
 10
86.85946992186153
 20
-127.0141248597395
 30
0.0
 10
86.82553573133181
 20
-126.9603813701696
 30
0.0
 10
86.78540036892865
 20
-126.8880343649794
 30
0.0
 10
86.78540036892865
 20
-126.7843369908734
 30
0.0
 10
86.78540036892865
 20
-126.5621283320747
 30
0.0
 10
86.9716077799064
 20
-126.3547335838627
 30
0.0
 10
87.28459470474135
 20
-126.3547335838627
 30
0.0
 10
87.60206025370712
 20
-126.3547335838627
 30
0.0
 10
87.8368435110269
 20
-126.551104026522
 30
0.0
 10
87.8368435110269
 20
-126.8158596145634
 30
0.0
  0
HATCH
  5
58
330
53
100
AcDbEntity
  8
_U+30EC_U+30A4_U+30E4_U+30FC 1
 62
   179
420
  2234388
100
AcDbHatch
 10
0.0
 20
0.0
 30
0.0
210
0.0
220
0.0
230
1.0
  2
SOLID
 70
     1
 71
     0
 91
        1
 92
        1
 93
        1
 72
     4
 94
        3
 73
     0
 74
     1
 95
       53
 96
       49
 40
0.0
 40
0.0
 40
0.0
 40
0.0
 40
1.0
 40
1.0
 40
1.0
 40
2.0
 40
2.0
 40
2.0
 40
3.0
 40
3.0
 40
3.0
 40
4.0
 40
4.0
 40
4.0
 40
5.0
 40
5.0
 40
5.0
 40
6.0
 40
6.0
 40
6.0
 40
7.0
 40
7.0
 40
7.0
 40
8.0
 40
8.0
 40
8.0
 40
9.0
 40
9.0
 40
9.0
 40
10.0
 40
10.0
 40
10.0
 40
11.0
 40
11.0
 40
11.0
 40
12.0
 40
12.0
 40
12.0
 40
13.0
 40
13.0
 40
13.0
 40
14.0
 40
14.0
 40
14.0
 40
15.0
 40
15.0
 40
15.0
 40
16.0
 40
16.0
 40
16.0
 40
16.0
 10
87.8368435110269
 20
-126.8158596145634
 10
87.8368435110269
 20
-126.8844170147199
 10
87.81996254314917
 20
-126.9733004782393
 10
87.75640053144632
 20
-127.0621839417588
 10
87.64632973069259
 20
-127.213940397884
 10
87.51524384747883
 20
-127.2325439135044
 10
87.40741235879051
 20
-127.2492526266078
 10
87.40741235879051
 20
-127.2492526266078
 10
87.40741235879051
 20
-127.0547769864655
 10
87.40741235879051
 20
-127.0547769864655
 10
87.60619436828942
 20
-127.006545649672
 10
87.63582218946257
 20
-126.8956135750469
 10
87.63582218946257
 20
-126.8139648120465
 10
87.63582218946257
 20
-126.6918361770944
 10
87.53643118471312
 20
-126.5585109818152
 10
87.30371498468449
 20
-126.5585109818152
 10
87.04774439013043
 20
-126.5585109818152
 10
86.97798120655412
 20
-126.7159518454912
 10
86.97798120655412
 20
-126.8215440221141
 10
86.97798120655412
 20
-126.8492770407703
 10
86.97798120655412
 20
-126.9733004782393
 10
87.10700003247672
 20
-127.0509873814317
 10
87.10700003247672
 20
-127.0509873814317
 10
87.0878797525336
 20
-127.2048108948481
 10
87.0878797525336
 20
-127.2048108948481
 10
87.0878797525336
 20
-127.2048108948481
 10
86.24176430135623
 20
-127.0992187182252
 10
86.24176430135623
 20
-127.0992187182252
 10
86.24176430135623
 20
-127.0992187182252
 10
86.24176430135623
 20
-126.4177788312428
 10
86.24176430135623
 20
-126.4177788312428
 10
86.24176430135623
 20
-126.4177788312428
 10
86.43641219627284
 20
-126.4177788312428
 10
86.43641219627284
 20
-126.4177788312428
 10
86.43641219627284
 20
-126.4177788312428
 10
86.43641219627284
 20
-126.9565917651359
 10
86.43641219627284
 20
-126.9565917651359
 10
86.43641219627284
 20
-126.9565917651359
 10
86.85946992186153
 20
-127.0141248597395
 10
86.85946992186153
 20
-127.0141248597395
 10
86.82553573133181
 20
-126.9603813701696
 10
86.78540036892865
 20
-126.8880343649794
 10
86.78540036892865
 20
-126.7843369908734
 10
86.78540036892865
 20
-126.5621283320747
 10
86.9716077799064
 20
-126.3547335838627
 10
87.28459470474135
 20
-126.3547335838627
 10
87.60206025370712
 20
-126.3547335838627
 10
87.8368435110269
 20
-126.551104026522
 10
87.8368435110269
 20
-126.8158596145634
 97
        0
 97
        0
 75
     2
 76
     1
 98
        0
  0
ENDBLK
  5
56
330
53
100
AcDbEntity
  8
0
100
AcDbBlockEnd
  0
BLOCK
  5
69
330
67
100
AcDbEntity
  8
0
100
AcDbBlockBegin
  2
block 3
 70
     0
 10
0.0
 20
0.0
 30
0.0
  3
block 3
  1

  0
SPLINE
  5
6B
330
67
100
AcDbEntity
  8
_U+30EC_U+30A4_U+30E4_U+30FC 1
370
     0
100
AcDbSpline
210
0.0
220
0.0
230
1.0
 70
    11
 71
     3
 72
    44
 73
    40
 74
     0
 42
0.0000000001
 43
0.0000000001
 12
1.0
 22
0.0
 32
0.0
 13
1.0
 23
0.0
 33
0.0
 40
0.0
 40
0.0
 40
0.0
 40
0.0
 40
1.0
 40
1.0
 40
1.0
 40
2.0
 40
2.0
 40
2.0
 40
3.0
 40
3.0
 40
3.0
 40
4.0
 40
4.0
 40
4.0
 40
5.0
 40
5.0
 40
5.0
 40
6.0
 40
6.0
 40
6.0
 40
7.0
 40
7.0
 40
7.0
 40
8.0
 40
8.0
 40
8.0
 40
9.0
 40
9.0
 40
9.0
 40
10.0
 40
10.0
 40
10.0
 40
11.0
 40
11.0
 40
11.0
 40
12.0
 40
12.0
 40
12.0
 40
13.0
 40
13.0
 40
13.0
 40
13.0
 10
83.02525090155272
 20
-129.8184325847329
 30
0.0
 10
83.18389754864847
 20
-130.0092908746157
 30
0.0
 10
83.25796710158134
 20
-130.0909396376162
 30
0.0
 10
83.40179983809053
 20
-130.1333143120847
 30
0.0
 10
83.40179983809053
 20
-130.1333143120847
 30
0.0
 10
83.40179983809053
 20
-129.4518744251023
 30
0.0
 10
83.40179983809053
 20
-129.4518744251023
 30
0.0
 10
83.40179983809053
 20
-129.4518744251023
 30
0.0
 10
83.60695527423715
 20
-129.4518744251023
 30
0.0
 10
83.60695527423715
 20
-129.4518744251023
 30
0.0
 10
83.60695527423715
 20
-129.4518744251023
 30
0.0
 10
83.60695527423715
 20
-130.3517333658496
 30
0.0
 10
83.60695527423715
 20
-130.3517333658496
 30
0.0
 10
83.24935436286822
 20
-130.323828092419
 30
0.0
 10
83.17115069535305
 20
-130.2666395073639
 30
0.0
 10
82.87280542633042
 20
-129.9297091689065
 30
0.0
 10
82.6740234168315
 20
-129.7057779623652
 30
0.0
 10
82.60632729054633
 20
-129.6482448677615
 30
0.0
 10
82.46886798068488
 20
-129.6482448677615
 30
0.0
 10
82.35035669599228
 20
-129.6482448677615
 30
0.0
 10
82.21909855800426
 20
-129.7112901151416
 30
0.0
 10
82.21909855800426
 20
-129.8835448894041
 30
0.0
 10
82.21909855800426
 20
-130.1109211914306
 30
0.0
 10
82.44974770074174
 20
-130.1185004014982
 30
0.0
 10
82.56619192814318
 20
-130.1222900065319
 30
0.0
 10
82.56619192814318
 20
-130.1222900065319
 30
0.0
 10
82.56619192814318
 20
-130.3183159396426
 30
0.0
 10
82.56619192814318
 20
-130.3183159396426
 30
0.0
 10
82.43924015951173
 20
-130.3110812391236
 30
0.0
 10
82.32710230146684
 20
-130.3017794813134
 30
0.0
 10
82.20859101677425
 20
-130.2314995334144
 30
0.0
 10
82.04787731238734
 20
-130.1350368598274
 30
0.0
 10
82.01394312185762
 20
-129.9724283529236
 30
0.0
 10
82.01394312185762
 20
-129.8704535265602
 30
0.0
 10
82.01394312185762
 20
-129.6279188043986
 30
0.0
 10
82.19808347554424
 20
-129.4463622723259
 30
0.0
 10
82.47093503797602
 20
-129.4463622723259
 30
0.0
 10
82.69934486864808
 20
-129.4463622723259
 30
0.0
 10
82.7989081281718
 20
-129.5479925891408
 30
0.0
 10
83.02525090155272
 20
-129.8184325847329
 30
0.0
  0
HATCH
  5
6C
330
67
100
AcDbEntity
  8
_U+30EC_U+30A4_U+30E4_U+30FC 1
 62
   179
420
  2234388
100
AcDbHatch
 10
0.0
 20
0.0
 30
0.0
210
0.0
220
0.0
230
1.0
  2
SOLID
 70
     1
 71
     0
 91
        1
 92
        1
 93
        1
 72
     4
 94
        3
 73
     0
 74
     1
 95
       44
 96
       40
 40
0.0
 40
0.0
 40
0.0
 40
0.0
 40
1.0
 40
1.0
 40
1.0
 40
2.0
 40
2.0
 40
2.0
 40
3.0
 40
3.0
 40
3.0
 40
4.0
 40
4.0
 40
4.0
 40
5.0
 40
5.0
 40
5.0
 40
6.0
 40
6.0
 40
6.0
 40
7.0
 40
7.0
 40
7.0
 40
8.0
 40
8.0
 40
8.0
 40
9.0
 40
9.0
 40
9.0
 40
10.0
 40
10.0
 40
10.0
 40
11.0
 40
11.0
 40
11.0
 40
12.0
 40
12.0
 40
12.0
 40
13.0
 40
13.0
 40
13.0
 40
13.0
 10
83.02525090155272
 20
-129.8184325847329
 10
83.18389754864847
 20
-130.0092908746157
 10
83.25796710158134
 20
-130.0909396376162
 10
83.40179983809053
 20
-130.1333143120847
 10
83.40179983809053
 20
-130.1333143120847
 10
83.40179983809053
 20
-129.4518744251023
 10
83.40179983809053
 20
-129.4518744251023
 10
83.40179983809053
 20
-129.4518744251023
 10
83.60695527423715
 20
-129.4518744251023
 10
83.60695527423715
 20
-129.4518744251023
 10
83.60695527423715
 20
-129.4518744251023
 10
83.60695527423715
 20
-130.3517333658496
 10
83.60695527423715
 20
-130.3517333658496
 10
83.24935436286822
 20
-130.323828092419
 10
83.17115069535305
 20
-130.2666395073639
 10
82.87280542633042
 20
-129.9297091689065
 10
82.6740234168315
 20
-129.7057779623652
 10
82.60632729054633
 20
-129.6482448677615
 10
82.46886798068488
 20
-129.6482448677615
 10
82.35035669599228
 20
-129.6482448677615
 10
82.21909855800426
 20
-129.7112901151416
 10
82.21909855800426
 20
-129.8835448894041
 10
82.21909855800426
 20
-130.1109211914306
 10
82.44974770074174
 20
-130.1185004014982
 10
82.56619192814318
 20
-130.1222900065319
 10
82.56619192814318
 20
-130.1222900065319
 10
82.56619192814318
 20
-130.3183159396426
 10
82.56619192814318
 20
-130.3183159396426
 10
82.43924015951173
 20
-130.3110812391236
 10
82.32710230146684
 20
-130.3017794813134
 10
82.20859101677425
 20
-130.2314995334144
 10
82.04787731238734
 20
-130.1350368598274
 10
82.01394312185762
 20
-129.9724283529236
 10
82.01394312185762
 20
-129.8704535265602
 10
82.01394312185762
 20
-129.6279188043986
 10
82.19808347554424
 20
-129.4463622723259
 10
82.47093503797602
 20
-129.4463622723259
 10
82.69934486864808
 20
-129.4463622723259
 10
82.7989081281718
 20
-129.5479925891408
 10
83.02525090155272
 20
-129.8184325847329
 97
        0
 97
        0
 75
     2
 76
     1
 98
        0
  0
SPLINE
  5
6D
330
67
100
AcDbEntity
  8
_U+30EC_U+30A4_U+30E4_U+30FC 1
370
     0
100
AcDbSpline
210
0.0
220
0.0
230
1.0
 70
    11
 71
     3
 72
    29
 73
    25
 74
     0
 42
0.0000000001
 43
0.0000000001
 12
1.0
 22
0.0
 32
0.0
 13
1.0
 23
0.0
 33
0.0
 40
0.0
 40
0.0
 40
0.0
 40
0.0
 40
1.0
 40
1.0
 40
1.0
 40
2.0
 40
2.0
 40
2.0
 40
3.0
 40
3.0
 40
3.0
 40
4.0
 40
4.0
 40
4.0
 40
5.0
 40
5.0
 40
5.0
 40
6.0
 40
6.0
 40
6.0
 40
7.0
 40
7.0
 40
7.0
 40
8.0
 40
8.0
 40
8.0
 40
8.0
 10
83.42918834719826
 20
-128.5210096249878
 30
0.0
 10
83.63865015270146
 20
-128.6155774960579
 30
0.0
 10
83.65777043264458
 20
-128.7673339521832
 30
0.0
 10
83.65777043264458
 20
-128.8693087785466
 30
0.0
 10
83.65777043264458
 20
-129.0098686743448
 30
0.0
 10
83.61126164359372
 20
-129.1338921118138
 30
0.0
 10
83.42918834719826
 20
-129.2172634225568
 30
0.0
 10
83.2347127070559
 20
-129.3082139433674
 30
0.0
 10
82.99769013767072
 20
-129.3247504016966
 30
0.0
 10
82.8347371212184
 20
-129.3247504016966
 30
0.0
 10
82.69090438470923
 20
-129.3247504016966
 30
0.0
 10
82.43924015951173
 20
-129.30993649111
 30
0.0
 10
82.24028589523854
 20
-129.2172634225568
 30
0.0
 10
82.03719751638306
 20
-129.122867806261
 30
0.0
 10
82.01394312185762
 20
-128.9823079104628
 30
0.0
 10
82.01394312185762
 20
-128.8693087785466
 30
0.0
 10
82.01394312185762
 20
-128.7302991757167
 30
0.0
 10
82.05838485361735
 20
-128.6043809357309
 30
0.0
 10
82.24028589523854
 20
-128.5210096249878
 30
0.0
 10
82.43286673286401
 20
-128.4340209639853
 30
0.0
 10
82.66127656353608
 20
-128.4136949006223
 30
0.0
 10
82.8347371212184
 20
-128.4136949006223
 30
0.0
 10
83.00613062160959
 20
-128.4136949006223
 30
0.0
 10
83.23677976434706
 20
-128.4321261614684
 30
0.0
 10
83.42918834719826
 20
-128.5210096249878
 30
0.0
  0
SPLINE
  5
6E
330
67
100
AcDbEntity
  8
_U+30EC_U+30A4_U+30E4_U+30FC 1
370
     0
100
AcDbSpline
210
0.0
220
0.0
230
1.0
 70
    11
 71
     3
 72
    17
 73
    13
 74
     0
 42
0.0000000001
 43
0.0000000001
 12
1.0
 22
0.0
 32
0.0
 13
1.0
 23
0.0
 33
0.0
 40
0.0
 40
0.0
 40
0.0
 40
0.0
 40
1.0
 40
1.0
 40
1.0
 40
2.0
 40
2.0
 40
2.0
 40
3.0
 40
3.0
 40
3.0
 40
4.0
 40
4.0
 40
4.0
 40
4.0
 10
82.20652395948309
 20
-128.8693087785466
 30
0.0
 10
82.20652395948309
 20
-129.0877278323114
 30
0.0
 10
82.48988306314489
 20
-129.1283799590373
 30
0.0
 10
82.8347371212184
 20
-129.1283799590373
 30
0.0
 10
83.15426972747532
 20
-129.1283799590373
 30
0.0
 10
83.46312253772797
 20
-129.0970295901216
 30
0.0
 10
83.46312253772797
 20
-128.8693087785466
 30
0.0
 10
83.46312253772797
 20
-128.6526122725244
 30
0.0
 10
83.18165823658306
 20
-128.6098930885072
 30
0.0
 10
82.8347371212184
 20
-128.6098930885072
 30
0.0
 10
82.51537676973574
 20
-128.6098930885072
 30
0.0
 10
82.20652395948309
 20
-128.6433105147142
 30
0.0
 10
82.20652395948309
 20
-128.8693087785466
 30
0.0
  0
HATCH
  5
6F
330
67
100
AcDbEntity
  8
_U+30EC_U+30A4_U+30E4_U+30FC 1
 62
   179
420
  2234388
100
AcDbHatch
 10
0.0
 20
0.0
 30
0.0
210
0.0
220
0.0
230
1.0
  2
SOLID
 70
     1
 71
     0
 91
        2
 92
        1
 93
        1
 72
     4
 94
        3
 73
     0
 74
     1
 95
       29
 96
       25
 40
0.0
 40
0.0
 40
0.0
 40
0.0
 40
1.0
 40
1.0
 40
1.0
 40
2.0
 40
2.0
 40
2.0
 40
3.0
 40
3.0
 40
3.0
 40
4.0
 40
4.0
 40
4.0
 40
5.0
 40
5.0
 40
5.0
 40
6.0
 40
6.0
 40
6.0
 40
7.0
 40
7.0
 40
7.0
 40
8.0
 40
8.0
 40
8.0
 40
8.0
 10
83.42918834719826
 20
-128.5210096249878
 10
83.63865015270146
 20
-128.6155774960579
 10
83.65777043264458
 20
-128.7673339521832
 10
83.65777043264458
 20
-128.8693087785466
 10
83.65777043264458
 20
-129.0098686743448
 10
83.61126164359372
 20
-129.1338921118138
 10
83.42918834719826
 20
-129.2172634225568
 10
83.2347127070559
 20
-129.3082139433674
 10
82.99769013767072
 20
-129.3247504016966
 10
82.8347371212184
 20
-129.3247504016966
 10
82.69090438470923
 20
-129.3247504016966
 10
82.43924015951173
 20
-129.30993649111
 10
82.24028589523854
 20
-129.2172634225568
 10
82.03719751638306
 20
-129.122867806261
 10
82.01394312185762
 20
-128.9823079104628
 10
82.01394312185762
 20
-128.8693087785466
 10
82.01394312185762
 20
-128.7302991757167
 10
82.05838485361735
 20
-128.6043809357309
 10
82.24028589523854
 20
-128.5210096249878
 10
82.43286673286401
 20
-128.4340209639853
 10
82.66127656353608
 20
-128.4136949006223
 10
82.8347371212184
 20
-128.4136949006223
 10
83.00613062160959
 20
-128.4136949006223
 10
83.23677976434706
 20
-128.4321261614684
 10
83.42918834719826
 20
-128.5210096249878
 97
        0
 97
        0
 92
        1
 93
        1
 72
     4
 94
        3
 73
     0
 74
     1
 95
       17
 96
       13
 40
0.0
 40
0.0
 40
0.0
 40
0.0
 40
1.0
 40
1.0
 40
1.0
 40
2.0
 40
2.0
 40
2.0
 40
3.0
 40
3.0
 40
3.0
 40
4.0
 40
4.0
 40
4.0
 40
4.0
 10
82.20652395948309
 20
-128.8693087785466
 10
82.20652395948309
 20
-129.0877278323114
 10
82.48988306314489
 20
-129.1283799590373
 10
82.8347371212184
 20
-129.1283799590373
 10
83.15426972747532
 20
-129.1283799590373
 10
83.46312253772797
 20
-129.0970295901216
 10
83.46312253772797
 20
-128.8693087785466
 10
83.46312253772797
 20
-128.6526122725244
 10
83.18165823658306
 20
-128.6098930885072
 10
82.8347371212184
 20
-128.6098930885072
 10
82.51537676973574
 20
-128.6098930885072
 10
82.20652395948309
 20
-128.6433105147142
 10
82.20652395948309
 20
-128.8693087785466
 97
        0
 97
        0
 75
     2
 76
     1
 98
        0
  0
ENDBLK
  5
6A
330
67
100
AcDbEntity
  8
0
100
AcDbBlockEnd
  0
BLOCK
  5
7F
330
7D
100
AcDbEntity
  8
0
100
AcDbBlockBegin
  2
block 4
 70
     0
 10
0.0
 20
0.0
 30
0.0
  3
block 4
  1

  0
SPLINE
  5
81
330
7D
100
AcDbEntity
  8
_U+30EC_U+30A4_U+30E4_U+30FC 1
370
     0
100
AcDbSpline
210
0.0
220
0.0
230
1.0
 70
    11
 71
     3
 72
    26
 73
    22
 74
     0
 42
0.0000000001
 43
0.0000000001
 12
1.0
 22
0.0
 32
0.0
 13
1.0
 23
0.0
 33
0.0
 40
0.0
 40
0.0
 40
0.0
 40
0.0
 40
1.0
 40
1.0
 40
1.0
 40
2.0
 40
2.0
 40
2.0
 40
3.0
 40
3.0
 40
3.0
 40
4.0
 40
4.0
 40
4.0
 40
5.0
 40
5.0
 40
5.0
 40
6.0
 40
6.0
 40
6.0
 40
7.0
 40
7.0
 40
7.0
 40
7.0
 10
98.90938040061988
 20
-124.9143391614798
 30
0.0
 10
98.90938040061988
 20
-124.9143391614798
 30
0.0
 10
97.80522729759731
 20
-124.9143391614798
 30
0.0
 10
97.80522729759731
 20
-124.9143391614798
 30
0.0
 10
97.80522729759731
 20
-124.9143391614798
 30
0.0
 10
97.80522729759731
 20
-125.2443793089667
 30
0.0
 10
97.80522729759731
 20
-125.2443793089667
 30
0.0
 10
97.80522729759731
 20
-125.2443793089667
 30
0.0
 10
97.65708819173156
 20
-125.2443793089667
 30
0.0
 10
97.65708819173156
 20
-125.2443793089667
 30
0.0
 10
97.64227428114499
 20
-124.9122721041886
 30
0.0
 10
97.47932126469267
 20
-124.8657633151377
 30
0.0
 10
97.36494409458238
 20
-124.8361354939646
 30
0.0
 10
97.36494409458238
 20
-124.8361354939646
 30
0.0
 10
97.36494409458238
 20
-124.69006344539
 30
0.0
 10
97.36494409458238
 20
-124.69006344539
 30
0.0
 10
97.36494409458238
 20
-124.69006344539
 30
0.0
 10
98.90938040061988
 20
-124.69006344539
 30
0.0
 10
98.90938040061988
 20
-124.69006344539
 30
0.0
 10
98.90938040061988
 20
-124.69006344539
 30
0.0
 10
98.90938040061988
 20
-124.9143391614798
 30
0.0
 10
98.90938040061988
 20
-124.9143391614798
 30
0.0
  0
HATCH
  5
82
330
7D
100
AcDbEntity
  8
_U+30EC_U+30A4_U+30E4_U+30FC 1
 62
   179
420
  2234388
100
AcDbHatch
 10
0.0
 20
0.0
 30
0.0
210
0.0
220
0.0
230
1.0
  2
SOLID
 70
     1
 71
     0
 91
        1
 92
        1
 93
        1
 72
     4
 94
        3
 73
     0
 74
     1
 95
       26
 96
       22
 40
0.0
 40
0.0
 40
0.0
 40
0.0
 40
1.0
 40
1.0
 40
1.0
 40
2.0
 40
2.0
 40
2.0
 40
3.0
 40
3.0
 40
3.0
 40
4.0
 40
4.0
 40
4.0
 40
5.0
 40
5.0
 40
5.0
 40
6.0
 40
6.0
 40
6.0
 40
7.0
 40
7.0
 40
7.0
 40
7.0
 10
98.90938040061988
 20
-124.9143391614798
 10
98.90938040061988
 20
-124.9143391614798
 10
97.80522729759731
 20
-124.9143391614798
 10
97.80522729759731
 20
-124.9143391614798
 10
97.80522729759731
 20
-124.9143391614798
 10
97.80522729759731
 20
-125.2443793089667
 10
97.80522729759731
 20
-125.2443793089667
 10
97.80522729759731
 20
-125.2443793089667
 10
97.65708819173156
 20
-125.2443793089667
 10
97.65708819173156
 20
-125.2443793089667
 10
97.64227428114499
 20
-124.9122721041886
 10
97.47932126469267
 20
-124.8657633151377
 10
97.36494409458238
 20
-124.8361354939646
 10
97.36494409458238
 20
-124.8361354939646
 10
97.36494409458238
 20
-124.69006344539
 10
97.36494409458238
 20
-124.69006344539
 10
97.36494409458238
 20
-124.69006344539
 10
98.90938040061988
 20
-124.69006344539
 10
98.90938040061988
 20
-124.69006344539
 10
98.90938040061988
 20
-124.69006344539
 10
98.90938040061988
 20
-124.9143391614798
 10
98.90938040061988
 20
-124.9143391614798
 97
        0
 97
        0
 75
     2
 76
     1
 98
        0
  0
SPLINE
  5
83
330
7D
100
AcDbEntity
  8
_U+30EC_U+30A4_U+30E4_U+30FC 1
370
     0
100
AcDbSpline
210
0.0
220
0.0
230
1.0
 70
    11
 71
     3
 72
    29
 73
    25
 74
     0
 42
0.0000000001
 43
0.0000000001
 12
1.0
 22
0.0
 32
0.0
 13
1.0
 23
0.0
 33
0.0
 40
0.0
 40
0.0
 40
0.0
 40
0.0
 40
1.0
 40
1.0
 40
1.0
 40
2.0
 40
2.0
 40
2.0
 40
3.0
 40
3.0
 40
3.0
 40
4.0
 40
4.0
 40
4.0
 40
5.0
 40
5.0
 40
5.0
 40
6.0
 40
6.0
 40
6.0
 40
7.0
 40
7.0
 40
7.0
 40
8.0
 40
8.0
 40
8.0
 40
8.0
 10
98.73161347358099
 20
-123.29101016883
 30
0.0
 10
98.94107527908417
 20
-123.3991861670669
 30
0.0
 10
98.96002330425306
 20
-123.5724744699749
 30
0.0
 10
98.96002330425306
 20
-123.6889186973764
 30
0.0
 10
98.96002330425306
 20
-123.8498046565376
 30
0.0
 10
98.91351451520218
 20
-123.9913980809813
 30
0.0
 10
98.73161347358099
 20
-124.0864827163742
 30
0.0
 10
98.53696557866438
 20
-124.1901800904802
 30
0.0
 10
98.29994300927919
 20
-124.2094726251976
 30
0.0
 10
98.1373345023754
 20
-124.2094726251976
 30
0.0
 10
97.99332951109194
 20
-124.2094726251976
 30
0.0
 10
97.74149303112019
 20
-124.1922471477714
 30
0.0
 10
97.54271102162127
 20
-124.0864827163742
 30
0.0
 10
97.33979489754006
 20
-123.9786512276859
 30
0.0
 10
97.31636824824035
 20
-123.8177652685247
 30
0.0
 10
97.31636824824035
 20
-123.6889186973764
 30
0.0
 10
97.31636824824035
 20
-123.5300997955064
 30
0.0
 10
97.36080998000008
 20
-123.3864393137714
 30
0.0
 10
97.54271102162127
 20
-123.29101016883
 30
0.0
 10
97.73529185924674
 20
-123.1917914188548
 30
0.0
 10
97.9637016899188
 20
-123.1683647695551
 30
0.0
 10
98.1373345023754
 20
-123.1683647695551
 30
0.0
 10
98.30855574799232
 20
-123.1683647695551
 30
0.0
 10
98.53903263595552
 20
-123.1897243615637
 30
0.0
 10
98.73161347358099
 20
-123.29101016883
 30
0.0
  0
SPLINE
  5
84
330
7D
100
AcDbEntity
  8
_U+30EC_U+30A4_U+30E4_U+30FC 1
370
     0
100
AcDbSpline
210
0.0
220
0.0
230
1.0
 70
    11
 71
     3
 72
    17
 73
    13
 74
     0
 42
0.0000000001
 43
0.0000000001
 12
1.0
 22
0.0
 32
0.0
 13
1.0
 23
0.0
 33
0.0
 40
0.0
 40
0.0
 40
0.0
 40
0.0
 40
1.0
 40
1.0
 40
1.0
 40
2.0
 40
2.0
 40
2.0
 40
3.0
 40
3.0
 40
3.0
 40
4.0
 40
4.0
 40
4.0
 40
4.0
 10
97.50894908586582
 20
-123.6889186973764
 30
0.0
 10
97.50894908586582
 20
-123.938688120057
 30
0.0
 10
97.79248044430189
 20
-123.9851969091079
 30
0.0
 10
98.1373345023754
 20
-123.9851969091079
 30
0.0
 10
98.45669485385805
 20
-123.9851969091079
 30
0.0
 10
98.76537540933644
 20
-123.9490234065128
 30
0.0
 10
98.76537540933644
 20
-123.6889186973764
 30
0.0
 10
98.76537540933644
 20
-123.4412163319869
 30
0.0
 10
98.48425561774005
 20
-123.3926404856449
 30
0.0
 10
98.1373345023754
 20
-123.3926404856449
 30
0.0
 10
97.81762964134421
 20
-123.3926404856449
 30
0.0
 10
97.50894908586582
 20
-123.4308810455312
 30
0.0
 10
97.50894908586582
 20
-123.6889186973764
 30
0.0
  0
HATCH
  5
85
330
7D
100
AcDbEntity
  8
_U+30EC_U+30A4_U+30E4_U+30FC 1
 62
   179
420
  2234388
100
AcDbHatch
 10
0.0
 20
0.0
 30
0.0
210
0.0
220
0.0
230
1.0
  2
SOLID
 70
     1
 71
     0
 91
        2
 92
        1
 93
        1
 72
     4
 94
        3
 73
     0
 74
     1
 95
       29
 96
       25
 40
0.0
 40
0.0
 40
0.0
 40
0.0
 40
1.0
 40
1.0
 40
1.0
 40
2.0
 40
2.0
 40
2.0
 40
3.0
 40
3.0
 40
3.0
 40
4.0
 40
4.0
 40
4.0
 40
5.0
 40
5.0
 40
5.0
 40
6.0
 40
6.0
 40
6.0
 40
7.0
 40
7.0
 40
7.0
 40
8.0
 40
8.0
 40
8.0
 40
8.0
 10
98.73161347358099
 20
-123.29101016883
 10
98.94107527908417
 20
-123.3991861670669
 10
98.96002330425306
 20
-123.5724744699749
 10
98.96002330425306
 20
-123.6889186973764
 10
98.96002330425306
 20
-123.8498046565376
 10
98.91351451520218
 20
-123.9913980809813
 10
98.73161347358099
 20
-124.0864827163742
 10
98.53696557866438
 20
-124.1901800904802
 10
98.29994300927919
 20
-124.2094726251976
 10
98.1373345023754
 20
-124.2094726251976
 10
97.99332951109194
 20
-124.2094726251976
 10
97.74149303112019
 20
-124.1922471477714
 10
97.54271102162127
 20
-124.0864827163742
 10
97.33979489754006
 20
-123.9786512276859
 10
97.31636824824035
 20
-123.8177652685247
 10
97.31636824824035
 20
-123.6889186973764
 10
97.31636824824035
 20
-123.5300997955064
 10
97.36080998000008
 20
-123.3864393137714
 10
97.54271102162127
 20
-123.29101016883
 10
97.73529185924674
 20
-123.1917914188548
 10
97.9637016899188
 20
-123.1683647695551
 10
98.1373345023754
 20
-123.1683647695551
 10
98.30855574799232
 20
-123.1683647695551
 10
98.53903263595552
 20
-123.1897243615637
 10
98.73161347358099
 20
-123.29101016883
 97
        0
 97
        0
 92
        1
 93
        1
 72
     4
 94
        3
 73
     0
 74
     1
 95
       17
 96
       13
 40
0.0
 40
0.0
 40
0.0
 40
0.0
 40
1.0
 40
1.0
 40
1.0
 40
2.0
 40
2.0
 40
2.0
 40
3.0
 40
3.0
 40
3.0
 40
4.0
 40
4.0
 40
4.0
 40
4.0
 10
97.50894908586582
 20
-123.6889186973764
 10
97.50894908586582
 20
-123.938688120057
 10
97.79248044430189
 20
-123.9851969091079
 10
98.1373345023754
 20
-123.9851969091079
 10
98.45669485385805
 20
-123.9851969091079
 10
98.76537540933644
 20
-123.9490234065128
 10
98.76537540933644
 20
-123.6889186973764
 10
98.76537540933644
 20
-123.4412163319869
 10
98.48425561774005
 20
-123.3926404856449
 10
98.1373345023754
 20
-123.3926404856449
 10
97.81762964134421
 20
-123.3926404856449
 10
97.50894908586582
 20
-123.4308810455312
 10
97.50894908586582
 20
-123.6889186973764
 97
        0
 97
        0
 75
     2
 76
     1
 98
        0
  0
ENDBLK
  5
80
330
7D
100
AcDbEntity
  8
0
100
AcDbBlockEnd
  0
BLOCK
  5
96
330
94
100
AcDbEntity
  8
0
100
AcDbBlockBegin
  2
block 5
 70
     0
 10
0.0
 20
0.0
 30
0.0
  3
block 5
  1

  0
SPLINE
  5
98
330
94
100
AcDbEntity
  8
_U+30EC_U+30A4_U+30E4_U+30FC 1
370
     0
100
AcDbSpline
210
0.0
220
0.0
230
1.0
 70
    11
 71
     3
 72
    32
 73
    28
 74
     0
 42
0.0000000001
 43
0.0000000001
 12
1.0
 22
0.0
 32
0.0
 13
1.0
 23
0.0
 33
0.0
 40
0.0
 40
0.0
 40
0.0
 40
0.0
 40
1.0
 40
1.0
 40
1.0
 40
2.0
 40
2.0
 40
2.0
 40
3.0
 40
3.0
 40
3.0
 40
4.0
 40
4.0
 40
4.0
 40
5.0
 40
5.0
 40
5.0
 40
6.0
 40
6.0
 40
6.0
 40
7.0
 40
7.0
 40
7.0
 40
8.0
 40
8.0
 40
8.0
 40
9.0
 40
9.0
 40
9.0
 40
9.0
 10
92.80053708617487
 20
-114.616948756068
 30
0.0
 10
92.28446178248444
 20
-114.616948756068
 30
0.0
 10
92.27619355331984
 20
-114.0628051472655
 30
0.0
 10
92.27619355331984
 20
-113.8492092271801
 30
0.0
 10
92.27619355331984
 20
-113.6185600844426
 30
0.0
 10
92.29548608803725
 20
-112.9712266427641
 30
0.0
 10
92.83912215560967
 20
-112.9712266427641
 30
0.0
 10
93.01206594896921
 20
-112.9712266427641
 30
0.0
 10
93.25804576661605
 20
-113.0409898263405
 30
0.0
 10
93.2959418169538
 20
-113.3730970311185
 30
0.0
 10
93.2959418169538
 20
-113.3730970311185
 30
0.0
 10
93.0823458968683
 20
-113.3730970311185
 30
0.0
 10
93.0823458968683
 20
-113.3730970311185
 30
0.0
 10
93.07132159131551
 20
-113.3160807008376
 30
0.0
 10
93.0396267128512
 20
-113.1679415949719
 30
0.0
 10
92.83705509831852
 20
-113.1679415949719
 30
0.0
 10
92.54491100116933
 20
-113.1679415949719
 30
0.0
 10
92.50494789354043
 20
-113.4959146851677
 30
0.0
 10
92.49185653069648
 20
-113.7010701213143
 30
0.0
 10
92.58487410879823
 20
-113.6228664537991
 30
0.0
 10
92.65308699940617
 20
-113.5636108114528
 30
0.0
 10
92.83498804102737
 20
-113.5636108114528
 30
0.0
 10
93.0148220253574
 20
-113.5636108114528
 30
0.0
 10
93.31730140896235
 20
-113.6714423001412
 30
0.0
 10
93.31730140896235
 20
-114.0776190578521
 30
0.0
 10
93.31730140896235
 20
-114.397151664109
 30
0.0
 10
93.11817488991491
 20
-114.616948756068
 30
0.0
 10
92.80053708617487
 20
-114.616948756068
 30
0.0
  0
SPLINE
  5
99
330
94
100
AcDbEntity
  8
_U+30EC_U+30A4_U+30E4_U+30FC 1
370
     0
100
AcDbSpline
210
0.0
220
0.0
230
1.0
 70
    11
 71
     3
 72
    17
 73
    13
 74
     0
 42
0.0000000001
 43
0.0000000001
 12
1.0
 22
0.0
 32
0.0
 13
1.0
 23
0.0
 33
0.0
 40
0.0
 40
0.0
 40
0.0
 40
0.0
 40
1.0
 40
1.0
 40
1.0
 40
2.0
 40
2.0
 40
2.0
 40
3.0
 40
3.0
 40
3.0
 40
4.0
 40
4.0
 40
4.0
 40
4.0
 10
92.81776256360112
 20
-113.7582587063695
 30
0.0
 10
92.55524628762508
 20
-113.7582587063695
 30
0.0
 10
92.51735023728733
 20
-113.9697875691638
 30
0.0
 10
92.51735023728733
 20
-114.086059541791
 30
0.0
 10
92.51735023728733
 20
-114.2617594115387
 30
0.0
 10
92.61243487268023
 20
-114.4247124279911
 30
0.0
 10
92.79640297159257
 20
-114.4247124279911
 30
0.0
 10
92.91698131357631
 20
-114.4247124279911
 30
0.0
 10
93.09268118332406
 20
-114.3654567856448
 30
0.0
 10
93.09268118332406
 20
-114.0796861151433
 30
0.0
 10
93.09268118332406
 20
-113.8555826538278
 30
0.0
 10
92.95349932571996
 20
-113.7582587063695
 30
0.0
 10
92.81776256360112
 20
-113.7582587063695
 30
0.0
  0
HATCH
  5
9A
330
94
100
AcDbEntity
  8
_U+30EC_U+30A4_U+30E4_U+30FC 1
 62
   179
420
  2234388
100
AcDbHatch
 10
0.0
 20
0.0
 30
0.0
210
0.0
220
0.0
230
1.0
  2
SOLID
 70
     1
 71
     0
 91
        2
 92
        1
 93
        1
 72
     4
 94
        3
 73
     0
 74
     1
 95
       32
 96
       28
 40
0.0
 40
0.0
 40
0.0
 40
0.0
 40
1.0
 40
1.0
 40
1.0
 40
2.0
 40
2.0
 40
2.0
 40
3.0
 40
3.0
 40
3.0
 40
4.0
 40
4.0
 40
4.0
 40
5.0
 40
5.0
 40
5.0
 40
6.0
 40
6.0
 40
6.0
 40
7.0
 40
7.0
 40
7.0
 40
8.0
 40
8.0
 40
8.0
 40
9.0
 40
9.0
 40
9.0
 40
9.0
 10
92.80053708617487
 20
-114.616948756068
 10
92.28446178248444
 20
-114.616948756068
 10
92.27619355331984
 20
-114.0628051472655
 10
92.27619355331984
 20
-113.8492092271801
 10
92.27619355331984
 20
-113.6185600844426
 10
92.29548608803725
 20
-112.9712266427641
 10
92.83912215560967
 20
-112.9712266427641
 10
93.01206594896921
 20
-112.9712266427641
 10
93.25804576661605
 20
-113.0409898263405
 10
93.2959418169538
 20
-113.3730970311185
 10
93.2959418169538
 20
-113.3730970311185
 10
93.0823458968683
 20
-113.3730970311185
 10
93.0823458968683
 20
-113.3730970311185
 10
93.07132159131551
 20
-113.3160807008376
 10
93.0396267128512
 20
-113.1679415949719
 10
92.83705509831852
 20
-113.1679415949719
 10
92.54491100116933
 20
-113.1679415949719
 10
92.50494789354043
 20
-113.4959146851677
 10
92.49185653069648
 20
-113.7010701213143
 10
92.58487410879823
 20
-113.6228664537991
 10
92.65308699940617
 20
-113.5636108114528
 10
92.83498804102737
 20
-113.5636108114528
 10
93.0148220253574
 20
-113.5636108114528
 10
93.31730140896235
 20
-113.6714423001412
 10
93.31730140896235
 20
-114.0776190578521
 10
93.31730140896235
 20
-114.397151664109
 10
93.11817488991491
 20
-114.616948756068
 10
92.80053708617487
 20
-114.616948756068
 97
        0
 97
        0
 92
        1
 93
        1
 72
     4
 94
        3
 73
     0
 74
     1
 95
       17
 96
       13
 40
0.0
 40
0.0
 40
0.0
 40
0.0
 40
1.0
 40
1.0
 40
1.0
 40
2.0
 40
2.0
 40
2.0
 40
3.0
 40
3.0
 40
3.0
 40
4.0
 40
4.0
 40
4.0
 40
4.0
 10
92.81776256360112
 20
-113.7582587063695
 10
92.55524628762508
 20
-113.7582587063695
 10
92.51735023728733
 20
-113.9697875691638
 10
92.51735023728733
 20
-114.086059541791
 10
92.51735023728733
 20
-114.2617594115387
 10
92.61243487268023
 20
-114.4247124279911
 10
92.79640297159257
 20
-114.4247124279911
 10
92.91698131357631
 20
-114.4247124279911
 10
93.09268118332406
 20
-114.3654567856448
 10
93.09268118332406
 20
-114.0796861151433
 10
93.09268118332406
 20
-113.8555826538278
 10
92.95349932571996
 20
-113.7582587063695
 10
92.81776256360112
 20
-113.7582587063695
 97
        0
 97
        0
 75
     2
 76
     1
 98
        0
  0
ENDBLK
  5
97
330
94
100
AcDbEntity
  8
0
100
AcDbBlockEnd
  0
BLOCK
  5
AB
330
A9
100
AcDbEntity
  8
0
100
AcDbBlockBegin
  2
block 6
 70
     0
 10
0.0
 20
0.0
 30
0.0
  3
block 6
  1

  0
SPLINE
  5
AD
330
A9
100
AcDbEntity
  8
_U+30EC_U+30A4_U+30E4_U+30FC 1
370
     0
100
AcDbSpline
210
0.0
220
0.0
230
1.0
 70
    11
 71
     3
 72
    26
 73
    22
 74
     0
 42
0.0000000001
 43
0.0000000001
 12
1.0
 22
0.0
 32
0.0
 13
1.0
 23
0.0
 33
0.0
 40
0.0
 40
0.0
 40
0.0
 40
0.0
 40
1.0
 40
1.0
 40
1.0
 40
2.0
 40
2.0
 40
2.0
 40
3.0
 40
3.0
 40
3.0
 40
4.0
 40
4.0
 40
4.0
 40
5.0
 40
5.0
 40
5.0
 40
6.0
 40
6.0
 40
6.0
 40
7.0
 40
7.0
 40
7.0
 40
7.0
 10
92.43639049338397
 20
-142.5659748992543
 30
0.0
 10
92.43639049338397
 20
-142.5659748992543
 30
0.0
 10
92.43639049338397
 20
-141.4618217962318
 30
0.0
 10
92.43639049338397
 20
-141.4618217962318
 30
0.0
 10
92.43639049338397
 20
-141.4618217962318
 30
0.0
 10
92.10635034589703
 20
-141.4618217962318
 30
0.0
 10
92.10635034589703
 20
-141.4618217962318
 30
0.0
 10
92.10635034589703
 20
-141.4618217962318
 30
0.0
 10
92.10635034589703
 20
-141.313682690366
 30
0.0
 10
92.10635034589703
 20
-141.313682690366
 30
0.0
 10
92.43845755067511
 20
-141.2988687797795
 30
0.0
 10
92.48496633972599
 20
-141.1359157633271
 30
0.0
 10
92.51459416089914
 20
-141.0215385932168
 30
0.0
 10
92.51459416089914
 20
-141.0215385932168
 30
0.0
 10
92.66066620947373
 20
-141.0215385932168
 30
0.0
 10
92.66066620947373
 20
-141.0215385932168
 30
0.0
 10
92.66066620947373
 20
-141.0215385932168
 30
0.0
 10
92.66066620947373
 20
-142.5659748992543
 30
0.0
 10
92.66066620947373
 20
-142.5659748992543
 30
0.0
 10
92.66066620947373
 20
-142.5659748992543
 30
0.0
 10
92.43639049338397
 20
-142.5659748992543
 30
0.0
 10
92.43639049338397
 20
-142.5659748992543
 30
0.0
  0
HATCH
  5
AE
330
A9
100
AcDbEntity
  8
_U+30EC_U+30A4_U+30E4_U+30FC 1
 62
   179
420
  2234388
100
AcDbHatch
 10
0.0
 20
0.0
 30
0.0
210
0.0
220
0.0
230
1.0
  2
SOLID
 70
     1
 71
     0
 91
        1
 92
        1
 93
        1
 72
     4
 94
        3
 73
     0
 74
     1
 95
       26
 96
       22
 40
0.0
 40
0.0
 40
0.0
 40
0.0
 40
1.0
 40
1.0
 40
1.0
 40
2.0
 40
2.0
 40
2.0
 40
3.0
 40
3.0
 40
3.0
 40
4.0
 40
4.0
 40
4.0
 40
5.0
 40
5.0
 40
5.0
 40
6.0
 40
6.0
 40
6.0
 40
7.0
 40
7.0
 40
7.0
 40
7.0
 10
92.43639049338397
 20
-142.5659748992543
 10
92.43639049338397
 20
-142.5659748992543
 10
92.43639049338397
 20
-141.4618217962318
 10
92.43639049338397
 20
-141.4618217962318
 10
92.43639049338397
 20
-141.4618217962318
 10
92.10635034589703
 20
-141.4618217962318
 10
92.10635034589703
 20
-141.4618217962318
 10
92.10635034589703
 20
-141.4618217962318
 10
92.10635034589703
 20
-141.313682690366
 10
92.10635034589703
 20
-141.313682690366
 10
92.43845755067511
 20
-141.2988687797795
 10
92.48496633972599
 20
-141.1359157633271
 10
92.51459416089914
 20
-141.0215385932168
 10
92.51459416089914
 20
-141.0215385932168
 10
92.66066620947373
 20
-141.0215385932168
 10
92.66066620947373
 20
-141.0215385932168
 10
92.66066620947373
 20
-141.0215385932168
 10
92.66066620947373
 20
-142.5659748992543
 10
92.66066620947373
 20
-142.5659748992543
 10
92.66066620947373
 20
-142.5659748992543
 10
92.43639049338397
 20
-142.5659748992543
 10
92.43639049338397
 20
-142.5659748992543
 97
        0
 97
        0
 75
     2
 76
     1
 98
        0
  0
ENDBLK
  5
AC
330
A9
100
AcDbEntity
  8
0
100
AcDbBlockEnd
  0
BLOCK
  5
BF
330
BD
100
AcDbEntity
  8
0
100
AcDbBlockBegin
  2
block 7
 70
     0
 10
0.0
 20
0.0
 30
0.0
  3
block 7
  1

  0
SPLINE
  5
C1
330
BD
100
AcDbEntity
  8
_U+30EC_U+30A4_U+30E4_U+30FC 1
370
     0
100
AcDbSpline
210
0.0
220
0.0
230
1.0
 70
    11
 71
     3
 72
    44
 73
    40
 74
     0
 42
0.0000000001
 43
0.0000000001
 12
1.0
 22
0.0
 32
0.0
 13
1.0
 23
0.0
 33
0.0
 40
0.0
 40
0.0
 40
0.0
 40
0.0
 40
1.0
 40
1.0
 40
1.0
 40
2.0
 40
2.0
 40
2.0
 40
3.0
 40
3.0
 40
3.0
 40
4.0
 40
4.0
 40
4.0
 40
5.0
 40
5.0
 40
5.0
 40
6.0
 40
6.0
 40
6.0
 40
7.0
 40
7.0
 40
7.0
 40
8.0
 40
8.0
 40
8.0
 40
9.0
 40
9.0
 40
9.0
 40
10.0
 40
10.0
 40
10.0
 40
11.0
 40
11.0
 40
11.0
 40
12.0
 40
12.0
 40
12.0
 40
13.0
 40
13.0
 40
13.0
 40
13.0
 10
94.97783743285277
 20
-137.4841145489623
 30
0.0
 10
94.76010739818497
 20
-137.6429334508323
 30
0.0
 10
94.66708982008323
 20
-137.7170030037652
 30
0.0
 10
94.61816946419269
 20
-137.8606634855001
 30
0.0
 10
94.61816946419269
 20
-137.8606634855001
 30
0.0
 10
95.39676104385914
 20
-137.8606634855001
 30
0.0
 10
95.39676104385914
 20
-137.8606634855001
 30
0.0
 10
95.39676104385914
 20
-137.8606634855001
 30
0.0
 10
95.39676104385914
 20
-138.065991176421
 30
0.0
 10
95.39676104385914
 20
-138.065991176421
 30
0.0
 10
95.39676104385914
 20
-138.065991176421
 30
0.0
 10
94.3687445510606
 20
-138.065991176421
 30
0.0
 10
94.3687445510606
 20
-138.065991176421
 30
0.0
 10
94.4004394295249
 20
-137.7083902650521
 30
0.0
 10
94.46589624374464
 20
-137.6301865975369
 30
0.0
 10
94.85105791899558
 20
-137.3318413285143
 30
0.0
 10
95.10702851354964
 20
-137.1330593190154
 30
0.0
 10
95.17248532776938
 20
-137.0651909379559
 30
0.0
 10
95.17248532776938
 20
-136.9277316280944
 30
0.0
 10
95.17248532776938
 20
-136.8092203434019
 30
0.0
 10
95.10048283212767
 20
-136.6783067149624
 30
0.0
 10
94.9037678799199
 20
-136.6783067149624
 30
0.0
 10
94.64366317078353
 20
-136.6783067149624
 30
0.0
 10
94.63539494161893
 20
-136.9087836029256
 30
0.0
 10
94.63091631748811
 20
-137.025227830327
 30
0.0
 10
94.63091631748811
 20
-137.025227830327
 30
0.0
 10
94.40664060139835
 20
-137.025227830327
 30
0.0
 10
94.40664060139835
 20
-137.025227830327
 30
0.0
 10
94.41525334011146
 20
-136.8981038069213
 30
0.0
 10
94.42593313611575
 20
-136.7861382036507
 30
0.0
 10
94.50620386092207
 20
-136.6676269189581
 30
0.0
 10
94.61610240690153
 20
-136.5067409597969
 30
0.0
 10
94.80248207265355
 20
-136.4729790240415
 30
0.0
 10
94.91858179050647
 20
-136.4729790240415
 30
0.0
 10
95.19591197706909
 20
-136.4729790240415
 30
0.0
 10
95.40330672528113
 20
-136.6569471229538
 30
0.0
 10
95.40330672528113
 20
-136.9297986853856
 30
0.0
 10
95.40330672528113
 20
-137.1585530256062
 30
0.0
 10
95.28686249787968
 20
-137.2577717755814
 30
0.0
 10
94.97783743285277
 20
-137.4841145489623
 30
0.0
  0
HATCH
  5
C2
330
BD
100
AcDbEntity
  8
_U+30EC_U+30A4_U+30E4_U+30FC 1
 62
   179
420
  2234388
100
AcDbHatch
 10
0.0
 20
0.0
 30
0.0
210
0.0
220
0.0
230
1.0
  2
SOLID
 70
     1
 71
     0
 91
        1
 92
        1
 93
        1
 72
     4
 94
        3
 73
     0
 74
     1
 95
       44
 96
       40
 40
0.0
 40
0.0
 40
0.0
 40
0.0
 40
1.0
 40
1.0
 40
1.0
 40
2.0
 40
2.0
 40
2.0
 40
3.0
 40
3.0
 40
3.0
 40
4.0
 40
4.0
 40
4.0
 40
5.0
 40
5.0
 40
5.0
 40
6.0
 40
6.0
 40
6.0
 40
7.0
 40
7.0
 40
7.0
 40
8.0
 40
8.0
 40
8.0
 40
9.0
 40
9.0
 40
9.0
 40
10.0
 40
10.0
 40
10.0
 40
11.0
 40
11.0
 40
11.0
 40
12.0
 40
12.0
 40
12.0
 40
13.0
 40
13.0
 40
13.0
 40
13.0
 10
94.97783743285277
 20
-137.4841145489623
 10
94.76010739818497
 20
-137.6429334508323
 10
94.66708982008323
 20
-137.7170030037652
 10
94.61816946419269
 20
-137.8606634855001
 10
94.61816946419269
 20
-137.8606634855001
 10
95.39676104385914
 20
-137.8606634855001
 10
95.39676104385914
 20
-137.8606634855001
 10
95.39676104385914
 20
-137.8606634855001
 10
95.39676104385914
 20
-138.065991176421
 10
95.39676104385914
 20
-138.065991176421
 10
95.39676104385914
 20
-138.065991176421
 10
94.3687445510606
 20
-138.065991176421
 10
94.3687445510606
 20
-138.065991176421
 10
94.4004394295249
 20
-137.7083902650521
 10
94.46589624374464
 20
-137.6301865975369
 10
94.85105791899558
 20
-137.3318413285143
 10
95.10702851354964
 20
-137.1330593190154
 10
95.17248532776938
 20
-137.0651909379559
 10
95.17248532776938
 20
-136.9277316280944
 10
95.17248532776938
 20
-136.8092203434019
 10
95.10048283212767
 20
-136.6783067149624
 10
94.9037678799199
 20
-136.6783067149624
 10
94.64366317078353
 20
-136.6783067149624
 10
94.63539494161893
 20
-136.9087836029256
 10
94.63091631748811
 20
-137.025227830327
 10
94.63091631748811
 20
-137.025227830327
 10
94.40664060139835
 20
-137.025227830327
 10
94.40664060139835
 20
-137.025227830327
 10
94.41525334011146
 20
-136.8981038069213
 10
94.42593313611575
 20
-136.7861382036507
 10
94.50620386092207
 20
-136.6676269189581
 10
94.61610240690153
 20
-136.5067409597969
 10
94.80248207265355
 20
-136.4729790240415
 10
94.91858179050647
 20
-136.4729790240415
 10
95.19591197706909
 20
-136.4729790240415
 10
95.40330672528113
 20
-136.6569471229538
 10
95.40330672528113
 20
-136.9297986853856
 10
95.40330672528113
 20
-137.1585530256062
 10
95.28686249787968
 20
-137.2577717755814
 10
94.97783743285277
 20
-137.4841145489623
 97
        0
 97
        0
 75
     2
 76
     1
 98
        0
  0
POLYLINE
  5
C3
330
BD
100
AcDbEntity
  8
_U+30EC_U+30A4_U+30E4_U+30FC 1
370
     0
100
AcDb2dPolyline
 66
     1
 10
0.0
 20
0.0
 30
0.0
  0
VERTEX
  5
C4
330
C3
100
AcDbEntity
  8
_U+30EC_U+30A4_U+30E4_U+30FC 1
370
     0
100
AcDbVertex
100
AcDb2dVertex
 10
95.62172577904596
 20
-138.065991176421
 30
0.0
  0
VERTEX
  5
C5
330
C3
100
AcDbEntity
  8
_U+30EC_U+30A4_U+30E4_U+30FC 1
370
     0
100
AcDbVertex
100
AcDb2dVertex
 10
95.62172577904596
 20
-137.8141546964492
 30
0.0
  0
VERTEX
  5
C6
330
C3
100
AcDbEntity
  8
_U+30EC_U+30A4_U+30E4_U+30FC 1
370
     0
100
AcDbVertex
100
AcDb2dVertex
 10
95.87356225901773
 20
-137.8141546964492
 30
0.0
  0
VERTEX
  5
C7
330
C3
100
AcDbEntity
  8
_U+30EC_U+30A4_U+30E4_U+30FC 1
370
     0
100
AcDbVertex
100
AcDb2dVertex
 10
95.87356225901773
 20
-138.065991176421
 30
0.0
  0
VERTEX
  5
C8
330
C3
100
AcDbEntity
  8
_U+30EC_U+30A4_U+30E4_U+30FC 1
370
     0
100
AcDbVertex
100
AcDb2dVertex
 10
95.62172577904596
 20
-138.065991176421
 30
0.0
  0
SEQEND
  5
C9
330
C3
100
AcDbEntity
  8
_U+30EC_U+30A4_U+30E4_U+30FC 1
370
     0
  0
HATCH
  5
CA
330
BD
100
AcDbEntity
  8
_U+30EC_U+30A4_U+30E4_U+30FC 1
 62
   179
420
  2234388
100
AcDbHatch
 10
0.0
 20
0.0
 30
0.0
210
0.0
220
0.0
230
1.0
  2
SOLID
 70
     1
 71
     0
 91
        1
 92
        1
 93
        4
 72
     1
 10
95.62172577904596
 20
-138.065991176421
 11
95.62172577904596
 21
-137.8141546964492
 72
     1
 10
95.62172577904596
 20
-137.8141546964492
 11
95.87356225901773
 21
-137.8141546964492
 72
     1
 10
95.87356225901773
 20
-137.8141546964492
 11
95.87356225901773
 21
-138.065991176421
 72
     1
 10
95.87356225901773
 20
-138.065991176421
 11
95.62172577904596
 21
-138.065991176421
 97
        0
 75
     2
 76
     1
 98
        0
  0
SPLINE
  5
CB
330
BD
100
AcDbEntity
  8
_U+30EC_U+30A4_U+30E4_U+30FC 1
370
     0
100
AcDbSpline
210
0.0
220
0.0
230
1.0
 70
    11
 71
     3
 72
    53
 73
    49
 74
     0
 42
0.0000000001
 43
0.0000000001
 12
1.0
 22
0.0
 32
0.0
 13
1.0
 23
0.0
 33
0.0
 40
0.0
 40
0.0
 40
0.0
 40
0.0
 40
1.0
 40
1.0
 40
1.0
 40
2.0
 40
2.0
 40
2.0
 40
3.0
 40
3.0
 40
3.0
 40
4.0
 40
4.0
 40
4.0
 40
5.0
 40
5.0
 40
5.0
 40
6.0
 40
6.0
 40
6.0
 40
7.0
 40
7.0
 40
7.0
 40
8.0
 40
8.0
 40
8.0
 40
9.0
 40
9.0
 40
9.0
 40
10.0
 40
10.0
 40
10.0
 40
11.0
 40
11.0
 40
11.0
 40
12.0
 40
12.0
 40
12.0
 40
13.0
 40
13.0
 40
13.0
 40
14.0
 40
14.0
 40
14.0
 40
15.0
 40
15.0
 40
15.0
 40
16.0
 40
16.0
 40
16.0
 40
16.0
 10
96.59083113904674
 20
-138.1166340800542
 30
0.0
 10
96.51262747153157
 20
-138.1166340800542
 30
0.0
 10
96.4109971547167
 20
-138.0997531121764
 30
0.0
 10
96.30936683790183
 20
-138.0363633552479
 30
0.0
 10
96.13607853499376
 20
-137.9264648092684
 30
0.0
 10
96.11471894298522
 20
-137.7952066712804
 30
0.0
 10
96.09577091781634
 20
-137.6873751825921
 30
0.0
 10
96.09577091781634
 20
-137.6873751825921
 30
0.0
 10
96.31797957661496
 20
-137.6873751825921
 30
0.0
 10
96.31797957661496
 20
-137.6873751825921
 30
0.0
 10
96.37275659483042
 20
-137.886157192091
 30
0.0
 10
96.49988061823615
 20
-137.9157850132641
 30
0.0
 10
96.59289819633788
 20
-137.9157850132641
 30
0.0
 10
96.73242456349051
 20
-137.9157850132641
 30
0.0
 10
96.88469778393855
 20
-137.8162217537404
 30
0.0
 10
96.88469778393855
 20
-137.583677808486
 30
0.0
 10
96.88469778393855
 20
-137.327707213932
 30
0.0
 10
96.70486379960852
 20
-137.2577717755814
 30
0.0
 10
96.58428545762477
 20
-137.2577717755814
 30
0.0
 10
96.55259057916047
 20
-137.2577717755814
 30
0.0
 10
96.4109971547167
 20
-137.2577717755814
 30
0.0
 10
96.32211369119726
 20
-137.3869628562783
 30
0.0
 10
96.32211369119726
 20
-137.3869628562783
 30
0.0
 10
96.14641382144951
 20
-137.3680148311094
 30
0.0
 10
96.14641382144951
 20
-137.3680148311094
 30
0.0
 10
96.14641382144951
 20
-137.3680148311094
 30
0.0
 10
96.26699216343326
 20
-136.5215548703835
 30
0.0
 10
96.26699216343326
 20
-136.5215548703835
 30
0.0
 10
96.26699216343326
 20
-136.5215548703835
 30
0.0
 10
97.04558374309973
 20
-136.5215548703835
 30
0.0
 10
97.04558374309973
 20
-136.5215548703835
 30
0.0
 10
97.04558374309973
 20
-136.5215548703835
 30
0.0
 10
97.04558374309973
 20
-136.7162027653001
 30
0.0
 10
97.04558374309973
 20
-136.7162027653001
 30
0.0
 10
97.04558374309973
 20
-136.7162027653001
 30
0.0
 10
96.42994517988558
 20
-136.7162027653001
 30
0.0
 10
96.42994517988558
 20
-136.7162027653001
 30
0.0
 10
96.42994517988558
 20
-136.7162027653001
 30
0.0
 10
96.36448836566582
 20
-137.1392604908888
 30
0.0
 10
96.36448836566582
 20
-137.1392604908888
 30
0.0
 10
96.42581106530328
 20
-137.1054985551334
 30
0.0
 10
96.50814884740075
 20
-137.0651909379559
 30
0.0
 10
96.62666013209333
 20
-137.0651909379559
 30
0.0
 10
96.88056366935625
 20
-137.0651909379559
 30
0.0
 10
97.11758623874144
 20
-137.251570603708
 30
0.0
 10
97.11758623874144
 20
-137.5647297833171
 30
0.0
 10
97.11758623874144
 20
-137.8820230775087
 30
0.0
 10
96.89331052265167
 20
-138.1166340800542
 30
0.0
 10
96.59083113904674
 20
-138.1166340800542
 30
0.0
  0
HATCH
  5
CC
330
BD
100
AcDbEntity
  8
_U+30EC_U+30A4_U+30E4_U+30FC 1
 62
   179
420
  2234388
100
AcDbHatch
 10
0.0
 20
0.0
 30
0.0
210
0.0
220
0.0
230
1.0
  2
SOLID
 70
     1
 71
     0
 91
        1
 92
        1
 93
        1
 72
     4
 94
        3
 73
     0
 74
     1
 95
       53
 96
       49
 40
0.0
 40
0.0
 40
0.0
 40
0.0
 40
1.0
 40
1.0
 40
1.0
 40
2.0
 40
2.0
 40
2.0
 40
3.0
 40
3.0
 40
3.0
 40
4.0
 40
4.0
 40
4.0
 40
5.0
 40
5.0
 40
5.0
 40
6.0
 40
6.0
 40
6.0
 40
7.0
 40
7.0
 40
7.0
 40
8.0
 40
8.0
 40
8.0
 40
9.0
 40
9.0
 40
9.0
 40
10.0
 40
10.0
 40
10.0
 40
11.0
 40
11.0
 40
11.0
 40
12.0
 40
12.0
 40
12.0
 40
13.0
 40
13.0
 40
13.0
 40
14.0
 40
14.0
 40
14.0
 40
15.0
 40
15.0
 40
15.0
 40
16.0
 40
16.0
 40
16.0
 40
16.0
 10
96.59083113904674
 20
-138.1166340800542
 10
96.51262747153157
 20
-138.1166340800542
 10
96.4109971547167
 20
-138.0997531121764
 10
96.30936683790183
 20
-138.0363633552479
 10
96.13607853499376
 20
-137.9264648092684
 10
96.11471894298522
 20
-137.7952066712804
 10
96.09577091781634
 20
-137.6873751825921
 10
96.09577091781634
 20
-137.6873751825921
 10
96.31797957661496
 20
-137.6873751825921
 10
96.31797957661496
 20
-137.6873751825921
 10
96.37275659483042
 20
-137.886157192091
 10
96.49988061823615
 20
-137.9157850132641
 10
96.59289819633788
 20
-137.9157850132641
 10
96.73242456349051
 20
-137.9157850132641
 10
96.88469778393855
 20
-137.8162217537404
 10
96.88469778393855
 20
-137.583677808486
 10
96.88469778393855
 20
-137.327707213932
 10
96.70486379960852
 20
-137.2577717755814
 10
96.58428545762477
 20
-137.2577717755814
 10
96.55259057916047
 20
-137.2577717755814
 10
96.4109971547167
 20
-137.2577717755814
 10
96.32211369119726
 20
-137.3869628562783
 10
96.32211369119726
 20
-137.3869628562783
 10
96.14641382144951
 20
-137.3680148311094
 10
96.14641382144951
 20
-137.3680148311094
 10
96.14641382144951
 20
-137.3680148311094
 10
96.26699216343326
 20
-136.5215548703835
 10
96.26699216343326
 20
-136.5215548703835
 10
96.26699216343326
 20
-136.5215548703835
 10
97.04558374309973
 20
-136.5215548703835
 10
97.04558374309973
 20
-136.5215548703835
 10
97.04558374309973
 20
-136.5215548703835
 10
97.04558374309973
 20
-136.7162027653001
 10
97.04558374309973
 20
-136.7162027653001
 10
97.04558374309973
 20
-136.7162027653001
 10
96.42994517988558
 20
-136.7162027653001
 10
96.42994517988558
 20
-136.7162027653001
 10
96.42994517988558
 20
-136.7162027653001
 10
96.36448836566582
 20
-137.1392604908888
 10
96.36448836566582
 20
-137.1392604908888
 10
96.42581106530328
 20
-137.1054985551334
 10
96.50814884740075
 20
-137.0651909379559
 10
96.62666013209333
 20
-137.0651909379559
 10
96.88056366935625
 20
-137.0651909379559
 10
97.11758623874144
 20
-137.251570603708
 10
97.11758623874144
 20
-137.5647297833171
 10
97.11758623874144
 20
-137.8820230775087
 10
96.89331052265167
 20
-138.1166340800542
 10
96.59083113904674
 20
-138.1166340800542
 97
        0
 97
        0
 75
     2
 76
     1
 98
        0
  0
ENDBLK
  5
C0
330
BD
100
AcDbEntity
  8
0
100
AcDbBlockEnd
  0
ENDSEC
  0
SECTION
  2
ENTITIES
  0
SPLINE
  5
41
330
1F
100
AcDbEntity
  8
_U+30EC_U+30A4_U+30E4_U+30FC 1
370
     0
100
AcDbSpline
210
0.0
220
0.0
230
1.0
 70
    11
 71
     3
 72
   149
 73
   145
 74
     0
 42
0.0000000001
 43
0.0000000001
 12
1.0
 22
0.0
 32
0.0
 13
1.0
 23
0.0
 33
0.0
 40
0.0
 40
0.0
 40
0.0
 40
0.0
 40
1.0
 40
1.0
 40
1.0
 40
2.0
 40
2.0
 40
2.0
 40
3.0
 40
3.0
 40
3.0
 40
4.0
 40
4.0
 40
4.0
 40
5.0
 40
5.0
 40
5.0
 40
6.0
 40
6.0
 40
6.0
 40
7.0
 40
7.0
 40
7.0
 40
8.0
 40
8.0
 40
8.0
 40
9.0
 40
9.0
 40
9.0
 40
10.0
 40
10.0
 40
10.0
 40
11.0
 40
11.0
 40
11.0
 40
12.0
 40
12.0
 40
12.0
 40
13.0
 40
13.0
 40
13.0
 40
14.0
 40
14.0
 40
14.0
 40
15.0
 40
15.0
 40
15.0
 40
16.0
 40
16.0
 40
16.0
 40
17.0
 40
17.0
 40
17.0
 40
18.0
 40
18.0
 40
18.0
 40
19.0
 40
19.0
 40
19.0
 40
20.0
 40
20.0
 40
20.0
 40
21.0
 40
21.0
 40
21.0
 40
22.0
 40
22.0
 40
22.0
 40
23.0
 40
23.0
 40
23.0
 40
24.0
 40
24.0
 40
24.0
 40
25.0
 40
25.0
 40
25.0
 40
26.0
 40
26.0
 40
26.0
 40
27.0
 40
27.0
 40
27.0
 40
28.0
 40
28.0
 40
28.0
 40
29.0
 40
29.0
 40
29.0
 40
30.0
 40
30.0
 40
30.0
 40
31.0
 40
31.0
 40
31.0
 40
32.0
 40
32.0
 40
32.0
 40
33.0
 40
33.0
 40
33.0
 40
34.0
 40
34.0
 40
34.0
 40
35.0
 40
35.0
 40
35.0
 40
36.0
 40
36.0
 40
36.0
 40
37.0
 40
37.0
 40
37.0
 40
38.0
 40
38.0
 40
38.0
 40
39.0
 40
39.0
 40
39.0
 40
40.0
 40
40.0
 40
40.0
 40
41.0
 40
41.0
 40
41.0
 40
42.0
 40
42.0
 40
42.0
 40
43.0
 40
43.0
 40
43.0
 40
44.0
 40
44.0
 40
44.0
 40
45.0
 40
45.0
 40
45.0
 40
46.0
 40
46.0
 40
46.0
 40
47.0
 40
47.0
 40
47.0
 40
48.0
 40
48.0
 40
48.0
 40
48.0
 10
94.04628454512384
 20
-124.1619380245151
 30
0.0
 10
94.04628454512384
 20
-124.1619380245151
 30
0.0
 10
94.04628454512384
 20
-127.1619249682095
 30
0.0
 10
94.04628454512384
 20
-127.1619249682095
 30
0.0
 10
94.04628454512384
 20
-127.4382205236959
 30
0.0
 10
93.82234121750378
 20
-127.6621638569735
 30
0.0
 10
93.54604566899711
 20
-127.6621638569735
 30
0.0
 10
93.54604566899711
 20
-127.6621638569735
 30
0.0
 10
93.54604566899711
 20
-128.9616208010928
 30
0.0
 10
93.54604566899711
 20
-128.9616208010928
 30
0.0
 10
93.54604566899711
 20
-129.0718638566208
 30
0.0
 10
93.63561594448976
 20
-129.1614694121542
 30
0.0
 10
93.74585899723277
 20
-129.1614694121542
 30
0.0
 10
94.06145398918127
 20
-129.1614694121542
 30
0.0
 10
95.5462603401896
 20
-127.9246658013523
 30
0.0
 10
95.5462603401896
 20
-125.1620277464873
 30
0.0
 10
95.5462603401896
 20
-121.8482096917601
 30
0.0
 10
93.08373040301397
 20
-119.1620538590983
 30
0.0
 10
90.04634909161514
 20
-119.1620538590983
 30
0.0
 10
90.04634909161514
 20
-119.1620538590983
 30
0.0
 10
90.04652775526615
 20
-119.1620538590983
 30
0.0
 10
90.04652775526615
 20
-119.1620538590983
 30
0.0
 10
90.04652775526615
 20
-119.1620538590983
 30
0.0
 10
90.04652775526615
 20
-120.1663063588472
 30
0.0
 10
90.04652775526615
 20
-120.1663063588472
 30
0.0
 10
90.04652775526615
 20
-120.1663063588472
 30
0.0
 10
90.24633880873519
 20
-120.6661924698335
 30
0.0
 10
90.24633880873519
 20
-120.6661924698335
 30
0.0
 10
90.24633880873519
 20
-120.6661924698335
 30
0.0
 10
90.04652775526615
 20
-121.1660785808198
 30
0.0
 10
90.04652775526615
 20
-121.1660785808198
 30
0.0
 10
90.04652775526615
 20
-121.1660785808198
 30
0.0
 10
90.24633880873519
 20
-121.6659646918057
 30
0.0
 10
90.24633880873519
 20
-121.6659646918057
 30
0.0
 10
90.24633880873519
 20
-121.6659646918057
 30
0.0
 10
90.04652775526615
 20
-122.165850802792
 30
0.0
 10
90.04652775526615
 20
-122.165850802792
 30
0.0
 10
90.04652775526615
 20
-122.165850802792
 30
0.0
 10
90.24633880873519
 20
-122.6657369137779
 30
0.0
 10
90.24633880873519
 20
-122.6657369137779
 30
0.0
 10
90.24633880873519
 20
-122.6657369137779
 30
0.0
 10
90.04652775526615
 20
-123.1656230247642
 30
0.0
 10
90.04652775526615
 20
-123.1656230247642
 30
0.0
 10
90.04652775526615
 20
-123.1656230247642
 30
0.0
 10
90.24633880873519
 20
-123.6655091357501
 30
0.0
 10
90.24633880873519
 20
-123.6655091357501
 30
0.0
 10
90.24633880873519
 20
-123.6655091357501
 30
0.0
 10
90.04652775526615
 20
-124.1653599689586
 30
0.0
 10
90.04652775526615
 20
-124.1653599689586
 30
0.0
 10
90.04652775526615
 20
-124.1653599689586
 30
0.0
 10
90.24633880873519
 20
-124.6652460799449
 30
0.0
 10
90.24633880873519
 20
-124.6652460799449
 30
0.0
 10
90.24633880873519
 20
-124.6652460799449
 30
0.0
 10
90.04652775526615
 20
-125.1651321909311
 30
0.0
 10
90.04652775526615
 20
-125.1651321909311
 30
0.0
 10
90.04652775526615
 20
-125.1651321909311
 30
0.0
 10
90.24633880873519
 20
-125.6653710796948
 30
0.0
 10
90.24633880873519
 20
-125.6653710796948
 30
0.0
 10
90.24633880873519
 20
-125.6653710796948
 30
0.0
 10
90.04652775526615
 20
-126.1649044129033
 30
0.0
 10
90.04652775526615
 20
-126.1649044129033
 30
0.0
 10
90.04652775526615
 20
-126.1649044129033
 30
0.0
 10
90.24633880873519
 20
-126.665143301667
 30
0.0
 10
90.24633880873519
 20
-126.665143301667
 30
0.0
 10
90.24633880873519
 20
-126.665143301667
 30
0.0
 10
90.04652775526615
 20
-127.1646766348756
 30
0.0
 10
90.04652775526615
 20
-127.1646766348756
 30
0.0
 10
90.04652775526615
 20
-127.1646766348756
 30
0.0
 10
90.24633880873519
 20
-127.6649155236393
 30
0.0
 10
90.24633880873519
 20
-127.6649155236393
 30
0.0
 10
90.24633880873519
 20
-127.6649155236393
 30
0.0
 10
90.04652775526615
 20
-128.1644488568478
 30
0.0
 10
90.04652775526615
 20
-128.1644488568478
 30
0.0
 10
90.04652775526615
 20
-128.1644488568478
 30
0.0
 10
90.24633880873519
 20
-128.6646877456115
 30
0.0
 10
90.24633880873519
 20
-128.6646877456115
 30
0.0
 10
90.24633880873519
 20
-128.6646877456115
 30
0.0
 10
90.04652775526615
 20
-129.16422107882
 30
0.0
 10
90.04652775526615
 20
-129.16422107882
 30
0.0
 10
90.04652775526615
 20
-129.16422107882
 30
0.0
 10
90.24633880873519
 20
-129.6644246898062
 30
0.0
 10
90.24633880873519
 20
-129.6644246898062
 30
0.0
 10
90.24633880873519
 20
-129.6644246898062
 30
0.0
 10
90.04652775526615
 20
-130.1639933007925
 30
0.0
 10
90.04652775526615
 20
-130.1639933007925
 30
0.0
 10
90.04652775526615
 20
-130.1639933007925
 30
0.0
 10
90.24633880873519
 20
-130.6641969117781
 30
0.0
 10
90.24633880873519
 20
-130.6641969117781
 30
0.0
 10
90.24633880873519
 20
-130.6641969117781
 30
0.0
 10
90.04652775526615
 20
-131.1637302449869
 30
0.0
 10
90.04652775526615
 20
-131.1637302449869
 30
0.0
 10
90.04652775526615
 20
-131.1637302449869
 30
0.0
 10
90.24633880873519
 20
-131.6639691337506
 30
0.0
 10
90.24633880873519
 20
-131.6639691337506
 30
0.0
 10
90.24633880873519
 20
-131.6639691337506
 30
0.0
 10
90.04652775526615
 20
-132.1635024669588
 30
0.0
 10
90.04652775526615
 20
-132.1635024669588
 30
0.0
 10
90.04652775526615
 20
-132.1635024669588
 30
0.0
 10
90.24633880873519
 20
-132.6637413557232
 30
0.0
 10
90.24633880873519
 20
-132.6637413557232
 30
0.0
 10
90.24633880873519
 20
-132.6637413557232
 30
0.0
 10
90.04652775526615
 20
-133.1632746889314
 30
0.0
 10
90.04652775526615
 20
-133.1632746889314
 30
0.0
 10
90.04652775526615
 20
-133.1632746889314
 30
0.0
 10
90.24633880873519
 20
-133.6635135776951
 30
0.0
 10
90.24633880873519
 20
-133.6635135776951
 30
0.0
 10
90.24633880873519
 20
-133.6635135776951
 30
0.0
 10
90.04652775526615
 20
-134.1630469109039
 30
0.0
 10
90.04652775526615
 20
-134.1630469109039
 30
0.0
 10
90.04652775526615
 20
-134.1630469109039
 30
0.0
 10
90.24633880873519
 20
-134.6632857996676
 30
0.0
 10
90.24633880873519
 20
-134.6632857996676
 30
0.0
 10
90.24633880873519
 20
-134.6632857996676
 30
0.0
 10
90.04652775526615
 20
-135.1628191328758
 30
0.0
 10
90.04652775526615
 20
-135.1628191328758
 30
0.0
 10
90.04652775526615
 20
-135.1628191328758
 30
0.0
 10
90.24633880873519
 20
-135.663022743862
 30
0.0
 10
90.24633880873519
 20
-135.663022743862
 30
0.0
 10
90.24633880873519
 20
-135.663022743862
 30
0.0
 10
90.04652775526615
 20
-136.1625913548483
 30
0.0
 10
90.04652775526615
 20
-136.1625913548483
 30
0.0
 10
90.04652775526615
 20
-136.1625913548483
 30
0.0
 10
90.24633880873519
 20
-136.6627949658345
 30
0.0
 10
90.24633880873519
 20
-136.6627949658345
 30
0.0
 10
90.24633880873519
 20
-136.6627949658345
 30
0.0
 10
90.04652775526615
 20
-137.1623282990427
 30
0.0
 10
90.04652775526615
 20
-137.1623282990427
 30
0.0
 10
90.04652775526615
 20
-137.1623282990427
 30
0.0
 10
90.24633880873519
 20
-137.6625671878064
 30
0.0
 10
90.24633880873519
 20
-137.6625671878064
 30
0.0
 10
90.24633880873519
 20
-137.6625671878064
 30
0.0
 10
90.04652775526615
 20
-138.1621005210152
 30
0.0
 10
90.04652775526615
 20
-138.1621005210152
 30
0.0
 10
90.04652775526615
 20
-138.1621005210152
 30
0.0
 10
90.04652775526615
 20
-139.1625782985427
 30
0.0
 10
90.04652775526615
 20
-139.1625782985427
 30
0.0
 10
90.04652775526615
 20
-139.1625782985427
 30
0.0
 10
91.04629997723838
 20
-138.662339409779
 30
0.0
 10
91.04629997723838
 20
-138.662339409779
 30
0.0
 10
91.04629997723838
 20
-138.662339409779
 30
0.0
 10
91.04629997723838
 20
-124.1619380245151
 30
0.0
 10
91.04629997723838
 20
-124.1619380245151
 30
0.0
 10
91.04629997723838
 20
-124.1619380245151
 30
0.0
 10
94.04628454512384
 20
-124.1619380245151
 30
0.0
 10
94.04628454512384
 20
-124.1619380245151
 30
0.0
  0
HATCH
  5
42
330
1F
100
AcDbEntity
  8
_U+30EC_U+30A4_U+30E4_U+30FC 1
 62
   253
420
 11711154
100
AcDbHatch
 10
0.0
 20
0.0
 30
0.0
210
0.0
220
0.0
230
1.0
  2
SOLID
 70
     1
 71
     0
 91
        1
 92
        1
 93
        1
 72
     4
 94
        3
 73
     0
 74
     1
 95
      149
 96
      145
 40
0.0
 40
0.0
 40
0.0
 40
0.0
 40
1.0
 40
1.0
 40
1.0
 40
2.0
 40
2.0
 40
2.0
 40
3.0
 40
3.0
 40
3.0
 40
4.0
 40
4.0
 40
4.0
 40
5.0
 40
5.0
 40
5.0
 40
6.0
 40
6.0
 40
6.0
 40
7.0
 40
7.0
 40
7.0
 40
8.0
 40
8.0
 40
8.0
 40
9.0
 40
9.0
 40
9.0
 40
10.0
 40
10.0
 40
10.0
 40
11.0
 40
11.0
 40
11.0
 40
12.0
 40
12.0
 40
12.0
 40
13.0
 40
13.0
 40
13.0
 40
14.0
 40
14.0
 40
14.0
 40
15.0
 40
15.0
 40
15.0
 40
16.0
 40
16.0
 40
16.0
 40
17.0
 40
17.0
 40
17.0
 40
18.0
 40
18.0
 40
18.0
 40
19.0
 40
19.0
 40
19.0
 40
20.0
 40
20.0
 40
20.0
 40
21.0
 40
21.0
 40
21.0
 40
22.0
 40
22.0
 40
22.0
 40
23.0
 40
23.0
 40
23.0
 40
24.0
 40
24.0
 40
24.0
 40
25.0
 40
25.0
 40
25.0
 40
26.0
 40
26.0
 40
26.0
 40
27.0
 40
27.0
 40
27.0
 40
28.0
 40
28.0
 40
28.0
 40
29.0
 40
29.0
 40
29.0
 40
30.0
 40
30.0
 40
30.0
 40
31.0
 40
31.0
 40
31.0
 40
32.0
 40
32.0
 40
32.0
 40
33.0
 40
33.0
 40
33.0
 40
34.0
 40
34.0
 40
34.0
 40
35.0
 40
35.0
 40
35.0
 40
36.0
 40
36.0
 40
36.0
 40
37.0
 40
37.0
 40
37.0
 40
38.0
 40
38.0
 40
38.0
 40
39.0
 40
39.0
 40
39.0
 40
40.0
 40
40.0
 40
40.0
 40
41.0
 40
41.0
 40
41.0
 40
42.0
 40
42.0
 40
42.0
 40
43.0
 40
43.0
 40
43.0
 40
44.0
 40
44.0
 40
44.0
 40
45.0
 40
45.0
 40
45.0
 40
46.0
 40
46.0
 40
46.0
 40
47.0
 40
47.0
 40
47.0
 40
48.0
 40
48.0
 40
48.0
 40
48.0
 10
94.04628454512384
 20
-124.1619380245151
 10
94.04628454512384
 20
-124.1619380245151
 10
94.04628454512384
 20
-127.1619249682095
 10
94.04628454512384
 20
-127.1619249682095
 10
94.04628454512384
 20
-127.4382205236959
 10
93.82234121750378
 20
-127.6621638569735
 10
93.54604566899711
 20
-127.6621638569735
 10
93.54604566899711
 20
-127.6621638569735
 10
93.54604566899711
 20
-128.9616208010928
 10
93.54604566899711
 20
-128.9616208010928
 10
93.54604566899711
 20
-129.0718638566208
 10
93.63561594448976
 20
-129.1614694121542
 10
93.74585899723277
 20
-129.1614694121542
 10
94.06145398918127
 20
-129.1614694121542
 10
95.5462603401896
 20
-127.9246658013523
 10
95.5462603401896
 20
-125.1620277464873
 10
95.5462603401896
 20
-121.8482096917601
 10
93.08373040301397
 20
-119.1620538590983
 10
90.04634909161514
 20
-119.1620538590983
 10
90.04634909161514
 20
-119.1620538590983
 10
90.04652775526615
 20
-119.1620538590983
 10
90.04652775526615
 20
-119.1620538590983
 10
90.04652775526615
 20
-119.1620538590983
 10
90.04652775526615
 20
-120.1663063588472
 10
90.04652775526615
 20
-120.1663063588472
 10
90.04652775526615
 20
-120.1663063588472
 10
90.24633880873519
 20
-120.6661924698335
 10
90.24633880873519
 20
-120.6661924698335
 10
90.24633880873519
 20
-120.6661924698335
 10
90.04652775526615
 20
-121.1660785808198
 10
90.04652775526615
 20
-121.1660785808198
 10
90.04652775526615
 20
-121.1660785808198
 10
90.24633880873519
 20
-121.6659646918057
 10
90.24633880873519
 20
-121.6659646918057
 10
90.24633880873519
 20
-121.6659646918057
 10
90.04652775526615
 20
-122.165850802792
 10
90.04652775526615
 20
-122.165850802792
 10
90.04652775526615
 20
-122.165850802792
 10
90.24633880873519
 20
-122.6657369137779
 10
90.24633880873519
 20
-122.6657369137779
 10
90.24633880873519
 20
-122.6657369137779
 10
90.04652775526615
 20
-123.1656230247642
 10
90.04652775526615
 20
-123.1656230247642
 10
90.04652775526615
 20
-123.1656230247642
 10
90.24633880873519
 20
-123.6655091357501
 10
90.24633880873519
 20
-123.6655091357501
 10
90.24633880873519
 20
-123.6655091357501
 10
90.04652775526615
 20
-124.1653599689586
 10
90.04652775526615
 20
-124.1653599689586
 10
90.04652775526615
 20
-124.1653599689586
 10
90.24633880873519
 20
-124.6652460799449
 10
90.24633880873519
 20
-124.6652460799449
 10
90.24633880873519
 20
-124.6652460799449
 10
90.04652775526615
 20
-125.1651321909311
 10
90.04652775526615
 20
-125.1651321909311
 10
90.04652775526615
 20
-125.1651321909311
 10
90.24633880873519
 20
-125.6653710796948
 10
90.24633880873519
 20
-125.6653710796948
 10
90.24633880873519
 20
-125.6653710796948
 10
90.04652775526615
 20
-126.1649044129033
 10
90.04652775526615
 20
-126.1649044129033
 10
90.04652775526615
 20
-126.1649044129033
 10
90.24633880873519
 20
-126.665143301667
 10
90.24633880873519
 20
-126.665143301667
 10
90.24633880873519
 20
-126.665143301667
 10
90.04652775526615
 20
-127.1646766348756
 10
90.04652775526615
 20
-127.1646766348756
 10
90.04652775526615
 20
-127.1646766348756
 10
90.24633880873519
 20
-127.6649155236393
 10
90.24633880873519
 20
-127.6649155236393
 10
90.24633880873519
 20
-127.6649155236393
 10
90.04652775526615
 20
-128.1644488568478
 10
90.04652775526615
 20
-128.1644488568478
 10
90.04652775526615
 20
-128.1644488568478
 10
90.24633880873519
 20
-128.6646877456115
 10
90.24633880873519
 20
-128.6646877456115
 10
90.24633880873519
 20
-128.6646877456115
 10
90.04652775526615
 20
-129.16422107882
 10
90.04652775526615
 20
-129.16422107882
 10
90.04652775526615
 20
-129.16422107882
 10
90.24633880873519
 20
-129.6644246898062
 10
90.24633880873519
 20
-129.6644246898062
 10
90.24633880873519
 20
-129.6644246898062
 10
90.04652775526615
 20
-130.1639933007925
 10
90.04652775526615
 20
-130.1639933007925
 10
90.04652775526615
 20
-130.1639933007925
 10
90.24633880873519
 20
-130.6641969117781
 10
90.24633880873519
 20
-130.6641969117781
 10
90.24633880873519
 20
-130.6641969117781
 10
90.04652775526615
 20
-131.1637302449869
 10
90.04652775526615
 20
-131.1637302449869
 10
90.04652775526615
 20
-131.1637302449869
 10
90.24633880873519
 20
-131.6639691337506
 10
90.24633880873519
 20
-131.6639691337506
 10
90.24633880873519
 20
-131.6639691337506
 10
90.04652775526615
 20
-132.1635024669588
 10
90.04652775526615
 20
-132.1635024669588
 10
90.04652775526615
 20
-132.1635024669588
 10
90.24633880873519
 20
-132.6637413557232
 10
90.24633880873519
 20
-132.6637413557232
 10
90.24633880873519
 20
-132.6637413557232
 10
90.04652775526615
 20
-133.1632746889314
 10
90.04652775526615
 20
-133.1632746889314
 10
90.04652775526615
 20
-133.1632746889314
 10
90.24633880873519
 20
-133.6635135776951
 10
90.24633880873519
 20
-133.6635135776951
 10
90.24633880873519
 20
-133.6635135776951
 10
90.04652775526615
 20
-134.1630469109039
 10
90.04652775526615
 20
-134.1630469109039
 10
90.04652775526615
 20
-134.1630469109039
 10
90.24633880873519
 20
-134.6632857996676
 10
90.24633880873519
 20
-134.6632857996676
 10
90.24633880873519
 20
-134.6632857996676
 10
90.04652775526615
 20
-135.1628191328758
 10
90.04652775526615
 20
-135.1628191328758
 10
90.04652775526615
 20
-135.1628191328758
 10
90.24633880873519
 20
-135.663022743862
 10
90.24633880873519
 20
-135.663022743862
 10
90.24633880873519
 20
-135.663022743862
 10
90.04652775526615
 20
-136.1625913548483
 10
90.04652775526615
 20
-136.1625913548483
 10
90.04652775526615
 20
-136.1625913548483
 10
90.24633880873519
 20
-136.6627949658345
 10
90.24633880873519
 20
-136.6627949658345
 10
90.24633880873519
 20
-136.6627949658345
 10
90.04652775526615
 20
-137.1623282990427
 10
90.04652775526615
 20
-137.1623282990427
 10
90.04652775526615
 20
-137.1623282990427
 10
90.24633880873519
 20
-137.6625671878064
 10
90.24633880873519
 20
-137.6625671878064
 10
90.24633880873519
 20
-137.6625671878064
 10
90.04652775526615
 20
-138.1621005210152
 10
90.04652775526615
 20
-138.1621005210152
 10
90.04652775526615
 20
-138.1621005210152
 10
90.04652775526615
 20
-139.1625782985427
 10
90.04652775526615
 20
-139.1625782985427
 10
90.04652775526615
 20
-139.1625782985427
 10
91.04629997723838
 20
-138.662339409779
 10
91.04629997723838
 20
-138.662339409779
 10
91.04629997723838
 20
-138.662339409779
 10
91.04629997723838
 20
-124.1619380245151
 10
91.04629997723838
 20
-124.1619380245151
 10
91.04629997723838
 20
-124.1619380245151
 10
94.04628454512384
 20
-124.1619380245151
 10
94.04628454512384
 20
-124.1619380245151
 97
        0
 97
        0
 75
     2
 76
     1
 98
        0
  0
SPLINE
  5
43
330
1F
100
AcDbEntity
  8
_U+30EC_U+30A4_U+30E4_U+30FC 1
 62
   179
420
  2234388
370
     9
100
AcDbSpline
210
0.0
220
0.0
230
1.0
 70
    11
 71
     3
 72
    17
 73
    13
 74
     0
 42
0.0000000001
 43
0.0000000001
 12
1.0
 22
0.0
 32
0.0
 13
1.0
 23
0.0
 33
0.0
 40
0.0
 40
0.0
 40
0.0
 40
0.0
 40
1.0
 40
1.0
 40
1.0
 40
2.0
 40
2.0
 40
2.0
 40
3.0
 40
3.0
 40
3.0
 40
4.0
 40
4.0
 40
4.0
 40
4.0
 10
84.4234242350679
 20
-139.1618727429872
 30
0.0
 10
84.4234242350679
 20
-139.1067688541122
 30
0.0
 10
84.37865673621002
 20
-139.0619660763455
 30
0.0
 10
84.32351757095006
 20
-139.0619660763455
 30
0.0
 10
84.26876646123577
 20
-139.0619660763455
 30
0.0
 10
84.223963684601
 20
-139.1067688541122
 30
0.0
 10
84.223963684601
 20
-139.1618727429872
 30
0.0
 10
84.223963684601
 20
-139.2176821874176
 30
0.0
 10
84.26876646123577
 20
-139.2624849651843
 30
0.0
 10
84.32351757095006
 20
-139.2624849651843
 30
0.0
 10
84.37865673621002
 20
-139.2624849651843
 30
0.0
 10
84.4234242350679
 20
-139.2176821874176
 30
0.0
 10
84.4234242350679
 20
-139.1618727429872
 30
0.0
  0
SPLINE
  5
44
330
1F
100
AcDbEntity
  8
_U+30EC_U+30A4_U+30E4_U+30FC 1
 62
   179
420
  2234388
370
     9
100
AcDbSpline
210
0.0
220
0.0
230
1.0
 70
    11
 71
     3
 72
    17
 73
    13
 74
     0
 42
0.0000000001
 43
0.0000000001
 12
1.0
 22
0.0
 32
0.0
 13
1.0
 23
0.0
 33
0.0
 40
0.0
 40
0.0
 40
0.0
 40
0.0
 40
1.0
 40
1.0
 40
1.0
 40
2.0
 40
2.0
 40
2.0
 40
3.0
 40
3.0
 40
3.0
 40
4.0
 40
4.0
 40
4.0
 40
4.0
 10
84.4234242350679
 20
-119.1620538590983
 30
0.0
 10
84.4234242350679
 20
-119.1065971924456
 30
0.0
 10
84.37865673621002
 20
-119.0614769146789
 30
0.0
 10
84.32351757095006
 20
-119.0614769146789
 30
0.0
 10
84.26876646123577
 20
-119.0614769146789
 30
0.0
 10
84.223963684601
 20
-119.1065971924456
 30
0.0
 10
84.223963684601
 20
-119.1620538590983
 30
0.0
 10
84.223963684601
 20
-119.2171930257513
 30
0.0
 10
84.26876646123577
 20
-119.2619605257402
 30
0.0
 10
84.32351757095006
 20
-119.2619605257402
 30
0.0
 10
84.37865673621002
 20
-119.2619605257402
 30
0.0
 10
84.4234242350679
 20
-119.2171930257513
 30
0.0
 10
84.4234242350679
 20
-119.1620538590983
 30
0.0
  0
SPLINE
  5
45
330
1F
100
AcDbEntity
  8
_U+30EC_U+30A4_U+30E4_U+30FC 1
 62
   179
420
  2234388
370
     9
100
AcDbSpline
210
0.0
220
0.0
230
1.0
 70
    11
 71
     3
 72
    17
 73
    13
 74
     0
 42
0.0000000001
 43
0.0000000001
 12
1.0
 22
0.0
 32
0.0
 13
1.0
 23
0.0
 33
0.0
 40
0.0
 40
0.0
 40
0.0
 40
0.0
 40
1.0
 40
1.0
 40
1.0
 40
2.0
 40
2.0
 40
2.0
 40
3.0
 40
3.0
 40
3.0
 40
4.0
 40
4.0
 40
4.0
 40
4.0
 10
88.6023591284544
 20
-124.2132671911688
 30
0.0
 10
88.6023591284544
 20
-124.1581280245161
 30
0.0
 10
88.55755635181963
 20
-124.1133605245272
 30
0.0
 10
88.5024194223187
 20
-124.1133605245272
 30
0.0
 10
88.44696052130783
 20
-124.1133605245272
 30
0.0
 10
88.40219302244994
 20
-124.1581280245161
 30
0.0
 10
88.40219302244994
 20
-124.2132671911688
 30
0.0
 10
88.40219302244994
 20
-124.2683710800441
 30
0.0
 10
88.44696052130783
 20
-124.3131738578105
 30
0.0
 10
88.5024194223187
 20
-124.3131738578105
 30
0.0
 10
88.55755635181963
 20
-124.3131738578105
 30
0.0
 10
88.6023591284544
 20
-124.2683710800441
 30
0.0
 10
88.6023591284544
 20
-124.2132671911688
 30
0.0
  0
POLYLINE
  5
46
330
1F
100
AcDbEntity
  8
_U+30EC_U+30A4_U+30E4_U+30FC 1
 62
   179
420
  2234388
370
     9
100
AcDb2dPolyline
 66
     1
 10
0.0
 20
0.0
 30
0.0
  0
VERTEX
  5
47
330
46
100
AcDbEntity
  8
_U+30EC_U+30A4_U+30E4_U+30FC 1
 62
   179
420
  2234388
370
     9
100
AcDbVertex
100
AcDb2dVertex
 10
88.5024194223187
 20
-124.1622908022929
 30
0.0
  0
VERTEX
  5
48
330
46
100
AcDbEntity
  8
_U+30EC_U+30A4_U+30E4_U+30FC 1
 62
   179
420
  2234388
370
     9
100
AcDbVertex
100
AcDb2dVertex
 10
88.5024194223187
 20
-129.1621396899316
 30
0.0
  0
SEQEND
  5
49
330
46
100
AcDbEntity
  8
_U+30EC_U+30A4_U+30E4_U+30FC 1
 62
   179
420
  2234388
370
     9
  0
POLYLINE
  5
4A
330
1F
100
AcDbEntity
  8
_U+30EC_U+30A4_U+30E4_U+30FC 1
 62
   179
420
  2234388
370
     9
100
AcDb2dPolyline
 66
     1
 10
0.0
 20
0.0
 30
0.0
  0
VERTEX
  5
4B
330
4A
100
AcDbEntity
  8
_U+30EC_U+30A4_U+30E4_U+30FC 1
 62
   179
420
  2234388
370
     9
100
AcDbVertex
100
AcDb2dVertex
 10
87.04241111269643
 20
-124.2132671911688
 30
0.0
  0
VERTEX
  5
4C
330
4A
100
AcDbEntity
  8
_U+30EC_U+30A4_U+30E4_U+30FC 1
 62
   179
420
  2234388
370
     9
100
AcDbVertex
100
AcDb2dVertex
 10
89.50254442206868
 20
-124.2132671911688
 30
0.0
  0
SEQEND
  5
4D
330
4A
100
AcDbEntity
  8
_U+30EC_U+30A4_U+30E4_U+30FC 1
 62
   179
420
  2234388
370
     9
  0
SPLINE
  5
4E
330
1F
100
AcDbEntity
  8
_U+30EC_U+30A4_U+30E4_U+30FC 1
 62
   179
420
  2234388
370
     9
100
AcDbSpline
210
0.0
220
0.0
230
1.0
 70
    11
 71
     3
 72
    17
 73
    13
 74
     0
 42
0.0000000001
 43
0.0000000001
 12
1.0
 22
0.0
 32
0.0
 13
1.0
 23
0.0
 33
0.0
 40
0.0
 40
0.0
 40
0.0
 40
0.0
 40
1.0
 40
1.0
 40
1.0
 40
2.0
 40
2.0
 40
2.0
 40
3.0
 40
3.0
 40
3.0
 40
4.0
 40
4.0
 40
4.0
 40
4.0
 10
88.6023591284544
 20
-129.2131160788078
 30
0.0
 10
88.6023591284544
 20
-129.1580121899329
 30
0.0
 10
88.55755635181963
 20
-129.1132094121662
 30
0.0
 10
88.5024194223187
 20
-129.1132094121662
 30
0.0
 10
88.44696052130783
 20
-129.1132094121662
 30
0.0
 10
88.40219302244994
 20
-129.1580121899329
 30
0.0
 10
88.40219302244994
 20
-129.2131160788078
 30
0.0
 10
88.40219302244994
 20
-129.2682552454609
 30
0.0
 10
88.44696052130783
 20
-129.3130227454495
 30
0.0
 10
88.5024194223187
 20
-129.3130227454495
 30
0.0
 10
88.55755635181963
 20
-129.3130227454495
 30
0.0
 10
88.6023591284544
 20
-129.2682552454609
 30
0.0
 10
88.6023591284544
 20
-129.2131160788078
 30
0.0
  0
POLYLINE
  5
4F
330
1F
100
AcDbEntity
  8
_U+30EC_U+30A4_U+30E4_U+30FC 1
 62
   179
420
  2234388
370
     9
100
AcDb2dPolyline
 66
     1
 10
0.0
 20
0.0
 30
0.0
  0
VERTEX
  5
50
330
4F
100
AcDbEntity
  8
_U+30EC_U+30A4_U+30E4_U+30FC 1
 62
   179
420
  2234388
370
     9
100
AcDbVertex
100
AcDb2dVertex
 10
87.04241111269643
 20
-129.2131160788078
 30
0.0
  0
VERTEX
  5
51
330
4F
100
AcDbEntity
  8
_U+30EC_U+30A4_U+30E4_U+30FC 1
 62
   179
420
  2234388
370
     9
100
AcDbVertex
100
AcDb2dVertex
 10
89.50254442206868
 20
-129.2131160788078
 30
0.0
  0
SEQEND
  5
52
330
4F
100
AcDbEntity
  8
_U+30EC_U+30A4_U+30E4_U+30FC 1
 62
   179
420
  2234388
370
     9
  0
INSERT
  5
54
330
1F
100
AcDbEntity
  8
_U+30EC_U+30A4_U+30E4_U+30FC 1
100
AcDbBlockReference
  2
block 2
 10
0.0
 20
0.0
 30
0.0
  0
POLYLINE
  5
59
330
1F
100
AcDbEntity
  8
_U+30EC_U+30A4_U+30E4_U+30FC 1
 62
   179
420
  2234388
370
     9
100
AcDb2dPolyline
 66
     1
 10
0.0
 20
0.0
 30
0.0
  0
VERTEX
  5
5A
330
59
100
AcDbEntity
  8
_U+30EC_U+30A4_U+30E4_U+30FC 1
 62
   179
420
  2234388
370
     9
100
AcDbVertex
100
AcDb2dVertex
 10
84.32351757095006
 20
-139.1618727429872
 30
0.0
  0
VERTEX
  5
5B
330
59
100
AcDbEntity
  8
_U+30EC_U+30A4_U+30E4_U+30FC 1
 62
   179
420
  2234388
370
     9
100
AcDbVertex
100
AcDb2dVertex
 10
84.32351757095006
 20
-119.1617363590983
 30
0.0
  0
SEQEND
  5
5C
330
59
100
AcDbEntity
  8
_U+30EC_U+30A4_U+30E4_U+30FC 1
 62
   179
420
  2234388
370
     9
  0
POLYLINE
  5
5D
330
1F
100
AcDbEntity
  8
_U+30EC_U+30A4_U+30E4_U+30FC 1
 62
   179
420
  2234388
370
     9
100
AcDb2dPolyline
 66
     1
 10
0.0
 20
0.0
 30
0.0
  0
VERTEX
  5
5E
330
5D
100
AcDbEntity
  8
_U+30EC_U+30A4_U+30E4_U+30FC 1
 62
   179
420
  2234388
370
     9
100
AcDbVertex
100
AcDb2dVertex
 10
86.385080296133
 20
-139.1618727429872
 30
0.0
  0
VERTEX
  5
5F
330
5D
100
AcDbEntity
  8
_U+30EC_U+30A4_U+30E4_U+30FC 1
 62
   179
420
  2234388
370
     9
100
AcDbVertex
100
AcDb2dVertex
 10
83.32378065201104
 20
-139.1618727429872
 30
0.0
  0
SEQEND
  5
60
330
5D
100
AcDbEntity
  8
_U+30EC_U+30A4_U+30E4_U+30FC 1
 62
   179
420
  2234388
370
     9
  0
POLYLINE
  5
61
330
1F
100
AcDbEntity
  8
_U+30EC_U+30A4_U+30E4_U+30FC 1
 62
   179
420
  2234388
370
     9
100
AcDb2dPolyline
 66
     1
 10
0.0
 20
0.0
 30
0.0
  0
VERTEX
  5
62
330
61
100
AcDbEntity
  8
_U+30EC_U+30A4_U+30E4_U+30FC 1
 62
   179
420
  2234388
370
     9
100
AcDbVertex
100
AcDb2dVertex
 10
83.32409815200293
 20
-119.1620538590983
 30
0.0
  0
VERTEX
  5
63
330
61
100
AcDbEntity
  8
_U+30EC_U+30A4_U+30E4_U+30FC 1
 62
   179
420
  2234388
370
     9
100
AcDbVertex
100
AcDb2dVertex
 10
86.18318557906154
 20
-119.1620538590983
 30
0.0
  0
VERTEX
  5
64
330
61
100
AcDbEntity
  8
_U+30EC_U+30A4_U+30E4_U+30FC 1
 62
   179
420
  2234388
370
     9
100
AcDbVertex
100
AcDb2dVertex
 10
87.04241111269643
 20
-119.1620538590983
 30
0.0
  0
VERTEX
  5
65
330
61
100
AcDbEntity
  8
_U+30EC_U+30A4_U+30E4_U+30FC 1
 62
   179
420
  2234388
370
     9
100
AcDbVertex
100
AcDb2dVertex
 10
89.50254442206868
 20
-119.1620538590983
 30
0.0
  0
SEQEND
  5
66
330
61
100
AcDbEntity
  8
_U+30EC_U+30A4_U+30E4_U+30FC 1
 62
   179
420
  2234388
370
     9
  0
INSERT
  5
68
330
1F
100
AcDbEntity
  8
_U+30EC_U+30A4_U+30E4_U+30FC 1
100
AcDbBlockReference
  2
block 3
 10
0.0
 20
0.0
 30
0.0
  0
SPLINE
  5
70
330
1F
100
AcDbEntity
  8
_U+30EC_U+30A4_U+30E4_U+30FC 1
 62
   179
420
  2234388
370
     9
100
AcDbSpline
210
0.0
220
0.0
230
1.0
 70
    11
 71
     3
 72
    17
 73
    13
 74
     0
 42
0.0000000001
 43
0.0000000001
 12
1.0
 22
0.0
 32
0.0
 13
1.0
 23
0.0
 33
0.0
 40
0.0
 40
0.0
 40
0.0
 40
0.0
 40
1.0
 40
1.0
 40
1.0
 40
2.0
 40
2.0
 40
2.0
 40
3.0
 40
3.0
 40
3.0
 40
4.0
 40
4.0
 40
4.0
 40
4.0
 10
99.6066619032668
 20
-129.1614694121542
 30
0.0
 10
99.6066619032668
 20
-129.1063302455011
 30
0.0
 10
99.5618944044089
 20
-129.0615627455126
 30
0.0
 10
99.50675523914896
 20
-129.0615627455126
 30
0.0
 10
99.45165135166589
 20
-129.0615627455126
 30
0.0
 10
99.40684857503112
 20
-129.1063302455011
 30
0.0
 10
99.40684857503112
 20
-129.1614694121542
 30
0.0
 10
99.40684857503112
 20
-129.2172788565847
 30
0.0
 10
99.45165135166589
 20
-129.2620463565732
 30
0.0
 10
99.50675523914896
 20
-129.2620463565732
 30
0.0
 10
99.5618944044089
 20
-129.2620463565732
 30
0.0
 10
99.6066619032668
 20
-129.2172788565847
 30
0.0
 10
99.6066619032668
 20
-129.1614694121542
 30
0.0
  0
POLYLINE
  5
71
330
1F
100
AcDbEntity
  8
_U+30EC_U+30A4_U+30E4_U+30FC 1
 62
   179
420
  2234388
370
     9
100
AcDb2dPolyline
 66
     1
 10
0.0
 20
0.0
 30
0.0
  0
VERTEX
  5
72
330
71
100
AcDbEntity
  8
_U+30EC_U+30A4_U+30E4_U+30FC 1
 62
   179
420
  2234388
370
     9
100
AcDbVertex
100
AcDb2dVertex
 10
99.50675523914896
 20
-129.1614694121542
 30
0.0
  0
VERTEX
  5
73
330
71
100
AcDbEntity
  8
_U+30EC_U+30A4_U+30E4_U+30FC 1
 62
   179
420
  2234388
370
     9
100
AcDbVertex
100
AcDb2dVertex
 10
99.50675523914896
 20
-119.2295755257483
 30
0.0
  0
SEQEND
  5
74
330
71
100
AcDbEntity
  8
_U+30EC_U+30A4_U+30E4_U+30FC 1
 62
   179
420
  2234388
370
     9
  0
POLYLINE
  5
75
330
1F
100
AcDbEntity
  8
_U+30EC_U+30A4_U+30E4_U+30FC 1
 62
   179
420
  2234388
370
     9
100
AcDb2dPolyline
 66
     1
 10
0.0
 20
0.0
 30
0.0
  0
VERTEX
  5
76
330
75
100
AcDbEntity
  8
_U+30EC_U+30A4_U+30E4_U+30FC 1
 62
   179
420
  2234388
370
     9
100
AcDbVertex
100
AcDb2dVertex
 10
98.04671388750883
 20
-129.1614694121542
 30
0.0
  0
VERTEX
  5
77
330
75
100
AcDbEntity
  8
_U+30EC_U+30A4_U+30E4_U+30FC 1
 62
   179
420
  2234388
370
     9
100
AcDbVertex
100
AcDb2dVertex
 10
100.5065274358649
 20
-129.1614694121542
 30
0.0
  0
SEQEND
  5
78
330
75
100
AcDbEntity
  8
_U+30EC_U+30A4_U+30E4_U+30FC 1
 62
   179
420
  2234388
370
     9
  0
POLYLINE
  5
79
330
1F
100
AcDbEntity
  8
_U+30EC_U+30A4_U+30E4_U+30FC 1
 62
   179
420
  2234388
370
     9
100
AcDb2dPolyline
 66
     1
 10
0.0
 20
0.0
 30
0.0
  0
VERTEX
  5
7A
330
79
100
AcDbEntity
  8
_U+30EC_U+30A4_U+30E4_U+30FC 1
 62
   179
420
  2234388
370
     9
100
AcDbVertex
100
AcDb2dVertex
 10
98.04671388750883
 20
-119.2295755257483
 30
0.0
  0
VERTEX
  5
7B
330
79
100
AcDbEntity
  8
_U+30EC_U+30A4_U+30E4_U+30FC 1
 62
   179
420
  2234388
370
     9
100
AcDbVertex
100
AcDb2dVertex
 10
100.5065274358649
 20
-119.2295755257483
 30
0.0
  0
SEQEND
  5
7C
330
79
100
AcDbEntity
  8
_U+30EC_U+30A4_U+30E4_U+30FC 1
 62
   179
420
  2234388
370
     9
  0
INSERT
  5
7E
330
1F
100
AcDbEntity
  8
_U+30EC_U+30A4_U+30E4_U+30FC 1
100
AcDbBlockReference
  2
block 4
 10
0.0
 20
0.0
 30
0.0
  0
SPLINE
  5
86
330
1F
100
AcDbEntity
  8
_U+30EC_U+30A4_U+30E4_U+30FC 1
 62
   179
420
  2234388
370
     9
100
AcDbSpline
210
0.0
220
0.0
230
1.0
 70
    11
 71
     3
 72
    17
 73
    13
 74
     0
 42
0.0000000001
 43
0.0000000001
 12
1.0
 22
0.0
 32
0.0
 13
1.0
 23
0.0
 33
0.0
 40
0.0
 40
0.0
 40
0.0
 40
0.0
 40
1.0
 40
1.0
 40
1.0
 40
2.0
 40
2.0
 40
2.0
 40
3.0
 40
3.0
 40
3.0
 40
4.0
 40
4.0
 40
4.0
 40
4.0
 10
95.64616942053276
 20
-115.1622946934317
 30
0.0
 10
95.64616942053276
 20
-115.1071908045565
 30
0.0
 10
95.60139950544955
 20
-115.0623880267901
 30
0.0
 10
95.5462603401896
 20
-115.0623880267901
 30
0.0
 10
95.49115645270653
 20
-115.0623880267901
 30
0.0
 10
95.44635367607177
 20
-115.1071908045565
 30
0.0
 10
95.44635367607177
 20
-115.1622946934317
 30
0.0
 10
95.44635367607177
 20
-115.2174338600845
 30
0.0
 10
95.49115645270653
 20
-115.2622013600733
 30
0.0
 10
95.5462603401896
 20
-115.2622013600733
 30
0.0
 10
95.60139950544955
 20
-115.2622013600733
 30
0.0
 10
95.64616942053276
 20
-115.2174338600845
 30
0.0
 10
95.64616942053276
 20
-115.1622946934317
 30
0.0
  0
SPLINE
  5
87
330
1F
100
AcDbEntity
  8
_U+30EC_U+30A4_U+30E4_U+30FC 1
 62
   179
420
  2234388
370
     9
100
AcDbSpline
210
0.0
220
0.0
230
1.0
 70
    11
 71
     3
 72
    17
 73
    13
 74
     0
 42
0.0000000001
 43
0.0000000001
 12
1.0
 22
0.0
 32
0.0
 13
1.0
 23
0.0
 33
0.0
 40
0.0
 40
0.0
 40
0.0
 40
0.0
 40
1.0
 40
1.0
 40
1.0
 40
2.0
 40
2.0
 40
2.0
 40
3.0
 40
3.0
 40
3.0
 40
4.0
 40
4.0
 40
4.0
 40
4.0
 10
90.14643214461736
 20
-115.1622946934317
 30
0.0
 10
90.14643214461736
 20
-115.1071908045565
 30
0.0
 10
90.10166464575947
 20
-115.0623880267901
 30
0.0
 10
90.04652775526615
 20
-115.0623880267901
 30
0.0
 10
89.99142159301645
 20
-115.0623880267901
 30
0.0
 10
89.94661881638169
 20
-115.1071908045565
 30
0.0
 10
89.94661881638169
 20
-115.1622946934317
 30
0.0
 10
89.94661881638169
 20
-115.2174338600845
 30
0.0
 10
89.99142159301645
 20
-115.2622013600733
 30
0.0
 10
90.04652775526615
 20
-115.2622013600733
 30
0.0
 10
90.10166464575947
 20
-115.2622013600733
 30
0.0
 10
90.14643214461736
 20
-115.2174338600845
 30
0.0
 10
90.14643214461736
 20
-115.1622946934317
 30
0.0
  0
POLYLINE
  5
88
330
1F
100
AcDbEntity
  8
_U+30EC_U+30A4_U+30E4_U+30FC 1
 62
   179
420
  2234388
370
     9
100
AcDb2dPolyline
 66
     1
 10
0.0
 20
0.0
 30
0.0
  0
VERTEX
  5
89
330
88
100
AcDbEntity
  8
_U+30EC_U+30A4_U+30E4_U+30FC 1
 62
   179
420
  2234388
370
     9
100
AcDbVertex
100
AcDb2dVertex
 10
90.04652775526615
 20
-115.1622946934317
 30
0.0
  0
VERTEX
  5
8A
330
88
100
AcDbEntity
  8
_U+30EC_U+30A4_U+30E4_U+30FC 1
 62
   179
420
  2234388
370
     9
100
AcDbVertex
100
AcDb2dVertex
 10
95.5462603401896
 20
-115.1622946934317
 30
0.0
  0
SEQEND
  5
8B
330
88
100
AcDbEntity
  8
_U+30EC_U+30A4_U+30E4_U+30FC 1
 62
   179
420
  2234388
370
     9
  0
POLYLINE
  5
8C
330
1F
100
AcDbEntity
  8
_U+30EC_U+30A4_U+30E4_U+30FC 1
 62
   179
420
  2234388
370
     9
100
AcDb2dPolyline
 66
     1
 10
0.0
 20
0.0
 30
0.0
  0
VERTEX
  5
8D
330
8C
100
AcDbEntity
  8
_U+30EC_U+30A4_U+30E4_U+30FC 1
 62
   179
420
  2234388
370
     9
100
AcDbVertex
100
AcDb2dVertex
 10
90.04652775526615
 20
-117.6620780261402
 30
0.0
  0
VERTEX
  5
8E
330
8C
100
AcDbEntity
  8
_U+30EC_U+30A4_U+30E4_U+30FC 1
 62
   179
420
  2234388
370
     9
100
AcDbVertex
100
AcDb2dVertex
 10
90.04652775526615
 20
-114.162557749237
 30
0.0
  0
SEQEND
  5
8F
330
8C
100
AcDbEntity
  8
_U+30EC_U+30A4_U+30E4_U+30FC 1
 62
   179
420
  2234388
370
     9
  0
POLYLINE
  5
90
330
1F
100
AcDbEntity
  8
_U+30EC_U+30A4_U+30E4_U+30FC 1
 62
   179
420
  2234388
370
     9
100
AcDb2dPolyline
 66
     1
 10
0.0
 20
0.0
 30
0.0
  0
VERTEX
  5
91
330
90
100
AcDbEntity
  8
_U+30EC_U+30A4_U+30E4_U+30FC 1
 62
   179
420
  2234388
370
     9
100
AcDbVertex
100
AcDb2dVertex
 10
95.5462603401896
 20
-120.7302569142619
 30
0.0
  0
VERTEX
  5
92
330
90
100
AcDbEntity
  8
_U+30EC_U+30A4_U+30E4_U+30FC 1
 62
   179
420
  2234388
370
     9
100
AcDbVertex
100
AcDb2dVertex
 10
95.5462603401896
 20
-114.162557749237
 30
0.0
  0
SEQEND
  5
93
330
90
100
AcDbEntity
  8
_U+30EC_U+30A4_U+30E4_U+30FC 1
 62
   179
420
  2234388
370
     9
  0
INSERT
  5
95
330
1F
100
AcDbEntity
  8
_U+30EC_U+30A4_U+30E4_U+30FC 1
100
AcDbBlockReference
  2
block 5
 10
0.0
 20
0.0
 30
0.0
  0
SPLINE
  5
9B
330
1F
100
AcDbEntity
  8
_U+30EC_U+30A4_U+30E4_U+30FC 1
 62
   179
420
  2234388
370
     9
100
AcDbSpline
210
0.0
220
0.0
230
1.0
 70
    11
 71
     3
 72
    17
 73
    13
 74
     0
 42
0.0000000001
 43
0.0000000001
 12
1.0
 22
0.0
 32
0.0
 13
1.0
 23
0.0
 33
0.0
 40
0.0
 40
0.0
 40
0.0
 40
0.0
 40
1.0
 40
1.0
 40
1.0
 40
2.0
 40
2.0
 40
2.0
 40
3.0
 40
3.0
 40
3.0
 40
4.0
 40
4.0
 40
4.0
 40
4.0
 10
90.14643214461736
 20
-143.1623374642096
 30
0.0
 10
90.14643214461736
 20
-143.1071982975565
 30
0.0
 10
90.10166464575947
 20
-143.0624307975679
 30
0.0
 10
90.04652775526615
 20
-143.0624307975679
 30
0.0
 10
89.99142159301645
 20
-143.0624307975679
 30
0.0
 10
89.94661881638169
 20
-143.1071982975565
 30
0.0
 10
89.94661881638169
 20
-143.1623374642096
 30
0.0
 10
89.94661881638169
 20
-143.2174413530845
 30
0.0
 10
89.99142159301645
 20
-143.2622441308512
 30
0.0
 10
90.04652775526615
 20
-143.2622441308512
 30
0.0
 10
90.10166464575947
 20
-143.2622441308512
 30
0.0
 10
90.14643214461736
 20
-143.2174413530845
 30
0.0
 10
90.14643214461736
 20
-143.1623374642096
 30
0.0
  0
POLYLINE
  5
9C
330
1F
100
AcDbEntity
  8
_U+30EC_U+30A4_U+30E4_U+30FC 1
 62
   179
420
  2234388
370
     9
100
AcDb2dPolyline
 66
     1
 10
0.0
 20
0.0
 30
0.0
  0
VERTEX
  5
9D
330
9C
100
AcDbEntity
  8
_U+30EC_U+30A4_U+30E4_U+30FC 1
 62
   179
420
  2234388
370
     9
100
AcDbVertex
100
AcDb2dVertex
 10
90.04652775526615
 20
-143.1623374642096
 30
0.0
  0
VERTEX
  5
9E
330
9C
100
AcDbEntity
  8
_U+30EC_U+30A4_U+30E4_U+30FC 1
 62
   179
420
  2234388
370
     9
100
AcDbVertex
100
AcDb2dVertex
 10
93.74656455277034
 20
-143.1623374642096
 30
0.0
  0
SEQEND
  5
9F
330
9C
100
AcDbEntity
  8
_U+30EC_U+30A4_U+30E4_U+30FC 1
 62
   179
420
  2234388
370
     9
  0
POLYLINE
  5
A0
330
1F
100
AcDbEntity
  8
_U+30EC_U+30A4_U+30E4_U+30FC 1
 62
   179
420
  2234388
370
     9
100
AcDb2dPolyline
 66
     1
 10
0.0
 20
0.0
 30
0.0
  0
VERTEX
  5
A1
330
A0
100
AcDbEntity
  8
_U+30EC_U+30A4_U+30E4_U+30FC 1
 62
   179
420
  2234388
370
     9
100
AcDbVertex
100
AcDb2dVertex
 10
90.04652775526615
 20
-140.7025238537133
 30
0.0
  0
VERTEX
  5
A2
330
A0
100
AcDbEntity
  8
_U+30EC_U+30A4_U+30E4_U+30FC 1
 62
   179
420
  2234388
370
     9
100
AcDbVertex
100
AcDb2dVertex
 10
90.04652775526615
 20
-144.162074408404
 30
0.0
  0
SEQEND
  5
A3
330
A0
100
AcDbEntity
  8
_U+30EC_U+30A4_U+30E4_U+30FC 1
 62
   179
420
  2234388
370
     9
  0
SPLINE
  5
A4
330
1F
100
AcDbEntity
  8
_U+30EC_U+30A4_U+30E4_U+30FC 1
 62
   179
420
  2234388
370
     9
100
AcDbSpline
210
0.0
220
0.0
230
1.0
 70
    11
 71
     3
 72
    17
 73
    13
 74
     0
 42
0.0000000001
 43
0.0000000001
 12
1.0
 22
0.0
 32
0.0
 13
1.0
 23
0.0
 33
0.0
 40
0.0
 40
0.0
 40
0.0
 40
0.0
 40
1.0
 40
1.0
 40
1.0
 40
2.0
 40
2.0
 40
2.0
 40
3.0
 40
3.0
 40
3.0
 40
4.0
 40
4.0
 40
4.0
 40
4.0
 10
91.14655711910204
 20
-143.1623374642096
 30
0.0
 10
91.14655711910204
 20
-143.1071982975565
 30
0.0
 10
91.10175434246729
 20
-143.0624307975679
 30
0.0
 10
91.04665275501613
 20
-143.0624307975679
 30
0.0
 10
90.99151128972426
 20
-143.0624307975679
 30
0.0
 10
90.94674379086638
 20
-143.1071982975565
 30
0.0
 10
90.94674379086638
 20
-143.1623374642096
 30
0.0
 10
90.94674379086638
 20
-143.2174413530845
 30
0.0
 10
90.99151128972426
 20
-143.2622441308512
 30
0.0
 10
91.04665275501613
 20
-143.2622441308512
 30
0.0
 10
91.10175434246729
 20
-143.2622441308512
 30
0.0
 10
91.14655711910204
 20
-143.2174413530845
 30
0.0
 10
91.14655711910204
 20
-143.1623374642096
 30
0.0
  0
POLYLINE
  5
A5
330
1F
100
AcDbEntity
  8
_U+30EC_U+30A4_U+30E4_U+30FC 1
 62
   179
420
  2234388
370
     9
100
AcDb2dPolyline
 66
     1
 10
0.0
 20
0.0
 30
0.0
  0
VERTEX
  5
A6
330
A5
100
AcDbEntity
  8
_U+30EC_U+30A4_U+30E4_U+30FC 1
 62
   179
420
  2234388
370
     9
100
AcDbVertex
100
AcDb2dVertex
 10
91.04665275501613
 20
-140.7025238537133
 30
0.0
  0
VERTEX
  5
A7
330
A5
100
AcDbEntity
  8
_U+30EC_U+30A4_U+30E4_U+30FC 1
 62
   179
420
  2234388
370
     9
100
AcDbVertex
100
AcDb2dVertex
 10
91.04665275501613
 20
-144.162074408404
 30
0.0
  0
SEQEND
  5
A8
330
A5
100
AcDbEntity
  8
_U+30EC_U+30A4_U+30E4_U+30FC 1
 62
   179
420
  2234388
370
     9
  0
INSERT
  5
AA
330
1F
100
AcDbEntity
  8
_U+30EC_U+30A4_U+30E4_U+30FC 1
100
AcDbBlockReference
  2
block 6
 10
0.0
 20
0.0
 30
0.0
  0
SPLINE
  5
AF
330
1F
100
AcDbEntity
  8
_U+30EC_U+30A4_U+30E4_U+30FC 1
 62
   179
420
  2234388
370
     9
100
AcDbSpline
210
0.0
220
0.0
230
1.0
 70
    11
 71
     3
 72
    17
 73
    13
 74
     0
 42
0.0000000001
 43
0.0000000001
 12
1.0
 22
0.0
 32
0.0
 13
1.0
 23
0.0
 33
0.0
 40
0.0
 40
0.0
 40
0.0
 40
0.0
 40
1.0
 40
1.0
 40
1.0
 40
2.0
 40
2.0
 40
2.0
 40
3.0
 40
3.0
 40
3.0
 40
4.0
 40
4.0
 40
4.0
 40
4.0
 10
93.64595233311493
 20
-138.662339409779
 30
0.0
 10
93.64595233311493
 20
-138.6072002431259
 30
0.0
 10
93.60118483425705
 20
-138.5624327431373
 30
0.0
 10
93.54604566899711
 20
-138.5624327431373
 30
0.0
 10
93.49094178151404
 20
-138.5624327431373
 30
0.0
 10
93.44613900487927
 20
-138.6072002431259
 30
0.0
 10
93.44613900487927
 20
-138.662339409779
 30
0.0
 10
93.44613900487927
 20
-138.7174432986539
 30
0.0
 10
93.49094178151404
 20
-138.7622460764206
 30
0.0
 10
93.54604566899711
 20
-138.7622460764206
 30
0.0
 10
93.60118483425705
 20
-138.7622460764206
 30
0.0
 10
93.64595233311493
 20
-138.7174432986539
 30
0.0
 10
93.64595233311493
 20
-138.662339409779
 30
0.0
  0
POLYLINE
  5
B0
330
1F
100
AcDbEntity
  8
_U+30EC_U+30A4_U+30E4_U+30FC 1
 62
   179
420
  2234388
370
     9
100
AcDb2dPolyline
 66
     1
 10
0.0
 20
0.0
 30
0.0
  0
VERTEX
  5
B1
330
B0
100
AcDbEntity
  8
_U+30EC_U+30A4_U+30E4_U+30FC 1
 62
   179
420
  2234388
370
     9
100
AcDbVertex
100
AcDb2dVertex
 10
91.04665275501613
 20
-138.662339409779
 30
0.0
  0
VERTEX
  5
B2
330
B0
100
AcDbEntity
  8
_U+30EC_U+30A4_U+30E4_U+30FC 1
 62
   179
420
  2234388
370
     9
100
AcDbVertex
100
AcDb2dVertex
 10
97.733235562173
 20
-138.662339409779
 30
0.0
  0
SEQEND
  5
B3
330
B0
100
AcDbEntity
  8
_U+30EC_U+30A4_U+30E4_U+30FC 1
 62
   179
420
  2234388
370
     9
  0
POLYLINE
  5
B4
330
1F
100
AcDbEntity
  8
_U+30EC_U+30A4_U+30E4_U+30FC 1
 62
   179
420
  2234388
370
     9
100
AcDb2dPolyline
 66
     1
 10
0.0
 20
0.0
 30
0.0
  0
VERTEX
  5
B5
330
B4
100
AcDbEntity
  8
_U+30EC_U+30A4_U+30E4_U+30FC 1
 62
   179
420
  2234388
370
     9
100
AcDbVertex
100
AcDb2dVertex
 10
93.54604566899711
 20
-131.6618877448622
 30
0.0
  0
VERTEX
  5
B6
330
B4
100
AcDbEntity
  8
_U+30EC_U+30A4_U+30E4_U+30FC 1
 62
   179
420
  2234388
370
     9
100
AcDbVertex
100
AcDb2dVertex
 10
93.54604566899711
 20
-139.6627819095289
 30
0.0
  0
SEQEND
  5
B7
330
B4
100
AcDbEntity
  8
_U+30EC_U+30A4_U+30E4_U+30FC 1
 62
   179
420
  2234388
370
     9
  0
SPLINE
  5
B8
330
1F
100
AcDbEntity
  8
_U+30EC_U+30A4_U+30E4_U+30FC 1
 62
   179
420
  2234388
370
     9
100
AcDbSpline
210
0.0
220
0.0
230
1.0
 70
    11
 71
     3
 72
    17
 73
    13
 74
     0
 42
0.0000000001
 43
0.0000000001
 12
1.0
 22
0.0
 32
0.0
 13
1.0
 23
0.0
 33
0.0
 40
0.0
 40
0.0
 40
0.0
 40
0.0
 40
1.0
 40
1.0
 40
1.0
 40
2.0
 40
2.0
 40
2.0
 40
3.0
 40
3.0
 40
3.0
 40
4.0
 40
4.0
 40
4.0
 40
4.0
 10
91.14620434133327
 20
-138.662339409779
 30
0.0
 10
91.14620434133327
 20
-138.6072002431259
 30
0.0
 10
91.1014015646985
 20
-138.5624327431373
 30
0.0
 10
91.04629997723838
 20
-138.5624327431373
 30
0.0
 10
90.99115851195549
 20
-138.5624327431373
 30
0.0
 10
90.9463910130976
 20
-138.6072002431259
 30
0.0
 10
90.9463910130976
 20
-138.662339409779
 30
0.0
 10
90.9463910130976
 20
-138.7174432986539
 30
0.0
 10
90.99115851195549
 20
-138.7622460764206
 30
0.0
 10
91.04629997723838
 20
-138.7622460764206
 30
0.0
 10
91.1014015646985
 20
-138.7622460764206
 30
0.0
 10
91.14620434133327
 20
-138.7174432986539
 30
0.0
 10
91.14620434133327
 20
-138.662339409779
 30
0.0
  0
POLYLINE
  5
B9
330
1F
100
AcDbEntity
  8
_U+30EC_U+30A4_U+30E4_U+30FC 1
 62
   179
420
  2234388
370
     9
100
AcDb2dPolyline
 66
     1
 10
0.0
 20
0.0
 30
0.0
  0
VERTEX
  5
BA
330
B9
100
AcDbEntity
  8
_U+30EC_U+30A4_U+30E4_U+30FC 1
 62
   179
420
  2234388
370
     9
100
AcDbVertex
100
AcDb2dVertex
 10
91.04629997723838
 20
-131.6618877448622
 30
0.0
  0
VERTEX
  5
BB
330
B9
100
AcDbEntity
  8
_U+30EC_U+30A4_U+30E4_U+30FC 1
 62
   179
420
  2234388
370
     9
100
AcDbVertex
100
AcDb2dVertex
 10
91.04629997723838
 20
-139.6627819095289
 30
0.0
  0
SEQEND
  5
BC
330
B9
100
AcDbEntity
  8
_U+30EC_U+30A4_U+30E4_U+30FC 1
 62
   179
420
  2234388
370
     9
  0
INSERT
  5
BE
330
1F
100
AcDbEntity
  8
_U+30EC_U+30A4_U+30E4_U+30FC 1
100
AcDbBlockReference
  2
block 7
 10
0.0
 20
0.0
 30
0.0
  0
SPLINE
  5
CD
330
1F
100
AcDbEntity
  8
_U+30EC_U+30A4_U+30E4_U+30FC 1
370
     0
100
AcDbSpline
210
0.0
220
0.0
230
1.0
 70
    11
 71
     3
 72
    26
 73
    22
 74
     0
 42
0.0000000001
 43
0.0000000001
 12
1.0
 22
0.0
 32
0.0
 13
1.0
 23
0.0
 33
0.0
 40
0.0
 40
0.0
 40
0.0
 40
0.0
 40
1.0
 40
1.0
 40
1.0
 40
2.0
 40
2.0
 40
2.0
 40
3.0
 40
3.0
 40
3.0
 40
4.0
 40
4.0
 40
4.0
 40
5.0
 40
5.0
 40
5.0
 40
6.0
 40
6.0
 40
6.0
 40
7.0
 40
7.0
 40
7.0
 40
7.0
 10
93.79616510706047
 20
-124.1619380245151
 30
0.0
 10
93.79616510706047
 20
-124.1619380245151
 30
0.0
 10
93.79616510706047
 20
-123.6186249690953
 30
0.0
 10
93.79616510706047
 20
-123.6186249690953
 30
0.0
 10
93.79616510706047
 20
-123.6186249690953
 30
0.0
 10
92.49046402926056
 20
-121.161598303043
 30
0.0
 10
92.49046402926056
 20
-121.161598303043
 30
0.0
 10
92.41814458666114
 20
-121.012091080858
 30
0.0
 10
92.28377153453373
 20
-120.9118316364386
 30
0.0
 10
92.12943126069351
 20
-120.9118316364386
 30
0.0
 10
91.89963182211173
 20
-120.9118316364386
 30
0.0
 10
91.71325932686649
 20
-121.1357749697162
 30
0.0
 10
91.71325932686649
 20
-121.4117177474249
 30
0.0
 10
91.71325932686649
 20
-121.4117177474249
 30
0.0
 10
91.71325932686649
 20
-123.6616991357511
 30
0.0
 10
91.71325932686649
 20
-123.6616991357511
 30
0.0
 10
91.71325932686649
 20
-123.9379946912378
 30
0.0
 10
91.52653405385247
 20
-124.1619380245151
 30
0.0
 10
91.29624072639442
 20
-124.1619380245151
 30
0.0
 10
91.29624072639442
 20
-124.1619380245151
 30
0.0
 10
93.79616510706047
 20
-124.1619380245151
 30
0.0
 10
93.79616510706047
 20
-124.1619380245151
 30
0.0
  0
HATCH
  5
CE
330
1F
100
AcDbEntity
  8
_U+30EC_U+30A4_U+30E4_U+30FC 1
 62
   253
420
 11711154
100
AcDbHatch
 10
0.0
 20
0.0
 30
0.0
210
0.0
220
0.0
230
1.0
  2
SOLID
 70
     1
 71
     0
 91
        1
 92
        1
 93
        1
 72
     4
 94
        3
 73
     0
 74
     1
 95
       26
 96
       22
 40
0.0
 40
0.0
 40
0.0
 40
0.0
 40
1.0
 40
1.0
 40
1.0
 40
2.0
 40
2.0
 40
2.0
 40
3.0
 40
3.0
 40
3.0
 40
4.0
 40
4.0
 40
4.0
 40
5.0
 40
5.0
 40
5.0
 40
6.0
 40
6.0
 40
6.0
 40
7.0
 40
7.0
 40
7.0
 40
7.0
 10
93.79616510706047
 20
-124.1619380245151
 10
93.79616510706047
 20
-124.1619380245151
 10
93.79616510706047
 20
-123.6186249690953
 10
93.79616510706047
 20
-123.6186249690953
 10
93.79616510706047
 20
-123.6186249690953
 10
92.49046402926056
 20
-121.161598303043
 10
92.49046402926056
 20
-121.161598303043
 10
92.41814458666114
 20
-121.012091080858
 10
92.28377153453373
 20
-120.9118316364386
 10
92.12943126069351
 20
-120.9118316364386
 10
91.89963182211173
 20
-120.9118316364386
 10
91.71325932686649
 20
-121.1357749697162
 10
91.71325932686649
 20
-121.4117177474249
 10
91.71325932686649
 20
-121.4117177474249
 10
91.71325932686649
 20
-123.6616991357511
 10
91.71325932686649
 20
-123.6616991357511
 10
91.71325932686649
 20
-123.9379946912378
 10
91.52653405385247
 20
-124.1619380245151
 10
91.29624072639442
 20
-124.1619380245151
 10
91.29624072639442
 20
-124.1619380245151
 10
93.79616510706047
 20
-124.1619380245151
 10
93.79616510706047
 20
-124.1619380245151
 97
        0
 97
        0
 75
     2
 76
     1
 98
        0
  0
SPLINE
  5
CF
330
1F
100
AcDbEntity
  8
_U+30EC_U+30A4_U+30E4_U+30FC 1
 62
   179
420
  2234388
370
    25
100
AcDbSpline
210
0.0
220
0.0
230
1.0
 70
    11
 71
     3
 72
   149
 73
   145
 74
     0
 42
0.0000000001
 43
0.0000000001
 12
1.0
 22
0.0
 32
0.0
 13
1.0
 23
0.0
 33
0.0
 40
0.0
 40
0.0
 40
0.0
 40
0.0
 40
1.0
 40
1.0
 40
1.0
 40
2.0
 40
2.0
 40
2.0
 40
3.0
 40
3.0
 40
3.0
 40
4.0
 40
4.0
 40
4.0
 40
5.0
 40
5.0
 40
5.0
 40
6.0
 40
6.0
 40
6.0
 40
7.0
 40
7.0
 40
7.0
 40
8.0
 40
8.0
 40
8.0
 40
9.0
 40
9.0
 40
9.0
 40
10.0
 40
10.0
 40
10.0
 40
11.0
 40
11.0
 40
11.0
 40
12.0
 40
12.0
 40
12.0
 40
13.0
 40
13.0
 40
13.0
 40
14.0
 40
14.0
 40
14.0
 40
15.0
 40
15.0
 40
15.0
 40
16.0
 40
16.0
 40
16.0
 40
17.0
 40
17.0
 40
17.0
 40
18.0
 40
18.0
 40
18.0
 40
19.0
 40
19.0
 40
19.0
 40
20.0
 40
20.0
 40
20.0
 40
21.0
 40
21.0
 40
21.0
 40
22.0
 40
22.0
 40
22.0
 40
23.0
 40
23.0
 40
23.0
 40
24.0
 40
24.0
 40
24.0
 40
25.0
 40
25.0
 40
25.0
 40
26.0
 40
26.0
 40
26.0
 40
27.0
 40
27.0
 40
27.0
 40
28.0
 40
28.0
 40
28.0
 40
29.0
 40
29.0
 40
29.0
 40
30.0
 40
30.0
 40
30.0
 40
31.0
 40
31.0
 40
31.0
 40
32.0
 40
32.0
 40
32.0
 40
33.0
 40
33.0
 40
33.0
 40
34.0
 40
34.0
 40
34.0
 40
35.0
 40
35.0
 40
35.0
 40
36.0
 40
36.0
 40
36.0
 40
37.0
 40
37.0
 40
37.0
 40
38.0
 40
38.0
 40
38.0
 40
39.0
 40
39.0
 40
39.0
 40
40.0
 40
40.0
 40
40.0
 40
41.0
 40
41.0
 40
41.0
 40
42.0
 40
42.0
 40
42.0
 40
43.0
 40
43.0
 40
43.0
 40
44.0
 40
44.0
 40
44.0
 40
45.0
 40
45.0
 40
45.0
 40
46.0
 40
46.0
 40
46.0
 40
47.0
 40
47.0
 40
47.0
 40
48.0
 40
48.0
 40
48.0
 40
48.0
 10
94.04628454512384
 20
-124.1619380245151
 30
0.0
 10
94.04628454512384
 20
-124.1619380245151
 30
0.0
 10
94.04628454512384
 20
-127.1619249682095
 30
0.0
 10
94.04628454512384
 20
-127.1619249682095
 30
0.0
 10
94.04628454512384
 20
-127.4382205236959
 30
0.0
 10
93.82234121750378
 20
-127.6621638569735
 30
0.0
 10
93.54604566899711
 20
-127.6621638569735
 30
0.0
 10
93.54604566899711
 20
-127.6621638569735
 30
0.0
 10
93.54604566899711
 20
-128.9616208010928
 30
0.0
 10
93.54604566899711
 20
-128.9616208010928
 30
0.0
 10
93.54604566899711
 20
-129.0718638566208
 30
0.0
 10
93.63561594448976
 20
-129.1614694121542
 30
0.0
 10
93.74585899723277
 20
-129.1614694121542
 30
0.0
 10
94.06145398918127
 20
-129.1614694121542
 30
0.0
 10
95.5462603401896
 20
-127.9246658013523
 30
0.0
 10
95.5462603401896
 20
-125.1620277464873
 30
0.0
 10
95.5462603401896
 20
-121.8482096917601
 30
0.0
 10
93.08373040301397
 20
-119.1620538590983
 30
0.0
 10
90.04634909161514
 20
-119.1620538590983
 30
0.0
 10
90.04634909161514
 20
-119.1620538590983
 30
0.0
 10
90.04652775526615
 20
-119.1620538590983
 30
0.0
 10
90.04652775526615
 20
-119.1620538590983
 30
0.0
 10
90.04652775526615
 20
-119.1620538590983
 30
0.0
 10
90.04652775526615
 20
-120.1663063588472
 30
0.0
 10
90.04652775526615
 20
-120.1663063588472
 30
0.0
 10
90.04652775526615
 20
-120.1663063588472
 30
0.0
 10
90.24633880873519
 20
-120.6661924698335
 30
0.0
 10
90.24633880873519
 20
-120.6661924698335
 30
0.0
 10
90.24633880873519
 20
-120.6661924698335
 30
0.0
 10
90.04652775526615
 20
-121.1660785808198
 30
0.0
 10
90.04652775526615
 20
-121.1660785808198
 30
0.0
 10
90.04652775526615
 20
-121.1660785808198
 30
0.0
 10
90.24633880873519
 20
-121.6659646918057
 30
0.0
 10
90.24633880873519
 20
-121.6659646918057
 30
0.0
 10
90.24633880873519
 20
-121.6659646918057
 30
0.0
 10
90.04652775526615
 20
-122.165850802792
 30
0.0
 10
90.04652775526615
 20
-122.165850802792
 30
0.0
 10
90.04652775526615
 20
-122.165850802792
 30
0.0
 10
90.24633880873519
 20
-122.6657369137779
 30
0.0
 10
90.24633880873519
 20
-122.6657369137779
 30
0.0
 10
90.24633880873519
 20
-122.6657369137779
 30
0.0
 10
90.04652775526615
 20
-123.1656230247642
 30
0.0
 10
90.04652775526615
 20
-123.1656230247642
 30
0.0
 10
90.04652775526615
 20
-123.1656230247642
 30
0.0
 10
90.24633880873519
 20
-123.6655091357501
 30
0.0
 10
90.24633880873519
 20
-123.6655091357501
 30
0.0
 10
90.24633880873519
 20
-123.6655091357501
 30
0.0
 10
90.04652775526615
 20
-124.1653599689586
 30
0.0
 10
90.04652775526615
 20
-124.1653599689586
 30
0.0
 10
90.04652775526615
 20
-124.1653599689586
 30
0.0
 10
90.24633880873519
 20
-124.6652460799449
 30
0.0
 10
90.24633880873519
 20
-124.6652460799449
 30
0.0
 10
90.24633880873519
 20
-124.6652460799449
 30
0.0
 10
90.04652775526615
 20
-125.1651321909311
 30
0.0
 10
90.04652775526615
 20
-125.1651321909311
 30
0.0
 10
90.04652775526615
 20
-125.1651321909311
 30
0.0
 10
90.24633880873519
 20
-125.6653710796948
 30
0.0
 10
90.24633880873519
 20
-125.6653710796948
 30
0.0
 10
90.24633880873519
 20
-125.6653710796948
 30
0.0
 10
90.04652775526615
 20
-126.1649044129033
 30
0.0
 10
90.04652775526615
 20
-126.1649044129033
 30
0.0
 10
90.04652775526615
 20
-126.1649044129033
 30
0.0
 10
90.24633880873519
 20
-126.665143301667
 30
0.0
 10
90.24633880873519
 20
-126.665143301667
 30
0.0
 10
90.24633880873519
 20
-126.665143301667
 30
0.0
 10
90.04652775526615
 20
-127.1646766348756
 30
0.0
 10
90.04652775526615
 20
-127.1646766348756
 30
0.0
 10
90.04652775526615
 20
-127.1646766348756
 30
0.0
 10
90.24633880873519
 20
-127.6649155236393
 30
0.0
 10
90.24633880873519
 20
-127.6649155236393
 30
0.0
 10
90.24633880873519
 20
-127.6649155236393
 30
0.0
 10
90.04652775526615
 20
-128.1644488568478
 30
0.0
 10
90.04652775526615
 20
-128.1644488568478
 30
0.0
 10
90.04652775526615
 20
-128.1644488568478
 30
0.0
 10
90.24633880873519
 20
-128.6646877456115
 30
0.0
 10
90.24633880873519
 20
-128.6646877456115
 30
0.0
 10
90.24633880873519
 20
-128.6646877456115
 30
0.0
 10
90.04652775526615
 20
-129.16422107882
 30
0.0
 10
90.04652775526615
 20
-129.16422107882
 30
0.0
 10
90.04652775526615
 20
-129.16422107882
 30
0.0
 10
90.24633880873519
 20
-129.6644246898062
 30
0.0
 10
90.24633880873519
 20
-129.6644246898062
 30
0.0
 10
90.24633880873519
 20
-129.6644246898062
 30
0.0
 10
90.04652775526615
 20
-130.1639933007925
 30
0.0
 10
90.04652775526615
 20
-130.1639933007925
 30
0.0
 10
90.04652775526615
 20
-130.1639933007925
 30
0.0
 10
90.24633880873519
 20
-130.6641969117781
 30
0.0
 10
90.24633880873519
 20
-130.6641969117781
 30
0.0
 10
90.24633880873519
 20
-130.6641969117781
 30
0.0
 10
90.04652775526615
 20
-131.1637302449869
 30
0.0
 10
90.04652775526615
 20
-131.1637302449869
 30
0.0
 10
90.04652775526615
 20
-131.1637302449869
 30
0.0
 10
90.24633880873519
 20
-131.6639691337506
 30
0.0
 10
90.24633880873519
 20
-131.6639691337506
 30
0.0
 10
90.24633880873519
 20
-131.6639691337506
 30
0.0
 10
90.04652775526615
 20
-132.1635024669588
 30
0.0
 10
90.04652775526615
 20
-132.1635024669588
 30
0.0
 10
90.04652775526615
 20
-132.1635024669588
 30
0.0
 10
90.24633880873519
 20
-132.6637413557232
 30
0.0
 10
90.24633880873519
 20
-132.6637413557232
 30
0.0
 10
90.24633880873519
 20
-132.6637413557232
 30
0.0
 10
90.04652775526615
 20
-133.1632746889314
 30
0.0
 10
90.04652775526615
 20
-133.1632746889314
 30
0.0
 10
90.04652775526615
 20
-133.1632746889314
 30
0.0
 10
90.24633880873519
 20
-133.6635135776951
 30
0.0
 10
90.24633880873519
 20
-133.6635135776951
 30
0.0
 10
90.24633880873519
 20
-133.6635135776951
 30
0.0
 10
90.04652775526615
 20
-134.1630469109039
 30
0.0
 10
90.04652775526615
 20
-134.1630469109039
 30
0.0
 10
90.04652775526615
 20
-134.1630469109039
 30
0.0
 10
90.24633880873519
 20
-134.6632857996676
 30
0.0
 10
90.24633880873519
 20
-134.6632857996676
 30
0.0
 10
90.24633880873519
 20
-134.6632857996676
 30
0.0
 10
90.04652775526615
 20
-135.1628191328758
 30
0.0
 10
90.04652775526615
 20
-135.1628191328758
 30
0.0
 10
90.04652775526615
 20
-135.1628191328758
 30
0.0
 10
90.24633880873519
 20
-135.663022743862
 30
0.0
 10
90.24633880873519
 20
-135.663022743862
 30
0.0
 10
90.24633880873519
 20
-135.663022743862
 30
0.0
 10
90.04652775526615
 20
-136.1625913548483
 30
0.0
 10
90.04652775526615
 20
-136.1625913548483
 30
0.0
 10
90.04652775526615
 20
-136.1625913548483
 30
0.0
 10
90.24633880873519
 20
-136.6627949658345
 30
0.0
 10
90.24633880873519
 20
-136.6627949658345
 30
0.0
 10
90.24633880873519
 20
-136.6627949658345
 30
0.0
 10
90.04652775526615
 20
-137.1623282990427
 30
0.0
 10
90.04652775526615
 20
-137.1623282990427
 30
0.0
 10
90.04652775526615
 20
-137.1623282990427
 30
0.0
 10
90.24633880873519
 20
-137.6625671878064
 30
0.0
 10
90.24633880873519
 20
-137.6625671878064
 30
0.0
 10
90.24633880873519
 20
-137.6625671878064
 30
0.0
 10
90.04652775526615
 20
-138.1621005210152
 30
0.0
 10
90.04652775526615
 20
-138.1621005210152
 30
0.0
 10
90.04652775526615
 20
-138.1621005210152
 30
0.0
 10
90.04652775526615
 20
-139.1625782985427
 30
0.0
 10
90.04652775526615
 20
-139.1625782985427
 30
0.0
 10
90.04652775526615
 20
-139.1625782985427
 30
0.0
 10
91.04629997723838
 20
-138.662339409779
 30
0.0
 10
91.04629997723838
 20
-138.662339409779
 30
0.0
 10
91.04629997723838
 20
-138.662339409779
 30
0.0
 10
91.04629997723838
 20
-124.1619380245151
 30
0.0
 10
91.04629997723838
 20
-124.1619380245151
 30
0.0
 10
91.04629997723838
 20
-124.1619380245151
 30
0.0
 10
94.04628454512384
 20
-124.1619380245151
 30
0.0
 10
94.04628454512384
 20
-124.1619380245151
 30
0.0
  0
ENDSEC
  0
SECTION
  2
OBJECTS
  0
DICTIONARY
  5
C
330
0
100
AcDbDictionary
281
     1
  3
ACAD_GROUP
350
D
  3
ACAD_LAYOUT
350
1A
  3
ACAD_MATERIAL
350
3B
  3
ACAD_MLEADERSTYLE
350
D1
  3
ACAD_MLINESTYLE
350
17
  3
ACAD_PLOTSETTINGS
350
19
  3
ACAD_PLOTSTYLENAME
350
E
  3
ACAD_TABLESTYLE
350
D0
  3
ACAD_VISUALSTYLE
350
2A
  0
SUN
  5
3F
330
29
100
AcDbSun
 90
        1
290
     0
 63
     7
421
 16777215
 40
1.0
291
     1
 91
  2455826
 92
 54000000
292
     0
 70
     2
 71
   256
280
     1
  0
DICTIONARY
  5
D
102
{ACAD_REACTORS
330
C
102
}
330
C
100
AcDbDictionary
281
     1
  0
DICTIONARY
  5
1A
102
{ACAD_REACTORS
330
C
102
}
330
C
100
AcDbDictionary
281
     1
  3
Layout1
350
1E
  3
Layout2
350
26
  3
Model
350
22
  0
DICTIONARY
  5
3B
102
{ACAD_REACTORS
330
C
102
}
330
C
100
AcDbDictionary
281
     1
  3
ByBlock
350
3D
  3
ByLayer
350
3C
  3
Global
350
3E
  0
DICTIONARY
  5
D1
102
{ACAD_REACTORS
330
C
102
}
330
C
100
AcDbDictionary
281
     1
  0
DICTIONARY
  5
17
102
{ACAD_REACTORS
330
C
102
}
330
C
100
AcDbDictionary
281
     1
  3
Standard
350
18
  0
DICTIONARY
  5
19
102
{ACAD_REACTORS
330
C
102
}
330
C
100
AcDbDictionary
281
     1
  0
ACDBDICTIONARYWDFLT
  5
E
102
{ACAD_REACTORS
330
C
102
}
330
C
100
AcDbDictionary
281
     1
  3
Normal
350
F
100
AcDbDictionaryWithDefault
340
F
  0
DICTIONARY
  5
D0
102
{ACAD_REACTORS
330
C
102
}
330
C
100
AcDbDictionary
281
     1
  0
DICTIONARY
  5
2A
102
{ACAD_REACTORS
330
C
102
}
330
C
100
AcDbDictionary
281
     1
  3
2dWireframe
350
2F
  3
3D Hidden
350
31
  3
3dWireframe
350
30
  3
Basic
350
32
  3
Brighten
350
36
  3
ColorChange
350
3A
  3
Conceptual
350
34
  3
Dim
350
35
  3
Facepattern
350
39
  3
Flat
350
2B
  3
FlatWithEdges
350
2C
  3
Gouraud
350
2D
  3
GouraudWithEdges
350
2E
  3
Linepattern
350
38
  3
Realistic
350
33
  3
Thicken
350
37
  0
LAYOUT
  5
1E
102
{ACAD_REACTORS
330
1A
102
}
330
1A
100
AcDbPlotSettings
  1

  2
none_device
  4

  6

 40
0.0
 41
0.0
 42
0.0
 43
0.0
 44
0.0
 45
0.0
 46
0.0
 47
0.0
 48
0.0
 49
0.0
140
0.0
141
0.0
142
1.0
143
1.0
 70
   688
 72
     0
 73
     0
 74
     5
  7

 75
    16
 76
     0
 77
     2
 78
   300
147
1.0
148
0.0
149
0.0
100
AcDbLayout
  1
Layout1
 70
     1
 71
     1
 10
0.0
 20
0.0
 11
12.0
 21
9.0
 12
0.0
 22
0.0
 32
0.0
 14
1.000000000000000E+20
 24
1.000000000000000E+20
 34
1.000000000000000E+20
 15
-1.000000000000000E+20
 25
-1.000000000000000E+20
 35
-1.000000000000000E+20
146
0.0
 13
0.0
 23
0.0
 33
0.0
 16
1.0
 26
0.0
 36
0.0
 17
0.0
 27
1.0
 37
0.0
 76
     0
330
1B
  0
LAYOUT
  5
26
102
{ACAD_REACTORS
330
1A
102
}
330
1A
100
AcDbPlotSettings
  1

  2
none_device
  4

  6

 40
0.0
 41
0.0
 42
0.0
 43
0.0
 44
0.0
 45
0.0
 46
0.0
 47
0.0
 48
0.0
 49
0.0
140
0.0
141
0.0
142
1.0
143
1.0
 70
   688
 72
     0
 73
     0
 74
     5
  7

 75
    16
 76
     0
 77
     2
 78
   300
147
1.0
148
0.0
149
0.0
100
AcDbLayout
  1
Layout2
 70
     1
 71
     2
 10
0.0
 20
0.0
 11
0.0
 21
0.0
 12
0.0
 22
0.0
 32
0.0
 14
0.0
 24
0.0
 34
0.0
 15
0.0
 25
0.0
 35
0.0
146
0.0
 13
0.0
 23
0.0
 33
0.0
 16
1.0
 26
0.0
 36
0.0
 17
0.0
 27
1.0
 37
0.0
 76
     0
330
23
  0
LAYOUT
  5
22
102
{ACAD_REACTORS
330
1A
102
}
330
1A
100
AcDbPlotSettings
  1

  2
none_device
  4

  6

 40
0.0
 41
0.0
 42
0.0
 43
0.0
 44
0.0
 45
0.0
 46
0.0
 47
0.0
 48
0.0
 49
0.0
140
0.0
141
0.0
142
1.0
143
1.0
 70
  1712
 72
     0
 73
     0
 74
     0
  7

 75
     0
 76
     0
 77
     2
 78
   300
147
1.0
148
0.0
149
0.0
100
AcDbLayout
  1
Model
 70
     1
 71
     0
 10
0.0
 20
0.0
 11
12.0
 21
9.0
 12
0.0
 22
0.0
 32
0.0
 14
1.000000000000000E+20
 24
1.000000000000000E+20
 34
1.000000000000000E+20
 15
-1.000000000000000E+20
 25
-1.000000000000000E+20
 35
-1.000000000000000E+20
146
0.0
 13
0.0
 23
0.0
 33
0.0
 16
1.0
 26
0.0
 36
0.0
 17
0.0
 27
1.0
 37
0.0
 76
     0
330
1F
331
29
  0
MATERIAL
  5
3D
102
{ACAD_REACTORS
330
3B
102
}
330
3B
100
AcDbMaterial
  1
ByBlock
 72
     1
 94
      127
  0
MATERIAL
  5
3C
102
{ACAD_REACTORS
330
3B
102
}
330
3B
100
AcDbMaterial
  1
ByLayer
 72
     1
 94
      127
  0
MATERIAL
  5
3E
102
{ACAD_REACTORS
330
3B
102
}
330
3B
100
AcDbMaterial
  1
Global
 72
     1
 94
      127
  0
MLINESTYLE
  5
18
102
{ACAD_REACTORS
330
17
102
}
330
17
100
AcDbMlineStyle
  2
Standard
 70
     0
  3

 62
   256
 51
90.0
 52
90.0
 71
     2
 49
0.5
 62
   256
  6
BYLAYER
 49
-0.5
 62
   256
  6
BYLAYER
  0
ACDBPLACEHOLDER
  5
F
102
{ACAD_REACTORS
330
E
102
}
330
E
  0
VISUALSTYLE
  5
2F
102
{ACAD_REACTORS
330
2A
102
}
330
2A
100
AcDbVisualStyle
  2
2dWireframe
 70
     4
177
     2
291
     0
 71
     0
176
     1
 72
     2
176
     1
 73
     0
176
     1
 90
        0
176
     1
 40
-0.6
176
     1
 41
-30.0
176
     1
 62
     5
 63
     7
421
 16777215
176
     1
 74
     1
176
     1
 91
        4
176
     1
 64
     7
176
     1
 65
   257
176
     1
 75
     1
176
     1
175
     1
176
     1
 42
1.0
176
     1
 92
        0
176
     1
 66
   257
176
     1
 43
1.0
176
     1
 76
     1
176
     1
 77
     6
176
     1
 78
     2
176
     1
 67
     7
176
     1
 79
     5
176
     1
170
     0
176
     1
171
     0
176
     1
290
     0
176
     1
 93
        1
176
     1
 44
0.0
176
     1
173
     0
176
     1
  0
VISUALSTYLE
  5
31
102
{ACAD_REACTORS
330
2A
102
}
330
2A
100
AcDbVisualStyle
  2
3D Hidden
 70
     6
177
     2
291
     0
 71
     1
176
     1
 72
     2
176
     1
 73
     2
176
     1
 90
        0
176
     1
 40
-0.6
176
     1
 41
-30.0
176
     1
 62
     5
 63
     7
421
 16777215
176
     1
 74
     2
176
     1
 91
        2
176
     1
 64
     7
176
     1
 65
   257
176
     1
 75
     2
176
     1
175
     1
176
     1
 42
40.0
176
     1
 92
        0
176
     1
 66
   257
176
     1
 43
1.0
176
     1
 76
     1
176
     1
 77
     6
176
     1
 78
     2
176
     1
 67
     7
176
     1
 79
     3
176
     1
170
     0
176
     1
171
     0
176
     1
290
     0
176
     1
 93
        1
176
     1
 44
0.0
176
     1
173
     0
176
     1
  0
VISUALSTYLE
  5
30
102
{ACAD_REACTORS
330
2A
102
}
330
2A
100
AcDbVisualStyle
  2
3dWireframe
 70
     5
177
     2
291
     0
 71
     0
176
     1
 72
     2
176
     1
 73
     0
176
     1
 90
        0
176
     1
 40
-0.6
176
     1
 41
-30.0
176
     1
 62
     5
 63
     7
421
 16777215
176
     1
 74
     1
176
     1
 91
        4
176
     1
 64
     7
176
     1
 65
   257
176
     1
 75
     1
176
     1
175
     1
176
     1
 42
1.0
176
     1
 92
        0
176
     1
 66
   257
176
     1
 43
1.0
176
     1
 76
     1
176
     1
 77
     6
176
     1
 78
     2
176
     1
 67
     7
176
     1
 79
     5
176
     1
170
     0
176
     1
171
     0
176
     1
290
     0
176
     1
 93
        1
176
     1
 44
0.0
176
     1
173
     0
176
     1
  0
VISUALSTYLE
  5
32
102
{ACAD_REACTORS
330
2A
102
}
330
2A
100
AcDbVisualStyle
  2
Basic
 70
     7
177
     2
291
     1
 71
     1
176
     1
 72
     0
176
     1
 73
     1
176
     1
 90
        0
176
     1
 40
-0.6
176
     1
 41
-30.0
176
     1
 62
     5
 63
     7
421
 16777215
176
     1
 74
     0
176
     1
 91
        4
176
     1
 64
     7
176
     1
 65
   257
176
     1
 75
     1
176
     1
175
     1
176
     1
 42
1.0
176
     1
 92
        8
176
     1
 66
     7
176
     1
 43
1.0
176
     1
 76
     1
176
     1
 77
     6
176
     1
 78
     2
176
     1
 67
     7
176
     1
 79
     5
176
     1
170
     0
176
     1
171
     0
176
     1
290
     0
176
     1
 93
        1
176
     1
 44
0.0
176
     1
173
     0
176
     1
  0
VISUALSTYLE
  5
36
102
{ACAD_REACTORS
330
2A
102
}
330
2A
100
AcDbVisualStyle
  2
Brighten
 70
    12
177
     2
291
     1
 71
     2
176
     1
 72
     2
176
     1
 73
     0
176
     1
 90
        0
176
     1
 40
-0.6
176
     1
 41
-30.0
176
     1
 62
     5
 63
     7
421
 16777215
176
     1
 74
     1
176
     1
 91
        4
176
     1
 64
     7
176
     1
 65
   257
176
     1
 75
     1
176
     1
175
     1
176
     1
 42
1.0
176
     1
 92
        8
176
     1
 66
     7
176
     1
 43
1.0
176
     1
 76
     1
176
     1
 77
     6
176
     1
 78
     2
176
     1
 67
     7
176
     1
 79
     5
176
     1
170
     0
176
     1
171
     0
176
     1
290
     0
176
     1
 93
        1
176
     1
 44
50.0
176
     1
173
     0
176
     1
  0
VISUALSTYLE
  5
3A
102
{ACAD_REACTORS
330
2A
102
}
330
2A
100
AcDbVisualStyle
  2
ColorChange
 70
    16
177
     2
291
     1
 71
     2
176
     1
 72
     2
176
     1
 73
     3
176
     1
 90
        0
176
     1
 40
-0.6
176
     1
 41
-30.0
176
     1
 62
     5
 63
     8
421
  8421504
176
     1
 74
     1
176
     1
 91
        4
176
     1
 64
     7
176
     1
 65
   257
176
     1
 75
     1
176
     1
175
     1
176
     1
 42
1.0
176
     1
 92
        8
176
     1
 66
     8
424
  8421504
176
     1
 43
1.0
176
     1
 76
     1
176
     1
 77
     6
176
     1
 78
     2
176
     1
 67
     7
176
     1
 79
     5
176
     1
170
     0
176
     1
171
     0
176
     1
290
     0
176
     1
 93
        1
176
     1
 44
0.0
176
     1
173
     0
176
     1
  0
VISUALSTYLE
  5
34
102
{ACAD_REACTORS
330
2A
102
}
330
2A
100
AcDbVisualStyle
  2
Conceptual
 70
     9
177
     2
291
     0
 71
     3
176
     1
 72
     2
176
     1
 73
     0
176
     1
 90
        0
176
     1
 40
-0.6
176
     1
 41
-30.0
176
     1
 62
     5
 63
     7
421
 16777215
176
     1
 74
     2
176
     1
 91
        2
176
     1
 64
     7
176
     1
 65
   257
176
     1
 75
     1
176
     1
175
     1
176
     1
 42
40.0
176
     1
 92
        8
176
     1
 66
     7
176
     1
 43
1.0
176
     1
 76
     1
176
     1
 77
     6
176
     1
 78
     2
176
     1
 67
     7
176
     1
 79
     3
176
     1
170
     0
176
     1
171
     0
176
     1
290
     0
176
     1
 93
        1
176
     1
 44
0.0
176
     1
173
     0
176
     1
  0
VISUALSTYLE
  5
35
102
{ACAD_REACTORS
330
2A
102
}
330
2A
100
AcDbVisualStyle
  2
Dim
 70
    11
177
     2
291
     1
 71
     2
176
     1
 72
     2
176
     1
 73
     0
176
     1
 90
        0
176
     1
 40
-0.6
176
     1
 41
-30.0
176
     1
 62
     5
 63
     7
421
 16777215
176
     1
 74
     1
176
     1
 91
        4
176
     1
 64
     7
176
     1
 65
   257
176
     1
 75
     1
176
     1
175
     1
176
     1
 42
1.0
176
     1
 92
        8
176
     1
 66
     7
176
     1
 43
1.0
176
     1
 76
     1
176
     1
 77
     6
176
     1
 78
     2
176
     1
 67
     7
176
     1
 79
     5
176
     1
170
     0
176
     1
171
     0
176
     1
290
     0
176
     1
 93
        1
176
     1
 44
-50.0
176
     1
173
     0
176
     1
  0
VISUALSTYLE
  5
39
102
{ACAD_REACTORS
330
2A
102
}
330
2A
100
AcDbVisualStyle
  2
Facepattern
 70
    15
177
     2
291
     1
 71
     2
176
     1
 72
     2
176
     1
 73
     0
176
     1
 90
        0
176
     1
 40
-0.6
176
     1
 41
-30.0
176
     1
 62
     5
 63
     7
421
 16777215
176
     1
 74
     1
176
     1
 91
        4
176
     1
 64
     7
176
     1
 65
   257
176
     1
 75
     1
176
     1
175
     1
176
     1
 42
1.0
176
     1
 92
        8
176
     1
 66
     7
176
     1
 43
1.0
176
     1
 76
     1
176
     1
 77
     6
176
     1
 78
     2
176
     1
 67
     7
176
     1
 79
     5
176
     1
170
     0
176
     1
171
     0
176
     1
290
     0
176
     1
 93
        1
176
     1
 44
0.0
176
     1
173
     0
176
     1
  0
VISUALSTYLE
  5
2B
102
{ACAD_REACTORS
330
2A
102
}
330
2A
100
AcDbVisualStyle
  2
Flat
 70
     0
177
     2
291
     1
 71
     2
176
     1
 72
     1
176
     1
 73
     1
176
     1
 90
        2
176
     1
 40
-0.6
176
     1
 41
30.0
176
     1
 62
     5
 63
     7
421
 16777215
176
     1
 74
     0
176
     1
 91
        4
176
     1
 64
     7
176
     1
 65
   257
176
     1
 75
     1
176
     1
175
     1
176
     1
 42
1.0
176
     1
 92
        8
176
     1
 66
     7
176
     1
 43
1.0
176
     1
 76
     1
176
     1
 77
     6
176
     1
 78
     2
176
     1
 67
     7
176
     1
 79
     5
176
     1
170
     0
176
     1
171
     0
176
     1
290
     0
176
     1
 93
       13
176
     1
 44
0.0
176
     1
173
     0
176
     1
  0
VISUALSTYLE
  5
2C
102
{ACAD_REACTORS
330
2A
102
}
330
2A
100
AcDbVisualStyle
  2
FlatWithEdges
 70
     1
177
     2
291
     1
 71
     2
176
     1
 72
     1
176
     1
 73
     1
176
     1
 90
        2
176
     1
 40
-0.6
176
     1
 41
30.0
176
     1
 62
     5
 63
     7
421
 16777215
176
     1
 74
     1
176
     1
 91
        4
176
     1
 64
     7
176
     1
 65
   257
176
     1
 75
     1
176
     1
175
     1
176
     1
 42
1.0
176
     1
 92
        0
176
     1
 66
   257
176
     1
 43
1.0
176
     1
 76
     1
176
     1
 77
     6
176
     1
 78
     2
176
     1
 67
     7
176
     1
 79
     5
176
     1
170
     0
176
     1
171
     0
176
     1
290
     0
176
     1
 93
       13
176
     1
 44
0.0
176
     1
173
     0
176
     1
  0
VISUALSTYLE
  5
2D
102
{ACAD_REACTORS
330
2A
102
}
330
2A
100
AcDbVisualStyle
  2
Gouraud
 70
     2
177
     2
291
     1
 71
     2
176
     1
 72
     2
176
     1
 73
     1
176
     1
 90
        2
176
     1
 40
-0.6
176
     1
 41
30.0
176
     1
 62
     5
 63
     7
421
 16777215
176
     1
 74
     0
176
     1
 91
        4
176
     1
 64
     7
176
     1
 65
   257
176
     1
 75
     1
176
     1
175
     1
176
     1
 42
1.0
176
     1
 92
        0
176
     1
 66
     7
176
     1
 43
1.0
176
     1
 76
     1
176
     1
 77
     6
176
     1
 78
     2
176
     1
 67
     7
176
     1
 79
     5
176
     1
170
     0
176
     1
171
     0
176
     1
290
     0
176
     1
 93
       13
176
     1
 44
0.0
176
     1
173
     0
176
     1
  0
VISUALSTYLE
  5
2E
102
{ACAD_REACTORS
330
2A
102
}
330
2A
100
AcDbVisualStyle
  2
GouraudWithEdges
 70
     3
177
     2
291
     1
 71
     2
176
     1
 72
     2
176
     1
 73
     1
176
     1
 90
        2
176
     1
 40
-0.6
176
     1
 41
30.0
176
     1
 62
     5
 63
     7
421
 16777215
176
     1
 74
     1
176
     1
 91
        4
176
     1
 64
     7
176
     1
 65
   257
176
     1
 75
     1
176
     1
175
     1
176
     1
 42
1.0
176
     1
 92
        0
176
     1
 66
   257
176
     1
 43
1.0
176
     1
 76
     1
176
     1
 77
     6
176
     1
 78
     2
176
     1
 67
     7
176
     1
 79
     5
176
     1
170
     0
176
     1
171
     0
176
     1
290
     0
176
     1
 93
       13
176
     1
 44
0.0
176
     1
173
     0
176
     1
  0
VISUALSTYLE
  5
38
102
{ACAD_REACTORS
330
2A
102
}
330
2A
100
AcDbVisualStyle
  2
Linepattern
 70
    14
177
     2
291
     1
 71
     2
176
     1
 72
     2
176
     1
 73
     0
176
     1
 90
        0
176
     1
 40
-0.6
176
     1
 41
-30.0
176
     1
 62
     5
 63
     7
421
 16777215
176
     1
 74
     1
176
     1
 91
        4
176
     1
 64
     7
176
     1
 65
   257
176
     1
 75
     7
176
     1
175
     7
176
     1
 42
1.0
176
     1
 92
        8
176
     1
 66
     7
176
     1
 43
1.0
176
     1
 76
     1
176
     1
 77
     6
176
     1
 78
     2
176
     1
 67
     7
176
     1
 79
     5
176
     1
170
     0
176
     1
171
     0
176
     1
290
     0
176
     1
 93
        1
176
     1
 44
0.0
176
     1
173
     0
176
     1
  0
VISUALSTYLE
  5
33
102
{ACAD_REACTORS
330
2A
102
}
330
2A
100
AcDbVisualStyle
  2
Realistic
 70
     8
177
     2
291
     0
 71
     2
176
     1
 72
     2
176
     1
 73
     0
176
     1
 90
        0
176
     1
 40
-0.6
176
     1
 41
-30.0
176
     1
 62
     5
 63
     7
421
 16777215
176
     1
 74
     1
176
     1
 91
        0
176
     1
 64
     7
176
     1
 65
   257
176
     1
 75
     1
176
     1
175
     1
176
     1
 42
1.0
176
     1
 92
        8
176
     1
 66
     8
424
  7895160
176
     1
 43
1.0
176
     1
 76
     1
176
     1
 77
     6
176
     1
 78
     2
176
     1
 67
     7
176
     1
 79
     5
176
     1
170
     0
176
     1
171
     0
176
     1
290
     0
176
     1
 93
       13
176
     1
 44
0.0
176
     1
173
     0
176
     1
  0
VISUALSTYLE
  5
37
102
{ACAD_REACTORS
330
2A
102
}
330
2A
100
AcDbVisualStyle
  2
Thicken
 70
    13
177
     2
291
     1
 71
     2
176
     1
 72
     2
176
     1
 73
     0
176
     1
 90
        0
176
     1
 40
-0.6
176
     1
 41
-30.0
176
     1
 62
     5
 63
     7
421
 16777215
176
     1
 74
     1
176
     1
 91
        4
176
     1
 64
     7
176
     1
 65
   257
176
     1
 75
     1
176
     1
175
     1
176
     1
 42
1.0
176
     1
 92
       12
176
     1
 66
     7
176
     1
 43
1.0
176
     1
 76
     1
176
     1
 77
     6
176
     1
 78
     2
176
     1
 67
     7
176
     1
 79
     5
176
     1
170
     0
176
     1
171
     0
176
     1
290
     0
176
     1
 93
        1
176
     1
 44
0.0
176
     1
173
     0
176
     1
  0
ENDSEC
  0
EOF
