  0
SECTION
  2
HEADER
  9
$ACADVER
  1
AC1024
  9
$ACADMAINTVER
 70
     6
  9
$DWGCODEPAGE
  3
UNDEFINED
  9
$INSBASE
 10
0.0
 20
0.0
 30
0.0
  9
$EXTMIN
 10
1.000000000000000E+20
 20
1.000000000000000E+20
 30
1.000000000000000E+20
  9
$EXTMAX
 10
-1.000000000000000E+20
 20
-1.000000000000000E+20
 30
-1.000000000000000E+20
  9
$LIMMIN
 10
0.0
 20
0.0
  9
$LIMMAX
 10
12.0
 20
9.0
  9
$ORTHOMODE
 70
     0
  9
$REGENMODE
 70
     1
  9
$FILLMODE
 70
     1
  9
$QTEXTMODE
 70
     0
  9
$MIRRTEXT
 70
     1
  9
$LTSCALE
 40
1.0
  9
$ATTMODE
 70
     1
  9
$TEXTSIZE
 40
0.2
  9
$TRACEWID
 40
0.05
  9
$TEXTSTYLE
  7
Standard
  9
$CLAYER
  8
0
  9
$CELTYPE
  6
ByLayer
  9
$CECOLOR
 62
   256
  9
$CELTSCALE
 40
1.0
  9
$DISPSILH
 70
     0
  9
$DIMSCALE
 40
1.0
  9
$DIMASZ
 40
0.18
  9
$DIMEXO
 40
0.0625
  9
$DIMDLI
 40
0.38
  9
$DIMRND
 40
0.0
  9
$DIMDLE
 40
0.0
  9
$DIMEXE
 40
0.18
  9
$DIMTP
 40
0.0
  9
$DIMTM
 40
0.0
  9
$DIMTXT
 40
0.18
  9
$DIMCEN
 40
0.09
  9
$DIMTSZ
 40
0.0
  9
$DIMTOL
 70
     0
  9
$DIMLIM
 70
     0
  9
$DIMTIH
 70
     1
  9
$DIMTOH
 70
     1
  9
$DIMSE1
 70
     0
  9
$DIMSE2
 70
     0
  9
$DIMTAD
 70
     0
  9
$DIMZIN
 70
     0
  9
$DIMBLK
  1

  9
$DIMASO
 70
     1
  9
$DIMSHO
 70
     1
  9
$DIMPOST
  1

  9
$DIMAPOST
  1

  9
$DIMALT
 70
     0
  9
$DIMALTD
 70
     2
  9
$DIMALTF
 40
25.4
  9
$DIMLFAC
 40
1.0
  9
$DIMTOFL
 70
     0
  9
$DIMTVP
 40
0.0
  9
$DIMTIX
 70
     0
  9
$DIMSOXD
 70
     0
  9
$DIMSAH
 70
     0
  9
$DIMBLK1
  1

  9
$DIMBLK2
  1

  9
$DIMSTYLE
  2
Standard
  9
$DIMCLRD
 70
     0
  9
$DIMCLRE
 70
     0
  9
$DIMCLRT
 70
     0
  9
$DIMTFAC
 40
1.0
  9
$DIMGAP
 40
0.09
  9
$DIMJUST
 70
     0
  9
$DIMSD1
 70
     0
  9
$DIMSD2
 70
     0
  9
$DIMTOLJ
 70
     1
  9
$DIMTZIN
 70
     0
  9
$DIMALTZ
 70
     0
  9
$DIMALTTZ
 70
     0
  9
$DIMUPT
 70
     0
  9
$DIMDEC
 70
     4
  9
$DIMTDEC
 70
     4
  9
$DIMALTU
 70
     2
  9
$DIMALTTD
 70
     2
  9
$DIMTXSTY
  7
Standard
  9
$DIMAUNIT
 70
     0
  9
$DIMADEC
 70
     0
  9
$DIMALTRND
 40
0.0
  9
$DIMAZIN
 70
     0
  9
$DIMDSEP
 70
    46
  9
$DIMATFIT
 70
     3
  9
$DIMFRAC
 70
     0
  9
$DIMLDRBLK
  1

  9
$DIMLUNIT
 70
     2
  9
$DIMLWD
 70
    -2
  9
$DIMLWE
 70
    -2
  9
$DIMTMOVE
 70
     0
  9
$DIMFXL
 40
1.0
  9
$DIMFXLON
 70
     0
  9
$DIMJOGANG
 40
0.7853981633974483
  9
$DIMTFILL
 70
     0
  9
$DIMTFILLCLR
 70
     0
  9
$DIMARCSYM
 70
     0
  9
$DIMLTYPE
  6

  9
$DIMLTEX1
  6

  9
$DIMLTEX2
  6

  9
$DIMTXTDIRECTION
 70
     0
  9
$LUNITS
 70
     2
  9
$LUPREC
 70
     4
  9
$SKETCHINC
 40
0.1
  9
$FILLETRAD
 40
0.5
  9
$AUNITS
 70
     0
  9
$AUPREC
 70
     0
  9
$MENU
  1
.
  9
$ELEVATION
 40
0.0
  9
$PELEVATION
 40
0.0
  9
$THICKNESS
 40
0.0
  9
$LIMCHECK
 70
     0
  9
$CHAMFERA
 40
0.5
  9
$CHAMFERB
 40
0.5
  9
$CHAMFERC
 40
1.0
  9
$CHAMFERD
 40
0.0
  9
$SKPOLY
 70
     0
  9
$TDCREATE
 40
2457917.632013889
  9
$TDUCREATE
 40
2457917.257013889
  9
$TDUPDATE
 40
2457917.632013889
  9
$TDUUPDATE
 40
2457917.257013889
  9
$TDINDWG
 40
0.0000000116
  9
$TDUSRTIMER
 40
0.0000000116
  9
$USRTIMER
 70
     1
  9
$ANGBASE
 50
0.0
  9
$ANGDIR
 70
     0
  9
$PDMODE
 70
     0
  9
$PDSIZE
 40
0.0
  9
$PLINEWID
 40
0.0
  9
$SPLFRAME
 70
     0
  9
$SPLINETYPE
 70
     6
  9
$SPLINESEGS
 70
     8
  9
$HANDSEED
  5
E0
  9
$SURFTAB1
 70
     6
  9
$SURFTAB2
 70
     6
  9
$SURFTYPE
 70
     6
  9
$SURFU
 70
     6
  9
$SURFV
 70
     6
  9
$UCSBASE
  2

  9
$UCSNAME
  2

  9
$UCSORG
 10
0.0
 20
0.0
 30
0.0
  9
$UCSXDIR
 10
1.0
 20
0.0
 30
0.0
  9
$UCSYDIR
 10
0.0
 20
1.0
 30
0.0
  9
$UCSORTHOREF
  2

  9
$UCSORTHOVIEW
 70
     0
  9
$UCSORGTOP
 10
0.0
 20
0.0
 30
0.0
  9
$UCSORGBOTTOM
 10
0.0
 20
0.0
 30
0.0
  9
$UCSORGLEFT
 10
0.0
 20
0.0
 30
0.0
  9
$UCSORGRIGHT
 10
0.0
 20
0.0
 30
0.0
  9
$UCSORGFRONT
 10
0.0
 20
0.0
 30
0.0
  9
$UCSORGBACK
 10
0.0
 20
0.0
 30
0.0
  9
$PUCSBASE
  2

  9
$PUCSNAME
  2

  9
$PUCSORG
 10
0.0
 20
0.0
 30
0.0
  9
$PUCSXDIR
 10
1.0
 20
0.0
 30
0.0
  9
$PUCSYDIR
 10
0.0
 20
1.0
 30
0.0
  9
$PUCSORTHOREF
  2

  9
$PUCSORTHOVIEW
 70
     0
  9
$PUCSORGTOP
 10
0.0
 20
0.0
 30
0.0
  9
$PUCSORGBOTTOM
 10
0.0
 20
0.0
 30
0.0
  9
$PUCSORGLEFT
 10
0.0
 20
0.0
 30
0.0
  9
$PUCSORGRIGHT
 10
0.0
 20
0.0
 30
0.0
  9
$PUCSORGFRONT
 10
0.0
 20
0.0
 30
0.0
  9
$PUCSORGBACK
 10
0.0
 20
0.0
 30
0.0
  9
$USERI1
 70
     0
  9
$USERI2
 70
     0
  9
$USERI3
 70
     0
  9
$USERI4
 70
     0
  9
$USERI5
 70
     0
  9
$USERR1
 40
0.0
  9
$USERR2
 40
0.0
  9
$USERR3
 40
0.0
  9
$USERR4
 40
0.0
  9
$USERR5
 40
0.0
  9
$WORLDVIEW
 70
     1
  9
$SHADEDGE
 70
     3
  9
$SHADEDIF
 70
    70
  9
$TILEMODE
 70
     1
  9
$MAXACTVP
 70
    64
  9
$PINSBASE
 10
0.0
 20
0.0
 30
0.0
  9
$PLIMCHECK
 70
     0
  9
$PEXTMIN
 10
1.000000000000000E+20
 20
1.000000000000000E+20
 30
1.000000000000000E+20
  9
$PEXTMAX
 10
-1.000000000000000E+20
 20
-1.000000000000000E+20
 30
-1.000000000000000E+20
  9
$PLIMMIN
 10
0.0
 20
0.0
  9
$PLIMMAX
 10
12.0
 20
9.0
  9
$UNITMODE
 70
     0
  9
$VISRETAIN
 70
     1
  9
$PLINEGEN
 70
     0
  9
$PSLTSCALE
 70
     1
  9
$TREEDEPTH
 70
  3020
  9
$CMLSTYLE
  2
Standard
  9
$CMLJUST
 70
     0
  9
$CMLSCALE
 40
1.0
  9
$PROXYGRAPHICS
 70
     1
  9
$MEASUREMENT
 70
     0
  9
$CELWEIGHT
370
    -1
  9
$ENDCAPS
280
     0
  9
$JOINSTYLE
280
     0
  9
$LWDISPLAY
290
     1
  9
$INSUNITS
 70
     1
  9
$HYPERLINKBASE
  1

  9
$STYLESHEET
  1

  9
$XEDIT
290
     1
  9
$CEPSNTYPE
380
     0
  9
$PSTYLEMODE
290
     1
  9
$FINGERPRINTGUID
  2
{F0475A04-58C6-DEEF-67D0-14DF5475A802}
  9
$VERSIONGUID
  2
{FAEB1C32-E019-11D5-929B-00C0DF256EC4}
  9
$EXTNAMES
290
     1
  9
$PSVPSCALE
 40
0.0
  9
$OLESTARTUP
290
     0
  9
$SORTENTS
280
   127
  9
$INDEXCTL
280
     0
  9
$HIDETEXT
280
     1
  9
$XCLIPFRAME
280
     2
  9
$HALOGAP
280
     0
  9
$OBSCOLOR
 70
   257
  9
$OBSLTYPE
280
     0
  9
$INTERSECTIONDISPLAY
280
     0
  9
$INTERSECTIONCOLOR
 70
   257
  9
$DIMASSOC
280
     2
  9
$PROJECTNAME
  1

  9
$CAMERADISPLAY
290
     0
  9
$LENSLENGTH
 40
50.0
  9
$CAMERAHEIGHT
 40
0.0
  9
$STEPSPERSEC
 40
2.0
  9
$STEPSIZE
 40
6.0
  9
$3DDWFPREC
 40
2.0
  9
$PSOLWIDTH
 40
0.25
  9
$PSOLHEIGHT
 40
4.0
  9
$LOFTANG1
 40
1.570796326794897
  9
$LOFTANG2
 40
1.570796326794897
  9
$LOFTMAG1
 40
0.0
  9
$LOFTMAG2
 40
0.0
  9
$LOFTPARAM
 70
     7
  9
$LOFTNORMALS
280
     1
  9
$LATITUDE
 40
37.795
  9
$LONGITUDE
 40
-122.394
  9
$NORTHDIRECTION
 40
0.0
  9
$TIMEZONE
 70
 -8000
  9
$LIGHTGLYPHDISPLAY
280
     1
  9
$TILEMODELIGHTSYNCH
280
     1
  9
$CMATERIAL
347
3C
  9
$SOLIDHIST
280
     1
  9
$SHOWHIST
280
     1
  9
$DWFFRAME
280
     2
  9
$DGNFRAME
280
     2
  9
$REALWORLDSCALE
290
     1
  9
$INTERFERECOLOR
 62
   256
  9
$CSHADOW
280
     0
  9
$SHADOWPLANELOCATION
 40
0.0
  0
ENDSEC
  0
SECTION
  2
CLASSES
  0
CLASS
  1
ACDBDICTIONARYWDFLT
  2
AcDbDictionaryWithDefault
  3
ObjectDBX Classes
 90
        0
 91
        4
280
     0
281
     0
  0
CLASS
  1
VISUALSTYLE
  2
AcDbVisualStyle
  3
ObjectDBX Classes
 90
     4095
 91
        4
280
     0
281
     0
  0
CLASS
  1
MATERIAL
  2
AcDbMaterial
  3
ObjectDBX Classes
 90
     1153
 91
        4
280
     0
281
     0
  0
CLASS
  1
SUN
  2
AcDbSun
  3
SCENEOE
 90
     1024
 91
        4
280
     0
281
     0
  0
ENDSEC
  0
SECTION
  2
TABLES
  0
TABLE
  2
VPORT
  5
8
330
0
100
AcDbSymbolTable
 70
     1
  0
VPORT
  5
29
330
8
100
AcDbSymbolTableRecord
100
AcDbViewportTableRecord
  2
*Active
 70
     0
 10
0.0
 20
0.0
 11
1.0
 21
1.0
 12
0.0
 22
0.0
 13
0.0
 23
0.0
 14
0.5
 24
0.5
 15
0.5
 25
0.5
 16
0.0
 26
0.0
 36
1.0
 17
91.00082462281999
 27
-128.4993055234307
 37
0.0
 40
256.9986110468615
 41
0.7081814508812795
 42
50.0
 43
0.0
 44
0.0
 50
0.0
 51
0.0
 71
     0
 72
   100
 73
     1
 74
     3
 75
     0
 76
     0
 77
     0
 78
     0
281
     0
 65
     1
110
0.0
120
0.0
130
0.0
111
1.0
121
0.0
131
0.0
112
0.0
122
1.0
132
0.0
 79
     0
146
0.0
 60
     3
 61
     5
292
     1
282
     1
141
0.0
142
0.0
 63
   250
361
3F
  0
ENDTAB
  0
TABLE
  2
LTYPE
  5
5
330
0
100
AcDbSymbolTable
 70
     1
  0
LTYPE
  5
14
330
5
100
AcDbSymbolTableRecord
100
AcDbLinetypeTableRecord
  2
ByBlock
 70
     0
  3

 72
    65
 73
     0
 40
0.0
  0
LTYPE
  5
15
330
5
100
AcDbSymbolTableRecord
100
AcDbLinetypeTableRecord
  2
ByLayer
 70
     0
  3

 72
    65
 73
     0
 40
0.0
  0
LTYPE
  5
16
330
5
100
AcDbSymbolTableRecord
100
AcDbLinetypeTableRecord
  2
Continuous
 70
     0
  3
Solid line
 72
    65
 73
     0
 40
0.0
  0
ENDTAB
  0
TABLE
  2
LAYER
  5
2
330
0
100
AcDbSymbolTable
 70
     2
  0
LAYER
  5
10
330
2
100
AcDbSymbolTableRecord
100
AcDbLayerTableRecord
  2
0
 70
     0
 62
     7
  6
Continuous
370
    -3
390
F
347
3E
  0
LAYER
  5
40
330
2
100
AcDbSymbolTableRecord
100
AcDbLayerTableRecord
  2
_U+30EC_U+30A4_U+30E4_U+30FC 1
 70
     0
 62
     7
  6
Continuous
370
    -3
390
F
347
3E
  0
ENDTAB
  0
TABLE
  2
STYLE
  5
3
330
0
100
AcDbSymbolTable
 70
     1
  0
STYLE
  5
11
330
3
100
AcDbSymbolTableRecord
100
AcDbTextStyleTableRecord
  2
Standard
 70
     0
 40
0.0
 41
1.0
 50
0.0
 71
     0
 42
0.2
  3
txt
  4

  0
ENDTAB
  0
TABLE
  2
VIEW
  5
6
330
0
100
AcDbSymbolTable
 70
     0
  0
ENDTAB
  0
TABLE
  2
UCS
  5
7
330
0
100
AcDbSymbolTable
 70
     0
  0
ENDTAB
  0
TABLE
  2
APPID
  5
9
330
0
100
AcDbSymbolTable
 70
     1
  0
APPID
  5
12
330
9
100
AcDbSymbolTableRecord
100
AcDbRegAppTableRecord
  2
ACAD
 70
     0
  0
ENDTAB
  0
TABLE
  2
DIMSTYLE
  5
A
330
0
100
AcDbSymbolTable
 70
     1
100
AcDbDimStyleTable
  0
DIMSTYLE
105
27
330
A
100
AcDbSymbolTableRecord
100
AcDbDimStyleTableRecord
  2
Standard
 70
     0
178
     0
340
11
  0
ENDTAB
  0
TABLE
  2
BLOCK_RECORD
  5
1
330
0
100
AcDbSymbolTable
 70
     8
  0
BLOCK_RECORD
  5
1F
330
1
100
AcDbSymbolTableRecord
100
AcDbBlockTableRecord
  2
*Model_Space
340
22
 70
     0
280
     1
281
     0
  0
BLOCK_RECORD
  5
1B
330
1
100
AcDbSymbolTableRecord
100
AcDbBlockTableRecord
  2
*Paper_Space
340
1E
 70
     0
280
     1
281
     0
  0
BLOCK_RECORD
  5
23
330
1
100
AcDbSymbolTableRecord
100
AcDbBlockTableRecord
  2
*Paper_Space0
340
26
 70
     0
280
     1
281
     0
  0
BLOCK_RECORD
  5
54
330
1
100
AcDbSymbolTableRecord
100
AcDbBlockTableRecord
  2
block 2
340
0
102
{BLKREFS
331
55
102
}
 70
     0
280
     1
281
     0
  0
BLOCK_RECORD
  5
5A
330
1
100
AcDbSymbolTableRecord
100
AcDbBlockTableRecord
  2
block 3
340
0
102
{BLKREFS
331
5B
102
}
 70
     0
280
     1
281
     0
  0
BLOCK_RECORD
  5
6E
330
1
100
AcDbSymbolTableRecord
100
AcDbBlockTableRecord
  2
block 4
340
0
102
{BLKREFS
331
6F
102
}
 70
     0
280
     1
281
     0
  0
BLOCK_RECORD
  5
84
330
1
100
AcDbSymbolTableRecord
100
AcDbBlockTableRecord
  2
block 5
340
0
102
{BLKREFS
331
85
102
}
 70
     0
280
     1
281
     0
  0
BLOCK_RECORD
  5
9B
330
1
100
AcDbSymbolTableRecord
100
AcDbBlockTableRecord
  2
block 6
340
0
102
{BLKREFS
331
9C
102
}
 70
     0
280
     1
281
     0
  0
BLOCK_RECORD
  5
BA
330
1
100
AcDbSymbolTableRecord
100
AcDbBlockTableRecord
  2
block 7
340
0
102
{BLKREFS
331
BB
102
}
 70
     0
280
     1
281
     0
  0
BLOCK_RECORD
  5
CE
330
1
100
AcDbSymbolTableRecord
100
AcDbBlockTableRecord
  2
block 8
340
0
102
{BLKREFS
331
CF
102
}
 70
     0
280
     1
281
     0
  0
ENDTAB
  0
ENDSEC
  0
SECTION
  2
BLOCKS
  0
BLOCK
  5
20
330
1F
100
AcDbEntity
  8
0
100
AcDbBlockBegin
  2
*Model_Space
 70
     0
 10
0.0
 20
0.0
 30
0.0
  3
*Model_Space
  1

  0
ENDBLK
  5
21
330
1F
100
AcDbEntity
  8
0
100
AcDbBlockEnd
  0
BLOCK
  5
1C
330
1B
100
AcDbEntity
 67
     1
  8
0
100
AcDbBlockBegin
  2
*Paper_Space
 70
     0
 10
0.0
 20
0.0
 30
0.0
  3
*Paper_Space
  1

  0
ENDBLK
  5
1D
330
1B
100
AcDbEntity
 67
     1
  8
0
100
AcDbBlockEnd
  0
BLOCK
  5
24
330
23
100
AcDbEntity
  8
0
100
AcDbBlockBegin
  2
*Paper_Space0
 70
     0
 10
0.0
 20
0.0
 30
0.0
  3
*Paper_Space0
  1

  0
ENDBLK
  5
25
330
23
100
AcDbEntity
  8
0
100
AcDbBlockEnd
  0
BLOCK
  5
56
330
54
100
AcDbEntity
  8
0
100
AcDbBlockBegin
  2
block 2
 70
     0
 10
0.0
 20
0.0
 30
0.0
  3
block 2
  1

  0
SPLINE
  5
58
330
54
100
AcDbEntity
  8
_U+30EC_U+30A4_U+30E4_U+30FC 1
370
     0
100
AcDbSpline
210
0.0
220
0.0
230
1.0
 70
    11
 71
     3
 72
    53
 73
    49
 74
     0
 42
0.0000000001
 43
0.0000000001
 12
1.0
 22
0.0
 32
0.0
 13
1.0
 23
0.0
 33
0.0
 40
0.0
 40
0.0
 40
0.0
 40
0.0
 40
1.0
 40
1.0
 40
1.0
 40
2.0
 40
2.0
 40
2.0
 40
3.0
 40
3.0
 40
3.0
 40
4.0
 40
4.0
 40
4.0
 40
5.0
 40
5.0
 40
5.0
 40
6.0
 40
6.0
 40
6.0
 40
7.0
 40
7.0
 40
7.0
 40
8.0
 40
8.0
 40
8.0
 40
9.0
 40
9.0
 40
9.0
 40
10.0
 40
10.0
 40
10.0
 40
11.0
 40
11.0
 40
11.0
 40
12.0
 40
12.0
 40
12.0
 40
13.0
 40
13.0
 40
13.0
 40
14.0
 40
14.0
 40
14.0
 40
15.0
 40
15.0
 40
15.0
 40
16.0
 40
16.0
 40
16.0
 40
16.0
 10
87.2472154187264
 20
-121.8535440776095
 30
0.0
 10
87.2472154187264
 20
-121.922101477766
 30
0.0
 10
87.23033445084867
 20
-122.0109849412855
 30
0.0
 10
87.16677243914582
 20
-122.0998684048049
 30
0.0
 10
87.05670163839208
 20
-122.2516248609301
 30
0.0
 10
86.92561575517833
 20
-122.2702283765505
 30
0.0
 10
86.81778426649001
 20
-122.286937089654
 30
0.0
 10
86.81778426649001
 20
-122.286937089654
 30
0.0
 10
86.81778426649001
 20
-122.0924614495116
 30
0.0
 10
86.81778426649001
 20
-122.0924614495116
 30
0.0
 10
87.01656627598892
 20
-122.0442301127181
 30
0.0
 10
87.04619409716207
 20
-121.9332980380931
 30
0.0
 10
87.04619409716207
 20
-121.8516492750927
 30
0.0
 10
87.04619409716207
 20
-121.7295206401405
 30
0.0
 10
86.94680309241261
 20
-121.5961954448614
 30
0.0
 10
86.71408689238399
 20
-121.5961954448614
 30
0.0
 10
86.45811629782992
 20
-121.5961954448614
 30
0.0
 10
86.3883531142536
 20
-121.7536363085373
 30
0.0
 10
86.3883531142536
 20
-121.8592284851602
 30
0.0
 10
86.3883531142536
 20
-121.8869615038165
 30
0.0
 10
86.3883531142536
 20
-122.0109849412855
 30
0.0
 10
86.51737194017622
 20
-122.0886718444778
 30
0.0
 10
86.51737194017622
 20
-122.0886718444778
 30
0.0
 10
86.49825166023308
 20
-122.2424953578942
 30
0.0
 10
86.49825166023308
 20
-122.2424953578942
 30
0.0
 10
86.49825166023308
 20
-122.2424953578942
 30
0.0
 10
85.65213620905573
 20
-122.1369031812713
 30
0.0
 10
85.65213620905573
 20
-122.1369031812713
 30
0.0
 10
85.65213620905573
 20
-122.1369031812713
 30
0.0
 10
85.65213620905573
 20
-121.4554632942889
 30
0.0
 10
85.65213620905573
 20
-121.4554632942889
 30
0.0
 10
85.65213620905573
 20
-121.4554632942889
 30
0.0
 10
85.84678410397234
 20
-121.4554632942889
 30
0.0
 10
85.84678410397234
 20
-121.4554632942889
 30
0.0
 10
85.84678410397234
 20
-121.4554632942889
 30
0.0
 10
85.84678410397234
 20
-121.994276228182
 30
0.0
 10
85.84678410397234
 20
-121.994276228182
 30
0.0
 10
85.84678410397234
 20
-121.994276228182
 30
0.0
 10
86.26984182956102
 20
-122.0518093227857
 30
0.0
 10
86.26984182956102
 20
-122.0518093227857
 30
0.0
 10
86.23590763903131
 20
-121.9980658332158
 30
0.0
 10
86.19577227662815
 20
-121.9257188280255
 30
0.0
 10
86.19577227662815
 20
-121.8220214539195
 30
0.0
 10
86.19577227662815
 20
-121.5998127951209
 30
0.0
 10
86.38197968760589
 20
-121.3924180469088
 30
0.0
 10
86.69496661244085
 20
-121.3924180469088
 30
0.0
 10
87.01243216140662
 20
-121.3924180469088
 30
0.0
 10
87.2472154187264
 20
-121.5887884895681
 30
0.0
 10
87.2472154187264
 20
-121.8535440776095
 30
0.0
  0
HATCH
  5
59
330
54
100
AcDbEntity
  8
_U+30EC_U+30A4_U+30E4_U+30FC 1
 62
   179
420
  2234388
100
AcDbHatch
 10
0.0
 20
0.0
 30
0.0
210
0.0
220
0.0
230
1.0
  2
SOLID
 70
     1
 71
     0
 91
        1
 92
        1
 93
        1
 72
     4
 94
        3
 73
     0
 74
     1
 95
       53
 96
       49
 40
0.0
 40
0.0
 40
0.0
 40
0.0
 40
1.0
 40
1.0
 40
1.0
 40
2.0
 40
2.0
 40
2.0
 40
3.0
 40
3.0
 40
3.0
 40
4.0
 40
4.0
 40
4.0
 40
5.0
 40
5.0
 40
5.0
 40
6.0
 40
6.0
 40
6.0
 40
7.0
 40
7.0
 40
7.0
 40
8.0
 40
8.0
 40
8.0
 40
9.0
 40
9.0
 40
9.0
 40
10.0
 40
10.0
 40
10.0
 40
11.0
 40
11.0
 40
11.0
 40
12.0
 40
12.0
 40
12.0
 40
13.0
 40
13.0
 40
13.0
 40
14.0
 40
14.0
 40
14.0
 40
15.0
 40
15.0
 40
15.0
 40
16.0
 40
16.0
 40
16.0
 40
16.0
 10
87.2472154187264
 20
-121.8535440776095
 10
87.2472154187264
 20
-121.922101477766
 10
87.23033445084867
 20
-122.0109849412855
 10
87.16677243914582
 20
-122.0998684048049
 10
87.05670163839208
 20
-122.2516248609301
 10
86.92561575517833
 20
-122.2702283765505
 10
86.81778426649001
 20
-122.286937089654
 10
86.81778426649001
 20
-122.286937089654
 10
86.81778426649001
 20
-122.0924614495116
 10
86.81778426649001
 20
-122.0924614495116
 10
87.01656627598892
 20
-122.0442301127181
 10
87.04619409716207
 20
-121.9332980380931
 10
87.04619409716207
 20
-121.8516492750927
 10
87.04619409716207
 20
-121.7295206401405
 10
86.94680309241261
 20
-121.5961954448614
 10
86.71408689238399
 20
-121.5961954448614
 10
86.45811629782992
 20
-121.5961954448614
 10
86.3883531142536
 20
-121.7536363085373
 10
86.3883531142536
 20
-121.8592284851602
 10
86.3883531142536
 20
-121.8869615038165
 10
86.3883531142536
 20
-122.0109849412855
 10
86.51737194017622
 20
-122.0886718444778
 10
86.51737194017622
 20
-122.0886718444778
 10
86.49825166023308
 20
-122.2424953578942
 10
86.49825166023308
 20
-122.2424953578942
 10
86.49825166023308
 20
-122.2424953578942
 10
85.65213620905573
 20
-122.1369031812713
 10
85.65213620905573
 20
-122.1369031812713
 10
85.65213620905573
 20
-122.1369031812713
 10
85.65213620905573
 20
-121.4554632942889
 10
85.65213620905573
 20
-121.4554632942889
 10
85.65213620905573
 20
-121.4554632942889
 10
85.84678410397234
 20
-121.4554632942889
 10
85.84678410397234
 20
-121.4554632942889
 10
85.84678410397234
 20
-121.4554632942889
 10
85.84678410397234
 20
-121.994276228182
 10
85.84678410397234
 20
-121.994276228182
 10
85.84678410397234
 20
-121.994276228182
 10
86.26984182956102
 20
-122.0518093227857
 10
86.26984182956102
 20
-122.0518093227857
 10
86.23590763903131
 20
-121.9980658332158
 10
86.19577227662815
 20
-121.9257188280255
 10
86.19577227662815
 20
-121.8220214539195
 10
86.19577227662815
 20
-121.5998127951209
 10
86.38197968760589
 20
-121.3924180469088
 10
86.69496661244085
 20
-121.3924180469088
 10
87.01243216140662
 20
-121.3924180469088
 10
87.2472154187264
 20
-121.5887884895681
 10
87.2472154187264
 20
-121.8535440776095
 97
        0
 97
        0
 75
     2
 76
     1
 98
        0
  0
ENDBLK
  5
57
330
54
100
AcDbEntity
  8
0
100
AcDbBlockEnd
  0
BLOCK
  5
5C
330
5A
100
AcDbEntity
  8
0
100
AcDbBlockBegin
  2
block 3
 70
     0
 10
0.0
 20
0.0
 30
0.0
  3
block 3
  1

  0
SPLINE
  5
5E
330
5A
100
AcDbEntity
  8
_U+30EC_U+30A4_U+30E4_U+30FC 1
370
     0
100
AcDbSpline
210
0.0
220
0.0
230
1.0
 70
    11
 71
     3
 72
    53
 73
    49
 74
     0
 42
0.0000000001
 43
0.0000000001
 12
1.0
 22
0.0
 32
0.0
 13
1.0
 23
0.0
 33
0.0
 40
0.0
 40
0.0
 40
0.0
 40
0.0
 40
1.0
 40
1.0
 40
1.0
 40
2.0
 40
2.0
 40
2.0
 40
3.0
 40
3.0
 40
3.0
 40
4.0
 40
4.0
 40
4.0
 40
5.0
 40
5.0
 40
5.0
 40
6.0
 40
6.0
 40
6.0
 40
7.0
 40
7.0
 40
7.0
 40
8.0
 40
8.0
 40
8.0
 40
9.0
 40
9.0
 40
9.0
 40
10.0
 40
10.0
 40
10.0
 40
11.0
 40
11.0
 40
11.0
 40
12.0
 40
12.0
 40
12.0
 40
13.0
 40
13.0
 40
13.0
 40
14.0
 40
14.0
 40
14.0
 40
15.0
 40
15.0
 40
15.0
 40
16.0
 40
16.0
 40
16.0
 40
16.0
 10
87.2472154187264
 20
-126.8537556649011
 30
0.0
 10
87.2472154187264
 20
-126.9223130650576
 30
0.0
 10
87.23033445084867
 20
-127.0111965285771
 30
0.0
 10
87.16677243914582
 20
-127.1000799920965
 30
0.0
 10
87.05670163839208
 20
-127.2518364482218
 30
0.0
 10
86.92561575517833
 20
-127.2704399638421
 30
0.0
 10
86.81778426649001
 20
-127.2871486769456
 30
0.0
 10
86.81778426649001
 20
-127.2871486769456
 30
0.0
 10
86.81778426649001
 20
-127.0926730368032
 30
0.0
 10
86.81778426649001
 20
-127.0926730368032
 30
0.0
 10
87.01656627598892
 20
-127.0444417000097
 30
0.0
 10
87.04619409716207
 20
-126.9335096253847
 30
0.0
 10
87.04619409716207
 20
-126.8518608623843
 30
0.0
 10
87.04619409716207
 20
-126.7297322274322
 30
0.0
 10
86.94680309241261
 20
-126.596407032153
 30
0.0
 10
86.71408689238399
 20
-126.596407032153
 30
0.0
 10
86.45811629782992
 20
-126.596407032153
 30
0.0
 10
86.3883531142536
 20
-126.7538478958289
 30
0.0
 10
86.3883531142536
 20
-126.8594400724518
 30
0.0
 10
86.3883531142536
 20
-126.8871730911081
 30
0.0
 10
86.3883531142536
 20
-127.0111965285771
 30
0.0
 10
86.51737194017622
 20
-127.0888834317694
 30
0.0
 10
86.51737194017622
 20
-127.0888834317694
 30
0.0
 10
86.49825166023308
 20
-127.2427069451859
 30
0.0
 10
86.49825166023308
 20
-127.2427069451859
 30
0.0
 10
86.49825166023308
 20
-127.2427069451859
 30
0.0
 10
85.65213620905573
 20
-127.137114768563
 30
0.0
 10
85.65213620905573
 20
-127.137114768563
 30
0.0
 10
85.65213620905573
 20
-127.137114768563
 30
0.0
 10
85.65213620905573
 20
-126.4556748815805
 30
0.0
 10
85.65213620905573
 20
-126.4556748815805
 30
0.0
 10
85.65213620905573
 20
-126.4556748815805
 30
0.0
 10
85.84678410397234
 20
-126.4556748815805
 30
0.0
 10
85.84678410397234
 20
-126.4556748815805
 30
0.0
 10
85.84678410397234
 20
-126.4556748815805
 30
0.0
 10
85.84678410397234
 20
-126.9944878154736
 30
0.0
 10
85.84678410397234
 20
-126.9944878154736
 30
0.0
 10
85.84678410397234
 20
-126.9944878154736
 30
0.0
 10
86.26984182956102
 20
-127.0520209100773
 30
0.0
 10
86.26984182956102
 20
-127.0520209100773
 30
0.0
 10
86.23590763903131
 20
-126.9982774205074
 30
0.0
 10
86.19577227662815
 20
-126.9259304153171
 30
0.0
 10
86.19577227662815
 20
-126.8222330412111
 30
0.0
 10
86.19577227662815
 20
-126.6000243824125
 30
0.0
 10
86.38197968760589
 20
-126.3926296342005
 30
0.0
 10
86.69496661244085
 20
-126.3926296342005
 30
0.0
 10
87.01243216140662
 20
-126.3926296342005
 30
0.0
 10
87.2472154187264
 20
-126.5890000768597
 30
0.0
 10
87.2472154187264
 20
-126.8537556649011
 30
0.0
  0
HATCH
  5
5F
330
5A
100
AcDbEntity
  8
_U+30EC_U+30A4_U+30E4_U+30FC 1
 62
   179
420
  2234388
100
AcDbHatch
 10
0.0
 20
0.0
 30
0.0
210
0.0
220
0.0
230
1.0
  2
SOLID
 70
     1
 71
     0
 91
        1
 92
        1
 93
        1
 72
     4
 94
        3
 73
     0
 74
     1
 95
       53
 96
       49
 40
0.0
 40
0.0
 40
0.0
 40
0.0
 40
1.0
 40
1.0
 40
1.0
 40
2.0
 40
2.0
 40
2.0
 40
3.0
 40
3.0
 40
3.0
 40
4.0
 40
4.0
 40
4.0
 40
5.0
 40
5.0
 40
5.0
 40
6.0
 40
6.0
 40
6.0
 40
7.0
 40
7.0
 40
7.0
 40
8.0
 40
8.0
 40
8.0
 40
9.0
 40
9.0
 40
9.0
 40
10.0
 40
10.0
 40
10.0
 40
11.0
 40
11.0
 40
11.0
 40
12.0
 40
12.0
 40
12.0
 40
13.0
 40
13.0
 40
13.0
 40
14.0
 40
14.0
 40
14.0
 40
15.0
 40
15.0
 40
15.0
 40
16.0
 40
16.0
 40
16.0
 40
16.0
 10
87.2472154187264
 20
-126.8537556649011
 10
87.2472154187264
 20
-126.9223130650576
 10
87.23033445084867
 20
-127.0111965285771
 10
87.16677243914582
 20
-127.1000799920965
 10
87.05670163839208
 20
-127.2518364482218
 10
86.92561575517833
 20
-127.2704399638421
 10
86.81778426649001
 20
-127.2871486769456
 10
86.81778426649001
 20
-127.2871486769456
 10
86.81778426649001
 20
-127.0926730368032
 10
86.81778426649001
 20
-127.0926730368032
 10
87.01656627598892
 20
-127.0444417000097
 10
87.04619409716207
 20
-126.9335096253847
 10
87.04619409716207
 20
-126.8518608623843
 10
87.04619409716207
 20
-126.7297322274322
 10
86.94680309241261
 20
-126.596407032153
 10
86.71408689238399
 20
-126.596407032153
 10
86.45811629782992
 20
-126.596407032153
 10
86.3883531142536
 20
-126.7538478958289
 10
86.3883531142536
 20
-126.8594400724518
 10
86.3883531142536
 20
-126.8871730911081
 10
86.3883531142536
 20
-127.0111965285771
 10
86.51737194017622
 20
-127.0888834317694
 10
86.51737194017622
 20
-127.0888834317694
 10
86.49825166023308
 20
-127.2427069451859
 10
86.49825166023308
 20
-127.2427069451859
 10
86.49825166023308
 20
-127.2427069451859
 10
85.65213620905573
 20
-127.137114768563
 10
85.65213620905573
 20
-127.137114768563
 10
85.65213620905573
 20
-127.137114768563
 10
85.65213620905573
 20
-126.4556748815805
 10
85.65213620905573
 20
-126.4556748815805
 10
85.65213620905573
 20
-126.4556748815805
 10
85.84678410397234
 20
-126.4556748815805
 10
85.84678410397234
 20
-126.4556748815805
 10
85.84678410397234
 20
-126.4556748815805
 10
85.84678410397234
 20
-126.9944878154736
 10
85.84678410397234
 20
-126.9944878154736
 10
85.84678410397234
 20
-126.9944878154736
 10
86.26984182956102
 20
-127.0520209100773
 10
86.26984182956102
 20
-127.0520209100773
 10
86.23590763903131
 20
-126.9982774205074
 10
86.19577227662815
 20
-126.9259304153171
 10
86.19577227662815
 20
-126.8222330412111
 10
86.19577227662815
 20
-126.6000243824125
 10
86.38197968760589
 20
-126.3926296342005
 10
86.69496661244085
 20
-126.3926296342005
 10
87.01243216140662
 20
-126.3926296342005
 10
87.2472154187264
 20
-126.5890000768597
 10
87.2472154187264
 20
-126.8537556649011
 97
        0
 97
        0
 75
     2
 76
     1
 98
        0
  0
ENDBLK
  5
5D
330
5A
100
AcDbEntity
  8
0
100
AcDbBlockEnd
  0
BLOCK
  5
70
330
6E
100
AcDbEntity
  8
0
100
AcDbBlockBegin
  2
block 4
 70
     0
 10
0.0
 20
0.0
 30
0.0
  3
block 4
  1

  0
SPLINE
  5
72
330
6E
100
AcDbEntity
  8
_U+30EC_U+30A4_U+30E4_U+30FC 1
370
     0
100
AcDbSpline
210
0.0
220
0.0
230
1.0
 70
    11
 71
     3
 72
    44
 73
    40
 74
     0
 42
0.0000000001
 43
0.0000000001
 12
1.0
 22
0.0
 32
0.0
 13
1.0
 23
0.0
 33
0.0
 40
0.0
 40
0.0
 40
0.0
 40
0.0
 40
1.0
 40
1.0
 40
1.0
 40
2.0
 40
2.0
 40
2.0
 40
3.0
 40
3.0
 40
3.0
 40
4.0
 40
4.0
 40
4.0
 40
5.0
 40
5.0
 40
5.0
 40
6.0
 40
6.0
 40
6.0
 40
7.0
 40
7.0
 40
7.0
 40
8.0
 40
8.0
 40
8.0
 40
9.0
 40
9.0
 40
9.0
 40
10.0
 40
10.0
 40
10.0
 40
11.0
 40
11.0
 40
11.0
 40
12.0
 40
12.0
 40
12.0
 40
13.0
 40
13.0
 40
13.0
 40
13.0
 10
82.43562280925221
 20
-129.8563286350706
 30
0.0
 10
82.59426945634796
 20
-130.0471869249535
 30
0.0
 10
82.66833900928084
 20
-130.1288356879539
 30
0.0
 10
82.81217174579001
 20
-130.1712103624225
 30
0.0
 10
82.81217174579001
 20
-130.1712103624225
 30
0.0
 10
82.81217174579001
 20
-129.4897704754401
 30
0.0
 10
82.81217174579001
 20
-129.4897704754401
 30
0.0
 10
82.81217174579001
 20
-129.4897704754401
 30
0.0
 10
83.01732718193665
 20
-129.4897704754401
 30
0.0
 10
83.01732718193665
 20
-129.4897704754401
 30
0.0
 10
83.01732718193665
 20
-129.4897704754401
 30
0.0
 10
83.01732718193665
 20
-130.3896294161873
 30
0.0
 10
83.01732718193665
 20
-130.3896294161873
 30
0.0
 10
82.65972627056772
 20
-130.3617241427568
 30
0.0
 10
82.58152260305253
 20
-130.3045355577017
 30
0.0
 10
82.2831773340299
 20
-129.9676052192442
 30
0.0
 10
82.08439532453099
 20
-129.743674012703
 30
0.0
 10
82.01669919824583
 20
-129.6861409180993
 30
0.0
 10
81.87923988838436
 20
-129.6861409180993
 30
0.0
 10
81.76072860369176
 20
-129.6861409180993
 30
0.0
 10
81.62947046570375
 20
-129.7491861654794
 30
0.0
 10
81.62947046570375
 20
-129.9214409397419
 30
0.0
 10
81.62947046570375
 20
-130.1488172417684
 30
0.0
 10
81.86011960844122
 20
-130.1563964518359
 30
0.0
 10
81.97656383584267
 20
-130.1601860568697
 30
0.0
 10
81.97656383584267
 20
-130.1601860568697
 30
0.0
 10
81.97656383584267
 20
-130.3562119899804
 30
0.0
 10
81.97656383584267
 20
-130.3562119899804
 30
0.0
 10
81.84961206721121
 20
-130.3489772894614
 30
0.0
 10
81.73747420916634
 20
-130.3396755316512
 30
0.0
 10
81.61896292447373
 20
-130.2693955837521
 30
0.0
 10
81.45824922008683
 20
-130.1729329101651
 30
0.0
 10
81.42431502955712
 20
-130.0103244032613
 30
0.0
 10
81.42431502955712
 20
-129.9083495768979
 30
0.0
 10
81.42431502955712
 20
-129.6658148547363
 30
0.0
 10
81.60845538324372
 20
-129.4842583226637
 30
0.0
 10
81.8813069456755
 20
-129.4842583226637
 30
0.0
 10
82.10971677634757
 20
-129.4842583226637
 30
0.0
 10
82.20928003587129
 20
-129.5858886394785
 30
0.0
 10
82.43562280925221
 20
-129.8563286350706
 30
0.0
  0
HATCH
  5
73
330
6E
100
AcDbEntity
  8
_U+30EC_U+30A4_U+30E4_U+30FC 1
 62
   179
420
  2234388
100
AcDbHatch
 10
0.0
 20
0.0
 30
0.0
210
0.0
220
0.0
230
1.0
  2
SOLID
 70
     1
 71
     0
 91
        1
 92
        1
 93
        1
 72
     4
 94
        3
 73
     0
 74
     1
 95
       44
 96
       40
 40
0.0
 40
0.0
 40
0.0
 40
0.0
 40
1.0
 40
1.0
 40
1.0
 40
2.0
 40
2.0
 40
2.0
 40
3.0
 40
3.0
 40
3.0
 40
4.0
 40
4.0
 40
4.0
 40
5.0
 40
5.0
 40
5.0
 40
6.0
 40
6.0
 40
6.0
 40
7.0
 40
7.0
 40
7.0
 40
8.0
 40
8.0
 40
8.0
 40
9.0
 40
9.0
 40
9.0
 40
10.0
 40
10.0
 40
10.0
 40
11.0
 40
11.0
 40
11.0
 40
12.0
 40
12.0
 40
12.0
 40
13.0
 40
13.0
 40
13.0
 40
13.0
 10
82.43562280925221
 20
-129.8563286350706
 10
82.59426945634796
 20
-130.0471869249535
 10
82.66833900928084
 20
-130.1288356879539
 10
82.81217174579001
 20
-130.1712103624225
 10
82.81217174579001
 20
-130.1712103624225
 10
82.81217174579001
 20
-129.4897704754401
 10
82.81217174579001
 20
-129.4897704754401
 10
82.81217174579001
 20
-129.4897704754401
 10
83.01732718193665
 20
-129.4897704754401
 10
83.01732718193665
 20
-129.4897704754401
 10
83.01732718193665
 20
-129.4897704754401
 10
83.01732718193665
 20
-130.3896294161873
 10
83.01732718193665
 20
-130.3896294161873
 10
82.65972627056772
 20
-130.3617241427568
 10
82.58152260305253
 20
-130.3045355577017
 10
82.2831773340299
 20
-129.9676052192442
 10
82.08439532453099
 20
-129.743674012703
 10
82.01669919824583
 20
-129.6861409180993
 10
81.87923988838436
 20
-129.6861409180993
 10
81.76072860369176
 20
-129.6861409180993
 10
81.62947046570375
 20
-129.7491861654794
 10
81.62947046570375
 20
-129.9214409397419
 10
81.62947046570375
 20
-130.1488172417684
 10
81.86011960844122
 20
-130.1563964518359
 10
81.97656383584267
 20
-130.1601860568697
 10
81.97656383584267
 20
-130.1601860568697
 10
81.97656383584267
 20
-130.3562119899804
 10
81.97656383584267
 20
-130.3562119899804
 10
81.84961206721121
 20
-130.3489772894614
 10
81.73747420916634
 20
-130.3396755316512
 10
81.61896292447373
 20
-130.2693955837521
 10
81.45824922008683
 20
-130.1729329101651
 10
81.42431502955712
 20
-130.0103244032613
 10
81.42431502955712
 20
-129.9083495768979
 10
81.42431502955712
 20
-129.6658148547363
 10
81.60845538324372
 20
-129.4842583226637
 10
81.8813069456755
 20
-129.4842583226637
 10
82.10971677634757
 20
-129.4842583226637
 10
82.20928003587129
 20
-129.5858886394785
 10
82.43562280925221
 20
-129.8563286350706
 97
        0
 97
        0
 75
     2
 76
     1
 98
        0
  0
SPLINE
  5
74
330
6E
100
AcDbEntity
  8
_U+30EC_U+30A4_U+30E4_U+30FC 1
370
     0
100
AcDbSpline
210
0.0
220
0.0
230
1.0
 70
    11
 71
     3
 72
    29
 73
    25
 74
     0
 42
0.0000000001
 43
0.0000000001
 12
1.0
 22
0.0
 32
0.0
 13
1.0
 23
0.0
 33
0.0
 40
0.0
 40
0.0
 40
0.0
 40
0.0
 40
1.0
 40
1.0
 40
1.0
 40
2.0
 40
2.0
 40
2.0
 40
3.0
 40
3.0
 40
3.0
 40
4.0
 40
4.0
 40
4.0
 40
5.0
 40
5.0
 40
5.0
 40
6.0
 40
6.0
 40
6.0
 40
7.0
 40
7.0
 40
7.0
 40
8.0
 40
8.0
 40
8.0
 40
8.0
 10
82.83956025489775
 20
-128.5589056753255
 30
0.0
 10
83.04902206040094
 20
-128.6534735463957
 30
0.0
 10
83.06814234034408
 20
-128.8052300025209
 30
0.0
 10
83.06814234034408
 20
-128.9072048288843
 30
0.0
 10
83.06814234034408
 20
-129.0477647246825
 30
0.0
 10
83.0216335512932
 20
-129.1717881621515
 30
0.0
 10
82.83956025489775
 20
-129.2551594728945
 30
0.0
 10
82.6450846147554
 20
-129.3461099937051
 30
0.0
 10
82.40806204537022
 20
-129.3626464520343
 30
0.0
 10
82.2451090289179
 20
-129.3626464520343
 30
0.0
 10
82.10127629240871
 20
-129.3626464520343
 30
0.0
 10
81.84961206721121
 20
-129.3478325414478
 30
0.0
 10
81.65065780293803
 20
-129.2551594728945
 30
0.0
 10
81.44756942408256
 20
-129.1607638565987
 30
0.0
 10
81.42431502955712
 20
-129.0202039608005
 30
0.0
 10
81.42431502955712
 20
-128.9072048288843
 30
0.0
 10
81.42431502955712
 20
-128.7680229712802
 30
0.0
 10
81.46875676131684
 20
-128.6422769860686
 30
0.0
 10
81.65065780293803
 20
-128.5589056753255
 30
0.0
 10
81.8432386405635
 20
-128.471917014323
 30
0.0
 10
82.07164847123556
 20
-128.45159095096
 30
0.0
 10
82.2451090289179
 20
-128.45159095096
 30
0.0
 10
82.41650252930907
 20
-128.45159095096
 30
0.0
 10
82.64715167204655
 20
-128.4700222118061
 30
0.0
 10
82.83956025489775
 20
-128.5589056753255
 30
0.0
  0
SPLINE
  5
75
330
6E
100
AcDbEntity
  8
_U+30EC_U+30A4_U+30E4_U+30FC 1
370
     0
100
AcDbSpline
210
0.0
220
0.0
230
1.0
 70
    11
 71
     3
 72
    17
 73
    13
 74
     0
 42
0.0000000001
 43
0.0000000001
 12
1.0
 22
0.0
 32
0.0
 13
1.0
 23
0.0
 33
0.0
 40
0.0
 40
0.0
 40
0.0
 40
0.0
 40
1.0
 40
1.0
 40
1.0
 40
2.0
 40
2.0
 40
2.0
 40
3.0
 40
3.0
 40
3.0
 40
4.0
 40
4.0
 40
4.0
 40
4.0
 10
81.61689586718259
 20
-128.9072048288843
 30
0.0
 10
81.61689586718259
 20
-129.1256238826492
 30
0.0
 10
81.90025497084439
 20
-129.1662760093751
 30
0.0
 10
82.2451090289179
 20
-129.1662760093751
 30
0.0
 10
82.56464163517481
 20
-129.1662760093751
 30
0.0
 10
82.87349444542747
 20
-129.1349256404593
 30
0.0
 10
82.87349444542747
 20
-128.9072048288843
 30
0.0
 10
82.87349444542747
 20
-128.6905083228621
 30
0.0
 10
82.59203014428255
 20
-128.647789138845
 30
0.0
 10
82.2451090289179
 20
-128.647789138845
 30
0.0
 10
81.92574867743524
 20
-128.647789138845
 30
0.0
 10
81.61689586718259
 20
-128.6812065650519
 30
0.0
 10
81.61689586718259
 20
-128.9072048288843
 30
0.0
  0
HATCH
  5
76
330
6E
100
AcDbEntity
  8
_U+30EC_U+30A4_U+30E4_U+30FC 1
 62
   179
420
  2234388
100
AcDbHatch
 10
0.0
 20
0.0
 30
0.0
210
0.0
220
0.0
230
1.0
  2
SOLID
 70
     1
 71
     0
 91
        2
 92
        1
 93
        1
 72
     4
 94
        3
 73
     0
 74
     1
 95
       29
 96
       25
 40
0.0
 40
0.0
 40
0.0
 40
0.0
 40
1.0
 40
1.0
 40
1.0
 40
2.0
 40
2.0
 40
2.0
 40
3.0
 40
3.0
 40
3.0
 40
4.0
 40
4.0
 40
4.0
 40
5.0
 40
5.0
 40
5.0
 40
6.0
 40
6.0
 40
6.0
 40
7.0
 40
7.0
 40
7.0
 40
8.0
 40
8.0
 40
8.0
 40
8.0
 10
82.83956025489775
 20
-128.5589056753255
 10
83.04902206040094
 20
-128.6534735463957
 10
83.06814234034408
 20
-128.8052300025209
 10
83.06814234034408
 20
-128.9072048288843
 10
83.06814234034408
 20
-129.0477647246825
 10
83.0216335512932
 20
-129.1717881621515
 10
82.83956025489775
 20
-129.2551594728945
 10
82.6450846147554
 20
-129.3461099937051
 10
82.40806204537022
 20
-129.3626464520343
 10
82.2451090289179
 20
-129.3626464520343
 10
82.10127629240871
 20
-129.3626464520343
 10
81.84961206721121
 20
-129.3478325414478
 10
81.65065780293803
 20
-129.2551594728945
 10
81.44756942408256
 20
-129.1607638565987
 10
81.42431502955712
 20
-129.0202039608005
 10
81.42431502955712
 20
-128.9072048288843
 10
81.42431502955712
 20
-128.7680229712802
 10
81.46875676131684
 20
-128.6422769860686
 10
81.65065780293803
 20
-128.5589056753255
 10
81.8432386405635
 20
-128.471917014323
 10
82.07164847123556
 20
-128.45159095096
 10
82.2451090289179
 20
-128.45159095096
 10
82.41650252930907
 20
-128.45159095096
 10
82.64715167204655
 20
-128.4700222118061
 10
82.83956025489775
 20
-128.5589056753255
 97
        0
 97
        0
 92
        1
 93
        1
 72
     4
 94
        3
 73
     0
 74
     1
 95
       17
 96
       13
 40
0.0
 40
0.0
 40
0.0
 40
0.0
 40
1.0
 40
1.0
 40
1.0
 40
2.0
 40
2.0
 40
2.0
 40
3.0
 40
3.0
 40
3.0
 40
4.0
 40
4.0
 40
4.0
 40
4.0
 10
81.61689586718259
 20
-128.9072048288843
 10
81.61689586718259
 20
-129.1256238826492
 10
81.90025497084439
 20
-129.1662760093751
 10
82.2451090289179
 20
-129.1662760093751
 10
82.56464163517481
 20
-129.1662760093751
 10
82.87349444542747
 20
-129.1349256404593
 10
82.87349444542747
 20
-128.9072048288843
 10
82.87349444542747
 20
-128.6905083228621
 10
82.59203014428255
 20
-128.647789138845
 10
82.2451090289179
 20
-128.647789138845
 10
81.92574867743524
 20
-128.647789138845
 10
81.61689586718259
 20
-128.6812065650519
 10
81.61689586718259
 20
-128.9072048288843
 97
        0
 97
        0
 75
     2
 76
     1
 98
        0
  0
ENDBLK
  5
71
330
6E
100
AcDbEntity
  8
0
100
AcDbBlockEnd
  0
BLOCK
  5
86
330
84
100
AcDbEntity
  8
0
100
AcDbBlockBegin
  2
block 5
 70
     0
 10
0.0
 20
0.0
 30
0.0
  3
block 5
  1

  0
SPLINE
  5
88
330
84
100
AcDbEntity
  8
_U+30EC_U+30A4_U+30E4_U+30FC 1
370
     0
100
AcDbSpline
210
0.0
220
0.0
230
1.0
 70
    11
 71
     3
 72
    26
 73
    22
 74
     0
 42
0.0000000001
 43
0.0000000001
 12
1.0
 22
0.0
 32
0.0
 13
1.0
 23
0.0
 33
0.0
 40
0.0
 40
0.0
 40
0.0
 40
0.0
 40
1.0
 40
1.0
 40
1.0
 40
2.0
 40
2.0
 40
2.0
 40
3.0
 40
3.0
 40
3.0
 40
4.0
 40
4.0
 40
4.0
 40
5.0
 40
5.0
 40
5.0
 40
6.0
 40
6.0
 40
6.0
 40
7.0
 40
7.0
 40
7.0
 40
7.0
 10
99.31969127291313
 20
-124.9522352118175
 30
0.0
 10
99.31969127291313
 20
-124.9522352118175
 30
0.0
 10
98.21553816989056
 20
-124.9522352118175
 30
0.0
 10
98.21553816989056
 20
-124.9522352118175
 30
0.0
 10
98.21553816989056
 20
-124.9522352118175
 30
0.0
 10
98.21553816989056
 20
-125.2822753593044
 30
0.0
 10
98.21553816989056
 20
-125.2822753593044
 30
0.0
 10
98.21553816989056
 20
-125.2822753593044
 30
0.0
 10
98.06739906402483
 20
-125.2822753593044
 30
0.0
 10
98.06739906402483
 20
-125.2822753593044
 30
0.0
 10
98.05258515343824
 20
-124.9501681545264
 30
0.0
 10
97.88963213698592
 20
-124.9036593654755
 30
0.0
 10
97.77525496687564
 20
-124.8740315443023
 30
0.0
 10
97.77525496687564
 20
-124.8740315443023
 30
0.0
 10
97.77525496687564
 20
-124.7279594957277
 30
0.0
 10
97.77525496687564
 20
-124.7279594957277
 30
0.0
 10
97.77525496687564
 20
-124.7279594957277
 30
0.0
 10
99.31969127291313
 20
-124.7279594957277
 30
0.0
 10
99.31969127291313
 20
-124.7279594957277
 30
0.0
 10
99.31969127291313
 20
-124.7279594957277
 30
0.0
 10
99.31969127291313
 20
-124.9522352118175
 30
0.0
 10
99.31969127291313
 20
-124.9522352118175
 30
0.0
  0
HATCH
  5
89
330
84
100
AcDbEntity
  8
_U+30EC_U+30A4_U+30E4_U+30FC 1
 62
   179
420
  2234388
100
AcDbHatch
 10
0.0
 20
0.0
 30
0.0
210
0.0
220
0.0
230
1.0
  2
SOLID
 70
     1
 71
     0
 91
        1
 92
        1
 93
        1
 72
     4
 94
        3
 73
     0
 74
     1
 95
       26
 96
       22
 40
0.0
 40
0.0
 40
0.0
 40
0.0
 40
1.0
 40
1.0
 40
1.0
 40
2.0
 40
2.0
 40
2.0
 40
3.0
 40
3.0
 40
3.0
 40
4.0
 40
4.0
 40
4.0
 40
5.0
 40
5.0
 40
5.0
 40
6.0
 40
6.0
 40
6.0
 40
7.0
 40
7.0
 40
7.0
 40
7.0
 10
99.31969127291313
 20
-124.9522352118175
 10
99.31969127291313
 20
-124.9522352118175
 10
98.21553816989056
 20
-124.9522352118175
 10
98.21553816989056
 20
-124.9522352118175
 10
98.21553816989056
 20
-124.9522352118175
 10
98.21553816989056
 20
-125.2822753593044
 10
98.21553816989056
 20
-125.2822753593044
 10
98.21553816989056
 20
-125.2822753593044
 10
98.06739906402483
 20
-125.2822753593044
 10
98.06739906402483
 20
-125.2822753593044
 10
98.05258515343824
 20
-124.9501681545264
 10
97.88963213698592
 20
-124.9036593654755
 10
97.77525496687564
 20
-124.8740315443023
 10
97.77525496687564
 20
-124.8740315443023
 10
97.77525496687564
 20
-124.7279594957277
 10
97.77525496687564
 20
-124.7279594957277
 10
97.77525496687564
 20
-124.7279594957277
 10
99.31969127291313
 20
-124.7279594957277
 10
99.31969127291313
 20
-124.7279594957277
 10
99.31969127291313
 20
-124.7279594957277
 10
99.31969127291313
 20
-124.9522352118175
 10
99.31969127291313
 20
-124.9522352118175
 97
        0
 97
        0
 75
     2
 76
     1
 98
        0
  0
SPLINE
  5
8A
330
84
100
AcDbEntity
  8
_U+30EC_U+30A4_U+30E4_U+30FC 1
370
     0
100
AcDbSpline
210
0.0
220
0.0
230
1.0
 70
    11
 71
     3
 72
    29
 73
    25
 74
     0
 42
0.0000000001
 43
0.0000000001
 12
1.0
 22
0.0
 32
0.0
 13
1.0
 23
0.0
 33
0.0
 40
0.0
 40
0.0
 40
0.0
 40
0.0
 40
1.0
 40
1.0
 40
1.0
 40
2.0
 40
2.0
 40
2.0
 40
3.0
 40
3.0
 40
3.0
 40
4.0
 40
4.0
 40
4.0
 40
5.0
 40
5.0
 40
5.0
 40
6.0
 40
6.0
 40
6.0
 40
7.0
 40
7.0
 40
7.0
 40
8.0
 40
8.0
 40
8.0
 40
8.0
 10
99.14192434587424
 20
-123.3289062191678
 30
0.0
 10
99.35138615137744
 20
-123.4370822174046
 30
0.0
 10
99.37033417654631
 20
-123.6103705203127
 30
0.0
 10
99.37033417654631
 20
-123.7268147477141
 30
0.0
 10
99.37033417654631
 20
-123.8877007068753
 30
0.0
 10
99.32382538749543
 20
-124.0292941313191
 30
0.0
 10
99.14192434587424
 20
-124.124378766712
 30
0.0
 10
98.94727645095763
 20
-124.228076140818
 30
0.0
 10
98.71025388157244
 20
-124.2473686755354
 30
0.0
 10
98.54764537466865
 20
-124.2473686755354
 30
0.0
 10
98.40364038338521
 20
-124.2473686755354
 30
0.0
 10
98.15180390341344
 20
-124.2301431981091
 30
0.0
 10
97.95302189391452
 20
-124.124378766712
 30
0.0
 10
97.75010576983331
 20
-124.0165472780237
 30
0.0
 10
97.72667912053362
 20
-123.8556613188625
 30
0.0
 10
97.72667912053362
 20
-123.7268147477141
 30
0.0
 10
97.72667912053362
 20
-123.5679958458441
 30
0.0
 10
97.77112085229334
 20
-123.4243353641092
 30
0.0
 10
97.95302189391452
 20
-123.3289062191678
 30
0.0
 10
98.14560273154
 20
-123.2296874691926
 30
0.0
 10
98.37401256221206
 20
-123.2062608198929
 30
0.0
 10
98.54764537466865
 20
-123.2062608198929
 30
0.0
 10
98.71886662028557
 20
-123.2062608198929
 30
0.0
 10
98.94934350824877
 20
-123.2276204119014
 30
0.0
 10
99.14192434587424
 20
-123.3289062191678
 30
0.0
  0
SPLINE
  5
8B
330
84
100
AcDbEntity
  8
_U+30EC_U+30A4_U+30E4_U+30FC 1
370
     0
100
AcDbSpline
210
0.0
220
0.0
230
1.0
 70
    11
 71
     3
 72
    17
 73
    13
 74
     0
 42
0.0000000001
 43
0.0000000001
 12
1.0
 22
0.0
 32
0.0
 13
1.0
 23
0.0
 33
0.0
 40
0.0
 40
0.0
 40
0.0
 40
0.0
 40
1.0
 40
1.0
 40
1.0
 40
2.0
 40
2.0
 40
2.0
 40
3.0
 40
3.0
 40
3.0
 40
4.0
 40
4.0
 40
4.0
 40
4.0
 10
97.91925995815907
 20
-123.7268147477141
 30
0.0
 10
97.91925995815907
 20
-123.9765841703947
 30
0.0
 10
98.20279131659514
 20
-124.0230929594456
 30
0.0
 10
98.54764537466865
 20
-124.0230929594456
 30
0.0
 10
98.8670057261513
 20
-124.0230929594456
 30
0.0
 10
99.1756862816297
 20
-123.9869194568505
 30
0.0
 10
99.1756862816297
 20
-123.7268147477141
 30
0.0
 10
99.1756862816297
 20
-123.4791123823247
 30
0.0
 10
98.89456649003331
 20
-123.4305365359827
 30
0.0
 10
98.54764537466865
 20
-123.4305365359827
 30
0.0
 10
98.22794051363746
 20
-123.4305365359827
 30
0.0
 10
97.91925995815907
 20
-123.4687770958689
 30
0.0
 10
97.91925995815907
 20
-123.7268147477141
 30
0.0
  0
HATCH
  5
8C
330
84
100
AcDbEntity
  8
_U+30EC_U+30A4_U+30E4_U+30FC 1
 62
   179
420
  2234388
100
AcDbHatch
 10
0.0
 20
0.0
 30
0.0
210
0.0
220
0.0
230
1.0
  2
SOLID
 70
     1
 71
     0
 91
        2
 92
        1
 93
        1
 72
     4
 94
        3
 73
     0
 74
     1
 95
       29
 96
       25
 40
0.0
 40
0.0
 40
0.0
 40
0.0
 40
1.0
 40
1.0
 40
1.0
 40
2.0
 40
2.0
 40
2.0
 40
3.0
 40
3.0
 40
3.0
 40
4.0
 40
4.0
 40
4.0
 40
5.0
 40
5.0
 40
5.0
 40
6.0
 40
6.0
 40
6.0
 40
7.0
 40
7.0
 40
7.0
 40
8.0
 40
8.0
 40
8.0
 40
8.0
 10
99.14192434587424
 20
-123.3289062191678
 10
99.35138615137744
 20
-123.4370822174046
 10
99.37033417654631
 20
-123.6103705203127
 10
99.37033417654631
 20
-123.7268147477141
 10
99.37033417654631
 20
-123.8877007068753
 10
99.32382538749543
 20
-124.0292941313191
 10
99.14192434587424
 20
-124.124378766712
 10
98.94727645095763
 20
-124.228076140818
 10
98.71025388157244
 20
-124.2473686755354
 10
98.54764537466865
 20
-124.2473686755354
 10
98.40364038338521
 20
-124.2473686755354
 10
98.15180390341344
 20
-124.2301431981091
 10
97.95302189391452
 20
-124.124378766712
 10
97.75010576983331
 20
-124.0165472780237
 10
97.72667912053362
 20
-123.8556613188625
 10
97.72667912053362
 20
-123.7268147477141
 10
97.72667912053362
 20
-123.5679958458441
 10
97.77112085229334
 20
-123.4243353641092
 10
97.95302189391452
 20
-123.3289062191678
 10
98.14560273154
 20
-123.2296874691926
 10
98.37401256221206
 20
-123.2062608198929
 10
98.54764537466865
 20
-123.2062608198929
 10
98.71886662028557
 20
-123.2062608198929
 10
98.94934350824877
 20
-123.2276204119014
 10
99.14192434587424
 20
-123.3289062191678
 97
        0
 97
        0
 92
        1
 93
        1
 72
     4
 94
        3
 73
     0
 74
     1
 95
       17
 96
       13
 40
0.0
 40
0.0
 40
0.0
 40
0.0
 40
1.0
 40
1.0
 40
1.0
 40
2.0
 40
2.0
 40
2.0
 40
3.0
 40
3.0
 40
3.0
 40
4.0
 40
4.0
 40
4.0
 40
4.0
 10
97.91925995815907
 20
-123.7268147477141
 10
97.91925995815907
 20
-123.9765841703947
 10
98.20279131659514
 20
-124.0230929594456
 10
98.54764537466865
 20
-124.0230929594456
 10
98.8670057261513
 20
-124.0230929594456
 10
99.1756862816297
 20
-123.9869194568505
 10
99.1756862816297
 20
-123.7268147477141
 10
99.1756862816297
 20
-123.4791123823247
 10
98.89456649003331
 20
-123.4305365359827
 10
98.54764537466865
 20
-123.4305365359827
 10
98.22794051363746
 20
-123.4305365359827
 10
97.91925995815907
 20
-123.4687770958689
 10
97.91925995815907
 20
-123.7268147477141
 97
        0
 97
        0
 75
     2
 76
     1
 98
        0
  0
ENDBLK
  5
87
330
84
100
AcDbEntity
  8
0
100
AcDbBlockEnd
  0
BLOCK
  5
9D
330
9B
100
AcDbEntity
  8
0
100
AcDbBlockBegin
  2
block 6
 70
     0
 10
0.0
 20
0.0
 30
0.0
  3
block 6
  1

  0
SPLINE
  5
9F
330
9B
100
AcDbEntity
  8
_U+30EC_U+30A4_U+30E4_U+30FC 1
370
     0
100
AcDbSpline
210
0.0
220
0.0
230
1.0
 70
    11
 71
     3
 72
    32
 73
    28
 74
     0
 42
0.0000000001
 43
0.0000000001
 12
1.0
 22
0.0
 32
0.0
 13
1.0
 23
0.0
 33
0.0
 40
0.0
 40
0.0
 40
0.0
 40
0.0
 40
1.0
 40
1.0
 40
1.0
 40
2.0
 40
2.0
 40
2.0
 40
3.0
 40
3.0
 40
3.0
 40
4.0
 40
4.0
 40
4.0
 40
5.0
 40
5.0
 40
5.0
 40
6.0
 40
6.0
 40
6.0
 40
7.0
 40
7.0
 40
7.0
 40
8.0
 40
8.0
 40
8.0
 40
9.0
 40
9.0
 40
9.0
 40
9.0
 10
92.00058591449985
 20
-114.6548448064057
 30
0.0
 10
91.48451061080944
 20
-114.6548448064057
 30
0.0
 10
91.47589787209631
 20
-114.1007011976033
 30
0.0
 10
91.47589787209631
 20
-113.8871052775178
 30
0.0
 10
91.47589787209631
 20
-113.6564561347803
 30
0.0
 10
91.4951904068137
 20
-113.0091226931019
 30
0.0
 10
92.03882647438613
 20
-113.0091226931019
 30
0.0
 10
92.2121147772942
 20
-113.0091226931019
 30
0.0
 10
92.4577500853925
 20
-113.0788858766782
 30
0.0
 10
92.49564613573025
 20
-113.4109930814563
 30
0.0
 10
92.49564613573025
 20
-113.4109930814563
 30
0.0
 10
92.28205021564477
 20
-113.4109930814563
 30
0.0
 10
92.28205021564477
 20
-113.4109930814563
 30
0.0
 10
92.27137041964049
 20
-113.3539767511754
 30
0.0
 10
92.2396755411762
 20
-113.2058376453097
 30
0.0
 10
92.03675941709498
 20
-113.2058376453097
 30
0.0
 10
91.7446153199458
 20
-113.2058376453097
 30
0.0
 10
91.7046522123169
 20
-113.5338107355054
 30
0.0
 10
91.69190535902148
 20
-113.7389661716521
 30
0.0
 10
91.78492293712321
 20
-113.6607625041369
 30
0.0
 10
91.85279131818264
 20
-113.6015068617906
 30
0.0
 10
92.03469235980383
 20
-113.6015068617906
 30
0.0
 10
92.21452634413387
 20
-113.6015068617906
 30
0.0
 10
92.5170057277388
 20
-113.7093383504789
 30
0.0
 10
92.5170057277388
 20
-114.1155151081899
 30
0.0
 10
92.5170057277388
 20
-114.4350477144468
 30
0.0
 10
92.31787920869137
 20
-114.6548448064057
 30
0.0
 10
92.00058591449985
 20
-114.6548448064057
 30
0.0
  0
SPLINE
  5
A0
330
9B
100
AcDbEntity
  8
_U+30EC_U+30A4_U+30E4_U+30FC 1
370
     0
100
AcDbSpline
210
0.0
220
0.0
230
1.0
 70
    11
 71
     3
 72
    17
 73
    13
 74
     0
 42
0.0000000001
 43
0.0000000001
 12
1.0
 22
0.0
 32
0.0
 13
1.0
 23
0.0
 33
0.0
 40
0.0
 40
0.0
 40
0.0
 40
0.0
 40
1.0
 40
1.0
 40
1.0
 40
2.0
 40
2.0
 40
2.0
 40
3.0
 40
3.0
 40
3.0
 40
4.0
 40
4.0
 40
4.0
 40
4.0
 10
92.01746688237758
 20
-113.7961547567072
 30
0.0
 10
91.75529511595006
 20
-113.7961547567072
 30
0.0
 10
91.71739906561233
 20
-114.0076836195016
 30
0.0
 10
91.71739906561233
 20
-114.1239555921287
 30
0.0
 10
91.71739906561233
 20
-114.2996554618765
 30
0.0
 10
91.81248370100522
 20
-114.4626084783288
 30
0.0
 10
91.99645179991755
 20
-114.4626084783288
 30
0.0
 10
92.1170301419013
 20
-114.4626084783288
 30
0.0
 10
92.29273001164904
 20
-114.4033528359825
 30
0.0
 10
92.29273001164904
 20
-114.117582165481
 30
0.0
 10
92.29273001164904
 20
-113.8934787041655
 30
0.0
 10
92.15320364449643
 20
-113.7961547567072
 30
0.0
 10
92.01746688237758
 20
-113.7961547567072
 30
0.0
  0
HATCH
  5
A1
330
9B
100
AcDbEntity
  8
_U+30EC_U+30A4_U+30E4_U+30FC 1
 62
   179
420
  2234388
100
AcDbHatch
 10
0.0
 20
0.0
 30
0.0
210
0.0
220
0.0
230
1.0
  2
SOLID
 70
     1
 71
     0
 91
        2
 92
        1
 93
        1
 72
     4
 94
        3
 73
     0
 74
     1
 95
       32
 96
       28
 40
0.0
 40
0.0
 40
0.0
 40
0.0
 40
1.0
 40
1.0
 40
1.0
 40
2.0
 40
2.0
 40
2.0
 40
3.0
 40
3.0
 40
3.0
 40
4.0
 40
4.0
 40
4.0
 40
5.0
 40
5.0
 40
5.0
 40
6.0
 40
6.0
 40
6.0
 40
7.0
 40
7.0
 40
7.0
 40
8.0
 40
8.0
 40
8.0
 40
9.0
 40
9.0
 40
9.0
 40
9.0
 10
92.00058591449985
 20
-114.6548448064057
 10
91.48451061080944
 20
-114.6548448064057
 10
91.47589787209631
 20
-114.1007011976033
 10
91.47589787209631
 20
-113.8871052775178
 10
91.47589787209631
 20
-113.6564561347803
 10
91.4951904068137
 20
-113.0091226931019
 10
92.03882647438613
 20
-113.0091226931019
 10
92.2121147772942
 20
-113.0091226931019
 10
92.4577500853925
 20
-113.0788858766782
 10
92.49564613573025
 20
-113.4109930814563
 10
92.49564613573025
 20
-113.4109930814563
 10
92.28205021564477
 20
-113.4109930814563
 10
92.28205021564477
 20
-113.4109930814563
 10
92.27137041964049
 20
-113.3539767511754
 10
92.2396755411762
 20
-113.2058376453097
 10
92.03675941709498
 20
-113.2058376453097
 10
91.7446153199458
 20
-113.2058376453097
 10
91.7046522123169
 20
-113.5338107355054
 10
91.69190535902148
 20
-113.7389661716521
 10
91.78492293712321
 20
-113.6607625041369
 10
91.85279131818264
 20
-113.6015068617906
 10
92.03469235980383
 20
-113.6015068617906
 10
92.21452634413387
 20
-113.6015068617906
 10
92.5170057277388
 20
-113.7093383504789
 10
92.5170057277388
 20
-114.1155151081899
 10
92.5170057277388
 20
-114.4350477144468
 10
92.31787920869137
 20
-114.6548448064057
 10
92.00058591449985
 20
-114.6548448064057
 97
        0
 97
        0
 92
        1
 93
        1
 72
     4
 94
        3
 73
     0
 74
     1
 95
       17
 96
       13
 40
0.0
 40
0.0
 40
0.0
 40
0.0
 40
1.0
 40
1.0
 40
1.0
 40
2.0
 40
2.0
 40
2.0
 40
3.0
 40
3.0
 40
3.0
 40
4.0
 40
4.0
 40
4.0
 40
4.0
 10
92.01746688237758
 20
-113.7961547567072
 10
91.75529511595006
 20
-113.7961547567072
 10
91.71739906561233
 20
-114.0076836195016
 10
91.71739906561233
 20
-114.1239555921287
 10
91.71739906561233
 20
-114.2996554618765
 10
91.81248370100522
 20
-114.4626084783288
 10
91.99645179991755
 20
-114.4626084783288
 10
92.1170301419013
 20
-114.4626084783288
 10
92.29273001164904
 20
-114.4033528359825
 10
92.29273001164904
 20
-114.117582165481
 10
92.29273001164904
 20
-113.8934787041655
 10
92.15320364449643
 20
-113.7961547567072
 10
92.01746688237758
 20
-113.7961547567072
 97
        0
 97
        0
 75
     2
 76
     1
 98
        0
  0
POLYLINE
  5
A2
330
9B
100
AcDbEntity
  8
_U+30EC_U+30A4_U+30E4_U+30FC 1
370
     0
100
AcDb2dPolyline
 66
     1
 10
0.0
 20
0.0
 30
0.0
  0
VERTEX
  5
A3
330
A2
100
AcDbEntity
  8
_U+30EC_U+30A4_U+30E4_U+30FC 1
370
     0
100
AcDbVertex
100
AcDb2dVertex
 10
92.7333577242125
 20
-114.6042019027726
 30
0.0
  0
VERTEX
  5
A4
330
A2
100
AcDbEntity
  8
_U+30EC_U+30A4_U+30E4_U+30FC 1
370
     0
100
AcDbVertex
100
AcDb2dVertex
 10
92.7333577242125
 20
-114.3523654228008
 30
0.0
  0
VERTEX
  5
A5
330
A2
100
AcDbEntity
  8
_U+30EC_U+30A4_U+30E4_U+30FC 1
370
     0
100
AcDbVertex
100
AcDb2dVertex
 10
92.98519420418427
 20
-114.3523654228008
 30
0.0
  0
VERTEX
  5
A6
330
A2
100
AcDbEntity
  8
_U+30EC_U+30A4_U+30E4_U+30FC 1
370
     0
100
AcDbVertex
100
AcDb2dVertex
 10
92.98519420418427
 20
-114.6042019027726
 30
0.0
  0
VERTEX
  5
A7
330
A2
100
AcDbEntity
  8
_U+30EC_U+30A4_U+30E4_U+30FC 1
370
     0
100
AcDbVertex
100
AcDb2dVertex
 10
92.7333577242125
 20
-114.6042019027726
 30
0.0
  0
SEQEND
  5
A8
330
A2
100
AcDbEntity
  8
_U+30EC_U+30A4_U+30E4_U+30FC 1
370
     0
  0
HATCH
  5
A9
330
9B
100
AcDbEntity
  8
_U+30EC_U+30A4_U+30E4_U+30FC 1
 62
   179
420
  2234388
100
AcDbHatch
 10
0.0
 20
0.0
 30
0.0
210
0.0
220
0.0
230
1.0
  2
SOLID
 70
     1
 71
     0
 91
        1
 92
        1
 93
        4
 72
     1
 10
92.7333577242125
 20
-114.6042019027726
 11
92.7333577242125
 21
-114.3523654228008
 72
     1
 10
92.7333577242125
 20
-114.3523654228008
 11
92.98519420418427
 21
-114.3523654228008
 72
     1
 10
92.98519420418427
 20
-114.3523654228008
 11
92.98519420418427
 21
-114.6042019027726
 72
     1
 10
92.98519420418427
 20
-114.6042019027726
 11
92.7333577242125
 21
-114.6042019027726
 97
        0
 75
     2
 76
     1
 98
        0
  0
SPLINE
  5
AA
330
9B
100
AcDbEntity
  8
_U+30EC_U+30A4_U+30E4_U+30FC 1
370
     0
100
AcDbSpline
210
0.0
220
0.0
230
1.0
 70
    11
 71
     3
 72
    26
 73
    22
 74
     0
 42
0.0000000001
 43
0.0000000001
 12
1.0
 22
0.0
 32
0.0
 13
1.0
 23
0.0
 33
0.0
 40
0.0
 40
0.0
 40
0.0
 40
0.0
 40
1.0
 40
1.0
 40
1.0
 40
2.0
 40
2.0
 40
2.0
 40
3.0
 40
3.0
 40
3.0
 40
4.0
 40
4.0
 40
4.0
 40
5.0
 40
5.0
 40
5.0
 40
6.0
 40
6.0
 40
6.0
 40
7.0
 40
7.0
 40
7.0
 40
7.0
 10
93.63252764586271
 20
-114.6042019027726
 30
0.0
 10
93.63252764586271
 20
-114.6042019027726
 30
0.0
 10
93.39550507647752
 20
-114.6042019027726
 30
0.0
 10
93.39550507647752
 20
-114.6042019027726
 30
0.0
 10
93.42099878306837
 20
-114.2953490925199
 30
0.0
 10
93.61357962069383
 20
-113.7770344767641
 30
0.0
 10
94.0197563784048
 20
-113.2714667143037
 30
0.0
 10
94.0197563784048
 20
-113.2714667143037
 30
0.0
 10
93.18190915639202
 20
-113.2714667143037
 30
0.0
 10
93.18190915639202
 20
-113.2714667143037
 30
0.0
 10
93.18190915639202
 20
-113.2714667143037
 30
0.0
 10
93.18190915639202
 20
-113.0599378515093
 30
0.0
 10
93.18190915639202
 20
-113.0599378515093
 30
0.0
 10
93.18190915639202
 20
-113.0599378515093
 30
0.0
 10
94.25677894778998
 20
-113.0599378515093
 30
0.0
 10
94.25677894778998
 20
-113.0599378515093
 30
0.0
 10
94.25677894778998
 20
-113.0599378515093
 30
0.0
 10
94.25677894778998
 20
-113.2714667143037
 30
0.0
 10
94.25677894778998
 20
-113.2714667143037
 30
0.0
 10
93.9329399721765
 20
-113.5611992446132
 30
0.0
 10
93.66628958161816
 20
-114.1535834133019
 30
0.0
 10
93.63252764586271
 20
-114.6042019027726
 30
0.0
  0
HATCH
  5
AB
330
9B
100
AcDbEntity
  8
_U+30EC_U+30A4_U+30E4_U+30FC 1
 62
   179
420
  2234388
100
AcDbHatch
 10
0.0
 20
0.0
 30
0.0
210
0.0
220
0.0
230
1.0
  2
SOLID
 70
     1
 71
     0
 91
        1
 92
        1
 93
        1
 72
     4
 94
        3
 73
     0
 74
     1
 95
       26
 96
       22
 40
0.0
 40
0.0
 40
0.0
 40
0.0
 40
1.0
 40
1.0
 40
1.0
 40
2.0
 40
2.0
 40
2.0
 40
3.0
 40
3.0
 40
3.0
 40
4.0
 40
4.0
 40
4.0
 40
5.0
 40
5.0
 40
5.0
 40
6.0
 40
6.0
 40
6.0
 40
7.0
 40
7.0
 40
7.0
 40
7.0
 10
93.63252764586271
 20
-114.6042019027726
 10
93.63252764586271
 20
-114.6042019027726
 10
93.39550507647752
 20
-114.6042019027726
 10
93.39550507647752
 20
-114.6042019027726
 10
93.42099878306837
 20
-114.2953490925199
 10
93.61357962069383
 20
-113.7770344767641
 10
94.0197563784048
 20
-113.2714667143037
 10
94.0197563784048
 20
-113.2714667143037
 10
93.18190915639202
 20
-113.2714667143037
 10
93.18190915639202
 20
-113.2714667143037
 10
93.18190915639202
 20
-113.2714667143037
 10
93.18190915639202
 20
-113.0599378515093
 10
93.18190915639202
 20
-113.0599378515093
 10
93.18190915639202
 20
-113.0599378515093
 10
94.25677894778998
 20
-113.0599378515093
 10
94.25677894778998
 20
-113.0599378515093
 10
94.25677894778998
 20
-113.0599378515093
 10
94.25677894778998
 20
-113.2714667143037
 10
94.25677894778998
 20
-113.2714667143037
 10
93.9329399721765
 20
-113.5611992446132
 10
93.66628958161816
 20
-114.1535834133019
 10
93.63252764586271
 20
-114.6042019027726
 97
        0
 97
        0
 75
     2
 76
     1
 98
        0
  0
ENDBLK
  5
9E
330
9B
100
AcDbEntity
  8
0
100
AcDbBlockEnd
  0
BLOCK
  5
BC
330
BA
100
AcDbEntity
  8
0
100
AcDbBlockBegin
  2
block 7
 70
     0
 10
0.0
 20
0.0
 30
0.0
  3
block 7
  1

  0
SPLINE
  5
BE
330
BA
100
AcDbEntity
  8
_U+30EC_U+30A4_U+30E4_U+30FC 1
370
     0
100
AcDbSpline
210
0.0
220
0.0
230
1.0
 70
    11
 71
     3
 72
    26
 73
    22
 74
     0
 42
0.0000000001
 43
0.0000000001
 12
1.0
 22
0.0
 32
0.0
 13
1.0
 23
0.0
 33
0.0
 40
0.0
 40
0.0
 40
0.0
 40
0.0
 40
1.0
 40
1.0
 40
1.0
 40
2.0
 40
2.0
 40
2.0
 40
3.0
 40
3.0
 40
3.0
 40
4.0
 40
4.0
 40
4.0
 40
5.0
 40
5.0
 40
5.0
 40
6.0
 40
6.0
 40
6.0
 40
7.0
 40
7.0
 40
7.0
 40
7.0
 10
91.84693465585771
 20
-142.6038709495921
 30
0.0
 10
91.84693465585771
 20
-142.6038709495921
 30
0.0
 10
91.84693465585771
 20
-141.4997178465695
 30
0.0
 10
91.84693465585771
 20
-141.4997178465695
 30
0.0
 10
91.84693465585771
 20
-141.4997178465695
 30
0.0
 10
91.51689450837078
 20
-141.4997178465695
 30
0.0
 10
91.51689450837078
 20
-141.4997178465695
 30
0.0
 10
91.51689450837078
 20
-141.4997178465695
 30
0.0
 10
91.51689450837078
 20
-141.3515787407038
 30
0.0
 10
91.51689450837078
 20
-141.3515787407038
 30
0.0
 10
91.84900171314887
 20
-141.3367648301172
 30
0.0
 10
91.89551050219974
 20
-141.1738118136649
 30
0.0
 10
91.92513832337289
 20
-141.0594346435546
 30
0.0
 10
91.92513832337289
 20
-141.0594346435546
 30
0.0
 10
92.07121037194747
 20
-141.0594346435546
 30
0.0
 10
92.07121037194747
 20
-141.0594346435546
 30
0.0
 10
92.07121037194747
 20
-141.0594346435546
 30
0.0
 10
92.07121037194747
 20
-142.6038709495921
 30
0.0
 10
92.07121037194747
 20
-142.6038709495921
 30
0.0
 10
92.07121037194747
 20
-142.6038709495921
 30
0.0
 10
91.84693465585771
 20
-142.6038709495921
 30
0.0
 10
91.84693465585771
 20
-142.6038709495921
 30
0.0
  0
HATCH
  5
BF
330
BA
100
AcDbEntity
  8
_U+30EC_U+30A4_U+30E4_U+30FC 1
 62
   179
420
  2234388
100
AcDbHatch
 10
0.0
 20
0.0
 30
0.0
210
0.0
220
0.0
230
1.0
  2
SOLID
 70
     1
 71
     0
 91
        1
 92
        1
 93
        1
 72
     4
 94
        3
 73
     0
 74
     1
 95
       26
 96
       22
 40
0.0
 40
0.0
 40
0.0
 40
0.0
 40
1.0
 40
1.0
 40
1.0
 40
2.0
 40
2.0
 40
2.0
 40
3.0
 40
3.0
 40
3.0
 40
4.0
 40
4.0
 40
4.0
 40
5.0
 40
5.0
 40
5.0
 40
6.0
 40
6.0
 40
6.0
 40
7.0
 40
7.0
 40
7.0
 40
7.0
 10
91.84693465585771
 20
-142.6038709495921
 10
91.84693465585771
 20
-142.6038709495921
 10
91.84693465585771
 20
-141.4997178465695
 10
91.84693465585771
 20
-141.4997178465695
 10
91.84693465585771
 20
-141.4997178465695
 10
91.51689450837078
 20
-141.4997178465695
 10
91.51689450837078
 20
-141.4997178465695
 10
91.51689450837078
 20
-141.4997178465695
 10
91.51689450837078
 20
-141.3515787407038
 10
91.51689450837078
 20
-141.3515787407038
 10
91.84900171314887
 20
-141.3367648301172
 10
91.89551050219974
 20
-141.1738118136649
 10
91.92513832337289
 20
-141.0594346435546
 10
91.92513832337289
 20
-141.0594346435546
 10
92.07121037194747
 20
-141.0594346435546
 10
92.07121037194747
 20
-141.0594346435546
 10
92.07121037194747
 20
-141.0594346435546
 10
92.07121037194747
 20
-142.6038709495921
 10
92.07121037194747
 20
-142.6038709495921
 10
92.07121037194747
 20
-142.6038709495921
 10
91.84693465585771
 20
-142.6038709495921
 10
91.84693465585771
 20
-142.6038709495921
 97
        0
 97
        0
 75
     2
 76
     1
 98
        0
  0
ENDBLK
  5
BD
330
BA
100
AcDbEntity
  8
0
100
AcDbBlockEnd
  0
BLOCK
  5
D0
330
CE
100
AcDbEntity
  8
0
100
AcDbBlockBegin
  2
block 8
 70
     0
 10
0.0
 20
0.0
 30
0.0
  3
block 8
  1

  0
SPLINE
  5
D2
330
CE
100
AcDbEntity
  8
_U+30EC_U+30A4_U+30E4_U+30FC 1
370
     0
100
AcDbSpline
210
0.0
220
0.0
230
1.0
 70
    11
 71
     3
 72
    62
 73
    58
 74
     0
 42
0.0000000001
 43
0.0000000001
 12
1.0
 22
0.0
 32
0.0
 13
1.0
 23
0.0
 33
0.0
 40
0.0
 40
0.0
 40
0.0
 40
0.0
 40
1.0
 40
1.0
 40
1.0
 40
2.0
 40
2.0
 40
2.0
 40
3.0
 40
3.0
 40
3.0
 40
4.0
 40
4.0
 40
4.0
 40
5.0
 40
5.0
 40
5.0
 40
6.0
 40
6.0
 40
6.0
 40
7.0
 40
7.0
 40
7.0
 40
8.0
 40
8.0
 40
8.0
 40
9.0
 40
9.0
 40
9.0
 40
10.0
 40
10.0
 40
10.0
 40
11.0
 40
11.0
 40
11.0
 40
12.0
 40
12.0
 40
12.0
 40
13.0
 40
13.0
 40
13.0
 40
14.0
 40
14.0
 40
14.0
 40
15.0
 40
15.0
 40
15.0
 40
16.0
 40
16.0
 40
16.0
 40
17.0
 40
17.0
 40
17.0
 40
18.0
 40
18.0
 40
18.0
 40
19.0
 40
19.0
 40
19.0
 40
19.0
 10
95.28686249787968
 20
-138.1545301303919
 30
0.0
 10
95.19143335293826
 20
-138.1545301303919
 30
0.0
 10
94.97370331827047
 20
-138.1335150479319
 30
0.0
 10
94.8486463521559
 20
-137.9474798917284
 30
0.0
 10
94.77492130877155
 20
-137.8351697789093
 30
0.0
 10
94.77044268464073
 20
-137.7359510289341
 30
0.0
 10
94.76630857005843
 20
-137.6512016799969
 30
0.0
 10
94.76630857005843
 20
-137.6512016799969
 30
0.0
 10
94.98645017156589
 20
-137.6512016799969
 30
0.0
 10
94.98645017156589
 20
-137.6512016799969
 30
0.0
 10
94.98851722885705
 20
-137.7252712329298
 30
0.0
 10
94.99885251531279
 20
-137.9598822354753
 30
0.0
 10
95.28238387374886
 20
-137.9598822354753
 30
0.0
 10
95.41984318361033
 20
-137.9598822354753
 30
0.0
 10
95.57246091360689
 20
-137.8902913066733
 30
0.0
 10
95.57246091360689
 20
-137.6618814760012
 30
0.0
 10
95.57246091360689
 20
-137.5454372485998
 30
0.0
 10
95.53422035372061
 20
-137.4968614022577
 30
0.0
 10
95.50252547525632
 20
-137.4651665237934
 30
0.0
 10
95.42845592232345
 20
-137.3910969708606
 30
0.0
 10
95.312011694922
 20
-137.3783501175651
 30
0.0
 10
95.25723467670653
 20
-137.3783501175651
 30
0.0
 10
95.23794214198912
 20
-137.3783501175651
 30
0.0
 10
95.20211314894253
 20
-137.3804171748563
 30
0.0
 10
95.17455238506054
 20
-137.3845512894386
 30
0.0
 10
95.17455238506054
 20
-137.3845512894386
 30
0.0
 10
95.17455238506054
 20
-137.189903394522
 30
0.0
 10
95.17455238506054
 20
-137.189903394522
 30
0.0
 10
95.21279294494681
 20
-137.1964490759439
 30
0.0
 10
95.25482310986685
 20
-137.1985161332351
 30
0.0
 10
95.26136879128883
 20
-137.1985161332351
 30
0.0
 10
95.32682560550857
 20
-137.1985161332351
 30
0.0
 10
95.52560761500749
 20
-137.1771565412265
 30
0.0
 10
95.52560761500749
 20
-136.9404784813899
 30
0.0
 10
95.52560761500749
 20
-136.762711554351
 30
0.0
 10
95.394693986568
 20
-136.707590026587
 30
0.0
 10
95.28445093104
 20
-136.707590026587
 30
0.0
 10
95.02021210732134
 20
-136.707590026587
 30
0.0
 10
95.01159936860822
 20
-136.9404784813899
 30
0.0
 10
95.00746525402592
 20
-137.0121364674831
 30
0.0
 10
95.00746525402592
 20
-137.0121364674831
 30
0.0
 10
94.80420462039618
 20
-137.0121364674831
 30
0.0
 10
94.80420462039618
 20
-137.0121364674831
 30
0.0
 10
94.8128173591093
 20
-136.887424010917
 30
0.0
 10
94.8403781229913
 20
-136.5108750743792
 30
0.0
 10
95.29719778433542
 20
-136.5108750743792
 30
0.0
 10
95.52147350042519
 20
-136.5108750743792
 30
0.0
 10
95.76263018439268
 20
-136.637999097785
 30
0.0
 10
95.76263018439268
 20
-136.9339327999679
 30
0.0
 10
95.76263018439268
 20
-137.1203124657199
 30
0.0
 10
95.66754554899978
 20
-137.2026502478174
 30
0.0
 10
95.56798228947606
 20
-137.2639729474548
 30
0.0
 10
95.6293049891135
 20
-137.2915337113369
 30
0.0
 10
95.81120603073471
 20
-137.3718044361432
 30
0.0
 10
95.81120603073471
 20
-137.6491346227058
 30
0.0
 10
95.81120603073471
 20
-137.9874429993573
 30
0.0
 10
95.56384817489376
 20
-138.1545301303919
 30
0.0
 10
95.28686249787968
 20
-138.1545301303919
 30
0.0
  0
HATCH
  5
D3
330
CE
100
AcDbEntity
  8
_U+30EC_U+30A4_U+30E4_U+30FC 1
 62
   179
420
  2234388
100
AcDbHatch
 10
0.0
 20
0.0
 30
0.0
210
0.0
220
0.0
230
1.0
  2
SOLID
 70
     1
 71
     0
 91
        1
 92
        1
 93
        1
 72
     4
 94
        3
 73
     0
 74
     1
 95
       62
 96
       58
 40
0.0
 40
0.0
 40
0.0
 40
0.0
 40
1.0
 40
1.0
 40
1.0
 40
2.0
 40
2.0
 40
2.0
 40
3.0
 40
3.0
 40
3.0
 40
4.0
 40
4.0
 40
4.0
 40
5.0
 40
5.0
 40
5.0
 40
6.0
 40
6.0
 40
6.0
 40
7.0
 40
7.0
 40
7.0
 40
8.0
 40
8.0
 40
8.0
 40
9.0
 40
9.0
 40
9.0
 40
10.0
 40
10.0
 40
10.0
 40
11.0
 40
11.0
 40
11.0
 40
12.0
 40
12.0
 40
12.0
 40
13.0
 40
13.0
 40
13.0
 40
14.0
 40
14.0
 40
14.0
 40
15.0
 40
15.0
 40
15.0
 40
16.0
 40
16.0
 40
16.0
 40
17.0
 40
17.0
 40
17.0
 40
18.0
 40
18.0
 40
18.0
 40
19.0
 40
19.0
 40
19.0
 40
19.0
 10
95.28686249787968
 20
-138.1545301303919
 10
95.19143335293826
 20
-138.1545301303919
 10
94.97370331827047
 20
-138.1335150479319
 10
94.8486463521559
 20
-137.9474798917284
 10
94.77492130877155
 20
-137.8351697789093
 10
94.77044268464073
 20
-137.7359510289341
 10
94.76630857005843
 20
-137.6512016799969
 10
94.76630857005843
 20
-137.6512016799969
 10
94.98645017156589
 20
-137.6512016799969
 10
94.98645017156589
 20
-137.6512016799969
 10
94.98851722885705
 20
-137.7252712329298
 10
94.99885251531279
 20
-137.9598822354753
 10
95.28238387374886
 20
-137.9598822354753
 10
95.41984318361033
 20
-137.9598822354753
 10
95.57246091360689
 20
-137.8902913066733
 10
95.57246091360689
 20
-137.6618814760012
 10
95.57246091360689
 20
-137.5454372485998
 10
95.53422035372061
 20
-137.4968614022577
 10
95.50252547525632
 20
-137.4651665237934
 10
95.42845592232345
 20
-137.3910969708606
 10
95.312011694922
 20
-137.3783501175651
 10
95.25723467670653
 20
-137.3783501175651
 10
95.23794214198912
 20
-137.3783501175651
 10
95.20211314894253
 20
-137.3804171748563
 10
95.17455238506054
 20
-137.3845512894386
 10
95.17455238506054
 20
-137.3845512894386
 10
95.17455238506054
 20
-137.189903394522
 10
95.17455238506054
 20
-137.189903394522
 10
95.21279294494681
 20
-137.1964490759439
 10
95.25482310986685
 20
-137.1985161332351
 10
95.26136879128883
 20
-137.1985161332351
 10
95.32682560550857
 20
-137.1985161332351
 10
95.52560761500749
 20
-137.1771565412265
 10
95.52560761500749
 20
-136.9404784813899
 10
95.52560761500749
 20
-136.762711554351
 10
95.394693986568
 20
-136.707590026587
 10
95.28445093104
 20
-136.707590026587
 10
95.02021210732134
 20
-136.707590026587
 10
95.01159936860822
 20
-136.9404784813899
 10
95.00746525402592
 20
-137.0121364674831
 10
95.00746525402592
 20
-137.0121364674831
 10
94.80420462039618
 20
-137.0121364674831
 10
94.80420462039618
 20
-137.0121364674831
 10
94.8128173591093
 20
-136.887424010917
 10
94.8403781229913
 20
-136.5108750743792
 10
95.29719778433542
 20
-136.5108750743792
 10
95.52147350042519
 20
-136.5108750743792
 10
95.76263018439268
 20
-136.637999097785
 10
95.76263018439268
 20
-136.9339327999679
 10
95.76263018439268
 20
-137.1203124657199
 10
95.66754554899978
 20
-137.2026502478174
 10
95.56798228947606
 20
-137.2639729474548
 10
95.6293049891135
 20
-137.2915337113369
 10
95.81120603073471
 20
-137.3718044361432
 10
95.81120603073471
 20
-137.6491346227058
 10
95.81120603073471
 20
-137.9874429993573
 10
95.56384817489376
 20
-138.1545301303919
 10
95.28686249787968
 20
-138.1545301303919
 97
        0
 97
        0
 75
     2
 76
     1
 98
        0
  0
POLYLINE
  5
D4
330
CE
100
AcDbEntity
  8
_U+30EC_U+30A4_U+30E4_U+30FC 1
370
     0
100
AcDb2dPolyline
 66
     1
 10
0.0
 20
0.0
 30
0.0
  0
VERTEX
  5
D5
330
D4
100
AcDbEntity
  8
_U+30EC_U+30A4_U+30E4_U+30FC 1
370
     0
100
AcDbVertex
100
AcDb2dVertex
 10
96.03203665133921
 20
-138.1038872267588
 30
0.0
  0
VERTEX
  5
D6
330
D4
100
AcDbEntity
  8
_U+30EC_U+30A4_U+30E4_U+30FC 1
370
     0
100
AcDbVertex
100
AcDb2dVertex
 10
96.03203665133921
 20
-137.852050746787
 30
0.0
  0
VERTEX
  5
D7
330
D4
100
AcDbEntity
  8
_U+30EC_U+30A4_U+30E4_U+30FC 1
370
     0
100
AcDbVertex
100
AcDb2dVertex
 10
96.28387313131098
 20
-137.852050746787
 30
0.0
  0
VERTEX
  5
D8
330
D4
100
AcDbEntity
  8
_U+30EC_U+30A4_U+30E4_U+30FC 1
370
     0
100
AcDbVertex
100
AcDb2dVertex
 10
96.28387313131098
 20
-138.1038872267588
 30
0.0
  0
VERTEX
  5
D9
330
D4
100
AcDbEntity
  8
_U+30EC_U+30A4_U+30E4_U+30FC 1
370
     0
100
AcDbVertex
100
AcDb2dVertex
 10
96.03203665133921
 20
-138.1038872267588
 30
0.0
  0
SEQEND
  5
DA
330
D4
100
AcDbEntity
  8
_U+30EC_U+30A4_U+30E4_U+30FC 1
370
     0
  0
HATCH
  5
DB
330
CE
100
AcDbEntity
  8
_U+30EC_U+30A4_U+30E4_U+30FC 1
 62
   179
420
  2234388
100
AcDbHatch
 10
0.0
 20
0.0
 30
0.0
210
0.0
220
0.0
230
1.0
  2
SOLID
 70
     1
 71
     0
 91
        1
 92
        1
 93
        4
 72
     1
 10
96.03203665133921
 20
-138.1038872267588
 11
96.03203665133921
 21
-137.852050746787
 72
     1
 10
96.03203665133921
 20
-137.852050746787
 11
96.28387313131098
 21
-137.852050746787
 72
     1
 10
96.28387313131098
 20
-137.852050746787
 11
96.28387313131098
 21
-138.1038872267588
 72
     1
 10
96.28387313131098
 20
-138.1038872267588
 11
96.03203665133921
 21
-138.1038872267588
 97
        0
 75
     2
 76
     1
 98
        0
  0
SPLINE
  5
DC
330
CE
100
AcDbEntity
  8
_U+30EC_U+30A4_U+30E4_U+30FC 1
370
     0
100
AcDbSpline
210
0.0
220
0.0
230
1.0
 70
    11
 71
     3
 72
    53
 73
    49
 74
     0
 42
0.0000000001
 43
0.0000000001
 12
1.0
 22
0.0
 32
0.0
 13
1.0
 23
0.0
 33
0.0
 40
0.0
 40
0.0
 40
0.0
 40
0.0
 40
1.0
 40
1.0
 40
1.0
 40
2.0
 40
2.0
 40
2.0
 40
3.0
 40
3.0
 40
3.0
 40
4.0
 40
4.0
 40
4.0
 40
5.0
 40
5.0
 40
5.0
 40
6.0
 40
6.0
 40
6.0
 40
7.0
 40
7.0
 40
7.0
 40
8.0
 40
8.0
 40
8.0
 40
9.0
 40
9.0
 40
9.0
 40
10.0
 40
10.0
 40
10.0
 40
11.0
 40
11.0
 40
11.0
 40
12.0
 40
12.0
 40
12.0
 40
13.0
 40
13.0
 40
13.0
 40
14.0
 40
14.0
 40
14.0
 40
15.0
 40
15.0
 40
15.0
 40
16.0
 40
16.0
 40
16.0
 40
16.0
 10
97.00114201134
 20
-138.1545301303919
 30
0.0
 10
96.92293834382482
 20
-138.1545301303919
 30
0.0
 10
96.82130802700995
 20
-138.1376491625142
 30
0.0
 10
96.71967771019509
 20
-138.0742594055856
 30
0.0
 10
96.54638940728702
 20
-137.9643608596061
 30
0.0
 10
96.52502981527847
 20
-137.8331027216181
 30
0.0
 10
96.50608179010959
 20
-137.7252712329298
 30
0.0
 10
96.50608179010959
 20
-137.7252712329298
 30
0.0
 10
96.72829044890821
 20
-137.7252712329298
 30
0.0
 10
96.72829044890821
 20
-137.7252712329298
 30
0.0
 10
96.78306746712369
 20
-137.9240532424287
 30
0.0
 10
96.9101914905294
 20
-137.9536810636019
 30
0.0
 10
97.00320906863115
 20
-137.9536810636019
 30
0.0
 10
97.14273543578376
 20
-137.9536810636019
 30
0.0
 10
97.29500865623181
 20
-137.8541178040782
 30
0.0
 10
97.29500865623181
 20
-137.6215738588238
 30
0.0
 10
97.29500865623181
 20
-137.3656032642697
 30
0.0
 10
97.11517467190177
 20
-137.2956678259191
 30
0.0
 10
96.99459632991802
 20
-137.2956678259191
 30
0.0
 10
96.96290145145372
 20
-137.2956678259191
 30
0.0
 10
96.82130802700995
 20
-137.2956678259191
 30
0.0
 10
96.73242456349051
 20
-137.424858906616
 30
0.0
 10
96.73242456349051
 20
-137.424858906616
 30
0.0
 10
96.55672469374277
 20
-137.4059108814471
 30
0.0
 10
96.55672469374277
 20
-137.4059108814471
 30
0.0
 10
96.55672469374277
 20
-137.4059108814471
 30
0.0
 10
96.67730303572651
 20
-136.5594509207212
 30
0.0
 10
96.67730303572651
 20
-136.5594509207212
 30
0.0
 10
96.67730303572651
 20
-136.5594509207212
 30
0.0
 10
97.45589461539298
 20
-136.5594509207212
 30
0.0
 10
97.45589461539298
 20
-136.5594509207212
 30
0.0
 10
97.45589461539298
 20
-136.5594509207212
 30
0.0
 10
97.45589461539298
 20
-136.7540988156379
 30
0.0
 10
97.45589461539298
 20
-136.7540988156379
 30
0.0
 10
97.45589461539298
 20
-136.7540988156379
 30
0.0
 10
96.84025605217883
 20
-136.7540988156379
 30
0.0
 10
96.84025605217883
 20
-136.7540988156379
 30
0.0
 10
96.84025605217883
 20
-136.7540988156379
 30
0.0
 10
96.77479923795909
 20
-137.1771565412265
 30
0.0
 10
96.77479923795909
 20
-137.1771565412265
 30
0.0
 10
96.83612193759653
 20
-137.1433946054711
 30
0.0
 10
96.918459719694
 20
-137.1030869882937
 30
0.0
 10
97.0369710043866
 20
-137.1030869882937
 30
0.0
 10
97.29087454164952
 20
-137.1030869882937
 30
0.0
 10
97.52789711103469
 20
-137.2894666540457
 30
0.0
 10
97.52789711103469
 20
-137.6026258336549
 30
0.0
 10
97.52789711103469
 20
-137.9199191278464
 30
0.0
 10
97.30362139494493
 20
-138.1545301303919
 30
0.0
 10
97.00114201134
 20
-138.1545301303919
 30
0.0
  0
HATCH
  5
DD
330
CE
100
AcDbEntity
  8
_U+30EC_U+30A4_U+30E4_U+30FC 1
 62
   179
420
  2234388
100
AcDbHatch
 10
0.0
 20
0.0
 30
0.0
210
0.0
220
0.0
230
1.0
  2
SOLID
 70
     1
 71
     0
 91
        1
 92
        1
 93
        1
 72
     4
 94
        3
 73
     0
 74
     1
 95
       53
 96
       49
 40
0.0
 40
0.0
 40
0.0
 40
0.0
 40
1.0
 40
1.0
 40
1.0
 40
2.0
 40
2.0
 40
2.0
 40
3.0
 40
3.0
 40
3.0
 40
4.0
 40
4.0
 40
4.0
 40
5.0
 40
5.0
 40
5.0
 40
6.0
 40
6.0
 40
6.0
 40
7.0
 40
7.0
 40
7.0
 40
8.0
 40
8.0
 40
8.0
 40
9.0
 40
9.0
 40
9.0
 40
10.0
 40
10.0
 40
10.0
 40
11.0
 40
11.0
 40
11.0
 40
12.0
 40
12.0
 40
12.0
 40
13.0
 40
13.0
 40
13.0
 40
14.0
 40
14.0
 40
14.0
 40
15.0
 40
15.0
 40
15.0
 40
16.0
 40
16.0
 40
16.0
 40
16.0
 10
97.00114201134
 20
-138.1545301303919
 10
96.92293834382482
 20
-138.1545301303919
 10
96.82130802700995
 20
-138.1376491625142
 10
96.71967771019509
 20
-138.0742594055856
 10
96.54638940728702
 20
-137.9643608596061
 10
96.52502981527847
 20
-137.8331027216181
 10
96.50608179010959
 20
-137.7252712329298
 10
96.50608179010959
 20
-137.7252712329298
 10
96.72829044890821
 20
-137.7252712329298
 10
96.72829044890821
 20
-137.7252712329298
 10
96.78306746712369
 20
-137.9240532424287
 10
96.9101914905294
 20
-137.9536810636019
 10
97.00320906863115
 20
-137.9536810636019
 10
97.14273543578376
 20
-137.9536810636019
 10
97.29500865623181
 20
-137.8541178040782
 10
97.29500865623181
 20
-137.6215738588238
 10
97.29500865623181
 20
-137.3656032642697
 10
97.11517467190177
 20
-137.2956678259191
 10
96.99459632991802
 20
-137.2956678259191
 10
96.96290145145372
 20
-137.2956678259191
 10
96.82130802700995
 20
-137.2956678259191
 10
96.73242456349051
 20
-137.424858906616
 10
96.73242456349051
 20
-137.424858906616
 10
96.55672469374277
 20
-137.4059108814471
 10
96.55672469374277
 20
-137.4059108814471
 10
96.55672469374277
 20
-137.4059108814471
 10
96.67730303572651
 20
-136.5594509207212
 10
96.67730303572651
 20
-136.5594509207212
 10
96.67730303572651
 20
-136.5594509207212
 10
97.45589461539298
 20
-136.5594509207212
 10
97.45589461539298
 20
-136.5594509207212
 10
97.45589461539298
 20
-136.5594509207212
 10
97.45589461539298
 20
-136.7540988156379
 10
97.45589461539298
 20
-136.7540988156379
 10
97.45589461539298
 20
-136.7540988156379
 10
96.84025605217883
 20
-136.7540988156379
 10
96.84025605217883
 20
-136.7540988156379
 10
96.84025605217883
 20
-136.7540988156379
 10
96.77479923795909
 20
-137.1771565412265
 10
96.77479923795909
 20
-137.1771565412265
 10
96.83612193759653
 20
-137.1433946054711
 10
96.918459719694
 20
-137.1030869882937
 10
97.0369710043866
 20
-137.1030869882937
 10
97.29087454164952
 20
-137.1030869882937
 10
97.52789711103469
 20
-137.2894666540457
 10
97.52789711103469
 20
-137.6026258336549
 10
97.52789711103469
 20
-137.9199191278464
 10
97.30362139494493
 20
-138.1545301303919
 10
97.00114201134
 20
-138.1545301303919
 97
        0
 97
        0
 75
     2
 76
     1
 98
        0
  0
ENDBLK
  5
D1
330
CE
100
AcDbEntity
  8
0
100
AcDbBlockEnd
  0
ENDSEC
  0
SECTION
  2
ENTITIES
  0
SPLINE
  5
41
330
1F
100
AcDbEntity
  8
_U+30EC_U+30A4_U+30E4_U+30FC 1
 62
   179
420
  2234388
370
    25
100
AcDbSpline
210
0.0
220
0.0
230
1.0
 70
    11
 71
     3
 72
   170
 73
   166
 74
     0
 42
0.0000000001
 43
0.0000000001
 12
1.0
 22
0.0
 32
0.0
 13
1.0
 23
0.0
 33
0.0
 40
0.0
 40
0.0
 40
0.0
 40
0.0
 40
1.0
 40
1.0
 40
1.0
 40
2.0
 40
2.0
 40
2.0
 40
3.0
 40
3.0
 40
3.0
 40
4.0
 40
4.0
 40
4.0
 40
5.0
 40
5.0
 40
5.0
 40
6.0
 40
6.0
 40
6.0
 40
7.0
 40
7.0
 40
7.0
 40
8.0
 40
8.0
 40
8.0
 40
9.0
 40
9.0
 40
9.0
 40
10.0
 40
10.0
 40
10.0
 40
11.0
 40
11.0
 40
11.0
 40
12.0
 40
12.0
 40
12.0
 40
13.0
 40
13.0
 40
13.0
 40
14.0
 40
14.0
 40
14.0
 40
15.0
 40
15.0
 40
15.0
 40
16.0
 40
16.0
 40
16.0
 40
17.0
 40
17.0
 40
17.0
 40
18.0
 40
18.0
 40
18.0
 40
19.0
 40
19.0
 40
19.0
 40
20.0
 40
20.0
 40
20.0
 40
21.0
 40
21.0
 40
21.0
 40
22.0
 40
22.0
 40
22.0
 40
23.0
 40
23.0
 40
23.0
 40
24.0
 40
24.0
 40
24.0
 40
25.0
 40
25.0
 40
25.0
 40
26.0
 40
26.0
 40
26.0
 40
27.0
 40
27.0
 40
27.0
 40
28.0
 40
28.0
 40
28.0
 40
29.0
 40
29.0
 40
29.0
 40
30.0
 40
30.0
 40
30.0
 40
31.0
 40
31.0
 40
31.0
 40
32.0
 40
32.0
 40
32.0
 40
33.0
 40
33.0
 40
33.0
 40
34.0
 40
34.0
 40
34.0
 40
35.0
 40
35.0
 40
35.0
 40
36.0
 40
36.0
 40
36.0
 40
37.0
 40
37.0
 40
37.0
 40
38.0
 40
38.0
 40
38.0
 40
39.0
 40
39.0
 40
39.0
 40
40.0
 40
40.0
 40
40.0
 40
41.0
 40
41.0
 40
41.0
 40
42.0
 40
42.0
 40
42.0
 40
43.0
 40
43.0
 40
43.0
 40
44.0
 40
44.0
 40
44.0
 40
45.0
 40
45.0
 40
45.0
 40
46.0
 40
46.0
 40
46.0
 40
47.0
 40
47.0
 40
47.0
 40
48.0
 40
48.0
 40
48.0
 40
49.0
 40
49.0
 40
49.0
 40
50.0
 40
50.0
 40
50.0
 40
51.0
 40
51.0
 40
51.0
 40
52.0
 40
52.0
 40
52.0
 40
53.0
 40
53.0
 40
53.0
 40
54.0
 40
54.0
 40
54.0
 40
55.0
 40
55.0
 40
55.0
 40
55.0
 10
89.45689271776453
 20
-119.1999421924224
 30
0.0
 10
89.45689271776453
 20
-119.1999421924224
 30
0.0
 10
90.45666491448044
 20
-119.1999421924224
 30
0.0
 10
90.45666491448044
 20
-119.1999421924224
 30
0.0
 10
93.49436372587118
 20
-119.1999421924224
 30
0.0
 10
95.95692894082369
 20
-121.8860980250839
 30
0.0
 10
95.95692894082369
 20
-125.1999513575889
 30
0.0
 10
95.95692894082369
 20
-127.9625541346761
 30
0.0
 10
94.47141942082648
 20
-129.1993577454777
 30
0.0
 10
94.15652759786686
 20
-129.1993577454777
 30
0.0
 10
94.04628454512384
 20
-129.1993577454777
 30
0.0
 10
93.95671664317776
 20
-129.1097874677224
 30
0.0
 10
93.95671664317776
 20
-128.9995444121944
 30
0.0
 10
93.95671664317776
 20
-128.9995444121944
 30
0.0
 10
93.95671664317776
 20
-127.7000521902973
 30
0.0
 10
93.95671664317776
 20
-127.7000521902973
 30
0.0
 10
94.23300981813786
 20
-127.7000521902973
 30
0.0
 10
94.45695553194146
 20
-127.4761088570197
 30
0.0
 10
94.45695553194146
 20
-127.1998133015333
 30
0.0
 10
94.45695553194146
 20
-127.1998133015333
 30
0.0
 10
94.45695553194146
 20
-124.1998263578389
 30
0.0
 10
94.45695553194146
 20
-124.1998263578389
 30
0.0
 10
94.45695553194146
 20
-124.1998263578389
 30
0.0
 10
93.95671664317776
 20
-124.1998263578389
 30
0.0
 10
93.95671664317776
 20
-124.1998263578389
 30
0.0
 10
93.95671664317776
 20
-124.1998263578389
 30
0.0
 10
93.95671664317776
 20
-123.656548580197
 30
0.0
 10
93.95671664317776
 20
-123.656548580197
 30
0.0
 10
93.95671664317776
 20
-123.656548580197
 30
0.0
 10
92.38988708738205
 20
-121.1994866363668
 30
0.0
 10
92.38988708738205
 20
-121.1994866363668
 30
0.0
 10
92.30306847848587
 20
-121.0499794141818
 30
0.0
 10
92.14184903815448
 20
-120.9497199697624
 30
0.0
 10
91.9564995984387
 20
-120.9497199697624
 30
0.0
 10
91.6808743276927
 20
-120.9497199697624
 30
0.0
 10
91.45693331046895
 20
-121.17366330304
 30
0.0
 10
91.45693331046895
 20
-121.4496060807487
 30
0.0
 10
91.45693331046895
 20
-121.4496060807487
 30
0.0
 10
91.45693331046895
 20
-123.6995874690752
 30
0.0
 10
91.45693331046895
 20
-123.6995874690752
 30
0.0
 10
91.45693331046895
 20
-123.9758830245617
 30
0.0
 10
91.23284656134507
 20
-124.1998263578389
 30
0.0
 10
90.95655101283839
 20
-124.1998263578389
 30
0.0
 10
90.95655101283839
 20
-124.1998263578389
 30
0.0
 10
90.45666491448044
 20
-124.1998263578389
 30
0.0
 10
90.45666491448044
 20
-124.1998263578389
 30
0.0
 10
90.45666491448044
 20
-124.1998263578389
 30
0.0
 10
90.45666491448044
 20
-138.7002277431025
 30
0.0
 10
90.45666491448044
 20
-138.7002277431025
 30
0.0
 10
90.45666491448044
 20
-138.7002277431025
 30
0.0
 10
89.45689271776453
 20
-139.2004666318668
 30
0.0
 10
89.45689271776453
 20
-139.2004666318668
 30
0.0
 10
89.45689271776453
 20
-139.2004666318668
 30
0.0
 10
89.45689271776453
 20
-138.1999888543388
 30
0.0
 10
89.45689271776453
 20
-138.1999888543388
 30
0.0
 10
89.45689271776453
 20
-138.1999888543388
 30
0.0
 10
89.65670831091931
 20
-137.7004555211306
 30
0.0
 10
89.65670831091931
 20
-137.7004555211306
 30
0.0
 10
89.65670831091931
 20
-137.7004555211306
 30
0.0
 10
89.45689271776453
 20
-137.2002519101444
 30
0.0
 10
89.45689271776453
 20
-137.2002519101444
 30
0.0
 10
89.45689271776453
 20
-137.2002519101444
 30
0.0
 10
89.65670831091931
 20
-136.700683299158
 30
0.0
 10
89.65670831091931
 20
-136.700683299158
 30
0.0
 10
89.65670831091931
 20
-136.700683299158
 30
0.0
 10
89.45689271776453
 20
-136.2004796881718
 30
0.0
 10
89.45689271776453
 20
-136.2004796881718
 30
0.0
 10
89.45689271776453
 20
-136.2004796881718
 30
0.0
 10
89.65670831091931
 20
-135.7009463549636
 30
0.0
 10
89.65670831091931
 20
-135.7009463549636
 30
0.0
 10
89.65670831091931
 20
-135.7009463549636
 30
0.0
 10
89.45689271776453
 20
-135.2007074661999
 30
0.0
 10
89.45689271776453
 20
-135.2007074661999
 30
0.0
 10
89.45689271776453
 20
-135.2007074661999
 30
0.0
 10
89.65670831091931
 20
-134.7011741329911
 30
0.0
 10
89.65670831091931
 20
-134.7011741329911
 30
0.0
 10
89.65670831091931
 20
-134.7011741329911
 30
0.0
 10
89.45689271776453
 20
-134.2009352442274
 30
0.0
 10
89.45689271776453
 20
-134.2009352442274
 30
0.0
 10
89.45689271776453
 20
-134.2009352442274
 30
0.0
 10
89.65670831091931
 20
-133.7014019110192
 30
0.0
 10
89.65670831091931
 20
-133.7014019110192
 30
0.0
 10
89.65670831091931
 20
-133.7014019110192
 30
0.0
 10
89.45689271776453
 20
-133.2011630222555
 30
0.0
 10
89.45689271776453
 20
-133.2011630222555
 30
0.0
 10
89.45689271776453
 20
-133.2011630222555
 30
0.0
 10
89.65670831091931
 20
-132.7016296890467
 30
0.0
 10
89.65670831091931
 20
-132.7016296890467
 30
0.0
 10
89.65670831091931
 20
-132.7016296890467
 30
0.0
 10
89.45689271776453
 20
-132.201390800283
 30
0.0
 10
89.45689271776453
 20
-132.201390800283
 30
0.0
 10
89.45689271776453
 20
-132.201390800283
 30
0.0
 10
89.65670831091931
 20
-131.7018574670748
 30
0.0
 10
89.65670831091931
 20
-131.7018574670748
 30
0.0
 10
89.65670831091931
 20
-131.7018574670748
 30
0.0
 10
89.45689271776453
 20
-131.2016538560886
 30
0.0
 10
89.45689271776453
 20
-131.2016538560886
 30
0.0
 10
89.45689271776453
 20
-131.2016538560886
 30
0.0
 10
89.65670831091931
 20
-130.7020852451022
 30
0.0
 10
89.65670831091931
 20
-130.7020852451022
 30
0.0
 10
89.65670831091931
 20
-130.7020852451022
 30
0.0
 10
89.45689271776453
 20
-130.201881634116
 30
0.0
 10
89.45689271776453
 20
-130.201881634116
 30
0.0
 10
89.45689271776453
 20
-130.201881634116
 30
0.0
 10
89.65670831091931
 20
-129.7023483009079
 30
0.0
 10
89.65670831091931
 20
-129.7023483009079
 30
0.0
 10
89.65670831091931
 20
-129.7023483009079
 30
0.0
 10
89.45689271776453
 20
-129.2021094121441
 30
0.0
 10
89.45689271776453
 20
-129.2021094121441
 30
0.0
 10
89.45689271776453
 20
-129.2021094121441
 30
0.0
 10
89.65670831091931
 20
-128.7025760789356
 30
0.0
 10
89.65670831091931
 20
-128.7025760789356
 30
0.0
 10
89.65670831091931
 20
-128.7025760789356
 30
0.0
 10
89.45689271776453
 20
-128.2023371901716
 30
0.0
 10
89.45689271776453
 20
-128.2023371901716
 30
0.0
 10
89.45689271776453
 20
-128.2023371901716
 30
0.0
 10
89.65670831091931
 20
-127.7028038569631
 30
0.0
 10
89.65670831091931
 20
-127.7028038569631
 30
0.0
 10
89.65670831091931
 20
-127.7028038569631
 30
0.0
 10
89.45689271776453
 20
-127.2025649681994
 30
0.0
 10
89.45689271776453
 20
-127.2025649681994
 30
0.0
 10
89.45689271776453
 20
-127.2025649681994
 30
0.0
 10
89.65670831091931
 20
-126.7030316349909
 30
0.0
 10
89.65670831091931
 20
-126.7030316349909
 30
0.0
 10
89.65670831091931
 20
-126.7030316349909
 30
0.0
 10
89.45689271776453
 20
-126.2027927462271
 30
0.0
 10
89.45689271776453
 20
-126.2027927462271
 30
0.0
 10
89.45689271776453
 20
-126.2027927462271
 30
0.0
 10
89.65670831091931
 20
-125.7032594130186
 30
0.0
 10
89.65670831091931
 20
-125.7032594130186
 30
0.0
 10
89.65670831091931
 20
-125.7032594130186
 30
0.0
 10
89.45689271776453
 20
-125.2030558020325
 30
0.0
 10
89.45689271776453
 20
-125.2030558020325
 30
0.0
 10
89.45689271776453
 20
-125.2030558020325
 30
0.0
 10
89.65670831091931
 20
-124.7031696910465
 30
0.0
 10
89.65670831091931
 20
-124.7031696910465
 30
0.0
 10
89.65670831091931
 20
-124.7031696910465
 30
0.0
 10
89.45689271776453
 20
-124.2032835800602
 30
0.0
 10
89.45689271776453
 20
-124.2032835800602
 30
0.0
 10
89.45689271776453
 20
-124.2032835800602
 30
0.0
 10
89.65670831091931
 20
-123.7033974690743
 30
0.0
 10
89.65670831091931
 20
-123.7033974690743
 30
0.0
 10
89.65670831091931
 20
-123.7033974690743
 30
0.0
 10
89.45689271776453
 20
-123.203511358088
 30
0.0
 10
89.45689271776453
 20
-123.203511358088
 30
0.0
 10
89.45689271776453
 20
-123.203511358088
 30
0.0
 10
89.65670831091931
 20
-122.7036252471017
 30
0.0
 10
89.65670831091931
 20
-122.7036252471017
 30
0.0
 10
89.65670831091931
 20
-122.7036252471017
 30
0.0
 10
89.45689271776453
 20
-122.2037391361158
 30
0.0
 10
89.45689271776453
 20
-122.2037391361158
 30
0.0
 10
89.45689271776453
 20
-122.2037391361158
 30
0.0
 10
89.65670831091931
 20
-121.7038530251295
 30
0.0
 10
89.65670831091931
 20
-121.7038530251295
 30
0.0
 10
89.65670831091931
 20
-121.7038530251295
 30
0.0
 10
89.45689271776453
 20
-121.2039669141436
 30
0.0
 10
89.45689271776453
 20
-121.2039669141436
 30
0.0
 10
89.45689271776453
 20
-121.2039669141436
 30
0.0
 10
89.65670831091931
 20
-120.7040808031573
 30
0.0
 10
89.65670831091931
 20
-120.7040808031573
 30
0.0
 10
89.65670831091931
 20
-120.7040808031573
 30
0.0
 10
89.45689271776453
 20
-120.2041946921714
 30
0.0
 10
89.45689271776453
 20
-120.2041946921714
 30
0.0
 10
89.45689271776453
 20
-120.2041946921714
 30
0.0
 10
89.45689271776453
 20
-119.1999421924224
 30
0.0
 10
89.45689271776453
 20
-119.1999421924224
 30
0.0
  0
HATCH
  5
42
330
1F
100
AcDbEntity
  8
_U+30EC_U+30A4_U+30E4_U+30FC 1
 62
   253
420
 11711154
100
AcDbHatch
 10
0.0
 20
0.0
 30
0.0
210
0.0
220
0.0
230
1.0
  2
SOLID
 70
     1
 71
     0
 91
        1
 92
        1
 93
        1
 72
     4
 94
        3
 73
     0
 74
     1
 95
      170
 96
      166
 40
0.0
 40
0.0
 40
0.0
 40
0.0
 40
1.0
 40
1.0
 40
1.0
 40
2.0
 40
2.0
 40
2.0
 40
3.0
 40
3.0
 40
3.0
 40
4.0
 40
4.0
 40
4.0
 40
5.0
 40
5.0
 40
5.0
 40
6.0
 40
6.0
 40
6.0
 40
7.0
 40
7.0
 40
7.0
 40
8.0
 40
8.0
 40
8.0
 40
9.0
 40
9.0
 40
9.0
 40
10.0
 40
10.0
 40
10.0
 40
11.0
 40
11.0
 40
11.0
 40
12.0
 40
12.0
 40
12.0
 40
13.0
 40
13.0
 40
13.0
 40
14.0
 40
14.0
 40
14.0
 40
15.0
 40
15.0
 40
15.0
 40
16.0
 40
16.0
 40
16.0
 40
17.0
 40
17.0
 40
17.0
 40
18.0
 40
18.0
 40
18.0
 40
19.0
 40
19.0
 40
19.0
 40
20.0
 40
20.0
 40
20.0
 40
21.0
 40
21.0
 40
21.0
 40
22.0
 40
22.0
 40
22.0
 40
23.0
 40
23.0
 40
23.0
 40
24.0
 40
24.0
 40
24.0
 40
25.0
 40
25.0
 40
25.0
 40
26.0
 40
26.0
 40
26.0
 40
27.0
 40
27.0
 40
27.0
 40
28.0
 40
28.0
 40
28.0
 40
29.0
 40
29.0
 40
29.0
 40
30.0
 40
30.0
 40
30.0
 40
31.0
 40
31.0
 40
31.0
 40
32.0
 40
32.0
 40
32.0
 40
33.0
 40
33.0
 40
33.0
 40
34.0
 40
34.0
 40
34.0
 40
35.0
 40
35.0
 40
35.0
 40
36.0
 40
36.0
 40
36.0
 40
37.0
 40
37.0
 40
37.0
 40
38.0
 40
38.0
 40
38.0
 40
39.0
 40
39.0
 40
39.0
 40
40.0
 40
40.0
 40
40.0
 40
41.0
 40
41.0
 40
41.0
 40
42.0
 40
42.0
 40
42.0
 40
43.0
 40
43.0
 40
43.0
 40
44.0
 40
44.0
 40
44.0
 40
45.0
 40
45.0
 40
45.0
 40
46.0
 40
46.0
 40
46.0
 40
47.0
 40
47.0
 40
47.0
 40
48.0
 40
48.0
 40
48.0
 40
49.0
 40
49.0
 40
49.0
 40
50.0
 40
50.0
 40
50.0
 40
51.0
 40
51.0
 40
51.0
 40
52.0
 40
52.0
 40
52.0
 40
53.0
 40
53.0
 40
53.0
 40
54.0
 40
54.0
 40
54.0
 40
55.0
 40
55.0
 40
55.0
 40
55.0
 10
89.45689271776453
 20
-119.1999421924224
 10
89.45689271776453
 20
-119.1999421924224
 10
90.45666491448044
 20
-119.1999421924224
 10
90.45666491448044
 20
-119.1999421924224
 10
93.49436372587118
 20
-119.1999421924224
 10
95.95692894082369
 20
-121.8860980250839
 10
95.95692894082369
 20
-125.1999513575889
 10
95.95692894082369
 20
-127.9625541346761
 10
94.47141942082648
 20
-129.1993577454777
 10
94.15652759786686
 20
-129.1993577454777
 10
94.04628454512384
 20
-129.1993577454777
 10
93.95671664317776
 20
-129.1097874677224
 10
93.95671664317776
 20
-128.9995444121944
 10
93.95671664317776
 20
-128.9995444121944
 10
93.95671664317776
 20
-127.7000521902973
 10
93.95671664317776
 20
-127.7000521902973
 10
94.23300981813786
 20
-127.7000521902973
 10
94.45695553194146
 20
-127.4761088570197
 10
94.45695553194146
 20
-127.1998133015333
 10
94.45695553194146
 20
-127.1998133015333
 10
94.45695553194146
 20
-124.1998263578389
 10
94.45695553194146
 20
-124.1998263578389
 10
94.45695553194146
 20
-124.1998263578389
 10
93.95671664317776
 20
-124.1998263578389
 10
93.95671664317776
 20
-124.1998263578389
 10
93.95671664317776
 20
-124.1998263578389
 10
93.95671664317776
 20
-123.656548580197
 10
93.95671664317776
 20
-123.656548580197
 10
93.95671664317776
 20
-123.656548580197
 10
92.38988708738205
 20
-121.1994866363668
 10
92.38988708738205
 20
-121.1994866363668
 10
92.30306847848587
 20
-121.0499794141818
 10
92.14184903815448
 20
-120.9497199697624
 10
91.9564995984387
 20
-120.9497199697624
 10
91.6808743276927
 20
-120.9497199697624
 10
91.45693331046895
 20
-121.17366330304
 10
91.45693331046895
 20
-121.4496060807487
 10
91.45693331046895
 20
-121.4496060807487
 10
91.45693331046895
 20
-123.6995874690752
 10
91.45693331046895
 20
-123.6995874690752
 10
91.45693331046895
 20
-123.9758830245617
 10
91.23284656134507
 20
-124.1998263578389
 10
90.95655101283839
 20
-124.1998263578389
 10
90.95655101283839
 20
-124.1998263578389
 10
90.45666491448044
 20
-124.1998263578389
 10
90.45666491448044
 20
-124.1998263578389
 10
90.45666491448044
 20
-124.1998263578389
 10
90.45666491448044
 20
-138.7002277431025
 10
90.45666491448044
 20
-138.7002277431025
 10
90.45666491448044
 20
-138.7002277431025
 10
89.45689271776453
 20
-139.2004666318668
 10
89.45689271776453
 20
-139.2004666318668
 10
89.45689271776453
 20
-139.2004666318668
 10
89.45689271776453
 20
-138.1999888543388
 10
89.45689271776453
 20
-138.1999888543388
 10
89.45689271776453
 20
-138.1999888543388
 10
89.65670831091931
 20
-137.7004555211306
 10
89.65670831091931
 20
-137.7004555211306
 10
89.65670831091931
 20
-137.7004555211306
 10
89.45689271776453
 20
-137.2002519101444
 10
89.45689271776453
 20
-137.2002519101444
 10
89.45689271776453
 20
-137.2002519101444
 10
89.65670831091931
 20
-136.700683299158
 10
89.65670831091931
 20
-136.700683299158
 10
89.65670831091931
 20
-136.700683299158
 10
89.45689271776453
 20
-136.2004796881718
 10
89.45689271776453
 20
-136.2004796881718
 10
89.45689271776453
 20
-136.2004796881718
 10
89.65670831091931
 20
-135.7009463549636
 10
89.65670831091931
 20
-135.7009463549636
 10
89.65670831091931
 20
-135.7009463549636
 10
89.45689271776453
 20
-135.2007074661999
 10
89.45689271776453
 20
-135.2007074661999
 10
89.45689271776453
 20
-135.2007074661999
 10
89.65670831091931
 20
-134.7011741329911
 10
89.65670831091931
 20
-134.7011741329911
 10
89.65670831091931
 20
-134.7011741329911
 10
89.45689271776453
 20
-134.2009352442274
 10
89.45689271776453
 20
-134.2009352442274
 10
89.45689271776453
 20
-134.2009352442274
 10
89.65670831091931
 20
-133.7014019110192
 10
89.65670831091931
 20
-133.7014019110192
 10
89.65670831091931
 20
-133.7014019110192
 10
89.45689271776453
 20
-133.2011630222555
 10
89.45689271776453
 20
-133.2011630222555
 10
89.45689271776453
 20
-133.2011630222555
 10
89.65670831091931
 20
-132.7016296890467
 10
89.65670831091931
 20
-132.7016296890467
 10
89.65670831091931
 20
-132.7016296890467
 10
89.45689271776453
 20
-132.201390800283
 10
89.45689271776453
 20
-132.201390800283
 10
89.45689271776453
 20
-132.201390800283
 10
89.65670831091931
 20
-131.7018574670748
 10
89.65670831091931
 20
-131.7018574670748
 10
89.65670831091931
 20
-131.7018574670748
 10
89.45689271776453
 20
-131.2016538560886
 10
89.45689271776453
 20
-131.2016538560886
 10
89.45689271776453
 20
-131.2016538560886
 10
89.65670831091931
 20
-130.7020852451022
 10
89.65670831091931
 20
-130.7020852451022
 10
89.65670831091931
 20
-130.7020852451022
 10
89.45689271776453
 20
-130.201881634116
 10
89.45689271776453
 20
-130.201881634116
 10
89.45689271776453
 20
-130.201881634116
 10
89.65670831091931
 20
-129.7023483009079
 10
89.65670831091931
 20
-129.7023483009079
 10
89.65670831091931
 20
-129.7023483009079
 10
89.45689271776453
 20
-129.2021094121441
 10
89.45689271776453
 20
-129.2021094121441
 10
89.45689271776453
 20
-129.2021094121441
 10
89.65670831091931
 20
-128.7025760789356
 10
89.65670831091931
 20
-128.7025760789356
 10
89.65670831091931
 20
-128.7025760789356
 10
89.45689271776453
 20
-128.2023371901716
 10
89.45689271776453
 20
-128.2023371901716
 10
89.45689271776453
 20
-128.2023371901716
 10
89.65670831091931
 20
-127.7028038569631
 10
89.65670831091931
 20
-127.7028038569631
 10
89.65670831091931
 20
-127.7028038569631
 10
89.45689271776453
 20
-127.2025649681994
 10
89.45689271776453
 20
-127.2025649681994
 10
89.45689271776453
 20
-127.2025649681994
 10
89.65670831091931
 20
-126.7030316349909
 10
89.65670831091931
 20
-126.7030316349909
 10
89.65670831091931
 20
-126.7030316349909
 10
89.45689271776453
 20
-126.2027927462271
 10
89.45689271776453
 20
-126.2027927462271
 10
89.45689271776453
 20
-126.2027927462271
 10
89.65670831091931
 20
-125.7032594130186
 10
89.65670831091931
 20
-125.7032594130186
 10
89.65670831091931
 20
-125.7032594130186
 10
89.45689271776453
 20
-125.2030558020325
 10
89.45689271776453
 20
-125.2030558020325
 10
89.45689271776453
 20
-125.2030558020325
 10
89.65670831091931
 20
-124.7031696910465
 10
89.65670831091931
 20
-124.7031696910465
 10
89.65670831091931
 20
-124.7031696910465
 10
89.45689271776453
 20
-124.2032835800602
 10
89.45689271776453
 20
-124.2032835800602
 10
89.45689271776453
 20
-124.2032835800602
 10
89.65670831091931
 20
-123.7033974690743
 10
89.65670831091931
 20
-123.7033974690743
 10
89.65670831091931
 20
-123.7033974690743
 10
89.45689271776453
 20
-123.203511358088
 10
89.45689271776453
 20
-123.203511358088
 10
89.45689271776453
 20
-123.203511358088
 10
89.65670831091931
 20
-122.7036252471017
 10
89.65670831091931
 20
-122.7036252471017
 10
89.65670831091931
 20
-122.7036252471017
 10
89.45689271776453
 20
-122.2037391361158
 10
89.45689271776453
 20
-122.2037391361158
 10
89.45689271776453
 20
-122.2037391361158
 10
89.65670831091931
 20
-121.7038530251295
 10
89.65670831091931
 20
-121.7038530251295
 10
89.65670831091931
 20
-121.7038530251295
 10
89.45689271776453
 20
-121.2039669141436
 10
89.45689271776453
 20
-121.2039669141436
 10
89.45689271776453
 20
-121.2039669141436
 10
89.65670831091931
 20
-120.7040808031573
 10
89.65670831091931
 20
-120.7040808031573
 10
89.65670831091931
 20
-120.7040808031573
 10
89.45689271776453
 20
-120.2041946921714
 10
89.45689271776453
 20
-120.2041946921714
 10
89.45689271776453
 20
-120.2041946921714
 10
89.45689271776453
 20
-119.1999421924224
 10
89.45689271776453
 20
-119.1999421924224
 97
        0
 97
        0
 75
     2
 76
     1
 98
        0
  0
SPLINE
  5
43
330
1F
100
AcDbEntity
  8
_U+30EC_U+30A4_U+30E4_U+30FC 1
 62
   179
420
  2234388
370
     9
100
AcDbSpline
210
0.0
220
0.0
230
1.0
 70
    11
 71
     3
 72
    17
 73
    13
 74
     0
 42
0.0000000001
 43
0.0000000001
 12
1.0
 22
0.0
 32
0.0
 13
1.0
 23
0.0
 33
0.0
 40
0.0
 40
0.0
 40
0.0
 40
0.0
 40
1.0
 40
1.0
 40
1.0
 40
2.0
 40
2.0
 40
2.0
 40
3.0
 40
3.0
 40
3.0
 40
4.0
 40
4.0
 40
4.0
 40
4.0
 10
83.83382675010978
 20
-139.1997610763113
 30
0.0
 10
83.83382675010978
 20
-139.1446571874364
 30
0.0
 10
83.78902397347503
 20
-139.0998544096697
 30
0.0
 10
83.73392220128866
 20
-139.0998544096697
 30
0.0
 10
83.67913369850078
 20
-139.0998544096697
 30
0.0
 10
83.63433092186601
 20
-139.1446571874364
 30
0.0
 10
83.63433092186601
 20
-139.1997610763113
 30
0.0
 10
83.63433092186601
 20
-139.2555705207417
 30
0.0
 10
83.67913369850078
 20
-139.3003732985084
 30
0.0
 10
83.73392220128866
 20
-139.3003732985084
 30
0.0
 10
83.78902397347503
 20
-139.3003732985084
 30
0.0
 10
83.83382675010978
 20
-139.2555705207417
 30
0.0
 10
83.83382675010978
 20
-139.1997610763113
 30
0.0
  0
SPLINE
  5
44
330
1F
100
AcDbEntity
  8
_U+30EC_U+30A4_U+30E4_U+30FC 1
 62
   179
420
  2234388
370
     9
100
AcDbSpline
210
0.0
220
0.0
230
1.0
 70
    11
 71
     3
 72
    17
 73
    13
 74
     0
 42
0.0000000001
 43
0.0000000001
 12
1.0
 22
0.0
 32
0.0
 13
1.0
 23
0.0
 33
0.0
 40
0.0
 40
0.0
 40
0.0
 40
0.0
 40
1.0
 40
1.0
 40
1.0
 40
2.0
 40
2.0
 40
2.0
 40
3.0
 40
3.0
 40
3.0
 40
4.0
 40
4.0
 40
4.0
 40
4.0
 10
83.83382675010978
 20
-119.1999421924224
 30
0.0
 10
83.83382675010978
 20
-119.1444855257694
 30
0.0
 10
83.78902397347503
 20
-119.0993652480031
 30
0.0
 10
83.73392220128866
 20
-119.0993652480031
 30
0.0
 10
83.67913369850078
 20
-119.0993652480031
 30
0.0
 10
83.63433092186601
 20
-119.1444855257694
 30
0.0
 10
83.63433092186601
 20
-119.1999421924224
 30
0.0
 10
83.63433092186601
 20
-119.2550813590751
 30
0.0
 10
83.67913369850078
 20
-119.2998841368416
 30
0.0
 10
83.73392220128866
 20
-119.2998841368416
 30
0.0
 10
83.78902397347503
 20
-119.2998841368416
 30
0.0
 10
83.83382675010978
 20
-119.2550813590751
 30
0.0
 10
83.83382675010978
 20
-119.1999421924224
 30
0.0
  0
SPLINE
  5
45
330
1F
100
AcDbEntity
  8
_U+30EC_U+30A4_U+30E4_U+30FC 1
 62
   179
420
  2234388
370
     9
100
AcDbSpline
210
0.0
220
0.0
230
1.0
 70
    11
 71
     3
 72
    17
 73
    13
 74
     0
 42
0.0000000001
 43
0.0000000001
 12
1.0
 22
0.0
 32
0.0
 13
1.0
 23
0.0
 33
0.0
 40
0.0
 40
0.0
 40
0.0
 40
0.0
 40
1.0
 40
1.0
 40
1.0
 40
2.0
 40
2.0
 40
2.0
 40
3.0
 40
3.0
 40
3.0
 40
4.0
 40
4.0
 40
4.0
 40
4.0
 10
88.0127263657194
 20
-119.1999421924224
 30
0.0
 10
88.0127263657194
 20
-119.1444855257694
 30
0.0
 10
87.96792358908463
 20
-119.0993652480031
 30
0.0
 10
87.91281970160156
 20
-119.0993652480031
 30
0.0
 10
87.85732775857284
 20
-119.0993652480031
 30
0.0
 10
87.81256025971494
 20
-119.1444855257694
 30
0.0
 10
87.81256025971494
 20
-119.1999421924224
 30
0.0
 10
87.81256025971494
 20
-119.2550813590751
 30
0.0
 10
87.85732775857284
 20
-119.2998841368416
 30
0.0
 10
87.91281970160156
 20
-119.2998841368416
 30
0.0
 10
87.96792358908463
 20
-119.2998841368416
 30
0.0
 10
88.0127263657194
 20
-119.2550813590751
 30
0.0
 10
88.0127263657194
 20
-119.1999421924224
 30
0.0
  0
SPLINE
  5
46
330
1F
100
AcDbEntity
  8
_U+30EC_U+30A4_U+30E4_U+30FC 1
 62
   179
420
  2234388
370
     9
100
AcDbSpline
210
0.0
220
0.0
230
1.0
 70
    11
 71
     3
 72
    17
 73
    13
 74
     0
 42
0.0000000001
 43
0.0000000001
 12
1.0
 22
0.0
 32
0.0
 13
1.0
 23
0.0
 33
0.0
 40
0.0
 40
0.0
 40
0.0
 40
0.0
 40
1.0
 40
1.0
 40
1.0
 40
2.0
 40
2.0
 40
2.0
 40
3.0
 40
3.0
 40
3.0
 40
4.0
 40
4.0
 40
4.0
 40
4.0
 10
88.0127263657194
 20
-124.2511555244926
 30
0.0
 10
88.0127263657194
 20
-124.1960516356177
 30
0.0
 10
87.96792358908463
 20
-124.151248857851
 30
0.0
 10
87.91281970160156
 20
-124.151248857851
 30
0.0
 10
87.85732775857284
 20
-124.151248857851
 30
0.0
 10
87.81256025971494
 20
-124.1960516356177
 30
0.0
 10
87.81256025971494
 20
-124.2511555244926
 30
0.0
 10
87.81256025971494
 20
-124.3062946911457
 30
0.0
 10
87.85732775857284
 20
-124.3510621911346
 30
0.0
 10
87.91281970160156
 20
-124.3510621911346
 30
0.0
 10
87.96792358908463
 20
-124.3510621911346
 30
0.0
 10
88.0127263657194
 20
-124.3062946911457
 30
0.0
 10
88.0127263657194
 20
-124.2511555244926
 30
0.0
  0
POLYLINE
  5
47
330
1F
100
AcDbEntity
  8
_U+30EC_U+30A4_U+30E4_U+30FC 1
 62
   179
420
  2234388
370
     9
100
AcDb2dPolyline
 66
     1
 10
0.0
 20
0.0
 30
0.0
  0
VERTEX
  5
48
330
47
100
AcDbEntity
  8
_U+30EC_U+30A4_U+30E4_U+30FC 1
 62
   179
420
  2234388
370
     9
100
AcDbVertex
100
AcDb2dVertex
 10
87.91281970160156
 20
-119.1999421924224
 30
0.0
  0
VERTEX
  5
49
330
47
100
AcDbEntity
  8
_U+30EC_U+30A4_U+30E4_U+30FC 1
 62
   179
420
  2234388
370
     9
100
AcDbVertex
100
AcDb2dVertex
 10
87.91281970160156
 20
-129.2000280232557
 30
0.0
  0
SEQEND
  5
4A
330
47
100
AcDbEntity
  8
_U+30EC_U+30A4_U+30E4_U+30FC 1
 62
   179
420
  2234388
370
     9
  0
POLYLINE
  5
4B
330
1F
100
AcDbEntity
  8
_U+30EC_U+30A4_U+30E4_U+30FC 1
 62
   179
420
  2234388
370
     9
100
AcDb2dPolyline
 66
     1
 10
0.0
 20
0.0
 30
0.0
  0
VERTEX
  5
4C
330
4B
100
AcDbEntity
  8
_U+30EC_U+30A4_U+30E4_U+30FC 1
 62
   179
420
  2234388
370
     9
100
AcDbVertex
100
AcDb2dVertex
 10
86.4527805339424
 20
-124.2511555244926
 30
0.0
  0
VERTEX
  5
4D
330
4B
100
AcDbEntity
  8
_U+30EC_U+30A4_U+30E4_U+30FC 1
 62
   179
420
  2234388
370
     9
100
AcDbVertex
100
AcDb2dVertex
 10
88.91290939830937
 20
-124.2511555244926
 30
0.0
  0
SEQEND
  5
4E
330
4B
100
AcDbEntity
  8
_U+30EC_U+30A4_U+30E4_U+30FC 1
 62
   179
420
  2234388
370
     9
  0
SPLINE
  5
4F
330
1F
100
AcDbEntity
  8
_U+30EC_U+30A4_U+30E4_U+30FC 1
 62
   179
420
  2234388
370
     9
100
AcDbSpline
210
0.0
220
0.0
230
1.0
 70
    11
 71
     3
 72
    17
 73
    13
 74
     0
 42
0.0000000001
 43
0.0000000001
 12
1.0
 22
0.0
 32
0.0
 13
1.0
 23
0.0
 33
0.0
 40
0.0
 40
0.0
 40
0.0
 40
0.0
 40
1.0
 40
1.0
 40
1.0
 40
2.0
 40
2.0
 40
2.0
 40
3.0
 40
3.0
 40
3.0
 40
4.0
 40
4.0
 40
4.0
 40
4.0
 10
88.0127263657194
 20
-129.2510396899095
 30
0.0
 10
88.0127263657194
 20
-129.1959005232564
 30
0.0
 10
87.96792358908463
 20
-129.1511330232679
 30
0.0
 10
87.91281970160156
 20
-129.1511330232679
 30
0.0
 10
87.85732775857284
 20
-129.1511330232679
 30
0.0
 10
87.81256025971494
 20
-129.1959005232564
 30
0.0
 10
87.81256025971494
 20
-129.2510396899095
 30
0.0
 10
87.81256025971494
 20
-129.3061435787844
 30
0.0
 10
87.85732775857284
 20
-129.3509463565511
 30
0.0
 10
87.91281970160156
 20
-129.3509463565511
 30
0.0
 10
87.96792358908463
 20
-129.3509463565511
 30
0.0
 10
88.0127263657194
 20
-129.3061435787844
 30
0.0
 10
88.0127263657194
 20
-129.2510396899095
 30
0.0
  0
POLYLINE
  5
50
330
1F
100
AcDbEntity
  8
_U+30EC_U+30A4_U+30E4_U+30FC 1
 62
   179
420
  2234388
370
     9
100
AcDb2dPolyline
 66
     1
 10
0.0
 20
0.0
 30
0.0
  0
VERTEX
  5
51
330
50
100
AcDbEntity
  8
_U+30EC_U+30A4_U+30E4_U+30FC 1
 62
   179
420
  2234388
370
     9
100
AcDbVertex
100
AcDb2dVertex
 10
86.4527805339424
 20
-129.2510396899095
 30
0.0
  0
VERTEX
  5
52
330
50
100
AcDbEntity
  8
_U+30EC_U+30A4_U+30E4_U+30FC 1
 62
   179
420
  2234388
370
     9
100
AcDbVertex
100
AcDb2dVertex
 10
88.91290939830937
 20
-129.2510396899095
 30
0.0
  0
SEQEND
  5
53
330
50
100
AcDbEntity
  8
_U+30EC_U+30A4_U+30E4_U+30FC 1
 62
   179
420
  2234388
370
     9
  0
INSERT
  5
55
330
1F
100
AcDbEntity
  8
_U+30EC_U+30A4_U+30E4_U+30FC 1
100
AcDbBlockReference
  2
block 2
 10
0.0
 20
0.0
 30
0.0
  0
INSERT
  5
5B
330
1F
100
AcDbEntity
  8
_U+30EC_U+30A4_U+30E4_U+30FC 1
100
AcDbBlockReference
  2
block 3
 10
0.0
 20
0.0
 30
0.0
  0
POLYLINE
  5
60
330
1F
100
AcDbEntity
  8
_U+30EC_U+30A4_U+30E4_U+30FC 1
 62
   179
420
  2234388
370
     9
100
AcDb2dPolyline
 66
     1
 10
0.0
 20
0.0
 30
0.0
  0
VERTEX
  5
61
330
60
100
AcDbEntity
  8
_U+30EC_U+30A4_U+30E4_U+30FC 1
 62
   179
420
  2234388
370
     9
100
AcDbVertex
100
AcDb2dVertex
 10
83.73392220128866
 20
-139.1997610763113
 30
0.0
  0
VERTEX
  5
62
330
60
100
AcDbEntity
  8
_U+30EC_U+30A4_U+30E4_U+30FC 1
 62
   179
420
  2234388
370
     9
100
AcDbVertex
100
AcDb2dVertex
 10
83.73392220128866
 20
-119.1996246924225
 30
0.0
  0
SEQEND
  5
63
330
60
100
AcDbEntity
  8
_U+30EC_U+30A4_U+30E4_U+30FC 1
 62
   179
420
  2234388
370
     9
  0
POLYLINE
  5
64
330
1F
100
AcDbEntity
  8
_U+30EC_U+30A4_U+30E4_U+30FC 1
 62
   179
420
  2234388
370
     9
100
AcDb2dPolyline
 66
     1
 10
0.0
 20
0.0
 30
0.0
  0
VERTEX
  5
65
330
64
100
AcDbEntity
  8
_U+30EC_U+30A4_U+30E4_U+30FC 1
 62
   179
420
  2234388
370
     9
100
AcDbVertex
100
AcDb2dVertex
 10
85.795447533398
 20
-139.1997610763113
 30
0.0
  0
VERTEX
  5
66
330
64
100
AcDbEntity
  8
_U+30EC_U+30A4_U+30E4_U+30FC 1
 62
   179
420
  2234388
370
     9
100
AcDbVertex
100
AcDb2dVertex
 10
82.73414997931644
 20
-139.1997610763113
 30
0.0
  0
SEQEND
  5
67
330
64
100
AcDbEntity
  8
_U+30EC_U+30A4_U+30E4_U+30FC 1
 62
   179
420
  2234388
370
     9
  0
POLYLINE
  5
68
330
1F
100
AcDbEntity
  8
_U+30EC_U+30A4_U+30E4_U+30FC 1
 62
   179
420
  2234388
370
     9
100
AcDb2dPolyline
 66
     1
 10
0.0
 20
0.0
 30
0.0
  0
VERTEX
  5
69
330
68
100
AcDbEntity
  8
_U+30EC_U+30A4_U+30E4_U+30FC 1
 62
   179
420
  2234388
370
     9
100
AcDbVertex
100
AcDb2dVertex
 10
82.73446538926794
 20
-119.1999421924224
 30
0.0
  0
VERTEX
  5
6A
330
68
100
AcDbEntity
  8
_U+30EC_U+30A4_U+30E4_U+30FC 1
 62
   179
420
  2234388
370
     9
100
AcDbVertex
100
AcDb2dVertex
 10
85.59355281632655
 20
-119.1999421924224
 30
0.0
  0
VERTEX
  5
6B
330
68
100
AcDbEntity
  8
_U+30EC_U+30A4_U+30E4_U+30FC 1
 62
   179
420
  2234388
370
     9
100
AcDbVertex
100
AcDb2dVertex
 10
86.4527805339424
 20
-119.1999421924224
 30
0.0
  0
VERTEX
  5
6C
330
68
100
AcDbEntity
  8
_U+30EC_U+30A4_U+30E4_U+30FC 1
 62
   179
420
  2234388
370
     9
100
AcDbVertex
100
AcDb2dVertex
 10
88.91290939830937
 20
-119.1999421924224
 30
0.0
  0
SEQEND
  5
6D
330
68
100
AcDbEntity
  8
_U+30EC_U+30A4_U+30E4_U+30FC 1
 62
   179
420
  2234388
370
     9
  0
INSERT
  5
6F
330
1F
100
AcDbEntity
  8
_U+30EC_U+30A4_U+30E4_U+30FC 1
100
AcDbBlockReference
  2
block 4
 10
0.0
 20
0.0
 30
0.0
  0
SPLINE
  5
77
330
1F
100
AcDbEntity
  8
_U+30EC_U+30A4_U+30E4_U+30FC 1
 62
   179
420
  2234388
370
     9
100
AcDbSpline
210
0.0
220
0.0
230
1.0
 70
    11
 71
     3
 72
    17
 73
    13
 74
     0
 42
0.0000000001
 43
0.0000000001
 12
1.0
 22
0.0
 32
0.0
 13
1.0
 23
0.0
 33
0.0
 40
0.0
 40
0.0
 40
0.0
 40
0.0
 40
1.0
 40
1.0
 40
1.0
 40
2.0
 40
2.0
 40
2.0
 40
3.0
 40
3.0
 40
3.0
 40
4.0
 40
4.0
 40
4.0
 40
4.0
 10
100.0166249483633
 20
-129.1993577454777
 30
0.0
 10
100.0166249483633
 20
-129.1442185788253
 30
0.0
 10
99.97185744950544
 20
-129.0994510788361
 30
0.0
 10
99.91671828424548
 20
-129.0994510788361
 30
0.0
 10
99.8616143967624
 20
-129.0994510788361
 30
0.0
 10
99.81681162012765
 20
-129.1442185788253
 30
0.0
 10
99.81681162012765
 20
-129.1993577454777
 30
0.0
 10
99.81681162012765
 20
-129.2551671899081
 30
0.0
 10
99.8616143967624
 20
-129.2999346898974
 30
0.0
 10
99.91671828424548
 20
-129.2999346898974
 30
0.0
 10
99.97185744950544
 20
-129.2999346898974
 30
0.0
 10
100.0166249483633
 20
-129.2551671899081
 30
0.0
 10
100.0166249483633
 20
-129.1993577454777
 30
0.0
  0
POLYLINE
  5
78
330
1F
100
AcDbEntity
  8
_U+30EC_U+30A4_U+30E4_U+30FC 1
 62
   179
420
  2234388
370
     9
100
AcDb2dPolyline
 66
     1
 10
0.0
 20
0.0
 30
0.0
  0
VERTEX
  5
79
330
78
100
AcDbEntity
  8
_U+30EC_U+30A4_U+30E4_U+30FC 1
 62
   179
420
  2234388
370
     9
100
AcDbVertex
100
AcDb2dVertex
 10
99.91671828424548
 20
-129.1993577454777
 30
0.0
  0
VERTEX
  5
7A
330
78
100
AcDbEntity
  8
_U+30EC_U+30A4_U+30E4_U+30FC 1
 62
   179
420
  2234388
370
     9
100
AcDbVertex
100
AcDb2dVertex
 10
99.91671828424548
 20
-119.2674991368499
 30
0.0
  0
SEQEND
  5
7B
330
78
100
AcDbEntity
  8
_U+30EC_U+30A4_U+30E4_U+30FC 1
 62
   179
420
  2234388
370
     9
  0
POLYLINE
  5
7C
330
1F
100
AcDbEntity
  8
_U+30EC_U+30A4_U+30E4_U+30FC 1
 62
   179
420
  2234388
370
     9
100
AcDb2dPolyline
 66
     1
 10
0.0
 20
0.0
 30
0.0
  0
VERTEX
  5
7D
330
7C
100
AcDbEntity
  8
_U+30EC_U+30A4_U+30E4_U+30FC 1
 62
   179
420
  2234388
370
     9
100
AcDbVertex
100
AcDb2dVertex
 10
98.45667693260535
 20
-129.1993577454777
 30
0.0
  0
VERTEX
  5
7E
330
7C
100
AcDbEntity
  8
_U+30EC_U+30A4_U+30E4_U+30FC 1
 62
   179
420
  2234388
370
     9
100
AcDbVertex
100
AcDb2dVertex
 10
100.9164904809614
 20
-129.1993577454777
 30
0.0
  0
SEQEND
  5
7F
330
7C
100
AcDbEntity
  8
_U+30EC_U+30A4_U+30E4_U+30FC 1
 62
   179
420
  2234388
370
     9
  0
POLYLINE
  5
80
330
1F
100
AcDbEntity
  8
_U+30EC_U+30A4_U+30E4_U+30FC 1
 62
   179
420
  2234388
370
     9
100
AcDb2dPolyline
 66
     1
 10
0.0
 20
0.0
 30
0.0
  0
VERTEX
  5
81
330
80
100
AcDbEntity
  8
_U+30EC_U+30A4_U+30E4_U+30FC 1
 62
   179
420
  2234388
370
     9
100
AcDbVertex
100
AcDb2dVertex
 10
98.45667693260535
 20
-119.2674991368499
 30
0.0
  0
VERTEX
  5
82
330
80
100
AcDbEntity
  8
_U+30EC_U+30A4_U+30E4_U+30FC 1
 62
   179
420
  2234388
370
     9
100
AcDbVertex
100
AcDb2dVertex
 10
100.9164904809614
 20
-119.2674991368499
 30
0.0
  0
SEQEND
  5
83
330
80
100
AcDbEntity
  8
_U+30EC_U+30A4_U+30E4_U+30FC 1
 62
   179
420
  2234388
370
     9
  0
INSERT
  5
85
330
1F
100
AcDbEntity
  8
_U+30EC_U+30A4_U+30E4_U+30FC 1
100
AcDbBlockReference
  2
block 5
 10
0.0
 20
0.0
 30
0.0
  0
SPLINE
  5
8D
330
1F
100
AcDbEntity
  8
_U+30EC_U+30A4_U+30E4_U+30FC 1
 62
   179
420
  2234388
370
     9
100
AcDbSpline
210
0.0
220
0.0
230
1.0
 70
    11
 71
     3
 72
    17
 73
    13
 74
     0
 42
0.0000000001
 43
0.0000000001
 12
1.0
 22
0.0
 32
0.0
 13
1.0
 23
0.0
 33
0.0
 40
0.0
 40
0.0
 40
0.0
 40
0.0
 40
1.0
 40
1.0
 40
1.0
 40
2.0
 40
2.0
 40
2.0
 40
3.0
 40
3.0
 40
3.0
 40
4.0
 40
4.0
 40
4.0
 40
4.0
 10
96.05683560494151
 20
-115.2002183045334
 30
0.0
 10
96.05683560494151
 20
-115.1450791378803
 30
0.0
 10
96.01206810608363
 20
-115.1003116378917
 30
0.0
 10
95.95692894082369
 20
-115.1003116378917
 30
0.0
 10
95.90182505334062
 20
-115.1003116378917
 30
0.0
 10
95.85702227670585
 20
-115.1450791378803
 30
0.0
 10
95.85702227670585
 20
-115.2002183045334
 30
0.0
 10
95.85702227670585
 20
-115.2553221934083
 30
0.0
 10
95.90182505334062
 20
-115.300124971175
 30
0.0
 10
95.95692894082369
 20
-115.300124971175
 30
0.0
 10
96.01206810608363
 20
-115.300124971175
 30
0.0
 10
96.05683560494151
 20
-115.2553221934083
 30
0.0
 10
96.05683560494151
 20
-115.2002183045334
 30
0.0
  0
SPLINE
  5
8E
330
1F
100
AcDbEntity
  8
_U+30EC_U+30A4_U+30E4_U+30FC 1
 62
   179
420
  2234388
370
     9
100
AcDbSpline
210
0.0
220
0.0
230
1.0
 70
    11
 71
     3
 72
    17
 73
    13
 74
     0
 42
0.0000000001
 43
0.0000000001
 12
1.0
 22
0.0
 32
0.0
 13
1.0
 23
0.0
 33
0.0
 40
0.0
 40
0.0
 40
0.0
 40
0.0
 40
1.0
 40
1.0
 40
1.0
 40
2.0
 40
2.0
 40
2.0
 40
3.0
 40
3.0
 40
3.0
 40
4.0
 40
4.0
 40
4.0
 40
4.0
 10
89.55679938188237
 20
-115.2002183045334
 30
0.0
 10
89.55679938188237
 20
-115.1450791378803
 30
0.0
 10
89.51203188302448
 20
-115.1003116378917
 30
0.0
 10
89.45689271776453
 20
-115.1003116378917
 30
0.0
 10
89.40178883028146
 20
-115.1003116378917
 30
0.0
 10
89.3569860536467
 20
-115.1450791378803
 30
0.0
 10
89.3569860536467
 20
-115.2002183045334
 30
0.0
 10
89.3569860536467
 20
-115.2553221934083
 30
0.0
 10
89.40178883028146
 20
-115.300124971175
 30
0.0
 10
89.45689271776453
 20
-115.300124971175
 30
0.0
 10
89.51203188302448
 20
-115.300124971175
 30
0.0
 10
89.55679938188237
 20
-115.2553221934083
 30
0.0
 10
89.55679938188237
 20
-115.2002183045334
 30
0.0
  0
POLYLINE
  5
8F
330
1F
100
AcDbEntity
  8
_U+30EC_U+30A4_U+30E4_U+30FC 1
 62
   179
420
  2234388
370
     9
100
AcDb2dPolyline
 66
     1
 10
0.0
 20
0.0
 30
0.0
  0
VERTEX
  5
90
330
8F
100
AcDbEntity
  8
_U+30EC_U+30A4_U+30E4_U+30FC 1
 62
   179
420
  2234388
370
     9
100
AcDbVertex
100
AcDb2dVertex
 10
89.45689271776453
 20
-115.2002183045334
 30
0.0
  0
VERTEX
  5
91
330
8F
100
AcDbEntity
  8
_U+30EC_U+30A4_U+30E4_U+30FC 1
 62
   179
420
  2234388
370
     9
100
AcDbVertex
100
AcDb2dVertex
 10
95.95692894082369
 20
-115.2002183045334
 30
0.0
  0
SEQEND
  5
92
330
8F
100
AcDbEntity
  8
_U+30EC_U+30A4_U+30E4_U+30FC 1
 62
   179
420
  2234388
370
     9
  0
POLYLINE
  5
93
330
1F
100
AcDbEntity
  8
_U+30EC_U+30A4_U+30E4_U+30FC 1
 62
   179
420
  2234388
370
     9
100
AcDb2dPolyline
 66
     1
 10
0.0
 20
0.0
 30
0.0
  0
VERTEX
  5
94
330
93
100
AcDbEntity
  8
_U+30EC_U+30A4_U+30E4_U+30FC 1
 62
   179
420
  2234388
370
     9
100
AcDbVertex
100
AcDb2dVertex
 10
89.45689271776453
 20
-117.699966359464
 30
0.0
  0
VERTEX
  5
95
330
93
100
AcDbEntity
  8
_U+30EC_U+30A4_U+30E4_U+30FC 1
 62
   179
420
  2234388
370
     9
100
AcDbVertex
100
AcDb2dVertex
 10
89.45689271776453
 20
-114.2004460825611
 30
0.0
  0
SEQEND
  5
96
330
93
100
AcDbEntity
  8
_U+30EC_U+30A4_U+30E4_U+30FC 1
 62
   179
420
  2234388
370
     9
  0
POLYLINE
  5
97
330
1F
100
AcDbEntity
  8
_U+30EC_U+30A4_U+30E4_U+30FC 1
 62
   179
420
  2234388
370
     9
100
AcDb2dPolyline
 66
     1
 10
0.0
 20
0.0
 30
0.0
  0
VERTEX
  5
98
330
97
100
AcDbEntity
  8
_U+30EC_U+30A4_U+30E4_U+30FC 1
 62
   179
420
  2234388
370
     9
100
AcDbVertex
100
AcDb2dVertex
 10
95.95692894082369
 20
-120.7681805253635
 30
0.0
  0
VERTEX
  5
99
330
97
100
AcDbEntity
  8
_U+30EC_U+30A4_U+30E4_U+30FC 1
 62
   179
420
  2234388
370
     9
100
AcDbVertex
100
AcDb2dVertex
 10
95.95692894082369
 20
-114.2004460825611
 30
0.0
  0
SEQEND
  5
9A
330
97
100
AcDbEntity
  8
_U+30EC_U+30A4_U+30E4_U+30FC 1
 62
   179
420
  2234388
370
     9
  0
INSERT
  5
9C
330
1F
100
AcDbEntity
  8
_U+30EC_U+30A4_U+30E4_U+30FC 1
100
AcDbBlockReference
  2
block 6
 10
0.0
 20
0.0
 30
0.0
  0
SPLINE
  5
AC
330
1F
100
AcDbEntity
  8
_U+30EC_U+30A4_U+30E4_U+30FC 1
 62
   179
420
  2234388
370
     9
100
AcDbSpline
210
0.0
220
0.0
230
1.0
 70
    11
 71
     3
 72
    17
 73
    13
 74
     0
 42
0.0000000001
 43
0.0000000001
 12
1.0
 22
0.0
 32
0.0
 13
1.0
 23
0.0
 33
0.0
 40
0.0
 40
0.0
 40
0.0
 40
0.0
 40
1.0
 40
1.0
 40
1.0
 40
2.0
 40
2.0
 40
2.0
 40
3.0
 40
3.0
 40
3.0
 40
4.0
 40
4.0
 40
4.0
 40
4.0
 10
89.55679938188237
 20
-143.2002257975331
 30
0.0
 10
89.55679938188237
 20
-143.1450866308806
 30
0.0
 10
89.51203188302448
 20
-143.1003191308914
 30
0.0
 10
89.45689271776453
 20
-143.1003191308914
 30
0.0
 10
89.40178883028146
 20
-143.1003191308914
 30
0.0
 10
89.3569860536467
 20
-143.1450866308806
 30
0.0
 10
89.3569860536467
 20
-143.2002257975331
 30
0.0
 10
89.3569860536467
 20
-143.2553296864086
 30
0.0
 10
89.40178883028146
 20
-143.3001324641747
 30
0.0
 10
89.45689271776453
 20
-143.3001324641747
 30
0.0
 10
89.51203188302448
 20
-143.3001324641747
 30
0.0
 10
89.55679938188237
 20
-143.2553296864086
 30
0.0
 10
89.55679938188237
 20
-143.2002257975331
 30
0.0
  0
POLYLINE
  5
AD
330
1F
100
AcDbEntity
  8
_U+30EC_U+30A4_U+30E4_U+30FC 1
 62
   179
420
  2234388
370
     9
100
AcDb2dPolyline
 66
     1
 10
0.0
 20
0.0
 30
0.0
  0
VERTEX
  5
AE
330
AD
100
AcDbEntity
  8
_U+30EC_U+30A4_U+30E4_U+30FC 1
 62
   179
420
  2234388
370
     9
100
AcDbVertex
100
AcDb2dVertex
 10
89.45689271776453
 20
-143.2002257975331
 30
0.0
  0
VERTEX
  5
AF
330
AD
100
AcDbEntity
  8
_U+30EC_U+30A4_U+30E4_U+30FC 1
 62
   179
420
  2234388
370
     9
100
AcDbVertex
100
AcDb2dVertex
 10
93.15675540115095
 20
-143.2002257975331
 30
0.0
  0
SEQEND
  5
B0
330
AD
100
AcDbEntity
  8
_U+30EC_U+30A4_U+30E4_U+30FC 1
 62
   179
420
  2234388
370
     9
  0
POLYLINE
  5
B1
330
1F
100
AcDbEntity
  8
_U+30EC_U+30A4_U+30E4_U+30FC 1
 62
   179
420
  2234388
370
     9
100
AcDb2dPolyline
 66
     1
 10
0.0
 20
0.0
 30
0.0
  0
VERTEX
  5
B2
330
B1
100
AcDbEntity
  8
_U+30EC_U+30A4_U+30E4_U+30FC 1
 62
   179
420
  2234388
370
     9
100
AcDbVertex
100
AcDb2dVertex
 10
89.45689271776453
 20
-140.7404121870368
 30
0.0
  0
VERTEX
  5
B3
330
B1
100
AcDbEntity
  8
_U+30EC_U+30A4_U+30E4_U+30FC 1
 62
   179
420
  2234388
370
     9
100
AcDbVertex
100
AcDb2dVertex
 10
89.45689271776453
 20
-144.1999980195056
 30
0.0
  0
SEQEND
  5
B4
330
B1
100
AcDbEntity
  8
_U+30EC_U+30A4_U+30E4_U+30FC 1
 62
   179
420
  2234388
370
     9
  0
SPLINE
  5
B5
330
1F
100
AcDbEntity
  8
_U+30EC_U+30A4_U+30E4_U+30FC 1
 62
   179
420
  2234388
370
     9
100
AcDbSpline
210
0.0
220
0.0
230
1.0
 70
    11
 71
     3
 72
    17
 73
    13
 74
     0
 42
0.0000000001
 43
0.0000000001
 12
1.0
 22
0.0
 32
0.0
 13
1.0
 23
0.0
 33
0.0
 40
0.0
 40
0.0
 40
0.0
 40
0.0
 40
1.0
 40
1.0
 40
1.0
 40
2.0
 40
2.0
 40
2.0
 40
3.0
 40
3.0
 40
3.0
 40
4.0
 40
4.0
 40
4.0
 40
4.0
 10
90.55692435636705
 20
-143.2002257975331
 30
0.0
 10
90.55692435636705
 20
-143.1450866308806
 30
0.0
 10
90.5121215797323
 20
-143.1003191308914
 30
0.0
 10
90.45701769224922
 20
-143.1003191308914
 30
0.0
 10
90.40187852698926
 20
-143.1003191308914
 30
0.0
 10
90.35711102813138
 20
-143.1450866308806
 30
0.0
 10
90.35711102813138
 20
-143.2002257975331
 30
0.0
 10
90.35711102813138
 20
-143.2553296864086
 30
0.0
 10
90.40187852698926
 20
-143.3001324641747
 30
0.0
 10
90.45701769224922
 20
-143.3001324641747
 30
0.0
 10
90.5121215797323
 20
-143.3001324641747
 30
0.0
 10
90.55692435636705
 20
-143.2553296864086
 30
0.0
 10
90.55692435636705
 20
-143.2002257975331
 30
0.0
  0
POLYLINE
  5
B6
330
1F
100
AcDbEntity
  8
_U+30EC_U+30A4_U+30E4_U+30FC 1
 62
   179
420
  2234388
370
     9
100
AcDb2dPolyline
 66
     1
 10
0.0
 20
0.0
 30
0.0
  0
VERTEX
  5
B7
330
B6
100
AcDbEntity
  8
_U+30EC_U+30A4_U+30E4_U+30FC 1
 62
   179
420
  2234388
370
     9
100
AcDbVertex
100
AcDb2dVertex
 10
90.45701769224922
 20
-140.7404121870368
 30
0.0
  0
VERTEX
  5
B8
330
B6
100
AcDbEntity
  8
_U+30EC_U+30A4_U+30E4_U+30FC 1
 62
   179
420
  2234388
370
     9
100
AcDbVertex
100
AcDb2dVertex
 10
90.45701769224922
 20
-144.1999980195056
 30
0.0
  0
SEQEND
  5
B9
330
B6
100
AcDbEntity
  8
_U+30EC_U+30A4_U+30E4_U+30FC 1
 62
   179
420
  2234388
370
     9
  0
INSERT
  5
BB
330
1F
100
AcDbEntity
  8
_U+30EC_U+30A4_U+30E4_U+30FC 1
100
AcDbBlockReference
  2
block 7
 10
0.0
 20
0.0
 30
0.0
  0
SPLINE
  5
C0
330
1F
100
AcDbEntity
  8
_U+30EC_U+30A4_U+30E4_U+30FC 1
 62
   179
420
  2234388
370
     9
100
AcDbSpline
210
0.0
220
0.0
230
1.0
 70
    11
 71
     3
 72
    17
 73
    13
 74
     0
 42
0.0000000001
 43
0.0000000001
 12
1.0
 22
0.0
 32
0.0
 13
1.0
 23
0.0
 33
0.0
 40
0.0
 40
0.0
 40
0.0
 40
0.0
 40
1.0
 40
1.0
 40
1.0
 40
2.0
 40
2.0
 40
2.0
 40
3.0
 40
3.0
 40
3.0
 40
4.0
 40
4.0
 40
4.0
 40
4.0
 10
94.05662093374902
 20
-138.7002277431025
 30
0.0
 10
94.05662093374902
 20
-138.6451238542275
 30
0.0
 10
94.01181815711426
 20
-138.6003210764608
 30
0.0
 10
93.95671664317776
 20
-138.6003210764608
 30
0.0
 10
93.90157510437123
 20
-138.6003210764608
 30
0.0
 10
93.85680760551335
 20
-138.6451238542275
 30
0.0
 10
93.85680760551335
 20
-138.7002277431025
 30
0.0
 10
93.85680760551335
 20
-138.7553669097555
 30
0.0
 10
93.90157510437123
 20
-138.8001344097441
 30
0.0
 10
93.95671664317776
 20
-138.8001344097441
 30
0.0
 10
94.01181815711426
 20
-138.8001344097441
 30
0.0
 10
94.05662093374902
 20
-138.7553669097555
 30
0.0
 10
94.05662093374902
 20
-138.7002277431025
 30
0.0
  0
POLYLINE
  5
C1
330
1F
100
AcDbEntity
  8
_U+30EC_U+30A4_U+30E4_U+30FC 1
 62
   179
420
  2234388
370
     9
100
AcDb2dPolyline
 66
     1
 10
0.0
 20
0.0
 30
0.0
  0
VERTEX
  5
C2
330
C1
100
AcDbEntity
  8
_U+30EC_U+30A4_U+30E4_U+30FC 1
 62
   179
420
  2234388
370
     9
100
AcDbVertex
100
AcDb2dVertex
 10
90.45701769224922
 20
-138.7002277431025
 30
0.0
  0
VERTEX
  5
C3
330
C1
100
AcDbEntity
  8
_U+30EC_U+30A4_U+30E4_U+30FC 1
 62
   179
420
  2234388
370
     9
100
AcDbVertex
100
AcDb2dVertex
 10
98.1438688850302
 20
-138.7002277431025
 30
0.0
  0
SEQEND
  5
C4
330
C1
100
AcDbEntity
  8
_U+30EC_U+30A4_U+30E4_U+30FC 1
 62
   179
420
  2234388
370
     9
  0
POLYLINE
  5
C5
330
1F
100
AcDbEntity
  8
_U+30EC_U+30A4_U+30E4_U+30FC 1
 62
   179
420
  2234388
370
     9
100
AcDb2dPolyline
 66
     1
 10
0.0
 20
0.0
 30
0.0
  0
VERTEX
  5
C6
330
C5
100
AcDbEntity
  8
_U+30EC_U+30A4_U+30E4_U+30FC 1
 62
   179
420
  2234388
370
     9
100
AcDbVertex
100
AcDb2dVertex
 10
93.95671664317776
 20
-131.6998113559639
 30
0.0
  0
VERTEX
  5
C7
330
C5
100
AcDbEntity
  8
_U+30EC_U+30A4_U+30E4_U+30FC 1
 62
   179
420
  2234388
370
     9
100
AcDbVertex
100
AcDb2dVertex
 10
93.95671664317776
 20
-139.7007055206305
 30
0.0
  0
SEQEND
  5
C8
330
C5
100
AcDbEntity
  8
_U+30EC_U+30A4_U+30E4_U+30FC 1
 62
   179
420
  2234388
370
     9
  0
SPLINE
  5
C9
330
1F
100
AcDbEntity
  8
_U+30EC_U+30A4_U+30E4_U+30FC 1
 62
   179
420
  2234388
370
     9
100
AcDbSpline
210
0.0
220
0.0
230
1.0
 70
    11
 71
     3
 72
    17
 73
    13
 74
     0
 42
0.0000000001
 43
0.0000000001
 12
1.0
 22
0.0
 32
0.0
 13
1.0
 23
0.0
 33
0.0
 40
0.0
 40
0.0
 40
0.0
 40
0.0
 40
1.0
 40
1.0
 40
1.0
 40
2.0
 40
2.0
 40
2.0
 40
3.0
 40
3.0
 40
3.0
 40
4.0
 40
4.0
 40
4.0
 40
4.0
 10
90.55657157859828
 20
-138.7002277431025
 30
0.0
 10
90.55657157859828
 20
-138.6451238542275
 30
0.0
 10
90.51176880196351
 20
-138.6003210764608
 30
0.0
 10
90.45666491448044
 20
-138.6003210764608
 30
0.0
 10
90.4015257492205
 20
-138.6003210764608
 30
0.0
 10
90.3567582503626
 20
-138.6451238542275
 30
0.0
 10
90.3567582503626
 20
-138.7002277431025
 30
0.0
 10
90.3567582503626
 20
-138.7553669097555
 30
0.0
 10
90.4015257492205
 20
-138.8001344097441
 30
0.0
 10
90.45666491448044
 20
-138.8001344097441
 30
0.0
 10
90.51176880196351
 20
-138.8001344097441
 30
0.0
 10
90.55657157859828
 20
-138.7553669097555
 30
0.0
 10
90.55657157859828
 20
-138.7002277431025
 30
0.0
  0
POLYLINE
  5
CA
330
1F
100
AcDbEntity
  8
_U+30EC_U+30A4_U+30E4_U+30FC 1
 62
   179
420
  2234388
370
     9
100
AcDb2dPolyline
 66
     1
 10
0.0
 20
0.0
 30
0.0
  0
VERTEX
  5
CB
330
CA
100
AcDbEntity
  8
_U+30EC_U+30A4_U+30E4_U+30FC 1
 62
   179
420
  2234388
370
     9
100
AcDbVertex
100
AcDb2dVertex
 10
90.45666491448044
 20
-131.6998113559639
 30
0.0
  0
VERTEX
  5
CC
330
CA
100
AcDbEntity
  8
_U+30EC_U+30A4_U+30E4_U+30FC 1
 62
   179
420
  2234388
370
     9
100
AcDbVertex
100
AcDb2dVertex
 10
90.45666491448044
 20
-139.7007055206305
 30
0.0
  0
SEQEND
  5
CD
330
CA
100
AcDbEntity
  8
_U+30EC_U+30A4_U+30E4_U+30FC 1
 62
   179
420
  2234388
370
     9
  0
INSERT
  5
CF
330
1F
100
AcDbEntity
  8
_U+30EC_U+30A4_U+30E4_U+30FC 1
100
AcDbBlockReference
  2
block 8
 10
0.0
 20
0.0
 30
0.0
  0
ENDSEC
  0
SECTION
  2
OBJECTS
  0
DICTIONARY
  5
C
330
0
100
AcDbDictionary
281
     1
  3
ACAD_GROUP
350
D
  3
ACAD_LAYOUT
350
1A
  3
ACAD_MATERIAL
350
3B
  3
ACAD_MLEADERSTYLE
350
DF
  3
ACAD_MLINESTYLE
350
17
  3
ACAD_PLOTSETTINGS
350
19
  3
ACAD_PLOTSTYLENAME
350
E
  3
ACAD_TABLESTYLE
350
DE
  3
ACAD_VISUALSTYLE
350
2A
  0
SUN
  5
3F
330
29
100
AcDbSun
 90
        1
290
     0
 63
     7
421
 16777215
 40
1.0
291
     1
 91
  2455826
 92
 54000000
292
     0
 70
     2
 71
   256
280
     1
  0
DICTIONARY
  5
D
102
{ACAD_REACTORS
330
C
102
}
330
C
100
AcDbDictionary
281
     1
  0
DICTIONARY
  5
1A
102
{ACAD_REACTORS
330
C
102
}
330
C
100
AcDbDictionary
281
     1
  3
Layout1
350
1E
  3
Layout2
350
26
  3
Model
350
22
  0
DICTIONARY
  5
3B
102
{ACAD_REACTORS
330
C
102
}
330
C
100
AcDbDictionary
281
     1
  3
ByBlock
350
3D
  3
ByLayer
350
3C
  3
Global
350
3E
  0
DICTIONARY
  5
DF
102
{ACAD_REACTORS
330
C
102
}
330
C
100
AcDbDictionary
281
     1
  0
DICTIONARY
  5
17
102
{ACAD_REACTORS
330
C
102
}
330
C
100
AcDbDictionary
281
     1
  3
Standard
350
18
  0
DICTIONARY
  5
19
102
{ACAD_REACTORS
330
C
102
}
330
C
100
AcDbDictionary
281
     1
  0
ACDBDICTIONARYWDFLT
  5
E
102
{ACAD_REACTORS
330
C
102
}
330
C
100
AcDbDictionary
281
     1
  3
Normal
350
F
100
AcDbDictionaryWithDefault
340
F
  0
DICTIONARY
  5
DE
102
{ACAD_REACTORS
330
C
102
}
330
C
100
AcDbDictionary
281
     1
  0
DICTIONARY
  5
2A
102
{ACAD_REACTORS
330
C
102
}
330
C
100
AcDbDictionary
281
     1
  3
2dWireframe
350
2F
  3
3D Hidden
350
31
  3
3dWireframe
350
30
  3
Basic
350
32
  3
Brighten
350
36
  3
ColorChange
350
3A
  3
Conceptual
350
34
  3
Dim
350
35
  3
Facepattern
350
39
  3
Flat
350
2B
  3
FlatWithEdges
350
2C
  3
Gouraud
350
2D
  3
GouraudWithEdges
350
2E
  3
Linepattern
350
38
  3
Realistic
350
33
  3
Thicken
350
37
  0
LAYOUT
  5
1E
102
{ACAD_REACTORS
330
1A
102
}
330
1A
100
AcDbPlotSettings
  1

  2
none_device
  4

  6

 40
0.0
 41
0.0
 42
0.0
 43
0.0
 44
0.0
 45
0.0
 46
0.0
 47
0.0
 48
0.0
 49
0.0
140
0.0
141
0.0
142
1.0
143
1.0
 70
   688
 72
     0
 73
     0
 74
     5
  7

 75
    16
 76
     0
 77
     2
 78
   300
147
1.0
148
0.0
149
0.0
100
AcDbLayout
  1
Layout1
 70
     1
 71
     1
 10
0.0
 20
0.0
 11
12.0
 21
9.0
 12
0.0
 22
0.0
 32
0.0
 14
1.000000000000000E+20
 24
1.000000000000000E+20
 34
1.000000000000000E+20
 15
-1.000000000000000E+20
 25
-1.000000000000000E+20
 35
-1.000000000000000E+20
146
0.0
 13
0.0
 23
0.0
 33
0.0
 16
1.0
 26
0.0
 36
0.0
 17
0.0
 27
1.0
 37
0.0
 76
     0
330
1B
  0
LAYOUT
  5
26
102
{ACAD_REACTORS
330
1A
102
}
330
1A
100
AcDbPlotSettings
  1

  2
none_device
  4

  6

 40
0.0
 41
0.0
 42
0.0
 43
0.0
 44
0.0
 45
0.0
 46
0.0
 47
0.0
 48
0.0
 49
0.0
140
0.0
141
0.0
142
1.0
143
1.0
 70
   688
 72
     0
 73
     0
 74
     5
  7

 75
    16
 76
     0
 77
     2
 78
   300
147
1.0
148
0.0
149
0.0
100
AcDbLayout
  1
Layout2
 70
     1
 71
     2
 10
0.0
 20
0.0
 11
0.0
 21
0.0
 12
0.0
 22
0.0
 32
0.0
 14
0.0
 24
0.0
 34
0.0
 15
0.0
 25
0.0
 35
0.0
146
0.0
 13
0.0
 23
0.0
 33
0.0
 16
1.0
 26
0.0
 36
0.0
 17
0.0
 27
1.0
 37
0.0
 76
     0
330
23
  0
LAYOUT
  5
22
102
{ACAD_REACTORS
330
1A
102
}
330
1A
100
AcDbPlotSettings
  1

  2
none_device
  4

  6

 40
0.0
 41
0.0
 42
0.0
 43
0.0
 44
0.0
 45
0.0
 46
0.0
 47
0.0
 48
0.0
 49
0.0
140
0.0
141
0.0
142
1.0
143
1.0
 70
  1712
 72
     0
 73
     0
 74
     0
  7

 75
     0
 76
     0
 77
     2
 78
   300
147
1.0
148
0.0
149
0.0
100
AcDbLayout
  1
Model
 70
     1
 71
     0
 10
0.0
 20
0.0
 11
12.0
 21
9.0
 12
0.0
 22
0.0
 32
0.0
 14
1.000000000000000E+20
 24
1.000000000000000E+20
 34
1.000000000000000E+20
 15
-1.000000000000000E+20
 25
-1.000000000000000E+20
 35
-1.000000000000000E+20
146
0.0
 13
0.0
 23
0.0
 33
0.0
 16
1.0
 26
0.0
 36
0.0
 17
0.0
 27
1.0
 37
0.0
 76
     0
330
1F
331
29
  0
MATERIAL
  5
3D
102
{ACAD_REACTORS
330
3B
102
}
330
3B
100
AcDbMaterial
  1
ByBlock
 72
     1
 94
      127
  0
MATERIAL
  5
3C
102
{ACAD_REACTORS
330
3B
102
}
330
3B
100
AcDbMaterial
  1
ByLayer
 72
     1
 94
      127
  0
MATERIAL
  5
3E
102
{ACAD_REACTORS
330
3B
102
}
330
3B
100
AcDbMaterial
  1
Global
 72
     1
 94
      127
  0
MLINESTYLE
  5
18
102
{ACAD_REACTORS
330
17
102
}
330
17
100
AcDbMlineStyle
  2
Standard
 70
     0
  3

 62
   256
 51
90.0
 52
90.0
 71
     2
 49
0.5
 62
   256
  6
BYLAYER
 49
-0.5
 62
   256
  6
BYLAYER
  0
ACDBPLACEHOLDER
  5
F
102
{ACAD_REACTORS
330
E
102
}
330
E
  0
VISUALSTYLE
  5
2F
102
{ACAD_REACTORS
330
2A
102
}
330
2A
100
AcDbVisualStyle
  2
2dWireframe
 70
     4
177
     2
291
     0
 71
     0
176
     1
 72
     2
176
     1
 73
     0
176
     1
 90
        0
176
     1
 40
-0.6
176
     1
 41
-30.0
176
     1
 62
     5
 63
     7
421
 16777215
176
     1
 74
     1
176
     1
 91
        4
176
     1
 64
     7
176
     1
 65
   257
176
     1
 75
     1
176
     1
175
     1
176
     1
 42
1.0
176
     1
 92
        0
176
     1
 66
   257
176
     1
 43
1.0
176
     1
 76
     1
176
     1
 77
     6
176
     1
 78
     2
176
     1
 67
     7
176
     1
 79
     5
176
     1
170
     0
176
     1
171
     0
176
     1
290
     0
176
     1
 93
        1
176
     1
 44
0.0
176
     1
173
     0
176
     1
  0
VISUALSTYLE
  5
31
102
{ACAD_REACTORS
330
2A
102
}
330
2A
100
AcDbVisualStyle
  2
3D Hidden
 70
     6
177
     2
291
     0
 71
     1
176
     1
 72
     2
176
     1
 73
     2
176
     1
 90
        0
176
     1
 40
-0.6
176
     1
 41
-30.0
176
     1
 62
     5
 63
     7
421
 16777215
176
     1
 74
     2
176
     1
 91
        2
176
     1
 64
     7
176
     1
 65
   257
176
     1
 75
     2
176
     1
175
     1
176
     1
 42
40.0
176
     1
 92
        0
176
     1
 66
   257
176
     1
 43
1.0
176
     1
 76
     1
176
     1
 77
     6
176
     1
 78
     2
176
     1
 67
     7
176
     1
 79
     3
176
     1
170
     0
176
     1
171
     0
176
     1
290
     0
176
     1
 93
        1
176
     1
 44
0.0
176
     1
173
     0
176
     1
  0
VISUALSTYLE
  5
30
102
{ACAD_REACTORS
330
2A
102
}
330
2A
100
AcDbVisualStyle
  2
3dWireframe
 70
     5
177
     2
291
     0
 71
     0
176
     1
 72
     2
176
     1
 73
     0
176
     1
 90
        0
176
     1
 40
-0.6
176
     1
 41
-30.0
176
     1
 62
     5
 63
     7
421
 16777215
176
     1
 74
     1
176
     1
 91
        4
176
     1
 64
     7
176
     1
 65
   257
176
     1
 75
     1
176
     1
175
     1
176
     1
 42
1.0
176
     1
 92
        0
176
     1
 66
   257
176
     1
 43
1.0
176
     1
 76
     1
176
     1
 77
     6
176
     1
 78
     2
176
     1
 67
     7
176
     1
 79
     5
176
     1
170
     0
176
     1
171
     0
176
     1
290
     0
176
     1
 93
        1
176
     1
 44
0.0
176
     1
173
     0
176
     1
  0
VISUALSTYLE
  5
32
102
{ACAD_REACTORS
330
2A
102
}
330
2A
100
AcDbVisualStyle
  2
Basic
 70
     7
177
     2
291
     1
 71
     1
176
     1
 72
     0
176
     1
 73
     1
176
     1
 90
        0
176
     1
 40
-0.6
176
     1
 41
-30.0
176
     1
 62
     5
 63
     7
421
 16777215
176
     1
 74
     0
176
     1
 91
        4
176
     1
 64
     7
176
     1
 65
   257
176
     1
 75
     1
176
     1
175
     1
176
     1
 42
1.0
176
     1
 92
        8
176
     1
 66
     7
176
     1
 43
1.0
176
     1
 76
     1
176
     1
 77
     6
176
     1
 78
     2
176
     1
 67
     7
176
     1
 79
     5
176
     1
170
     0
176
     1
171
     0
176
     1
290
     0
176
     1
 93
        1
176
     1
 44
0.0
176
     1
173
     0
176
     1
  0
VISUALSTYLE
  5
36
102
{ACAD_REACTORS
330
2A
102
}
330
2A
100
AcDbVisualStyle
  2
Brighten
 70
    12
177
     2
291
     1
 71
     2
176
     1
 72
     2
176
     1
 73
     0
176
     1
 90
        0
176
     1
 40
-0.6
176
     1
 41
-30.0
176
     1
 62
     5
 63
     7
421
 16777215
176
     1
 74
     1
176
     1
 91
        4
176
     1
 64
     7
176
     1
 65
   257
176
     1
 75
     1
176
     1
175
     1
176
     1
 42
1.0
176
     1
 92
        8
176
     1
 66
     7
176
     1
 43
1.0
176
     1
 76
     1
176
     1
 77
     6
176
     1
 78
     2
176
     1
 67
     7
176
     1
 79
     5
176
     1
170
     0
176
     1
171
     0
176
     1
290
     0
176
     1
 93
        1
176
     1
 44
50.0
176
     1
173
     0
176
     1
  0
VISUALSTYLE
  5
3A
102
{ACAD_REACTORS
330
2A
102
}
330
2A
100
AcDbVisualStyle
  2
ColorChange
 70
    16
177
     2
291
     1
 71
     2
176
     1
 72
     2
176
     1
 73
     3
176
     1
 90
        0
176
     1
 40
-0.6
176
     1
 41
-30.0
176
     1
 62
     5
 63
     8
421
  8421504
176
     1
 74
     1
176
     1
 91
        4
176
     1
 64
     7
176
     1
 65
   257
176
     1
 75
     1
176
     1
175
     1
176
     1
 42
1.0
176
     1
 92
        8
176
     1
 66
     8
424
  8421504
176
     1
 43
1.0
176
     1
 76
     1
176
     1
 77
     6
176
     1
 78
     2
176
     1
 67
     7
176
     1
 79
     5
176
     1
170
     0
176
     1
171
     0
176
     1
290
     0
176
     1
 93
        1
176
     1
 44
0.0
176
     1
173
     0
176
     1
  0
VISUALSTYLE
  5
34
102
{ACAD_REACTORS
330
2A
102
}
330
2A
100
AcDbVisualStyle
  2
Conceptual
 70
     9
177
     2
291
     0
 71
     3
176
     1
 72
     2
176
     1
 73
     0
176
     1
 90
        0
176
     1
 40
-0.6
176
     1
 41
-30.0
176
     1
 62
     5
 63
     7
421
 16777215
176
     1
 74
     2
176
     1
 91
        2
176
     1
 64
     7
176
     1
 65
   257
176
     1
 75
     1
176
     1
175
     1
176
     1
 42
40.0
176
     1
 92
        8
176
     1
 66
     7
176
     1
 43
1.0
176
     1
 76
     1
176
     1
 77
     6
176
     1
 78
     2
176
     1
 67
     7
176
     1
 79
     3
176
     1
170
     0
176
     1
171
     0
176
     1
290
     0
176
     1
 93
        1
176
     1
 44
0.0
176
     1
173
     0
176
     1
  0
VISUALSTYLE
  5
35
102
{ACAD_REACTORS
330
2A
102
}
330
2A
100
AcDbVisualStyle
  2
Dim
 70
    11
177
     2
291
     1
 71
     2
176
     1
 72
     2
176
     1
 73
     0
176
     1
 90
        0
176
     1
 40
-0.6
176
     1
 41
-30.0
176
     1
 62
     5
 63
     7
421
 16777215
176
     1
 74
     1
176
     1
 91
        4
176
     1
 64
     7
176
     1
 65
   257
176
     1
 75
     1
176
     1
175
     1
176
     1
 42
1.0
176
     1
 92
        8
176
     1
 66
     7
176
     1
 43
1.0
176
     1
 76
     1
176
     1
 77
     6
176
     1
 78
     2
176
     1
 67
     7
176
     1
 79
     5
176
     1
170
     0
176
     1
171
     0
176
     1
290
     0
176
     1
 93
        1
176
     1
 44
-50.0
176
     1
173
     0
176
     1
  0
VISUALSTYLE
  5
39
102
{ACAD_REACTORS
330
2A
102
}
330
2A
100
AcDbVisualStyle
  2
Facepattern
 70
    15
177
     2
291
     1
 71
     2
176
     1
 72
     2
176
     1
 73
     0
176
     1
 90
        0
176
     1
 40
-0.6
176
     1
 41
-30.0
176
     1
 62
     5
 63
     7
421
 16777215
176
     1
 74
     1
176
     1
 91
        4
176
     1
 64
     7
176
     1
 65
   257
176
     1
 75
     1
176
     1
175
     1
176
     1
 42
1.0
176
     1
 92
        8
176
     1
 66
     7
176
     1
 43
1.0
176
     1
 76
     1
176
     1
 77
     6
176
     1
 78
     2
176
     1
 67
     7
176
     1
 79
     5
176
     1
170
     0
176
     1
171
     0
176
     1
290
     0
176
     1
 93
        1
176
     1
 44
0.0
176
     1
173
     0
176
     1
  0
VISUALSTYLE
  5
2B
102
{ACAD_REACTORS
330
2A
102
}
330
2A
100
AcDbVisualStyle
  2
Flat
 70
     0
177
     2
291
     1
 71
     2
176
     1
 72
     1
176
     1
 73
     1
176
     1
 90
        2
176
     1
 40
-0.6
176
     1
 41
30.0
176
     1
 62
     5
 63
     7
421
 16777215
176
     1
 74
     0
176
     1
 91
        4
176
     1
 64
     7
176
     1
 65
   257
176
     1
 75
     1
176
     1
175
     1
176
     1
 42
1.0
176
     1
 92
        8
176
     1
 66
     7
176
     1
 43
1.0
176
     1
 76
     1
176
     1
 77
     6
176
     1
 78
     2
176
     1
 67
     7
176
     1
 79
     5
176
     1
170
     0
176
     1
171
     0
176
     1
290
     0
176
     1
 93
       13
176
     1
 44
0.0
176
     1
173
     0
176
     1
  0
VISUALSTYLE
  5
2C
102
{ACAD_REACTORS
330
2A
102
}
330
2A
100
AcDbVisualStyle
  2
FlatWithEdges
 70
     1
177
     2
291
     1
 71
     2
176
     1
 72
     1
176
     1
 73
     1
176
     1
 90
        2
176
     1
 40
-0.6
176
     1
 41
30.0
176
     1
 62
     5
 63
     7
421
 16777215
176
     1
 74
     1
176
     1
 91
        4
176
     1
 64
     7
176
     1
 65
   257
176
     1
 75
     1
176
     1
175
     1
176
     1
 42
1.0
176
     1
 92
        0
176
     1
 66
   257
176
     1
 43
1.0
176
     1
 76
     1
176
     1
 77
     6
176
     1
 78
     2
176
     1
 67
     7
176
     1
 79
     5
176
     1
170
     0
176
     1
171
     0
176
     1
290
     0
176
     1
 93
       13
176
     1
 44
0.0
176
     1
173
     0
176
     1
  0
VISUALSTYLE
  5
2D
102
{ACAD_REACTORS
330
2A
102
}
330
2A
100
AcDbVisualStyle
  2
Gouraud
 70
     2
177
     2
291
     1
 71
     2
176
     1
 72
     2
176
     1
 73
     1
176
     1
 90
        2
176
     1
 40
-0.6
176
     1
 41
30.0
176
     1
 62
     5
 63
     7
421
 16777215
176
     1
 74
     0
176
     1
 91
        4
176
     1
 64
     7
176
     1
 65
   257
176
     1
 75
     1
176
     1
175
     1
176
     1
 42
1.0
176
     1
 92
        0
176
     1
 66
     7
176
     1
 43
1.0
176
     1
 76
     1
176
     1
 77
     6
176
     1
 78
     2
176
     1
 67
     7
176
     1
 79
     5
176
     1
170
     0
176
     1
171
     0
176
     1
290
     0
176
     1
 93
       13
176
     1
 44
0.0
176
     1
173
     0
176
     1
  0
VISUALSTYLE
  5
2E
102
{ACAD_REACTORS
330
2A
102
}
330
2A
100
AcDbVisualStyle
  2
GouraudWithEdges
 70
     3
177
     2
291
     1
 71
     2
176
     1
 72
     2
176
     1
 73
     1
176
     1
 90
        2
176
     1
 40
-0.6
176
     1
 41
30.0
176
     1
 62
     5
 63
     7
421
 16777215
176
     1
 74
     1
176
     1
 91
        4
176
     1
 64
     7
176
     1
 65
   257
176
     1
 75
     1
176
     1
175
     1
176
     1
 42
1.0
176
     1
 92
        0
176
     1
 66
   257
176
     1
 43
1.0
176
     1
 76
     1
176
     1
 77
     6
176
     1
 78
     2
176
     1
 67
     7
176
     1
 79
     5
176
     1
170
     0
176
     1
171
     0
176
     1
290
     0
176
     1
 93
       13
176
     1
 44
0.0
176
     1
173
     0
176
     1
  0
VISUALSTYLE
  5
38
102
{ACAD_REACTORS
330
2A
102
}
330
2A
100
AcDbVisualStyle
  2
Linepattern
 70
    14
177
     2
291
     1
 71
     2
176
     1
 72
     2
176
     1
 73
     0
176
     1
 90
        0
176
     1
 40
-0.6
176
     1
 41
-30.0
176
     1
 62
     5
 63
     7
421
 16777215
176
     1
 74
     1
176
     1
 91
        4
176
     1
 64
     7
176
     1
 65
   257
176
     1
 75
     7
176
     1
175
     7
176
     1
 42
1.0
176
     1
 92
        8
176
     1
 66
     7
176
     1
 43
1.0
176
     1
 76
     1
176
     1
 77
     6
176
     1
 78
     2
176
     1
 67
     7
176
     1
 79
     5
176
     1
170
     0
176
     1
171
     0
176
     1
290
     0
176
     1
 93
        1
176
     1
 44
0.0
176
     1
173
     0
176
     1
  0
VISUALSTYLE
  5
33
102
{ACAD_REACTORS
330
2A
102
}
330
2A
100
AcDbVisualStyle
  2
Realistic
 70
     8
177
     2
291
     0
 71
     2
176
     1
 72
     2
176
     1
 73
     0
176
     1
 90
        0
176
     1
 40
-0.6
176
     1
 41
-30.0
176
     1
 62
     5
 63
     7
421
 16777215
176
     1
 74
     1
176
     1
 91
        0
176
     1
 64
     7
176
     1
 65
   257
176
     1
 75
     1
176
     1
175
     1
176
     1
 42
1.0
176
     1
 92
        8
176
     1
 66
     8
424
  7895160
176
     1
 43
1.0
176
     1
 76
     1
176
     1
 77
     6
176
     1
 78
     2
176
     1
 67
     7
176
     1
 79
     5
176
     1
170
     0
176
     1
171
     0
176
     1
290
     0
176
     1
 93
       13
176
     1
 44
0.0
176
     1
173
     0
176
     1
  0
VISUALSTYLE
  5
37
102
{ACAD_REACTORS
330
2A
102
}
330
2A
100
AcDbVisualStyle
  2
Thicken
 70
    13
177
     2
291
     1
 71
     2
176
     1
 72
     2
176
     1
 73
     0
176
     1
 90
        0
176
     1
 40
-0.6
176
     1
 41
-30.0
176
     1
 62
     5
 63
     7
421
 16777215
176
     1
 74
     1
176
     1
 91
        4
176
     1
 64
     7
176
     1
 65
   257
176
     1
 75
     1
176
     1
175
     1
176
     1
 42
1.0
176
     1
 92
       12
176
     1
 66
     7
176
     1
 43
1.0
176
     1
 76
     1
176
     1
 77
     6
176
     1
 78
     2
176
     1
 67
     7
176
     1
 79
     5
176
     1
170
     0
176
     1
171
     0
176
     1
290
     0
176
     1
 93
        1
176
     1
 44
0.0
176
     1
173
     0
176
     1
  0
ENDSEC
  0
EOF
