  0
SECTION
  2
HEADER
  9
$ACADVER
  1
AC1024
  9
$ACADMAINTVER
 70
     6
  9
$DWGCODEPAGE
  3
UNDEFINED
  9
$INSBASE
 10
0.0
 20
0.0
 30
0.0
  9
$EXTMIN
 10
1.000000000000000E+20
 20
1.000000000000000E+20
 30
1.000000000000000E+20
  9
$EXTMAX
 10
-1.000000000000000E+20
 20
-1.000000000000000E+20
 30
-1.000000000000000E+20
  9
$LIMMIN
 10
0.0
 20
0.0
  9
$LIMMAX
 10
12.0
 20
9.0
  9
$ORTHOMODE
 70
     0
  9
$REGENMODE
 70
     1
  9
$FILLMODE
 70
     1
  9
$QTEXTMODE
 70
     0
  9
$MIRRTEXT
 70
     1
  9
$LTSCALE
 40
1.0
  9
$ATTMODE
 70
     1
  9
$TEXTSIZE
 40
0.2
  9
$TRACEWID
 40
0.05
  9
$TEXTSTYLE
  7
Standard
  9
$CLAYER
  8
0
  9
$CELTYPE
  6
ByLayer
  9
$CECOLOR
 62
   256
  9
$CELTSCALE
 40
1.0
  9
$DISPSILH
 70
     0
  9
$DIMSCALE
 40
1.0
  9
$DIMASZ
 40
0.18
  9
$DIMEXO
 40
0.0625
  9
$DIMDLI
 40
0.38
  9
$DIMRND
 40
0.0
  9
$DIMDLE
 40
0.0
  9
$DIMEXE
 40
0.18
  9
$DIMTP
 40
0.0
  9
$DIMTM
 40
0.0
  9
$DIMTXT
 40
0.18
  9
$DIMCEN
 40
0.09
  9
$DIMTSZ
 40
0.0
  9
$DIMTOL
 70
     0
  9
$DIMLIM
 70
     0
  9
$DIMTIH
 70
     1
  9
$DIMTOH
 70
     1
  9
$DIMSE1
 70
     0
  9
$DIMSE2
 70
     0
  9
$DIMTAD
 70
     0
  9
$DIMZIN
 70
     0
  9
$DIMBLK
  1

  9
$DIMASO
 70
     1
  9
$DIMSHO
 70
     1
  9
$DIMPOST
  1

  9
$DIMAPOST
  1

  9
$DIMALT
 70
     0
  9
$DIMALTD
 70
     2
  9
$DIMALTF
 40
25.4
  9
$DIMLFAC
 40
1.0
  9
$DIMTOFL
 70
     0
  9
$DIMTVP
 40
0.0
  9
$DIMTIX
 70
     0
  9
$DIMSOXD
 70
     0
  9
$DIMSAH
 70
     0
  9
$DIMBLK1
  1

  9
$DIMBLK2
  1

  9
$DIMSTYLE
  2
Standard
  9
$DIMCLRD
 70
     0
  9
$DIMCLRE
 70
     0
  9
$DIMCLRT
 70
     0
  9
$DIMTFAC
 40
1.0
  9
$DIMGAP
 40
0.09
  9
$DIMJUST
 70
     0
  9
$DIMSD1
 70
     0
  9
$DIMSD2
 70
     0
  9
$DIMTOLJ
 70
     1
  9
$DIMTZIN
 70
     0
  9
$DIMALTZ
 70
     0
  9
$DIMALTTZ
 70
     0
  9
$DIMUPT
 70
     0
  9
$DIMDEC
 70
     4
  9
$DIMTDEC
 70
     4
  9
$DIMALTU
 70
     2
  9
$DIMALTTD
 70
     2
  9
$DIMTXSTY
  7
Standard
  9
$DIMAUNIT
 70
     0
  9
$DIMADEC
 70
     0
  9
$DIMALTRND
 40
0.0
  9
$DIMAZIN
 70
     0
  9
$DIMDSEP
 70
    46
  9
$DIMATFIT
 70
     3
  9
$DIMFRAC
 70
     0
  9
$DIMLDRBLK
  1

  9
$DIMLUNIT
 70
     2
  9
$DIMLWD
 70
    -2
  9
$DIMLWE
 70
    -2
  9
$DIMTMOVE
 70
     0
  9
$DIMFXL
 40
1.0
  9
$DIMFXLON
 70
     0
  9
$DIMJOGANG
 40
0.7853981633974483
  9
$DIMTFILL
 70
     0
  9
$DIMTFILLCLR
 70
     0
  9
$DIMARCSYM
 70
     0
  9
$DIMLTYPE
  6

  9
$DIMLTEX1
  6

  9
$DIMLTEX2
  6

  9
$DIMTXTDIRECTION
 70
     0
  9
$LUNITS
 70
     2
  9
$LUPREC
 70
     4
  9
$SKETCHINC
 40
0.1
  9
$FILLETRAD
 40
0.5
  9
$AUNITS
 70
     0
  9
$AUPREC
 70
     0
  9
$MENU
  1
.
  9
$ELEVATION
 40
0.0
  9
$PELEVATION
 40
0.0
  9
$THICKNESS
 40
0.0
  9
$LIMCHECK
 70
     0
  9
$CHAMFERA
 40
0.5
  9
$CHAMFERB
 40
0.5
  9
$CHAMFERC
 40
1.0
  9
$CHAMFERD
 40
0.0
  9
$SKPOLY
 70
     0
  9
$TDCREATE
 40
2457917.631967581
  9
$TDUCREATE
 40
2457917.256967593
  9
$TDUPDATE
 40
2457917.631967581
  9
$TDUUPDATE
 40
2457917.256967593
  9
$TDINDWG
 40
0.0000000116
  9
$TDUSRTIMER
 40
0.0000000116
  9
$USRTIMER
 70
     1
  9
$ANGBASE
 50
0.0
  9
$ANGDIR
 70
     0
  9
$PDMODE
 70
     0
  9
$PDSIZE
 40
0.0
  9
$PLINEWID
 40
0.0
  9
$SPLFRAME
 70
     0
  9
$SPLINETYPE
 70
     6
  9
$SPLINESEGS
 70
     8
  9
$HANDSEED
  5
B9
  9
$SURFTAB1
 70
     6
  9
$SURFTAB2
 70
     6
  9
$SURFTYPE
 70
     6
  9
$SURFU
 70
     6
  9
$SURFV
 70
     6
  9
$UCSBASE
  2

  9
$UCSNAME
  2

  9
$UCSORG
 10
0.0
 20
0.0
 30
0.0
  9
$UCSXDIR
 10
1.0
 20
0.0
 30
0.0
  9
$UCSYDIR
 10
0.0
 20
1.0
 30
0.0
  9
$UCSORTHOREF
  2

  9
$UCSORTHOVIEW
 70
     0
  9
$UCSORGTOP
 10
0.0
 20
0.0
 30
0.0
  9
$UCSORGBOTTOM
 10
0.0
 20
0.0
 30
0.0
  9
$UCSORGLEFT
 10
0.0
 20
0.0
 30
0.0
  9
$UCSORGRIGHT
 10
0.0
 20
0.0
 30
0.0
  9
$UCSORGFRONT
 10
0.0
 20
0.0
 30
0.0
  9
$UCSORGBACK
 10
0.0
 20
0.0
 30
0.0
  9
$PUCSBASE
  2

  9
$PUCSNAME
  2

  9
$PUCSORG
 10
0.0
 20
0.0
 30
0.0
  9
$PUCSXDIR
 10
1.0
 20
0.0
 30
0.0
  9
$PUCSYDIR
 10
0.0
 20
1.0
 30
0.0
  9
$PUCSORTHOREF
  2

  9
$PUCSORTHOVIEW
 70
     0
  9
$PUCSORGTOP
 10
0.0
 20
0.0
 30
0.0
  9
$PUCSORGBOTTOM
 10
0.0
 20
0.0
 30
0.0
  9
$PUCSORGLEFT
 10
0.0
 20
0.0
 30
0.0
  9
$PUCSORGRIGHT
 10
0.0
 20
0.0
 30
0.0
  9
$PUCSORGFRONT
 10
0.0
 20
0.0
 30
0.0
  9
$PUCSORGBACK
 10
0.0
 20
0.0
 30
0.0
  9
$USERI1
 70
     0
  9
$USERI2
 70
     0
  9
$USERI3
 70
     0
  9
$USERI4
 70
     0
  9
$USERI5
 70
     0
  9
$USERR1
 40
0.0
  9
$USERR2
 40
0.0
  9
$USERR3
 40
0.0
  9
$USERR4
 40
0.0
  9
$USERR5
 40
0.0
  9
$WORLDVIEW
 70
     1
  9
$SHADEDGE
 70
     3
  9
$SHADEDIF
 70
    70
  9
$TILEMODE
 70
     1
  9
$MAXACTVP
 70
    64
  9
$PINSBASE
 10
0.0
 20
0.0
 30
0.0
  9
$PLIMCHECK
 70
     0
  9
$PEXTMIN
 10
1.000000000000000E+20
 20
1.000000000000000E+20
 30
1.000000000000000E+20
  9
$PEXTMAX
 10
-1.000000000000000E+20
 20
-1.000000000000000E+20
 30
-1.000000000000000E+20
  9
$PLIMMIN
 10
0.0
 20
0.0
  9
$PLIMMAX
 10
12.0
 20
9.0
  9
$UNITMODE
 70
     0
  9
$VISRETAIN
 70
     1
  9
$PLINEGEN
 70
     0
  9
$PSLTSCALE
 70
     1
  9
$TREEDEPTH
 70
  3020
  9
$CMLSTYLE
  2
Standard
  9
$CMLJUST
 70
     0
  9
$CMLSCALE
 40
1.0
  9
$PROXYGRAPHICS
 70
     1
  9
$MEASUREMENT
 70
     0
  9
$CELWEIGHT
370
    -1
  9
$ENDCAPS
280
     0
  9
$JOINSTYLE
280
     0
  9
$LWDISPLAY
290
     1
  9
$INSUNITS
 70
     1
  9
$HYPERLINKBASE
  1

  9
$STYLESHEET
  1

  9
$XEDIT
290
     1
  9
$CEPSNTYPE
380
     0
  9
$PSTYLEMODE
290
     1
  9
$FINGERPRINTGUID
  2
{EF29E2EE-238C-EE35-F2AE-EDAB8D45730D}
  9
$VERSIONGUID
  2
{FAEB1C32-E019-11D5-929B-00C0DF256EC4}
  9
$EXTNAMES
290
     1
  9
$PSVPSCALE
 40
0.0
  9
$OLESTARTUP
290
     0
  9
$SORTENTS
280
   127
  9
$INDEXCTL
280
     0
  9
$HIDETEXT
280
     1
  9
$XCLIPFRAME
280
     2
  9
$HALOGAP
280
     0
  9
$OBSCOLOR
 70
   257
  9
$OBSLTYPE
280
     0
  9
$INTERSECTIONDISPLAY
280
     0
  9
$INTERSECTIONCOLOR
 70
   257
  9
$DIMASSOC
280
     2
  9
$PROJECTNAME
  1

  9
$CAMERADISPLAY
290
     0
  9
$LENSLENGTH
 40
50.0
  9
$CAMERAHEIGHT
 40
0.0
  9
$STEPSPERSEC
 40
2.0
  9
$STEPSIZE
 40
6.0
  9
$3DDWFPREC
 40
2.0
  9
$PSOLWIDTH
 40
0.25
  9
$PSOLHEIGHT
 40
4.0
  9
$LOFTANG1
 40
1.570796326794897
  9
$LOFTANG2
 40
1.570796326794897
  9
$LOFTMAG1
 40
0.0
  9
$LOFTMAG2
 40
0.0
  9
$LOFTPARAM
 70
     7
  9
$LOFTNORMALS
280
     1
  9
$LATITUDE
 40
37.795
  9
$LONGITUDE
 40
-122.394
  9
$NORTHDIRECTION
 40
0.0
  9
$TIMEZONE
 70
 -8000
  9
$LIGHTGLYPHDISPLAY
280
     1
  9
$TILEMODELIGHTSYNCH
280
     1
  9
$CMATERIAL
347
3C
  9
$SOLIDHIST
280
     1
  9
$SHOWHIST
280
     1
  9
$DWFFRAME
280
     2
  9
$DGNFRAME
280
     2
  9
$REALWORLDSCALE
290
     1
  9
$INTERFERECOLOR
 62
   256
  9
$CSHADOW
280
     0
  9
$SHADOWPLANELOCATION
 40
0.0
  0
ENDSEC
  0
SECTION
  2
CLASSES
  0
CLASS
  1
ACDBDICTIONARYWDFLT
  2
AcDbDictionaryWithDefault
  3
ObjectDBX Classes
 90
        0
 91
        4
280
     0
281
     0
  0
CLASS
  1
VISUALSTYLE
  2
AcDbVisualStyle
  3
ObjectDBX Classes
 90
     4095
 91
        4
280
     0
281
     0
  0
CLASS
  1
MATERIAL
  2
AcDbMaterial
  3
ObjectDBX Classes
 90
     1153
 91
        4
280
     0
281
     0
  0
CLASS
  1
SUN
  2
AcDbSun
  3
SCENEOE
 90
     1024
 91
        4
280
     0
281
     0
  0
ENDSEC
  0
SECTION
  2
TABLES
  0
TABLE
  2
VPORT
  5
8
330
0
100
AcDbSymbolTable
 70
     1
  0
VPORT
  5
29
330
8
100
AcDbSymbolTableRecord
100
AcDbViewportTableRecord
  2
*Active
 70
     0
 10
0.0
 20
0.0
 11
1.0
 21
1.0
 12
0.0
 22
0.0
 13
0.0
 23
0.0
 14
0.5
 24
0.5
 15
0.5
 25
0.5
 16
0.0
 26
0.0
 36
1.0
 17
91.00082462281999
 27
-128.4993055234307
 37
0.0
 40
256.9986110468615
 41
0.7081814508812795
 42
50.0
 43
0.0
 44
0.0
 50
0.0
 51
0.0
 71
     0
 72
   100
 73
     1
 74
     3
 75
     0
 76
     0
 77
     0
 78
     0
281
     0
 65
     1
110
0.0
120
0.0
130
0.0
111
1.0
121
0.0
131
0.0
112
0.0
122
1.0
132
0.0
 79
     0
146
0.0
 60
     3
 61
     5
292
     1
282
     1
141
0.0
142
0.0
 63
   250
361
3F
  0
ENDTAB
  0
TABLE
  2
LTYPE
  5
5
330
0
100
AcDbSymbolTable
 70
     1
  0
LTYPE
  5
14
330
5
100
AcDbSymbolTableRecord
100
AcDbLinetypeTableRecord
  2
ByBlock
 70
     0
  3

 72
    65
 73
     0
 40
0.0
  0
LTYPE
  5
15
330
5
100
AcDbSymbolTableRecord
100
AcDbLinetypeTableRecord
  2
ByLayer
 70
     0
  3

 72
    65
 73
     0
 40
0.0
  0
LTYPE
  5
16
330
5
100
AcDbSymbolTableRecord
100
AcDbLinetypeTableRecord
  2
Continuous
 70
     0
  3
Solid line
 72
    65
 73
     0
 40
0.0
  0
ENDTAB
  0
TABLE
  2
LAYER
  5
2
330
0
100
AcDbSymbolTable
 70
     2
  0
LAYER
  5
10
330
2
100
AcDbSymbolTableRecord
100
AcDbLayerTableRecord
  2
0
 70
     0
 62
     7
  6
Continuous
370
    -3
390
F
347
3E
  0
LAYER
  5
40
330
2
100
AcDbSymbolTableRecord
100
AcDbLayerTableRecord
  2
_U+30EC_U+30A4_U+30E4_U+30FC 1
 70
     0
 62
     7
  6
Continuous
370
    -3
390
F
347
3E
  0
ENDTAB
  0
TABLE
  2
STYLE
  5
3
330
0
100
AcDbSymbolTable
 70
     1
  0
STYLE
  5
11
330
3
100
AcDbSymbolTableRecord
100
AcDbTextStyleTableRecord
  2
Standard
 70
     0
 40
0.0
 41
1.0
 50
0.0
 71
     0
 42
0.2
  3
txt
  4

  0
ENDTAB
  0
TABLE
  2
VIEW
  5
6
330
0
100
AcDbSymbolTable
 70
     0
  0
ENDTAB
  0
TABLE
  2
UCS
  5
7
330
0
100
AcDbSymbolTable
 70
     0
  0
ENDTAB
  0
TABLE
  2
APPID
  5
9
330
0
100
AcDbSymbolTable
 70
     1
  0
APPID
  5
12
330
9
100
AcDbSymbolTableRecord
100
AcDbRegAppTableRecord
  2
ACAD
 70
     0
  0
ENDTAB
  0
TABLE
  2
DIMSTYLE
  5
A
330
0
100
AcDbSymbolTable
 70
     1
100
AcDbDimStyleTable
  0
DIMSTYLE
105
27
330
A
100
AcDbSymbolTableRecord
100
AcDbDimStyleTableRecord
  2
Standard
 70
     0
178
     0
340
11
  0
ENDTAB
  0
TABLE
  2
BLOCK_RECORD
  5
1
330
0
100
AcDbSymbolTable
 70
     6
  0
BLOCK_RECORD
  5
1F
330
1
100
AcDbSymbolTableRecord
100
AcDbBlockTableRecord
  2
*Model_Space
340
22
 70
     0
280
     1
281
     0
  0
BLOCK_RECORD
  5
1B
330
1
100
AcDbSymbolTableRecord
100
AcDbBlockTableRecord
  2
*Paper_Space
340
1E
 70
     0
280
     1
281
     0
  0
BLOCK_RECORD
  5
23
330
1
100
AcDbSymbolTableRecord
100
AcDbBlockTableRecord
  2
*Paper_Space0
340
26
 70
     0
280
     1
281
     0
  0
BLOCK_RECORD
  5
43
330
1
100
AcDbSymbolTableRecord
100
AcDbBlockTableRecord
  2
block 2
340
0
102
{BLKREFS
331
44
102
}
 70
     0
280
     1
281
     0
  0
BLOCK_RECORD
  5
6C
330
1
100
AcDbSymbolTableRecord
100
AcDbBlockTableRecord
  2
block 3
340
0
102
{BLKREFS
331
6D
102
}
 70
     0
280
     1
281
     0
  0
BLOCK_RECORD
  5
7E
330
1
100
AcDbSymbolTableRecord
100
AcDbBlockTableRecord
  2
block 4
340
0
102
{BLKREFS
331
7F
102
}
 70
     0
280
     1
281
     0
  0
BLOCK_RECORD
  5
85
330
1
100
AcDbSymbolTableRecord
100
AcDbBlockTableRecord
  2
block 5
340
0
102
{BLKREFS
331
86
102
}
 70
     0
280
     1
281
     0
  0
BLOCK_RECORD
  5
A1
330
1
100
AcDbSymbolTableRecord
100
AcDbBlockTableRecord
  2
block 6
340
0
102
{BLKREFS
331
A2
102
}
 70
     0
280
     1
281
     0
  0
ENDTAB
  0
ENDSEC
  0
SECTION
  2
BLOCKS
  0
BLOCK
  5
20
330
1F
100
AcDbEntity
  8
0
100
AcDbBlockBegin
  2
*Model_Space
 70
     0
 10
0.0
 20
0.0
 30
0.0
  3
*Model_Space
  1

  0
ENDBLK
  5
21
330
1F
100
AcDbEntity
  8
0
100
AcDbBlockEnd
  0
BLOCK
  5
1C
330
1B
100
AcDbEntity
 67
     1
  8
0
100
AcDbBlockBegin
  2
*Paper_Space
 70
     0
 10
0.0
 20
0.0
 30
0.0
  3
*Paper_Space
  1

  0
ENDBLK
  5
1D
330
1B
100
AcDbEntity
 67
     1
  8
0
100
AcDbBlockEnd
  0
BLOCK
  5
24
330
23
100
AcDbEntity
  8
0
100
AcDbBlockBegin
  2
*Paper_Space0
 70
     0
 10
0.0
 20
0.0
 30
0.0
  3
*Paper_Space0
  1

  0
ENDBLK
  5
25
330
23
100
AcDbEntity
  8
0
100
AcDbBlockEnd
  0
BLOCK
  5
45
330
43
100
AcDbEntity
  8
0
100
AcDbBlockBegin
  2
block 2
 70
     0
 10
0.0
 20
0.0
 30
0.0
  3
block 2
  1

  0
SPLINE
  5
47
330
43
100
AcDbEntity
  8
_U+30EC_U+30A4_U+30E4_U+30FC 1
370
     0
100
AcDbSpline
210
0.0
220
0.0
230
1.0
 70
    11
 71
     3
 72
    62
 73
    58
 74
     0
 42
0.0000000001
 43
0.0000000001
 12
1.0
 22
0.0
 32
0.0
 13
1.0
 23
0.0
 33
0.0
 40
0.0
 40
0.0
 40
0.0
 40
0.0
 40
1.0
 40
1.0
 40
1.0
 40
2.0
 40
2.0
 40
2.0
 40
3.0
 40
3.0
 40
3.0
 40
4.0
 40
4.0
 40
4.0
 40
5.0
 40
5.0
 40
5.0
 40
6.0
 40
6.0
 40
6.0
 40
7.0
 40
7.0
 40
7.0
 40
8.0
 40
8.0
 40
8.0
 40
9.0
 40
9.0
 40
9.0
 40
10.0
 40
10.0
 40
10.0
 40
11.0
 40
11.0
 40
11.0
 40
12.0
 40
12.0
 40
12.0
 40
13.0
 40
13.0
 40
13.0
 40
14.0
 40
14.0
 40
14.0
 40
15.0
 40
15.0
 40
15.0
 40
16.0
 40
16.0
 40
16.0
 40
17.0
 40
17.0
 40
17.0
 40
18.0
 40
18.0
 40
18.0
 40
19.0
 40
19.0
 40
19.0
 40
19.0
 10
82.7856445105536
 20
-130.4485405489851
 30
0.0
 10
82.7856445105536
 20
-130.5501708658
 30
0.0
 10
82.76462942809357
 20
-130.7830593206029
 30
0.0
 10
82.57859427189008
 20
-130.916384515882
 30
0.0
 10
82.46628415907094
 20
-130.9956217120428
 30
0.0
 10
82.36706540909574
 20
-131.0001003361736
 30
0.0
 10
82.28231606015859
 20
-131.0045789603044
 30
0.0
 10
82.28231606015859
 20
-131.0045789603044
 30
0.0
 10
82.28231606015859
 20
-130.7696234482104
 30
0.0
 10
82.28231606015859
 20
-130.7696234482104
 30
0.0
 10
82.35638561309146
 20
-130.7672118813707
 30
0.0
 10
82.59099661563698
 20
-130.7558430662694
 30
0.0
 10
82.59099661563698
 20
-130.4530191731159
 30
0.0
 10
82.59099661563698
 20
-130.3059135958958
 30
0.0
 10
82.52140568683492
 20
-130.143305088992
 30
0.0
 10
82.29299585616286
 20
-130.143305088992
 30
0.0
 10
82.17655162876142
 20
-130.143305088992
 30
0.0
 10
82.1279757824194
 20
-130.1839572157179
 30
0.0
 10
82.0962809039551
 20
-130.2177191514733
 30
0.0
 10
82.02221135102224
 20
-130.2969563476341
 30
0.0
 10
82.00946449772681
 20
-130.4213242946516
 30
0.0
 10
82.00946449772681
 20
-130.4802354274494
 30
0.0
 10
82.00946449772681
 20
-130.5005614908124
 30
0.0
 10
82.01153155501795
 20
-130.5388020506986
 30
0.0
 10
82.01566566960025
 20
-130.5684298718718
 30
0.0
 10
82.01566566960025
 20
-130.5684298718718
 30
0.0
 10
81.82101777468364
 20
-130.5684298718718
 30
0.0
 10
81.82101777468364
 20
-130.5684298718718
 30
0.0
 10
81.82756345610561
 20
-130.5277777451458
 30
0.0
 10
81.82963051339676
 20
-130.4823024847405
 30
0.0
 10
81.82963051339676
 20
-130.4757568033186
 30
0.0
 10
81.82963051339676
 20
-130.4054768554195
 30
0.0
 10
81.80827092138821
 20
-130.1929144639795
 30
0.0
 10
81.57159286155155
 20
-130.1929144639795
 30
0.0
 10
81.39382593451266
 20
-130.1929144639795
 30
0.0
 10
81.33870440674866
 20
-130.3331298502292
 30
0.0
 10
81.33870440674866
 20
-130.4506076062762
 30
0.0
 10
81.33870440674866
 20
-130.7334499456153
 30
0.0
 10
81.57159286155155
 20
-130.7424071938769
 30
0.0
 10
81.64325084764475
 20
-130.7468858180077
 30
0.0
 10
81.64325084764475
 20
-130.7468858180077
 30
0.0
 10
81.64325084764475
 20
-130.9639268335785
 30
0.0
 10
81.64325084764475
 20
-130.9639268335785
 30
0.0
 10
81.5185383910787
 20
-130.9549695853168
 30
0.0
 10
81.14198945454089
 20
-130.9256862736922
 30
0.0
 10
81.14198945454089
 20
-130.4371717338838
 30
0.0
 10
81.14198945454089
 20
-130.1973930881104
 30
0.0
 10
81.26911347794662
 20
-129.9396999458137
 30
0.0
 10
81.56504718012958
 20
-129.9396999458137
 30
0.0
 10
81.7514268458816
 20
-129.9396999458137
 30
0.0
 10
81.83376462797906
 20
-130.0416747721771
 30
0.0
 10
81.89508732761651
 20
-130.1477837131228
 30
0.0
 10
81.9226480914985
 20
-130.082326898903
 30
0.0
 10
82.00291881630483
 20
-129.8876790039864
 30
0.0
 10
82.28024900286744
 20
-129.8876790039864
 30
0.0
 10
82.61855737951898
 20
-129.8876790039864
 30
0.0
 10
82.7856445105536
 20
-130.1522623372536
 30
0.0
 10
82.7856445105536
 20
-130.4485405489851
 30
0.0
  0
HATCH
  5
48
330
43
100
AcDbEntity
  8
_U+30EC_U+30A4_U+30E4_U+30FC 1
 62
   179
420
  2234388
100
AcDbHatch
 10
0.0
 20
0.0
 30
0.0
210
0.0
220
0.0
230
1.0
  2
SOLID
 70
     1
 71
     0
 91
        1
 92
        1
 93
        1
 72
     4
 94
        3
 73
     0
 74
     1
 95
       62
 96
       58
 40
0.0
 40
0.0
 40
0.0
 40
0.0
 40
1.0
 40
1.0
 40
1.0
 40
2.0
 40
2.0
 40
2.0
 40
3.0
 40
3.0
 40
3.0
 40
4.0
 40
4.0
 40
4.0
 40
5.0
 40
5.0
 40
5.0
 40
6.0
 40
6.0
 40
6.0
 40
7.0
 40
7.0
 40
7.0
 40
8.0
 40
8.0
 40
8.0
 40
9.0
 40
9.0
 40
9.0
 40
10.0
 40
10.0
 40
10.0
 40
11.0
 40
11.0
 40
11.0
 40
12.0
 40
12.0
 40
12.0
 40
13.0
 40
13.0
 40
13.0
 40
14.0
 40
14.0
 40
14.0
 40
15.0
 40
15.0
 40
15.0
 40
16.0
 40
16.0
 40
16.0
 40
17.0
 40
17.0
 40
17.0
 40
18.0
 40
18.0
 40
18.0
 40
19.0
 40
19.0
 40
19.0
 40
19.0
 10
82.7856445105536
 20
-130.4485405489851
 10
82.7856445105536
 20
-130.5501708658
 10
82.76462942809357
 20
-130.7830593206029
 10
82.57859427189008
 20
-130.916384515882
 10
82.46628415907094
 20
-130.9956217120428
 10
82.36706540909574
 20
-131.0001003361736
 10
82.28231606015859
 20
-131.0045789603044
 10
82.28231606015859
 20
-131.0045789603044
 10
82.28231606015859
 20
-130.7696234482104
 10
82.28231606015859
 20
-130.7696234482104
 10
82.35638561309146
 20
-130.7672118813707
 10
82.59099661563698
 20
-130.7558430662694
 10
82.59099661563698
 20
-130.4530191731159
 10
82.59099661563698
 20
-130.3059135958958
 10
82.52140568683492
 20
-130.143305088992
 10
82.29299585616286
 20
-130.143305088992
 10
82.17655162876142
 20
-130.143305088992
 10
82.1279757824194
 20
-130.1839572157179
 10
82.0962809039551
 20
-130.2177191514733
 10
82.02221135102224
 20
-130.2969563476341
 10
82.00946449772681
 20
-130.4213242946516
 10
82.00946449772681
 20
-130.4802354274494
 10
82.00946449772681
 20
-130.5005614908124
 10
82.01153155501795
 20
-130.5388020506986
 10
82.01566566960025
 20
-130.5684298718718
 10
82.01566566960025
 20
-130.5684298718718
 10
81.82101777468364
 20
-130.5684298718718
 10
81.82101777468364
 20
-130.5684298718718
 10
81.82756345610561
 20
-130.5277777451458
 10
81.82963051339676
 20
-130.4823024847405
 10
81.82963051339676
 20
-130.4757568033186
 10
81.82963051339676
 20
-130.4054768554195
 10
81.80827092138821
 20
-130.1929144639795
 10
81.57159286155155
 20
-130.1929144639795
 10
81.39382593451266
 20
-130.1929144639795
 10
81.33870440674866
 20
-130.3331298502292
 10
81.33870440674866
 20
-130.4506076062762
 10
81.33870440674866
 20
-130.7334499456153
 10
81.57159286155155
 20
-130.7424071938769
 10
81.64325084764475
 20
-130.7468858180077
 10
81.64325084764475
 20
-130.7468858180077
 10
81.64325084764475
 20
-130.9639268335785
 10
81.64325084764475
 20
-130.9639268335785
 10
81.5185383910787
 20
-130.9549695853168
 10
81.14198945454089
 20
-130.9256862736922
 10
81.14198945454089
 20
-130.4371717338838
 10
81.14198945454089
 20
-130.1973930881104
 10
81.26911347794662
 20
-129.9396999458137
 10
81.56504718012958
 20
-129.9396999458137
 10
81.7514268458816
 20
-129.9396999458137
 10
81.83376462797906
 20
-130.0416747721771
 10
81.89508732761651
 20
-130.1477837131228
 10
81.9226480914985
 20
-130.082326898903
 10
82.00291881630483
 20
-129.8876790039864
 10
82.28024900286744
 20
-129.8876790039864
 10
82.61855737951898
 20
-129.8876790039864
 10
82.7856445105536
 20
-130.1522623372536
 10
82.7856445105536
 20
-130.4485405489851
 97
        0
 97
        0
 75
     2
 76
     1
 98
        0
  0
SPLINE
  5
49
330
43
100
AcDbEntity
  8
_U+30EC_U+30A4_U+30E4_U+30FC 1
370
     0
100
AcDbSpline
210
0.0
220
0.0
230
1.0
 70
    11
 71
     3
 72
    29
 73
    25
 74
     0
 42
0.0000000001
 43
0.0000000001
 12
1.0
 22
0.0
 32
0.0
 13
1.0
 23
0.0
 33
0.0
 40
0.0
 40
0.0
 40
0.0
 40
0.0
 40
1.0
 40
1.0
 40
1.0
 40
2.0
 40
2.0
 40
2.0
 40
3.0
 40
3.0
 40
3.0
 40
4.0
 40
4.0
 40
4.0
 40
5.0
 40
5.0
 40
5.0
 40
6.0
 40
6.0
 40
6.0
 40
7.0
 40
7.0
 40
7.0
 40
8.0
 40
8.0
 40
8.0
 40
8.0
 10
82.7856445105536
 20
-129.1817789390587
 30
0.0
 10
82.7856445105536
 20
-129.4666883356889
 30
0.0
 10
82.64818520069213
 20
-129.737817350378
 30
0.0
 10
82.29919702803632
 20
-129.737817350378
 30
0.0
 10
82.04322643348225
 20
-129.737817350378
 30
0.0
 10
81.94814179808935
 20
-129.5862331490271
 30
0.0
 10
81.88681909845191
 20
-129.4732340171109
 30
0.0
 10
81.82756345610561
 20
-129.60655921239
 30
0.0
 10
81.71318628599532
 20
-129.6882079753904
 30
0.0
 10
81.55230032683416
 20
-129.6882079753904
 30
0.0
 10
81.27738170711122
 20
-129.6882079753904
 30
0.0
 10
81.14198945454089
 20
-129.4756455839506
 30
0.0
 10
81.14198945454089
 20
-129.1817789390587
 30
0.0
 10
81.14198945454089
 20
-128.8786105363567
 30
0.0
 10
81.28599444582434
 20
-128.675349902727
 30
0.0
 10
81.55230032683416
 20
-128.675349902727
 30
0.0
 10
81.71318628599532
 20
-128.675349902727
 30
0.0
 10
81.82756345610561
 20
-128.75872121347
 30
0.0
 10
81.88681909845191
 20
-128.8923909182977
 30
0.0
 10
81.93746200208508
 20
-128.7973062829049
 30
0.0
 10
82.03254663747798
 20
-128.6278075850306
 30
0.0
 10
82.29506291345402
 20
-128.6278075850306
 30
0.0
 10
82.66954479270068
 20
-128.6278075850306
 30
0.0
 10
82.7856445105536
 20
-128.9261528540532
 30
0.0
 10
82.7856445105536
 20
-129.1817789390587
 30
0.0
  0
SPLINE
  5
4A
330
43
100
AcDbEntity
  8
_U+30EC_U+30A4_U+30E4_U+30FC 1
370
     0
100
AcDbSpline
210
0.0
220
0.0
230
1.0
 70
    11
 71
     3
 72
    17
 73
    13
 74
     0
 42
0.0000000001
 43
0.0000000001
 12
1.0
 22
0.0
 32
0.0
 13
1.0
 23
0.0
 33
0.0
 40
0.0
 40
0.0
 40
0.0
 40
0.0
 40
1.0
 40
1.0
 40
1.0
 40
2.0
 40
2.0
 40
2.0
 40
3.0
 40
3.0
 40
3.0
 40
4.0
 40
4.0
 40
4.0
 40
4.0
 10
81.33457029216636
 20
-129.1817789390587
 30
0.0
 10
81.33457029216636
 20
-129.357823318355
 30
0.0
 10
81.42965492755926
 20
-129.4484293296171
 30
0.0
 10
81.56504718012958
 20
-129.4484293296171
 30
0.0
 10
81.68769257940447
 20
-129.4484293296171
 30
0.0
 10
81.80620386409706
 20
-129.371603700296
 30
0.0
 10
81.80620386409706
 20
-129.1817789390587
 30
0.0
 10
81.80620386409706
 20
-128.9916096682729
 30
0.0
 10
81.68769257940447
 20
-128.9147840389519
 30
0.0
 10
81.56504718012958
 20
-128.9147840389519
 30
0.0
 10
81.42965492755926
 20
-128.9147840389519
 30
0.0
 10
81.33457029216636
 20
-129.0074571075051
 30
0.0
 10
81.33457029216636
 20
-129.1817789390587
 30
0.0
  0
SPLINE
  5
4B
330
43
100
AcDbEntity
  8
_U+30EC_U+30A4_U+30E4_U+30FC 1
370
     0
100
AcDbSpline
210
0.0
220
0.0
230
1.0
 70
    11
 71
     3
 72
    17
 73
    13
 74
     0
 42
0.0000000001
 43
0.0000000001
 12
1.0
 22
0.0
 32
0.0
 13
1.0
 23
0.0
 33
0.0
 40
0.0
 40
0.0
 40
0.0
 40
0.0
 40
1.0
 40
1.0
 40
1.0
 40
2.0
 40
2.0
 40
2.0
 40
3.0
 40
3.0
 40
3.0
 40
4.0
 40
4.0
 40
4.0
 40
4.0
 10
81.99465058714023
 20
-129.1817789390587
 30
0.0
 10
81.99465058714023
 20
-129.3354301977009
 30
0.0
 10
82.08146699336852
 20
-129.4980387046047
 30
0.0
 10
82.28438311744974
 20
-129.4980387046047
 30
0.0
 10
82.48971080837063
 20
-129.4980387046047
 30
0.0
 10
82.59099661563698
 20
-129.3626464520343
 30
0.0
 10
82.59099661563698
 20
-129.1817789390587
 30
0.0
 10
82.59099661563698
 20
-128.9826524200113
 30
0.0
 10
82.46835121636208
 20
-128.8651746639643
 30
0.0
 10
82.29058428932319
 20
-128.8651746639643
 30
0.0
 10
82.0687201400731
 20
-128.8651746639643
 30
0.0
 10
81.99465058714023
 20
-129.0391519859694
 30
0.0
 10
81.99465058714023
 20
-129.1817789390587
 30
0.0
  0
HATCH
  5
4C
330
43
100
AcDbEntity
  8
_U+30EC_U+30A4_U+30E4_U+30FC 1
 62
   179
420
  2234388
100
AcDbHatch
 10
0.0
 20
0.0
 30
0.0
210
0.0
220
0.0
230
1.0
  2
SOLID
 70
     1
 71
     0
 91
        3
 92
        1
 93
        1
 72
     4
 94
        3
 73
     0
 74
     1
 95
       29
 96
       25
 40
0.0
 40
0.0
 40
0.0
 40
0.0
 40
1.0
 40
1.0
 40
1.0
 40
2.0
 40
2.0
 40
2.0
 40
3.0
 40
3.0
 40
3.0
 40
4.0
 40
4.0
 40
4.0
 40
5.0
 40
5.0
 40
5.0
 40
6.0
 40
6.0
 40
6.0
 40
7.0
 40
7.0
 40
7.0
 40
8.0
 40
8.0
 40
8.0
 40
8.0
 10
82.7856445105536
 20
-129.1817789390587
 10
82.7856445105536
 20
-129.4666883356889
 10
82.64818520069213
 20
-129.737817350378
 10
82.29919702803632
 20
-129.737817350378
 10
82.04322643348225
 20
-129.737817350378
 10
81.94814179808935
 20
-129.5862331490271
 10
81.88681909845191
 20
-129.4732340171109
 10
81.82756345610561
 20
-129.60655921239
 10
81.71318628599532
 20
-129.6882079753904
 10
81.55230032683416
 20
-129.6882079753904
 10
81.27738170711122
 20
-129.6882079753904
 10
81.14198945454089
 20
-129.4756455839506
 10
81.14198945454089
 20
-129.1817789390587
 10
81.14198945454089
 20
-128.8786105363567
 10
81.28599444582434
 20
-128.675349902727
 10
81.55230032683416
 20
-128.675349902727
 10
81.71318628599532
 20
-128.675349902727
 10
81.82756345610561
 20
-128.75872121347
 10
81.88681909845191
 20
-128.8923909182977
 10
81.93746200208508
 20
-128.7973062829049
 10
82.03254663747798
 20
-128.6278075850306
 10
82.29506291345402
 20
-128.6278075850306
 10
82.66954479270068
 20
-128.6278075850306
 10
82.7856445105536
 20
-128.9261528540532
 10
82.7856445105536
 20
-129.1817789390587
 97
        0
 97
        0
 92
        1
 93
        1
 72
     4
 94
        3
 73
     0
 74
     1
 95
       17
 96
       13
 40
0.0
 40
0.0
 40
0.0
 40
0.0
 40
1.0
 40
1.0
 40
1.0
 40
2.0
 40
2.0
 40
2.0
 40
3.0
 40
3.0
 40
3.0
 40
4.0
 40
4.0
 40
4.0
 40
4.0
 10
81.33457029216636
 20
-129.1817789390587
 10
81.33457029216636
 20
-129.357823318355
 10
81.42965492755926
 20
-129.4484293296171
 10
81.56504718012958
 20
-129.4484293296171
 10
81.68769257940447
 20
-129.4484293296171
 10
81.80620386409706
 20
-129.371603700296
 10
81.80620386409706
 20
-129.1817789390587
 10
81.80620386409706
 20
-128.9916096682729
 10
81.68769257940447
 20
-128.9147840389519
 10
81.56504718012958
 20
-128.9147840389519
 10
81.42965492755926
 20
-128.9147840389519
 10
81.33457029216636
 20
-129.0074571075051
 10
81.33457029216636
 20
-129.1817789390587
 97
        0
 97
        0
 92
        1
 93
        1
 72
     4
 94
        3
 73
     0
 74
     1
 95
       17
 96
       13
 40
0.0
 40
0.0
 40
0.0
 40
0.0
 40
1.0
 40
1.0
 40
1.0
 40
2.0
 40
2.0
 40
2.0
 40
3.0
 40
3.0
 40
3.0
 40
4.0
 40
4.0
 40
4.0
 40
4.0
 10
81.99465058714023
 20
-129.1817789390587
 10
81.99465058714023
 20
-129.3354301977009
 10
82.08146699336852
 20
-129.4980387046047
 10
82.28438311744974
 20
-129.4980387046047
 10
82.48971080837063
 20
-129.4980387046047
 10
82.59099661563698
 20
-129.3626464520343
 10
82.59099661563698
 20
-129.1817789390587
 10
82.59099661563698
 20
-128.9826524200113
 10
82.46835121636208
 20
-128.8651746639643
 10
82.29058428932319
 20
-128.8651746639643
 10
82.0687201400731
 20
-128.8651746639643
 10
81.99465058714023
 20
-129.0391519859694
 10
81.99465058714023
 20
-129.1817789390587
 97
        0
 97
        0
 75
     2
 76
     1
 98
        0
  0
ENDBLK
  5
46
330
43
100
AcDbEntity
  8
0
100
AcDbBlockEnd
  0
BLOCK
  5
6E
330
6C
100
AcDbEntity
  8
0
100
AcDbBlockBegin
  2
block 3
 70
     0
 10
0.0
 20
0.0
 30
0.0
  3
block 3
  1

  0
SPLINE
  5
70
330
6C
100
AcDbEntity
  8
_U+30EC_U+30A4_U+30E4_U+30FC 1
370
     0
100
AcDbSpline
210
0.0
220
0.0
230
1.0
 70
    11
 71
     3
 72
    26
 73
    22
 74
     0
 42
0.0000000001
 43
0.0000000001
 12
1.0
 22
0.0
 32
0.0
 13
1.0
 23
0.0
 33
0.0
 40
0.0
 40
0.0
 40
0.0
 40
0.0
 40
1.0
 40
1.0
 40
1.0
 40
2.0
 40
2.0
 40
2.0
 40
3.0
 40
3.0
 40
3.0
 40
4.0
 40
4.0
 40
4.0
 40
5.0
 40
5.0
 40
5.0
 40
6.0
 40
6.0
 40
6.0
 40
7.0
 40
7.0
 40
7.0
 40
7.0
 10
91.91755911330533
 20
-152.1643554307089
 30
0.0
 10
91.91755911330533
 20
-152.1643554307089
 30
0.0
 10
91.91755911330533
 20
-151.0602023276863
 30
0.0
 10
91.91755911330533
 20
-151.0602023276863
 30
0.0
 10
91.91755911330533
 20
-151.0602023276863
 30
0.0
 10
91.5875189658184
 20
-151.0602023276863
 30
0.0
 10
91.5875189658184
 20
-151.0602023276863
 30
0.0
 10
91.5875189658184
 20
-151.0602023276863
 30
0.0
 10
91.5875189658184
 20
-150.9120632218206
 30
0.0
 10
91.5875189658184
 20
-150.9120632218206
 30
0.0
 10
91.91962617059649
 20
-150.897249311234
 30
0.0
 10
91.96613495964736
 20
-150.7342962947817
 30
0.0
 10
91.99576278082051
 20
-150.6199191246714
 30
0.0
 10
91.99576278082051
 20
-150.6199191246714
 30
0.0
 10
92.1418348293951
 20
-150.6199191246714
 30
0.0
 10
92.1418348293951
 20
-150.6199191246714
 30
0.0
 10
92.1418348293951
 20
-150.6199191246714
 30
0.0
 10
92.1418348293951
 20
-152.1643554307089
 30
0.0
 10
92.1418348293951
 20
-152.1643554307089
 30
0.0
 10
92.1418348293951
 20
-152.1643554307089
 30
0.0
 10
91.91755911330533
 20
-152.1643554307089
 30
0.0
 10
91.91755911330533
 20
-152.1643554307089
 30
0.0
  0
HATCH
  5
71
330
6C
100
AcDbEntity
  8
_U+30EC_U+30A4_U+30E4_U+30FC 1
 62
   179
420
  2234388
100
AcDbHatch
 10
0.0
 20
0.0
 30
0.0
210
0.0
220
0.0
230
1.0
  2
SOLID
 70
     1
 71
     0
 91
        1
 92
        1
 93
        1
 72
     4
 94
        3
 73
     0
 74
     1
 95
       26
 96
       22
 40
0.0
 40
0.0
 40
0.0
 40
0.0
 40
1.0
 40
1.0
 40
1.0
 40
2.0
 40
2.0
 40
2.0
 40
3.0
 40
3.0
 40
3.0
 40
4.0
 40
4.0
 40
4.0
 40
5.0
 40
5.0
 40
5.0
 40
6.0
 40
6.0
 40
6.0
 40
7.0
 40
7.0
 40
7.0
 40
7.0
 10
91.91755911330533
 20
-152.1643554307089
 10
91.91755911330533
 20
-152.1643554307089
 10
91.91755911330533
 20
-151.0602023276863
 10
91.91755911330533
 20
-151.0602023276863
 10
91.91755911330533
 20
-151.0602023276863
 10
91.5875189658184
 20
-151.0602023276863
 10
91.5875189658184
 20
-151.0602023276863
 10
91.5875189658184
 20
-151.0602023276863
 10
91.5875189658184
 20
-150.9120632218206
 10
91.5875189658184
 20
-150.9120632218206
 10
91.91962617059649
 20
-150.897249311234
 10
91.96613495964736
 20
-150.7342962947817
 10
91.99576278082051
 20
-150.6199191246714
 10
91.99576278082051
 20
-150.6199191246714
 10
92.1418348293951
 20
-150.6199191246714
 10
92.1418348293951
 20
-150.6199191246714
 10
92.1418348293951
 20
-150.6199191246714
 10
92.1418348293951
 20
-152.1643554307089
 10
92.1418348293951
 20
-152.1643554307089
 10
92.1418348293951
 20
-152.1643554307089
 10
91.91755911330533
 20
-152.1643554307089
 10
91.91755911330533
 20
-152.1643554307089
 97
        0
 97
        0
 75
     2
 76
     1
 98
        0
  0
ENDBLK
  5
6F
330
6C
100
AcDbEntity
  8
0
100
AcDbBlockEnd
  0
BLOCK
  5
80
330
7E
100
AcDbEntity
  8
0
100
AcDbBlockBegin
  2
block 4
 70
     0
 10
0.0
 20
0.0
 30
0.0
  3
block 4
  1

  0
SPLINE
  5
82
330
7E
100
AcDbEntity
  8
_U+30EC_U+30A4_U+30E4_U+30FC 1
370
     0
100
AcDbSpline
210
0.0
220
0.0
230
1.0
 70
    11
 71
     3
 72
    32
 73
    28
 74
     0
 42
0.0000000001
 43
0.0000000001
 12
1.0
 22
0.0
 32
0.0
 13
1.0
 23
0.0
 33
0.0
 40
0.0
 40
0.0
 40
0.0
 40
0.0
 40
1.0
 40
1.0
 40
1.0
 40
2.0
 40
2.0
 40
2.0
 40
3.0
 40
3.0
 40
3.0
 40
4.0
 40
4.0
 40
4.0
 40
5.0
 40
5.0
 40
5.0
 40
6.0
 40
6.0
 40
6.0
 40
7.0
 40
7.0
 40
7.0
 40
8.0
 40
8.0
 40
8.0
 40
9.0
 40
9.0
 40
9.0
 40
9.0
 10
90.47130802859745
 20
-106.1495930724209
 30
0.0
 10
89.95523272490703
 20
-106.1495930724209
 30
0.0
 10
89.94661998619391
 20
-105.5956217183928
 30
0.0
 10
89.94661998619391
 20
-105.3816812887588
 30
0.0
 10
89.94661998619391
 20
-105.1512044007955
 30
0.0
 10
89.9659125209113
 20
-104.5038709591171
 30
0.0
 10
90.50954858848372
 20
-104.5038709591171
 30
0.0
 10
90.6828368913918
 20
-104.5038709591171
 30
0.0
 10
90.9284721994901
 20
-104.5738063974677
 30
0.0
 10
90.96636824982785
 20
-104.9059136022457
 30
0.0
 10
90.96636824982785
 20
-104.9059136022457
 30
0.0
 10
90.75277232974237
 20
-104.9059136022457
 30
0.0
 10
90.75277232974237
 20
-104.9059136022457
 30
0.0
 10
90.74209253373809
 20
-104.8487250171906
 30
0.0
 10
90.7103976552738
 20
-104.7005859113249
 30
0.0
 10
90.50748153119258
 20
-104.7005859113249
 30
0.0
 10
90.21533743404339
 20
-104.7005859113249
 30
0.0
 10
90.1753743264145
 20
-105.0285590015206
 30
0.0
 10
90.16262747311907
 20
-105.233542182893
 30
0.0
 10
90.25564505122081
 20
-105.1553385153778
 30
0.0
 10
90.32351343228024
 20
-105.0960828730315
 30
0.0
 10
90.50541447390142
 20
-105.0960828730315
 30
0.0
 10
90.68524845823147
 20
-105.0960828730315
 30
0.0
 10
90.9877278418364
 20
-105.2042588712684
 30
0.0
 10
90.9877278418364
 20
-105.6104356289793
 30
0.0
 10
90.9877278418364
 20
-105.929795980462
 30
0.0
 10
90.78860132278896
 20
-106.1495930724209
 30
0.0
 10
90.47130802859745
 20
-106.1495930724209
 30
0.0
  0
SPLINE
  5
83
330
7E
100
AcDbEntity
  8
_U+30EC_U+30A4_U+30E4_U+30FC 1
370
     0
100
AcDbSpline
210
0.0
220
0.0
230
1.0
 70
    11
 71
     3
 72
    17
 73
    13
 74
     0
 42
0.0000000001
 43
0.0000000001
 12
1.0
 22
0.0
 32
0.0
 13
1.0
 23
0.0
 33
0.0
 40
0.0
 40
0.0
 40
0.0
 40
0.0
 40
1.0
 40
1.0
 40
1.0
 40
2.0
 40
2.0
 40
2.0
 40
3.0
 40
3.0
 40
3.0
 40
4.0
 40
4.0
 40
4.0
 40
4.0
 10
90.48818899647517
 20
-105.2907307679482
 30
0.0
 10
90.22601723004766
 20
-105.2907307679482
 30
0.0
 10
90.18812117970992
 20
-105.5022596307425
 30
0.0
 10
90.18812117970992
 20
-105.6187038581439
 30
0.0
 10
90.18812117970992
 20
-105.7944037278917
 30
0.0
 10
90.28320581510282
 20
-105.957356744344
 30
0.0
 10
90.46717391401515
 20
-105.957356744344
 30
0.0
 10
90.5877522559989
 20
-105.957356744344
 30
0.0
 10
90.76345212574664
 20
-105.8981011019977
 30
0.0
 10
90.76345212574664
 20
-105.6125026862705
 30
0.0
 10
90.76345212574664
 20
-105.3882269701807
 30
0.0
 10
90.62392575859403
 20
-105.2907307679482
 30
0.0
 10
90.48818899647517
 20
-105.2907307679482
 30
0.0
  0
HATCH
  5
84
330
7E
100
AcDbEntity
  8
_U+30EC_U+30A4_U+30E4_U+30FC 1
 62
   179
420
  2234388
100
AcDbHatch
 10
0.0
 20
0.0
 30
0.0
210
0.0
220
0.0
230
1.0
  2
SOLID
 70
     1
 71
     0
 91
        2
 92
        1
 93
        1
 72
     4
 94
        3
 73
     0
 74
     1
 95
       32
 96
       28
 40
0.0
 40
0.0
 40
0.0
 40
0.0
 40
1.0
 40
1.0
 40
1.0
 40
2.0
 40
2.0
 40
2.0
 40
3.0
 40
3.0
 40
3.0
 40
4.0
 40
4.0
 40
4.0
 40
5.0
 40
5.0
 40
5.0
 40
6.0
 40
6.0
 40
6.0
 40
7.0
 40
7.0
 40
7.0
 40
8.0
 40
8.0
 40
8.0
 40
9.0
 40
9.0
 40
9.0
 40
9.0
 10
90.47130802859745
 20
-106.1495930724209
 10
89.95523272490703
 20
-106.1495930724209
 10
89.94661998619391
 20
-105.5956217183928
 10
89.94661998619391
 20
-105.3816812887588
 10
89.94661998619391
 20
-105.1512044007955
 10
89.9659125209113
 20
-104.5038709591171
 10
90.50954858848372
 20
-104.5038709591171
 10
90.6828368913918
 20
-104.5038709591171
 10
90.9284721994901
 20
-104.5738063974677
 10
90.96636824982785
 20
-104.9059136022457
 10
90.96636824982785
 20
-104.9059136022457
 10
90.75277232974237
 20
-104.9059136022457
 10
90.75277232974237
 20
-104.9059136022457
 10
90.74209253373809
 20
-104.8487250171906
 10
90.7103976552738
 20
-104.7005859113249
 10
90.50748153119258
 20
-104.7005859113249
 10
90.21533743404339
 20
-104.7005859113249
 10
90.1753743264145
 20
-105.0285590015206
 10
90.16262747311907
 20
-105.233542182893
 10
90.25564505122081
 20
-105.1553385153778
 10
90.32351343228024
 20
-105.0960828730315
 10
90.50541447390142
 20
-105.0960828730315
 10
90.68524845823147
 20
-105.0960828730315
 10
90.9877278418364
 20
-105.2042588712684
 10
90.9877278418364
 20
-105.6104356289793
 10
90.9877278418364
 20
-105.929795980462
 10
90.78860132278896
 20
-106.1495930724209
 10
90.47130802859745
 20
-106.1495930724209
 97
        0
 97
        0
 92
        1
 93
        1
 72
     4
 94
        3
 73
     0
 74
     1
 95
       17
 96
       13
 40
0.0
 40
0.0
 40
0.0
 40
0.0
 40
1.0
 40
1.0
 40
1.0
 40
2.0
 40
2.0
 40
2.0
 40
3.0
 40
3.0
 40
3.0
 40
4.0
 40
4.0
 40
4.0
 40
4.0
 10
90.48818899647517
 20
-105.2907307679482
 10
90.22601723004766
 20
-105.2907307679482
 10
90.18812117970992
 20
-105.5022596307425
 10
90.18812117970992
 20
-105.6187038581439
 10
90.18812117970992
 20
-105.7944037278917
 10
90.28320581510282
 20
-105.957356744344
 10
90.46717391401515
 20
-105.957356744344
 10
90.5877522559989
 20
-105.957356744344
 10
90.76345212574664
 20
-105.8981011019977
 10
90.76345212574664
 20
-105.6125026862705
 10
90.76345212574664
 20
-105.3882269701807
 10
90.62392575859403
 20
-105.2907307679482
 10
90.48818899647517
 20
-105.2907307679482
 97
        0
 97
        0
 75
     2
 76
     1
 98
        0
  0
ENDBLK
  5
81
330
7E
100
AcDbEntity
  8
0
100
AcDbBlockEnd
  0
BLOCK
  5
87
330
85
100
AcDbEntity
  8
0
100
AcDbBlockBegin
  2
block 5
 70
     0
 10
0.0
 20
0.0
 30
0.0
  3
block 5
  1

  0
SPLINE
  5
89
330
85
100
AcDbEntity
  8
_U+30EC_U+30A4_U+30E4_U+30FC 1
370
     0
100
AcDbSpline
210
0.0
220
0.0
230
1.0
 70
    11
 71
     3
 72
    62
 73
    58
 74
     0
 42
0.0000000001
 43
0.0000000001
 12
1.0
 22
0.0
 32
0.0
 13
1.0
 23
0.0
 33
0.0
 40
0.0
 40
0.0
 40
0.0
 40
0.0
 40
1.0
 40
1.0
 40
1.0
 40
2.0
 40
2.0
 40
2.0
 40
3.0
 40
3.0
 40
3.0
 40
4.0
 40
4.0
 40
4.0
 40
5.0
 40
5.0
 40
5.0
 40
6.0
 40
6.0
 40
6.0
 40
7.0
 40
7.0
 40
7.0
 40
8.0
 40
8.0
 40
8.0
 40
9.0
 40
9.0
 40
9.0
 40
10.0
 40
10.0
 40
10.0
 40
11.0
 40
11.0
 40
11.0
 40
12.0
 40
12.0
 40
12.0
 40
13.0
 40
13.0
 40
13.0
 40
14.0
 40
14.0
 40
14.0
 40
15.0
 40
15.0
 40
15.0
 40
16.0
 40
16.0
 40
16.0
 40
17.0
 40
17.0
 40
17.0
 40
18.0
 40
18.0
 40
18.0
 40
19.0
 40
19.0
 40
19.0
 40
19.0
 10
93.22359481176355
 20
-135.3953531562553
 30
0.0
 10
93.12816566682213
 20
-135.3953531562553
 30
0.0
 10
92.91043563215435
 20
-135.3743380737953
 30
0.0
 10
92.78537866603978
 20
-135.1883029175918
 30
0.0
 10
92.71165362265542
 20
-135.0759928047727
 30
0.0
 10
92.7071749985246
 20
-134.9767740547975
 30
0.0
 10
92.7030408839423
 20
-134.8920247058603
 30
0.0
 10
92.7030408839423
 20
-134.8920247058603
 30
0.0
 10
92.92318248544976
 20
-134.8920247058603
 30
0.0
 10
92.92318248544976
 20
-134.8920247058603
 30
0.0
 10
92.92524954274091
 20
-134.9660942587932
 30
0.0
 10
92.93558482919666
 20
-135.2007052613387
 30
0.0
 10
93.21911618763272
 20
-135.2007052613387
 30
0.0
 10
93.35657549749419
 20
-135.2007052613387
 30
0.0
 10
93.50919322749075
 20
-135.1311143325367
 30
0.0
 10
93.50919322749075
 20
-134.9027045018646
 30
0.0
 10
93.50919322749075
 20
-134.7862602744632
 30
0.0
 10
93.4709526676045
 20
-134.7376844281211
 30
0.0
 10
93.43925778914019
 20
-134.7059895496568
 30
0.0
 10
93.36518823620732
 20
-134.631919996724
 30
0.0
 10
93.24874400880587
 20
-134.6191731434286
 30
0.0
 10
93.1939669905904
 20
-134.6191731434286
 30
0.0
 10
93.174674455873
 20
-134.6191731434286
 30
0.0
 10
93.13884546282641
 20
-134.6212402007197
 30
0.0
 10
93.1112846989444
 20
-134.625374315302
 30
0.0
 10
93.1112846989444
 20
-134.625374315302
 30
0.0
 10
93.1112846989444
 20
-134.4307264203854
 30
0.0
 10
93.1112846989444
 20
-134.4307264203854
 30
0.0
 10
93.14952525883068
 20
-134.4372721018074
 30
0.0
 10
93.19155542375073
 20
-134.4393391590985
 30
0.0
 10
93.1981011051727
 20
-134.4393391590985
 30
0.0
 10
93.26355791939245
 20
-134.4393391590985
 30
0.0
 10
93.46233992889137
 20
-134.41797956709
 30
0.0
 10
93.46233992889137
 20
-134.1813015072533
 30
0.0
 10
93.46233992889137
 20
-134.0035345802144
 30
0.0
 10
93.33142630045187
 20
-133.9484130524504
 30
0.0
 10
93.22118324492388
 20
-133.9484130524504
 30
0.0
 10
92.95694442120521
 20
-133.9484130524504
 30
0.0
 10
92.94833168249208
 20
-134.1813015072533
 30
0.0
 10
92.94419756790978
 20
-134.2529594933465
 30
0.0
 10
92.94419756790978
 20
-134.2529594933465
 30
0.0
 10
92.74093693428004
 20
-134.2529594933465
 30
0.0
 10
92.74093693428004
 20
-134.2529594933465
 30
0.0
 10
92.74954967299317
 20
-134.1282470367804
 30
0.0
 10
92.77711043687518
 20
-133.7516981002426
 30
0.0
 10
93.2339300982193
 20
-133.7516981002426
 30
0.0
 10
93.45820581430907
 20
-133.7516981002426
 30
0.0
 10
93.69936249827656
 20
-133.8788221236483
 30
0.0
 10
93.69936249827656
 20
-134.1747558258313
 30
0.0
 10
93.69936249827656
 20
-134.3611354915833
 30
0.0
 10
93.60427786288366
 20
-134.4434732736808
 30
0.0
 10
93.50471460335994
 20
-134.5047959733182
 30
0.0
 10
93.56603730299739
 20
-134.5323567372002
 30
0.0
 10
93.74793834461858
 20
-134.6126274620066
 30
0.0
 10
93.74793834461858
 20
-134.8899576485692
 30
0.0
 10
93.74793834461858
 20
-135.2282660252207
 30
0.0
 10
93.50058048877764
 20
-135.3953531562553
 30
0.0
 10
93.22359481176355
 20
-135.3953531562553
 30
0.0
  0
HATCH
  5
8A
330
85
100
AcDbEntity
  8
_U+30EC_U+30A4_U+30E4_U+30FC 1
 62
   179
420
  2234388
100
AcDbHatch
 10
0.0
 20
0.0
 30
0.0
210
0.0
220
0.0
230
1.0
  2
SOLID
 70
     1
 71
     0
 91
        1
 92
        1
 93
        1
 72
     4
 94
        3
 73
     0
 74
     1
 95
       62
 96
       58
 40
0.0
 40
0.0
 40
0.0
 40
0.0
 40
1.0
 40
1.0
 40
1.0
 40
2.0
 40
2.0
 40
2.0
 40
3.0
 40
3.0
 40
3.0
 40
4.0
 40
4.0
 40
4.0
 40
5.0
 40
5.0
 40
5.0
 40
6.0
 40
6.0
 40
6.0
 40
7.0
 40
7.0
 40
7.0
 40
8.0
 40
8.0
 40
8.0
 40
9.0
 40
9.0
 40
9.0
 40
10.0
 40
10.0
 40
10.0
 40
11.0
 40
11.0
 40
11.0
 40
12.0
 40
12.0
 40
12.0
 40
13.0
 40
13.0
 40
13.0
 40
14.0
 40
14.0
 40
14.0
 40
15.0
 40
15.0
 40
15.0
 40
16.0
 40
16.0
 40
16.0
 40
17.0
 40
17.0
 40
17.0
 40
18.0
 40
18.0
 40
18.0
 40
19.0
 40
19.0
 40
19.0
 40
19.0
 10
93.22359481176355
 20
-135.3953531562553
 10
93.12816566682213
 20
-135.3953531562553
 10
92.91043563215435
 20
-135.3743380737953
 10
92.78537866603978
 20
-135.1883029175918
 10
92.71165362265542
 20
-135.0759928047727
 10
92.7071749985246
 20
-134.9767740547975
 10
92.7030408839423
 20
-134.8920247058603
 10
92.7030408839423
 20
-134.8920247058603
 10
92.92318248544976
 20
-134.8920247058603
 10
92.92318248544976
 20
-134.8920247058603
 10
92.92524954274091
 20
-134.9660942587932
 10
92.93558482919666
 20
-135.2007052613387
 10
93.21911618763272
 20
-135.2007052613387
 10
93.35657549749419
 20
-135.2007052613387
 10
93.50919322749075
 20
-135.1311143325367
 10
93.50919322749075
 20
-134.9027045018646
 10
93.50919322749075
 20
-134.7862602744632
 10
93.4709526676045
 20
-134.7376844281211
 10
93.43925778914019
 20
-134.7059895496568
 10
93.36518823620732
 20
-134.631919996724
 10
93.24874400880587
 20
-134.6191731434286
 10
93.1939669905904
 20
-134.6191731434286
 10
93.174674455873
 20
-134.6191731434286
 10
93.13884546282641
 20
-134.6212402007197
 10
93.1112846989444
 20
-134.625374315302
 10
93.1112846989444
 20
-134.625374315302
 10
93.1112846989444
 20
-134.4307264203854
 10
93.1112846989444
 20
-134.4307264203854
 10
93.14952525883068
 20
-134.4372721018074
 10
93.19155542375073
 20
-134.4393391590985
 10
93.1981011051727
 20
-134.4393391590985
 10
93.26355791939245
 20
-134.4393391590985
 10
93.46233992889137
 20
-134.41797956709
 10
93.46233992889137
 20
-134.1813015072533
 10
93.46233992889137
 20
-134.0035345802144
 10
93.33142630045187
 20
-133.9484130524504
 10
93.22118324492388
 20
-133.9484130524504
 10
92.95694442120521
 20
-133.9484130524504
 10
92.94833168249208
 20
-134.1813015072533
 10
92.94419756790978
 20
-134.2529594933465
 10
92.94419756790978
 20
-134.2529594933465
 10
92.74093693428004
 20
-134.2529594933465
 10
92.74093693428004
 20
-134.2529594933465
 10
92.74954967299317
 20
-134.1282470367804
 10
92.77711043687518
 20
-133.7516981002426
 10
93.2339300982193
 20
-133.7516981002426
 10
93.45820581430907
 20
-133.7516981002426
 10
93.69936249827656
 20
-133.8788221236483
 10
93.69936249827656
 20
-134.1747558258313
 10
93.69936249827656
 20
-134.3611354915833
 10
93.60427786288366
 20
-134.4434732736808
 10
93.50471460335994
 20
-134.5047959733182
 10
93.56603730299739
 20
-134.5323567372002
 10
93.74793834461858
 20
-134.6126274620066
 10
93.74793834461858
 20
-134.8899576485692
 10
93.74793834461858
 20
-135.2282660252207
 10
93.50058048877764
 20
-135.3953531562553
 10
93.22359481176355
 20
-135.3953531562553
 97
        0
 97
        0
 75
     2
 76
     1
 98
        0
  0
POLYLINE
  5
8B
330
85
100
AcDbEntity
  8
_U+30EC_U+30A4_U+30E4_U+30FC 1
370
     0
100
AcDb2dPolyline
 66
     1
 10
0.0
 20
0.0
 30
0.0
  0
VERTEX
  5
8C
330
8B
100
AcDbEntity
  8
_U+30EC_U+30A4_U+30E4_U+30FC 1
370
     0
100
AcDbVertex
100
AcDb2dVertex
 10
93.96876896522309
 20
-135.3447102526221
 30
0.0
  0
VERTEX
  5
8D
330
8B
100
AcDbEntity
  8
_U+30EC_U+30A4_U+30E4_U+30FC 1
370
     0
100
AcDbVertex
100
AcDb2dVertex
 10
93.96876896522309
 20
-135.0928737726504
 30
0.0
  0
VERTEX
  5
8E
330
8B
100
AcDbEntity
  8
_U+30EC_U+30A4_U+30E4_U+30FC 1
370
     0
100
AcDbVertex
100
AcDb2dVertex
 10
94.22060544519485
 20
-135.0928737726504
 30
0.0
  0
VERTEX
  5
8F
330
8B
100
AcDbEntity
  8
_U+30EC_U+30A4_U+30E4_U+30FC 1
370
     0
100
AcDbVertex
100
AcDb2dVertex
 10
94.22060544519485
 20
-135.3447102526221
 30
0.0
  0
VERTEX
  5
90
330
8B
100
AcDbEntity
  8
_U+30EC_U+30A4_U+30E4_U+30FC 1
370
     0
100
AcDbVertex
100
AcDb2dVertex
 10
93.96876896522309
 20
-135.3447102526221
 30
0.0
  0
SEQEND
  5
91
330
8B
100
AcDbEntity
  8
_U+30EC_U+30A4_U+30E4_U+30FC 1
370
     0
  0
HATCH
  5
92
330
85
100
AcDbEntity
  8
_U+30EC_U+30A4_U+30E4_U+30FC 1
 62
   179
420
  2234388
100
AcDbHatch
 10
0.0
 20
0.0
 30
0.0
210
0.0
220
0.0
230
1.0
  2
SOLID
 70
     1
 71
     0
 91
        1
 92
        1
 93
        4
 72
     1
 10
93.96876896522309
 20
-135.3447102526221
 11
93.96876896522309
 21
-135.0928737726504
 72
     1
 10
93.96876896522309
 20
-135.0928737726504
 11
94.22060544519485
 21
-135.0928737726504
 72
     1
 10
94.22060544519485
 20
-135.0928737726504
 11
94.22060544519485
 21
-135.3447102526221
 72
     1
 10
94.22060544519485
 20
-135.3447102526221
 11
93.96876896522309
 21
-135.3447102526221
 97
        0
 75
     2
 76
     1
 98
        0
  0
SPLINE
  5
93
330
85
100
AcDbEntity
  8
_U+30EC_U+30A4_U+30E4_U+30FC 1
370
     0
100
AcDbSpline
210
0.0
220
0.0
230
1.0
 70
    11
 71
     3
 72
    53
 73
    49
 74
     0
 42
0.0000000001
 43
0.0000000001
 12
1.0
 22
0.0
 32
0.0
 13
1.0
 23
0.0
 33
0.0
 40
0.0
 40
0.0
 40
0.0
 40
0.0
 40
1.0
 40
1.0
 40
1.0
 40
2.0
 40
2.0
 40
2.0
 40
3.0
 40
3.0
 40
3.0
 40
4.0
 40
4.0
 40
4.0
 40
5.0
 40
5.0
 40
5.0
 40
6.0
 40
6.0
 40
6.0
 40
7.0
 40
7.0
 40
7.0
 40
8.0
 40
8.0
 40
8.0
 40
9.0
 40
9.0
 40
9.0
 40
10.0
 40
10.0
 40
10.0
 40
11.0
 40
11.0
 40
11.0
 40
12.0
 40
12.0
 40
12.0
 40
13.0
 40
13.0
 40
13.0
 40
14.0
 40
14.0
 40
14.0
 40
15.0
 40
15.0
 40
15.0
 40
16.0
 40
16.0
 40
16.0
 40
16.0
 10
94.93787432522387
 20
-135.3953531562553
 30
0.0
 10
94.8596706577087
 20
-135.3953531562553
 30
0.0
 10
94.75804034089383
 20
-135.3784721883776
 30
0.0
 10
94.65641002407895
 20
-135.315082431449
 30
0.0
 10
94.48312172117089
 20
-135.2051838854696
 30
0.0
 10
94.46176212916234
 20
-135.0739257474815
 30
0.0
 10
94.44281410399347
 20
-134.9660942587932
 30
0.0
 10
94.44281410399347
 20
-134.9660942587932
 30
0.0
 10
94.66502276279208
 20
-134.9660942587932
 30
0.0
 10
94.66502276279208
 20
-134.9660942587932
 30
0.0
 10
94.71979978100755
 20
-135.1648762682921
 30
0.0
 10
94.84692380441328
 20
-135.1945040894653
 30
0.0
 10
94.93994138251502
 20
-135.1945040894653
 30
0.0
 10
95.07946774966764
 20
-135.1945040894653
 30
0.0
 10
95.23174097011568
 20
-135.0949408299415
 30
0.0
 10
95.23174097011568
 20
-134.8623968846872
 30
0.0
 10
95.23174097011568
 20
-134.6064262901331
 30
0.0
 10
95.05190698578564
 20
-134.5364908517826
 30
0.0
 10
94.93132864380189
 20
-134.5364908517826
 30
0.0
 10
94.8996337653376
 20
-134.5364908517826
 30
0.0
 10
94.75804034089383
 20
-134.5364908517826
 30
0.0
 10
94.66915687737438
 20
-134.6656819324794
 30
0.0
 10
94.66915687737438
 20
-134.6656819324794
 30
0.0
 10
94.49345700762665
 20
-134.6467339073105
 30
0.0
 10
94.49345700762665
 20
-134.6467339073105
 30
0.0
 10
94.49345700762665
 20
-134.6467339073105
 30
0.0
 10
94.61403534961039
 20
-133.8002739465847
 30
0.0
 10
94.61403534961039
 20
-133.8002739465847
 30
0.0
 10
94.61403534961039
 20
-133.8002739465847
 30
0.0
 10
95.39262692927684
 20
-133.8002739465847
 30
0.0
 10
95.39262692927684
 20
-133.8002739465847
 30
0.0
 10
95.39262692927684
 20
-133.8002739465847
 30
0.0
 10
95.39262692927684
 20
-133.9949218415013
 30
0.0
 10
95.39262692927684
 20
-133.9949218415013
 30
0.0
 10
95.39262692927684
 20
-133.9949218415013
 30
0.0
 10
94.7769883660627
 20
-133.9949218415013
 30
0.0
 10
94.7769883660627
 20
-133.9949218415013
 30
0.0
 10
94.7769883660627
 20
-133.9949218415013
 30
0.0
 10
94.71153155184295
 20
-134.41797956709
 30
0.0
 10
94.71153155184295
 20
-134.41797956709
 30
0.0
 10
94.7728542514804
 20
-134.3842176313345
 30
0.0
 10
94.85519203357788
 20
-134.3439100141571
 30
0.0
 10
94.97370331827047
 20
-134.3439100141571
 30
0.0
 10
95.22760685553338
 20
-134.3439100141571
 30
0.0
 10
95.46462942491857
 20
-134.5302896799091
 30
0.0
 10
95.46462942491857
 20
-134.8434488595183
 30
0.0
 10
95.46462942491857
 20
-135.1607421537098
 30
0.0
 10
95.2403537088288
 20
-135.3953531562553
 30
0.0
 10
94.93787432522387
 20
-135.3953531562553
 30
0.0
  0
HATCH
  5
94
330
85
100
AcDbEntity
  8
_U+30EC_U+30A4_U+30E4_U+30FC 1
 62
   179
420
  2234388
100
AcDbHatch
 10
0.0
 20
0.0
 30
0.0
210
0.0
220
0.0
230
1.0
  2
SOLID
 70
     1
 71
     0
 91
        1
 92
        1
 93
        1
 72
     4
 94
        3
 73
     0
 74
     1
 95
       53
 96
       49
 40
0.0
 40
0.0
 40
0.0
 40
0.0
 40
1.0
 40
1.0
 40
1.0
 40
2.0
 40
2.0
 40
2.0
 40
3.0
 40
3.0
 40
3.0
 40
4.0
 40
4.0
 40
4.0
 40
5.0
 40
5.0
 40
5.0
 40
6.0
 40
6.0
 40
6.0
 40
7.0
 40
7.0
 40
7.0
 40
8.0
 40
8.0
 40
8.0
 40
9.0
 40
9.0
 40
9.0
 40
10.0
 40
10.0
 40
10.0
 40
11.0
 40
11.0
 40
11.0
 40
12.0
 40
12.0
 40
12.0
 40
13.0
 40
13.0
 40
13.0
 40
14.0
 40
14.0
 40
14.0
 40
15.0
 40
15.0
 40
15.0
 40
16.0
 40
16.0
 40
16.0
 40
16.0
 10
94.93787432522387
 20
-135.3953531562553
 10
94.8596706577087
 20
-135.3953531562553
 10
94.75804034089383
 20
-135.3784721883776
 10
94.65641002407895
 20
-135.315082431449
 10
94.48312172117089
 20
-135.2051838854696
 10
94.46176212916234
 20
-135.0739257474815
 10
94.44281410399347
 20
-134.9660942587932
 10
94.44281410399347
 20
-134.9660942587932
 10
94.66502276279208
 20
-134.9660942587932
 10
94.66502276279208
 20
-134.9660942587932
 10
94.71979978100755
 20
-135.1648762682921
 10
94.84692380441328
 20
-135.1945040894653
 10
94.93994138251502
 20
-135.1945040894653
 10
95.07946774966764
 20
-135.1945040894653
 10
95.23174097011568
 20
-135.0949408299415
 10
95.23174097011568
 20
-134.8623968846872
 10
95.23174097011568
 20
-134.6064262901331
 10
95.05190698578564
 20
-134.5364908517826
 10
94.93132864380189
 20
-134.5364908517826
 10
94.8996337653376
 20
-134.5364908517826
 10
94.75804034089383
 20
-134.5364908517826
 10
94.66915687737438
 20
-134.6656819324794
 10
94.66915687737438
 20
-134.6656819324794
 10
94.49345700762665
 20
-134.6467339073105
 10
94.49345700762665
 20
-134.6467339073105
 10
94.49345700762665
 20
-134.6467339073105
 10
94.61403534961039
 20
-133.8002739465847
 10
94.61403534961039
 20
-133.8002739465847
 10
94.61403534961039
 20
-133.8002739465847
 10
95.39262692927684
 20
-133.8002739465847
 10
95.39262692927684
 20
-133.8002739465847
 10
95.39262692927684
 20
-133.8002739465847
 10
95.39262692927684
 20
-133.9949218415013
 10
95.39262692927684
 20
-133.9949218415013
 10
95.39262692927684
 20
-133.9949218415013
 10
94.7769883660627
 20
-133.9949218415013
 10
94.7769883660627
 20
-133.9949218415013
 10
94.7769883660627
 20
-133.9949218415013
 10
94.71153155184295
 20
-134.41797956709
 10
94.71153155184295
 20
-134.41797956709
 10
94.7728542514804
 20
-134.3842176313345
 10
94.85519203357788
 20
-134.3439100141571
 10
94.97370331827047
 20
-134.3439100141571
 10
95.22760685553338
 20
-134.3439100141571
 10
95.46462942491857
 20
-134.5302896799091
 10
95.46462942491857
 20
-134.8434488595183
 10
95.46462942491857
 20
-135.1607421537098
 10
95.2403537088288
 20
-135.3953531562553
 10
94.93787432522387
 20
-135.3953531562553
 97
        0
 97
        0
 75
     2
 76
     1
 98
        0
  0
ENDBLK
  5
88
330
85
100
AcDbEntity
  8
0
100
AcDbBlockEnd
  0
BLOCK
  5
A3
330
A1
100
AcDbEntity
  8
0
100
AcDbBlockBegin
  2
block 6
 70
     0
 10
0.0
 20
0.0
 30
0.0
  3
block 6
  1

  0
SPLINE
  5
A5
330
A1
100
AcDbEntity
  8
_U+30EC_U+30A4_U+30E4_U+30FC 1
370
     0
100
AcDbSpline
210
0.0
220
0.0
230
1.0
 70
    11
 71
     3
 72
    26
 73
    22
 74
     0
 42
0.0000000001
 43
0.0000000001
 12
1.0
 22
0.0
 32
0.0
 13
1.0
 23
0.0
 33
0.0
 40
0.0
 40
0.0
 40
0.0
 40
0.0
 40
1.0
 40
1.0
 40
1.0
 40
2.0
 40
2.0
 40
2.0
 40
3.0
 40
3.0
 40
3.0
 40
4.0
 40
4.0
 40
4.0
 40
5.0
 40
5.0
 40
5.0
 40
6.0
 40
6.0
 40
6.0
 40
7.0
 40
7.0
 40
7.0
 40
7.0
 10
98.14215763605475
 20
-119.009100990213
 30
0.0
 10
98.14215763605475
 20
-119.009100990213
 30
0.0
 10
97.03800453303216
 20
-119.009100990213
 30
0.0
 10
97.03800453303216
 20
-119.009100990213
 30
0.0
 10
97.03800453303216
 20
-119.009100990213
 30
0.0
 10
97.03800453303216
 20
-119.3615342583541
 30
0.0
 10
97.03800453303216
 20
-119.3615342583541
 30
0.0
 10
97.03800453303216
 20
-119.3615342583541
 30
0.0
 10
96.88986542716643
 20
-119.3615342583541
 30
0.0
 10
96.88986542716643
 20
-119.3615342583541
 30
0.0
 10
96.87505151657986
 20
-119.0066894233733
 30
0.0
 10
96.71209850012754
 20
-118.9570800483857
 30
0.0
 10
96.59772133001724
 20
-118.9253851699214
 30
0.0
 10
96.59772133001724
 20
-118.9253851699214
 30
0.0
 10
96.59772133001724
 20
-118.7693223444396
 30
0.0
 10
96.59772133001724
 20
-118.7693223444396
 30
0.0
 10
96.59772133001724
 20
-118.7693223444396
 30
0.0
 10
98.14215763605475
 20
-118.7693223444396
 30
0.0
 10
98.14215763605475
 20
-118.7693223444396
 30
0.0
 10
98.14215763605475
 20
-118.7693223444396
 30
0.0
 10
98.14215763605475
 20
-119.009100990213
 30
0.0
 10
98.14215763605475
 20
-119.009100990213
 30
0.0
  0
HATCH
  5
A6
330
A1
100
AcDbEntity
  8
_U+30EC_U+30A4_U+30E4_U+30FC 1
 62
   179
420
  2234388
100
AcDbHatch
 10
0.0
 20
0.0
 30
0.0
210
0.0
220
0.0
230
1.0
  2
SOLID
 70
     1
 71
     0
 91
        1
 92
        1
 93
        1
 72
     4
 94
        3
 73
     0
 74
     1
 95
       26
 96
       22
 40
0.0
 40
0.0
 40
0.0
 40
0.0
 40
1.0
 40
1.0
 40
1.0
 40
2.0
 40
2.0
 40
2.0
 40
3.0
 40
3.0
 40
3.0
 40
4.0
 40
4.0
 40
4.0
 40
5.0
 40
5.0
 40
5.0
 40
6.0
 40
6.0
 40
6.0
 40
7.0
 40
7.0
 40
7.0
 40
7.0
 10
98.14215763605475
 20
-119.009100990213
 10
98.14215763605475
 20
-119.009100990213
 10
97.03800453303216
 20
-119.009100990213
 10
97.03800453303216
 20
-119.009100990213
 10
97.03800453303216
 20
-119.009100990213
 10
97.03800453303216
 20
-119.3615342583541
 10
97.03800453303216
 20
-119.3615342583541
 10
97.03800453303216
 20
-119.3615342583541
 10
96.88986542716643
 20
-119.3615342583541
 10
96.88986542716643
 20
-119.3615342583541
 10
96.87505151657986
 20
-119.0066894233733
 10
96.71209850012754
 20
-118.9570800483857
 10
96.59772133001724
 20
-118.9253851699214
 10
96.59772133001724
 20
-118.9253851699214
 10
96.59772133001724
 20
-118.7693223444396
 10
96.59772133001724
 20
-118.7693223444396
 10
96.59772133001724
 20
-118.7693223444396
 10
98.14215763605475
 20
-118.7693223444396
 10
98.14215763605475
 20
-118.7693223444396
 10
98.14215763605475
 20
-118.7693223444396
 10
98.14215763605475
 20
-119.009100990213
 10
98.14215763605475
 20
-119.009100990213
 97
        0
 97
        0
 75
     2
 76
     1
 98
        0
  0
SPLINE
  5
A7
330
A1
100
AcDbEntity
  8
_U+30EC_U+30A4_U+30E4_U+30FC 1
370
     0
100
AcDbSpline
210
0.0
220
0.0
230
1.0
 70
    11
 71
     3
 72
    53
 73
    49
 74
     0
 42
0.0000000001
 43
0.0000000001
 12
1.0
 22
0.0
 32
0.0
 13
1.0
 23
0.0
 33
0.0
 40
0.0
 40
0.0
 40
0.0
 40
0.0
 40
1.0
 40
1.0
 40
1.0
 40
2.0
 40
2.0
 40
2.0
 40
3.0
 40
3.0
 40
3.0
 40
4.0
 40
4.0
 40
4.0
 40
5.0
 40
5.0
 40
5.0
 40
6.0
 40
6.0
 40
6.0
 40
7.0
 40
7.0
 40
7.0
 40
8.0
 40
8.0
 40
8.0
 40
9.0
 40
9.0
 40
9.0
 40
10.0
 40
10.0
 40
10.0
 40
11.0
 40
11.0
 40
11.0
 40
12.0
 40
12.0
 40
12.0
 40
13.0
 40
13.0
 40
13.0
 40
14.0
 40
14.0
 40
14.0
 40
15.0
 40
15.0
 40
15.0
 40
16.0
 40
16.0
 40
16.0
 40
16.0
 10
98.19280053968791
 20
-117.719601750084
 30
0.0
 10
98.19280053968791
 20
-117.802973060827
 30
0.0
 10
98.1759195718102
 20
-117.9118380781609
 30
0.0
 10
98.1125298148816
 20
-118.0200140763978
 30
0.0
 10
98.00263126890212
 20
-118.2057047230527
 30
0.0
 10
97.87137313091411
 20
-118.2280978437069
 30
0.0
 10
97.76354164222579
 20
-118.2484239070698
 30
0.0
 10
97.76354164222579
 20
-118.2484239070698
 30
0.0
 10
97.76354164222579
 20
-118.0110568281361
 30
0.0
 10
97.76354164222579
 20
-118.0110568281361
 30
0.0
 10
97.9623236517247
 20
-117.9524902048869
 30
0.0
 10
97.99195147289785
 20
-117.816753442768
 30
0.0
 10
97.99195147289785
 20
-117.7171901832443
 30
0.0
 10
97.99195147289785
 20
-117.568017548733
 30
0.0
 10
97.89238821337413
 20
-117.4054090418292
 30
0.0
 10
97.65984426811977
 20
-117.4054090418292
 30
0.0
 10
97.4038736735657
 20
-117.4054090418292
 30
0.0
 10
97.33393823521513
 20
-117.5973008603576
 30
0.0
 10
97.33393823521513
 20
-117.726147431506
 30
0.0
 10
97.33393823521513
 20
-117.7602538768099
 30
0.0
 10
97.33393823521513
 20
-117.9118380781609
 30
0.0
 10
97.463129315912
 20
-118.0065782040053
 30
0.0
 10
97.463129315912
 20
-118.0065782040053
 30
0.0
 10
97.44418129074313
 20
-118.1943359079514
 30
0.0
 10
97.44418129074313
 20
-118.1943359079514
 30
0.0
 10
97.44418129074313
 20
-118.1943359079514
 30
0.0
 10
96.59772133001724
 20
-118.0654893368031
 30
0.0
 10
96.59772133001724
 20
-118.0654893368031
 30
0.0
 10
96.59772133001724
 20
-118.0654893368031
 30
0.0
 10
96.59772133001724
 20
-117.2334987771152
 30
0.0
 10
96.59772133001724
 20
-117.2334987771152
 30
0.0
 10
96.59772133001724
 20
-117.2334987771152
 30
0.0
 10
96.79236922493385
 20
-117.2334987771152
 30
0.0
 10
96.79236922493385
 20
-117.2334987771152
 30
0.0
 10
96.79236922493385
 20
-117.2334987771152
 30
0.0
 10
96.79236922493385
 20
-117.8911675052494
 30
0.0
 10
96.79236922493385
 20
-117.8911675052494
 30
0.0
 10
96.79236922493385
 20
-117.8911675052494
 30
0.0
 10
97.21542695052254
 20
-117.9614474531485
 30
0.0
 10
97.21542695052254
 20
-117.9614474531485
 30
0.0
 10
97.18166501476709
 20
-117.8959906389288
 30
0.0
 10
97.14135739758966
 20
-117.8077961945064
 30
0.0
 10
97.14135739758966
 20
-117.6810166806492
 30
0.0
 10
97.14135739758966
 20
-117.40988766596
 30
0.0
 10
97.32773706334169
 20
-117.1566731477942
 30
0.0
 10
97.64089624295089
 20
-117.1566731477942
 30
0.0
 10
97.9581895371424
 20
-117.1566731477942
 30
0.0
 10
98.19280053968791
 20
-117.396107284019
 30
0.0
 10
98.19280053968791
 20
-117.719601750084
 30
0.0
  0
HATCH
  5
A8
330
A1
100
AcDbEntity
  8
_U+30EC_U+30A4_U+30E4_U+30FC 1
 62
   179
420
  2234388
100
AcDbHatch
 10
0.0
 20
0.0
 30
0.0
210
0.0
220
0.0
230
1.0
  2
SOLID
 70
     1
 71
     0
 91
        1
 92
        1
 93
        1
 72
     4
 94
        3
 73
     0
 74
     1
 95
       53
 96
       49
 40
0.0
 40
0.0
 40
0.0
 40
0.0
 40
1.0
 40
1.0
 40
1.0
 40
2.0
 40
2.0
 40
2.0
 40
3.0
 40
3.0
 40
3.0
 40
4.0
 40
4.0
 40
4.0
 40
5.0
 40
5.0
 40
5.0
 40
6.0
 40
6.0
 40
6.0
 40
7.0
 40
7.0
 40
7.0
 40
8.0
 40
8.0
 40
8.0
 40
9.0
 40
9.0
 40
9.0
 40
10.0
 40
10.0
 40
10.0
 40
11.0
 40
11.0
 40
11.0
 40
12.0
 40
12.0
 40
12.0
 40
13.0
 40
13.0
 40
13.0
 40
14.0
 40
14.0
 40
14.0
 40
15.0
 40
15.0
 40
15.0
 40
16.0
 40
16.0
 40
16.0
 40
16.0
 10
98.19280053968791
 20
-117.719601750084
 10
98.19280053968791
 20
-117.802973060827
 10
98.1759195718102
 20
-117.9118380781609
 10
98.1125298148816
 20
-118.0200140763978
 10
98.00263126890212
 20
-118.2057047230527
 10
97.87137313091411
 20
-118.2280978437069
 10
97.76354164222579
 20
-118.2484239070698
 10
97.76354164222579
 20
-118.2484239070698
 10
97.76354164222579
 20
-118.0110568281361
 10
97.76354164222579
 20
-118.0110568281361
 10
97.9623236517247
 20
-117.9524902048869
 10
97.99195147289785
 20
-117.816753442768
 10
97.99195147289785
 20
-117.7171901832443
 10
97.99195147289785
 20
-117.568017548733
 10
97.89238821337413
 20
-117.4054090418292
 10
97.65984426811977
 20
-117.4054090418292
 10
97.4038736735657
 20
-117.4054090418292
 10
97.33393823521513
 20
-117.5973008603576
 10
97.33393823521513
 20
-117.726147431506
 10
97.33393823521513
 20
-117.7602538768099
 10
97.33393823521513
 20
-117.9118380781609
 10
97.463129315912
 20
-118.0065782040053
 10
97.463129315912
 20
-118.0065782040053
 10
97.44418129074313
 20
-118.1943359079514
 10
97.44418129074313
 20
-118.1943359079514
 10
97.44418129074313
 20
-118.1943359079514
 10
96.59772133001724
 20
-118.0654893368031
 10
96.59772133001724
 20
-118.0654893368031
 10
96.59772133001724
 20
-118.0654893368031
 10
96.59772133001724
 20
-117.2334987771152
 10
96.59772133001724
 20
-117.2334987771152
 10
96.59772133001724
 20
-117.2334987771152
 10
96.79236922493385
 20
-117.2334987771152
 10
96.79236922493385
 20
-117.2334987771152
 10
96.79236922493385
 20
-117.2334987771152
 10
96.79236922493385
 20
-117.8911675052494
 10
96.79236922493385
 20
-117.8911675052494
 10
96.79236922493385
 20
-117.8911675052494
 10
97.21542695052254
 20
-117.9614474531485
 10
97.21542695052254
 20
-117.9614474531485
 10
97.18166501476709
 20
-117.8959906389288
 10
97.14135739758966
 20
-117.8077961945064
 10
97.14135739758966
 20
-117.6810166806492
 10
97.14135739758966
 20
-117.40988766596
 10
97.32773706334169
 20
-117.1566731477942
 10
97.64089624295089
 20
-117.1566731477942
 10
97.9581895371424
 20
-117.1566731477942
 10
98.19280053968791
 20
-117.396107284019
 10
98.19280053968791
 20
-117.719601750084
 97
        0
 97
        0
 75
     2
 76
     1
 98
        0
  0
ENDBLK
  5
A4
330
A1
100
AcDbEntity
  8
0
100
AcDbBlockEnd
  0
ENDSEC
  0
SECTION
  2
ENTITIES
  0
SPLINE
  5
41
330
1F
100
AcDbEntity
  8
_U+30EC_U+30A4_U+30E4_U+30FC 1
 62
   179
420
  2234388
370
    25
100
AcDbSpline
210
0.0
220
0.0
230
1.0
 70
    11
 71
     3
 72
   206
 73
   202
 74
     0
 42
0.0000000001
 43
0.0000000001
 12
1.0
 22
0.0
 32
0.0
 13
1.0
 23
0.0
 33
0.0
 40
0.0
 40
0.0
 40
0.0
 40
0.0
 40
1.0
 40
1.0
 40
1.0
 40
2.0
 40
2.0
 40
2.0
 40
3.0
 40
3.0
 40
3.0
 40
4.0
 40
4.0
 40
4.0
 40
5.0
 40
5.0
 40
5.0
 40
6.0
 40
6.0
 40
6.0
 40
7.0
 40
7.0
 40
7.0
 40
8.0
 40
8.0
 40
8.0
 40
9.0
 40
9.0
 40
9.0
 40
10.0
 40
10.0
 40
10.0
 40
11.0
 40
11.0
 40
11.0
 40
12.0
 40
12.0
 40
12.0
 40
13.0
 40
13.0
 40
13.0
 40
14.0
 40
14.0
 40
14.0
 40
15.0
 40
15.0
 40
15.0
 40
16.0
 40
16.0
 40
16.0
 40
17.0
 40
17.0
 40
17.0
 40
18.0
 40
18.0
 40
18.0
 40
19.0
 40
19.0
 40
19.0
 40
20.0
 40
20.0
 40
20.0
 40
21.0
 40
21.0
 40
21.0
 40
22.0
 40
22.0
 40
22.0
 40
23.0
 40
23.0
 40
23.0
 40
24.0
 40
24.0
 40
24.0
 40
25.0
 40
25.0
 40
25.0
 40
26.0
 40
26.0
 40
26.0
 40
27.0
 40
27.0
 40
27.0
 40
28.0
 40
28.0
 40
28.0
 40
29.0
 40
29.0
 40
29.0
 40
30.0
 40
30.0
 40
30.0
 40
31.0
 40
31.0
 40
31.0
 40
32.0
 40
32.0
 40
32.0
 40
33.0
 40
33.0
 40
33.0
 40
34.0
 40
34.0
 40
34.0
 40
35.0
 40
35.0
 40
35.0
 40
36.0
 40
36.0
 40
36.0
 40
37.0
 40
37.0
 40
37.0
 40
38.0
 40
38.0
 40
38.0
 40
39.0
 40
39.0
 40
39.0
 40
40.0
 40
40.0
 40
40.0
 40
41.0
 40
41.0
 40
41.0
 40
42.0
 40
42.0
 40
42.0
 40
43.0
 40
43.0
 40
43.0
 40
44.0
 40
44.0
 40
44.0
 40
45.0
 40
45.0
 40
45.0
 40
46.0
 40
46.0
 40
46.0
 40
47.0
 40
47.0
 40
47.0
 40
48.0
 40
48.0
 40
48.0
 40
49.0
 40
49.0
 40
49.0
 40
50.0
 40
50.0
 40
50.0
 40
51.0
 40
51.0
 40
51.0
 40
52.0
 40
52.0
 40
52.0
 40
53.0
 40
53.0
 40
53.0
 40
54.0
 40
54.0
 40
54.0
 40
55.0
 40
55.0
 40
55.0
 40
56.0
 40
56.0
 40
56.0
 40
57.0
 40
57.0
 40
57.0
 40
58.0
 40
58.0
 40
58.0
 40
59.0
 40
59.0
 40
59.0
 40
60.0
 40
60.0
 40
60.0
 40
61.0
 40
61.0
 40
61.0
 40
62.0
 40
62.0
 40
62.0
 40
63.0
 40
63.0
 40
63.0
 40
64.0
 40
64.0
 40
64.0
 40
65.0
 40
65.0
 40
65.0
 40
66.0
 40
66.0
 40
66.0
 40
67.0
 40
67.0
 40
67.0
 40
67.0
 10
88.7108735701304
 20
-134.0245463553826
 30
0.0
 10
88.7108735701304
 20
-134.0245463553826
 30
0.0
 10
88.71154384789108
 20
-133.6138777443742
 30
0.0
 10
88.71154384789108
 20
-133.6138777443742
 30
0.0
 10
88.71154384789108
 20
-133.6138777443742
 30
0.0
 10
88.31124691365906
 20
-133.2032444111439
 30
0.0
 10
88.31124691365906
 20
-133.2032444111439
 30
0.0
 10
88.31124691365906
 20
-133.2032444111439
 30
0.0
 10
88.71154384789108
 20
-132.7925758001355
 30
0.0
 10
88.71154384789108
 20
-132.7925758001355
 30
0.0
 10
88.71154384789108
 20
-132.7925758001355
 30
0.0
 10
88.31124691365906
 20
-132.3819424669045
 30
0.0
 10
88.31124691365906
 20
-132.3819424669045
 30
0.0
 10
88.31124691365906
 20
-132.3819424669045
 30
0.0
 10
88.71154384789108
 20
-131.9712738558961
 30
0.0
 10
88.71154384789108
 20
-131.9712738558961
 30
0.0
 10
88.71154384789108
 20
-131.9712738558961
 30
0.0
 10
88.31124691365906
 20
-131.5606052448877
 30
0.0
 10
88.31124691365906
 20
-131.5606052448877
 30
0.0
 10
88.31124691365906
 20
-131.5606052448877
 30
0.0
 10
88.71154384789108
 20
-131.1499719116568
 30
0.0
 10
88.71154384789108
 20
-131.1499719116568
 30
0.0
 10
88.71154384789108
 20
-131.1499719116568
 30
0.0
 10
88.31124691365906
 20
-130.7393033006483
 30
0.0
 10
88.31124691365906
 20
-130.7393033006483
 30
0.0
 10
88.31124691365906
 20
-130.7393033006483
 30
0.0
 10
88.71154384789108
 20
-130.3286346896399
 30
0.0
 10
88.71154384789108
 20
-130.3286346896399
 30
0.0
 10
88.71154384789108
 20
-130.3286346896399
 30
0.0
 10
88.31124691365906
 20
-129.9180013564097
 30
0.0
 10
88.31124691365906
 20
-129.9180013564097
 30
0.0
 10
88.31124691365906
 20
-129.9180013564097
 30
0.0
 10
88.71154384789108
 20
-129.5073327454012
 30
0.0
 10
88.71154384789108
 20
-129.5073327454012
 30
0.0
 10
88.71154384789108
 20
-129.5073327454012
 30
0.0
 10
88.31124691365906
 20
-129.0966994121703
 30
0.0
 10
88.31124691365906
 20
-129.0966994121703
 30
0.0
 10
88.31124691365906
 20
-129.0966994121703
 30
0.0
 10
88.71154384789108
 20
-128.6862071900508
 30
0.0
 10
88.71154384789108
 20
-128.6862071900508
 30
0.0
 10
88.71154384789108
 20
-128.6862071900508
 30
0.0
 10
88.31124691365906
 20
-128.2753621901535
 30
0.0
 10
88.31124691365906
 20
-128.2753621901535
 30
0.0
 10
88.31124691365906
 20
-128.2753621901535
 30
0.0
 10
88.71154384789108
 20
-127.8649052458114
 30
0.0
 10
88.71154384789108
 20
-127.8649052458114
 30
0.0
 10
88.71154384789108
 20
-127.8649052458114
 30
0.0
 10
88.31124691365906
 20
-127.454236634803
 30
0.0
 10
88.31124691365906
 20
-127.454236634803
 30
0.0
 10
88.31124691365906
 20
-127.454236634803
 30
0.0
 10
88.71154384789108
 20
-127.0435680237946
 30
0.0
 10
88.71154384789108
 20
-127.0435680237946
 30
0.0
 10
88.71154384789108
 20
-127.0435680237946
 30
0.0
 10
88.31124691365906
 20
-126.6327583016751
 30
0.0
 10
88.31124691365906
 20
-126.6327583016751
 30
0.0
 10
88.31124691365906
 20
-126.6327583016751
 30
0.0
 10
88.71154384789108
 20
-126.2220896906667
 30
0.0
 10
88.71154384789108
 20
-126.2220896906667
 30
0.0
 10
88.71154384789108
 20
-126.2220896906667
 30
0.0
 10
88.7108735701304
 20
-125.8115974685471
 30
0.0
 10
88.7108735701304
 20
-125.8115974685471
 30
0.0
 10
88.7108735701304
 20
-125.8115974685471
 30
0.0
 10
88.7310194222616
 20
-125.8100805241032
 30
0.0
 10
88.7310194222616
 20
-125.8100805241032
 30
0.0
 10
88.7310194222616
 20
-125.8100805241032
 30
0.0
 10
88.7310194222616
 20
-122.6881030248834
 30
0.0
 10
88.7310194222616
 20
-122.6881030248834
 30
0.0
 10
88.7310194222616
 20
-122.2250821916659
 30
0.0
 10
88.91566106490583
 20
-120.8360196920131
 30
0.0
 10
90.52520963495394
 20
-120.8360196920131
 30
0.0
 10
92.13493459388644
 20
-120.8360196920131
 30
0.0
 10
92.28927486772666
 20
-122.6881030248834
 30
0.0
 10
92.28927486772666
 20
-123.6361933024242
 30
0.0
 10
92.28927486772666
 20
-124.3197002466978
 30
0.0
 10
92.28927486772666
 20
-125.7969571907729
 30
0.0
 10
92.28927486772666
 20
-125.7969571907729
 30
0.0
 10
92.28927486772666
 20
-125.7969571907729
 30
0.0
 10
93.21531651076805
 20
-125.7969571907729
 30
0.0
 10
93.21531651076805
 20
-125.7969571907729
 30
0.0
 10
93.59014289009431
 20
-121.1447002474915
 30
0.0
 10
92.00264293059482
 20
-115.125429415663
 30
0.0
 10
87.46874304626424
 20
-110.8554071945085
 30
0.0
 10
87.46874304626424
 20
-110.8554071945085
 30
0.0
 10
87.46874304626424
 20
-114.2362530269965
 30
0.0
 10
87.46874304626424
 20
-114.2362530269965
 30
0.0
 10
87.46874304626424
 20
-114.6403599713398
 30
0.0
 10
90.855938793183
 20
-116.5144919153157
 30
0.0
 10
90.855938793183
 20
-117.5287280261733
 30
0.0
 10
90.855938793183
 20
-118.476818303714
 30
0.0
 10
90.10628603453046
 20
-118.4988669148196
 30
0.0
 10
87.46874304626424
 20
-119.2631599701842
 30
0.0
 10
87.46874304626424
 20
-119.2631599701842
 30
0.0
 10
87.46874304626424
 20
-121.1887974697027
 30
0.0
 10
87.46874304626424
 20
-121.1887974697027
 30
0.0
 10
87.46874304626424
 20
-121.1887974697027
 30
0.0
 10
87.46803749072667
 20
-121.5894824696025
 30
0.0
 10
87.46803749072667
 20
-121.5894824696025
 30
0.0
 10
87.46803749072667
 20
-121.5894824696025
 30
0.0
 10
87.9183230347945
 20
-121.9903085806134
 30
0.0
 10
87.9183230347945
 20
-121.9903085806134
 30
0.0
 10
87.9183230347945
 20
-121.9903085806134
 30
0.0
 10
87.46803749072667
 20
-122.3911346916243
 30
0.0
 10
87.46803749072667
 20
-122.3911346916243
 30
0.0
 10
87.46803749072667
 20
-122.3911346916243
 30
0.0
 10
87.9183230347945
 20
-122.7918196915241
 30
0.0
 10
87.9183230347945
 20
-122.7918196915241
 30
0.0
 10
87.9183230347945
 20
-122.7918196915241
 30
0.0
 10
87.46803749072667
 20
-123.1924694136464
 30
0.0
 10
87.46803749072667
 20
-123.1924694136464
 30
0.0
 10
87.46803749072667
 20
-123.1924694136464
 30
0.0
 10
87.9183230347945
 20
-123.5931544135463
 30
0.0
 10
87.9183230347945
 20
-123.5931544135463
 30
0.0
 10
87.9183230347945
 20
-123.5931544135463
 30
0.0
 10
87.46803749072667
 20
-123.9938041356683
 30
0.0
 10
87.46803749072667
 20
-123.9938041356683
 30
0.0
 10
87.46803749072667
 20
-123.9938041356683
 30
0.0
 10
87.9183230347945
 20
-124.3946302466792
 30
0.0
 10
87.9183230347945
 20
-124.3946302466792
 30
0.0
 10
87.9183230347945
 20
-124.3946302466792
 30
0.0
 10
87.46803749072667
 20
-124.7954916354679
 30
0.0
 10
87.46803749072667
 20
-124.7954916354679
 30
0.0
 10
87.46803749072667
 20
-124.7954916354679
 30
0.0
 10
87.9183230347945
 20
-125.1961413575899
 30
0.0
 10
87.9183230347945
 20
-125.1961413575899
 30
0.0
 10
87.9183230347945
 20
-125.1961413575899
 30
0.0
 10
87.46803749072667
 20
-125.5968263574897
 30
0.0
 10
87.46803749072667
 20
-125.5968263574897
 30
0.0
 10
87.46803749072667
 20
-125.5968263574897
 30
0.0
 10
87.9183230347945
 20
-125.9974760796117
 30
0.0
 10
87.9183230347945
 20
-125.9974760796117
 30
0.0
 10
87.9183230347945
 20
-125.9974760796117
 30
0.0
 10
87.46803749072667
 20
-126.3981258017337
 30
0.0
 10
87.46803749072667
 20
-126.3981258017337
 30
0.0
 10
87.46803749072667
 20
-126.3981258017337
 30
0.0
 10
87.9183230347945
 20
-126.7989871905224
 30
0.0
 10
87.9183230347945
 20
-126.7989871905224
 30
0.0
 10
87.9183230347945
 20
-126.7989871905224
 30
0.0
 10
87.46803749072667
 20
-127.1998133015333
 30
0.0
 10
87.46803749072667
 20
-127.1998133015333
 30
0.0
 10
87.46803749072667
 20
-127.1998133015333
 30
0.0
 10
87.9183230347945
 20
-127.6004630236556
 30
0.0
 10
87.9183230347945
 20
-127.6004630236556
 30
0.0
 10
87.9183230347945
 20
-127.6004630236556
 30
0.0
 10
87.46803749072667
 20
-128.0011480235554
 30
0.0
 10
87.46803749072667
 20
-128.0011480235554
 30
0.0
 10
87.46803749072667
 20
-128.0011480235554
 30
0.0
 10
87.9183230347945
 20
-128.4019741345663
 30
0.0
 10
87.9183230347945
 20
-128.4019741345663
 30
0.0
 10
87.9183230347945
 20
-128.4019741345663
 30
0.0
 10
87.46803749072667
 20
-128.8028355233547
 30
0.0
 10
87.46803749072667
 20
-128.8028355233547
 30
0.0
 10
87.46803749072667
 20
-128.8028355233547
 30
0.0
 10
87.9183230347945
 20
-129.203485245477
 30
0.0
 10
87.9183230347945
 20
-129.203485245477
 30
0.0
 10
87.9183230347945
 20
-129.203485245477
 30
0.0
 10
87.46803749072667
 20
-129.6041349675987
 30
0.0
 10
87.46803749072667
 20
-129.6041349675987
 30
0.0
 10
87.46803749072667
 20
-129.6041349675987
 30
0.0
 10
87.9183230347945
 20
-130.0048199674985
 30
0.0
 10
87.9183230347945
 20
-130.0048199674985
 30
0.0
 10
87.9183230347945
 20
-130.0048199674985
 30
0.0
 10
87.46803749072667
 20
-130.4054696896208
 30
0.0
 10
87.46803749072667
 20
-130.4054696896208
 30
0.0
 10
87.46803749072667
 20
-130.4054696896208
 30
0.0
 10
87.9183230347945
 20
-130.8061546895207
 30
0.0
 10
87.9183230347945
 20
-130.8061546895207
 30
0.0
 10
87.9183230347945
 20
-130.8061546895207
 30
0.0
 10
87.46803749072667
 20
-131.2071571894207
 30
0.0
 10
87.46803749072667
 20
-131.2071571894207
 30
0.0
 10
87.46803749072667
 20
-131.2071571894207
 30
0.0
 10
87.9183230347945
 20
-131.6078069115424
 30
0.0
 10
87.9183230347945
 20
-131.6078069115424
 30
0.0
 10
87.9183230347945
 20
-131.6078069115424
 30
0.0
 10
87.46803749072667
 20
-132.0084919114423
 30
0.0
 10
87.46803749072667
 20
-132.0084919114423
 30
0.0
 10
87.46803749072667
 20
-132.0084919114423
 30
0.0
 10
87.9183230347945
 20
-132.4091416335646
 30
0.0
 10
87.9183230347945
 20
-132.4091416335646
 30
0.0
 10
87.9183230347945
 20
-132.4091416335646
 30
0.0
 10
87.46803749072667
 20
-132.8098266334644
 30
0.0
 10
87.46803749072667
 20
-132.8098266334644
 30
0.0
 10
87.46803749072667
 20
-132.8098266334644
 30
0.0
 10
87.9183230347945
 20
-133.2108291333639
 30
0.0
 10
87.9183230347945
 20
-133.2108291333639
 30
0.0
 10
87.9183230347945
 20
-133.2108291333639
 30
0.0
 10
87.46803749072667
 20
-133.6114788554862
 30
0.0
 10
87.46803749072667
 20
-133.6114788554862
 30
0.0
 10
87.46803749072667
 20
-133.6114788554862
 30
0.0
 10
87.46874304626424
 20
-134.012163855386
 30
0.0
 10
87.46874304626424
 20
-134.012163855386
 30
0.0
 10
87.46874304626424
 20
-134.012163855386
 30
0.0
 10
87.46874304626424
 20
-148.8098510739089
 30
0.0
 10
87.46874304626424
 20
-148.8098510739089
 30
0.0
 10
87.46874304626424
 20
-148.8098510739089
 30
0.0
 10
88.7310194222616
 20
-148.8098510739089
 30
0.0
 10
88.7310194222616
 20
-148.8098510739089
 30
0.0
 10
88.7310194222616
 20
-148.8098510739089
 30
0.0
 10
88.7310194222616
 20
-134.012163855386
 30
0.0
 10
88.7310194222616
 20
-134.012163855386
 30
0.0
 10
88.7310194222616
 20
-134.012163855386
 30
0.0
 10
88.7108735701304
 20
-134.0245463553826
 30
0.0
 10
88.7108735701304
 20
-134.0245463553826
 30
0.0
  0
HATCH
  5
42
330
1F
100
AcDbEntity
  8
_U+30EC_U+30A4_U+30E4_U+30FC 1
 62
   253
420
 11711154
100
AcDbHatch
 10
0.0
 20
0.0
 30
0.0
210
0.0
220
0.0
230
1.0
  2
SOLID
 70
     1
 71
     0
 91
        1
 92
        1
 93
        1
 72
     4
 94
        3
 73
     0
 74
     1
 95
      206
 96
      202
 40
0.0
 40
0.0
 40
0.0
 40
0.0
 40
1.0
 40
1.0
 40
1.0
 40
2.0
 40
2.0
 40
2.0
 40
3.0
 40
3.0
 40
3.0
 40
4.0
 40
4.0
 40
4.0
 40
5.0
 40
5.0
 40
5.0
 40
6.0
 40
6.0
 40
6.0
 40
7.0
 40
7.0
 40
7.0
 40
8.0
 40
8.0
 40
8.0
 40
9.0
 40
9.0
 40
9.0
 40
10.0
 40
10.0
 40
10.0
 40
11.0
 40
11.0
 40
11.0
 40
12.0
 40
12.0
 40
12.0
 40
13.0
 40
13.0
 40
13.0
 40
14.0
 40
14.0
 40
14.0
 40
15.0
 40
15.0
 40
15.0
 40
16.0
 40
16.0
 40
16.0
 40
17.0
 40
17.0
 40
17.0
 40
18.0
 40
18.0
 40
18.0
 40
19.0
 40
19.0
 40
19.0
 40
20.0
 40
20.0
 40
20.0
 40
21.0
 40
21.0
 40
21.0
 40
22.0
 40
22.0
 40
22.0
 40
23.0
 40
23.0
 40
23.0
 40
24.0
 40
24.0
 40
24.0
 40
25.0
 40
25.0
 40
25.0
 40
26.0
 40
26.0
 40
26.0
 40
27.0
 40
27.0
 40
27.0
 40
28.0
 40
28.0
 40
28.0
 40
29.0
 40
29.0
 40
29.0
 40
30.0
 40
30.0
 40
30.0
 40
31.0
 40
31.0
 40
31.0
 40
32.0
 40
32.0
 40
32.0
 40
33.0
 40
33.0
 40
33.0
 40
34.0
 40
34.0
 40
34.0
 40
35.0
 40
35.0
 40
35.0
 40
36.0
 40
36.0
 40
36.0
 40
37.0
 40
37.0
 40
37.0
 40
38.0
 40
38.0
 40
38.0
 40
39.0
 40
39.0
 40
39.0
 40
40.0
 40
40.0
 40
40.0
 40
41.0
 40
41.0
 40
41.0
 40
42.0
 40
42.0
 40
42.0
 40
43.0
 40
43.0
 40
43.0
 40
44.0
 40
44.0
 40
44.0
 40
45.0
 40
45.0
 40
45.0
 40
46.0
 40
46.0
 40
46.0
 40
47.0
 40
47.0
 40
47.0
 40
48.0
 40
48.0
 40
48.0
 40
49.0
 40
49.0
 40
49.0
 40
50.0
 40
50.0
 40
50.0
 40
51.0
 40
51.0
 40
51.0
 40
52.0
 40
52.0
 40
52.0
 40
53.0
 40
53.0
 40
53.0
 40
54.0
 40
54.0
 40
54.0
 40
55.0
 40
55.0
 40
55.0
 40
56.0
 40
56.0
 40
56.0
 40
57.0
 40
57.0
 40
57.0
 40
58.0
 40
58.0
 40
58.0
 40
59.0
 40
59.0
 40
59.0
 40
60.0
 40
60.0
 40
60.0
 40
61.0
 40
61.0
 40
61.0
 40
62.0
 40
62.0
 40
62.0
 40
63.0
 40
63.0
 40
63.0
 40
64.0
 40
64.0
 40
64.0
 40
65.0
 40
65.0
 40
65.0
 40
66.0
 40
66.0
 40
66.0
 40
67.0
 40
67.0
 40
67.0
 40
67.0
 10
88.7108735701304
 20
-134.0245463553826
 10
88.7108735701304
 20
-134.0245463553826
 10
88.71154384789108
 20
-133.6138777443742
 10
88.71154384789108
 20
-133.6138777443742
 10
88.71154384789108
 20
-133.6138777443742
 10
88.31124691365906
 20
-133.2032444111439
 10
88.31124691365906
 20
-133.2032444111439
 10
88.31124691365906
 20
-133.2032444111439
 10
88.71154384789108
 20
-132.7925758001355
 10
88.71154384789108
 20
-132.7925758001355
 10
88.71154384789108
 20
-132.7925758001355
 10
88.31124691365906
 20
-132.3819424669045
 10
88.31124691365906
 20
-132.3819424669045
 10
88.31124691365906
 20
-132.3819424669045
 10
88.71154384789108
 20
-131.9712738558961
 10
88.71154384789108
 20
-131.9712738558961
 10
88.71154384789108
 20
-131.9712738558961
 10
88.31124691365906
 20
-131.5606052448877
 10
88.31124691365906
 20
-131.5606052448877
 10
88.31124691365906
 20
-131.5606052448877
 10
88.71154384789108
 20
-131.1499719116568
 10
88.71154384789108
 20
-131.1499719116568
 10
88.71154384789108
 20
-131.1499719116568
 10
88.31124691365906
 20
-130.7393033006483
 10
88.31124691365906
 20
-130.7393033006483
 10
88.31124691365906
 20
-130.7393033006483
 10
88.71154384789108
 20
-130.3286346896399
 10
88.71154384789108
 20
-130.3286346896399
 10
88.71154384789108
 20
-130.3286346896399
 10
88.31124691365906
 20
-129.9180013564097
 10
88.31124691365906
 20
-129.9180013564097
 10
88.31124691365906
 20
-129.9180013564097
 10
88.71154384789108
 20
-129.5073327454012
 10
88.71154384789108
 20
-129.5073327454012
 10
88.71154384789108
 20
-129.5073327454012
 10
88.31124691365906
 20
-129.0966994121703
 10
88.31124691365906
 20
-129.0966994121703
 10
88.31124691365906
 20
-129.0966994121703
 10
88.71154384789108
 20
-128.6862071900508
 10
88.71154384789108
 20
-128.6862071900508
 10
88.71154384789108
 20
-128.6862071900508
 10
88.31124691365906
 20
-128.2753621901535
 10
88.31124691365906
 20
-128.2753621901535
 10
88.31124691365906
 20
-128.2753621901535
 10
88.71154384789108
 20
-127.8649052458114
 10
88.71154384789108
 20
-127.8649052458114
 10
88.71154384789108
 20
-127.8649052458114
 10
88.31124691365906
 20
-127.454236634803
 10
88.31124691365906
 20
-127.454236634803
 10
88.31124691365906
 20
-127.454236634803
 10
88.71154384789108
 20
-127.0435680237946
 10
88.71154384789108
 20
-127.0435680237946
 10
88.71154384789108
 20
-127.0435680237946
 10
88.31124691365906
 20
-126.6327583016751
 10
88.31124691365906
 20
-126.6327583016751
 10
88.31124691365906
 20
-126.6327583016751
 10
88.71154384789108
 20
-126.2220896906667
 10
88.71154384789108
 20
-126.2220896906667
 10
88.71154384789108
 20
-126.2220896906667
 10
88.7108735701304
 20
-125.8115974685471
 10
88.7108735701304
 20
-125.8115974685471
 10
88.7108735701304
 20
-125.8115974685471
 10
88.7310194222616
 20
-125.8100805241032
 10
88.7310194222616
 20
-125.8100805241032
 10
88.7310194222616
 20
-125.8100805241032
 10
88.7310194222616
 20
-122.6881030248834
 10
88.7310194222616
 20
-122.6881030248834
 10
88.7310194222616
 20
-122.2250821916659
 10
88.91566106490583
 20
-120.8360196920131
 10
90.52520963495394
 20
-120.8360196920131
 10
92.13493459388644
 20
-120.8360196920131
 10
92.28927486772666
 20
-122.6881030248834
 10
92.28927486772666
 20
-123.6361933024242
 10
92.28927486772666
 20
-124.3197002466978
 10
92.28927486772666
 20
-125.7969571907729
 10
92.28927486772666
 20
-125.7969571907729
 10
92.28927486772666
 20
-125.7969571907729
 10
93.21531651076805
 20
-125.7969571907729
 10
93.21531651076805
 20
-125.7969571907729
 10
93.59014289009431
 20
-121.1447002474915
 10
92.00264293059482
 20
-115.125429415663
 10
87.46874304626424
 20
-110.8554071945085
 10
87.46874304626424
 20
-110.8554071945085
 10
87.46874304626424
 20
-114.2362530269965
 10
87.46874304626424
 20
-114.2362530269965
 10
87.46874304626424
 20
-114.6403599713398
 10
90.855938793183
 20
-116.5144919153157
 10
90.855938793183
 20
-117.5287280261733
 10
90.855938793183
 20
-118.476818303714
 10
90.10628603453046
 20
-118.4988669148196
 10
87.46874304626424
 20
-119.2631599701842
 10
87.46874304626424
 20
-119.2631599701842
 10
87.46874304626424
 20
-121.1887974697027
 10
87.46874304626424
 20
-121.1887974697027
 10
87.46874304626424
 20
-121.1887974697027
 10
87.46803749072667
 20
-121.5894824696025
 10
87.46803749072667
 20
-121.5894824696025
 10
87.46803749072667
 20
-121.5894824696025
 10
87.9183230347945
 20
-121.9903085806134
 10
87.9183230347945
 20
-121.9903085806134
 10
87.9183230347945
 20
-121.9903085806134
 10
87.46803749072667
 20
-122.3911346916243
 10
87.46803749072667
 20
-122.3911346916243
 10
87.46803749072667
 20
-122.3911346916243
 10
87.9183230347945
 20
-122.7918196915241
 10
87.9183230347945
 20
-122.7918196915241
 10
87.9183230347945
 20
-122.7918196915241
 10
87.46803749072667
 20
-123.1924694136464
 10
87.46803749072667
 20
-123.1924694136464
 10
87.46803749072667
 20
-123.1924694136464
 10
87.9183230347945
 20
-123.5931544135463
 10
87.9183230347945
 20
-123.5931544135463
 10
87.9183230347945
 20
-123.5931544135463
 10
87.46803749072667
 20
-123.9938041356683
 10
87.46803749072667
 20
-123.9938041356683
 10
87.46803749072667
 20
-123.9938041356683
 10
87.9183230347945
 20
-124.3946302466792
 10
87.9183230347945
 20
-124.3946302466792
 10
87.9183230347945
 20
-124.3946302466792
 10
87.46803749072667
 20
-124.7954916354679
 10
87.46803749072667
 20
-124.7954916354679
 10
87.46803749072667
 20
-124.7954916354679
 10
87.9183230347945
 20
-125.1961413575899
 10
87.9183230347945
 20
-125.1961413575899
 10
87.9183230347945
 20
-125.1961413575899
 10
87.46803749072667
 20
-125.5968263574897
 10
87.46803749072667
 20
-125.5968263574897
 10
87.46803749072667
 20
-125.5968263574897
 10
87.9183230347945
 20
-125.9974760796117
 10
87.9183230347945
 20
-125.9974760796117
 10
87.9183230347945
 20
-125.9974760796117
 10
87.46803749072667
 20
-126.3981258017337
 10
87.46803749072667
 20
-126.3981258017337
 10
87.46803749072667
 20
-126.3981258017337
 10
87.9183230347945
 20
-126.7989871905224
 10
87.9183230347945
 20
-126.7989871905224
 10
87.9183230347945
 20
-126.7989871905224
 10
87.46803749072667
 20
-127.1998133015333
 10
87.46803749072667
 20
-127.1998133015333
 10
87.46803749072667
 20
-127.1998133015333
 10
87.9183230347945
 20
-127.6004630236556
 10
87.9183230347945
 20
-127.6004630236556
 10
87.9183230347945
 20
-127.6004630236556
 10
87.46803749072667
 20
-128.0011480235554
 10
87.46803749072667
 20
-128.0011480235554
 10
87.46803749072667
 20
-128.0011480235554
 10
87.9183230347945
 20
-128.4019741345663
 10
87.9183230347945
 20
-128.4019741345663
 10
87.9183230347945
 20
-128.4019741345663
 10
87.46803749072667
 20
-128.8028355233547
 10
87.46803749072667
 20
-128.8028355233547
 10
87.46803749072667
 20
-128.8028355233547
 10
87.9183230347945
 20
-129.203485245477
 10
87.9183230347945
 20
-129.203485245477
 10
87.9183230347945
 20
-129.203485245477
 10
87.46803749072667
 20
-129.6041349675987
 10
87.46803749072667
 20
-129.6041349675987
 10
87.46803749072667
 20
-129.6041349675987
 10
87.9183230347945
 20
-130.0048199674985
 10
87.9183230347945
 20
-130.0048199674985
 10
87.9183230347945
 20
-130.0048199674985
 10
87.46803749072667
 20
-130.4054696896208
 10
87.46803749072667
 20
-130.4054696896208
 10
87.46803749072667
 20
-130.4054696896208
 10
87.9183230347945
 20
-130.8061546895207
 10
87.9183230347945
 20
-130.8061546895207
 10
87.9183230347945
 20
-130.8061546895207
 10
87.46803749072667
 20
-131.2071571894207
 10
87.46803749072667
 20
-131.2071571894207
 10
87.46803749072667
 20
-131.2071571894207
 10
87.9183230347945
 20
-131.6078069115424
 10
87.9183230347945
 20
-131.6078069115424
 10
87.9183230347945
 20
-131.6078069115424
 10
87.46803749072667
 20
-132.0084919114423
 10
87.46803749072667
 20
-132.0084919114423
 10
87.46803749072667
 20
-132.0084919114423
 10
87.9183230347945
 20
-132.4091416335646
 10
87.9183230347945
 20
-132.4091416335646
 10
87.9183230347945
 20
-132.4091416335646
 10
87.46803749072667
 20
-132.8098266334644
 10
87.46803749072667
 20
-132.8098266334644
 10
87.46803749072667
 20
-132.8098266334644
 10
87.9183230347945
 20
-133.2108291333639
 10
87.9183230347945
 20
-133.2108291333639
 10
87.9183230347945
 20
-133.2108291333639
 10
87.46803749072667
 20
-133.6114788554862
 10
87.46803749072667
 20
-133.6114788554862
 10
87.46803749072667
 20
-133.6114788554862
 10
87.46874304626424
 20
-134.012163855386
 10
87.46874304626424
 20
-134.012163855386
 10
87.46874304626424
 20
-134.012163855386
 10
87.46874304626424
 20
-148.8098510739089
 10
87.46874304626424
 20
-148.8098510739089
 10
87.46874304626424
 20
-148.8098510739089
 10
88.7310194222616
 20
-148.8098510739089
 10
88.7310194222616
 20
-148.8098510739089
 10
88.7310194222616
 20
-148.8098510739089
 10
88.7310194222616
 20
-134.012163855386
 10
88.7310194222616
 20
-134.012163855386
 10
88.7310194222616
 20
-134.012163855386
 10
88.7108735701304
 20
-134.0245463553826
 10
88.7108735701304
 20
-134.0245463553826
 97
        0
 97
        0
 75
     2
 76
     1
 98
        0
  0
INSERT
  5
44
330
1F
100
AcDbEntity
  8
_U+30EC_U+30A4_U+30E4_U+30FC 1
100
AcDbBlockReference
  2
block 2
 10
0.0
 20
0.0
 30
0.0
  0
SPLINE
  5
4D
330
1F
100
AcDbEntity
  8
_U+30EC_U+30A4_U+30E4_U+30FC 1
 62
   179
420
  2234388
370
     9
100
AcDbSpline
210
0.0
220
0.0
230
1.0
 70
    11
 71
     3
 72
    17
 73
    13
 74
     0
 42
0.0000000001
 43
0.0000000001
 12
1.0
 22
0.0
 32
0.0
 13
1.0
 23
0.0
 33
0.0
 40
0.0
 40
0.0
 40
0.0
 40
0.0
 40
1.0
 40
1.0
 40
1.0
 40
2.0
 40
2.0
 40
2.0
 40
3.0
 40
3.0
 40
3.0
 40
4.0
 40
4.0
 40
4.0
 40
4.0
 10
83.46863331246627
 20
-148.9101105183283
 30
0.0
 10
83.5237703691311
 20
-148.9101105183283
 30
0.0
 10
83.56853786798898
 20
-148.8653430183391
 30
0.0
 10
83.56853786798898
 20
-148.8098510739089
 30
0.0
 10
83.56853786798898
 20
-148.7547471850334
 30
0.0
 10
83.5237703691311
 20
-148.7099444072673
 30
0.0
 10
83.46863331246627
 20
-148.7099444072673
 30
0.0
 10
83.41352731638807
 20
-148.7099444072673
 30
0.0
 10
83.3687245397533
 20
-148.7547471850334
 30
0.0
 10
83.3687245397533
 20
-148.8098510739089
 30
0.0
 10
83.3687245397533
 20
-148.8653430183391
 30
0.0
 10
83.41352731638807
 20
-148.9101105183283
 30
0.0
 10
83.46863331246627
 20
-148.9101105183283
 30
0.0
  0
SPLINE
  5
4E
330
1F
100
AcDbEntity
  8
_U+30EC_U+30A4_U+30E4_U+30FC 1
 62
   179
420
  2234388
370
     9
100
AcDbSpline
210
0.0
220
0.0
230
1.0
 70
    11
 71
     3
 72
    17
 73
    13
 74
     0
 42
0.0000000001
 43
0.0000000001
 12
1.0
 22
0.0
 32
0.0
 13
1.0
 23
0.0
 33
0.0
 40
0.0
 40
0.0
 40
0.0
 40
0.0
 40
1.0
 40
1.0
 40
1.0
 40
2.0
 40
2.0
 40
2.0
 40
3.0
 40
3.0
 40
3.0
 40
4.0
 40
4.0
 40
4.0
 40
4.0
 10
83.46863331246627
 20
-110.9115694167167
 30
0.0
 10
83.5237703691311
 20
-110.9115694167167
 30
0.0
 10
83.56853786798898
 20
-110.8668019167278
 30
0.0
 10
83.56853786798898
 20
-110.8116627500748
 30
0.0
 10
83.56853786798898
 20
-110.7565588611998
 30
0.0
 10
83.5237703691311
 20
-110.7117560834331
 30
0.0
 10
83.46863331246627
 20
-110.7117560834331
 30
0.0
 10
83.41352731638807
 20
-110.7117560834331
 30
0.0
 10
83.3687245397533
 20
-110.7565588611998
 30
0.0
 10
83.3687245397533
 20
-110.8116627500748
 30
0.0
 10
83.3687245397533
 20
-110.8668019167278
 30
0.0
 10
83.41352731638807
 20
-110.9115694167167
 30
0.0
 10
83.46863331246627
 20
-110.9115694167167
 30
0.0
  0
POLYLINE
  5
4F
330
1F
100
AcDbEntity
  8
_U+30EC_U+30A4_U+30E4_U+30FC 1
 62
   179
420
  2234388
370
     9
100
AcDb2dPolyline
 66
     1
 10
0.0
 20
0.0
 30
0.0
  0
VERTEX
  5
50
330
4F
100
AcDbEntity
  8
_U+30EC_U+30A4_U+30E4_U+30FC 1
 62
   179
420
  2234388
370
     9
100
AcDbVertex
100
AcDb2dVertex
 10
83.46863331246627
 20
-110.8116627500748
 30
0.0
  0
VERTEX
  5
51
330
4F
100
AcDbEntity
  8
_U+30EC_U+30A4_U+30E4_U+30FC 1
 62
   179
420
  2234388
370
     9
100
AcDbVertex
100
AcDb2dVertex
 10
83.46863331246627
 20
-148.8098510739089
 30
0.0
  0
SEQEND
  5
52
330
4F
100
AcDbEntity
  8
_U+30EC_U+30A4_U+30E4_U+30FC 1
 62
   179
420
  2234388
370
     9
  0
SPLINE
  5
53
330
1F
100
AcDbEntity
  8
_U+30EC_U+30A4_U+30E4_U+30FC 1
 62
   179
420
  2234388
370
     9
100
AcDbSpline
210
0.0
220
0.0
230
1.0
 70
    11
 71
     3
 72
    17
 73
    13
 74
     0
 42
0.0000000001
 43
0.0000000001
 12
1.0
 22
0.0
 32
0.0
 13
1.0
 23
0.0
 33
0.0
 40
0.0
 40
0.0
 40
0.0
 40
0.0
 40
1.0
 40
1.0
 40
1.0
 40
2.0
 40
2.0
 40
2.0
 40
3.0
 40
3.0
 40
3.0
 40
4.0
 40
4.0
 40
4.0
 40
4.0
 10
88.56891579597426
 20
-152.9098696839945
 30
0.0
 10
88.62405496123422
 20
-152.9098696839945
 30
0.0
 10
88.6688224600921
 20
-152.865102184006
 30
0.0
 10
88.6688224600921
 20
-152.8099630173529
 30
0.0
 10
88.6688224600921
 20
-152.754859128478
 30
0.0
 10
88.62405496123422
 20
-152.7100563507113
 30
0.0
 10
88.56891579597426
 20
-152.7100563507113
 30
0.0
 10
88.51381190849119
 20
-152.7100563507113
 30
0.0
 10
88.46900913185642
 20
-152.754859128478
 30
0.0
 10
88.46900913185642
 20
-152.8099630173529
 30
0.0
 10
88.46900913185642
 20
-152.865102184006
 30
0.0
 10
88.51381190849119
 20
-152.9098696839945
 30
0.0
 10
88.56891579597426
 20
-152.9098696839945
 30
0.0
  0
SPLINE
  5
54
330
1F
100
AcDbEntity
  8
_U+30EC_U+30A4_U+30E4_U+30FC 1
 62
   179
420
  2234388
370
     9
100
AcDbSpline
210
0.0
220
0.0
230
1.0
 70
    11
 71
     3
 72
    17
 73
    13
 74
     0
 42
0.0000000001
 43
0.0000000001
 12
1.0
 22
0.0
 32
0.0
 13
1.0
 23
0.0
 33
0.0
 40
0.0
 40
0.0
 40
0.0
 40
0.0
 40
1.0
 40
1.0
 40
1.0
 40
2.0
 40
2.0
 40
2.0
 40
3.0
 40
3.0
 40
3.0
 40
4.0
 40
4.0
 40
4.0
 40
4.0
 10
87.56882609926646
 20
-152.9098696839945
 30
0.0
 10
87.62392998674953
 20
-152.9098696839945
 30
0.0
 10
87.6687327633843
 20
-152.865102184006
 30
0.0
 10
87.6687327633843
 20
-152.8099630173529
 30
0.0
 10
87.6687327633843
 20
-152.754859128478
 30
0.0
 10
87.62392998674953
 20
-152.7100563507113
 30
0.0
 10
87.56882609926646
 20
-152.7100563507113
 30
0.0
 10
87.51333415623773
 20
-152.7100563507113
 30
0.0
 10
87.46856665737984
 20
-152.754859128478
 30
0.0
 10
87.46856665737984
 20
-152.8099630173529
 30
0.0
 10
87.46856665737984
 20
-152.865102184006
 30
0.0
 10
87.51333415623773
 20
-152.9098696839945
 30
0.0
 10
87.56882609926646
 20
-152.9098696839945
 30
0.0
  0
SPLINE
  5
55
330
1F
100
AcDbEntity
  8
_U+30EC_U+30A4_U+30E4_U+30FC 1
 62
   179
420
  2234388
370
     9
100
AcDbSpline
210
0.0
220
0.0
230
1.0
 70
    11
 71
     3
 72
    17
 73
    13
 74
     0
 42
0.0000000001
 43
0.0000000001
 12
1.0
 22
0.0
 32
0.0
 13
1.0
 23
0.0
 33
0.0
 40
0.0
 40
0.0
 40
0.0
 40
0.0
 40
1.0
 40
1.0
 40
1.0
 40
2.0
 40
2.0
 40
2.0
 40
3.0
 40
3.0
 40
3.0
 40
4.0
 40
4.0
 40
4.0
 40
4.0
 10
92.26860209047629
 20
-136.0902366326438
 30
0.0
 10
92.32374125573624
 20
-136.0902366326438
 30
0.0
 10
92.3685110880191
 20
-136.0454338548778
 30
0.0
 10
92.3685110880191
 20
-135.9903299660022
 30
0.0
 10
92.3685110880191
 20
-135.9351907993498
 30
0.0
 10
92.32374125573624
 20
-135.8904232993606
 30
0.0
 10
92.26860209047629
 20
-135.8904232993606
 30
0.0
 10
92.21349820299322
 20
-135.8904232993606
 30
0.0
 10
92.16869542635845
 20
-135.9351907993498
 30
0.0
 10
92.16869542635845
 20
-135.9903299660022
 30
0.0
 10
92.16869542635845
 20
-136.0454338548778
 30
0.0
 10
92.21349820299322
 20
-136.0902366326438
 30
0.0
 10
92.26860209047629
 20
-136.0902366326438
 30
0.0
  0
SPLINE
  5
56
330
1F
100
AcDbEntity
  8
_U+30EC_U+30A4_U+30E4_U+30FC 1
 62
   179
420
  2234388
370
     9
100
AcDbSpline
210
0.0
220
0.0
230
1.0
 70
    11
 71
     3
 72
    17
 73
    13
 74
     0
 42
0.0000000001
 43
0.0000000001
 12
1.0
 22
0.0
 32
0.0
 13
1.0
 23
0.0
 33
0.0
 40
0.0
 40
0.0
 40
0.0
 40
0.0
 40
1.0
 40
1.0
 40
1.0
 40
2.0
 40
2.0
 40
2.0
 40
3.0
 40
3.0
 40
3.0
 40
4.0
 40
4.0
 40
4.0
 40
4.0
 10
93.46889317096543
 20
-106.9118102510498
 30
0.0
 10
93.5239970584485
 20
-106.9118102510498
 30
0.0
 10
93.56879983508327
 20
-106.8670427510609
 30
0.0
 10
93.56879983508327
 20
-106.8115508066304
 30
0.0
 10
93.56879983508327
 20
-106.7560941399777
 30
0.0
 10
93.5239970584485
 20
-106.7116441399888
 30
0.0
 10
93.46889317096543
 20
-106.7116441399888
 30
0.0
 10
93.41375400570548
 20
-106.7116441399888
 30
0.0
 10
93.36898886554653
 20
-106.7560941399777
 30
0.0
 10
93.36898886554653
 20
-106.8115508066304
 30
0.0
 10
93.36898886554653
 20
-106.8670427510609
 30
0.0
 10
93.41375400570548
 20
-106.9118102510498
 30
0.0
 10
93.46889317096543
 20
-106.9118102510498
 30
0.0
  0
SPLINE
  5
57
330
1F
100
AcDbEntity
  8
_U+30EC_U+30A4_U+30E4_U+30FC 1
 62
   179
420
  2234388
370
     9
100
AcDbSpline
210
0.0
220
0.0
230
1.0
 70
    11
 71
     3
 72
    17
 73
    13
 74
     0
 42
0.0000000001
 43
0.0000000001
 12
1.0
 22
0.0
 32
0.0
 13
1.0
 23
0.0
 33
0.0
 40
0.0
 40
0.0
 40
0.0
 40
0.0
 40
1.0
 40
1.0
 40
1.0
 40
2.0
 40
2.0
 40
2.0
 40
3.0
 40
3.0
 40
3.0
 40
4.0
 40
4.0
 40
4.0
 40
4.0
 10
87.46874304626424
 20
-106.9118102510498
 30
0.0
 10
87.52384693374731
 20
-106.9118102510498
 30
0.0
 10
87.56864971038208
 20
-106.8670427510609
 30
0.0
 10
87.56864971038208
 20
-106.8119035844082
 30
0.0
 10
87.56864971038208
 20
-106.7567996955329
 30
0.0
 10
87.52384693374731
 20
-106.7119969177666
 30
0.0
 10
87.46874304626424
 20
-106.7119969177666
 30
0.0
 10
87.41325110323551
 20
-106.7119969177666
 30
0.0
 10
87.36848360437762
 20
-106.7567996955329
 30
0.0
 10
87.36848360437762
 20
-106.8119035844082
 30
0.0
 10
87.36848360437762
 20
-106.8670427510609
 30
0.0
 10
87.41325110323551
 20
-106.9118102510498
 30
0.0
 10
87.46874304626424
 20
-106.9118102510498
 30
0.0
  0
POLYLINE
  5
58
330
1F
100
AcDbEntity
  8
_U+30EC_U+30A4_U+30E4_U+30FC 1
 62
   179
420
  2234388
370
     9
100
AcDb2dPolyline
 66
     1
 10
0.0
 20
0.0
 30
0.0
  0
VERTEX
  5
59
330
58
100
AcDbEntity
  8
_U+30EC_U+30A4_U+30E4_U+30FC 1
 62
   179
420
  2234388
370
     9
100
AcDbVertex
100
AcDb2dVertex
 10
88.56891579597426
 20
-152.8099630173529
 30
0.0
  0
VERTEX
  5
5A
330
58
100
AcDbEntity
  8
_U+30EC_U+30A4_U+30E4_U+30FC 1
 62
   179
420
  2234388
370
     9
100
AcDbVertex
100
AcDb2dVertex
 10
93.56879983508327
 20
-152.8099630173529
 30
0.0
  0
SEQEND
  5
5B
330
58
100
AcDbEntity
  8
_U+30EC_U+30A4_U+30E4_U+30FC 1
 62
   179
420
  2234388
370
     9
  0
POLYLINE
  5
5C
330
1F
100
AcDbEntity
  8
_U+30EC_U+30A4_U+30E4_U+30FC 1
 62
   179
420
  2234388
370
     9
100
AcDb2dPolyline
 66
     1
 10
0.0
 20
0.0
 30
0.0
  0
VERTEX
  5
5D
330
5C
100
AcDbEntity
  8
_U+30EC_U+30A4_U+30E4_U+30FC 1
 62
   179
420
  2234388
370
     9
100
AcDbVertex
100
AcDb2dVertex
 10
86.46861807177955
 20
-152.8099630173529
 30
0.0
  0
VERTEX
  5
5E
330
5C
100
AcDbEntity
  8
_U+30EC_U+30A4_U+30E4_U+30FC 1
 62
   179
420
  2234388
370
     9
100
AcDbVertex
100
AcDb2dVertex
 10
88.46883274297204
 20
-152.8099630173529
 30
0.0
  0
SEQEND
  5
5F
330
5C
100
AcDbEntity
  8
_U+30EC_U+30A4_U+30E4_U+30FC 1
 62
   179
420
  2234388
370
     9
  0
POLYLINE
  5
60
330
1F
100
AcDbEntity
  8
_U+30EC_U+30A4_U+30E4_U+30FC 1
 62
   179
420
  2234388
370
     9
100
AcDb2dPolyline
 66
     1
 10
0.0
 20
0.0
 30
0.0
  0
VERTEX
  5
61
330
60
100
AcDbEntity
  8
_U+30EC_U+30A4_U+30E4_U+30FC 1
 62
   179
420
  2234388
370
     9
100
AcDbVertex
100
AcDb2dVertex
 10
88.7310194222616
 20
-135.9903299660022
 30
0.0
  0
VERTEX
  5
62
330
60
100
AcDbEntity
  8
_U+30EC_U+30A4_U+30E4_U+30FC 1
 62
   179
420
  2234388
370
     9
100
AcDbVertex
100
AcDb2dVertex
 10
95.59931811661376
 20
-135.9903299660022
 30
0.0
  0
SEQEND
  5
63
330
60
100
AcDbEntity
  8
_U+30EC_U+30A4_U+30E4_U+30FC 1
 62
   179
420
  2234388
370
     9
  0
POLYLINE
  5
64
330
1F
100
AcDbEntity
  8
_U+30EC_U+30A4_U+30E4_U+30FC 1
 62
   179
420
  2234388
370
     9
100
AcDb2dPolyline
 66
     1
 10
0.0
 20
0.0
 30
0.0
  0
VERTEX
  5
65
330
64
100
AcDbEntity
  8
_U+30EC_U+30A4_U+30E4_U+30FC 1
 62
   179
420
  2234388
370
     9
100
AcDbVertex
100
AcDb2dVertex
 10
87.56882609926646
 20
-151.3499216288292
 30
0.0
  0
VERTEX
  5
66
330
64
100
AcDbEntity
  8
_U+30EC_U+30A4_U+30E4_U+30FC 1
 62
   179
420
  2234388
370
     9
100
AcDbVertex
100
AcDb2dVertex
 10
87.56882609926646
 20
-153.8100880171032
 30
0.0
  0
SEQEND
  5
67
330
64
100
AcDbEntity
  8
_U+30EC_U+30A4_U+30E4_U+30FC 1
 62
   179
420
  2234388
370
     9
  0
POLYLINE
  5
68
330
1F
100
AcDbEntity
  8
_U+30EC_U+30A4_U+30E4_U+30FC 1
 62
   179
420
  2234388
370
     9
100
AcDb2dPolyline
 66
     1
 10
0.0
 20
0.0
 30
0.0
  0
VERTEX
  5
69
330
68
100
AcDbEntity
  8
_U+30EC_U+30A4_U+30E4_U+30FC 1
 62
   179
420
  2234388
370
     9
100
AcDbVertex
100
AcDb2dVertex
 10
88.56891579597426
 20
-151.3499216288292
 30
0.0
  0
VERTEX
  5
6A
330
68
100
AcDbEntity
  8
_U+30EC_U+30A4_U+30E4_U+30FC 1
 62
   179
420
  2234388
370
     9
100
AcDbVertex
100
AcDb2dVertex
 10
88.56891579597426
 20
-153.8100880171032
 30
0.0
  0
SEQEND
  5
6B
330
68
100
AcDbEntity
  8
_U+30EC_U+30A4_U+30E4_U+30FC 1
 62
   179
420
  2234388
370
     9
  0
INSERT
  5
6D
330
1F
100
AcDbEntity
  8
_U+30EC_U+30A4_U+30E4_U+30FC 1
100
AcDbBlockReference
  2
block 3
 10
0.0
 20
0.0
 30
0.0
  0
POLYLINE
  5
72
330
1F
100
AcDbEntity
  8
_U+30EC_U+30A4_U+30E4_U+30FC 1
 62
   179
420
  2234388
370
     9
100
AcDb2dPolyline
 66
     1
 10
0.0
 20
0.0
 30
0.0
  0
VERTEX
  5
73
330
72
100
AcDbEntity
  8
_U+30EC_U+30A4_U+30E4_U+30FC 1
 62
   179
420
  2234388
370
     9
100
AcDbVertex
100
AcDb2dVertex
 10
84.92867255551127
 20
-110.8116627500748
 30
0.0
  0
VERTEX
  5
74
330
72
100
AcDbEntity
  8
_U+30EC_U+30A4_U+30E4_U+30FC 1
 62
   179
420
  2234388
370
     9
100
AcDbVertex
100
AcDb2dVertex
 10
82.46886109049406
 20
-110.8116627500748
 30
0.0
  0
SEQEND
  5
75
330
72
100
AcDbEntity
  8
_U+30EC_U+30A4_U+30E4_U+30FC 1
 62
   179
420
  2234388
370
     9
  0
POLYLINE
  5
76
330
1F
100
AcDbEntity
  8
_U+30EC_U+30A4_U+30E4_U+30FC 1
 62
   179
420
  2234388
370
     9
100
AcDb2dPolyline
 66
     1
 10
0.0
 20
0.0
 30
0.0
  0
VERTEX
  5
77
330
76
100
AcDbEntity
  8
_U+30EC_U+30A4_U+30E4_U+30FC 1
 62
   179
420
  2234388
370
     9
100
AcDbVertex
100
AcDb2dVertex
 10
84.92867255551127
 20
-148.8098510739089
 30
0.0
  0
VERTEX
  5
78
330
76
100
AcDbEntity
  8
_U+30EC_U+30A4_U+30E4_U+30FC 1
 62
   179
420
  2234388
370
     9
100
AcDbVertex
100
AcDb2dVertex
 10
82.46886109049406
 20
-148.8098510739089
 30
0.0
  0
SEQEND
  5
79
330
76
100
AcDbEntity
  8
_U+30EC_U+30A4_U+30E4_U+30FC 1
 62
   179
420
  2234388
370
     9
  0
POLYLINE
  5
7A
330
1F
100
AcDbEntity
  8
_U+30EC_U+30A4_U+30E4_U+30FC 1
 62
   179
420
  2234388
370
     9
100
AcDb2dPolyline
 66
     1
 10
0.0
 20
0.0
 30
0.0
  0
VERTEX
  5
7B
330
7A
100
AcDbEntity
  8
_U+30EC_U+30A4_U+30E4_U+30FC 1
 62
   179
420
  2234388
370
     9
100
AcDbVertex
100
AcDb2dVertex
 10
87.46874304626424
 20
-108.2715921951545
 30
0.0
  0
VERTEX
  5
7C
330
7A
100
AcDbEntity
  8
_U+30EC_U+30A4_U+30E4_U+30FC 1
 62
   179
420
  2234388
370
     9
100
AcDbVertex
100
AcDb2dVertex
 10
87.46874304626424
 20
-105.8114610846583
 30
0.0
  0
SEQEND
  5
7D
330
7A
100
AcDbEntity
  8
_U+30EC_U+30A4_U+30E4_U+30FC 1
 62
   179
420
  2234388
370
     9
  0
INSERT
  5
7F
330
1F
100
AcDbEntity
  8
_U+30EC_U+30A4_U+30E4_U+30FC 1
100
AcDbBlockReference
  2
block 4
 10
0.0
 20
0.0
 30
0.0
  0
INSERT
  5
86
330
1F
100
AcDbEntity
  8
_U+30EC_U+30A4_U+30E4_U+30FC 1
100
AcDbBlockReference
  2
block 5
 10
0.0
 20
0.0
 30
0.0
  0
POLYLINE
  5
95
330
1F
100
AcDbEntity
  8
_U+30EC_U+30A4_U+30E4_U+30FC 1
 62
   179
420
  2234388
370
     9
100
AcDb2dPolyline
 66
     1
 10
0.0
 20
0.0
 30
0.0
  0
VERTEX
  5
96
330
95
100
AcDbEntity
  8
_U+30EC_U+30A4_U+30E4_U+30FC 1
 62
   179
420
  2234388
370
     9
100
AcDbVertex
100
AcDb2dVertex
 10
87.46803749072667
 20
-106.8115508066304
 30
0.0
  0
VERTEX
  5
97
330
95
100
AcDbEntity
  8
_U+30EC_U+30A4_U+30E4_U+30FC 1
 62
   179
420
  2234388
370
     9
100
AcDbVertex
100
AcDb2dVertex
 10
93.46889317096543
 20
-106.8115508066304
 30
0.0
  0
SEQEND
  5
98
330
95
100
AcDbEntity
  8
_U+30EC_U+30A4_U+30E4_U+30FC 1
 62
   179
420
  2234388
370
     9
  0
POLYLINE
  5
99
330
1F
100
AcDbEntity
  8
_U+30EC_U+30A4_U+30E4_U+30FC 1
 62
   179
420
  2234388
370
     9
100
AcDb2dPolyline
 66
     1
 10
0.0
 20
0.0
 30
0.0
  0
VERTEX
  5
9A
330
99
100
AcDbEntity
  8
_U+30EC_U+30A4_U+30E4_U+30FC 1
 62
   179
420
  2234388
370
     9
100
AcDbVertex
100
AcDb2dVertex
 10
92.26860209047629
 20
-136.9901021879747
 30
0.0
  0
VERTEX
  5
9B
330
99
100
AcDbEntity
  8
_U+30EC_U+30A4_U+30E4_U+30FC 1
 62
   179
420
  2234388
370
     9
100
AcDbVertex
100
AcDb2dVertex
 10
92.26860209047629
 20
-130.2907463563164
 30
0.0
  0
SEQEND
  5
9C
330
99
100
AcDbEntity
  8
_U+30EC_U+30A4_U+30E4_U+30FC 1
 62
   179
420
  2234388
370
     9
  0
POLYLINE
  5
9D
330
1F
100
AcDbEntity
  8
_U+30EC_U+30A4_U+30E4_U+30FC 1
 62
   179
420
  2234388
370
     9
100
AcDb2dPolyline
 66
     1
 10
0.0
 20
0.0
 30
0.0
  0
VERTEX
  5
9E
330
9D
100
AcDbEntity
  8
_U+30EC_U+30A4_U+30E4_U+30FC 1
 62
   179
420
  2234388
370
     9
100
AcDbVertex
100
AcDb2dVertex
 10
93.46889317096543
 20
-115.4432469155837
 30
0.0
  0
VERTEX
  5
9F
330
9D
100
AcDbEntity
  8
_U+30EC_U+30A4_U+30E4_U+30FC 1
 62
   179
420
  2234388
370
     9
100
AcDbVertex
100
AcDb2dVertex
 10
93.46889317096543
 20
-105.8114610846583
 30
0.0
  0
SEQEND
  5
A0
330
9D
100
AcDbEntity
  8
_U+30EC_U+30A4_U+30E4_U+30FC 1
 62
   179
420
  2234388
370
     9
  0
INSERT
  5
A2
330
1F
100
AcDbEntity
  8
_U+30EC_U+30A4_U+30E4_U+30FC 1
100
AcDbBlockReference
  2
block 6
 10
0.0
 20
0.0
 30
0.0
  0
SPLINE
  5
A9
330
1F
100
AcDbEntity
  8
_U+30EC_U+30A4_U+30E4_U+30FC 1
 62
   179
420
  2234388
370
     9
100
AcDbSpline
210
0.0
220
0.0
230
1.0
 70
    11
 71
     3
 72
    17
 73
    13
 74
     0
 42
0.0000000001
 43
0.0000000001
 12
1.0
 22
0.0
 32
0.0
 13
1.0
 23
0.0
 33
0.0
 40
0.0
 40
0.0
 40
0.0
 40
0.0
 40
1.0
 40
1.0
 40
1.0
 40
2.0
 40
2.0
 40
2.0
 40
3.0
 40
3.0
 40
3.0
 40
4.0
 40
4.0
 40
4.0
 40
4.0
 10
98.78260831317904
 20
-110.9274091389349
 30
0.0
 10
98.83841775619966
 20
-110.9274091389349
 30
0.0
 10
98.88318525505755
 20
-110.882641638946
 30
0.0
 10
98.88318525505755
 20
-110.827502472293
 30
0.0
 10
98.88318525505755
 20
-110.7723985834181
 30
0.0
 10
98.83841775619966
 20
-110.7275958056513
 30
0.0
 10
98.78260831317904
 20
-110.7275958056513
 30
0.0
 10
98.7274691479191
 20
-110.7275958056513
 30
0.0
 10
98.6827016490612
 20
-110.7723985834181
 30
0.0
 10
98.6827016490612
 20
-110.827502472293
 30
0.0
 10
98.6827016490612
 20
-110.882641638946
 30
0.0
 10
98.7274691479191
 20
-110.9274091389349
 30
0.0
 10
98.78260831317904
 20
-110.9274091389349
 30
0.0
  0
SPLINE
  5
AA
330
1F
100
AcDbEntity
  8
_U+30EC_U+30A4_U+30E4_U+30FC 1
 62
   179
420
  2234388
370
     9
100
AcDbSpline
210
0.0
220
0.0
230
1.0
 70
    11
 71
     3
 72
    17
 73
    13
 74
     0
 42
0.0000000001
 43
0.0000000001
 12
1.0
 22
0.0
 32
0.0
 13
1.0
 23
0.0
 33
0.0
 40
0.0
 40
0.0
 40
0.0
 40
0.0
 40
1.0
 40
1.0
 40
1.0
 40
2.0
 40
2.0
 40
2.0
 40
3.0
 40
3.0
 40
3.0
 40
4.0
 40
4.0
 40
4.0
 40
4.0
 10
98.78260831317904
 20
-125.9273791351848
 30
0.0
 10
98.83841775619966
 20
-125.9273791351848
 30
0.0
 10
98.88318525505755
 20
-125.8825763574184
 30
0.0
 10
98.88318525505755
 20
-125.8274724685432
 30
0.0
 10
98.88318525505755
 20
-125.7723333018904
 30
0.0
 10
98.83841775619966
 20
-125.7275658019015
 30
0.0
 10
98.78260831317904
 20
-125.7275658019015
 30
0.0
 10
98.7274691479191
 20
-125.7275658019015
 30
0.0
 10
98.6827016490612
 20
-125.7723333018904
 30
0.0
 10
98.6827016490612
 20
-125.8274724685432
 30
0.0
 10
98.6827016490612
 20
-125.8825763574184
 30
0.0
 10
98.7274691479191
 20
-125.9273791351848
 30
0.0
 10
98.78260831317904
 20
-125.9273791351848
 30
0.0
  0
POLYLINE
  5
AB
330
1F
100
AcDbEntity
  8
_U+30EC_U+30A4_U+30E4_U+30FC 1
 62
   179
420
  2234388
370
     9
100
AcDb2dPolyline
 66
     1
 10
0.0
 20
0.0
 30
0.0
  0
VERTEX
  5
AC
330
AB
100
AcDbEntity
  8
_U+30EC_U+30A4_U+30E4_U+30FC 1
 62
   179
420
  2234388
370
     9
100
AcDbVertex
100
AcDb2dVertex
 10
98.78260831317904
 20
-110.827502472293
 30
0.0
  0
VERTEX
  5
AD
330
AB
100
AcDbEntity
  8
_U+30EC_U+30A4_U+30E4_U+30FC 1
 62
   179
420
  2234388
370
     9
100
AcDbVertex
100
AcDb2dVertex
 10
98.78260831317904
 20
-125.8274724685432
 30
0.0
  0
SEQEND
  5
AE
330
AB
100
AcDbEntity
  8
_U+30EC_U+30A4_U+30E4_U+30FC 1
 62
   179
420
  2234388
370
     9
  0
POLYLINE
  5
AF
330
1F
100
AcDbEntity
  8
_U+30EC_U+30A4_U+30E4_U+30FC 1
 62
   179
420
  2234388
370
     9
100
AcDb2dPolyline
 66
     1
 10
0.0
 20
0.0
 30
0.0
  0
VERTEX
  5
B0
330
AF
100
AcDbEntity
  8
_U+30EC_U+30A4_U+30E4_U+30FC 1
 62
   179
420
  2234388
370
     9
100
AcDbVertex
100
AcDb2dVertex
 10
90.42392713753787
 20
-110.827502472293
 30
0.0
  0
VERTEX
  5
B1
330
AF
100
AcDbEntity
  8
_U+30EC_U+30A4_U+30E4_U+30FC 1
 62
   179
420
  2234388
370
     9
100
AcDbVertex
100
AcDb2dVertex
 10
99.78305078765563
 20
-110.827502472293
 30
0.0
  0
SEQEND
  5
B2
330
AF
100
AcDbEntity
  8
_U+30EC_U+30A4_U+30E4_U+30FC 1
 62
   179
420
  2234388
370
     9
  0
POLYLINE
  5
B3
330
1F
100
AcDbEntity
  8
_U+30EC_U+30A4_U+30E4_U+30FC 1
 62
   179
420
  2234388
370
     9
100
AcDb2dPolyline
 66
     1
 10
0.0
 20
0.0
 30
0.0
  0
VERTEX
  5
B4
330
B3
100
AcDbEntity
  8
_U+30EC_U+30A4_U+30E4_U+30FC 1
 62
   179
420
  2234388
370
     9
100
AcDbVertex
100
AcDb2dVertex
 10
97.27571807384524
 20
-125.8274724685432
 30
0.0
  0
VERTEX
  5
B5
330
B3
100
AcDbEntity
  8
_U+30EC_U+30A4_U+30E4_U+30FC 1
 62
   179
420
  2234388
370
     9
100
AcDbVertex
100
AcDb2dVertex
 10
99.78305078765563
 20
-125.8274724685432
 30
0.0
  0
SEQEND
  5
B6
330
B3
100
AcDbEntity
  8
_U+30EC_U+30A4_U+30E4_U+30FC 1
 62
   179
420
  2234388
370
     9
  0
ENDSEC
  0
SECTION
  2
OBJECTS
  0
DICTIONARY
  5
C
330
0
100
AcDbDictionary
281
     1
  3
ACAD_GROUP
350
D
  3
ACAD_LAYOUT
350
1A
  3
ACAD_MATERIAL
350
3B
  3
ACAD_MLEADERSTYLE
350
B8
  3
ACAD_MLINESTYLE
350
17
  3
ACAD_PLOTSETTINGS
350
19
  3
ACAD_PLOTSTYLENAME
350
E
  3
ACAD_TABLESTYLE
350
B7
  3
ACAD_VISUALSTYLE
350
2A
  0
SUN
  5
3F
330
29
100
AcDbSun
 90
        1
290
     0
 63
     7
421
 16777215
 40
1.0
291
     1
 91
  2455826
 92
 54000000
292
     0
 70
     2
 71
   256
280
     1
  0
DICTIONARY
  5
D
102
{ACAD_REACTORS
330
C
102
}
330
C
100
AcDbDictionary
281
     1
  0
DICTIONARY
  5
1A
102
{ACAD_REACTORS
330
C
102
}
330
C
100
AcDbDictionary
281
     1
  3
Layout1
350
1E
  3
Layout2
350
26
  3
Model
350
22
  0
DICTIONARY
  5
3B
102
{ACAD_REACTORS
330
C
102
}
330
C
100
AcDbDictionary
281
     1
  3
ByBlock
350
3D
  3
ByLayer
350
3C
  3
Global
350
3E
  0
DICTIONARY
  5
B8
102
{ACAD_REACTORS
330
C
102
}
330
C
100
AcDbDictionary
281
     1
  0
DICTIONARY
  5
17
102
{ACAD_REACTORS
330
C
102
}
330
C
100
AcDbDictionary
281
     1
  3
Standard
350
18
  0
DICTIONARY
  5
19
102
{ACAD_REACTORS
330
C
102
}
330
C
100
AcDbDictionary
281
     1
  0
ACDBDICTIONARYWDFLT
  5
E
102
{ACAD_REACTORS
330
C
102
}
330
C
100
AcDbDictionary
281
     1
  3
Normal
350
F
100
AcDbDictionaryWithDefault
340
F
  0
DICTIONARY
  5
B7
102
{ACAD_REACTORS
330
C
102
}
330
C
100
AcDbDictionary
281
     1
  0
DICTIONARY
  5
2A
102
{ACAD_REACTORS
330
C
102
}
330
C
100
AcDbDictionary
281
     1
  3
2dWireframe
350
2F
  3
3D Hidden
350
31
  3
3dWireframe
350
30
  3
Basic
350
32
  3
Brighten
350
36
  3
ColorChange
350
3A
  3
Conceptual
350
34
  3
Dim
350
35
  3
Facepattern
350
39
  3
Flat
350
2B
  3
FlatWithEdges
350
2C
  3
Gouraud
350
2D
  3
GouraudWithEdges
350
2E
  3
Linepattern
350
38
  3
Realistic
350
33
  3
Thicken
350
37
  0
LAYOUT
  5
1E
102
{ACAD_REACTORS
330
1A
102
}
330
1A
100
AcDbPlotSettings
  1

  2
none_device
  4

  6

 40
0.0
 41
0.0
 42
0.0
 43
0.0
 44
0.0
 45
0.0
 46
0.0
 47
0.0
 48
0.0
 49
0.0
140
0.0
141
0.0
142
1.0
143
1.0
 70
   688
 72
     0
 73
     0
 74
     5
  7

 75
    16
 76
     0
 77
     2
 78
   300
147
1.0
148
0.0
149
0.0
100
AcDbLayout
  1
Layout1
 70
     1
 71
     1
 10
0.0
 20
0.0
 11
12.0
 21
9.0
 12
0.0
 22
0.0
 32
0.0
 14
1.000000000000000E+20
 24
1.000000000000000E+20
 34
1.000000000000000E+20
 15
-1.000000000000000E+20
 25
-1.000000000000000E+20
 35
-1.000000000000000E+20
146
0.0
 13
0.0
 23
0.0
 33
0.0
 16
1.0
 26
0.0
 36
0.0
 17
0.0
 27
1.0
 37
0.0
 76
     0
330
1B
  0
LAYOUT
  5
26
102
{ACAD_REACTORS
330
1A
102
}
330
1A
100
AcDbPlotSettings
  1

  2
none_device
  4

  6

 40
0.0
 41
0.0
 42
0.0
 43
0.0
 44
0.0
 45
0.0
 46
0.0
 47
0.0
 48
0.0
 49
0.0
140
0.0
141
0.0
142
1.0
143
1.0
 70
   688
 72
     0
 73
     0
 74
     5
  7

 75
    16
 76
     0
 77
     2
 78
   300
147
1.0
148
0.0
149
0.0
100
AcDbLayout
  1
Layout2
 70
     1
 71
     2
 10
0.0
 20
0.0
 11
0.0
 21
0.0
 12
0.0
 22
0.0
 32
0.0
 14
0.0
 24
0.0
 34
0.0
 15
0.0
 25
0.0
 35
0.0
146
0.0
 13
0.0
 23
0.0
 33
0.0
 16
1.0
 26
0.0
 36
0.0
 17
0.0
 27
1.0
 37
0.0
 76
     0
330
23
  0
LAYOUT
  5
22
102
{ACAD_REACTORS
330
1A
102
}
330
1A
100
AcDbPlotSettings
  1

  2
none_device
  4

  6

 40
0.0
 41
0.0
 42
0.0
 43
0.0
 44
0.0
 45
0.0
 46
0.0
 47
0.0
 48
0.0
 49
0.0
140
0.0
141
0.0
142
1.0
143
1.0
 70
  1712
 72
     0
 73
     0
 74
     0
  7

 75
     0
 76
     0
 77
     2
 78
   300
147
1.0
148
0.0
149
0.0
100
AcDbLayout
  1
Model
 70
     1
 71
     0
 10
0.0
 20
0.0
 11
12.0
 21
9.0
 12
0.0
 22
0.0
 32
0.0
 14
1.000000000000000E+20
 24
1.000000000000000E+20
 34
1.000000000000000E+20
 15
-1.000000000000000E+20
 25
-1.000000000000000E+20
 35
-1.000000000000000E+20
146
0.0
 13
0.0
 23
0.0
 33
0.0
 16
1.0
 26
0.0
 36
0.0
 17
0.0
 27
1.0
 37
0.0
 76
     0
330
1F
331
29
  0
MATERIAL
  5
3D
102
{ACAD_REACTORS
330
3B
102
}
330
3B
100
AcDbMaterial
  1
ByBlock
 72
     1
 94
      127
  0
MATERIAL
  5
3C
102
{ACAD_REACTORS
330
3B
102
}
330
3B
100
AcDbMaterial
  1
ByLayer
 72
     1
 94
      127
  0
MATERIAL
  5
3E
102
{ACAD_REACTORS
330
3B
102
}
330
3B
100
AcDbMaterial
  1
Global
 72
     1
 94
      127
  0
MLINESTYLE
  5
18
102
{ACAD_REACTORS
330
17
102
}
330
17
100
AcDbMlineStyle
  2
Standard
 70
     0
  3

 62
   256
 51
90.0
 52
90.0
 71
     2
 49
0.5
 62
   256
  6
BYLAYER
 49
-0.5
 62
   256
  6
BYLAYER
  0
ACDBPLACEHOLDER
  5
F
102
{ACAD_REACTORS
330
E
102
}
330
E
  0
VISUALSTYLE
  5
2F
102
{ACAD_REACTORS
330
2A
102
}
330
2A
100
AcDbVisualStyle
  2
2dWireframe
 70
     4
177
     2
291
     0
 71
     0
176
     1
 72
     2
176
     1
 73
     0
176
     1
 90
        0
176
     1
 40
-0.6
176
     1
 41
-30.0
176
     1
 62
     5
 63
     7
421
 16777215
176
     1
 74
     1
176
     1
 91
        4
176
     1
 64
     7
176
     1
 65
   257
176
     1
 75
     1
176
     1
175
     1
176
     1
 42
1.0
176
     1
 92
        0
176
     1
 66
   257
176
     1
 43
1.0
176
     1
 76
     1
176
     1
 77
     6
176
     1
 78
     2
176
     1
 67
     7
176
     1
 79
     5
176
     1
170
     0
176
     1
171
     0
176
     1
290
     0
176
     1
 93
        1
176
     1
 44
0.0
176
     1
173
     0
176
     1
  0
VISUALSTYLE
  5
31
102
{ACAD_REACTORS
330
2A
102
}
330
2A
100
AcDbVisualStyle
  2
3D Hidden
 70
     6
177
     2
291
     0
 71
     1
176
     1
 72
     2
176
     1
 73
     2
176
     1
 90
        0
176
     1
 40
-0.6
176
     1
 41
-30.0
176
     1
 62
     5
 63
     7
421
 16777215
176
     1
 74
     2
176
     1
 91
        2
176
     1
 64
     7
176
     1
 65
   257
176
     1
 75
     2
176
     1
175
     1
176
     1
 42
40.0
176
     1
 92
        0
176
     1
 66
   257
176
     1
 43
1.0
176
     1
 76
     1
176
     1
 77
     6
176
     1
 78
     2
176
     1
 67
     7
176
     1
 79
     3
176
     1
170
     0
176
     1
171
     0
176
     1
290
     0
176
     1
 93
        1
176
     1
 44
0.0
176
     1
173
     0
176
     1
  0
VISUALSTYLE
  5
30
102
{ACAD_REACTORS
330
2A
102
}
330
2A
100
AcDbVisualStyle
  2
3dWireframe
 70
     5
177
     2
291
     0
 71
     0
176
     1
 72
     2
176
     1
 73
     0
176
     1
 90
        0
176
     1
 40
-0.6
176
     1
 41
-30.0
176
     1
 62
     5
 63
     7
421
 16777215
176
     1
 74
     1
176
     1
 91
        4
176
     1
 64
     7
176
     1
 65
   257
176
     1
 75
     1
176
     1
175
     1
176
     1
 42
1.0
176
     1
 92
        0
176
     1
 66
   257
176
     1
 43
1.0
176
     1
 76
     1
176
     1
 77
     6
176
     1
 78
     2
176
     1
 67
     7
176
     1
 79
     5
176
     1
170
     0
176
     1
171
     0
176
     1
290
     0
176
     1
 93
        1
176
     1
 44
0.0
176
     1
173
     0
176
     1
  0
VISUALSTYLE
  5
32
102
{ACAD_REACTORS
330
2A
102
}
330
2A
100
AcDbVisualStyle
  2
Basic
 70
     7
177
     2
291
     1
 71
     1
176
     1
 72
     0
176
     1
 73
     1
176
     1
 90
        0
176
     1
 40
-0.6
176
     1
 41
-30.0
176
     1
 62
     5
 63
     7
421
 16777215
176
     1
 74
     0
176
     1
 91
        4
176
     1
 64
     7
176
     1
 65
   257
176
     1
 75
     1
176
     1
175
     1
176
     1
 42
1.0
176
     1
 92
        8
176
     1
 66
     7
176
     1
 43
1.0
176
     1
 76
     1
176
     1
 77
     6
176
     1
 78
     2
176
     1
 67
     7
176
     1
 79
     5
176
     1
170
     0
176
     1
171
     0
176
     1
290
     0
176
     1
 93
        1
176
     1
 44
0.0
176
     1
173
     0
176
     1
  0
VISUALSTYLE
  5
36
102
{ACAD_REACTORS
330
2A
102
}
330
2A
100
AcDbVisualStyle
  2
Brighten
 70
    12
177
     2
291
     1
 71
     2
176
     1
 72
     2
176
     1
 73
     0
176
     1
 90
        0
176
     1
 40
-0.6
176
     1
 41
-30.0
176
     1
 62
     5
 63
     7
421
 16777215
176
     1
 74
     1
176
     1
 91
        4
176
     1
 64
     7
176
     1
 65
   257
176
     1
 75
     1
176
     1
175
     1
176
     1
 42
1.0
176
     1
 92
        8
176
     1
 66
     7
176
     1
 43
1.0
176
     1
 76
     1
176
     1
 77
     6
176
     1
 78
     2
176
     1
 67
     7
176
     1
 79
     5
176
     1
170
     0
176
     1
171
     0
176
     1
290
     0
176
     1
 93
        1
176
     1
 44
50.0
176
     1
173
     0
176
     1
  0
VISUALSTYLE
  5
3A
102
{ACAD_REACTORS
330
2A
102
}
330
2A
100
AcDbVisualStyle
  2
ColorChange
 70
    16
177
     2
291
     1
 71
     2
176
     1
 72
     2
176
     1
 73
     3
176
     1
 90
        0
176
     1
 40
-0.6
176
     1
 41
-30.0
176
     1
 62
     5
 63
     8
421
  8421504
176
     1
 74
     1
176
     1
 91
        4
176
     1
 64
     7
176
     1
 65
   257
176
     1
 75
     1
176
     1
175
     1
176
     1
 42
1.0
176
     1
 92
        8
176
     1
 66
     8
424
  8421504
176
     1
 43
1.0
176
     1
 76
     1
176
     1
 77
     6
176
     1
 78
     2
176
     1
 67
     7
176
     1
 79
     5
176
     1
170
     0
176
     1
171
     0
176
     1
290
     0
176
     1
 93
        1
176
     1
 44
0.0
176
     1
173
     0
176
     1
  0
VISUALSTYLE
  5
34
102
{ACAD_REACTORS
330
2A
102
}
330
2A
100
AcDbVisualStyle
  2
Conceptual
 70
     9
177
     2
291
     0
 71
     3
176
     1
 72
     2
176
     1
 73
     0
176
     1
 90
        0
176
     1
 40
-0.6
176
     1
 41
-30.0
176
     1
 62
     5
 63
     7
421
 16777215
176
     1
 74
     2
176
     1
 91
        2
176
     1
 64
     7
176
     1
 65
   257
176
     1
 75
     1
176
     1
175
     1
176
     1
 42
40.0
176
     1
 92
        8
176
     1
 66
     7
176
     1
 43
1.0
176
     1
 76
     1
176
     1
 77
     6
176
     1
 78
     2
176
     1
 67
     7
176
     1
 79
     3
176
     1
170
     0
176
     1
171
     0
176
     1
290
     0
176
     1
 93
        1
176
     1
 44
0.0
176
     1
173
     0
176
     1
  0
VISUALSTYLE
  5
35
102
{ACAD_REACTORS
330
2A
102
}
330
2A
100
AcDbVisualStyle
  2
Dim
 70
    11
177
     2
291
     1
 71
     2
176
     1
 72
     2
176
     1
 73
     0
176
     1
 90
        0
176
     1
 40
-0.6
176
     1
 41
-30.0
176
     1
 62
     5
 63
     7
421
 16777215
176
     1
 74
     1
176
     1
 91
        4
176
     1
 64
     7
176
     1
 65
   257
176
     1
 75
     1
176
     1
175
     1
176
     1
 42
1.0
176
     1
 92
        8
176
     1
 66
     7
176
     1
 43
1.0
176
     1
 76
     1
176
     1
 77
     6
176
     1
 78
     2
176
     1
 67
     7
176
     1
 79
     5
176
     1
170
     0
176
     1
171
     0
176
     1
290
     0
176
     1
 93
        1
176
     1
 44
-50.0
176
     1
173
     0
176
     1
  0
VISUALSTYLE
  5
39
102
{ACAD_REACTORS
330
2A
102
}
330
2A
100
AcDbVisualStyle
  2
Facepattern
 70
    15
177
     2
291
     1
 71
     2
176
     1
 72
     2
176
     1
 73
     0
176
     1
 90
        0
176
     1
 40
-0.6
176
     1
 41
-30.0
176
     1
 62
     5
 63
     7
421
 16777215
176
     1
 74
     1
176
     1
 91
        4
176
     1
 64
     7
176
     1
 65
   257
176
     1
 75
     1
176
     1
175
     1
176
     1
 42
1.0
176
     1
 92
        8
176
     1
 66
     7
176
     1
 43
1.0
176
     1
 76
     1
176
     1
 77
     6
176
     1
 78
     2
176
     1
 67
     7
176
     1
 79
     5
176
     1
170
     0
176
     1
171
     0
176
     1
290
     0
176
     1
 93
        1
176
     1
 44
0.0
176
     1
173
     0
176
     1
  0
VISUALSTYLE
  5
2B
102
{ACAD_REACTORS
330
2A
102
}
330
2A
100
AcDbVisualStyle
  2
Flat
 70
     0
177
     2
291
     1
 71
     2
176
     1
 72
     1
176
     1
 73
     1
176
     1
 90
        2
176
     1
 40
-0.6
176
     1
 41
30.0
176
     1
 62
     5
 63
     7
421
 16777215
176
     1
 74
     0
176
     1
 91
        4
176
     1
 64
     7
176
     1
 65
   257
176
     1
 75
     1
176
     1
175
     1
176
     1
 42
1.0
176
     1
 92
        8
176
     1
 66
     7
176
     1
 43
1.0
176
     1
 76
     1
176
     1
 77
     6
176
     1
 78
     2
176
     1
 67
     7
176
     1
 79
     5
176
     1
170
     0
176
     1
171
     0
176
     1
290
     0
176
     1
 93
       13
176
     1
 44
0.0
176
     1
173
     0
176
     1
  0
VISUALSTYLE
  5
2C
102
{ACAD_REACTORS
330
2A
102
}
330
2A
100
AcDbVisualStyle
  2
FlatWithEdges
 70
     1
177
     2
291
     1
 71
     2
176
     1
 72
     1
176
     1
 73
     1
176
     1
 90
        2
176
     1
 40
-0.6
176
     1
 41
30.0
176
     1
 62
     5
 63
     7
421
 16777215
176
     1
 74
     1
176
     1
 91
        4
176
     1
 64
     7
176
     1
 65
   257
176
     1
 75
     1
176
     1
175
     1
176
     1
 42
1.0
176
     1
 92
        0
176
     1
 66
   257
176
     1
 43
1.0
176
     1
 76
     1
176
     1
 77
     6
176
     1
 78
     2
176
     1
 67
     7
176
     1
 79
     5
176
     1
170
     0
176
     1
171
     0
176
     1
290
     0
176
     1
 93
       13
176
     1
 44
0.0
176
     1
173
     0
176
     1
  0
VISUALSTYLE
  5
2D
102
{ACAD_REACTORS
330
2A
102
}
330
2A
100
AcDbVisualStyle
  2
Gouraud
 70
     2
177
     2
291
     1
 71
     2
176
     1
 72
     2
176
     1
 73
     1
176
     1
 90
        2
176
     1
 40
-0.6
176
     1
 41
30.0
176
     1
 62
     5
 63
     7
421
 16777215
176
     1
 74
     0
176
     1
 91
        4
176
     1
 64
     7
176
     1
 65
   257
176
     1
 75
     1
176
     1
175
     1
176
     1
 42
1.0
176
     1
 92
        0
176
     1
 66
     7
176
     1
 43
1.0
176
     1
 76
     1
176
     1
 77
     6
176
     1
 78
     2
176
     1
 67
     7
176
     1
 79
     5
176
     1
170
     0
176
     1
171
     0
176
     1
290
     0
176
     1
 93
       13
176
     1
 44
0.0
176
     1
173
     0
176
     1
  0
VISUALSTYLE
  5
2E
102
{ACAD_REACTORS
330
2A
102
}
330
2A
100
AcDbVisualStyle
  2
GouraudWithEdges
 70
     3
177
     2
291
     1
 71
     2
176
     1
 72
     2
176
     1
 73
     1
176
     1
 90
        2
176
     1
 40
-0.6
176
     1
 41
30.0
176
     1
 62
     5
 63
     7
421
 16777215
176
     1
 74
     1
176
     1
 91
        4
176
     1
 64
     7
176
     1
 65
   257
176
     1
 75
     1
176
     1
175
     1
176
     1
 42
1.0
176
     1
 92
        0
176
     1
 66
   257
176
     1
 43
1.0
176
     1
 76
     1
176
     1
 77
     6
176
     1
 78
     2
176
     1
 67
     7
176
     1
 79
     5
176
     1
170
     0
176
     1
171
     0
176
     1
290
     0
176
     1
 93
       13
176
     1
 44
0.0
176
     1
173
     0
176
     1
  0
VISUALSTYLE
  5
38
102
{ACAD_REACTORS
330
2A
102
}
330
2A
100
AcDbVisualStyle
  2
Linepattern
 70
    14
177
     2
291
     1
 71
     2
176
     1
 72
     2
176
     1
 73
     0
176
     1
 90
        0
176
     1
 40
-0.6
176
     1
 41
-30.0
176
     1
 62
     5
 63
     7
421
 16777215
176
     1
 74
     1
176
     1
 91
        4
176
     1
 64
     7
176
     1
 65
   257
176
     1
 75
     7
176
     1
175
     7
176
     1
 42
1.0
176
     1
 92
        8
176
     1
 66
     7
176
     1
 43
1.0
176
     1
 76
     1
176
     1
 77
     6
176
     1
 78
     2
176
     1
 67
     7
176
     1
 79
     5
176
     1
170
     0
176
     1
171
     0
176
     1
290
     0
176
     1
 93
        1
176
     1
 44
0.0
176
     1
173
     0
176
     1
  0
VISUALSTYLE
  5
33
102
{ACAD_REACTORS
330
2A
102
}
330
2A
100
AcDbVisualStyle
  2
Realistic
 70
     8
177
     2
291
     0
 71
     2
176
     1
 72
     2
176
     1
 73
     0
176
     1
 90
        0
176
     1
 40
-0.6
176
     1
 41
-30.0
176
     1
 62
     5
 63
     7
421
 16777215
176
     1
 74
     1
176
     1
 91
        0
176
     1
 64
     7
176
     1
 65
   257
176
     1
 75
     1
176
     1
175
     1
176
     1
 42
1.0
176
     1
 92
        8
176
     1
 66
     8
424
  7895160
176
     1
 43
1.0
176
     1
 76
     1
176
     1
 77
     6
176
     1
 78
     2
176
     1
 67
     7
176
     1
 79
     5
176
     1
170
     0
176
     1
171
     0
176
     1
290
     0
176
     1
 93
       13
176
     1
 44
0.0
176
     1
173
     0
176
     1
  0
VISUALSTYLE
  5
37
102
{ACAD_REACTORS
330
2A
102
}
330
2A
100
AcDbVisualStyle
  2
Thicken
 70
    13
177
     2
291
     1
 71
     2
176
     1
 72
     2
176
     1
 73
     0
176
     1
 90
        0
176
     1
 40
-0.6
176
     1
 41
-30.0
176
     1
 62
     5
 63
     7
421
 16777215
176
     1
 74
     1
176
     1
 91
        4
176
     1
 64
     7
176
     1
 65
   257
176
     1
 75
     1
176
     1
175
     1
176
     1
 42
1.0
176
     1
 92
       12
176
     1
 66
     7
176
     1
 43
1.0
176
     1
 76
     1
176
     1
 77
     6
176
     1
 78
     2
176
     1
 67
     7
176
     1
 79
     5
176
     1
170
     0
176
     1
171
     0
176
     1
290
     0
176
     1
 93
        1
176
     1
 44
0.0
176
     1
173
     0
176
     1
  0
ENDSEC
  0
EOF
