  0
SECTION
  2
HEADER
  9
$ACADVER
  1
AC1024
  9
$ACADMAINTVER
 70
     6
  9
$DWGCODEPAGE
  3
UNDEFINED
  9
$INSBASE
 10
0.0
 20
0.0
 30
0.0
  9
$EXTMIN
 10
1.000000000000000E+20
 20
1.000000000000000E+20
 30
1.000000000000000E+20
  9
$EXTMAX
 10
-1.000000000000000E+20
 20
-1.000000000000000E+20
 30
-1.000000000000000E+20
  9
$LIMMIN
 10
0.0
 20
0.0
  9
$LIMMAX
 10
12.0
 20
9.0
  9
$ORTHOMODE
 70
     0
  9
$REGENMODE
 70
     1
  9
$FILLMODE
 70
     1
  9
$QTEXTMODE
 70
     0
  9
$MIRRTEXT
 70
     1
  9
$LTSCALE
 40
1.0
  9
$ATTMODE
 70
     1
  9
$TEXTSIZE
 40
0.2
  9
$TRACEWID
 40
0.05
  9
$TEXTSTYLE
  7
Standard
  9
$CLAYER
  8
0
  9
$CELTYPE
  6
ByLayer
  9
$CECOLOR
 62
   256
  9
$CELTSCALE
 40
1.0
  9
$DISPSILH
 70
     0
  9
$DIMSCALE
 40
1.0
  9
$DIMASZ
 40
0.18
  9
$DIMEXO
 40
0.0625
  9
$DIMDLI
 40
0.38
  9
$DIMRND
 40
0.0
  9
$DIMDLE
 40
0.0
  9
$DIMEXE
 40
0.18
  9
$DIMTP
 40
0.0
  9
$DIMTM
 40
0.0
  9
$DIMTXT
 40
0.18
  9
$DIMCEN
 40
0.09
  9
$DIMTSZ
 40
0.0
  9
$DIMTOL
 70
     0
  9
$DIMLIM
 70
     0
  9
$DIMTIH
 70
     1
  9
$DIMTOH
 70
     1
  9
$DIMSE1
 70
     0
  9
$DIMSE2
 70
     0
  9
$DIMTAD
 70
     0
  9
$DIMZIN
 70
     0
  9
$DIMBLK
  1

  9
$DIMASO
 70
     1
  9
$DIMSHO
 70
     1
  9
$DIMPOST
  1

  9
$DIMAPOST
  1

  9
$DIMALT
 70
     0
  9
$DIMALTD
 70
     2
  9
$DIMALTF
 40
25.4
  9
$DIMLFAC
 40
1.0
  9
$DIMTOFL
 70
     0
  9
$DIMTVP
 40
0.0
  9
$DIMTIX
 70
     0
  9
$DIMSOXD
 70
     0
  9
$DIMSAH
 70
     0
  9
$DIMBLK1
  1

  9
$DIMBLK2
  1

  9
$DIMSTYLE
  2
Standard
  9
$DIMCLRD
 70
     0
  9
$DIMCLRE
 70
     0
  9
$DIMCLRT
 70
     0
  9
$DIMTFAC
 40
1.0
  9
$DIMGAP
 40
0.09
  9
$DIMJUST
 70
     0
  9
$DIMSD1
 70
     0
  9
$DIMSD2
 70
     0
  9
$DIMTOLJ
 70
     1
  9
$DIMTZIN
 70
     0
  9
$DIMALTZ
 70
     0
  9
$DIMALTTZ
 70
     0
  9
$DIMUPT
 70
     0
  9
$DIMDEC
 70
     4
  9
$DIMTDEC
 70
     4
  9
$DIMALTU
 70
     2
  9
$DIMALTTD
 70
     2
  9
$DIMTXSTY
  7
Standard
  9
$DIMAUNIT
 70
     0
  9
$DIMADEC
 70
     0
  9
$DIMALTRND
 40
0.0
  9
$DIMAZIN
 70
     0
  9
$DIMDSEP
 70
    46
  9
$DIMATFIT
 70
     3
  9
$DIMFRAC
 70
     0
  9
$DIMLDRBLK
  1

  9
$DIMLUNIT
 70
     2
  9
$DIMLWD
 70
    -2
  9
$DIMLWE
 70
    -2
  9
$DIMTMOVE
 70
     0
  9
$DIMFXL
 40
1.0
  9
$DIMFXLON
 70
     0
  9
$DIMJOGANG
 40
0.7853981633974483
  9
$DIMTFILL
 70
     0
  9
$DIMTFILLCLR
 70
     0
  9
$DIMARCSYM
 70
     0
  9
$DIMLTYPE
  6

  9
$DIMLTEX1
  6

  9
$DIMLTEX2
  6

  9
$DIMTXTDIRECTION
 70
     0
  9
$LUNITS
 70
     2
  9
$LUPREC
 70
     4
  9
$SKETCHINC
 40
0.1
  9
$FILLETRAD
 40
0.5
  9
$AUNITS
 70
     0
  9
$AUPREC
 70
     0
  9
$MENU
  1
.
  9
$ELEVATION
 40
0.0
  9
$PELEVATION
 40
0.0
  9
$THICKNESS
 40
0.0
  9
$LIMCHECK
 70
     0
  9
$CHAMFERA
 40
0.5
  9
$CHAMFERB
 40
0.5
  9
$CHAMFERC
 40
1.0
  9
$CHAMFERD
 40
0.0
  9
$SKPOLY
 70
     0
  9
$TDCREATE
 40
2457917.6321875
  9
$TDUCREATE
 40
2457917.2571875
  9
$TDUPDATE
 40
2457917.6321875
  9
$TDUUPDATE
 40
2457917.2571875
  9
$TDINDWG
 40
0.0000000116
  9
$TDUSRTIMER
 40
0.0000000116
  9
$USRTIMER
 70
     1
  9
$ANGBASE
 50
0.0
  9
$ANGDIR
 70
     0
  9
$PDMODE
 70
     0
  9
$PDSIZE
 40
0.0
  9
$PLINEWID
 40
0.0
  9
$SPLFRAME
 70
     0
  9
$SPLINETYPE
 70
     6
  9
$SPLINESEGS
 70
     8
  9
$HANDSEED
  5
128
  9
$SURFTAB1
 70
     6
  9
$SURFTAB2
 70
     6
  9
$SURFTYPE
 70
     6
  9
$SURFU
 70
     6
  9
$SURFV
 70
     6
  9
$UCSBASE
  2

  9
$UCSNAME
  2

  9
$UCSORG
 10
0.0
 20
0.0
 30
0.0
  9
$UCSXDIR
 10
1.0
 20
0.0
 30
0.0
  9
$UCSYDIR
 10
0.0
 20
1.0
 30
0.0
  9
$UCSORTHOREF
  2

  9
$UCSORTHOVIEW
 70
     0
  9
$UCSORGTOP
 10
0.0
 20
0.0
 30
0.0
  9
$UCSORGBOTTOM
 10
0.0
 20
0.0
 30
0.0
  9
$UCSORGLEFT
 10
0.0
 20
0.0
 30
0.0
  9
$UCSORGRIGHT
 10
0.0
 20
0.0
 30
0.0
  9
$UCSORGFRONT
 10
0.0
 20
0.0
 30
0.0
  9
$UCSORGBACK
 10
0.0
 20
0.0
 30
0.0
  9
$PUCSBASE
  2

  9
$PUCSNAME
  2

  9
$PUCSORG
 10
0.0
 20
0.0
 30
0.0
  9
$PUCSXDIR
 10
1.0
 20
0.0
 30
0.0
  9
$PUCSYDIR
 10
0.0
 20
1.0
 30
0.0
  9
$PUCSORTHOREF
  2

  9
$PUCSORTHOVIEW
 70
     0
  9
$PUCSORGTOP
 10
0.0
 20
0.0
 30
0.0
  9
$PUCSORGBOTTOM
 10
0.0
 20
0.0
 30
0.0
  9
$PUCSORGLEFT
 10
0.0
 20
0.0
 30
0.0
  9
$PUCSORGRIGHT
 10
0.0
 20
0.0
 30
0.0
  9
$PUCSORGFRONT
 10
0.0
 20
0.0
 30
0.0
  9
$PUCSORGBACK
 10
0.0
 20
0.0
 30
0.0
  9
$USERI1
 70
     0
  9
$USERI2
 70
     0
  9
$USERI3
 70
     0
  9
$USERI4
 70
     0
  9
$USERI5
 70
     0
  9
$USERR1
 40
0.0
  9
$USERR2
 40
0.0
  9
$USERR3
 40
0.0
  9
$USERR4
 40
0.0
  9
$USERR5
 40
0.0
  9
$WORLDVIEW
 70
     1
  9
$SHADEDGE
 70
     3
  9
$SHADEDIF
 70
    70
  9
$TILEMODE
 70
     1
  9
$MAXACTVP
 70
    64
  9
$PINSBASE
 10
0.0
 20
0.0
 30
0.0
  9
$PLIMCHECK
 70
     0
  9
$PEXTMIN
 10
1.000000000000000E+20
 20
1.000000000000000E+20
 30
1.000000000000000E+20
  9
$PEXTMAX
 10
-1.000000000000000E+20
 20
-1.000000000000000E+20
 30
-1.000000000000000E+20
  9
$PLIMMIN
 10
0.0
 20
0.0
  9
$PLIMMAX
 10
12.0
 20
9.0
  9
$UNITMODE
 70
     0
  9
$VISRETAIN
 70
     1
  9
$PLINEGEN
 70
     0
  9
$PSLTSCALE
 70
     1
  9
$TREEDEPTH
 70
  3020
  9
$CMLSTYLE
  2
Standard
  9
$CMLJUST
 70
     0
  9
$CMLSCALE
 40
1.0
  9
$PROXYGRAPHICS
 70
     1
  9
$MEASUREMENT
 70
     0
  9
$CELWEIGHT
370
    -1
  9
$ENDCAPS
280
     0
  9
$JOINSTYLE
280
     0
  9
$LWDISPLAY
290
     1
  9
$INSUNITS
 70
     1
  9
$HYPERLINKBASE
  1

  9
$STYLESHEET
  1

  9
$XEDIT
290
     1
  9
$CEPSNTYPE
380
     0
  9
$PSTYLEMODE
290
     1
  9
$FINGERPRINTGUID
  2
{FFB96827-A3BE-3FC4-A5F7-E48736962DC2}
  9
$VERSIONGUID
  2
{FAEB1C32-E019-11D5-929B-00C0DF256EC4}
  9
$EXTNAMES
290
     1
  9
$PSVPSCALE
 40
0.0
  9
$OLESTARTUP
290
     0
  9
$SORTENTS
280
   127
  9
$INDEXCTL
280
     0
  9
$HIDETEXT
280
     1
  9
$XCLIPFRAME
280
     2
  9
$HALOGAP
280
     0
  9
$OBSCOLOR
 70
   257
  9
$OBSLTYPE
280
     0
  9
$INTERSECTIONDISPLAY
280
     0
  9
$INTERSECTIONCOLOR
 70
   257
  9
$DIMASSOC
280
     2
  9
$PROJECTNAME
  1

  9
$CAMERADISPLAY
290
     0
  9
$LENSLENGTH
 40
50.0
  9
$CAMERAHEIGHT
 40
0.0
  9
$STEPSPERSEC
 40
2.0
  9
$STEPSIZE
 40
6.0
  9
$3DDWFPREC
 40
2.0
  9
$PSOLWIDTH
 40
0.25
  9
$PSOLHEIGHT
 40
4.0
  9
$LOFTANG1
 40
1.570796326794897
  9
$LOFTANG2
 40
1.570796326794897
  9
$LOFTMAG1
 40
0.0
  9
$LOFTMAG2
 40
0.0
  9
$LOFTPARAM
 70
     7
  9
$LOFTNORMALS
280
     1
  9
$LATITUDE
 40
37.795
  9
$LONGITUDE
 40
-122.394
  9
$NORTHDIRECTION
 40
0.0
  9
$TIMEZONE
 70
 -8000
  9
$LIGHTGLYPHDISPLAY
280
     1
  9
$TILEMODELIGHTSYNCH
280
     1
  9
$CMATERIAL
347
3C
  9
$SOLIDHIST
280
     1
  9
$SHOWHIST
280
     1
  9
$DWFFRAME
280
     2
  9
$DGNFRAME
280
     2
  9
$REALWORLDSCALE
290
     1
  9
$INTERFERECOLOR
 62
   256
  9
$CSHADOW
280
     0
  9
$SHADOWPLANELOCATION
 40
0.0
  0
ENDSEC
  0
SECTION
  2
CLASSES
  0
CLASS
  1
ACDBDICTIONARYWDFLT
  2
AcDbDictionaryWithDefault
  3
ObjectDBX Classes
 90
        0
 91
        4
280
     0
281
     0
  0
CLASS
  1
VISUALSTYLE
  2
AcDbVisualStyle
  3
ObjectDBX Classes
 90
     4095
 91
        4
280
     0
281
     0
  0
CLASS
  1
MATERIAL
  2
AcDbMaterial
  3
ObjectDBX Classes
 90
     1153
 91
        4
280
     0
281
     0
  0
CLASS
  1
SUN
  2
AcDbSun
  3
SCENEOE
 90
     1024
 91
        4
280
     0
281
     0
  0
ENDSEC
  0
SECTION
  2
TABLES
  0
TABLE
  2
VPORT
  5
8
330
0
100
AcDbSymbolTable
 70
     1
  0
VPORT
  5
29
330
8
100
AcDbSymbolTableRecord
100
AcDbViewportTableRecord
  2
*Active
 70
     0
 10
0.0
 20
0.0
 11
1.0
 21
1.0
 12
0.0
 22
0.0
 13
0.0
 23
0.0
 14
0.5
 24
0.5
 15
0.5
 25
0.5
 16
0.0
 26
0.0
 36
1.0
 17
91.00082462281999
 27
-128.4993055234307
 37
0.0
 40
256.9986110468615
 41
0.7081814508812795
 42
50.0
 43
0.0
 44
0.0
 50
0.0
 51
0.0
 71
     0
 72
   100
 73
     1
 74
     3
 75
     0
 76
     0
 77
     0
 78
     0
281
     0
 65
     1
110
0.0
120
0.0
130
0.0
111
1.0
121
0.0
131
0.0
112
0.0
122
1.0
132
0.0
 79
     0
146
0.0
 60
     3
 61
     5
292
     1
282
     1
141
0.0
142
0.0
 63
   250
361
3F
  0
ENDTAB
  0
TABLE
  2
LTYPE
  5
5
330
0
100
AcDbSymbolTable
 70
     1
  0
LTYPE
  5
14
330
5
100
AcDbSymbolTableRecord
100
AcDbLinetypeTableRecord
  2
ByBlock
 70
     0
  3

 72
    65
 73
     0
 40
0.0
  0
LTYPE
  5
15
330
5
100
AcDbSymbolTableRecord
100
AcDbLinetypeTableRecord
  2
ByLayer
 70
     0
  3

 72
    65
 73
     0
 40
0.0
  0
LTYPE
  5
16
330
5
100
AcDbSymbolTableRecord
100
AcDbLinetypeTableRecord
  2
Continuous
 70
     0
  3
Solid line
 72
    65
 73
     0
 40
0.0
  0
ENDTAB
  0
TABLE
  2
LAYER
  5
2
330
0
100
AcDbSymbolTable
 70
     2
  0
LAYER
  5
10
330
2
100
AcDbSymbolTableRecord
100
AcDbLayerTableRecord
  2
0
 70
     0
 62
     7
  6
Continuous
370
    -3
390
F
347
3E
  0
LAYER
  5
40
330
2
100
AcDbSymbolTableRecord
100
AcDbLayerTableRecord
  2
_U+30EC_U+30A4_U+30E4_U+30FC 1
 70
     0
 62
     7
  6
Continuous
370
    -3
390
F
347
3E
  0
ENDTAB
  0
TABLE
  2
STYLE
  5
3
330
0
100
AcDbSymbolTable
 70
     1
  0
STYLE
  5
11
330
3
100
AcDbSymbolTableRecord
100
AcDbTextStyleTableRecord
  2
Standard
 70
     0
 40
0.0
 41
1.0
 50
0.0
 71
     0
 42
0.2
  3
txt
  4

  0
ENDTAB
  0
TABLE
  2
VIEW
  5
6
330
0
100
AcDbSymbolTable
 70
     0
  0
ENDTAB
  0
TABLE
  2
UCS
  5
7
330
0
100
AcDbSymbolTable
 70
     0
  0
ENDTAB
  0
TABLE
  2
APPID
  5
9
330
0
100
AcDbSymbolTable
 70
     1
  0
APPID
  5
12
330
9
100
AcDbSymbolTableRecord
100
AcDbRegAppTableRecord
  2
ACAD
 70
     0
  0
ENDTAB
  0
TABLE
  2
DIMSTYLE
  5
A
330
0
100
AcDbSymbolTable
 70
     1
100
AcDbDimStyleTable
  0
DIMSTYLE
105
27
330
A
100
AcDbSymbolTableRecord
100
AcDbDimStyleTableRecord
  2
Standard
 70
     0
178
     0
340
11
  0
ENDTAB
  0
TABLE
  2
BLOCK_RECORD
  5
1
330
0
100
AcDbSymbolTable
 70
     8
  0
BLOCK_RECORD
  5
1F
330
1
100
AcDbSymbolTableRecord
100
AcDbBlockTableRecord
  2
*Model_Space
340
22
 70
     0
280
     1
281
     0
  0
BLOCK_RECORD
  5
1B
330
1
100
AcDbSymbolTableRecord
100
AcDbBlockTableRecord
  2
*Paper_Space
340
1E
 70
     0
280
     1
281
     0
  0
BLOCK_RECORD
  5
23
330
1
100
AcDbSymbolTableRecord
100
AcDbBlockTableRecord
  2
*Paper_Space0
340
26
 70
     0
280
     1
281
     0
  0
BLOCK_RECORD
  5
90
330
1
100
AcDbSymbolTableRecord
100
AcDbBlockTableRecord
  2
block 2
340
0
102
{BLKREFS
331
91
102
}
 70
     0
280
     1
281
     0
  0
BLOCK_RECORD
  5
A8
330
1
100
AcDbSymbolTableRecord
100
AcDbBlockTableRecord
  2
block 3
340
0
102
{BLKREFS
331
A9
102
}
 70
     0
280
     1
281
     0
  0
BLOCK_RECORD
  5
C5
330
1
100
AcDbSymbolTableRecord
100
AcDbBlockTableRecord
  2
block 4
340
0
102
{BLKREFS
331
C6
102
}
 70
     0
280
     1
281
     0
  0
BLOCK_RECORD
  5
E4
330
1
100
AcDbSymbolTableRecord
100
AcDbBlockTableRecord
  2
block 5
340
0
102
{BLKREFS
331
E5
102
}
 70
     0
280
     1
281
     0
  0
BLOCK_RECORD
  5
FA
330
1
100
AcDbSymbolTableRecord
100
AcDbBlockTableRecord
  2
block 6
340
0
102
{BLKREFS
331
FB
102
}
 70
     0
280
     1
281
     0
  0
BLOCK_RECORD
  5
108
330
1
100
AcDbSymbolTableRecord
100
AcDbBlockTableRecord
  2
block 7
340
0
102
{BLKREFS
331
109
102
}
 70
     0
280
     1
281
     0
  0
BLOCK_RECORD
  5
11C
330
1
100
AcDbSymbolTableRecord
100
AcDbBlockTableRecord
  2
block 8
340
0
102
{BLKREFS
331
11D
102
}
 70
     0
280
     1
281
     0
  0
ENDTAB
  0
ENDSEC
  0
SECTION
  2
BLOCKS
  0
BLOCK
  5
20
330
1F
100
AcDbEntity
  8
0
100
AcDbBlockBegin
  2
*Model_Space
 70
     0
 10
0.0
 20
0.0
 30
0.0
  3
*Model_Space
  1

  0
ENDBLK
  5
21
330
1F
100
AcDbEntity
  8
0
100
AcDbBlockEnd
  0
BLOCK
  5
1C
330
1B
100
AcDbEntity
 67
     1
  8
0
100
AcDbBlockBegin
  2
*Paper_Space
 70
     0
 10
0.0
 20
0.0
 30
0.0
  3
*Paper_Space
  1

  0
ENDBLK
  5
1D
330
1B
100
AcDbEntity
 67
     1
  8
0
100
AcDbBlockEnd
  0
BLOCK
  5
24
330
23
100
AcDbEntity
  8
0
100
AcDbBlockBegin
  2
*Paper_Space0
 70
     0
 10
0.0
 20
0.0
 30
0.0
  3
*Paper_Space0
  1

  0
ENDBLK
  5
25
330
23
100
AcDbEntity
  8
0
100
AcDbBlockEnd
  0
BLOCK
  5
92
330
90
100
AcDbEntity
  8
0
100
AcDbBlockBegin
  2
block 2
 70
     0
 10
0.0
 20
0.0
 30
0.0
  3
block 2
  1

  0
SPLINE
  5
94
330
90
100
AcDbEntity
  8
_U+30EC_U+30A4_U+30E4_U+30FC 1
370
     0
100
AcDbSpline
210
0.0
220
0.0
230
1.0
 70
    11
 71
     3
 72
    26
 73
    22
 74
     0
 42
0.0000000001
 43
0.0000000001
 12
1.0
 22
0.0
 32
0.0
 13
1.0
 23
0.0
 33
0.0
 40
0.0
 40
0.0
 40
0.0
 40
0.0
 40
1.0
 40
1.0
 40
1.0
 40
2.0
 40
2.0
 40
2.0
 40
3.0
 40
3.0
 40
3.0
 40
4.0
 40
4.0
 40
4.0
 40
5.0
 40
5.0
 40
5.0
 40
6.0
 40
6.0
 40
6.0
 40
7.0
 40
7.0
 40
7.0
 40
7.0
 10
63.19373099548629
 20
-136.1202012463519
 30
0.0
 10
63.19373099548629
 20
-136.1202012463519
 30
0.0
 10
62.08957789246372
 20
-136.1202012463519
 30
0.0
 10
62.08957789246372
 20
-136.1202012463519
 30
0.0
 10
62.08957789246372
 20
-136.1202012463519
 30
0.0
 10
62.08957789246372
 20
-136.4502413938388
 30
0.0
 10
62.08957789246372
 20
-136.4502413938388
 30
0.0
 10
62.08957789246372
 20
-136.4502413938388
 30
0.0
 10
61.94143878659798
 20
-136.4502413938388
 30
0.0
 10
61.94143878659798
 20
-136.4502413938388
 30
0.0
 10
61.9266248760114
 20
-136.1181341890608
 30
0.0
 10
61.76367185955908
 20
-136.0716254000099
 30
0.0
 10
61.64929468944879
 20
-136.0419975788367
 30
0.0
 10
61.64929468944879
 20
-136.0419975788367
 30
0.0
 10
61.64929468944879
 20
-135.8959255302621
 30
0.0
 10
61.64929468944879
 20
-135.8959255302621
 30
0.0
 10
61.64929468944879
 20
-135.8959255302621
 30
0.0
 10
63.19373099548629
 20
-135.8959255302621
 30
0.0
 10
63.19373099548629
 20
-135.8959255302621
 30
0.0
 10
63.19373099548629
 20
-135.8959255302621
 30
0.0
 10
63.19373099548629
 20
-136.1202012463519
 30
0.0
 10
63.19373099548629
 20
-136.1202012463519
 30
0.0
  0
HATCH
  5
95
330
90
100
AcDbEntity
  8
_U+30EC_U+30A4_U+30E4_U+30FC 1
 62
   179
420
  2234388
100
AcDbHatch
 10
0.0
 20
0.0
 30
0.0
210
0.0
220
0.0
230
1.0
  2
SOLID
 70
     1
 71
     0
 91
        1
 92
        1
 93
        1
 72
     4
 94
        3
 73
     0
 74
     1
 95
       26
 96
       22
 40
0.0
 40
0.0
 40
0.0
 40
0.0
 40
1.0
 40
1.0
 40
1.0
 40
2.0
 40
2.0
 40
2.0
 40
3.0
 40
3.0
 40
3.0
 40
4.0
 40
4.0
 40
4.0
 40
5.0
 40
5.0
 40
5.0
 40
6.0
 40
6.0
 40
6.0
 40
7.0
 40
7.0
 40
7.0
 40
7.0
 10
63.19373099548629
 20
-136.1202012463519
 10
63.19373099548629
 20
-136.1202012463519
 10
62.08957789246372
 20
-136.1202012463519
 10
62.08957789246372
 20
-136.1202012463519
 10
62.08957789246372
 20
-136.1202012463519
 10
62.08957789246372
 20
-136.4502413938388
 10
62.08957789246372
 20
-136.4502413938388
 10
62.08957789246372
 20
-136.4502413938388
 10
61.94143878659798
 20
-136.4502413938388
 10
61.94143878659798
 20
-136.4502413938388
 10
61.9266248760114
 20
-136.1181341890608
 10
61.76367185955908
 20
-136.0716254000099
 10
61.64929468944879
 20
-136.0419975788367
 10
61.64929468944879
 20
-136.0419975788367
 10
61.64929468944879
 20
-135.8959255302621
 10
61.64929468944879
 20
-135.8959255302621
 10
61.64929468944879
 20
-135.8959255302621
 10
63.19373099548629
 20
-135.8959255302621
 10
63.19373099548629
 20
-135.8959255302621
 10
63.19373099548629
 20
-135.8959255302621
 10
63.19373099548629
 20
-136.1202012463519
 10
63.19373099548629
 20
-136.1202012463519
 97
        0
 97
        0
 75
     2
 76
     1
 98
        0
  0
POLYLINE
  5
96
330
90
100
AcDbEntity
  8
_U+30EC_U+30A4_U+30E4_U+30FC 1
370
     0
100
AcDb2dPolyline
 66
     1
 10
0.0
 20
0.0
 30
0.0
  0
VERTEX
  5
97
330
96
100
AcDbEntity
  8
_U+30EC_U+30A4_U+30E4_U+30FC 1
370
     0
100
AcDbVertex
100
AcDb2dVertex
 10
63.19373099548629
 20
-135.3347194757149
 30
0.0
  0
VERTEX
  5
98
330
96
100
AcDbEntity
  8
_U+30EC_U+30A4_U+30E4_U+30FC 1
370
     0
100
AcDbVertex
100
AcDb2dVertex
 10
62.94189451551453
 20
-135.3347194757149
 30
0.0
  0
VERTEX
  5
99
330
96
100
AcDbEntity
  8
_U+30EC_U+30A4_U+30E4_U+30FC 1
370
     0
100
AcDbVertex
100
AcDb2dVertex
 10
62.94189451551453
 20
-135.0828829957432
 30
0.0
  0
VERTEX
  5
9A
330
96
100
AcDbEntity
  8
_U+30EC_U+30A4_U+30E4_U+30FC 1
370
     0
100
AcDbVertex
100
AcDb2dVertex
 10
63.19373099548629
 20
-135.0828829957432
 30
0.0
  0
VERTEX
  5
9B
330
96
100
AcDbEntity
  8
_U+30EC_U+30A4_U+30E4_U+30FC 1
370
     0
100
AcDbVertex
100
AcDb2dVertex
 10
63.19373099548629
 20
-135.3347194757149
 30
0.0
  0
SEQEND
  5
9C
330
96
100
AcDbEntity
  8
_U+30EC_U+30A4_U+30E4_U+30FC 1
370
     0
  0
HATCH
  5
9D
330
90
100
AcDbEntity
  8
_U+30EC_U+30A4_U+30E4_U+30FC 1
 62
   179
420
  2234388
100
AcDbHatch
 10
0.0
 20
0.0
 30
0.0
210
0.0
220
0.0
230
1.0
  2
SOLID
 70
     1
 71
     0
 91
        1
 92
        1
 93
        4
 72
     1
 10
63.19373099548629
 20
-135.3347194757149
 11
62.94189451551453
 21
-135.3347194757149
 72
     1
 10
62.94189451551453
 20
-135.3347194757149
 11
62.94189451551453
 21
-135.0828829957432
 72
     1
 10
62.94189451551453
 20
-135.0828829957432
 11
63.19373099548629
 21
-135.0828829957432
 72
     1
 10
63.19373099548629
 20
-135.0828829957432
 11
63.19373099548629
 21
-135.3347194757149
 97
        0
 75
     2
 76
     1
 98
        0
  0
SPLINE
  5
9E
330
90
100
AcDbEntity
  8
_U+30EC_U+30A4_U+30E4_U+30FC 1
370
     0
100
AcDbSpline
210
0.0
220
0.0
230
1.0
 70
    11
 71
     3
 72
    44
 73
    40
 74
     0
 42
0.0000000001
 43
0.0000000001
 12
1.0
 22
0.0
 32
0.0
 13
1.0
 23
0.0
 33
0.0
 40
0.0
 40
0.0
 40
0.0
 40
0.0
 40
1.0
 40
1.0
 40
1.0
 40
2.0
 40
2.0
 40
2.0
 40
3.0
 40
3.0
 40
3.0
 40
4.0
 40
4.0
 40
4.0
 40
5.0
 40
5.0
 40
5.0
 40
6.0
 40
6.0
 40
6.0
 40
7.0
 40
7.0
 40
7.0
 40
8.0
 40
8.0
 40
8.0
 40
9.0
 40
9.0
 40
9.0
 40
10.0
 40
10.0
 40
10.0
 40
11.0
 40
11.0
 40
11.0
 40
12.0
 40
12.0
 40
12.0
 40
13.0
 40
13.0
 40
13.0
 40
13.0
 10
62.61185436802759
 20
-134.2536485124435
 30
0.0
 10
62.77067326989761
 20
-134.4713785471113
 30
0.0
 10
62.84474282283048
 20
-134.5643961252131
 30
0.0
 10
62.9884033045654
 20
-134.6133164811036
 30
0.0
 10
62.9884033045654
 20
-134.6133164811036
 30
0.0
 10
62.9884033045654
 20
-133.8347249014372
 30
0.0
 10
62.9884033045654
 20
-133.8347249014372
 30
0.0
 10
62.9884033045654
 20
-133.8347249014372
 30
0.0
 10
63.19373099548629
 20
-133.8347249014372
 30
0.0
 10
63.19373099548629
 20
-133.8347249014372
 30
0.0
 10
63.19373099548629
 20
-133.8347249014372
 30
0.0
 10
63.19373099548629
 20
-134.8627413942357
 30
0.0
 10
63.19373099548629
 20
-134.8627413942357
 30
0.0
 10
62.83613008411736
 20
-134.8310465157714
 30
0.0
 10
62.75792641660219
 20
-134.7655897015517
 30
0.0
 10
62.45958114757955
 20
-134.3804280263007
 30
0.0
 10
62.26079913808064
 20
-134.1244574317467
 30
0.0
 10
62.19293075702122
 20
-134.0590006175269
 30
0.0
 10
62.05547144715975
 20
-134.0590006175269
 30
0.0
 10
61.93696016246715
 20
-134.0590006175269
 30
0.0
 10
61.80604653402766
 20
-134.1310031131686
 30
0.0
 10
61.80604653402766
 20
-134.3277180653764
 30
0.0
 10
61.80604653402766
 20
-134.5878227745128
 30
0.0
 10
62.03652342199087
 20
-134.5960910036774
 30
0.0
 10
62.15296764939232
 20
-134.6005696278082
 30
0.0
 10
62.15296764939232
 20
-134.6005696278082
 30
0.0
 10
62.15296764939232
 20
-134.8248453438979
 30
0.0
 10
62.15296764939232
 20
-134.8248453438979
 30
0.0
 10
62.0258436259866
 20
-134.8162326051848
 30
0.0
 10
61.91387802271598
 20
-134.8055528091806
 30
0.0
 10
61.79536673802338
 20
-134.7252820843742
 30
0.0
 10
61.63448077886222
 20
-134.6153835383948
 30
0.0
 10
61.60071884310677
 20
-134.4290038726428
 30
0.0
 10
61.60071884310677
 20
-134.3129041547898
 30
0.0
 10
61.60071884310677
 20
-134.0355739682272
 30
0.0
 10
61.78468694201911
 20
-133.8281792200152
 30
0.0
 10
62.0575385044509
 20
-133.8281792200152
 30
0.0
 10
62.28629284467149
 20
-133.8281792200152
 30
0.0
 10
62.38551159464668
 20
-133.9446234474166
 30
0.0
 10
62.61185436802759
 20
-134.2536485124435
 30
0.0
  0
HATCH
  5
9F
330
90
100
AcDbEntity
  8
_U+30EC_U+30A4_U+30E4_U+30FC 1
 62
   179
420
  2234388
100
AcDbHatch
 10
0.0
 20
0.0
 30
0.0
210
0.0
220
0.0
230
1.0
  2
SOLID
 70
     1
 71
     0
 91
        1
 92
        1
 93
        1
 72
     4
 94
        3
 73
     0
 74
     1
 95
       44
 96
       40
 40
0.0
 40
0.0
 40
0.0
 40
0.0
 40
1.0
 40
1.0
 40
1.0
 40
2.0
 40
2.0
 40
2.0
 40
3.0
 40
3.0
 40
3.0
 40
4.0
 40
4.0
 40
4.0
 40
5.0
 40
5.0
 40
5.0
 40
6.0
 40
6.0
 40
6.0
 40
7.0
 40
7.0
 40
7.0
 40
8.0
 40
8.0
 40
8.0
 40
9.0
 40
9.0
 40
9.0
 40
10.0
 40
10.0
 40
10.0
 40
11.0
 40
11.0
 40
11.0
 40
12.0
 40
12.0
 40
12.0
 40
13.0
 40
13.0
 40
13.0
 40
13.0
 10
62.61185436802759
 20
-134.2536485124435
 10
62.77067326989761
 20
-134.4713785471113
 10
62.84474282283048
 20
-134.5643961252131
 10
62.9884033045654
 20
-134.6133164811036
 10
62.9884033045654
 20
-134.6133164811036
 10
62.9884033045654
 20
-133.8347249014372
 10
62.9884033045654
 20
-133.8347249014372
 10
62.9884033045654
 20
-133.8347249014372
 10
63.19373099548629
 20
-133.8347249014372
 10
63.19373099548629
 20
-133.8347249014372
 10
63.19373099548629
 20
-133.8347249014372
 10
63.19373099548629
 20
-134.8627413942357
 10
63.19373099548629
 20
-134.8627413942357
 10
62.83613008411736
 20
-134.8310465157714
 10
62.75792641660219
 20
-134.7655897015517
 10
62.45958114757955
 20
-134.3804280263007
 10
62.26079913808064
 20
-134.1244574317467
 10
62.19293075702122
 20
-134.0590006175269
 10
62.05547144715975
 20
-134.0590006175269
 10
61.93696016246715
 20
-134.0590006175269
 10
61.80604653402766
 20
-134.1310031131686
 10
61.80604653402766
 20
-134.3277180653764
 10
61.80604653402766
 20
-134.5878227745128
 10
62.03652342199087
 20
-134.5960910036774
 10
62.15296764939232
 20
-134.6005696278082
 10
62.15296764939232
 20
-134.6005696278082
 10
62.15296764939232
 20
-134.8248453438979
 10
62.15296764939232
 20
-134.8248453438979
 10
62.0258436259866
 20
-134.8162326051848
 10
61.91387802271598
 20
-134.8055528091806
 10
61.79536673802338
 20
-134.7252820843742
 10
61.63448077886222
 20
-134.6153835383948
 10
61.60071884310677
 20
-134.4290038726428
 10
61.60071884310677
 20
-134.3129041547898
 10
61.60071884310677
 20
-134.0355739682272
 10
61.78468694201911
 20
-133.8281792200152
 10
62.0575385044509
 20
-133.8281792200152
 10
62.28629284467149
 20
-133.8281792200152
 10
62.38551159464668
 20
-133.9446234474166
 10
62.61185436802759
 20
-134.2536485124435
 97
        0
 97
        0
 75
     2
 76
     1
 98
        0
  0
ENDBLK
  5
93
330
90
100
AcDbEntity
  8
0
100
AcDbBlockEnd
  0
BLOCK
  5
AA
330
A8
100
AcDbEntity
  8
0
100
AcDbBlockBegin
  2
block 3
 70
     0
 10
0.0
 20
0.0
 30
0.0
  3
block 3
  1

  0
SPLINE
  5
AC
330
A8
100
AcDbEntity
  8
_U+30EC_U+30A4_U+30E4_U+30FC 1
370
     0
100
AcDbSpline
210
0.0
220
0.0
230
1.0
 70
    11
 71
     3
 72
    32
 73
    28
 74
     0
 42
0.0000000001
 43
0.0000000001
 12
1.0
 22
0.0
 32
0.0
 13
1.0
 23
0.0
 33
0.0
 40
0.0
 40
0.0
 40
0.0
 40
0.0
 40
1.0
 40
1.0
 40
1.0
 40
2.0
 40
2.0
 40
2.0
 40
3.0
 40
3.0
 40
3.0
 40
4.0
 40
4.0
 40
4.0
 40
5.0
 40
5.0
 40
5.0
 40
6.0
 40
6.0
 40
6.0
 40
7.0
 40
7.0
 40
7.0
 40
8.0
 40
8.0
 40
8.0
 40
9.0
 40
9.0
 40
9.0
 40
9.0
 10
83.24384221009183
 20
-135.8173773531985
 30
0.0
 10
83.24384221009183
 20
-136.3334526568889
 30
0.0
 10
82.68987085606365
 20
-136.342065395602
 30
0.0
 10
82.47593042642963
 20
-136.342065395602
 30
0.0
 10
82.24545353846642
 20
-136.342065395602
 30
0.0
 10
81.59812009678798
 20
-136.3227728608846
 30
0.0
 10
81.59812009678798
 20
-135.7791367933122
 30
0.0
 10
81.59812009678798
 20
-135.6058484904041
 30
0.0
 10
81.66805553513855
 20
-135.3602131823058
 30
0.0
 10
82.00016273991663
 20
-135.322317131968
 30
0.0
 10
82.00016273991663
 20
-135.322317131968
 30
0.0
 10
82.00016273991663
 20
-135.5359130520535
 30
0.0
 10
82.00016273991663
 20
-135.5359130520535
 30
0.0
 10
81.94297415486149
 20
-135.5465928480578
 30
0.0
 10
81.79483504899574
 20
-135.5782877265221
 30
0.0
 10
81.79483504899574
 20
-135.7812038506033
 30
0.0
 10
81.79483504899574
 20
-136.0733479477525
 30
0.0
 10
82.12280813919152
 20
-136.1133110553814
 30
0.0
 10
82.32779132056389
 20
-136.1260579086768
 30
0.0
 10
82.24958765304872
 20
-136.0330403305751
 30
0.0
 10
82.19033201070242
 20
-135.9651719495156
 30
0.0
 10
82.19033201070242
 20
-135.7832709078945
 30
0.0
 10
82.19033201070242
 20
-135.6034369235644
 30
0.0
 10
82.29850800893927
 20
-135.3009575399595
 30
0.0
 10
82.70468476665022
 20
-135.3009575399595
 30
0.0
 10
83.02404511813288
 20
-135.3009575399595
 30
0.0
 10
83.24384221009183
 20
-135.5000840590069
 30
0.0
 10
83.24384221009183
 20
-135.8173773531985
 30
0.0
  0
SPLINE
  5
AD
330
A8
100
AcDbEntity
  8
_U+30EC_U+30A4_U+30E4_U+30FC 1
370
     0
100
AcDbSpline
210
0.0
220
0.0
230
1.0
 70
    11
 71
     3
 72
    17
 73
    13
 74
     0
 42
0.0000000001
 43
0.0000000001
 12
1.0
 22
0.0
 32
0.0
 13
1.0
 23
0.0
 33
0.0
 40
0.0
 40
0.0
 40
0.0
 40
0.0
 40
1.0
 40
1.0
 40
1.0
 40
2.0
 40
2.0
 40
2.0
 40
3.0
 40
3.0
 40
3.0
 40
4.0
 40
4.0
 40
4.0
 40
4.0
 10
82.38497990561903
 20
-135.8004963853207
 30
0.0
 10
82.38497990561903
 20
-136.0626681517482
 30
0.0
 10
82.59650876841337
 20
-136.100564202086
 30
0.0
 10
82.71295299581482
 20
-136.100564202086
 30
0.0
 10
82.88865286556256
 20
-136.100564202086
 30
0.0
 10
83.05160588201488
 20
-136.0054795666931
 30
0.0
 10
83.05160588201488
 20
-135.8215114677807
 30
0.0
 10
83.05160588201488
 20
-135.700933125797
 30
0.0
 10
82.99235023966858
 20
-135.5252332560493
 30
0.0
 10
82.70675182394137
 20
-135.5252332560493
 30
0.0
 10
82.48247610785161
 20
-135.5252332560493
 30
0.0
 10
82.38497990561903
 20
-135.6647596232019
 30
0.0
 10
82.38497990561903
 20
-135.8004963853207
 30
0.0
  0
HATCH
  5
AE
330
A8
100
AcDbEntity
  8
_U+30EC_U+30A4_U+30E4_U+30FC 1
 62
   179
420
  2234388
100
AcDbHatch
 10
0.0
 20
0.0
 30
0.0
210
0.0
220
0.0
230
1.0
  2
SOLID
 70
     1
 71
     0
 91
        2
 92
        1
 93
        1
 72
     4
 94
        3
 73
     0
 74
     1
 95
       32
 96
       28
 40
0.0
 40
0.0
 40
0.0
 40
0.0
 40
1.0
 40
1.0
 40
1.0
 40
2.0
 40
2.0
 40
2.0
 40
3.0
 40
3.0
 40
3.0
 40
4.0
 40
4.0
 40
4.0
 40
5.0
 40
5.0
 40
5.0
 40
6.0
 40
6.0
 40
6.0
 40
7.0
 40
7.0
 40
7.0
 40
8.0
 40
8.0
 40
8.0
 40
9.0
 40
9.0
 40
9.0
 40
9.0
 10
83.24384221009183
 20
-135.8173773531985
 10
83.24384221009183
 20
-136.3334526568889
 10
82.68987085606365
 20
-136.342065395602
 10
82.47593042642963
 20
-136.342065395602
 10
82.24545353846642
 20
-136.342065395602
 10
81.59812009678798
 20
-136.3227728608846
 10
81.59812009678798
 20
-135.7791367933122
 10
81.59812009678798
 20
-135.6058484904041
 10
81.66805553513855
 20
-135.3602131823058
 10
82.00016273991663
 20
-135.322317131968
 10
82.00016273991663
 20
-135.322317131968
 10
82.00016273991663
 20
-135.5359130520535
 10
82.00016273991663
 20
-135.5359130520535
 10
81.94297415486149
 20
-135.5465928480578
 10
81.79483504899574
 20
-135.5782877265221
 10
81.79483504899574
 20
-135.7812038506033
 10
81.79483504899574
 20
-136.0733479477525
 10
82.12280813919152
 20
-136.1133110553814
 10
82.32779132056389
 20
-136.1260579086768
 10
82.24958765304872
 20
-136.0330403305751
 10
82.19033201070242
 20
-135.9651719495156
 10
82.19033201070242
 20
-135.7832709078945
 10
82.19033201070242
 20
-135.6034369235644
 10
82.29850800893927
 20
-135.3009575399595
 10
82.70468476665022
 20
-135.3009575399595
 10
83.02404511813288
 20
-135.3009575399595
 10
83.24384221009183
 20
-135.5000840590069
 10
83.24384221009183
 20
-135.8173773531985
 97
        0
 97
        0
 92
        1
 93
        1
 72
     4
 94
        3
 73
     0
 74
     1
 95
       17
 96
       13
 40
0.0
 40
0.0
 40
0.0
 40
0.0
 40
1.0
 40
1.0
 40
1.0
 40
2.0
 40
2.0
 40
2.0
 40
3.0
 40
3.0
 40
3.0
 40
4.0
 40
4.0
 40
4.0
 40
4.0
 10
82.38497990561903
 20
-135.8004963853207
 10
82.38497990561903
 20
-136.0626681517482
 10
82.59650876841337
 20
-136.100564202086
 10
82.71295299581482
 20
-136.100564202086
 10
82.88865286556256
 20
-136.100564202086
 10
83.05160588201488
 20
-136.0054795666931
 10
83.05160588201488
 20
-135.8215114677807
 10
83.05160588201488
 20
-135.700933125797
 10
82.99235023966858
 20
-135.5252332560493
 10
82.70675182394137
 20
-135.5252332560493
 10
82.48247610785161
 20
-135.5252332560493
 10
82.38497990561903
 20
-135.6647596232019
 10
82.38497990561903
 20
-135.8004963853207
 97
        0
 97
        0
 75
     2
 76
     1
 98
        0
  0
POLYLINE
  5
AF
330
A8
100
AcDbEntity
  8
_U+30EC_U+30A4_U+30E4_U+30FC 1
370
     0
100
AcDb2dPolyline
 66
     1
 10
0.0
 20
0.0
 30
0.0
  0
VERTEX
  5
B0
330
AF
100
AcDbEntity
  8
_U+30EC_U+30A4_U+30E4_U+30FC 1
370
     0
100
AcDbVertex
100
AcDb2dVertex
 10
83.19319930645865
 20
-135.0846055434858
 30
0.0
  0
VERTEX
  5
B1
330
AF
100
AcDbEntity
  8
_U+30EC_U+30A4_U+30E4_U+30FC 1
370
     0
100
AcDbVertex
100
AcDb2dVertex
 10
82.94136282648688
 20
-135.0846055434858
 30
0.0
  0
VERTEX
  5
B2
330
AF
100
AcDbEntity
  8
_U+30EC_U+30A4_U+30E4_U+30FC 1
370
     0
100
AcDbVertex
100
AcDb2dVertex
 10
82.94136282648688
 20
-134.832769063514
 30
0.0
  0
VERTEX
  5
B3
330
AF
100
AcDbEntity
  8
_U+30EC_U+30A4_U+30E4_U+30FC 1
370
     0
100
AcDbVertex
100
AcDb2dVertex
 10
83.19319930645865
 20
-134.832769063514
 30
0.0
  0
VERTEX
  5
B4
330
AF
100
AcDbEntity
  8
_U+30EC_U+30A4_U+30E4_U+30FC 1
370
     0
100
AcDbVertex
100
AcDb2dVertex
 10
83.19319930645865
 20
-135.0846055434858
 30
0.0
  0
SEQEND
  5
B5
330
AF
100
AcDbEntity
  8
_U+30EC_U+30A4_U+30E4_U+30FC 1
370
     0
  0
HATCH
  5
B6
330
A8
100
AcDbEntity
  8
_U+30EC_U+30A4_U+30E4_U+30FC 1
 62
   179
420
  2234388
100
AcDbHatch
 10
0.0
 20
0.0
 30
0.0
210
0.0
220
0.0
230
1.0
  2
SOLID
 70
     1
 71
     0
 91
        1
 92
        1
 93
        4
 72
     1
 10
83.19319930645865
 20
-135.0846055434858
 11
82.94136282648688
 21
-135.0846055434858
 72
     1
 10
82.94136282648688
 20
-135.0846055434858
 11
82.94136282648688
 21
-134.832769063514
 72
     1
 10
82.94136282648688
 20
-134.832769063514
 11
83.19319930645865
 21
-134.832769063514
 72
     1
 10
83.19319930645865
 20
-134.832769063514
 11
83.19319930645865
 21
-135.0846055434858
 97
        0
 75
     2
 76
     1
 98
        0
  0
SPLINE
  5
B7
330
A8
100
AcDbEntity
  8
_U+30EC_U+30A4_U+30E4_U+30FC 1
370
     0
100
AcDbSpline
210
0.0
220
0.0
230
1.0
 70
    11
 71
     3
 72
    53
 73
    49
 74
     0
 42
0.0000000001
 43
0.0000000001
 12
1.0
 22
0.0
 32
0.0
 13
1.0
 23
0.0
 33
0.0
 40
0.0
 40
0.0
 40
0.0
 40
0.0
 40
1.0
 40
1.0
 40
1.0
 40
2.0
 40
2.0
 40
2.0
 40
3.0
 40
3.0
 40
3.0
 40
4.0
 40
4.0
 40
4.0
 40
5.0
 40
5.0
 40
5.0
 40
6.0
 40
6.0
 40
6.0
 40
7.0
 40
7.0
 40
7.0
 40
8.0
 40
8.0
 40
8.0
 40
9.0
 40
9.0
 40
9.0
 40
10.0
 40
10.0
 40
10.0
 40
11.0
 40
11.0
 40
11.0
 40
12.0
 40
12.0
 40
12.0
 40
13.0
 40
13.0
 40
13.0
 40
14.0
 40
14.0
 40
14.0
 40
15.0
 40
15.0
 40
15.0
 40
16.0
 40
16.0
 40
16.0
 40
16.0
 10
83.24384221009183
 20
-134.115500183485
 30
0.0
 10
83.24384221009183
 20
-134.1937038510002
 30
0.0
 10
83.2269612422141
 20
-134.2953341678151
 30
0.0
 10
83.1635714852855
 20
-134.3969644846299
 30
0.0
 10
83.05367293930603
 20
-134.570252787538
 30
0.0
 10
82.92241480131801
 20
-134.5916123795465
 30
0.0
 10
82.8145833126297
 20
-134.6105604047154
 30
0.0
 10
82.8145833126297
 20
-134.6105604047154
 30
0.0
 10
82.8145833126297
 20
-134.3883517459168
 30
0.0
 10
82.8145833126297
 20
-134.3883517459168
 30
0.0
 10
83.0133653221286
 20
-134.3335747277013
 30
0.0
 10
83.04299314330176
 20
-134.2064507042956
 30
0.0
 10
83.04299314330176
 20
-134.1134331261939
 30
0.0
 10
83.04299314330176
 20
-133.9739067590413
 30
0.0
 10
82.94342988377804
 20
-133.8216335385932
 30
0.0
 10
82.71088593852367
 20
-133.8216335385932
 30
0.0
 10
82.4549153439696
 20
-133.8216335385932
 30
0.0
 10
82.38497990561903
 20
-134.0014675229233
 30
0.0
 10
82.38497990561903
 20
-134.122045864907
 30
0.0
 10
82.38497990561903
 20
-134.1537407433713
 30
0.0
 10
82.38497990561903
 20
-134.2953341678151
 30
0.0
 10
82.5141709863159
 20
-134.3842176313345
 30
0.0
 10
82.5141709863159
 20
-134.3842176313345
 30
0.0
 10
82.49522296114704
 20
-134.5599175010823
 30
0.0
 10
82.49522296114704
 20
-134.5599175010823
 30
0.0
 10
82.49522296114704
 20
-134.5599175010823
 30
0.0
 10
81.64876300042114
 20
-134.4393391590985
 30
0.0
 10
81.64876300042114
 20
-134.4393391590985
 30
0.0
 10
81.64876300042114
 20
-134.4393391590985
 30
0.0
 10
81.64876300042114
 20
-133.660747579432
 30
0.0
 10
81.64876300042114
 20
-133.660747579432
 30
0.0
 10
81.64876300042114
 20
-133.660747579432
 30
0.0
 10
81.84341089533777
 20
-133.660747579432
 30
0.0
 10
81.84341089533777
 20
-133.660747579432
 30
0.0
 10
81.84341089533777
 20
-133.660747579432
 30
0.0
 10
81.84341089533777
 20
-134.2763861426462
 30
0.0
 10
81.84341089533777
 20
-134.2763861426462
 30
0.0
 10
81.84341089533777
 20
-134.2763861426462
 30
0.0
 10
82.26646862092645
 20
-134.3418429568659
 30
0.0
 10
82.26646862092645
 20
-134.3418429568659
 30
0.0
 10
82.232706685171
 20
-134.2805202572285
 30
0.0
 10
82.19239906799358
 20
-134.198182475131
 30
0.0
 10
82.19239906799358
 20
-134.0796711904384
 30
0.0
 10
82.19239906799358
 20
-133.8257676531755
 30
0.0
 10
82.37877873374559
 20
-133.5887450837903
 30
0.0
 10
82.69193791335479
 20
-133.5887450837903
 30
0.0
 10
83.0092312075463
 20
-133.5887450837903
 30
0.0
 10
83.24384221009183
 20
-133.8130207998801
 30
0.0
 10
83.24384221009183
 20
-134.115500183485
 30
0.0
  0
HATCH
  5
B8
330
A8
100
AcDbEntity
  8
_U+30EC_U+30A4_U+30E4_U+30FC 1
 62
   179
420
  2234388
100
AcDbHatch
 10
0.0
 20
0.0
 30
0.0
210
0.0
220
0.0
230
1.0
  2
SOLID
 70
     1
 71
     0
 91
        1
 92
        1
 93
        1
 72
     4
 94
        3
 73
     0
 74
     1
 95
       53
 96
       49
 40
0.0
 40
0.0
 40
0.0
 40
0.0
 40
1.0
 40
1.0
 40
1.0
 40
2.0
 40
2.0
 40
2.0
 40
3.0
 40
3.0
 40
3.0
 40
4.0
 40
4.0
 40
4.0
 40
5.0
 40
5.0
 40
5.0
 40
6.0
 40
6.0
 40
6.0
 40
7.0
 40
7.0
 40
7.0
 40
8.0
 40
8.0
 40
8.0
 40
9.0
 40
9.0
 40
9.0
 40
10.0
 40
10.0
 40
10.0
 40
11.0
 40
11.0
 40
11.0
 40
12.0
 40
12.0
 40
12.0
 40
13.0
 40
13.0
 40
13.0
 40
14.0
 40
14.0
 40
14.0
 40
15.0
 40
15.0
 40
15.0
 40
16.0
 40
16.0
 40
16.0
 40
16.0
 10
83.24384221009183
 20
-134.115500183485
 10
83.24384221009183
 20
-134.1937038510002
 10
83.2269612422141
 20
-134.2953341678151
 10
83.1635714852855
 20
-134.3969644846299
 10
83.05367293930603
 20
-134.570252787538
 10
82.92241480131801
 20
-134.5916123795465
 10
82.8145833126297
 20
-134.6105604047154
 10
82.8145833126297
 20
-134.6105604047154
 10
82.8145833126297
 20
-134.3883517459168
 10
82.8145833126297
 20
-134.3883517459168
 10
83.0133653221286
 20
-134.3335747277013
 10
83.04299314330176
 20
-134.2064507042956
 10
83.04299314330176
 20
-134.1134331261939
 10
83.04299314330176
 20
-133.9739067590413
 10
82.94342988377804
 20
-133.8216335385932
 10
82.71088593852367
 20
-133.8216335385932
 10
82.4549153439696
 20
-133.8216335385932
 10
82.38497990561903
 20
-134.0014675229233
 10
82.38497990561903
 20
-134.122045864907
 10
82.38497990561903
 20
-134.1537407433713
 10
82.38497990561903
 20
-134.2953341678151
 10
82.5141709863159
 20
-134.3842176313345
 10
82.5141709863159
 20
-134.3842176313345
 10
82.49522296114704
 20
-134.5599175010823
 10
82.49522296114704
 20
-134.5599175010823
 10
82.49522296114704
 20
-134.5599175010823
 10
81.64876300042114
 20
-134.4393391590985
 10
81.64876300042114
 20
-134.4393391590985
 10
81.64876300042114
 20
-134.4393391590985
 10
81.64876300042114
 20
-133.660747579432
 10
81.64876300042114
 20
-133.660747579432
 10
81.64876300042114
 20
-133.660747579432
 10
81.84341089533777
 20
-133.660747579432
 10
81.84341089533777
 20
-133.660747579432
 10
81.84341089533777
 20
-133.660747579432
 10
81.84341089533777
 20
-134.2763861426462
 10
81.84341089533777
 20
-134.2763861426462
 10
81.84341089533777
 20
-134.2763861426462
 10
82.26646862092645
 20
-134.3418429568659
 10
82.26646862092645
 20
-134.3418429568659
 10
82.232706685171
 20
-134.2805202572285
 10
82.19239906799358
 20
-134.198182475131
 10
82.19239906799358
 20
-134.0796711904384
 10
82.19239906799358
 20
-133.8257676531755
 10
82.37877873374559
 20
-133.5887450837903
 10
82.69193791335479
 20
-133.5887450837903
 10
83.0092312075463
 20
-133.5887450837903
 10
83.24384221009183
 20
-133.8130207998801
 10
83.24384221009183
 20
-134.115500183485
 97
        0
 97
        0
 75
     2
 76
     1
 98
        0
  0
ENDBLK
  5
AB
330
A8
100
AcDbEntity
  8
0
100
AcDbBlockEnd
  0
BLOCK
  5
C7
330
C5
100
AcDbEntity
  8
0
100
AcDbBlockBegin
  2
block 4
 70
     0
 10
0.0
 20
0.0
 30
0.0
  3
block 4
  1

  0
SPLINE
  5
C9
330
C5
100
AcDbEntity
  8
_U+30EC_U+30A4_U+30E4_U+30FC 1
370
     0
100
AcDbSpline
210
0.0
220
0.0
230
1.0
 70
    11
 71
     3
 72
    29
 73
    25
 74
     0
 42
0.0000000001
 43
0.0000000001
 12
1.0
 22
0.0
 32
0.0
 13
1.0
 23
0.0
 33
0.0
 40
0.0
 40
0.0
 40
0.0
 40
0.0
 40
1.0
 40
1.0
 40
1.0
 40
2.0
 40
2.0
 40
2.0
 40
3.0
 40
3.0
 40
3.0
 40
4.0
 40
4.0
 40
4.0
 40
5.0
 40
5.0
 40
5.0
 40
6.0
 40
6.0
 40
6.0
 40
7.0
 40
7.0
 40
7.0
 40
8.0
 40
8.0
 40
8.0
 40
8.0
 10
109.2443223468209
 20
-135.8215114677807
 30
0.0
 10
109.2443223468209
 20
-136.0881618583391
 30
0.0
 10
109.1068630369594
 20
-136.342065395602
 30
0.0
 10
108.7578748643036
 20
-136.342065395602
 30
0.0
 10
108.5019042697495
 20
-136.342065395602
 30
0.0
 10
108.4068196343566
 20
-136.2001274616097
 30
0.0
 10
108.3454969347192
 20
-136.0943630302125
 30
0.0
 10
108.2862412923729
 20
-136.2190754867786
 30
0.0
 10
108.1718641222626
 20
-136.2952120970026
 30
0.0
 10
108.0109781631014
 20
-136.2952120970026
 30
0.0
 10
107.7360595433785
 20
-136.2952120970026
 30
0.0
 10
107.6006672908082
 20
-136.0964300875037
 30
0.0
 10
107.6006672908082
 20
-135.8215114677807
 30
0.0
 10
107.6006672908082
 20
-135.5379801093447
 30
0.0
 10
107.7446722820916
 20
-135.3474663290104
 30
0.0
 10
108.0109781631014
 20
-135.3474663290104
 30
0.0
 10
108.1718641222626
 20
-135.3474663290104
 30
0.0
 10
108.2862412923729
 20
-135.4260145060741
 30
0.0
 10
108.3454969347192
 20
-135.5507269626401
 30
0.0
 10
108.3961398383524
 20
-135.4618434991206
 30
0.0
 10
108.4912244737452
 20
-135.3030245972506
 30
0.0
 10
108.7537407497213
 20
-135.3030245972506
 30
0.0
 10
109.1282226289679
 20
-135.3030245972506
 30
0.0
 10
109.2443223468209
 20
-135.5824218411044
 30
0.0
 10
109.2443223468209
 20
-135.8215114677807
 30
0.0
  0
SPLINE
  5
CA
330
C5
100
AcDbEntity
  8
_U+30EC_U+30A4_U+30E4_U+30FC 1
370
     0
100
AcDbSpline
210
0.0
220
0.0
230
1.0
 70
    11
 71
     3
 72
    17
 73
    13
 74
     0
 42
0.0000000001
 43
0.0000000001
 12
1.0
 22
0.0
 32
0.0
 13
1.0
 23
0.0
 33
0.0
 40
0.0
 40
0.0
 40
0.0
 40
0.0
 40
1.0
 40
1.0
 40
1.0
 40
2.0
 40
2.0
 40
2.0
 40
3.0
 40
3.0
 40
3.0
 40
4.0
 40
4.0
 40
4.0
 40
4.0
 10
107.7932481284336
 20
-135.8215114677807
 30
0.0
 10
107.7932481284336
 20
-135.9865315415242
 30
0.0
 10
107.8883327638265
 20
-136.0712808904614
 30
0.0
 10
108.0237250163969
 20
-136.0712808904614
 30
0.0
 10
108.1463704156717
 20
-136.0712808904614
 30
0.0
 10
108.2648817003643
 20
-135.9992783948196
 30
0.0
 10
108.2648817003643
 20
-135.8215114677807
 30
0.0
 10
108.2648817003643
 20
-135.6437445407418
 30
0.0
 10
108.1463704156717
 20
-135.5717420451001
 30
0.0
 10
108.0237250163969
 20
-135.5717420451001
 30
0.0
 10
107.8883327638265
 20
-135.5717420451001
 30
0.0
 10
107.7932481284336
 20
-135.6585584513284
 30
0.0
 10
107.7932481284336
 20
-135.8215114677807
 30
0.0
  0
SPLINE
  5
CB
330
C5
100
AcDbEntity
  8
_U+30EC_U+30A4_U+30E4_U+30FC 1
370
     0
100
AcDbSpline
210
0.0
220
0.0
230
1.0
 70
    11
 71
     3
 72
    17
 73
    13
 74
     0
 42
0.0000000001
 43
0.0000000001
 12
1.0
 22
0.0
 32
0.0
 13
1.0
 23
0.0
 33
0.0
 40
0.0
 40
0.0
 40
0.0
 40
0.0
 40
1.0
 40
1.0
 40
1.0
 40
2.0
 40
2.0
 40
2.0
 40
3.0
 40
3.0
 40
3.0
 40
4.0
 40
4.0
 40
4.0
 40
4.0
 10
108.4533284234075
 20
-135.8215114677807
 30
0.0
 10
108.4533284234075
 20
-135.9651719495156
 30
0.0
 10
108.5401448296358
 20
-136.1177896795122
 30
0.0
 10
108.743060953717
 20
-136.1177896795122
 30
0.0
 10
108.9483886446379
 20
-136.1177896795122
 30
0.0
 10
109.0496744519043
 20
-135.9906656561065
 30
0.0
 10
109.0496744519043
 20
-135.8215114677807
 30
0.0
 10
109.0496744519043
 20
-135.6354763115772
 30
0.0
 10
108.9270290526294
 20
-135.5252332560493
 30
0.0
 10
108.7492621255905
 20
-135.5252332560493
 30
0.0
 10
108.5273979763404
 20
-135.5252332560493
 30
0.0
 10
108.4533284234075
 20
-135.6881862725016
 30
0.0
 10
108.4533284234075
 20
-135.8215114677807
 30
0.0
  0
HATCH
  5
CC
330
C5
100
AcDbEntity
  8
_U+30EC_U+30A4_U+30E4_U+30FC 1
 62
   179
420
  2234388
100
AcDbHatch
 10
0.0
 20
0.0
 30
0.0
210
0.0
220
0.0
230
1.0
  2
SOLID
 70
     1
 71
     0
 91
        3
 92
        1
 93
        1
 72
     4
 94
        3
 73
     0
 74
     1
 95
       29
 96
       25
 40
0.0
 40
0.0
 40
0.0
 40
0.0
 40
1.0
 40
1.0
 40
1.0
 40
2.0
 40
2.0
 40
2.0
 40
3.0
 40
3.0
 40
3.0
 40
4.0
 40
4.0
 40
4.0
 40
5.0
 40
5.0
 40
5.0
 40
6.0
 40
6.0
 40
6.0
 40
7.0
 40
7.0
 40
7.0
 40
8.0
 40
8.0
 40
8.0
 40
8.0
 10
109.2443223468209
 20
-135.8215114677807
 10
109.2443223468209
 20
-136.0881618583391
 10
109.1068630369594
 20
-136.342065395602
 10
108.7578748643036
 20
-136.342065395602
 10
108.5019042697495
 20
-136.342065395602
 10
108.4068196343566
 20
-136.2001274616097
 10
108.3454969347192
 20
-136.0943630302125
 10
108.2862412923729
 20
-136.2190754867786
 10
108.1718641222626
 20
-136.2952120970026
 10
108.0109781631014
 20
-136.2952120970026
 10
107.7360595433785
 20
-136.2952120970026
 10
107.6006672908082
 20
-136.0964300875037
 10
107.6006672908082
 20
-135.8215114677807
 10
107.6006672908082
 20
-135.5379801093447
 10
107.7446722820916
 20
-135.3474663290104
 10
108.0109781631014
 20
-135.3474663290104
 10
108.1718641222626
 20
-135.3474663290104
 10
108.2862412923729
 20
-135.4260145060741
 10
108.3454969347192
 20
-135.5507269626401
 10
108.3961398383524
 20
-135.4618434991206
 10
108.4912244737452
 20
-135.3030245972506
 10
108.7537407497213
 20
-135.3030245972506
 10
109.1282226289679
 20
-135.3030245972506
 10
109.2443223468209
 20
-135.5824218411044
 10
109.2443223468209
 20
-135.8215114677807
 97
        0
 97
        0
 92
        1
 93
        1
 72
     4
 94
        3
 73
     0
 74
     1
 95
       17
 96
       13
 40
0.0
 40
0.0
 40
0.0
 40
0.0
 40
1.0
 40
1.0
 40
1.0
 40
2.0
 40
2.0
 40
2.0
 40
3.0
 40
3.0
 40
3.0
 40
4.0
 40
4.0
 40
4.0
 40
4.0
 10
107.7932481284336
 20
-135.8215114677807
 10
107.7932481284336
 20
-135.9865315415242
 10
107.8883327638265
 20
-136.0712808904614
 10
108.0237250163969
 20
-136.0712808904614
 10
108.1463704156717
 20
-136.0712808904614
 10
108.2648817003643
 20
-135.9992783948196
 10
108.2648817003643
 20
-135.8215114677807
 10
108.2648817003643
 20
-135.6437445407418
 10
108.1463704156717
 20
-135.5717420451001
 10
108.0237250163969
 20
-135.5717420451001
 10
107.8883327638265
 20
-135.5717420451001
 10
107.7932481284336
 20
-135.6585584513284
 10
107.7932481284336
 20
-135.8215114677807
 97
        0
 97
        0
 92
        1
 93
        1
 72
     4
 94
        3
 73
     0
 74
     1
 95
       17
 96
       13
 40
0.0
 40
0.0
 40
0.0
 40
0.0
 40
1.0
 40
1.0
 40
1.0
 40
2.0
 40
2.0
 40
2.0
 40
3.0
 40
3.0
 40
3.0
 40
4.0
 40
4.0
 40
4.0
 40
4.0
 10
108.4533284234075
 20
-135.8215114677807
 10
108.4533284234075
 20
-135.9651719495156
 10
108.5401448296358
 20
-136.1177896795122
 10
108.743060953717
 20
-136.1177896795122
 10
108.9483886446379
 20
-136.1177896795122
 10
109.0496744519043
 20
-135.9906656561065
 10
109.0496744519043
 20
-135.8215114677807
 10
109.0496744519043
 20
-135.6354763115772
 10
108.9270290526294
 20
-135.5252332560493
 10
108.7492621255905
 20
-135.5252332560493
 10
108.5273979763404
 20
-135.5252332560493
 10
108.4533284234075
 20
-135.6881862725016
 10
108.4533284234075
 20
-135.8215114677807
 97
        0
 97
        0
 75
     2
 76
     1
 98
        0
  0
POLYLINE
  5
CD
330
C5
100
AcDbEntity
  8
_U+30EC_U+30A4_U+30E4_U+30FC 1
370
     0
100
AcDb2dPolyline
 66
     1
 10
0.0
 20
0.0
 30
0.0
  0
VERTEX
  5
CE
330
CD
100
AcDbEntity
  8
_U+30EC_U+30A4_U+30E4_U+30FC 1
370
     0
100
AcDbVertex
100
AcDb2dVertex
 10
109.1936794431877
 20
-135.0846055434858
 30
0.0
  0
VERTEX
  5
CF
330
CD
100
AcDbEntity
  8
_U+30EC_U+30A4_U+30E4_U+30FC 1
370
     0
100
AcDbVertex
100
AcDb2dVertex
 10
108.9418429632159
 20
-135.0846055434858
 30
0.0
  0
VERTEX
  5
D0
330
CD
100
AcDbEntity
  8
_U+30EC_U+30A4_U+30E4_U+30FC 1
370
     0
100
AcDbVertex
100
AcDb2dVertex
 10
108.9418429632159
 20
-134.832769063514
 30
0.0
  0
VERTEX
  5
D1
330
CD
100
AcDbEntity
  8
_U+30EC_U+30A4_U+30E4_U+30FC 1
370
     0
100
AcDbVertex
100
AcDb2dVertex
 10
109.1936794431877
 20
-134.832769063514
 30
0.0
  0
VERTEX
  5
D2
330
CD
100
AcDbEntity
  8
_U+30EC_U+30A4_U+30E4_U+30FC 1
370
     0
100
AcDbVertex
100
AcDb2dVertex
 10
109.1936794431877
 20
-135.0846055434858
 30
0.0
  0
SEQEND
  5
D3
330
CD
100
AcDbEntity
  8
_U+30EC_U+30A4_U+30E4_U+30FC 1
370
     0
  0
HATCH
  5
D4
330
C5
100
AcDbEntity
  8
_U+30EC_U+30A4_U+30E4_U+30FC 1
 62
   179
420
  2234388
100
AcDbHatch
 10
0.0
 20
0.0
 30
0.0
210
0.0
220
0.0
230
1.0
  2
SOLID
 70
     1
 71
     0
 91
        1
 92
        1
 93
        4
 72
     1
 10
109.1936794431877
 20
-135.0846055434858
 11
108.9418429632159
 21
-135.0846055434858
 72
     1
 10
108.9418429632159
 20
-135.0846055434858
 11
108.9418429632159
 21
-134.832769063514
 72
     1
 10
108.9418429632159
 20
-134.832769063514
 11
109.1936794431877
 21
-134.832769063514
 72
     1
 10
109.1936794431877
 20
-134.832769063514
 11
109.1936794431877
 21
-135.0846055434858
 97
        0
 75
     2
 76
     1
 98
        0
  0
SPLINE
  5
D5
330
C5
100
AcDbEntity
  8
_U+30EC_U+30A4_U+30E4_U+30FC 1
370
     0
100
AcDbSpline
210
0.0
220
0.0
230
1.0
 70
    11
 71
     3
 72
    32
 73
    28
 74
     0
 42
0.0000000001
 43
0.0000000001
 12
1.0
 22
0.0
 32
0.0
 13
1.0
 23
0.0
 33
0.0
 40
0.0
 40
0.0
 40
0.0
 40
0.0
 40
1.0
 40
1.0
 40
1.0
 40
2.0
 40
2.0
 40
2.0
 40
3.0
 40
3.0
 40
3.0
 40
4.0
 40
4.0
 40
4.0
 40
5.0
 40
5.0
 40
5.0
 40
6.0
 40
6.0
 40
6.0
 40
7.0
 40
7.0
 40
7.0
 40
8.0
 40
8.0
 40
8.0
 40
9.0
 40
9.0
 40
9.0
 40
9.0
 10
109.2443223468209
 20
-134.1389268327847
 30
0.0
 10
109.2443223468209
 20
-134.3122151356928
 30
0.0
 10
109.1747314180188
 20
-134.5578504437911
 30
0.0
 10
108.8426242132407
 20
-134.5957464941289
 30
0.0
 10
108.8426242132407
 20
-134.5957464941289
 30
0.0
 10
108.8426242132407
 20
-134.3821505740434
 30
0.0
 10
108.8426242132407
 20
-134.3821505740434
 30
0.0
 10
108.901879855587
 20
-134.3714707780391
 30
0.0
 10
109.0496744519043
 20
-134.3397758995748
 30
0.0
 10
109.0496744519043
 20
-134.1368597754936
 30
0.0
 10
109.0496744519043
 20
-133.8447156783444
 30
0.0
 10
108.7199788139658
 20
-133.8068196280066
 30
0.0
 10
108.514651123045
 20
-133.7940727747112
 30
0.0
 10
108.5949218478513
 20
-133.8850232955218
 30
0.0
 10
108.6521104329064
 20
-133.9525471670327
 30
0.0
 10
108.6521104329064
 20
-134.1344482086539
 30
0.0
 10
108.6521104329064
 20
-134.3142821929839
 30
0.0
 10
108.5463460015092
 20
-134.6167615765889
 30
0.0
 10
108.1401692437983
 20
-134.6167615765889
 30
0.0
 10
107.8208088923156
 20
-134.6167615765889
 30
0.0
 10
107.6006672908082
 20
-134.41797956709
 30
0.0
 10
107.6006672908082
 20
-134.1006862728985
 30
0.0
 10
107.6006672908082
 20
-133.5866780264992
 30
0.0
 10
108.1549831543849
 20
-133.5759982304949
 30
0.0
 10
108.3685790744704
 20
-133.5759982304949
 30
0.0
 10
108.5990559624336
 20
-133.5759982304949
 30
0.0
 10
109.2443223468209
 20
-133.5952907652123
 30
0.0
 10
109.2443223468209
 20
-134.1389268327847
 30
0.0
  0
SPLINE
  5
D6
330
C5
100
AcDbEntity
  8
_U+30EC_U+30A4_U+30E4_U+30FC 1
370
     0
100
AcDbSpline
210
0.0
220
0.0
230
1.0
 70
    11
 71
     3
 72
    17
 73
    13
 74
     0
 42
0.0000000001
 43
0.0000000001
 12
1.0
 22
0.0
 32
0.0
 13
1.0
 23
0.0
 33
0.0
 40
0.0
 40
0.0
 40
0.0
 40
0.0
 40
1.0
 40
1.0
 40
1.0
 40
2.0
 40
2.0
 40
2.0
 40
3.0
 40
3.0
 40
3.0
 40
4.0
 40
4.0
 40
4.0
 40
4.0
 10
107.7932481284336
 20
-134.0986192156073
 30
0.0
 10
107.7932481284336
 20
-134.2171305002999
 30
0.0
 10
107.8504367134888
 20
-134.3928303700476
 30
0.0
 10
108.136035129216
 20
-134.3928303700476
 30
0.0
 10
108.3623779025969
 20
-134.3928303700476
 30
0.0
 10
108.4574625379898
 20
-134.2529594933465
 30
0.0
 10
108.4574625379898
 20
-134.1175672407762
 30
0.0
 10
108.4574625379898
 20
-133.8553954743487
 30
0.0
 10
108.2480007324866
 20
-133.8171549144624
 30
0.0
 10
108.1315565050852
 20
-133.8171549144624
 30
0.0
 10
107.956201144886
 20
-133.8171549144624
 30
0.0
 10
107.7932481284336
 20
-133.9125840594038
 30
0.0
 10
107.7932481284336
 20
-134.0986192156073
 30
0.0
  0
HATCH
  5
D7
330
C5
100
AcDbEntity
  8
_U+30EC_U+30A4_U+30E4_U+30FC 1
 62
   179
420
  2234388
100
AcDbHatch
 10
0.0
 20
0.0
 30
0.0
210
0.0
220
0.0
230
1.0
  2
SOLID
 70
     1
 71
     0
 91
        2
 92
        1
 93
        1
 72
     4
 94
        3
 73
     0
 74
     1
 95
       32
 96
       28
 40
0.0
 40
0.0
 40
0.0
 40
0.0
 40
1.0
 40
1.0
 40
1.0
 40
2.0
 40
2.0
 40
2.0
 40
3.0
 40
3.0
 40
3.0
 40
4.0
 40
4.0
 40
4.0
 40
5.0
 40
5.0
 40
5.0
 40
6.0
 40
6.0
 40
6.0
 40
7.0
 40
7.0
 40
7.0
 40
8.0
 40
8.0
 40
8.0
 40
9.0
 40
9.0
 40
9.0
 40
9.0
 10
109.2443223468209
 20
-134.1389268327847
 10
109.2443223468209
 20
-134.3122151356928
 10
109.1747314180188
 20
-134.5578504437911
 10
108.8426242132407
 20
-134.5957464941289
 10
108.8426242132407
 20
-134.5957464941289
 10
108.8426242132407
 20
-134.3821505740434
 10
108.8426242132407
 20
-134.3821505740434
 10
108.901879855587
 20
-134.3714707780391
 10
109.0496744519043
 20
-134.3397758995748
 10
109.0496744519043
 20
-134.1368597754936
 10
109.0496744519043
 20
-133.8447156783444
 10
108.7199788139658
 20
-133.8068196280066
 10
108.514651123045
 20
-133.7940727747112
 10
108.5949218478513
 20
-133.8850232955218
 10
108.6521104329064
 20
-133.9525471670327
 10
108.6521104329064
 20
-134.1344482086539
 10
108.6521104329064
 20
-134.3142821929839
 10
108.5463460015092
 20
-134.6167615765889
 10
108.1401692437983
 20
-134.6167615765889
 10
107.8208088923156
 20
-134.6167615765889
 10
107.6006672908082
 20
-134.41797956709
 10
107.6006672908082
 20
-134.1006862728985
 10
107.6006672908082
 20
-133.5866780264992
 10
108.1549831543849
 20
-133.5759982304949
 10
108.3685790744704
 20
-133.5759982304949
 10
108.5990559624336
 20
-133.5759982304949
 10
109.2443223468209
 20
-133.5952907652123
 10
109.2443223468209
 20
-134.1389268327847
 97
        0
 97
        0
 92
        1
 93
        1
 72
     4
 94
        3
 73
     0
 74
     1
 95
       17
 96
       13
 40
0.0
 40
0.0
 40
0.0
 40
0.0
 40
1.0
 40
1.0
 40
1.0
 40
2.0
 40
2.0
 40
2.0
 40
3.0
 40
3.0
 40
3.0
 40
4.0
 40
4.0
 40
4.0
 40
4.0
 10
107.7932481284336
 20
-134.0986192156073
 10
107.7932481284336
 20
-134.2171305002999
 10
107.8504367134888
 20
-134.3928303700476
 10
108.136035129216
 20
-134.3928303700476
 10
108.3623779025969
 20
-134.3928303700476
 10
108.4574625379898
 20
-134.2529594933465
 10
108.4574625379898
 20
-134.1175672407762
 10
108.4574625379898
 20
-133.8553954743487
 10
108.2480007324866
 20
-133.8171549144624
 10
108.1315565050852
 20
-133.8171549144624
 10
107.956201144886
 20
-133.8171549144624
 10
107.7932481284336
 20
-133.9125840594038
 10
107.7932481284336
 20
-134.0986192156073
 97
        0
 97
        0
 75
     2
 76
     1
 98
        0
  0
ENDBLK
  5
C8
330
C5
100
AcDbEntity
  8
0
100
AcDbBlockEnd
  0
BLOCK
  5
E6
330
E4
100
AcDbEntity
  8
0
100
AcDbBlockBegin
  2
block 5
 70
     0
 10
0.0
 20
0.0
 30
0.0
  3
block 5
  1

  0
SPLINE
  5
E8
330
E4
100
AcDbEntity
  8
_U+30EC_U+30A4_U+30E4_U+30FC 1
370
     0
100
AcDbSpline
210
0.0
220
0.0
230
1.0
 70
    11
 71
     3
 72
    62
 73
    58
 74
     0
 42
0.0000000001
 43
0.0000000001
 12
1.0
 22
0.0
 32
0.0
 13
1.0
 23
0.0
 33
0.0
 40
0.0
 40
0.0
 40
0.0
 40
0.0
 40
1.0
 40
1.0
 40
1.0
 40
2.0
 40
2.0
 40
2.0
 40
3.0
 40
3.0
 40
3.0
 40
4.0
 40
4.0
 40
4.0
 40
5.0
 40
5.0
 40
5.0
 40
6.0
 40
6.0
 40
6.0
 40
7.0
 40
7.0
 40
7.0
 40
8.0
 40
8.0
 40
8.0
 40
9.0
 40
9.0
 40
9.0
 40
10.0
 40
10.0
 40
10.0
 40
11.0
 40
11.0
 40
11.0
 40
12.0
 40
12.0
 40
12.0
 40
13.0
 40
13.0
 40
13.0
 40
14.0
 40
14.0
 40
14.0
 40
15.0
 40
15.0
 40
15.0
 40
16.0
 40
16.0
 40
16.0
 40
17.0
 40
17.0
 40
17.0
 40
18.0
 40
18.0
 40
18.0
 40
19.0
 40
19.0
 40
19.0
 40
19.0
 10
86.11705184479018
 20
-142.9111734668764
 30
0.0
 10
86.02162269984876
 20
-142.9111734668764
 30
0.0
 10
85.80389266518098
 20
-142.8901583844164
 30
0.0
 10
85.67883569906641
 20
-142.7041232282129
 30
0.0
 10
85.60476614613353
 20
-142.5918131153937
 30
0.0
 10
85.60063203155123
 20
-142.4925943654185
 30
0.0
 10
85.59649791696893
 20
-142.4078450164814
 30
0.0
 10
85.59649791696893
 20
-142.4078450164814
 30
0.0
 10
85.81663951847639
 20
-142.4078450164814
 30
0.0
 10
85.81663951847639
 20
-142.4078450164814
 30
0.0
 10
85.81870657576755
 20
-142.4819145694142
 30
0.0
 10
85.82904186222329
 20
-142.7165255719598
 30
0.0
 10
86.11257322065936
 20
-142.7165255719598
 30
0.0
 10
86.25003253052083
 20
-142.7165255719598
 30
0.0
 10
86.40265026051739
 20
-142.6469346431577
 30
0.0
 10
86.40265026051739
 20
-142.4185248124857
 30
0.0
 10
86.40265026051739
 20
-142.3020805850842
 30
0.0
 10
86.36440970063113
 20
-142.2535047387422
 30
0.0
 10
86.33271482216682
 20
-142.2218098602779
 30
0.0
 10
86.25864526923395
 20
-142.147740307345
 30
0.0
 10
86.14220104183251
 20
-142.1349934540496
 30
0.0
 10
86.08742402361703
 20
-142.1349934540496
 30
0.0
 10
86.06813148889964
 20
-142.1349934540496
 30
0.0
 10
86.03230249585305
 20
-142.1370605113407
 30
0.0
 10
86.00474173197104
 20
-142.141194625923
 30
0.0
 10
86.00474173197104
 20
-142.141194625923
 30
0.0
 10
86.00474173197104
 20
-141.9465467310064
 30
0.0
 10
86.00474173197104
 20
-141.9465467310064
 30
0.0
 10
86.04298229185731
 20
-141.9530924124284
 30
0.0
 10
86.08501245677736
 20
-141.9551594697195
 30
0.0
 10
86.09155813819933
 20
-141.9551594697195
 30
0.0
 10
86.15701495241909
 20
-141.9551594697195
 30
0.0
 10
86.355796961918
 20
-141.933799877711
 30
0.0
 10
86.355796961918
 20
-141.6971218178743
 30
0.0
 10
86.355796961918
 20
-141.5193548908354
 30
0.0
 10
86.2248833334785
 20
-141.4642333630715
 30
0.0
 10
86.11464027795051
 20
-141.4642333630715
 30
0.0
 10
85.85040145423184
 20
-141.4642333630715
 30
0.0
 10
85.84178871551872
 20
-141.6971218178743
 30
0.0
 10
85.83765460093642
 20
-141.7687798039675
 30
0.0
 10
85.83765460093642
 20
-141.7687798039675
 30
0.0
 10
85.63439396730668
 20
-141.7687798039675
 30
0.0
 10
85.63439396730668
 20
-141.7687798039675
 30
0.0
 10
85.6430067060198
 20
-141.6440673474015
 30
0.0
 10
85.67056746990181
 20
-141.2675184108637
 30
0.0
 10
86.12738713124594
 20
-141.2675184108637
 30
0.0
 10
86.3516628473357
 20
-141.2675184108637
 30
0.0
 10
86.59281953130319
 20
-141.3946424342694
 30
0.0
 10
86.59281953130319
 20
-141.6905761364524
 30
0.0
 10
86.59281953130319
 20
-141.8769558022044
 30
0.0
 10
86.4977348959103
 20
-141.9592935843019
 30
0.0
 10
86.39817163638658
 20
-142.0206162839393
 30
0.0
 10
86.45949433602402
 20
-142.0481770478213
 30
0.0
 10
86.64139537764521
 20
-142.1284477726276
 30
0.0
 10
86.64139537764521
 20
-142.4057779591902
 30
0.0
 10
86.64139537764521
 20
-142.7440863358418
 30
0.0
 10
86.39403752180428
 20
-142.9111734668764
 30
0.0
 10
86.11705184479018
 20
-142.9111734668764
 30
0.0
  0
HATCH
  5
E9
330
E4
100
AcDbEntity
  8
_U+30EC_U+30A4_U+30E4_U+30FC 1
 62
   179
420
  2234388
100
AcDbHatch
 10
0.0
 20
0.0
 30
0.0
210
0.0
220
0.0
230
1.0
  2
SOLID
 70
     1
 71
     0
 91
        1
 92
        1
 93
        1
 72
     4
 94
        3
 73
     0
 74
     1
 95
       62
 96
       58
 40
0.0
 40
0.0
 40
0.0
 40
0.0
 40
1.0
 40
1.0
 40
1.0
 40
2.0
 40
2.0
 40
2.0
 40
3.0
 40
3.0
 40
3.0
 40
4.0
 40
4.0
 40
4.0
 40
5.0
 40
5.0
 40
5.0
 40
6.0
 40
6.0
 40
6.0
 40
7.0
 40
7.0
 40
7.0
 40
8.0
 40
8.0
 40
8.0
 40
9.0
 40
9.0
 40
9.0
 40
10.0
 40
10.0
 40
10.0
 40
11.0
 40
11.0
 40
11.0
 40
12.0
 40
12.0
 40
12.0
 40
13.0
 40
13.0
 40
13.0
 40
14.0
 40
14.0
 40
14.0
 40
15.0
 40
15.0
 40
15.0
 40
16.0
 40
16.0
 40
16.0
 40
17.0
 40
17.0
 40
17.0
 40
18.0
 40
18.0
 40
18.0
 40
19.0
 40
19.0
 40
19.0
 40
19.0
 10
86.11705184479018
 20
-142.9111734668764
 10
86.02162269984876
 20
-142.9111734668764
 10
85.80389266518098
 20
-142.8901583844164
 10
85.67883569906641
 20
-142.7041232282129
 10
85.60476614613353
 20
-142.5918131153937
 10
85.60063203155123
 20
-142.4925943654185
 10
85.59649791696893
 20
-142.4078450164814
 10
85.59649791696893
 20
-142.4078450164814
 10
85.81663951847639
 20
-142.4078450164814
 10
85.81663951847639
 20
-142.4078450164814
 10
85.81870657576755
 20
-142.4819145694142
 10
85.82904186222329
 20
-142.7165255719598
 10
86.11257322065936
 20
-142.7165255719598
 10
86.25003253052083
 20
-142.7165255719598
 10
86.40265026051739
 20
-142.6469346431577
 10
86.40265026051739
 20
-142.4185248124857
 10
86.40265026051739
 20
-142.3020805850842
 10
86.36440970063113
 20
-142.2535047387422
 10
86.33271482216682
 20
-142.2218098602779
 10
86.25864526923395
 20
-142.147740307345
 10
86.14220104183251
 20
-142.1349934540496
 10
86.08742402361703
 20
-142.1349934540496
 10
86.06813148889964
 20
-142.1349934540496
 10
86.03230249585305
 20
-142.1370605113407
 10
86.00474173197104
 20
-142.141194625923
 10
86.00474173197104
 20
-142.141194625923
 10
86.00474173197104
 20
-141.9465467310064
 10
86.00474173197104
 20
-141.9465467310064
 10
86.04298229185731
 20
-141.9530924124284
 10
86.08501245677736
 20
-141.9551594697195
 10
86.09155813819933
 20
-141.9551594697195
 10
86.15701495241909
 20
-141.9551594697195
 10
86.355796961918
 20
-141.933799877711
 10
86.355796961918
 20
-141.6971218178743
 10
86.355796961918
 20
-141.5193548908354
 10
86.2248833334785
 20
-141.4642333630715
 10
86.11464027795051
 20
-141.4642333630715
 10
85.85040145423184
 20
-141.4642333630715
 10
85.84178871551872
 20
-141.6971218178743
 10
85.83765460093642
 20
-141.7687798039675
 10
85.83765460093642
 20
-141.7687798039675
 10
85.63439396730668
 20
-141.7687798039675
 10
85.63439396730668
 20
-141.7687798039675
 10
85.6430067060198
 20
-141.6440673474015
 10
85.67056746990181
 20
-141.2675184108637
 10
86.12738713124594
 20
-141.2675184108637
 10
86.3516628473357
 20
-141.2675184108637
 10
86.59281953130319
 20
-141.3946424342694
 10
86.59281953130319
 20
-141.6905761364524
 10
86.59281953130319
 20
-141.8769558022044
 10
86.4977348959103
 20
-141.9592935843019
 10
86.39817163638658
 20
-142.0206162839393
 10
86.45949433602402
 20
-142.0481770478213
 10
86.64139537764521
 20
-142.1284477726276
 10
86.64139537764521
 20
-142.4057779591902
 10
86.64139537764521
 20
-142.7440863358418
 10
86.39403752180428
 20
-142.9111734668764
 10
86.11705184479018
 20
-142.9111734668764
 97
        0
 97
        0
 75
     2
 76
     1
 98
        0
  0
SPLINE
  5
EA
330
E4
100
AcDbEntity
  8
_U+30EC_U+30A4_U+30E4_U+30FC 1
370
     0
100
AcDbSpline
210
0.0
220
0.0
230
1.0
 70
    11
 71
     3
 72
    29
 73
    25
 74
     0
 42
0.0000000001
 43
0.0000000001
 12
1.0
 22
0.0
 32
0.0
 13
1.0
 23
0.0
 33
0.0
 40
0.0
 40
0.0
 40
0.0
 40
0.0
 40
1.0
 40
1.0
 40
1.0
 40
2.0
 40
2.0
 40
2.0
 40
3.0
 40
3.0
 40
3.0
 40
4.0
 40
4.0
 40
4.0
 40
5.0
 40
5.0
 40
5.0
 40
6.0
 40
6.0
 40
6.0
 40
7.0
 40
7.0
 40
7.0
 40
8.0
 40
8.0
 40
8.0
 40
8.0
 10
87.30216469171613
 20
-142.9111734668764
 30
0.0
 10
87.03551430115779
 20
-142.9111734668764
 30
0.0
 10
86.78161076389488
 20
-142.7737141570149
 30
0.0
 10
86.78161076389488
 20
-142.4247259843591
 30
0.0
 10
86.78161076389488
 20
-142.168755389805
 30
0.0
 10
86.92354869788717
 20
-142.0736707544121
 30
0.0
 10
87.02931312928435
 20
-142.0123480547747
 30
0.0
 10
86.9046006727183
 20
-141.9530924124284
 30
0.0
 10
86.82846406249428
 20
-141.8387152423181
 30
0.0
 10
86.82846406249428
 20
-141.6778292831569
 30
0.0
 10
86.82846406249428
 20
-141.402910663434
 30
0.0
 10
87.02724607199319
 20
-141.2675184108637
 30
0.0
 10
87.30216469171613
 20
-141.2675184108637
 30
0.0
 10
87.5856960501522
 20
-141.2675184108637
 30
0.0
 10
87.77620983048651
 20
-141.4115234021471
 30
0.0
 10
87.77620983048651
 20
-141.6778292831569
 30
0.0
 10
87.77620983048651
 20
-141.8387152423181
 30
0.0
 10
87.69766165342281
 20
-141.9530924124284
 30
0.0
 10
87.57294919685677
 20
-142.0123480547747
 30
0.0
 10
87.6618326603762
 20
-142.0629909584079
 30
0.0
 10
87.82065156224623
 20
-142.1580755938008
 30
0.0
 10
87.82065156224623
 20
-142.4205918697768
 30
0.0
 10
87.82065156224623
 20
-142.7950737490235
 30
0.0
 10
87.54125431839246
 20
-142.9111734668764
 30
0.0
 10
87.30216469171613
 20
-142.9111734668764
 30
0.0
  0
SPLINE
  5
EB
330
E4
100
AcDbEntity
  8
_U+30EC_U+30A4_U+30E4_U+30FC 1
370
     0
100
AcDbSpline
210
0.0
220
0.0
230
1.0
 70
    11
 71
     3
 72
    17
 73
    13
 74
     0
 42
0.0000000001
 43
0.0000000001
 12
1.0
 22
0.0
 32
0.0
 13
1.0
 23
0.0
 33
0.0
 40
0.0
 40
0.0
 40
0.0
 40
0.0
 40
1.0
 40
1.0
 40
1.0
 40
2.0
 40
2.0
 40
2.0
 40
3.0
 40
3.0
 40
3.0
 40
4.0
 40
4.0
 40
4.0
 40
4.0
 10
87.30216469171613
 20
-142.120179543463
 30
0.0
 10
87.15850420998122
 20
-142.120179543463
 30
0.0
 10
87.00588647998464
 20
-142.2069959496913
 30
0.0
 10
87.00588647998464
 20
-142.4099120737725
 30
0.0
 10
87.00588647998464
 20
-142.6152397646934
 30
0.0
 10
87.13301050339037
 20
-142.7165255719598
 30
0.0
 10
87.30216469171613
 20
-142.7165255719598
 30
0.0
 10
87.48819984791962
 20
-142.7165255719598
 30
0.0
 10
87.59844290344762
 20
-142.5938801726849
 30
0.0
 10
87.59844290344762
 20
-142.416113245646
 30
0.0
 10
87.59844290344762
 20
-142.1942490963959
 30
0.0
 10
87.4354898869953
 20
-142.120179543463
 30
0.0
 10
87.30216469171613
 20
-142.120179543463
 30
0.0
  0
SPLINE
  5
EC
330
E4
100
AcDbEntity
  8
_U+30EC_U+30A4_U+30E4_U+30FC 1
370
     0
100
AcDbSpline
210
0.0
220
0.0
230
1.0
 70
    11
 71
     3
 72
    17
 73
    13
 74
     0
 42
0.0000000001
 43
0.0000000001
 12
1.0
 22
0.0
 32
0.0
 13
1.0
 23
0.0
 33
0.0
 40
0.0
 40
0.0
 40
0.0
 40
0.0
 40
1.0
 40
1.0
 40
1.0
 40
2.0
 40
2.0
 40
2.0
 40
3.0
 40
3.0
 40
3.0
 40
4.0
 40
4.0
 40
4.0
 40
4.0
 10
87.30216469171613
 20
-141.4600992484891
 30
0.0
 10
87.13714461797267
 20
-141.4600992484891
 30
0.0
 10
87.05239526903551
 20
-141.5551838838821
 30
0.0
 10
87.05239526903551
 20
-141.6905761364524
 30
0.0
 10
87.05239526903551
 20
-141.8132215357273
 30
0.0
 10
87.12439776467724
 20
-141.9317328204199
 30
0.0
 10
87.30216469171613
 20
-141.9317328204199
 30
0.0
 10
87.47993161875502
 20
-141.9317328204199
 30
0.0
 10
87.55193411439674
 20
-141.8132215357273
 30
0.0
 10
87.55193411439674
 20
-141.6905761364524
 30
0.0
 10
87.55193411439674
 20
-141.5551838838821
 30
0.0
 10
87.46511770816845
 20
-141.4600992484891
 30
0.0
 10
87.30216469171613
 20
-141.4600992484891
 30
0.0
  0
HATCH
  5
ED
330
E4
100
AcDbEntity
  8
_U+30EC_U+30A4_U+30E4_U+30FC 1
 62
   179
420
  2234388
100
AcDbHatch
 10
0.0
 20
0.0
 30
0.0
210
0.0
220
0.0
230
1.0
  2
SOLID
 70
     1
 71
     0
 91
        3
 92
        1
 93
        1
 72
     4
 94
        3
 73
     0
 74
     1
 95
       29
 96
       25
 40
0.0
 40
0.0
 40
0.0
 40
0.0
 40
1.0
 40
1.0
 40
1.0
 40
2.0
 40
2.0
 40
2.0
 40
3.0
 40
3.0
 40
3.0
 40
4.0
 40
4.0
 40
4.0
 40
5.0
 40
5.0
 40
5.0
 40
6.0
 40
6.0
 40
6.0
 40
7.0
 40
7.0
 40
7.0
 40
8.0
 40
8.0
 40
8.0
 40
8.0
 10
87.30216469171613
 20
-142.9111734668764
 10
87.03551430115779
 20
-142.9111734668764
 10
86.78161076389488
 20
-142.7737141570149
 10
86.78161076389488
 20
-142.4247259843591
 10
86.78161076389488
 20
-142.168755389805
 10
86.92354869788717
 20
-142.0736707544121
 10
87.02931312928435
 20
-142.0123480547747
 10
86.9046006727183
 20
-141.9530924124284
 10
86.82846406249428
 20
-141.8387152423181
 10
86.82846406249428
 20
-141.6778292831569
 10
86.82846406249428
 20
-141.402910663434
 10
87.02724607199319
 20
-141.2675184108637
 10
87.30216469171613
 20
-141.2675184108637
 10
87.5856960501522
 20
-141.2675184108637
 10
87.77620983048651
 20
-141.4115234021471
 10
87.77620983048651
 20
-141.6778292831569
 10
87.77620983048651
 20
-141.8387152423181
 10
87.69766165342281
 20
-141.9530924124284
 10
87.57294919685677
 20
-142.0123480547747
 10
87.6618326603762
 20
-142.0629909584079
 10
87.82065156224623
 20
-142.1580755938008
 10
87.82065156224623
 20
-142.4205918697768
 10
87.82065156224623
 20
-142.7950737490235
 10
87.54125431839246
 20
-142.9111734668764
 10
87.30216469171613
 20
-142.9111734668764
 97
        0
 97
        0
 92
        1
 93
        1
 72
     4
 94
        3
 73
     0
 74
     1
 95
       17
 96
       13
 40
0.0
 40
0.0
 40
0.0
 40
0.0
 40
1.0
 40
1.0
 40
1.0
 40
2.0
 40
2.0
 40
2.0
 40
3.0
 40
3.0
 40
3.0
 40
4.0
 40
4.0
 40
4.0
 40
4.0
 10
87.30216469171613
 20
-142.120179543463
 10
87.15850420998122
 20
-142.120179543463
 10
87.00588647998464
 20
-142.2069959496913
 10
87.00588647998464
 20
-142.4099120737725
 10
87.00588647998464
 20
-142.6152397646934
 10
87.13301050339037
 20
-142.7165255719598
 10
87.30216469171613
 20
-142.7165255719598
 10
87.48819984791962
 20
-142.7165255719598
 10
87.59844290344762
 20
-142.5938801726849
 10
87.59844290344762
 20
-142.416113245646
 10
87.59844290344762
 20
-142.1942490963959
 10
87.4354898869953
 20
-142.120179543463
 10
87.30216469171613
 20
-142.120179543463
 97
        0
 97
        0
 92
        1
 93
        1
 72
     4
 94
        3
 73
     0
 74
     1
 95
       17
 96
       13
 40
0.0
 40
0.0
 40
0.0
 40
0.0
 40
1.0
 40
1.0
 40
1.0
 40
2.0
 40
2.0
 40
2.0
 40
3.0
 40
3.0
 40
3.0
 40
4.0
 40
4.0
 40
4.0
 40
4.0
 10
87.30216469171613
 20
-141.4600992484891
 10
87.13714461797267
 20
-141.4600992484891
 10
87.05239526903551
 20
-141.5551838838821
 10
87.05239526903551
 20
-141.6905761364524
 10
87.05239526903551
 20
-141.8132215357273
 10
87.12439776467724
 20
-141.9317328204199
 10
87.30216469171613
 20
-141.9317328204199
 10
87.47993161875502
 20
-141.9317328204199
 10
87.55193411439674
 20
-141.8132215357273
 10
87.55193411439674
 20
-141.6905761364524
 10
87.55193411439674
 20
-141.5551838838821
 10
87.46511770816845
 20
-141.4600992484891
 10
87.30216469171613
 20
-141.4600992484891
 97
        0
 97
        0
 75
     2
 76
     1
 98
        0
  0
ENDBLK
  5
E7
330
E4
100
AcDbEntity
  8
0
100
AcDbBlockEnd
  0
BLOCK
  5
FC
330
FA
100
AcDbEntity
  8
0
100
AcDbBlockBegin
  2
block 6
 70
     0
 10
0.0
 20
0.0
 30
0.0
  3
block 6
  1

  0
SPLINE
  5
FE
330
FA
100
AcDbEntity
  8
_U+30EC_U+30A4_U+30E4_U+30FC 1
370
     0
100
AcDbSpline
210
0.0
220
0.0
230
1.0
 70
    11
 71
     3
 72
    53
 73
    49
 74
     0
 42
0.0000000001
 43
0.0000000001
 12
1.0
 22
0.0
 32
0.0
 13
1.0
 23
0.0
 33
0.0
 40
0.0
 40
0.0
 40
0.0
 40
0.0
 40
1.0
 40
1.0
 40
1.0
 40
2.0
 40
2.0
 40
2.0
 40
3.0
 40
3.0
 40
3.0
 40
4.0
 40
4.0
 40
4.0
 40
5.0
 40
5.0
 40
5.0
 40
6.0
 40
6.0
 40
6.0
 40
7.0
 40
7.0
 40
7.0
 40
8.0
 40
8.0
 40
8.0
 40
9.0
 40
9.0
 40
9.0
 40
10.0
 40
10.0
 40
10.0
 40
11.0
 40
11.0
 40
11.0
 40
12.0
 40
12.0
 40
12.0
 40
13.0
 40
13.0
 40
13.0
 40
14.0
 40
14.0
 40
14.0
 40
15.0
 40
15.0
 40
15.0
 40
16.0
 40
16.0
 40
16.0
 40
16.0
 10
90.27287052864706
 20
-126.0114298187576
 30
0.0
 10
90.19449460635764
 20
-126.0114298187576
 30
0.0
 10
90.09303654431702
 20
-125.9943765961056
 30
0.0
 10
89.99140622750215
 20
-125.930986839177
 30
0.0
 10
89.81794566981982
 20
-125.8209160384232
 30
0.0
 10
89.79675833258554
 20
-125.6898301552095
 30
0.0
 10
89.77781030741666
 20
-125.5819986665212
 30
0.0
 10
89.77781030741666
 20
-125.5819986665212
 30
0.0
 10
89.99984671144101
 20
-125.5819986665212
 30
0.0
 10
89.99984671144101
 20
-125.5819986665212
 30
0.0
 10
90.05496823920501
 20
-125.7807806760201
 30
0.0
 10
90.18192000783647
 20
-125.8104084971932
 30
0.0
 10
90.27493758593822
 20
-125.8104084971932
 30
0.0
 10
90.41446395309083
 20
-125.8104084971932
 30
0.0
 10
90.56690942831314
 20
-125.7110174924438
 30
0.0
 10
90.56690942831314
 20
-125.4783012924152
 30
0.0
 10
90.56690942831314
 20
-125.2223306978611
 30
0.0
 10
90.3870754439831
 20
-125.1525675142848
 30
0.0
 10
90.26649710199935
 20
-125.1525675142848
 30
0.0
 10
90.23480222353506
 20
-125.1525675142848
 30
0.0
 10
90.09303654431702
 20
-125.1525675142848
 30
0.0
 10
90.00415308079758
 20
-125.2815863402074
 30
0.0
 10
90.00415308079758
 20
-125.2815863402074
 30
0.0
 10
89.8286254658241
 20
-125.2624660602642
 30
0.0
 10
89.8286254658241
 20
-125.2624660602642
 30
0.0
 10
89.8286254658241
 20
-125.2624660602642
 30
0.0
 10
89.94920380780785
 20
-124.4163506090869
 30
0.0
 10
89.94920380780785
 20
-124.4163506090869
 30
0.0
 10
89.94920380780785
 20
-124.4163506090869
 30
0.0
 10
90.72762313270005
 20
-124.4163506090869
 30
0.0
 10
90.72762313270005
 20
-124.4163506090869
 30
0.0
 10
90.72762313270005
 20
-124.4163506090869
 30
0.0
 10
90.72762313270005
 20
-124.6109985040035
 30
0.0
 10
90.72762313270005
 20
-124.6109985040035
 30
0.0
 10
90.72762313270005
 20
-124.6109985040035
 30
0.0
 10
90.1119845694859
 20
-124.6109985040035
 30
0.0
 10
90.1119845694859
 20
-124.6109985040035
 30
0.0
 10
90.1119845694859
 20
-124.6109985040035
 30
0.0
 10
90.04652775526615
 20
-125.0340562295922
 30
0.0
 10
90.04652775526615
 20
-125.0340562295922
 30
0.0
 10
90.1078504549036
 20
-125.0001220390625
 30
0.0
 10
90.19036049177534
 20
-124.9599866766593
 30
0.0
 10
90.30869952169367
 20
-124.9599866766593
 30
0.0
 10
90.56260305895657
 20
-124.9599866766593
 30
0.0
 10
90.79962562834176
 20
-125.1461940876371
 30
0.0
 10
90.79962562834176
 20
-125.459181012472
 30
0.0
 10
90.79962562834176
 20
-125.7766465614378
 30
0.0
 10
90.575349912252
 20
-126.0114298187576
 30
0.0
 10
90.27287052864706
 20
-126.0114298187576
 30
0.0
  0
HATCH
  5
FF
330
FA
100
AcDbEntity
  8
_U+30EC_U+30A4_U+30E4_U+30FC 1
 62
   179
420
  2234388
100
AcDbHatch
 10
0.0
 20
0.0
 30
0.0
210
0.0
220
0.0
230
1.0
  2
SOLID
 70
     1
 71
     0
 91
        1
 92
        1
 93
        1
 72
     4
 94
        3
 73
     0
 74
     1
 95
       53
 96
       49
 40
0.0
 40
0.0
 40
0.0
 40
0.0
 40
1.0
 40
1.0
 40
1.0
 40
2.0
 40
2.0
 40
2.0
 40
3.0
 40
3.0
 40
3.0
 40
4.0
 40
4.0
 40
4.0
 40
5.0
 40
5.0
 40
5.0
 40
6.0
 40
6.0
 40
6.0
 40
7.0
 40
7.0
 40
7.0
 40
8.0
 40
8.0
 40
8.0
 40
9.0
 40
9.0
 40
9.0
 40
10.0
 40
10.0
 40
10.0
 40
11.0
 40
11.0
 40
11.0
 40
12.0
 40
12.0
 40
12.0
 40
13.0
 40
13.0
 40
13.0
 40
14.0
 40
14.0
 40
14.0
 40
15.0
 40
15.0
 40
15.0
 40
16.0
 40
16.0
 40
16.0
 40
16.0
 10
90.27287052864706
 20
-126.0114298187576
 10
90.19449460635764
 20
-126.0114298187576
 10
90.09303654431702
 20
-125.9943765961056
 10
89.99140622750215
 20
-125.930986839177
 10
89.81794566981982
 20
-125.8209160384232
 10
89.79675833258554
 20
-125.6898301552095
 10
89.77781030741666
 20
-125.5819986665212
 10
89.77781030741666
 20
-125.5819986665212
 10
89.99984671144101
 20
-125.5819986665212
 10
89.99984671144101
 20
-125.5819986665212
 10
90.05496823920501
 20
-125.7807806760201
 10
90.18192000783647
 20
-125.8104084971932
 10
90.27493758593822
 20
-125.8104084971932
 10
90.41446395309083
 20
-125.8104084971932
 10
90.56690942831314
 20
-125.7110174924438
 10
90.56690942831314
 20
-125.4783012924152
 10
90.56690942831314
 20
-125.2223306978611
 10
90.3870754439831
 20
-125.1525675142848
 10
90.26649710199935
 20
-125.1525675142848
 10
90.23480222353506
 20
-125.1525675142848
 10
90.09303654431702
 20
-125.1525675142848
 10
90.00415308079758
 20
-125.2815863402074
 10
90.00415308079758
 20
-125.2815863402074
 10
89.8286254658241
 20
-125.2624660602642
 10
89.8286254658241
 20
-125.2624660602642
 10
89.8286254658241
 20
-125.2624660602642
 10
89.94920380780785
 20
-124.4163506090869
 10
89.94920380780785
 20
-124.4163506090869
 10
89.94920380780785
 20
-124.4163506090869
 10
90.72762313270005
 20
-124.4163506090869
 10
90.72762313270005
 20
-124.4163506090869
 10
90.72762313270005
 20
-124.4163506090869
 10
90.72762313270005
 20
-124.6109985040035
 10
90.72762313270005
 20
-124.6109985040035
 10
90.72762313270005
 20
-124.6109985040035
 10
90.1119845694859
 20
-124.6109985040035
 10
90.1119845694859
 20
-124.6109985040035
 10
90.1119845694859
 20
-124.6109985040035
 10
90.04652775526615
 20
-125.0340562295922
 10
90.04652775526615
 20
-125.0340562295922
 10
90.1078504549036
 20
-125.0001220390625
 10
90.19036049177534
 20
-124.9599866766593
 10
90.30869952169367
 20
-124.9599866766593
 10
90.56260305895657
 20
-124.9599866766593
 10
90.79962562834176
 20
-125.1461940876371
 10
90.79962562834176
 20
-125.459181012472
 10
90.79962562834176
 20
-125.7766465614378
 10
90.575349912252
 20
-126.0114298187576
 10
90.27287052864706
 20
-126.0114298187576
 97
        0
 97
        0
 75
     2
 76
     1
 98
        0
  0
ENDBLK
  5
FD
330
FA
100
AcDbEntity
  8
0
100
AcDbBlockEnd
  0
BLOCK
  5
10A
330
108
100
AcDbEntity
  8
0
100
AcDbBlockBegin
  2
block 7
 70
     0
 10
0.0
 20
0.0
 30
0.0
  3
block 7
  1

  0
SPLINE
  5
10C
330
108
100
AcDbEntity
  8
_U+30EC_U+30A4_U+30E4_U+30FC 1
370
     0
100
AcDbSpline
210
0.0
220
0.0
230
1.0
 70
    11
 71
     3
 72
    26
 73
    22
 74
     0
 42
0.0000000001
 43
0.0000000001
 12
1.0
 22
0.0
 32
0.0
 13
1.0
 23
0.0
 33
0.0
 40
0.0
 40
0.0
 40
0.0
 40
0.0
 40
1.0
 40
1.0
 40
1.0
 40
2.0
 40
2.0
 40
2.0
 40
3.0
 40
3.0
 40
3.0
 40
4.0
 40
4.0
 40
4.0
 40
5.0
 40
5.0
 40
5.0
 40
6.0
 40
6.0
 40
6.0
 40
7.0
 40
7.0
 40
7.0
 40
7.0
 10
98.57692868629327
 20
-125.9606146603501
 30
0.0
 10
98.57692868629327
 20
-125.9606146603501
 30
0.0
 10
98.57692868629327
 20
-124.8564615573276
 30
0.0
 10
98.57692868629327
 20
-124.8564615573276
 30
0.0
 10
98.57692868629327
 20
-124.8564615573276
 30
0.0
 10
98.24688853880633
 20
-124.8564615573276
 30
0.0
 10
98.24688853880633
 20
-124.8564615573276
 30
0.0
 10
98.24688853880633
 20
-124.8564615573276
 30
0.0
 10
98.24688853880633
 20
-124.7083224514618
 30
0.0
 10
98.24688853880633
 20
-124.7083224514618
 30
0.0
 10
98.57899574358443
 20
-124.6935085408752
 30
0.0
 10
98.62550453263529
 20
-124.5305555244229
 30
0.0
 10
98.65513235380844
 20
-124.4161783543126
 30
0.0
 10
98.65513235380844
 20
-124.4161783543126
 30
0.0
 10
98.80120440238304
 20
-124.4161783543126
 30
0.0
 10
98.80120440238304
 20
-124.4161783543126
 30
0.0
 10
98.80120440238304
 20
-124.4161783543126
 30
0.0
 10
98.80120440238304
 20
-125.9606146603501
 30
0.0
 10
98.80120440238304
 20
-125.9606146603501
 30
0.0
 10
98.80120440238304
 20
-125.9606146603501
 30
0.0
 10
98.57692868629327
 20
-125.9606146603501
 30
0.0
 10
98.57692868629327
 20
-125.9606146603501
 30
0.0
  0
HATCH
  5
10D
330
108
100
AcDbEntity
  8
_U+30EC_U+30A4_U+30E4_U+30FC 1
 62
   179
420
  2234388
100
AcDbHatch
 10
0.0
 20
0.0
 30
0.0
210
0.0
220
0.0
230
1.0
  2
SOLID
 70
     1
 71
     0
 91
        1
 92
        1
 93
        1
 72
     4
 94
        3
 73
     0
 74
     1
 95
       26
 96
       22
 40
0.0
 40
0.0
 40
0.0
 40
0.0
 40
1.0
 40
1.0
 40
1.0
 40
2.0
 40
2.0
 40
2.0
 40
3.0
 40
3.0
 40
3.0
 40
4.0
 40
4.0
 40
4.0
 40
5.0
 40
5.0
 40
5.0
 40
6.0
 40
6.0
 40
6.0
 40
7.0
 40
7.0
 40
7.0
 40
7.0
 10
98.57692868629327
 20
-125.9606146603501
 10
98.57692868629327
 20
-125.9606146603501
 10
98.57692868629327
 20
-124.8564615573276
 10
98.57692868629327
 20
-124.8564615573276
 10
98.57692868629327
 20
-124.8564615573276
 10
98.24688853880633
 20
-124.8564615573276
 10
98.24688853880633
 20
-124.8564615573276
 10
98.24688853880633
 20
-124.8564615573276
 10
98.24688853880633
 20
-124.7083224514618
 10
98.24688853880633
 20
-124.7083224514618
 10
98.57899574358443
 20
-124.6935085408752
 10
98.62550453263529
 20
-124.5305555244229
 10
98.65513235380844
 20
-124.4161783543126
 10
98.65513235380844
 20
-124.4161783543126
 10
98.80120440238304
 20
-124.4161783543126
 10
98.80120440238304
 20
-124.4161783543126
 10
98.80120440238304
 20
-124.4161783543126
 10
98.80120440238304
 20
-125.9606146603501
 10
98.80120440238304
 20
-125.9606146603501
 10
98.80120440238304
 20
-125.9606146603501
 10
98.57692868629327
 20
-125.9606146603501
 10
98.57692868629327
 20
-125.9606146603501
 97
        0
 97
        0
 75
     2
 76
     1
 98
        0
  0
SPLINE
  5
10E
330
108
100
AcDbEntity
  8
_U+30EC_U+30A4_U+30E4_U+30FC 1
370
     0
100
AcDbSpline
210
0.0
220
0.0
230
1.0
 70
    11
 71
     3
 72
    62
 73
    58
 74
     0
 42
0.0000000001
 43
0.0000000001
 12
1.0
 22
0.0
 32
0.0
 13
1.0
 23
0.0
 33
0.0
 40
0.0
 40
0.0
 40
0.0
 40
0.0
 40
1.0
 40
1.0
 40
1.0
 40
2.0
 40
2.0
 40
2.0
 40
3.0
 40
3.0
 40
3.0
 40
4.0
 40
4.0
 40
4.0
 40
5.0
 40
5.0
 40
5.0
 40
6.0
 40
6.0
 40
6.0
 40
7.0
 40
7.0
 40
7.0
 40
8.0
 40
8.0
 40
8.0
 40
9.0
 40
9.0
 40
9.0
 40
10.0
 40
10.0
 40
10.0
 40
11.0
 40
11.0
 40
11.0
 40
12.0
 40
12.0
 40
12.0
 40
13.0
 40
13.0
 40
13.0
 40
14.0
 40
14.0
 40
14.0
 40
15.0
 40
15.0
 40
15.0
 40
16.0
 40
16.0
 40
16.0
 40
17.0
 40
17.0
 40
17.0
 40
18.0
 40
18.0
 40
18.0
 40
19.0
 40
19.0
 40
19.0
 40
19.0
 10
99.79408092123204
 20
-126.0112575639833
 30
0.0
 10
99.69865177629062
 20
-126.0112575639833
 30
0.0
 10
99.48092174162284
 20
-125.9902424815233
 30
0.0
 10
99.35586477550827
 20
-125.8042073253198
 30
0.0
 10
99.28179522257538
 20
-125.6918972125006
 30
0.0
 10
99.27766110799308
 20
-125.5926784625254
 30
0.0
 10
99.27352699341078
 20
-125.5079291135883
 30
0.0
 10
99.27352699341078
 20
-125.5079291135883
 30
0.0
 10
99.49366859491825
 20
-125.5079291135883
 30
0.0
 10
99.49366859491825
 20
-125.5079291135883
 30
0.0
 10
99.4957356522094
 20
-125.5819986665212
 30
0.0
 10
99.50607093866515
 20
-125.8166096690667
 30
0.0
 10
99.78960229710121
 20
-125.8166096690667
 30
0.0
 10
99.92706160696268
 20
-125.8166096690667
 30
0.0
 10
100.0796793369592
 20
-125.7470187402646
 30
0.0
 10
100.0796793369592
 20
-125.5186089095926
 30
0.0
 10
100.0796793369592
 20
-125.4021646821911
 30
0.0
 10
100.041438777073
 20
-125.3535888358491
 30
0.0
 10
100.0097438986087
 20
-125.3218939573848
 30
0.0
 10
99.9356743456758
 20
-125.2478244044519
 30
0.0
 10
99.81923011827436
 20
-125.2350775511565
 30
0.0
 10
99.76445310005889
 20
-125.2350775511565
 30
0.0
 10
99.7451605653415
 20
-125.2350775511565
 30
0.0
 10
99.7093315722949
 20
-125.2371446084477
 30
0.0
 10
99.68177080841289
 20
-125.24127872303
 30
0.0
 10
99.68177080841289
 20
-125.24127872303
 30
0.0
 10
99.68177080841289
 20
-125.0466308281134
 30
0.0
 10
99.68177080841289
 20
-125.0466308281134
 30
0.0
 10
99.72001136829917
 20
-125.0531765095353
 30
0.0
 10
99.76204153321922
 20
-125.0552435668265
 30
0.0
 10
99.76858721464119
 20
-125.0552435668265
 30
0.0
 10
99.83404402886094
 20
-125.0552435668265
 30
0.0
 10
100.0328260383599
 20
-125.0338839748179
 30
0.0
 10
100.0328260383599
 20
-124.7972059149813
 30
0.0
 10
100.0328260383599
 20
-124.6194389879424
 30
0.0
 10
99.90191240992036
 20
-124.5643174601784
 30
0.0
 10
99.79166935439237
 20
-124.5643174601784
 30
0.0
 10
99.5274305306737
 20
-124.5643174601784
 30
0.0
 10
99.51881779196057
 20
-124.7972059149813
 30
0.0
 10
99.51468367737827
 20
-124.8688639010745
 30
0.0
 10
99.51468367737827
 20
-124.8688639010745
 30
0.0
 10
99.31142304374853
 20
-124.8688639010745
 30
0.0
 10
99.31142304374853
 20
-124.8688639010745
 30
0.0
 10
99.32003578246166
 20
-124.7441514445084
 30
0.0
 10
99.34759654634367
 20
-124.3676025079706
 30
0.0
 10
99.8044162076878
 20
-124.3676025079706
 30
0.0
 10
100.0286919237776
 20
-124.3676025079706
 30
0.0
 10
100.269848607745
 20
-124.4947265313763
 30
0.0
 10
100.269848607745
 20
-124.7906602335593
 30
0.0
 10
100.269848607745
 20
-124.9770398993113
 30
0.0
 10
100.1747639723522
 20
-125.0593776814088
 30
0.0
 10
100.0752007128284
 20
-125.1207003810462
 30
0.0
 10
100.1365234124659
 20
-125.1482611449282
 30
0.0
 10
100.3184244540871
 20
-125.2285318697345
 30
0.0
 10
100.3184244540871
 20
-125.5058620562971
 30
0.0
 10
100.3184244540871
 20
-125.8441704329487
 30
0.0
 10
100.0710665982461
 20
-126.0112575639833
 30
0.0
 10
99.79408092123204
 20
-126.0112575639833
 30
0.0
  0
HATCH
  5
10F
330
108
100
AcDbEntity
  8
_U+30EC_U+30A4_U+30E4_U+30FC 1
 62
   179
420
  2234388
100
AcDbHatch
 10
0.0
 20
0.0
 30
0.0
210
0.0
220
0.0
230
1.0
  2
SOLID
 70
     1
 71
     0
 91
        1
 92
        1
 93
        1
 72
     4
 94
        3
 73
     0
 74
     1
 95
       62
 96
       58
 40
0.0
 40
0.0
 40
0.0
 40
0.0
 40
1.0
 40
1.0
 40
1.0
 40
2.0
 40
2.0
 40
2.0
 40
3.0
 40
3.0
 40
3.0
 40
4.0
 40
4.0
 40
4.0
 40
5.0
 40
5.0
 40
5.0
 40
6.0
 40
6.0
 40
6.0
 40
7.0
 40
7.0
 40
7.0
 40
8.0
 40
8.0
 40
8.0
 40
9.0
 40
9.0
 40
9.0
 40
10.0
 40
10.0
 40
10.0
 40
11.0
 40
11.0
 40
11.0
 40
12.0
 40
12.0
 40
12.0
 40
13.0
 40
13.0
 40
13.0
 40
14.0
 40
14.0
 40
14.0
 40
15.0
 40
15.0
 40
15.0
 40
16.0
 40
16.0
 40
16.0
 40
17.0
 40
17.0
 40
17.0
 40
18.0
 40
18.0
 40
18.0
 40
19.0
 40
19.0
 40
19.0
 40
19.0
 10
99.79408092123204
 20
-126.0112575639833
 10
99.69865177629062
 20
-126.0112575639833
 10
99.48092174162284
 20
-125.9902424815233
 10
99.35586477550827
 20
-125.8042073253198
 10
99.28179522257538
 20
-125.6918972125006
 10
99.27766110799308
 20
-125.5926784625254
 10
99.27352699341078
 20
-125.5079291135883
 10
99.27352699341078
 20
-125.5079291135883
 10
99.49366859491825
 20
-125.5079291135883
 10
99.49366859491825
 20
-125.5079291135883
 10
99.4957356522094
 20
-125.5819986665212
 10
99.50607093866515
 20
-125.8166096690667
 10
99.78960229710121
 20
-125.8166096690667
 10
99.92706160696268
 20
-125.8166096690667
 10
100.0796793369592
 20
-125.7470187402646
 10
100.0796793369592
 20
-125.5186089095926
 10
100.0796793369592
 20
-125.4021646821911
 10
100.041438777073
 20
-125.3535888358491
 10
100.0097438986087
 20
-125.3218939573848
 10
99.9356743456758
 20
-125.2478244044519
 10
99.81923011827436
 20
-125.2350775511565
 10
99.76445310005889
 20
-125.2350775511565
 10
99.7451605653415
 20
-125.2350775511565
 10
99.7093315722949
 20
-125.2371446084477
 10
99.68177080841289
 20
-125.24127872303
 10
99.68177080841289
 20
-125.24127872303
 10
99.68177080841289
 20
-125.0466308281134
 10
99.68177080841289
 20
-125.0466308281134
 10
99.72001136829917
 20
-125.0531765095353
 10
99.76204153321922
 20
-125.0552435668265
 10
99.76858721464119
 20
-125.0552435668265
 10
99.83404402886094
 20
-125.0552435668265
 10
100.0328260383599
 20
-125.0338839748179
 10
100.0328260383599
 20
-124.7972059149813
 10
100.0328260383599
 20
-124.6194389879424
 10
99.90191240992036
 20
-124.5643174601784
 10
99.79166935439237
 20
-124.5643174601784
 10
99.5274305306737
 20
-124.5643174601784
 10
99.51881779196057
 20
-124.7972059149813
 10
99.51468367737827
 20
-124.8688639010745
 10
99.51468367737827
 20
-124.8688639010745
 10
99.31142304374853
 20
-124.8688639010745
 10
99.31142304374853
 20
-124.8688639010745
 10
99.32003578246166
 20
-124.7441514445084
 10
99.34759654634367
 20
-124.3676025079706
 10
99.8044162076878
 20
-124.3676025079706
 10
100.0286919237776
 20
-124.3676025079706
 10
100.269848607745
 20
-124.4947265313763
 10
100.269848607745
 20
-124.7906602335593
 10
100.269848607745
 20
-124.9770398993113
 10
100.1747639723522
 20
-125.0593776814088
 10
100.0752007128284
 20
-125.1207003810462
 10
100.1365234124659
 20
-125.1482611449282
 10
100.3184244540871
 20
-125.2285318697345
 10
100.3184244540871
 20
-125.5058620562971
 10
100.3184244540871
 20
-125.8441704329487
 10
100.0710665982461
 20
-126.0112575639833
 10
99.79408092123204
 20
-126.0112575639833
 97
        0
 97
        0
 75
     2
 76
     1
 98
        0
  0
ENDBLK
  5
10B
330
108
100
AcDbEntity
  8
0
100
AcDbBlockEnd
  0
BLOCK
  5
11E
330
11C
100
AcDbEntity
  8
0
100
AcDbBlockBegin
  2
block 8
 70
     0
 10
0.0
 20
0.0
 30
0.0
  3
block 8
  1

  0
SPLINE
  5
120
330
11C
100
AcDbEntity
  8
_U+30EC_U+30A4_U+30E4_U+30FC 1
370
     0
100
AcDbSpline
210
0.0
220
0.0
230
1.0
 70
    11
 71
     3
 72
    26
 73
    22
 74
     0
 42
0.0000000001
 43
0.0000000001
 12
1.0
 22
0.0
 32
0.0
 13
1.0
 23
0.0
 33
0.0
 40
0.0
 40
0.0
 40
0.0
 40
0.0
 40
1.0
 40
1.0
 40
1.0
 40
2.0
 40
2.0
 40
2.0
 40
3.0
 40
3.0
 40
3.0
 40
4.0
 40
4.0
 40
4.0
 40
5.0
 40
5.0
 40
5.0
 40
6.0
 40
6.0
 40
6.0
 40
7.0
 40
7.0
 40
7.0
 40
7.0
 10
96.07682289264747
 20
-121.9605142924265
 30
0.0
 10
96.07682289264747
 20
-121.9605142924265
 30
0.0
 10
96.07682289264747
 20
-120.856361189404
 30
0.0
 10
96.07682289264747
 20
-120.856361189404
 30
0.0
 10
96.07682289264747
 20
-120.856361189404
 30
0.0
 10
95.74678274516053
 20
-120.856361189404
 30
0.0
 10
95.74678274516053
 20
-120.856361189404
 30
0.0
 10
95.74678274516053
 20
-120.856361189404
 30
0.0
 10
95.74678274516053
 20
-120.7082220835382
 30
0.0
 10
95.74678274516053
 20
-120.7082220835382
 30
0.0
 10
96.07888994993861
 20
-120.6934081729516
 30
0.0
 10
96.12539873898949
 20
-120.5304551564993
 30
0.0
 10
96.15502656016264
 20
-120.416077986389
 30
0.0
 10
96.15502656016264
 20
-120.416077986389
 30
0.0
 10
96.30109860873723
 20
-120.416077986389
 30
0.0
 10
96.30109860873723
 20
-120.416077986389
 30
0.0
 10
96.30109860873723
 20
-120.416077986389
 30
0.0
 10
96.30109860873723
 20
-121.9605142924265
 30
0.0
 10
96.30109860873723
 20
-121.9605142924265
 30
0.0
 10
96.30109860873723
 20
-121.9605142924265
 30
0.0
 10
96.07682289264747
 20
-121.9605142924265
 30
0.0
 10
96.07682289264747
 20
-121.9605142924265
 30
0.0
  0
HATCH
  5
121
330
11C
100
AcDbEntity
  8
_U+30EC_U+30A4_U+30E4_U+30FC 1
 62
   179
420
  2234388
100
AcDbHatch
 10
0.0
 20
0.0
 30
0.0
210
0.0
220
0.0
230
1.0
  2
SOLID
 70
     1
 71
     0
 91
        1
 92
        1
 93
        1
 72
     4
 94
        3
 73
     0
 74
     1
 95
       26
 96
       22
 40
0.0
 40
0.0
 40
0.0
 40
0.0
 40
1.0
 40
1.0
 40
1.0
 40
2.0
 40
2.0
 40
2.0
 40
3.0
 40
3.0
 40
3.0
 40
4.0
 40
4.0
 40
4.0
 40
5.0
 40
5.0
 40
5.0
 40
6.0
 40
6.0
 40
6.0
 40
7.0
 40
7.0
 40
7.0
 40
7.0
 10
96.07682289264747
 20
-121.9605142924265
 10
96.07682289264747
 20
-121.9605142924265
 10
96.07682289264747
 20
-120.856361189404
 10
96.07682289264747
 20
-120.856361189404
 10
96.07682289264747
 20
-120.856361189404
 10
95.74678274516053
 20
-120.856361189404
 10
95.74678274516053
 20
-120.856361189404
 10
95.74678274516053
 20
-120.856361189404
 10
95.74678274516053
 20
-120.7082220835382
 10
95.74678274516053
 20
-120.7082220835382
 10
96.07888994993861
 20
-120.6934081729516
 10
96.12539873898949
 20
-120.5304551564993
 10
96.15502656016264
 20
-120.416077986389
 10
96.15502656016264
 20
-120.416077986389
 10
96.30109860873723
 20
-120.416077986389
 10
96.30109860873723
 20
-120.416077986389
 10
96.30109860873723
 20
-120.416077986389
 10
96.30109860873723
 20
-121.9605142924265
 10
96.30109860873723
 20
-121.9605142924265
 10
96.30109860873723
 20
-121.9605142924265
 10
96.07682289264747
 20
-121.9605142924265
 10
96.07682289264747
 20
-121.9605142924265
 97
        0
 97
        0
 75
     2
 76
     1
 98
        0
  0
SPLINE
  5
122
330
11C
100
AcDbEntity
  8
_U+30EC_U+30A4_U+30E4_U+30FC 1
370
     0
100
AcDbSpline
210
0.0
220
0.0
230
1.0
 70
    11
 71
     3
 72
    29
 73
    25
 74
     0
 42
0.0000000001
 43
0.0000000001
 12
1.0
 22
0.0
 32
0.0
 13
1.0
 23
0.0
 33
0.0
 40
0.0
 40
0.0
 40
0.0
 40
0.0
 40
1.0
 40
1.0
 40
1.0
 40
2.0
 40
2.0
 40
2.0
 40
3.0
 40
3.0
 40
3.0
 40
4.0
 40
4.0
 40
4.0
 40
5.0
 40
5.0
 40
5.0
 40
6.0
 40
6.0
 40
6.0
 40
7.0
 40
7.0
 40
7.0
 40
8.0
 40
8.0
 40
8.0
 40
8.0
 10
97.30224335675084
 20
-122.0111571960597
 30
0.0
 10
97.0355929661925
 20
-122.0111571960597
 30
0.0
 10
96.78203393847811
 20
-121.8736978861982
 30
0.0
 10
96.78203393847811
 20
-121.5247097135424
 30
0.0
 10
96.78203393847811
 20
-121.2687391189884
 30
0.0
 10
96.92362736292188
 20
-121.1736544835955
 30
0.0
 10
97.02939179431904
 20
-121.112331783958
 30
0.0
 10
96.904679337753
 20
-121.0530761416117
 30
0.0
 10
96.82854272752898
 20
-120.9386989715014
 30
0.0
 10
96.82854272752898
 20
-120.7778130123403
 30
0.0
 10
96.82854272752898
 20
-120.5028943926173
 30
0.0
 10
97.0273247370279
 20
-120.367502140047
 30
0.0
 10
97.30224335675084
 20
-120.367502140047
 30
0.0
 10
97.5857747151869
 20
-120.367502140047
 30
0.0
 10
97.77628849552121
 20
-120.5115071313305
 30
0.0
 10
97.77628849552121
 20
-120.7778130123403
 30
0.0
 10
97.77628849552121
 20
-120.9386989715014
 30
0.0
 10
97.69774031845752
 20
-121.0530761416117
 30
0.0
 10
97.57302786189148
 20
-121.112331783958
 30
0.0
 10
97.66191132541091
 20
-121.1629746875912
 30
0.0
 10
97.82073022728093
 20
-121.2580593229841
 30
0.0
 10
97.82073022728093
 20
-121.5205755989601
 30
0.0
 10
97.82073022728093
 20
-121.8950574782068
 30
0.0
 10
97.54133298342717
 20
-122.0111571960597
 30
0.0
 10
97.30224335675084
 20
-122.0111571960597
 30
0.0
  0
SPLINE
  5
123
330
11C
100
AcDbEntity
  8
_U+30EC_U+30A4_U+30E4_U+30FC 1
370
     0
100
AcDbSpline
210
0.0
220
0.0
230
1.0
 70
    11
 71
     3
 72
    17
 73
    13
 74
     0
 42
0.0000000001
 43
0.0000000001
 12
1.0
 22
0.0
 32
0.0
 13
1.0
 23
0.0
 33
0.0
 40
0.0
 40
0.0
 40
0.0
 40
0.0
 40
1.0
 40
1.0
 40
1.0
 40
2.0
 40
2.0
 40
2.0
 40
3.0
 40
3.0
 40
3.0
 40
4.0
 40
4.0
 40
4.0
 40
4.0
 10
97.30224335675084
 20
-121.2201632726464
 30
0.0
 10
97.15858287501591
 20
-121.2201632726464
 30
0.0
 10
97.00596514501935
 20
-121.3069796788747
 30
0.0
 10
97.00596514501935
 20
-121.5098958029559
 30
0.0
 10
97.00596514501935
 20
-121.7152234938767
 30
0.0
 10
97.13308916842506
 20
-121.8165093011431
 30
0.0
 10
97.30224335675084
 20
-121.8165093011431
 30
0.0
 10
97.48827851295432
 20
-121.8165093011431
 30
0.0
 10
97.59852156848231
 20
-121.6938639018682
 30
0.0
 10
97.59852156848231
 20
-121.5160969748293
 30
0.0
 10
97.59852156848231
 20
-121.2942328255792
 30
0.0
 10
97.43556855203
 20
-121.2201632726464
 30
0.0
 10
97.30224335675084
 20
-121.2201632726464
 30
0.0
  0
SPLINE
  5
124
330
11C
100
AcDbEntity
  8
_U+30EC_U+30A4_U+30E4_U+30FC 1
370
     0
100
AcDbSpline
210
0.0
220
0.0
230
1.0
 70
    11
 71
     3
 72
    17
 73
    13
 74
     0
 42
0.0000000001
 43
0.0000000001
 12
1.0
 22
0.0
 32
0.0
 13
1.0
 23
0.0
 33
0.0
 40
0.0
 40
0.0
 40
0.0
 40
0.0
 40
1.0
 40
1.0
 40
1.0
 40
2.0
 40
2.0
 40
2.0
 40
3.0
 40
3.0
 40
3.0
 40
4.0
 40
4.0
 40
4.0
 40
4.0
 10
97.30224335675084
 20
-120.5600829776725
 30
0.0
 10
97.13722328300736
 20
-120.5600829776725
 30
0.0
 10
97.05281844361875
 20
-120.6551676130654
 30
0.0
 10
97.05281844361875
 20
-120.7905598656357
 30
0.0
 10
97.05281844361875
 20
-120.9132052649106
 30
0.0
 10
97.12447642971195
 20
-121.0317165496032
 30
0.0
 10
97.30224335675084
 20
-121.0317165496032
 30
0.0
 10
97.48001028378972
 20
-121.0317165496032
 30
0.0
 10
97.55201277943145
 20
-120.9132052649106
 30
0.0
 10
97.55201277943145
 20
-120.7905598656357
 30
0.0
 10
97.55201277943145
 20
-120.6551676130654
 30
0.0
 10
97.46519637320316
 20
-120.5600829776725
 30
0.0
 10
97.30224335675084
 20
-120.5600829776725
 30
0.0
  0
HATCH
  5
125
330
11C
100
AcDbEntity
  8
_U+30EC_U+30A4_U+30E4_U+30FC 1
 62
   179
420
  2234388
100
AcDbHatch
 10
0.0
 20
0.0
 30
0.0
210
0.0
220
0.0
230
1.0
  2
SOLID
 70
     1
 71
     0
 91
        3
 92
        1
 93
        1
 72
     4
 94
        3
 73
     0
 74
     1
 95
       29
 96
       25
 40
0.0
 40
0.0
 40
0.0
 40
0.0
 40
1.0
 40
1.0
 40
1.0
 40
2.0
 40
2.0
 40
2.0
 40
3.0
 40
3.0
 40
3.0
 40
4.0
 40
4.0
 40
4.0
 40
5.0
 40
5.0
 40
5.0
 40
6.0
 40
6.0
 40
6.0
 40
7.0
 40
7.0
 40
7.0
 40
8.0
 40
8.0
 40
8.0
 40
8.0
 10
97.30224335675084
 20
-122.0111571960597
 10
97.0355929661925
 20
-122.0111571960597
 10
96.78203393847811
 20
-121.8736978861982
 10
96.78203393847811
 20
-121.5247097135424
 10
96.78203393847811
 20
-121.2687391189884
 10
96.92362736292188
 20
-121.1736544835955
 10
97.02939179431904
 20
-121.112331783958
 10
96.904679337753
 20
-121.0530761416117
 10
96.82854272752898
 20
-120.9386989715014
 10
96.82854272752898
 20
-120.7778130123403
 10
96.82854272752898
 20
-120.5028943926173
 10
97.0273247370279
 20
-120.367502140047
 10
97.30224335675084
 20
-120.367502140047
 10
97.5857747151869
 20
-120.367502140047
 10
97.77628849552121
 20
-120.5115071313305
 10
97.77628849552121
 20
-120.7778130123403
 10
97.77628849552121
 20
-120.9386989715014
 10
97.69774031845752
 20
-121.0530761416117
 10
97.57302786189148
 20
-121.112331783958
 10
97.66191132541091
 20
-121.1629746875912
 10
97.82073022728093
 20
-121.2580593229841
 10
97.82073022728093
 20
-121.5205755989601
 10
97.82073022728093
 20
-121.8950574782068
 10
97.54133298342717
 20
-122.0111571960597
 10
97.30224335675084
 20
-122.0111571960597
 97
        0
 97
        0
 92
        1
 93
        1
 72
     4
 94
        3
 73
     0
 74
     1
 95
       17
 96
       13
 40
0.0
 40
0.0
 40
0.0
 40
0.0
 40
1.0
 40
1.0
 40
1.0
 40
2.0
 40
2.0
 40
2.0
 40
3.0
 40
3.0
 40
3.0
 40
4.0
 40
4.0
 40
4.0
 40
4.0
 10
97.30224335675084
 20
-121.2201632726464
 10
97.15858287501591
 20
-121.2201632726464
 10
97.00596514501935
 20
-121.3069796788747
 10
97.00596514501935
 20
-121.5098958029559
 10
97.00596514501935
 20
-121.7152234938767
 10
97.13308916842506
 20
-121.8165093011431
 10
97.30224335675084
 20
-121.8165093011431
 10
97.48827851295432
 20
-121.8165093011431
 10
97.59852156848231
 20
-121.6938639018682
 10
97.59852156848231
 20
-121.5160969748293
 10
97.59852156848231
 20
-121.2942328255792
 10
97.43556855203
 20
-121.2201632726464
 10
97.30224335675084
 20
-121.2201632726464
 97
        0
 97
        0
 92
        1
 93
        1
 72
     4
 94
        3
 73
     0
 74
     1
 95
       17
 96
       13
 40
0.0
 40
0.0
 40
0.0
 40
0.0
 40
1.0
 40
1.0
 40
1.0
 40
2.0
 40
2.0
 40
2.0
 40
3.0
 40
3.0
 40
3.0
 40
4.0
 40
4.0
 40
4.0
 40
4.0
 10
97.30224335675084
 20
-120.5600829776725
 10
97.13722328300736
 20
-120.5600829776725
 10
97.05281844361875
 20
-120.6551676130654
 10
97.05281844361875
 20
-120.7905598656357
 10
97.05281844361875
 20
-120.9132052649106
 10
97.12447642971195
 20
-121.0317165496032
 10
97.30224335675084
 20
-121.0317165496032
 10
97.48001028378972
 20
-121.0317165496032
 10
97.55201277943145
 20
-120.9132052649106
 10
97.55201277943145
 20
-120.7905598656357
 10
97.55201277943145
 20
-120.6551676130654
 10
97.46519637320316
 20
-120.5600829776725
 10
97.30224335675084
 20
-120.5600829776725
 97
        0
 97
        0
 75
     2
 76
     1
 98
        0
  0
ENDBLK
  5
11F
330
11C
100
AcDbEntity
  8
0
100
AcDbBlockEnd
  0
ENDSEC
  0
SECTION
  2
ENTITIES
  0
POLYLINE
  5
41
330
1F
100
AcDbEntity
  8
_U+30EC_U+30A4_U+30E4_U+30FC 1
 62
     7
420
 16711422
370
    18
100
AcDb2dPolyline
 66
     1
 10
0.0
 20
0.0
 30
0.0
  0
VERTEX
  5
42
330
41
100
AcDbEntity
  8
_U+30EC_U+30A4_U+30E4_U+30FC 1
 62
     7
420
 16711422
370
    18
100
AcDbVertex
100
AcDb2dVertex
 10
201.8643429055671
 20
-282.8916179848324
 30
0.0
  0
VERTEX
  5
43
330
41
100
AcDbEntity
  8
_U+30EC_U+30A4_U+30E4_U+30FC 1
 62
     7
420
 16711422
370
    18
100
AcDbVertex
100
AcDb2dVertex
 10
-20.13553249496627
 20
-282.8916179848324
 30
0.0
  0
VERTEX
  5
44
330
41
100
AcDbEntity
  8
_U+30EC_U+30A4_U+30E4_U+30FC 1
 62
     7
420
 16711422
370
    18
100
AcDbVertex
100
AcDb2dVertex
 10
-20.13553249496627
 20
26.10830721569526
 30
0.0
  0
VERTEX
  5
45
330
41
100
AcDbEntity
  8
_U+30EC_U+30A4_U+30E4_U+30FC 1
 62
     7
420
 16711422
370
    18
100
AcDbVertex
100
AcDb2dVertex
 10
201.8643429055671
 20
26.10830721569526
 30
0.0
  0
VERTEX
  5
46
330
41
100
AcDbEntity
  8
_U+30EC_U+30A4_U+30E4_U+30FC 1
 62
     7
420
 16711422
370
    18
100
AcDbVertex
100
AcDb2dVertex
 10
201.8643429055671
 20
-282.8916179848324
 30
0.0
  0
SEQEND
  5
47
330
41
100
AcDbEntity
  8
_U+30EC_U+30A4_U+30E4_U+30FC 1
 62
     7
420
 16711422
370
    18
  0
POLYLINE
  5
48
330
1F
100
AcDbEntity
  8
_U+30EC_U+30A4_U+30E4_U+30FC 1
 62
     7
420
 16711422
370
    18
100
AcDb2dPolyline
 66
     1
 10
0.0
 20
0.0
 30
0.0
  0
VERTEX
  5
49
330
48
100
AcDbEntity
  8
_U+30EC_U+30A4_U+30E4_U+30FC 1
 62
     7
420
 16711422
370
    18
100
AcDbVertex
100
AcDb2dVertex
 10
201.8643429055671
 20
-282.8916179848324
 30
0.0
  0
VERTEX
  5
4A
330
48
100
AcDbEntity
  8
_U+30EC_U+30A4_U+30E4_U+30FC 1
 62
     7
420
 16711422
370
    18
100
AcDbVertex
100
AcDb2dVertex
 10
-20.13553249496627
 20
-282.8916179848324
 30
0.0
  0
VERTEX
  5
4B
330
48
100
AcDbEntity
  8
_U+30EC_U+30A4_U+30E4_U+30FC 1
 62
     7
420
 16711422
370
    18
100
AcDbVertex
100
AcDb2dVertex
 10
-20.13553249496627
 20
26.10830721569526
 30
0.0
  0
VERTEX
  5
4C
330
48
100
AcDbEntity
  8
_U+30EC_U+30A4_U+30E4_U+30FC 1
 62
     7
420
 16711422
370
    18
100
AcDbVertex
100
AcDb2dVertex
 10
201.8643429055671
 20
26.10830721569526
 30
0.0
  0
VERTEX
  5
4D
330
48
100
AcDbEntity
  8
_U+30EC_U+30A4_U+30E4_U+30FC 1
 62
     7
420
 16711422
370
    18
100
AcDbVertex
100
AcDb2dVertex
 10
201.8643429055671
 20
-282.8916179848324
 30
0.0
  0
SEQEND
  5
4E
330
48
100
AcDbEntity
  8
_U+30EC_U+30A4_U+30E4_U+30FC 1
 62
     7
420
 16711422
370
    18
  0
SPLINE
  5
4F
330
1F
100
AcDbEntity
  8
_U+30EC_U+30A4_U+30E4_U+30FC 1
370
     0
100
AcDbSpline
210
0.0
220
0.0
230
1.0
 70
    11
 71
     3
 72
    41
 73
    37
 74
     0
 42
0.0000000001
 43
0.0000000001
 12
1.0
 22
0.0
 32
0.0
 13
1.0
 23
0.0
 33
0.0
 40
0.0
 40
0.0
 40
0.0
 40
0.0
 40
1.0
 40
1.0
 40
1.0
 40
2.0
 40
2.0
 40
2.0
 40
3.0
 40
3.0
 40
3.0
 40
4.0
 40
4.0
 40
4.0
 40
5.0
 40
5.0
 40
5.0
 40
6.0
 40
6.0
 40
6.0
 40
7.0
 40
7.0
 40
7.0
 40
8.0
 40
8.0
 40
8.0
 40
9.0
 40
9.0
 40
9.0
 40
10.0
 40
10.0
 40
10.0
 40
11.0
 40
11.0
 40
11.0
 40
12.0
 40
12.0
 40
12.0
 40
12.0
 10
105.7899416402193
 20
-138.2568566321025
 30
0.0
 10
105.7899416402193
 20
-137.8148613544354
 30
0.0
 10
105.547051473937
 20
-137.4086730212034
 30
0.0
 10
105.1577638625991
 20
-137.1995463545888
 30
0.0
 10
105.1577638625991
 20
-137.1995463545888
 30
0.0
 10
94.1196623210296
 20
-131.2708688560714
 30
0.0
 10
94.1196623210296
 20
-131.2708688560714
 30
0.0
 10
93.24667845441238
 20
-130.8023446895216
 30
0.0
 10
92.27135375707276
 20
-130.5567055229165
 30
0.0
 10
91.28054442162417
 20
-130.5567055229165
 30
0.0
 10
91.28054442162417
 20
-130.5567055229165
 30
0.0
 10
87.78998248251318
 20
-130.5567055229165
 30
0.0
 10
87.78998248251318
 20
-130.5567055229165
 30
0.0
 10
87.78998248251318
 20
-130.5567055229165
 30
0.0
 10
87.78998248251318
 20
-131.7566438559494
 30
0.0
 10
87.78998248251318
 20
-131.7566438559494
 30
0.0
 10
87.78998248251318
 20
-131.7566438559494
 30
0.0
 10
91.28054442162417
 20
-131.7566438559494
 30
0.0
 10
91.28054442162417
 20
-131.7566438559494
 30
0.0
 10
92.0732690399041
 20
-131.7566438559494
 30
0.0
 10
92.85358053234228
 20
-131.9529999670121
 30
0.0
 10
93.55190177995881
 20
-132.3281791335844
 30
0.0
 10
93.55190177995881
 20
-132.3281791335844
 30
0.0
 10
104.5900006650201
 20
-138.2568566321025
 30
0.0
 10
104.5900006650201
 20
-138.2568566321025
 30
0.0
 10
104.5900006650201
 20
-138.2568566321025
 30
0.0
 10
67.79016410386217
 20
-138.2568566321025
 30
0.0
 10
67.79016410386217
 20
-138.2568566321025
 30
0.0
 10
67.79016410386217
 20
-138.2568566321025
 30
0.0
 10
67.79016410386217
 20
-139.4567596873579
 30
0.0
 10
67.79016410386217
 20
-139.4567596873579
 30
0.0
 10
67.79016410386217
 20
-139.4567596873579
 30
0.0
 10
104.5900006650201
 20
-139.4567596873579
 30
0.0
 10
104.5900006650201
 20
-139.4567596873579
 30
0.0
 10
105.2528348147765
 20
-139.4567596873579
 30
0.0
 10
105.7899416402193
 20
-138.9196907986033
 30
0.0
 10
105.7899416402193
 20
-138.2568566321025
 30
0.0
  0
POLYLINE
  5
50
330
1F
100
AcDbEntity
  8
_U+30EC_U+30A4_U+30E4_U+30FC 1
 62
   179
420
  2234388
370
    25
100
AcDb2dPolyline
 66
     1
 10
0.0
 20
0.0
 30
0.0
  0
VERTEX
  5
51
330
50
100
AcDbEntity
  8
_U+30EC_U+30A4_U+30E4_U+30FC 1
 62
   179
420
  2234388
370
    25
100
AcDbVertex
100
AcDb2dVertex
 10
67.79016410386217
 20
-139.4567596873579
 30
0.0
  0
VERTEX
  5
52
330
50
100
AcDbEntity
  8
_U+30EC_U+30A4_U+30E4_U+30FC 1
 62
   179
420
  2234388
370
    25
100
AcDbVertex
100
AcDb2dVertex
 10
104.5900006650201
 20
-139.4567596873579
 30
0.0
  0
SEQEND
  5
53
330
50
100
AcDbEntity
  8
_U+30EC_U+30A4_U+30E4_U+30FC 1
 62
   179
420
  2234388
370
    25
  0
POLYLINE
  5
54
330
1F
100
AcDbEntity
  8
_U+30EC_U+30A4_U+30E4_U+30FC 1
 62
   179
420
  2234388
370
    25
100
AcDb2dPolyline
 66
     1
 10
0.0
 20
0.0
 30
0.0
  0
VERTEX
  5
55
330
54
100
AcDbEntity
  8
_U+30EC_U+30A4_U+30E4_U+30FC 1
 62
   179
420
  2234388
370
    25
100
AcDbVertex
100
AcDb2dVertex
 10
67.79016410386217
 20
-138.2568566321025
 30
0.0
  0
VERTEX
  5
56
330
54
100
AcDbEntity
  8
_U+30EC_U+30A4_U+30E4_U+30FC 1
 62
   179
420
  2234388
370
    25
100
AcDbVertex
100
AcDb2dVertex
 10
67.79016410386217
 20
-139.4567596873579
 30
0.0
  0
SEQEND
  5
57
330
54
100
AcDbEntity
  8
_U+30EC_U+30A4_U+30E4_U+30FC 1
 62
   179
420
  2234388
370
    25
  0
POLYLINE
  5
58
330
1F
100
AcDbEntity
  8
_U+30EC_U+30A4_U+30E4_U+30FC 1
 62
   179
420
  2234388
370
    25
100
AcDb2dPolyline
 66
     1
 10
0.0
 20
0.0
 30
0.0
  0
VERTEX
  5
59
330
58
100
AcDbEntity
  8
_U+30EC_U+30A4_U+30E4_U+30FC 1
 62
   179
420
  2234388
370
    25
100
AcDbVertex
100
AcDb2dVertex
 10
87.78998248251318
 20
-130.5567055229165
 30
0.0
  0
VERTEX
  5
5A
330
58
100
AcDbEntity
  8
_U+30EC_U+30A4_U+30E4_U+30FC 1
 62
   179
420
  2234388
370
    25
100
AcDbVertex
100
AcDb2dVertex
 10
91.28054442162417
 20
-130.5567055229165
 30
0.0
  0
SEQEND
  5
5B
330
58
100
AcDbEntity
  8
_U+30EC_U+30A4_U+30E4_U+30FC 1
 62
   179
420
  2234388
370
    25
  0
POLYLINE
  5
5C
330
1F
100
AcDbEntity
  8
_U+30EC_U+30A4_U+30E4_U+30FC 1
 62
   179
420
  2234388
370
    25
100
AcDb2dPolyline
 66
     1
 10
0.0
 20
0.0
 30
0.0
  0
VERTEX
  5
5D
330
5C
100
AcDbEntity
  8
_U+30EC_U+30A4_U+30E4_U+30FC 1
 62
   179
420
  2234388
370
    25
100
AcDbVertex
100
AcDb2dVertex
 10
87.78998248251318
 20
-130.5567055229165
 30
0.0
  0
VERTEX
  5
5E
330
5C
100
AcDbEntity
  8
_U+30EC_U+30A4_U+30E4_U+30FC 1
 62
   179
420
  2234388
370
    25
100
AcDbVertex
100
AcDb2dVertex
 10
87.78998248251318
 20
-131.7566438559494
 30
0.0
  0
SEQEND
  5
5F
330
5C
100
AcDbEntity
  8
_U+30EC_U+30A4_U+30E4_U+30FC 1
 62
   179
420
  2234388
370
    25
  0
POLYLINE
  5
60
330
1F
100
AcDbEntity
  8
_U+30EC_U+30A4_U+30E4_U+30FC 1
 62
   179
420
  2234388
370
    25
100
AcDb2dPolyline
 66
     1
 10
0.0
 20
0.0
 30
0.0
  0
VERTEX
  5
61
330
60
100
AcDbEntity
  8
_U+30EC_U+30A4_U+30E4_U+30FC 1
 62
   179
420
  2234388
370
    25
100
AcDbVertex
100
AcDb2dVertex
 10
94.1196623210296
 20
-131.2708688560714
 30
0.0
  0
VERTEX
  5
62
330
60
100
AcDbEntity
  8
_U+30EC_U+30A4_U+30E4_U+30FC 1
 62
   179
420
  2234388
370
    25
100
AcDbVertex
100
AcDb2dVertex
 10
105.1577638625991
 20
-137.1995463545888
 30
0.0
  0
SEQEND
  5
63
330
60
100
AcDbEntity
  8
_U+30EC_U+30A4_U+30E4_U+30FC 1
 62
   179
420
  2234388
370
    25
  0
POLYLINE
  5
64
330
1F
100
AcDbEntity
  8
_U+30EC_U+30A4_U+30E4_U+30FC 1
 62
   179
420
  2234388
370
    25
100
AcDb2dPolyline
 66
     1
 10
0.0
 20
0.0
 30
0.0
  0
VERTEX
  5
65
330
64
100
AcDbEntity
  8
_U+30EC_U+30A4_U+30E4_U+30FC 1
 62
   179
420
  2234388
370
    25
100
AcDbVertex
100
AcDb2dVertex
 10
87.78998248251318
 20
-131.7566438559494
 30
0.0
  0
VERTEX
  5
66
330
64
100
AcDbEntity
  8
_U+30EC_U+30A4_U+30E4_U+30FC 1
 62
   179
420
  2234388
370
    25
100
AcDbVertex
100
AcDb2dVertex
 10
91.28054442162417
 20
-131.7566438559494
 30
0.0
  0
SEQEND
  5
67
330
64
100
AcDbEntity
  8
_U+30EC_U+30A4_U+30E4_U+30FC 1
 62
   179
420
  2234388
370
    25
  0
POLYLINE
  5
68
330
1F
100
AcDbEntity
  8
_U+30EC_U+30A4_U+30E4_U+30FC 1
 62
   179
420
  2234388
370
    25
100
AcDb2dPolyline
 66
     1
 10
0.0
 20
0.0
 30
0.0
  0
VERTEX
  5
69
330
68
100
AcDbEntity
  8
_U+30EC_U+30A4_U+30E4_U+30FC 1
 62
   179
420
  2234388
370
    25
100
AcDbVertex
100
AcDb2dVertex
 10
93.55190177995881
 20
-132.3281791335844
 30
0.0
  0
VERTEX
  5
6A
330
68
100
AcDbEntity
  8
_U+30EC_U+30A4_U+30E4_U+30FC 1
 62
   179
420
  2234388
370
    25
100
AcDbVertex
100
AcDb2dVertex
 10
104.5900006650201
 20
-138.2568566321025
 30
0.0
  0
SEQEND
  5
6B
330
68
100
AcDbEntity
  8
_U+30EC_U+30A4_U+30E4_U+30FC 1
 62
   179
420
  2234388
370
    25
  0
POLYLINE
  5
6C
330
1F
100
AcDbEntity
  8
_U+30EC_U+30A4_U+30E4_U+30FC 1
 62
   179
420
  2234388
370
    25
100
AcDb2dPolyline
 66
     1
 10
0.0
 20
0.0
 30
0.0
  0
VERTEX
  5
6D
330
6C
100
AcDbEntity
  8
_U+30EC_U+30A4_U+30E4_U+30FC 1
 62
   179
420
  2234388
370
    25
100
AcDbVertex
100
AcDb2dVertex
 10
67.79016410386217
 20
-138.2568566321025
 30
0.0
  0
VERTEX
  5
6E
330
6C
100
AcDbEntity
  8
_U+30EC_U+30A4_U+30E4_U+30FC 1
 62
   179
420
  2234388
370
    25
100
AcDbVertex
100
AcDb2dVertex
 10
104.5900006650201
 20
-138.2568566321025
 30
0.0
  0
SEQEND
  5
6F
330
6C
100
AcDbEntity
  8
_U+30EC_U+30A4_U+30E4_U+30FC 1
 62
   179
420
  2234388
370
    25
  0
SPLINE
  5
70
330
1F
100
AcDbEntity
  8
_U+30EC_U+30A4_U+30E4_U+30FC 1
 62
   179
420
  2234388
370
    25
100
AcDbSpline
210
0.0
220
0.0
230
1.0
 70
     8
 71
     3
 72
    11
 73
     7
 74
     0
 42
0.0000000001
 43
0.0000000001
 12
1.0
 22
0.0
 32
0.0
 13
1.0
 23
0.0
 33
0.0
 40
0.0
 40
0.0
 40
0.0
 40
0.0
 40
1.0
 40
1.0
 40
1.0
 40
2.0
 40
2.0
 40
2.0
 40
2.0
 10
104.5900006650201
 20
-139.4567596873579
 30
0.0
 10
105.2528348147765
 20
-139.4567596873579
 30
0.0
 10
105.7899416402193
 20
-138.9196907986033
 30
0.0
 10
105.7899416402193
 20
-138.2568566321025
 30
0.0
 10
105.7899416402193
 20
-137.8148613544354
 30
0.0
 10
105.547051473937
 20
-137.4086730212034
 30
0.0
 10
105.1577638625991
 20
-137.1995463545888
 30
0.0
  0
SPLINE
  5
71
330
1F
100
AcDbEntity
  8
_U+30EC_U+30A4_U+30E4_U+30FC 1
 62
   179
420
  2234388
370
    25
100
AcDbSpline
210
0.0
220
0.0
230
1.0
 70
     8
 71
     3
 72
     8
 73
     4
 74
     0
 42
0.0000000001
 43
0.0000000001
 12
1.0
 22
0.0
 32
0.0
 13
1.0
 23
0.0
 33
0.0
 40
0.0
 40
0.0
 40
0.0
 40
0.0
 40
1.0
 40
1.0
 40
1.0
 40
1.0
 10
94.1196623210296
 20
-131.2708688560714
 30
0.0
 10
93.24667845441238
 20
-130.8023446895216
 30
0.0
 10
92.27135375707276
 20
-130.5567055229165
 30
0.0
 10
91.28054442162417
 20
-130.5567055229165
 30
0.0
  0
SPLINE
  5
72
330
1F
100
AcDbEntity
  8
_U+30EC_U+30A4_U+30E4_U+30FC 1
 62
   179
420
  2234388
370
    25
100
AcDbSpline
210
0.0
220
0.0
230
1.0
 70
     8
 71
     3
 72
     8
 73
     4
 74
     0
 42
0.0000000001
 43
0.0000000001
 12
1.0
 22
0.0
 32
0.0
 13
1.0
 23
0.0
 33
0.0
 40
0.0
 40
0.0
 40
0.0
 40
0.0
 40
1.0
 40
1.0
 40
1.0
 40
1.0
 10
93.55190177995881
 20
-132.3281791335844
 30
0.0
 10
92.85358053234228
 20
-131.9529999670121
 30
0.0
 10
92.0732690399041
 20
-131.7566438559494
 30
0.0
 10
91.28054442162417
 20
-131.7566438559494
 30
0.0
  0
SPLINE
  5
73
330
1F
100
AcDbEntity
  8
_U+30EC_U+30A4_U+30E4_U+30FC 1
 62
   179
420
  2234388
370
     9
100
AcDbSpline
210
0.0
220
0.0
230
1.0
 70
    11
 71
     3
 72
    17
 73
    13
 74
     0
 42
0.0000000001
 43
0.0000000001
 12
1.0
 22
0.0
 32
0.0
 13
1.0
 23
0.0
 33
0.0
 40
0.0
 40
0.0
 40
0.0
 40
0.0
 40
1.0
 40
1.0
 40
1.0
 40
2.0
 40
2.0
 40
2.0
 40
3.0
 40
3.0
 40
3.0
 40
4.0
 40
4.0
 40
4.0
 40
4.0
 10
63.88999420336378
 20
-138.2568566321025
 30
0.0
 10
63.88999420336378
 20
-138.2017174654494
 30
0.0
 10
63.84519142672902
 20
-138.1569499654609
 30
0.0
 10
63.79008753924595
 20
-138.1569499654609
 30
0.0
 10
63.73459720628856
 20
-138.1569499654609
 30
0.0
 10
63.68982809735934
 20
-138.2017174654494
 30
0.0
 10
63.68982809735934
 20
-138.2568566321025
 30
0.0
 10
63.68982809735934
 20
-138.3119605209774
 30
0.0
 10
63.73459720628856
 20
-138.3567632987441
 30
0.0
 10
63.79008753924595
 20
-138.3567632987441
 30
0.0
 10
63.84519142672902
 20
-138.3567632987441
 30
0.0
 10
63.88999420336378
 20
-138.3119605209774
 30
0.0
 10
63.88999420336378
 20
-138.2568566321025
 30
0.0
  0
SPLINE
  5
74
330
1F
100
AcDbEntity
  8
_U+30EC_U+30A4_U+30E4_U+30FC 1
 62
   179
420
  2234388
370
     9
100
AcDbSpline
210
0.0
220
0.0
230
1.0
 70
    11
 71
     3
 72
    17
 73
    13
 74
     0
 42
0.0000000001
 43
0.0000000001
 12
1.0
 22
0.0
 32
0.0
 13
1.0
 23
0.0
 33
0.0
 40
0.0
 40
0.0
 40
0.0
 40
0.0
 40
1.0
 40
1.0
 40
1.0
 40
2.0
 40
2.0
 40
2.0
 40
3.0
 40
3.0
 40
3.0
 40
4.0
 40
4.0
 40
4.0
 40
4.0
 10
63.88999420336378
 20
-139.4567596873579
 30
0.0
 10
63.88999420336378
 20
-139.4013030207052
 30
0.0
 10
63.84519142672902
 20
-139.3568530207162
 30
0.0
 10
63.79008753924595
 20
-139.3568530207162
 30
0.0
 10
63.73459720628856
 20
-139.3568530207162
 30
0.0
 10
63.68982809735934
 20
-139.4013030207052
 30
0.0
 10
63.68982809735934
 20
-139.4567596873579
 30
0.0
 10
63.68982809735934
 20
-139.511898854011
 30
0.0
 10
63.73459720628856
 20
-139.5567016317777
 30
0.0
 10
63.79008753924595
 20
-139.5567016317777
 30
0.0
 10
63.84519142672902
 20
-139.5567016317777
 30
0.0
 10
63.88999420336378
 20
-139.511898854011
 30
0.0
 10
63.88999420336378
 20
-139.4567596873579
 30
0.0
  0
SPLINE
  5
75
330
1F
100
AcDbEntity
  8
_U+30EC_U+30A4_U+30E4_U+30FC 1
 62
   179
420
  2234388
370
     9
100
AcDbSpline
210
0.0
220
0.0
230
1.0
 70
    11
 71
     3
 72
    17
 73
    13
 74
     0
 42
0.0000000001
 43
0.0000000001
 12
1.0
 22
0.0
 32
0.0
 13
1.0
 23
0.0
 33
0.0
 40
0.0
 40
0.0
 40
0.0
 40
0.0
 40
1.0
 40
1.0
 40
1.0
 40
2.0
 40
2.0
 40
2.0
 40
3.0
 40
3.0
 40
3.0
 40
4.0
 40
4.0
 40
4.0
 40
4.0
 10
67.89007076797999
 20
-143.4568716308025
 30
0.0
 10
67.89007076797999
 20
-143.4014149641499
 30
0.0
 10
67.84530326912211
 20
-143.3566121863831
 30
0.0
 10
67.79016410386217
 20
-143.3566121863831
 30
0.0
 10
67.73470743861031
 20
-143.3566121863831
 30
0.0
 10
67.68994164974433
 20
-143.4014149641499
 30
0.0
 10
67.68994164974433
 20
-143.4568716308025
 30
0.0
 10
67.68994164974433
 20
-143.5120107974556
 30
0.0
 10
67.73470743861031
 20
-143.5567782974442
 30
0.0
 10
67.79016410386217
 20
-143.5567782974442
 30
0.0
 10
67.84530326912211
 20
-143.5567782974442
 30
0.0
 10
67.89007076797999
 20
-143.5120107974556
 30
0.0
 10
67.89007076797999
 20
-143.4568716308025
 30
0.0
  0
SPLINE
  5
76
330
1F
100
AcDbEntity
  8
_U+30EC_U+30A4_U+30E4_U+30FC 1
 62
   179
420
  2234388
370
     9
100
AcDbSpline
210
0.0
220
0.0
230
1.0
 70
    11
 71
     3
 72
    17
 73
    13
 74
     0
 42
0.0000000001
 43
0.0000000001
 12
1.0
 22
0.0
 32
0.0
 13
1.0
 23
0.0
 33
0.0
 40
0.0
 40
0.0
 40
0.0
 40
0.0
 40
1.0
 40
1.0
 40
1.0
 40
2.0
 40
2.0
 40
2.0
 40
3.0
 40
3.0
 40
3.0
 40
4.0
 40
4.0
 40
4.0
 40
4.0
 10
105.8901631318502
 20
-143.4568716308025
 30
0.0
 10
105.8901631318502
 20
-143.4014149641499
 30
0.0
 10
105.8453956329923
 20
-143.3566121863831
 30
0.0
 10
105.7899416402193
 20
-143.3566121863831
 30
0.0
 10
105.7347998024805
 20
-143.3566121863831
 30
0.0
 10
105.6900323036226
 20
-143.4014149641499
 30
0.0
 10
105.6900323036226
 20
-143.4568716308025
 30
0.0
 10
105.6900323036226
 20
-143.5120107974556
 30
0.0
 10
105.7347998024805
 20
-143.5567782974442
 30
0.0
 10
105.7899416402193
 20
-143.5567782974442
 30
0.0
 10
105.8453956329923
 20
-143.5567782974442
 30
0.0
 10
105.8901631318502
 20
-143.5120107974556
 30
0.0
 10
105.8901631318502
 20
-143.4568716308025
 30
0.0
  0
SPLINE
  5
77
330
1F
100
AcDbEntity
  8
_U+30EC_U+30A4_U+30E4_U+30FC 1
 62
   179
420
  2234388
370
     9
100
AcDbSpline
210
0.0
220
0.0
230
1.0
 70
    11
 71
     3
 72
    17
 73
    13
 74
     0
 42
0.0000000001
 43
0.0000000001
 12
1.0
 22
0.0
 32
0.0
 13
1.0
 23
0.0
 33
0.0
 40
0.0
 40
0.0
 40
0.0
 40
0.0
 40
1.0
 40
1.0
 40
1.0
 40
2.0
 40
2.0
 40
2.0
 40
3.0
 40
3.0
 40
3.0
 40
4.0
 40
4.0
 40
4.0
 40
4.0
 10
109.8899249725275
 20
-139.4567596873579
 30
0.0
 10
109.8899249725275
 20
-139.4013030207052
 30
0.0
 10
109.8451546976166
 20
-139.3568530207162
 30
0.0
 10
109.7900155323567
 20
-139.3568530207162
 30
0.0
 10
109.7349116448736
 20
-139.3568530207162
 30
0.0
 10
109.6901088682389
 20
-139.4013030207052
 30
0.0
 10
109.6901088682389
 20
-139.4567596873579
 30
0.0
 10
109.6901088682389
 20
-139.511898854011
 30
0.0
 10
109.7349116448736
 20
-139.5567016317777
 30
0.0
 10
109.7900155323567
 20
-139.5567016317777
 30
0.0
 10
109.8451546976166
 20
-139.5567016317777
 30
0.0
 10
109.8899249725275
 20
-139.511898854011
 30
0.0
 10
109.8899249725275
 20
-139.4567596873579
 30
0.0
  0
SPLINE
  5
78
330
1F
100
AcDbEntity
  8
_U+30EC_U+30A4_U+30E4_U+30FC 1
 62
   179
420
  2234388
370
     9
100
AcDbSpline
210
0.0
220
0.0
230
1.0
 70
    11
 71
     3
 72
    17
 73
    13
 74
     0
 42
0.0000000001
 43
0.0000000001
 12
1.0
 22
0.0
 32
0.0
 13
1.0
 23
0.0
 33
0.0
 40
0.0
 40
0.0
 40
0.0
 40
0.0
 40
1.0
 40
1.0
 40
1.0
 40
2.0
 40
2.0
 40
2.0
 40
3.0
 40
3.0
 40
3.0
 40
4.0
 40
4.0
 40
4.0
 40
4.0
 10
109.8899249725275
 20
-130.5567055229165
 30
0.0
 10
109.8899249725275
 20
-130.5016016340416
 30
0.0
 10
109.8451546976166
 20
-130.4567988562749
 30
0.0
 10
109.7900155323567
 20
-130.4567988562749
 30
0.0
 10
109.7349116448736
 20
-130.4567988562749
 30
0.0
 10
109.6901088682389
 20
-130.5016016340416
 30
0.0
 10
109.6901088682389
 20
-130.5567055229165
 30
0.0
 10
109.6901088682389
 20
-130.6121974673467
 30
0.0
 10
109.7349116448736
 20
-130.6569649673359
 30
0.0
 10
109.7900155323567
 20
-130.6569649673359
 30
0.0
 10
109.8451546976166
 20
-130.6569649673359
 30
0.0
 10
109.8899249725275
 20
-130.6121974673467
 30
0.0
 10
109.8899249725275
 20
-130.5567055229165
 30
0.0
  0
SPLINE
  5
79
330
1F
100
AcDbEntity
  8
_U+30EC_U+30A4_U+30E4_U+30FC 1
 62
   179
420
  2234388
370
     9
100
AcDbSpline
210
0.0
220
0.0
230
1.0
 70
    11
 71
     3
 72
    17
 73
    13
 74
     0
 42
0.0000000001
 43
0.0000000001
 12
1.0
 22
0.0
 32
0.0
 13
1.0
 23
0.0
 33
0.0
 40
0.0
 40
0.0
 40
0.0
 40
0.0
 40
1.0
 40
1.0
 40
1.0
 40
2.0
 40
2.0
 40
2.0
 40
3.0
 40
3.0
 40
3.0
 40
4.0
 40
4.0
 40
4.0
 40
4.0
 10
83.8898125820148
 20
-131.7566438559494
 30
0.0
 10
83.8898125820148
 20
-131.701504689297
 30
0.0
 10
83.84500980538003
 20
-131.6567371893078
 30
0.0
 10
83.78987064012009
 20
-131.6567371893078
 30
0.0
 10
83.73476675263701
 20
-131.6567371893078
 30
0.0
 10
83.68996397600225
 20
-131.701504689297
 30
0.0
 10
83.68996397600225
 20
-131.7566438559494
 30
0.0
 10
83.68996397600225
 20
-131.811747744825
 30
0.0
 10
83.73476675263701
 20
-131.8565505225917
 30
0.0
 10
83.78987064012009
 20
-131.8565505225917
 30
0.0
 10
83.84500980538003
 20
-131.8565505225917
 30
0.0
 10
83.8898125820148
 20
-131.811747744825
 30
0.0
 10
83.8898125820148
 20
-131.7566438559494
 30
0.0
  0
SPLINE
  5
7A
330
1F
100
AcDbEntity
  8
_U+30EC_U+30A4_U+30E4_U+30FC 1
 62
   179
420
  2234388
370
     9
100
AcDbSpline
210
0.0
220
0.0
230
1.0
 70
    11
 71
     3
 72
    17
 73
    13
 74
     0
 42
0.0000000001
 43
0.0000000001
 12
1.0
 22
0.0
 32
0.0
 13
1.0
 23
0.0
 33
0.0
 40
0.0
 40
0.0
 40
0.0
 40
0.0
 40
1.0
 40
1.0
 40
1.0
 40
2.0
 40
2.0
 40
2.0
 40
3.0
 40
3.0
 40
3.0
 40
4.0
 40
4.0
 40
4.0
 40
4.0
 10
83.8898125820148
 20
-138.2568566321025
 30
0.0
 10
83.8898125820148
 20
-138.2017174654494
 30
0.0
 10
83.84500980538003
 20
-138.1569499654609
 30
0.0
 10
83.78987064012009
 20
-138.1569499654609
 30
0.0
 10
83.73476675263701
 20
-138.1569499654609
 30
0.0
 10
83.68996397600225
 20
-138.2017174654494
 30
0.0
 10
83.68996397600225
 20
-138.2568566321025
 30
0.0
 10
83.68996397600225
 20
-138.3119605209774
 30
0.0
 10
83.73476675263701
 20
-138.3567632987441
 30
0.0
 10
83.78987064012009
 20
-138.3567632987441
 30
0.0
 10
83.84500980538003
 20
-138.3567632987441
 30
0.0
 10
83.8898125820148
 20
-138.3119605209774
 30
0.0
 10
83.8898125820148
 20
-138.2568566321025
 30
0.0
  0
SPLINE
  5
7B
330
1F
100
AcDbEntity
  8
_U+30EC_U+30A4_U+30E4_U+30FC 1
 62
   179
420
  2234388
370
     9
100
AcDbSpline
210
0.0
220
0.0
230
1.0
 70
    11
 71
     3
 72
    17
 73
    13
 74
     0
 42
0.0000000001
 43
0.0000000001
 12
1.0
 22
0.0
 32
0.0
 13
1.0
 23
0.0
 33
0.0
 40
0.0
 40
0.0
 40
0.0
 40
0.0
 40
1.0
 40
1.0
 40
1.0
 40
2.0
 40
2.0
 40
2.0
 40
3.0
 40
3.0
 40
3.0
 40
4.0
 40
4.0
 40
4.0
 40
4.0
 10
87.889889146631
 20
-122.5568696915831
 30
0.0
 10
87.889889146631
 20
-122.5017305249301
 30
0.0
 10
87.84512164777313
 20
-122.4569630249412
 30
0.0
 10
87.78998248251318
 20
-122.4569630249412
 30
0.0
 10
87.73487859503011
 20
-122.4569630249412
 30
0.0
 10
87.69007581839534
 20
-122.5017305249301
 30
0.0
 10
87.69007581839534
 20
-122.5568696915831
 30
0.0
 10
87.69007581839534
 20
-122.6119735804581
 30
0.0
 10
87.73487859503011
 20
-122.6567763582248
 30
0.0
 10
87.78998248251318
 20
-122.6567763582248
 30
0.0
 10
87.84512164777313
 20
-122.6567763582248
 30
0.0
 10
87.889889146631
 20
-122.6119735804581
 30
0.0
 10
87.889889146631
 20
-122.5568696915831
 30
0.0
  0
SPLINE
  5
7C
330
1F
100
AcDbEntity
  8
_U+30EC_U+30A4_U+30E4_U+30FC 1
 62
   179
420
  2234388
370
     9
100
AcDbSpline
210
0.0
220
0.0
230
1.0
 70
    11
 71
     3
 72
    17
 73
    13
 74
     0
 42
0.0000000001
 43
0.0000000001
 12
1.0
 22
0.0
 32
0.0
 13
1.0
 23
0.0
 33
0.0
 40
0.0
 40
0.0
 40
0.0
 40
0.0
 40
1.0
 40
1.0
 40
1.0
 40
2.0
 40
2.0
 40
2.0
 40
3.0
 40
3.0
 40
3.0
 40
4.0
 40
4.0
 40
4.0
 40
4.0
 10
87.889889146631
 20
-126.5566288572497
 30
0.0
 10
87.889889146631
 20
-126.5014896905969
 30
0.0
 10
87.84512164777313
 20
-126.4567221906081
 30
0.0
 10
87.78998248251318
 20
-126.4567221906081
 30
0.0
 10
87.73487859503011
 20
-126.4567221906081
 30
0.0
 10
87.69007581839534
 20
-126.5014896905969
 30
0.0
 10
87.69007581839534
 20
-126.5566288572497
 30
0.0
 10
87.69007581839534
 20
-126.6120855239027
 30
0.0
 10
87.73487859503011
 20
-126.6568530238913
 30
0.0
 10
87.78998248251318
 20
-126.6568530238913
 30
0.0
 10
87.84512164777313
 20
-126.6568530238913
 30
0.0
 10
87.889889146631
 20
-126.6120855239027
 30
0.0
 10
87.889889146631
 20
-126.5566288572497
 30
0.0
  0
SPLINE
  5
7D
330
1F
100
AcDbEntity
  8
_U+30EC_U+30A4_U+30E4_U+30FC 1
 62
   179
420
  2234388
370
     9
100
AcDbSpline
210
0.0
220
0.0
230
1.0
 70
    11
 71
     3
 72
    17
 73
    13
 74
     0
 42
0.0000000001
 43
0.0000000001
 12
1.0
 22
0.0
 32
0.0
 13
1.0
 23
0.0
 33
0.0
 40
0.0
 40
0.0
 40
0.0
 40
0.0
 40
1.0
 40
1.0
 40
1.0
 40
2.0
 40
2.0
 40
2.0
 40
3.0
 40
3.0
 40
3.0
 40
4.0
 40
4.0
 40
4.0
 40
4.0
 10
92.8900906857319
 20
-126.5566288572497
 30
0.0
 10
92.8900906857319
 20
-126.5014896905969
 30
0.0
 10
92.84532318687403
 20
-126.4567221906081
 30
0.0
 10
92.78986652162217
 20
-126.4567221906081
 30
0.0
 10
92.73472735636223
 20
-126.4567221906081
 30
0.0
 10
92.68995985750433
 20
-126.5014896905969
 30
0.0
 10
92.68995985750433
 20
-126.5566288572497
 30
0.0
 10
92.68995985750433
 20
-126.6120855239027
 30
0.0
 10
92.73472735636223
 20
-126.6568530238913
 30
0.0
 10
92.78986652162217
 20
-126.6568530238913
 30
0.0
 10
92.84532318687403
 20
-126.6568530238913
 30
0.0
 10
92.8900906857319
 20
-126.6120855239027
 30
0.0
 10
92.8900906857319
 20
-126.5566288572497
 30
0.0
  0
SPLINE
  5
7E
330
1F
100
AcDbEntity
  8
_U+30EC_U+30A4_U+30E4_U+30FC 1
 62
   179
420
  2234388
370
     9
100
AcDbSpline
210
0.0
220
0.0
230
1.0
 70
    11
 71
     3
 72
    17
 73
    13
 74
     0
 42
0.0000000001
 43
0.0000000001
 12
1.0
 22
0.0
 32
0.0
 13
1.0
 23
0.0
 33
0.0
 40
0.0
 40
0.0
 40
0.0
 40
0.0
 40
1.0
 40
1.0
 40
1.0
 40
2.0
 40
2.0
 40
2.0
 40
3.0
 40
3.0
 40
3.0
 40
4.0
 40
4.0
 40
4.0
 40
4.0
 10
105.8901631318502
 20
-126.5566288572497
 30
0.0
 10
105.8901631318502
 20
-126.5014896905969
 30
0.0
 10
105.8453956329923
 20
-126.4567221906081
 30
0.0
 10
105.7899416402193
 20
-126.4567221906081
 30
0.0
 10
105.7347998024805
 20
-126.4567221906081
 30
0.0
 10
105.6900323036226
 20
-126.5014896905969
 30
0.0
 10
105.6900323036226
 20
-126.5566288572497
 30
0.0
 10
105.6900323036226
 20
-126.6120855239027
 30
0.0
 10
105.7347998024805
 20
-126.6568530238913
 30
0.0
 10
105.7899416402193
 20
-126.6568530238913
 30
0.0
 10
105.8453956329923
 20
-126.6568530238913
 30
0.0
 10
105.8901631318502
 20
-126.6120855239027
 30
0.0
 10
105.8901631318502
 20
-126.5566288572497
 30
0.0
  0
SPLINE
  5
7F
330
1F
100
AcDbEntity
  8
_U+30EC_U+30A4_U+30E4_U+30FC 1
 62
   179
420
  2234388
370
     9
100
AcDbSpline
210
0.0
220
0.0
230
1.0
 70
    11
 71
     3
 72
    17
 73
    13
 74
     0
 42
0.0000000001
 43
0.0000000001
 12
1.0
 22
0.0
 32
0.0
 13
1.0
 23
0.0
 33
0.0
 40
0.0
 40
0.0
 40
0.0
 40
0.0
 40
1.0
 40
1.0
 40
1.0
 40
2.0
 40
2.0
 40
2.0
 40
3.0
 40
3.0
 40
3.0
 40
4.0
 40
4.0
 40
4.0
 40
4.0
 10
105.8901631318502
 20
-122.5568696915831
 30
0.0
 10
105.8901631318502
 20
-122.5017305249301
 30
0.0
 10
105.8453956329923
 20
-122.4569630249412
 30
0.0
 10
105.7899416402193
 20
-122.4569630249412
 30
0.0
 10
105.7347998024805
 20
-122.4569630249412
 30
0.0
 10
105.6900323036226
 20
-122.5017305249301
 30
0.0
 10
105.6900323036226
 20
-122.5568696915831
 30
0.0
 10
105.6900323036226
 20
-122.6119735804581
 30
0.0
 10
105.7347998024805
 20
-122.6567763582248
 30
0.0
 10
105.7899416402193
 20
-122.6567763582248
 30
0.0
 10
105.8453956329923
 20
-122.6567763582248
 30
0.0
 10
105.8901631318502
 20
-122.6119735804581
 30
0.0
 10
105.8901631318502
 20
-122.5568696915831
 30
0.0
  0
POLYLINE
  5
80
330
1F
100
AcDbEntity
  8
_U+30EC_U+30A4_U+30E4_U+30FC 1
 62
   179
420
  2234388
370
     9
100
AcDb2dPolyline
 66
     1
 10
0.0
 20
0.0
 30
0.0
  0
VERTEX
  5
81
330
80
100
AcDbEntity
  8
_U+30EC_U+30A4_U+30E4_U+30FC 1
 62
   179
420
  2234388
370
     9
100
AcDbVertex
100
AcDb2dVertex
 10
63.79008753924595
 20
-138.2568566321025
 30
0.0
  0
VERTEX
  5
82
330
80
100
AcDbEntity
  8
_U+30EC_U+30A4_U+30E4_U+30FC 1
 62
   179
420
  2234388
370
     9
100
AcDbVertex
100
AcDb2dVertex
 10
63.79008753924595
 20
-132.9989508000836
 30
0.0
  0
SEQEND
  5
83
330
80
100
AcDbEntity
  8
_U+30EC_U+30A4_U+30E4_U+30FC 1
 62
   179
420
  2234388
370
     9
  0
POLYLINE
  5
84
330
1F
100
AcDbEntity
  8
_U+30EC_U+30A4_U+30E4_U+30FC 1
 62
   179
420
  2234388
370
     9
100
AcDb2dPolyline
 66
     1
 10
0.0
 20
0.0
 30
0.0
  0
VERTEX
  5
85
330
84
100
AcDbEntity
  8
_U+30EC_U+30A4_U+30E4_U+30FC 1
 62
   179
420
  2234388
370
     9
100
AcDbVertex
100
AcDb2dVertex
 10
63.79008753924595
 20
-138.2568566321025
 30
0.0
  0
VERTEX
  5
86
330
84
100
AcDbEntity
  8
_U+30EC_U+30A4_U+30E4_U+30FC 1
 62
   179
420
  2234388
370
     9
100
AcDbVertex
100
AcDb2dVertex
 10
63.79008753924595
 20
-140.4568846871082
 30
0.0
  0
SEQEND
  5
87
330
84
100
AcDbEntity
  8
_U+30EC_U+30A4_U+30E4_U+30FC 1
 62
   179
420
  2234388
370
     9
  0
POLYLINE
  5
88
330
1F
100
AcDbEntity
  8
_U+30EC_U+30A4_U+30E4_U+30FC 1
 62
   179
420
  2234388
370
     9
100
AcDb2dPolyline
 66
     1
 10
0.0
 20
0.0
 30
0.0
  0
VERTEX
  5
89
330
88
100
AcDbEntity
  8
_U+30EC_U+30A4_U+30E4_U+30FC 1
 62
   179
420
  2234388
370
     9
100
AcDbVertex
100
AcDb2dVertex
 10
65.24977776146535
 20
-138.2568566321025
 30
0.0
  0
VERTEX
  5
8A
330
88
100
AcDbEntity
  8
_U+30EC_U+30A4_U+30E4_U+30FC 1
 62
   179
420
  2234388
370
     9
100
AcDbVertex
100
AcDb2dVertex
 10
62.78996256476127
 20
-138.2568566321025
 30
0.0
  0
SEQEND
  5
8B
330
88
100
AcDbEntity
  8
_U+30EC_U+30A4_U+30E4_U+30FC 1
 62
   179
420
  2234388
370
     9
  0
POLYLINE
  5
8C
330
1F
100
AcDbEntity
  8
_U+30EC_U+30A4_U+30E4_U+30FC 1
 62
   179
420
  2234388
370
     9
100
AcDb2dPolyline
 66
     1
 10
0.0
 20
0.0
 30
0.0
  0
VERTEX
  5
8D
330
8C
100
AcDbEntity
  8
_U+30EC_U+30A4_U+30E4_U+30FC 1
 62
   179
420
  2234388
370
     9
100
AcDbVertex
100
AcDb2dVertex
 10
65.24977776146535
 20
-139.4567596873579
 30
0.0
  0
VERTEX
  5
8E
330
8C
100
AcDbEntity
  8
_U+30EC_U+30A4_U+30E4_U+30FC 1
 62
   179
420
  2234388
370
     9
100
AcDbVertex
100
AcDb2dVertex
 10
62.78996256476127
 20
-139.4567596873579
 30
0.0
  0
SEQEND
  5
8F
330
8C
100
AcDbEntity
  8
_U+30EC_U+30A4_U+30E4_U+30FC 1
 62
   179
420
  2234388
370
     9
  0
INSERT
  5
91
330
1F
100
AcDbEntity
  8
_U+30EC_U+30A4_U+30E4_U+30FC 1
100
AcDbBlockReference
  2
block 2
 10
0.0
 20
0.0
 30
0.0
  0
POLYLINE
  5
A0
330
1F
100
AcDbEntity
  8
_U+30EC_U+30A4_U+30E4_U+30FC 1
 62
   179
420
  2234388
370
     9
100
AcDb2dPolyline
 66
     1
 10
0.0
 20
0.0
 30
0.0
  0
VERTEX
  5
A1
330
A0
100
AcDbEntity
  8
_U+30EC_U+30A4_U+30E4_U+30FC 1
 62
   179
420
  2234388
370
     9
100
AcDbVertex
100
AcDb2dVertex
 10
83.78987064012009
 20
-138.2568566321025
 30
0.0
  0
VERTEX
  5
A2
330
A0
100
AcDbEntity
  8
_U+30EC_U+30A4_U+30E4_U+30FC 1
 62
   179
420
  2234388
370
     9
100
AcDbVertex
100
AcDb2dVertex
 10
83.78987064012009
 20
-131.7566438559494
 30
0.0
  0
SEQEND
  5
A3
330
A0
100
AcDbEntity
  8
_U+30EC_U+30A4_U+30E4_U+30FC 1
 62
   179
420
  2234388
370
     9
  0
POLYLINE
  5
A4
330
1F
100
AcDbEntity
  8
_U+30EC_U+30A4_U+30E4_U+30FC 1
 62
   179
420
  2234388
370
     9
100
AcDb2dPolyline
 66
     1
 10
0.0
 20
0.0
 30
0.0
  0
VERTEX
  5
A5
330
A4
100
AcDbEntity
  8
_U+30EC_U+30A4_U+30E4_U+30FC 1
 62
   179
420
  2234388
370
     9
100
AcDbVertex
100
AcDb2dVertex
 10
85.24991199176021
 20
-131.7566438559494
 30
0.0
  0
VERTEX
  5
A6
330
A4
100
AcDbEntity
  8
_U+30EC_U+30A4_U+30E4_U+30FC 1
 62
   179
420
  2234388
370
     9
100
AcDbVertex
100
AcDb2dVertex
 10
82.79013372118105
 20
-131.7566438559494
 30
0.0
  0
SEQEND
  5
A7
330
A4
100
AcDbEntity
  8
_U+30EC_U+30A4_U+30E4_U+30FC 1
 62
   179
420
  2234388
370
     9
  0
INSERT
  5
A9
330
1F
100
AcDbEntity
  8
_U+30EC_U+30A4_U+30E4_U+30FC 1
100
AcDbBlockReference
  2
block 3
 10
0.0
 20
0.0
 30
0.0
  0
POLYLINE
  5
B9
330
1F
100
AcDbEntity
  8
_U+30EC_U+30A4_U+30E4_U+30FC 1
 62
   179
420
  2234388
370
     9
100
AcDb2dPolyline
 66
     1
 10
0.0
 20
0.0
 30
0.0
  0
VERTEX
  5
BA
330
B9
100
AcDbEntity
  8
_U+30EC_U+30A4_U+30E4_U+30FC 1
 62
   179
420
  2234388
370
     9
100
AcDbVertex
100
AcDb2dVertex
 10
109.7900155323567
 20
-139.4567596873579
 30
0.0
  0
VERTEX
  5
BB
330
B9
100
AcDbEntity
  8
_U+30EC_U+30A4_U+30E4_U+30FC 1
 62
   179
420
  2234388
370
     9
100
AcDbVertex
100
AcDb2dVertex
 10
109.7900155323567
 20
-130.5567055229165
 30
0.0
  0
SEQEND
  5
BC
330
B9
100
AcDbEntity
  8
_U+30EC_U+30A4_U+30E4_U+30FC 1
 62
   179
420
  2234388
370
     9
  0
POLYLINE
  5
BD
330
1F
100
AcDbEntity
  8
_U+30EC_U+30A4_U+30E4_U+30FC 1
 62
   179
420
  2234388
370
     9
100
AcDb2dPolyline
 66
     1
 10
0.0
 20
0.0
 30
0.0
  0
VERTEX
  5
BE
330
BD
100
AcDbEntity
  8
_U+30EC_U+30A4_U+30E4_U+30FC 1
 62
   179
420
  2234388
370
     9
100
AcDbVertex
100
AcDb2dVertex
 10
107.1300711557731
 20
-139.4567596873579
 30
0.0
  0
VERTEX
  5
BF
330
BD
100
AcDbEntity
  8
_U+30EC_U+30A4_U+30E4_U+30FC 1
 62
   179
420
  2234388
370
     9
100
AcDbVertex
100
AcDb2dVertex
 10
110.7901405068414
 20
-139.4567596873579
 30
0.0
  0
SEQEND
  5
C0
330
BD
100
AcDbEntity
  8
_U+30EC_U+30A4_U+30E4_U+30FC 1
 62
   179
420
  2234388
370
     9
  0
POLYLINE
  5
C1
330
1F
100
AcDbEntity
  8
_U+30EC_U+30A4_U+30E4_U+30FC 1
 62
   179
420
  2234388
370
     9
100
AcDb2dPolyline
 66
     1
 10
0.0
 20
0.0
 30
0.0
  0
VERTEX
  5
C2
330
C1
100
AcDbEntity
  8
_U+30EC_U+30A4_U+30E4_U+30FC 1
 62
   179
420
  2234388
370
     9
100
AcDbVertex
100
AcDb2dVertex
 10
93.82061260643677
 20
-130.5567055229165
 30
0.0
  0
VERTEX
  5
C3
330
C1
100
AcDbEntity
  8
_U+30EC_U+30A4_U+30E4_U+30FC 1
 62
   179
420
  2234388
370
     9
100
AcDbVertex
100
AcDb2dVertex
 10
110.7901405068414
 20
-130.5567055229165
 30
0.0
  0
SEQEND
  5
C4
330
C1
100
AcDbEntity
  8
_U+30EC_U+30A4_U+30E4_U+30FC 1
 62
   179
420
  2234388
370
     9
  0
INSERT
  5
C6
330
1F
100
AcDbEntity
  8
_U+30EC_U+30A4_U+30E4_U+30FC 1
100
AcDbBlockReference
  2
block 4
 10
0.0
 20
0.0
 30
0.0
  0
POLYLINE
  5
D8
330
1F
100
AcDbEntity
  8
_U+30EC_U+30A4_U+30E4_U+30FC 1
 62
   179
420
  2234388
370
     9
100
AcDb2dPolyline
 66
     1
 10
0.0
 20
0.0
 30
0.0
  0
VERTEX
  5
D9
330
D8
100
AcDbEntity
  8
_U+30EC_U+30A4_U+30E4_U+30FC 1
 62
   179
420
  2234388
370
     9
100
AcDbVertex
100
AcDb2dVertex
 10
67.79016410386217
 20
-143.4568716308025
 30
0.0
  0
VERTEX
  5
DA
330
D8
100
AcDbEntity
  8
_U+30EC_U+30A4_U+30E4_U+30FC 1
 62
   179
420
  2234388
370
     9
100
AcDbVertex
100
AcDb2dVertex
 10
105.7899416402193
 20
-143.4568716308025
 30
0.0
  0
SEQEND
  5
DB
330
D8
100
AcDbEntity
  8
_U+30EC_U+30A4_U+30E4_U+30FC 1
 62
   179
420
  2234388
370
     9
  0
POLYLINE
  5
DC
330
1F
100
AcDbEntity
  8
_U+30EC_U+30A4_U+30E4_U+30FC 1
 62
   179
420
  2234388
370
     9
100
AcDb2dPolyline
 66
     1
 10
0.0
 20
0.0
 30
0.0
  0
VERTEX
  5
DD
330
DC
100
AcDbEntity
  8
_U+30EC_U+30A4_U+30E4_U+30FC 1
 62
   179
420
  2234388
370
     9
100
AcDbVertex
100
AcDb2dVertex
 10
67.79016410386217
 20
-141.9968302422788
 30
0.0
  0
VERTEX
  5
DE
330
DC
100
AcDbEntity
  8
_U+30EC_U+30A4_U+30E4_U+30FC 1
 62
   179
420
  2234388
370
     9
100
AcDbVertex
100
AcDb2dVertex
 10
67.79016410386217
 20
-144.4566438527744
 30
0.0
  0
SEQEND
  5
DF
330
DC
100
AcDbEntity
  8
_U+30EC_U+30A4_U+30E4_U+30FC 1
 62
   179
420
  2234388
370
     9
  0
POLYLINE
  5
E0
330
1F
100
AcDbEntity
  8
_U+30EC_U+30A4_U+30E4_U+30FC 1
 62
   179
420
  2234388
370
     9
100
AcDb2dPolyline
 66
     1
 10
0.0
 20
0.0
 30
0.0
  0
VERTEX
  5
E1
330
E0
100
AcDbEntity
  8
_U+30EC_U+30A4_U+30E4_U+30FC 1
 62
   179
420
  2234388
370
     9
100
AcDbVertex
100
AcDb2dVertex
 10
105.7899416402193
 20
-140.7969271870228
 30
0.0
  0
VERTEX
  5
E2
330
E0
100
AcDbEntity
  8
_U+30EC_U+30A4_U+30E4_U+30FC 1
 62
   179
420
  2234388
370
     9
100
AcDbVertex
100
AcDb2dVertex
 10
105.7899416402193
 20
-144.4566438527744
 30
0.0
  0
SEQEND
  5
E3
330
E0
100
AcDbEntity
  8
_U+30EC_U+30A4_U+30E4_U+30FC 1
 62
   179
420
  2234388
370
     9
  0
INSERT
  5
E5
330
1F
100
AcDbEntity
  8
_U+30EC_U+30A4_U+30E4_U+30FC 1
100
AcDbBlockReference
  2
block 5
 10
0.0
 20
0.0
 30
0.0
  0
POLYLINE
  5
EE
330
1F
100
AcDbEntity
  8
_U+30EC_U+30A4_U+30E4_U+30FC 1
 62
   179
420
  2234388
370
     9
100
AcDb2dPolyline
 66
     1
 10
0.0
 20
0.0
 30
0.0
  0
VERTEX
  5
EF
330
EE
100
AcDbEntity
  8
_U+30EC_U+30A4_U+30E4_U+30FC 1
 62
   179
420
  2234388
370
     9
100
AcDbVertex
100
AcDb2dVertex
 10
87.78998248251318
 20
-126.5566288572497
 30
0.0
  0
VERTEX
  5
F0
330
EE
100
AcDbEntity
  8
_U+30EC_U+30A4_U+30E4_U+30FC 1
 62
   179
420
  2234388
370
     9
100
AcDbVertex
100
AcDb2dVertex
 10
92.78986652162217
 20
-126.5566288572497
 30
0.0
  0
SEQEND
  5
F1
330
EE
100
AcDbEntity
  8
_U+30EC_U+30A4_U+30E4_U+30FC 1
 62
   179
420
  2234388
370
     9
  0
POLYLINE
  5
F2
330
1F
100
AcDbEntity
  8
_U+30EC_U+30A4_U+30E4_U+30FC 1
 62
   179
420
  2234388
370
     9
100
AcDb2dPolyline
 66
     1
 10
0.0
 20
0.0
 30
0.0
  0
VERTEX
  5
F3
330
F2
100
AcDbEntity
  8
_U+30EC_U+30A4_U+30E4_U+30FC 1
 62
   179
420
  2234388
370
     9
100
AcDbVertex
100
AcDb2dVertex
 10
87.78998248251318
 20
-128.0166349679959
 30
0.0
  0
VERTEX
  5
F4
330
F2
100
AcDbEntity
  8
_U+30EC_U+30A4_U+30E4_U+30FC 1
 62
   179
420
  2234388
370
     9
100
AcDbVertex
100
AcDb2dVertex
 10
87.78998248251318
 20
-125.5568566352775
 30
0.0
  0
SEQEND
  5
F5
330
F2
100
AcDbEntity
  8
_U+30EC_U+30A4_U+30E4_U+30FC 1
 62
   179
420
  2234388
370
     9
  0
POLYLINE
  5
F6
330
1F
100
AcDbEntity
  8
_U+30EC_U+30A4_U+30E4_U+30FC 1
 62
   179
420
  2234388
370
     9
100
AcDb2dPolyline
 66
     1
 10
0.0
 20
0.0
 30
0.0
  0
VERTEX
  5
F7
330
F6
100
AcDbEntity
  8
_U+30EC_U+30A4_U+30E4_U+30FC 1
 62
   179
420
  2234388
370
     9
100
AcDbVertex
100
AcDb2dVertex
 10
92.78986652162217
 20
-128.0166349679959
 30
0.0
  0
VERTEX
  5
F8
330
F6
100
AcDbEntity
  8
_U+30EC_U+30A4_U+30E4_U+30FC 1
 62
   179
420
  2234388
370
     9
100
AcDbVertex
100
AcDb2dVertex
 10
92.78986652162217
 20
-125.5568566352775
 30
0.0
  0
SEQEND
  5
F9
330
F6
100
AcDbEntity
  8
_U+30EC_U+30A4_U+30E4_U+30FC 1
 62
   179
420
  2234388
370
     9
  0
INSERT
  5
FB
330
1F
100
AcDbEntity
  8
_U+30EC_U+30A4_U+30E4_U+30FC 1
100
AcDbBlockReference
  2
block 6
 10
0.0
 20
0.0
 30
0.0
  0
POLYLINE
  5
100
330
1F
100
AcDbEntity
  8
_U+30EC_U+30A4_U+30E4_U+30FC 1
 62
   179
420
  2234388
370
     9
100
AcDb2dPolyline
 66
     1
 10
0.0
 20
0.0
 30
0.0
  0
VERTEX
  5
101
330
100
100
AcDbEntity
  8
_U+30EC_U+30A4_U+30E4_U+30FC 1
 62
   179
420
  2234388
370
     9
100
AcDbVertex
100
AcDb2dVertex
 10
92.78986652162217
 20
-126.5566288572497
 30
0.0
  0
VERTEX
  5
102
330
100
100
AcDbEntity
  8
_U+30EC_U+30A4_U+30E4_U+30FC 1
 62
   179
420
  2234388
370
     9
100
AcDbVertex
100
AcDb2dVertex
 10
105.7899416402193
 20
-126.5566288572497
 30
0.0
  0
SEQEND
  5
103
330
100
100
AcDbEntity
  8
_U+30EC_U+30A4_U+30E4_U+30FC 1
 62
   179
420
  2234388
370
     9
  0
POLYLINE
  5
104
330
1F
100
AcDbEntity
  8
_U+30EC_U+30A4_U+30E4_U+30FC 1
 62
   179
420
  2234388
370
     9
100
AcDb2dPolyline
 66
     1
 10
0.0
 20
0.0
 30
0.0
  0
VERTEX
  5
105
330
104
100
AcDbEntity
  8
_U+30EC_U+30A4_U+30E4_U+30FC 1
 62
   179
420
  2234388
370
     9
100
AcDbVertex
100
AcDb2dVertex
 10
105.7899416402193
 20
-135.7167860771822
 30
0.0
  0
VERTEX
  5
106
330
104
100
AcDbEntity
  8
_U+30EC_U+30A4_U+30E4_U+30FC 1
 62
   179
420
  2234388
370
     9
100
AcDbVertex
100
AcDb2dVertex
 10
105.7899416402193
 20
-125.5568566352775
 30
0.0
  0
SEQEND
  5
107
330
104
100
AcDbEntity
  8
_U+30EC_U+30A4_U+30E4_U+30FC 1
 62
   179
420
  2234388
370
     9
  0
INSERT
  5
109
330
1F
100
AcDbEntity
  8
_U+30EC_U+30A4_U+30E4_U+30FC 1
100
AcDbBlockReference
  2
block 7
 10
0.0
 20
0.0
 30
0.0
  0
POLYLINE
  5
110
330
1F
100
AcDbEntity
  8
_U+30EC_U+30A4_U+30E4_U+30FC 1
 62
   179
420
  2234388
370
     9
100
AcDb2dPolyline
 66
     1
 10
0.0
 20
0.0
 30
0.0
  0
VERTEX
  5
111
330
110
100
AcDbEntity
  8
_U+30EC_U+30A4_U+30E4_U+30FC 1
 62
   179
420
  2234388
370
     9
100
AcDbVertex
100
AcDb2dVertex
 10
87.78998248251318
 20
-122.5568696915831
 30
0.0
  0
VERTEX
  5
112
330
110
100
AcDbEntity
  8
_U+30EC_U+30A4_U+30E4_U+30FC 1
 62
   179
420
  2234388
370
     9
100
AcDbVertex
100
AcDb2dVertex
 10
105.7899416402193
 20
-122.5568696915831
 30
0.0
  0
SEQEND
  5
113
330
110
100
AcDbEntity
  8
_U+30EC_U+30A4_U+30E4_U+30FC 1
 62
   179
420
  2234388
370
     9
  0
POLYLINE
  5
114
330
1F
100
AcDbEntity
  8
_U+30EC_U+30A4_U+30E4_U+30FC 1
 62
   179
420
  2234388
370
     9
100
AcDb2dPolyline
 66
     1
 10
0.0
 20
0.0
 30
0.0
  0
VERTEX
  5
115
330
114
100
AcDbEntity
  8
_U+30EC_U+30A4_U+30E4_U+30FC 1
 62
   179
420
  2234388
370
     9
100
AcDbVertex
100
AcDb2dVertex
 10
87.78998248251318
 20
-128.0166349679959
 30
0.0
  0
VERTEX
  5
116
330
114
100
AcDbEntity
  8
_U+30EC_U+30A4_U+30E4_U+30FC 1
 62
   179
420
  2234388
370
     9
100
AcDbVertex
100
AcDb2dVertex
 10
87.78998248251318
 20
-121.5567446918332
 30
0.0
  0
SEQEND
  5
117
330
114
100
AcDbEntity
  8
_U+30EC_U+30A4_U+30E4_U+30FC 1
 62
   179
420
  2234388
370
     9
  0
POLYLINE
  5
118
330
1F
100
AcDbEntity
  8
_U+30EC_U+30A4_U+30E4_U+30FC 1
 62
   179
420
  2234388
370
     9
100
AcDb2dPolyline
 66
     1
 10
0.0
 20
0.0
 30
0.0
  0
VERTEX
  5
119
330
118
100
AcDbEntity
  8
_U+30EC_U+30A4_U+30E4_U+30FC 1
 62
   179
420
  2234388
370
     9
100
AcDbVertex
100
AcDb2dVertex
 10
105.7899416402193
 20
-135.7167860771822
 30
0.0
  0
VERTEX
  5
11A
330
118
100
AcDbEntity
  8
_U+30EC_U+30A4_U+30E4_U+30FC 1
 62
   179
420
  2234388
370
     9
100
AcDbVertex
100
AcDb2dVertex
 10
105.7899416402193
 20
-121.5567446918332
 30
0.0
  0
SEQEND
  5
11B
330
118
100
AcDbEntity
  8
_U+30EC_U+30A4_U+30E4_U+30FC 1
 62
   179
420
  2234388
370
     9
  0
INSERT
  5
11D
330
1F
100
AcDbEntity
  8
_U+30EC_U+30A4_U+30E4_U+30FC 1
100
AcDbBlockReference
  2
block 8
 10
0.0
 20
0.0
 30
0.0
  0
ENDSEC
  0
SECTION
  2
OBJECTS
  0
DICTIONARY
  5
C
330
0
100
AcDbDictionary
281
     1
  3
ACAD_GROUP
350
D
  3
ACAD_LAYOUT
350
1A
  3
ACAD_MATERIAL
350
3B
  3
ACAD_MLEADERSTYLE
350
127
  3
ACAD_MLINESTYLE
350
17
  3
ACAD_PLOTSETTINGS
350
19
  3
ACAD_PLOTSTYLENAME
350
E
  3
ACAD_TABLESTYLE
350
126
  3
ACAD_VISUALSTYLE
350
2A
  0
SUN
  5
3F
330
29
100
AcDbSun
 90
        1
290
     0
 63
     7
421
 16777215
 40
1.0
291
     1
 91
  2455826
 92
 54000000
292
     0
 70
     2
 71
   256
280
     1
  0
DICTIONARY
  5
D
102
{ACAD_REACTORS
330
C
102
}
330
C
100
AcDbDictionary
281
     1
  0
DICTIONARY
  5
1A
102
{ACAD_REACTORS
330
C
102
}
330
C
100
AcDbDictionary
281
     1
  3
Layout1
350
1E
  3
Layout2
350
26
  3
Model
350
22
  0
DICTIONARY
  5
3B
102
{ACAD_REACTORS
330
C
102
}
330
C
100
AcDbDictionary
281
     1
  3
ByBlock
350
3D
  3
ByLayer
350
3C
  3
Global
350
3E
  0
DICTIONARY
  5
127
102
{ACAD_REACTORS
330
C
102
}
330
C
100
AcDbDictionary
281
     1
  0
DICTIONARY
  5
17
102
{ACAD_REACTORS
330
C
102
}
330
C
100
AcDbDictionary
281
     1
  3
Standard
350
18
  0
DICTIONARY
  5
19
102
{ACAD_REACTORS
330
C
102
}
330
C
100
AcDbDictionary
281
     1
  0
ACDBDICTIONARYWDFLT
  5
E
102
{ACAD_REACTORS
330
C
102
}
330
C
100
AcDbDictionary
281
     1
  3
Normal
350
F
100
AcDbDictionaryWithDefault
340
F
  0
DICTIONARY
  5
126
102
{ACAD_REACTORS
330
C
102
}
330
C
100
AcDbDictionary
281
     1
  0
DICTIONARY
  5
2A
102
{ACAD_REACTORS
330
C
102
}
330
C
100
AcDbDictionary
281
     1
  3
2dWireframe
350
2F
  3
3D Hidden
350
31
  3
3dWireframe
350
30
  3
Basic
350
32
  3
Brighten
350
36
  3
ColorChange
350
3A
  3
Conceptual
350
34
  3
Dim
350
35
  3
Facepattern
350
39
  3
Flat
350
2B
  3
FlatWithEdges
350
2C
  3
Gouraud
350
2D
  3
GouraudWithEdges
350
2E
  3
Linepattern
350
38
  3
Realistic
350
33
  3
Thicken
350
37
  0
LAYOUT
  5
1E
102
{ACAD_REACTORS
330
1A
102
}
330
1A
100
AcDbPlotSettings
  1

  2
none_device
  4

  6

 40
0.0
 41
0.0
 42
0.0
 43
0.0
 44
0.0
 45
0.0
 46
0.0
 47
0.0
 48
0.0
 49
0.0
140
0.0
141
0.0
142
1.0
143
1.0
 70
   688
 72
     0
 73
     0
 74
     5
  7

 75
    16
 76
     0
 77
     2
 78
   300
147
1.0
148
0.0
149
0.0
100
AcDbLayout
  1
Layout1
 70
     1
 71
     1
 10
0.0
 20
0.0
 11
12.0
 21
9.0
 12
0.0
 22
0.0
 32
0.0
 14
1.000000000000000E+20
 24
1.000000000000000E+20
 34
1.000000000000000E+20
 15
-1.000000000000000E+20
 25
-1.000000000000000E+20
 35
-1.000000000000000E+20
146
0.0
 13
0.0
 23
0.0
 33
0.0
 16
1.0
 26
0.0
 36
0.0
 17
0.0
 27
1.0
 37
0.0
 76
     0
330
1B
  0
LAYOUT
  5
26
102
{ACAD_REACTORS
330
1A
102
}
330
1A
100
AcDbPlotSettings
  1

  2
none_device
  4

  6

 40
0.0
 41
0.0
 42
0.0
 43
0.0
 44
0.0
 45
0.0
 46
0.0
 47
0.0
 48
0.0
 49
0.0
140
0.0
141
0.0
142
1.0
143
1.0
 70
   688
 72
     0
 73
     0
 74
     5
  7

 75
    16
 76
     0
 77
     2
 78
   300
147
1.0
148
0.0
149
0.0
100
AcDbLayout
  1
Layout2
 70
     1
 71
     2
 10
0.0
 20
0.0
 11
0.0
 21
0.0
 12
0.0
 22
0.0
 32
0.0
 14
0.0
 24
0.0
 34
0.0
 15
0.0
 25
0.0
 35
0.0
146
0.0
 13
0.0
 23
0.0
 33
0.0
 16
1.0
 26
0.0
 36
0.0
 17
0.0
 27
1.0
 37
0.0
 76
     0
330
23
  0
LAYOUT
  5
22
102
{ACAD_REACTORS
330
1A
102
}
330
1A
100
AcDbPlotSettings
  1

  2
none_device
  4

  6

 40
0.0
 41
0.0
 42
0.0
 43
0.0
 44
0.0
 45
0.0
 46
0.0
 47
0.0
 48
0.0
 49
0.0
140
0.0
141
0.0
142
1.0
143
1.0
 70
  1712
 72
     0
 73
     0
 74
     0
  7

 75
     0
 76
     0
 77
     2
 78
   300
147
1.0
148
0.0
149
0.0
100
AcDbLayout
  1
Model
 70
     1
 71
     0
 10
0.0
 20
0.0
 11
12.0
 21
9.0
 12
0.0
 22
0.0
 32
0.0
 14
1.000000000000000E+20
 24
1.000000000000000E+20
 34
1.000000000000000E+20
 15
-1.000000000000000E+20
 25
-1.000000000000000E+20
 35
-1.000000000000000E+20
146
0.0
 13
0.0
 23
0.0
 33
0.0
 16
1.0
 26
0.0
 36
0.0
 17
0.0
 27
1.0
 37
0.0
 76
     0
330
1F
331
29
  0
MATERIAL
  5
3D
102
{ACAD_REACTORS
330
3B
102
}
330
3B
100
AcDbMaterial
  1
ByBlock
 72
     1
 94
      127
  0
MATERIAL
  5
3C
102
{ACAD_REACTORS
330
3B
102
}
330
3B
100
AcDbMaterial
  1
ByLayer
 72
     1
 94
      127
  0
MATERIAL
  5
3E
102
{ACAD_REACTORS
330
3B
102
}
330
3B
100
AcDbMaterial
  1
Global
 72
     1
 94
      127
  0
MLINESTYLE
  5
18
102
{ACAD_REACTORS
330
17
102
}
330
17
100
AcDbMlineStyle
  2
Standard
 70
     0
  3

 62
   256
 51
90.0
 52
90.0
 71
     2
 49
0.5
 62
   256
  6
BYLAYER
 49
-0.5
 62
   256
  6
BYLAYER
  0
ACDBPLACEHOLDER
  5
F
102
{ACAD_REACTORS
330
E
102
}
330
E
  0
VISUALSTYLE
  5
2F
102
{ACAD_REACTORS
330
2A
102
}
330
2A
100
AcDbVisualStyle
  2
2dWireframe
 70
     4
177
     2
291
     0
 71
     0
176
     1
 72
     2
176
     1
 73
     0
176
     1
 90
        0
176
     1
 40
-0.6
176
     1
 41
-30.0
176
     1
 62
     5
 63
     7
421
 16777215
176
     1
 74
     1
176
     1
 91
        4
176
     1
 64
     7
176
     1
 65
   257
176
     1
 75
     1
176
     1
175
     1
176
     1
 42
1.0
176
     1
 92
        0
176
     1
 66
   257
176
     1
 43
1.0
176
     1
 76
     1
176
     1
 77
     6
176
     1
 78
     2
176
     1
 67
     7
176
     1
 79
     5
176
     1
170
     0
176
     1
171
     0
176
     1
290
     0
176
     1
 93
        1
176
     1
 44
0.0
176
     1
173
     0
176
     1
  0
VISUALSTYLE
  5
31
102
{ACAD_REACTORS
330
2A
102
}
330
2A
100
AcDbVisualStyle
  2
3D Hidden
 70
     6
177
     2
291
     0
 71
     1
176
     1
 72
     2
176
     1
 73
     2
176
     1
 90
        0
176
     1
 40
-0.6
176
     1
 41
-30.0
176
     1
 62
     5
 63
     7
421
 16777215
176
     1
 74
     2
176
     1
 91
        2
176
     1
 64
     7
176
     1
 65
   257
176
     1
 75
     2
176
     1
175
     1
176
     1
 42
40.0
176
     1
 92
        0
176
     1
 66
   257
176
     1
 43
1.0
176
     1
 76
     1
176
     1
 77
     6
176
     1
 78
     2
176
     1
 67
     7
176
     1
 79
     3
176
     1
170
     0
176
     1
171
     0
176
     1
290
     0
176
     1
 93
        1
176
     1
 44
0.0
176
     1
173
     0
176
     1
  0
VISUALSTYLE
  5
30
102
{ACAD_REACTORS
330
2A
102
}
330
2A
100
AcDbVisualStyle
  2
3dWireframe
 70
     5
177
     2
291
     0
 71
     0
176
     1
 72
     2
176
     1
 73
     0
176
     1
 90
        0
176
     1
 40
-0.6
176
     1
 41
-30.0
176
     1
 62
     5
 63
     7
421
 16777215
176
     1
 74
     1
176
     1
 91
        4
176
     1
 64
     7
176
     1
 65
   257
176
     1
 75
     1
176
     1
175
     1
176
     1
 42
1.0
176
     1
 92
        0
176
     1
 66
   257
176
     1
 43
1.0
176
     1
 76
     1
176
     1
 77
     6
176
     1
 78
     2
176
     1
 67
     7
176
     1
 79
     5
176
     1
170
     0
176
     1
171
     0
176
     1
290
     0
176
     1
 93
        1
176
     1
 44
0.0
176
     1
173
     0
176
     1
  0
VISUALSTYLE
  5
32
102
{ACAD_REACTORS
330
2A
102
}
330
2A
100
AcDbVisualStyle
  2
Basic
 70
     7
177
     2
291
     1
 71
     1
176
     1
 72
     0
176
     1
 73
     1
176
     1
 90
        0
176
     1
 40
-0.6
176
     1
 41
-30.0
176
     1
 62
     5
 63
     7
421
 16777215
176
     1
 74
     0
176
     1
 91
        4
176
     1
 64
     7
176
     1
 65
   257
176
     1
 75
     1
176
     1
175
     1
176
     1
 42
1.0
176
     1
 92
        8
176
     1
 66
     7
176
     1
 43
1.0
176
     1
 76
     1
176
     1
 77
     6
176
     1
 78
     2
176
     1
 67
     7
176
     1
 79
     5
176
     1
170
     0
176
     1
171
     0
176
     1
290
     0
176
     1
 93
        1
176
     1
 44
0.0
176
     1
173
     0
176
     1
  0
VISUALSTYLE
  5
36
102
{ACAD_REACTORS
330
2A
102
}
330
2A
100
AcDbVisualStyle
  2
Brighten
 70
    12
177
     2
291
     1
 71
     2
176
     1
 72
     2
176
     1
 73
     0
176
     1
 90
        0
176
     1
 40
-0.6
176
     1
 41
-30.0
176
     1
 62
     5
 63
     7
421
 16777215
176
     1
 74
     1
176
     1
 91
        4
176
     1
 64
     7
176
     1
 65
   257
176
     1
 75
     1
176
     1
175
     1
176
     1
 42
1.0
176
     1
 92
        8
176
     1
 66
     7
176
     1
 43
1.0
176
     1
 76
     1
176
     1
 77
     6
176
     1
 78
     2
176
     1
 67
     7
176
     1
 79
     5
176
     1
170
     0
176
     1
171
     0
176
     1
290
     0
176
     1
 93
        1
176
     1
 44
50.0
176
     1
173
     0
176
     1
  0
VISUALSTYLE
  5
3A
102
{ACAD_REACTORS
330
2A
102
}
330
2A
100
AcDbVisualStyle
  2
ColorChange
 70
    16
177
     2
291
     1
 71
     2
176
     1
 72
     2
176
     1
 73
     3
176
     1
 90
        0
176
     1
 40
-0.6
176
     1
 41
-30.0
176
     1
 62
     5
 63
     8
421
  8421504
176
     1
 74
     1
176
     1
 91
        4
176
     1
 64
     7
176
     1
 65
   257
176
     1
 75
     1
176
     1
175
     1
176
     1
 42
1.0
176
     1
 92
        8
176
     1
 66
     8
424
  8421504
176
     1
 43
1.0
176
     1
 76
     1
176
     1
 77
     6
176
     1
 78
     2
176
     1
 67
     7
176
     1
 79
     5
176
     1
170
     0
176
     1
171
     0
176
     1
290
     0
176
     1
 93
        1
176
     1
 44
0.0
176
     1
173
     0
176
     1
  0
VISUALSTYLE
  5
34
102
{ACAD_REACTORS
330
2A
102
}
330
2A
100
AcDbVisualStyle
  2
Conceptual
 70
     9
177
     2
291
     0
 71
     3
176
     1
 72
     2
176
     1
 73
     0
176
     1
 90
        0
176
     1
 40
-0.6
176
     1
 41
-30.0
176
     1
 62
     5
 63
     7
421
 16777215
176
     1
 74
     2
176
     1
 91
        2
176
     1
 64
     7
176
     1
 65
   257
176
     1
 75
     1
176
     1
175
     1
176
     1
 42
40.0
176
     1
 92
        8
176
     1
 66
     7
176
     1
 43
1.0
176
     1
 76
     1
176
     1
 77
     6
176
     1
 78
     2
176
     1
 67
     7
176
     1
 79
     3
176
     1
170
     0
176
     1
171
     0
176
     1
290
     0
176
     1
 93
        1
176
     1
 44
0.0
176
     1
173
     0
176
     1
  0
VISUALSTYLE
  5
35
102
{ACAD_REACTORS
330
2A
102
}
330
2A
100
AcDbVisualStyle
  2
Dim
 70
    11
177
     2
291
     1
 71
     2
176
     1
 72
     2
176
     1
 73
     0
176
     1
 90
        0
176
     1
 40
-0.6
176
     1
 41
-30.0
176
     1
 62
     5
 63
     7
421
 16777215
176
     1
 74
     1
176
     1
 91
        4
176
     1
 64
     7
176
     1
 65
   257
176
     1
 75
     1
176
     1
175
     1
176
     1
 42
1.0
176
     1
 92
        8
176
     1
 66
     7
176
     1
 43
1.0
176
     1
 76
     1
176
     1
 77
     6
176
     1
 78
     2
176
     1
 67
     7
176
     1
 79
     5
176
     1
170
     0
176
     1
171
     0
176
     1
290
     0
176
     1
 93
        1
176
     1
 44
-50.0
176
     1
173
     0
176
     1
  0
VISUALSTYLE
  5
39
102
{ACAD_REACTORS
330
2A
102
}
330
2A
100
AcDbVisualStyle
  2
Facepattern
 70
    15
177
     2
291
     1
 71
     2
176
     1
 72
     2
176
     1
 73
     0
176
     1
 90
        0
176
     1
 40
-0.6
176
     1
 41
-30.0
176
     1
 62
     5
 63
     7
421
 16777215
176
     1
 74
     1
176
     1
 91
        4
176
     1
 64
     7
176
     1
 65
   257
176
     1
 75
     1
176
     1
175
     1
176
     1
 42
1.0
176
     1
 92
        8
176
     1
 66
     7
176
     1
 43
1.0
176
     1
 76
     1
176
     1
 77
     6
176
     1
 78
     2
176
     1
 67
     7
176
     1
 79
     5
176
     1
170
     0
176
     1
171
     0
176
     1
290
     0
176
     1
 93
        1
176
     1
 44
0.0
176
     1
173
     0
176
     1
  0
VISUALSTYLE
  5
2B
102
{ACAD_REACTORS
330
2A
102
}
330
2A
100
AcDbVisualStyle
  2
Flat
 70
     0
177
     2
291
     1
 71
     2
176
     1
 72
     1
176
     1
 73
     1
176
     1
 90
        2
176
     1
 40
-0.6
176
     1
 41
30.0
176
     1
 62
     5
 63
     7
421
 16777215
176
     1
 74
     0
176
     1
 91
        4
176
     1
 64
     7
176
     1
 65
   257
176
     1
 75
     1
176
     1
175
     1
176
     1
 42
1.0
176
     1
 92
        8
176
     1
 66
     7
176
     1
 43
1.0
176
     1
 76
     1
176
     1
 77
     6
176
     1
 78
     2
176
     1
 67
     7
176
     1
 79
     5
176
     1
170
     0
176
     1
171
     0
176
     1
290
     0
176
     1
 93
       13
176
     1
 44
0.0
176
     1
173
     0
176
     1
  0
VISUALSTYLE
  5
2C
102
{ACAD_REACTORS
330
2A
102
}
330
2A
100
AcDbVisualStyle
  2
FlatWithEdges
 70
     1
177
     2
291
     1
 71
     2
176
     1
 72
     1
176
     1
 73
     1
176
     1
 90
        2
176
     1
 40
-0.6
176
     1
 41
30.0
176
     1
 62
     5
 63
     7
421
 16777215
176
     1
 74
     1
176
     1
 91
        4
176
     1
 64
     7
176
     1
 65
   257
176
     1
 75
     1
176
     1
175
     1
176
     1
 42
1.0
176
     1
 92
        0
176
     1
 66
   257
176
     1
 43
1.0
176
     1
 76
     1
176
     1
 77
     6
176
     1
 78
     2
176
     1
 67
     7
176
     1
 79
     5
176
     1
170
     0
176
     1
171
     0
176
     1
290
     0
176
     1
 93
       13
176
     1
 44
0.0
176
     1
173
     0
176
     1
  0
VISUALSTYLE
  5
2D
102
{ACAD_REACTORS
330
2A
102
}
330
2A
100
AcDbVisualStyle
  2
Gouraud
 70
     2
177
     2
291
     1
 71
     2
176
     1
 72
     2
176
     1
 73
     1
176
     1
 90
        2
176
     1
 40
-0.6
176
     1
 41
30.0
176
     1
 62
     5
 63
     7
421
 16777215
176
     1
 74
     0
176
     1
 91
        4
176
     1
 64
     7
176
     1
 65
   257
176
     1
 75
     1
176
     1
175
     1
176
     1
 42
1.0
176
     1
 92
        0
176
     1
 66
     7
176
     1
 43
1.0
176
     1
 76
     1
176
     1
 77
     6
176
     1
 78
     2
176
     1
 67
     7
176
     1
 79
     5
176
     1
170
     0
176
     1
171
     0
176
     1
290
     0
176
     1
 93
       13
176
     1
 44
0.0
176
     1
173
     0
176
     1
  0
VISUALSTYLE
  5
2E
102
{ACAD_REACTORS
330
2A
102
}
330
2A
100
AcDbVisualStyle
  2
GouraudWithEdges
 70
     3
177
     2
291
     1
 71
     2
176
     1
 72
     2
176
     1
 73
     1
176
     1
 90
        2
176
     1
 40
-0.6
176
     1
 41
30.0
176
     1
 62
     5
 63
     7
421
 16777215
176
     1
 74
     1
176
     1
 91
        4
176
     1
 64
     7
176
     1
 65
   257
176
     1
 75
     1
176
     1
175
     1
176
     1
 42
1.0
176
     1
 92
        0
176
     1
 66
   257
176
     1
 43
1.0
176
     1
 76
     1
176
     1
 77
     6
176
     1
 78
     2
176
     1
 67
     7
176
     1
 79
     5
176
     1
170
     0
176
     1
171
     0
176
     1
290
     0
176
     1
 93
       13
176
     1
 44
0.0
176
     1
173
     0
176
     1
  0
VISUALSTYLE
  5
38
102
{ACAD_REACTORS
330
2A
102
}
330
2A
100
AcDbVisualStyle
  2
Linepattern
 70
    14
177
     2
291
     1
 71
     2
176
     1
 72
     2
176
     1
 73
     0
176
     1
 90
        0
176
     1
 40
-0.6
176
     1
 41
-30.0
176
     1
 62
     5
 63
     7
421
 16777215
176
     1
 74
     1
176
     1
 91
        4
176
     1
 64
     7
176
     1
 65
   257
176
     1
 75
     7
176
     1
175
     7
176
     1
 42
1.0
176
     1
 92
        8
176
     1
 66
     7
176
     1
 43
1.0
176
     1
 76
     1
176
     1
 77
     6
176
     1
 78
     2
176
     1
 67
     7
176
     1
 79
     5
176
     1
170
     0
176
     1
171
     0
176
     1
290
     0
176
     1
 93
        1
176
     1
 44
0.0
176
     1
173
     0
176
     1
  0
VISUALSTYLE
  5
33
102
{ACAD_REACTORS
330
2A
102
}
330
2A
100
AcDbVisualStyle
  2
Realistic
 70
     8
177
     2
291
     0
 71
     2
176
     1
 72
     2
176
     1
 73
     0
176
     1
 90
        0
176
     1
 40
-0.6
176
     1
 41
-30.0
176
     1
 62
     5
 63
     7
421
 16777215
176
     1
 74
     1
176
     1
 91
        0
176
     1
 64
     7
176
     1
 65
   257
176
     1
 75
     1
176
     1
175
     1
176
     1
 42
1.0
176
     1
 92
        8
176
     1
 66
     8
424
  7895160
176
     1
 43
1.0
176
     1
 76
     1
176
     1
 77
     6
176
     1
 78
     2
176
     1
 67
     7
176
     1
 79
     5
176
     1
170
     0
176
     1
171
     0
176
     1
290
     0
176
     1
 93
       13
176
     1
 44
0.0
176
     1
173
     0
176
     1
  0
VISUALSTYLE
  5
37
102
{ACAD_REACTORS
330
2A
102
}
330
2A
100
AcDbVisualStyle
  2
Thicken
 70
    13
177
     2
291
     1
 71
     2
176
     1
 72
     2
176
     1
 73
     0
176
     1
 90
        0
176
     1
 40
-0.6
176
     1
 41
-30.0
176
     1
 62
     5
 63
     7
421
 16777215
176
     1
 74
     1
176
     1
 91
        4
176
     1
 64
     7
176
     1
 65
   257
176
     1
 75
     1
176
     1
175
     1
176
     1
 42
1.0
176
     1
 92
       12
176
     1
 66
     7
176
     1
 43
1.0
176
     1
 76
     1
176
     1
 77
     6
176
     1
 78
     2
176
     1
 67
     7
176
     1
 79
     5
176
     1
170
     0
176
     1
171
     0
176
     1
290
     0
176
     1
 93
        1
176
     1
 44
0.0
176
     1
173
     0
176
     1
  0
ENDSEC
  0
EOF
