  0
SECTION
  2
HEADER
  9
$ACADVER
  1
AC1024
  9
$ACADMAINTVER
 70
     6
  9
$DWGCODEPAGE
  3
UNDEFINED
  9
$INSBASE
 10
0.0
 20
0.0
 30
0.0
  9
$EXTMIN
 10
1.000000000000000E+20
 20
1.000000000000000E+20
 30
1.000000000000000E+20
  9
$EXTMAX
 10
-1.000000000000000E+20
 20
-1.000000000000000E+20
 30
-1.000000000000000E+20
  9
$LIMMIN
 10
0.0
 20
0.0
  9
$LIMMAX
 10
12.0
 20
9.0
  9
$ORTHOMODE
 70
     0
  9
$REGENMODE
 70
     1
  9
$FILLMODE
 70
     1
  9
$QTEXTMODE
 70
     0
  9
$MIRRTEXT
 70
     1
  9
$LTSCALE
 40
1.0
  9
$ATTMODE
 70
     1
  9
$TEXTSIZE
 40
0.2
  9
$TRACEWID
 40
0.05
  9
$TEXTSTYLE
  7
Standard
  9
$CLAYER
  8
0
  9
$CELTYPE
  6
ByLayer
  9
$CECOLOR
 62
   256
  9
$CELTSCALE
 40
1.0
  9
$DISPSILH
 70
     0
  9
$DIMSCALE
 40
1.0
  9
$DIMASZ
 40
0.18
  9
$DIMEXO
 40
0.0625
  9
$DIMDLI
 40
0.38
  9
$DIMRND
 40
0.0
  9
$DIMDLE
 40
0.0
  9
$DIMEXE
 40
0.18
  9
$DIMTP
 40
0.0
  9
$DIMTM
 40
0.0
  9
$DIMTXT
 40
0.18
  9
$DIMCEN
 40
0.09
  9
$DIMTSZ
 40
0.0
  9
$DIMTOL
 70
     0
  9
$DIMLIM
 70
     0
  9
$DIMTIH
 70
     1
  9
$DIMTOH
 70
     1
  9
$DIMSE1
 70
     0
  9
$DIMSE2
 70
     0
  9
$DIMTAD
 70
     0
  9
$DIMZIN
 70
     0
  9
$DIMBLK
  1

  9
$DIMASO
 70
     1
  9
$DIMSHO
 70
     1
  9
$DIMPOST
  1

  9
$DIMAPOST
  1

  9
$DIMALT
 70
     0
  9
$DIMALTD
 70
     2
  9
$DIMALTF
 40
25.4
  9
$DIMLFAC
 40
1.0
  9
$DIMTOFL
 70
     0
  9
$DIMTVP
 40
0.0
  9
$DIMTIX
 70
     0
  9
$DIMSOXD
 70
     0
  9
$DIMSAH
 70
     0
  9
$DIMBLK1
  1

  9
$DIMBLK2
  1

  9
$DIMSTYLE
  2
Standard
  9
$DIMCLRD
 70
     0
  9
$DIMCLRE
 70
     0
  9
$DIMCLRT
 70
     0
  9
$DIMTFAC
 40
1.0
  9
$DIMGAP
 40
0.09
  9
$DIMJUST
 70
     0
  9
$DIMSD1
 70
     0
  9
$DIMSD2
 70
     0
  9
$DIMTOLJ
 70
     1
  9
$DIMTZIN
 70
     0
  9
$DIMALTZ
 70
     0
  9
$DIMALTTZ
 70
     0
  9
$DIMUPT
 70
     0
  9
$DIMDEC
 70
     4
  9
$DIMTDEC
 70
     4
  9
$DIMALTU
 70
     2
  9
$DIMALTTD
 70
     2
  9
$DIMTXSTY
  7
Standard
  9
$DIMAUNIT
 70
     0
  9
$DIMADEC
 70
     0
  9
$DIMALTRND
 40
0.0
  9
$DIMAZIN
 70
     0
  9
$DIMDSEP
 70
    46
  9
$DIMATFIT
 70
     3
  9
$DIMFRAC
 70
     0
  9
$DIMLDRBLK
  1

  9
$DIMLUNIT
 70
     2
  9
$DIMLWD
 70
    -2
  9
$DIMLWE
 70
    -2
  9
$DIMTMOVE
 70
     0
  9
$DIMFXL
 40
1.0
  9
$DIMFXLON
 70
     0
  9
$DIMJOGANG
 40
0.7853981633974483
  9
$DIMTFILL
 70
     0
  9
$DIMTFILLCLR
 70
     0
  9
$DIMARCSYM
 70
     0
  9
$DIMLTYPE
  6

  9
$DIMLTEX1
  6

  9
$DIMLTEX2
  6

  9
$DIMTXTDIRECTION
 70
     0
  9
$LUNITS
 70
     2
  9
$LUPREC
 70
     4
  9
$SKETCHINC
 40
0.1
  9
$FILLETRAD
 40
0.5
  9
$AUNITS
 70
     0
  9
$AUPREC
 70
     0
  9
$MENU
  1
.
  9
$ELEVATION
 40
0.0
  9
$PELEVATION
 40
0.0
  9
$THICKNESS
 40
0.0
  9
$LIMCHECK
 70
     0
  9
$CHAMFERA
 40
0.5
  9
$CHAMFERB
 40
0.5
  9
$CHAMFERC
 40
1.0
  9
$CHAMFERD
 40
0.0
  9
$SKPOLY
 70
     0
  9
$TDCREATE
 40
2457917.63216434
  9
$TDUCREATE
 40
2457917.257164352
  9
$TDUPDATE
 40
2457917.63216434
  9
$TDUUPDATE
 40
2457917.257164352
  9
$TDINDWG
 40
0.0000000116
  9
$TDUSRTIMER
 40
0.0000000116
  9
$USRTIMER
 70
     1
  9
$ANGBASE
 50
0.0
  9
$ANGDIR
 70
     0
  9
$PDMODE
 70
     0
  9
$PDSIZE
 40
0.0
  9
$PLINEWID
 40
0.0
  9
$SPLFRAME
 70
     0
  9
$SPLINETYPE
 70
     6
  9
$SPLINESEGS
 70
     8
  9
$HANDSEED
  5
13F
  9
$SURFTAB1
 70
     6
  9
$SURFTAB2
 70
     6
  9
$SURFTYPE
 70
     6
  9
$SURFU
 70
     6
  9
$SURFV
 70
     6
  9
$UCSBASE
  2

  9
$UCSNAME
  2

  9
$UCSORG
 10
0.0
 20
0.0
 30
0.0
  9
$UCSXDIR
 10
1.0
 20
0.0
 30
0.0
  9
$UCSYDIR
 10
0.0
 20
1.0
 30
0.0
  9
$UCSORTHOREF
  2

  9
$UCSORTHOVIEW
 70
     0
  9
$UCSORGTOP
 10
0.0
 20
0.0
 30
0.0
  9
$UCSORGBOTTOM
 10
0.0
 20
0.0
 30
0.0
  9
$UCSORGLEFT
 10
0.0
 20
0.0
 30
0.0
  9
$UCSORGRIGHT
 10
0.0
 20
0.0
 30
0.0
  9
$UCSORGFRONT
 10
0.0
 20
0.0
 30
0.0
  9
$UCSORGBACK
 10
0.0
 20
0.0
 30
0.0
  9
$PUCSBASE
  2

  9
$PUCSNAME
  2

  9
$PUCSORG
 10
0.0
 20
0.0
 30
0.0
  9
$PUCSXDIR
 10
1.0
 20
0.0
 30
0.0
  9
$PUCSYDIR
 10
0.0
 20
1.0
 30
0.0
  9
$PUCSORTHOREF
  2

  9
$PUCSORTHOVIEW
 70
     0
  9
$PUCSORGTOP
 10
0.0
 20
0.0
 30
0.0
  9
$PUCSORGBOTTOM
 10
0.0
 20
0.0
 30
0.0
  9
$PUCSORGLEFT
 10
0.0
 20
0.0
 30
0.0
  9
$PUCSORGRIGHT
 10
0.0
 20
0.0
 30
0.0
  9
$PUCSORGFRONT
 10
0.0
 20
0.0
 30
0.0
  9
$PUCSORGBACK
 10
0.0
 20
0.0
 30
0.0
  9
$USERI1
 70
     0
  9
$USERI2
 70
     0
  9
$USERI3
 70
     0
  9
$USERI4
 70
     0
  9
$USERI5
 70
     0
  9
$USERR1
 40
0.0
  9
$USERR2
 40
0.0
  9
$USERR3
 40
0.0
  9
$USERR4
 40
0.0
  9
$USERR5
 40
0.0
  9
$WORLDVIEW
 70
     1
  9
$SHADEDGE
 70
     3
  9
$SHADEDIF
 70
    70
  9
$TILEMODE
 70
     1
  9
$MAXACTVP
 70
    64
  9
$PINSBASE
 10
0.0
 20
0.0
 30
0.0
  9
$PLIMCHECK
 70
     0
  9
$PEXTMIN
 10
1.000000000000000E+20
 20
1.000000000000000E+20
 30
1.000000000000000E+20
  9
$PEXTMAX
 10
-1.000000000000000E+20
 20
-1.000000000000000E+20
 30
-1.000000000000000E+20
  9
$PLIMMIN
 10
0.0
 20
0.0
  9
$PLIMMAX
 10
12.0
 20
9.0
  9
$UNITMODE
 70
     0
  9
$VISRETAIN
 70
     1
  9
$PLINEGEN
 70
     0
  9
$PSLTSCALE
 70
     1
  9
$TREEDEPTH
 70
  3020
  9
$CMLSTYLE
  2
Standard
  9
$CMLJUST
 70
     0
  9
$CMLSCALE
 40
1.0
  9
$PROXYGRAPHICS
 70
     1
  9
$MEASUREMENT
 70
     0
  9
$CELWEIGHT
370
    -1
  9
$ENDCAPS
280
     0
  9
$JOINSTYLE
280
     0
  9
$LWDISPLAY
290
     1
  9
$INSUNITS
 70
     1
  9
$HYPERLINKBASE
  1

  9
$STYLESHEET
  1

  9
$XEDIT
290
     1
  9
$CEPSNTYPE
380
     0
  9
$PSTYLEMODE
290
     1
  9
$FINGERPRINTGUID
  2
{8889CA50-3986-58C5-9DC2-28AD30BE2AFC}
  9
$VERSIONGUID
  2
{FAEB1C32-E019-11D5-929B-00C0DF256EC4}
  9
$EXTNAMES
290
     1
  9
$PSVPSCALE
 40
0.0
  9
$OLESTARTUP
290
     0
  9
$SORTENTS
280
   127
  9
$INDEXCTL
280
     0
  9
$HIDETEXT
280
     1
  9
$XCLIPFRAME
280
     2
  9
$HALOGAP
280
     0
  9
$OBSCOLOR
 70
   257
  9
$OBSLTYPE
280
     0
  9
$INTERSECTIONDISPLAY
280
     0
  9
$INTERSECTIONCOLOR
 70
   257
  9
$DIMASSOC
280
     2
  9
$PROJECTNAME
  1

  9
$CAMERADISPLAY
290
     0
  9
$LENSLENGTH
 40
50.0
  9
$CAMERAHEIGHT
 40
0.0
  9
$STEPSPERSEC
 40
2.0
  9
$STEPSIZE
 40
6.0
  9
$3DDWFPREC
 40
2.0
  9
$PSOLWIDTH
 40
0.25
  9
$PSOLHEIGHT
 40
4.0
  9
$LOFTANG1
 40
1.570796326794897
  9
$LOFTANG2
 40
1.570796326794897
  9
$LOFTMAG1
 40
0.0
  9
$LOFTMAG2
 40
0.0
  9
$LOFTPARAM
 70
     7
  9
$LOFTNORMALS
280
     1
  9
$LATITUDE
 40
37.795
  9
$LONGITUDE
 40
-122.394
  9
$NORTHDIRECTION
 40
0.0
  9
$TIMEZONE
 70
 -8000
  9
$LIGHTGLYPHDISPLAY
280
     1
  9
$TILEMODELIGHTSYNCH
280
     1
  9
$CMATERIAL
347
3C
  9
$SOLIDHIST
280
     1
  9
$SHOWHIST
280
     1
  9
$DWFFRAME
280
     2
  9
$DGNFRAME
280
     2
  9
$REALWORLDSCALE
290
     1
  9
$INTERFERECOLOR
 62
   256
  9
$CSHADOW
280
     0
  9
$SHADOWPLANELOCATION
 40
0.0
  0
ENDSEC
  0
SECTION
  2
CLASSES
  0
CLASS
  1
ACDBDICTIONARYWDFLT
  2
AcDbDictionaryWithDefault
  3
ObjectDBX Classes
 90
        0
 91
        4
280
     0
281
     0
  0
CLASS
  1
VISUALSTYLE
  2
AcDbVisualStyle
  3
ObjectDBX Classes
 90
     4095
 91
        4
280
     0
281
     0
  0
CLASS
  1
MATERIAL
  2
AcDbMaterial
  3
ObjectDBX Classes
 90
     1153
 91
        4
280
     0
281
     0
  0
CLASS
  1
SUN
  2
AcDbSun
  3
SCENEOE
 90
     1024
 91
        4
280
     0
281
     0
  0
ENDSEC
  0
SECTION
  2
TABLES
  0
TABLE
  2
VPORT
  5
8
330
0
100
AcDbSymbolTable
 70
     1
  0
VPORT
  5
29
330
8
100
AcDbSymbolTableRecord
100
AcDbViewportTableRecord
  2
*Active
 70
     0
 10
0.0
 20
0.0
 11
1.0
 21
1.0
 12
0.0
 22
0.0
 13
0.0
 23
0.0
 14
0.5
 24
0.5
 15
0.5
 25
0.5
 16
0.0
 26
0.0
 36
1.0
 17
91.00082462281999
 27
-128.4993055234307
 37
0.0
 40
256.9986110468615
 41
0.7081814508812795
 42
50.0
 43
0.0
 44
0.0
 50
0.0
 51
0.0
 71
     0
 72
   100
 73
     1
 74
     3
 75
     0
 76
     0
 77
     0
 78
     0
281
     0
 65
     1
110
0.0
120
0.0
130
0.0
111
1.0
121
0.0
131
0.0
112
0.0
122
1.0
132
0.0
 79
     0
146
0.0
 60
     3
 61
     5
292
     1
282
     1
141
0.0
142
0.0
 63
   250
361
3F
  0
ENDTAB
  0
TABLE
  2
LTYPE
  5
5
330
0
100
AcDbSymbolTable
 70
     1
  0
LTYPE
  5
14
330
5
100
AcDbSymbolTableRecord
100
AcDbLinetypeTableRecord
  2
ByBlock
 70
     0
  3

 72
    65
 73
     0
 40
0.0
  0
LTYPE
  5
15
330
5
100
AcDbSymbolTableRecord
100
AcDbLinetypeTableRecord
  2
ByLayer
 70
     0
  3

 72
    65
 73
     0
 40
0.0
  0
LTYPE
  5
16
330
5
100
AcDbSymbolTableRecord
100
AcDbLinetypeTableRecord
  2
Continuous
 70
     0
  3
Solid line
 72
    65
 73
     0
 40
0.0
  0
ENDTAB
  0
TABLE
  2
LAYER
  5
2
330
0
100
AcDbSymbolTable
 70
     2
  0
LAYER
  5
10
330
2
100
AcDbSymbolTableRecord
100
AcDbLayerTableRecord
  2
0
 70
     0
 62
     7
  6
Continuous
370
    -3
390
F
347
3E
  0
LAYER
  5
40
330
2
100
AcDbSymbolTableRecord
100
AcDbLayerTableRecord
  2
_U+30EC_U+30A4_U+30E4_U+30FC 1
 70
     0
 62
     7
  6
Continuous
370
    -3
390
F
347
3E
  0
ENDTAB
  0
TABLE
  2
STYLE
  5
3
330
0
100
AcDbSymbolTable
 70
     1
  0
STYLE
  5
11
330
3
100
AcDbSymbolTableRecord
100
AcDbTextStyleTableRecord
  2
Standard
 70
     0
 40
0.0
 41
1.0
 50
0.0
 71
     0
 42
0.2
  3
txt
  4

  0
ENDTAB
  0
TABLE
  2
VIEW
  5
6
330
0
100
AcDbSymbolTable
 70
     0
  0
ENDTAB
  0
TABLE
  2
UCS
  5
7
330
0
100
AcDbSymbolTable
 70
     0
  0
ENDTAB
  0
TABLE
  2
APPID
  5
9
330
0
100
AcDbSymbolTable
 70
     1
  0
APPID
  5
12
330
9
100
AcDbSymbolTableRecord
100
AcDbRegAppTableRecord
  2
ACAD
 70
     0
  0
ENDTAB
  0
TABLE
  2
DIMSTYLE
  5
A
330
0
100
AcDbSymbolTable
 70
     1
100
AcDbDimStyleTable
  0
DIMSTYLE
105
27
330
A
100
AcDbSymbolTableRecord
100
AcDbDimStyleTableRecord
  2
Standard
 70
     0
178
     0
340
11
  0
ENDTAB
  0
TABLE
  2
BLOCK_RECORD
  5
1
330
0
100
AcDbSymbolTable
 70
     8
  0
BLOCK_RECORD
  5
1F
330
1
100
AcDbSymbolTableRecord
100
AcDbBlockTableRecord
  2
*Model_Space
340
22
 70
     0
280
     1
281
     0
  0
BLOCK_RECORD
  5
1B
330
1
100
AcDbSymbolTableRecord
100
AcDbBlockTableRecord
  2
*Paper_Space
340
1E
 70
     0
280
     1
281
     0
  0
BLOCK_RECORD
  5
23
330
1
100
AcDbSymbolTableRecord
100
AcDbBlockTableRecord
  2
*Paper_Space0
340
26
 70
     0
280
     1
281
     0
  0
BLOCK_RECORD
  5
82
330
1
100
AcDbSymbolTableRecord
100
AcDbBlockTableRecord
  2
block 2
340
0
102
{BLKREFS
331
83
102
}
 70
     0
280
     1
281
     0
  0
BLOCK_RECORD
  5
9E
330
1
100
AcDbSymbolTableRecord
100
AcDbBlockTableRecord
  2
block 3
340
0
102
{BLKREFS
331
9F
102
}
 70
     0
280
     1
281
     0
  0
BLOCK_RECORD
  5
D8
330
1
100
AcDbSymbolTableRecord
100
AcDbBlockTableRecord
  2
block 4
340
0
102
{BLKREFS
331
D9
102
}
 70
     0
280
     1
281
     0
  0
BLOCK_RECORD
  5
F7
330
1
100
AcDbSymbolTableRecord
100
AcDbBlockTableRecord
  2
block 5
340
0
102
{BLKREFS
331
F8
102
}
 70
     0
280
     1
281
     0
  0
BLOCK_RECORD
  5
107
330
1
100
AcDbSymbolTableRecord
100
AcDbBlockTableRecord
  2
block 6
340
0
102
{BLKREFS
331
108
102
}
 70
     0
280
     1
281
     0
  0
BLOCK_RECORD
  5
11C
330
1
100
AcDbSymbolTableRecord
100
AcDbBlockTableRecord
  2
block 7
340
0
102
{BLKREFS
331
11D
102
}
 70
     0
280
     1
281
     0
  0
BLOCK_RECORD
  5
12C
330
1
100
AcDbSymbolTableRecord
100
AcDbBlockTableRecord
  2
block 8
340
0
102
{BLKREFS
331
12D
102
}
 70
     0
280
     1
281
     0
  0
ENDTAB
  0
ENDSEC
  0
SECTION
  2
BLOCKS
  0
BLOCK
  5
20
330
1F
100
AcDbEntity
  8
0
100
AcDbBlockBegin
  2
*Model_Space
 70
     0
 10
0.0
 20
0.0
 30
0.0
  3
*Model_Space
  1

  0
ENDBLK
  5
21
330
1F
100
AcDbEntity
  8
0
100
AcDbBlockEnd
  0
BLOCK
  5
1C
330
1B
100
AcDbEntity
 67
     1
  8
0
100
AcDbBlockBegin
  2
*Paper_Space
 70
     0
 10
0.0
 20
0.0
 30
0.0
  3
*Paper_Space
  1

  0
ENDBLK
  5
1D
330
1B
100
AcDbEntity
 67
     1
  8
0
100
AcDbBlockEnd
  0
BLOCK
  5
24
330
23
100
AcDbEntity
  8
0
100
AcDbBlockBegin
  2
*Paper_Space0
 70
     0
 10
0.0
 20
0.0
 30
0.0
  3
*Paper_Space0
  1

  0
ENDBLK
  5
25
330
23
100
AcDbEntity
  8
0
100
AcDbBlockEnd
  0
BLOCK
  5
84
330
82
100
AcDbEntity
  8
0
100
AcDbBlockBegin
  2
block 2
 70
     0
 10
0.0
 20
0.0
 30
0.0
  3
block 2
  1

  0
SPLINE
  5
86
330
82
100
AcDbEntity
  8
_U+30EC_U+30A4_U+30E4_U+30FC 1
370
     0
100
AcDbSpline
210
0.0
220
0.0
230
1.0
 70
    11
 71
     3
 72
    26
 73
    22
 74
     0
 42
0.0000000001
 43
0.0000000001
 12
1.0
 22
0.0
 32
0.0
 13
1.0
 23
0.0
 33
0.0
 40
0.0
 40
0.0
 40
0.0
 40
0.0
 40
1.0
 40
1.0
 40
1.0
 40
2.0
 40
2.0
 40
2.0
 40
3.0
 40
3.0
 40
3.0
 40
4.0
 40
4.0
 40
4.0
 40
5.0
 40
5.0
 40
5.0
 40
6.0
 40
6.0
 40
6.0
 40
7.0
 40
7.0
 40
7.0
 40
7.0
 10
66.44090574510852
 20
-134.0135253571216
 30
0.0
 10
66.44090574510852
 20
-134.0135253571216
 30
0.0
 10
65.33675264208595
 20
-134.0135253571216
 30
0.0
 10
65.33675264208595
 20
-134.0135253571216
 30
0.0
 10
65.33675264208595
 20
-134.0135253571216
 30
0.0
 10
65.33675264208595
 20
-134.3435655046086
 30
0.0
 10
65.33675264208595
 20
-134.3435655046086
 30
0.0
 10
65.33675264208595
 20
-134.3435655046086
 30
0.0
 10
65.18861353622022
 20
-134.3435655046086
 30
0.0
 10
65.18861353622022
 20
-134.3435655046086
 30
0.0
 10
65.17379962563363
 20
-134.0114582998305
 30
0.0
 10
65.01084660918131
 20
-133.9649495107796
 30
0.0
 10
64.89646943907103
 20
-133.9353216896064
 30
0.0
 10
64.89646943907103
 20
-133.9353216896064
 30
0.0
 10
64.89646943907103
 20
-133.7892496410319
 30
0.0
 10
64.89646943907103
 20
-133.7892496410319
 30
0.0
 10
64.89646943907103
 20
-133.7892496410319
 30
0.0
 10
66.44090574510852
 20
-133.7892496410319
 30
0.0
 10
66.44090574510852
 20
-133.7892496410319
 30
0.0
 10
66.44090574510852
 20
-133.7892496410319
 30
0.0
 10
66.44090574510852
 20
-134.0135253571216
 30
0.0
 10
66.44090574510852
 20
-134.0135253571216
 30
0.0
  0
HATCH
  5
87
330
82
100
AcDbEntity
  8
_U+30EC_U+30A4_U+30E4_U+30FC 1
 62
   179
420
  2234388
100
AcDbHatch
 10
0.0
 20
0.0
 30
0.0
210
0.0
220
0.0
230
1.0
  2
SOLID
 70
     1
 71
     0
 91
        1
 92
        1
 93
        1
 72
     4
 94
        3
 73
     0
 74
     1
 95
       26
 96
       22
 40
0.0
 40
0.0
 40
0.0
 40
0.0
 40
1.0
 40
1.0
 40
1.0
 40
2.0
 40
2.0
 40
2.0
 40
3.0
 40
3.0
 40
3.0
 40
4.0
 40
4.0
 40
4.0
 40
5.0
 40
5.0
 40
5.0
 40
6.0
 40
6.0
 40
6.0
 40
7.0
 40
7.0
 40
7.0
 40
7.0
 10
66.44090574510852
 20
-134.0135253571216
 10
66.44090574510852
 20
-134.0135253571216
 10
65.33675264208595
 20
-134.0135253571216
 10
65.33675264208595
 20
-134.0135253571216
 10
65.33675264208595
 20
-134.0135253571216
 10
65.33675264208595
 20
-134.3435655046086
 10
65.33675264208595
 20
-134.3435655046086
 10
65.33675264208595
 20
-134.3435655046086
 10
65.18861353622022
 20
-134.3435655046086
 10
65.18861353622022
 20
-134.3435655046086
 10
65.17379962563363
 20
-134.0114582998305
 10
65.01084660918131
 20
-133.9649495107796
 10
64.89646943907103
 20
-133.9353216896064
 10
64.89646943907103
 20
-133.9353216896064
 10
64.89646943907103
 20
-133.7892496410319
 10
64.89646943907103
 20
-133.7892496410319
 10
64.89646943907103
 20
-133.7892496410319
 10
66.44090574510852
 20
-133.7892496410319
 10
66.44090574510852
 20
-133.7892496410319
 10
66.44090574510852
 20
-133.7892496410319
 10
66.44090574510852
 20
-134.0135253571216
 10
66.44090574510852
 20
-134.0135253571216
 97
        0
 97
        0
 75
     2
 76
     1
 98
        0
  0
POLYLINE
  5
88
330
82
100
AcDbEntity
  8
_U+30EC_U+30A4_U+30E4_U+30FC 1
370
     0
100
AcDb2dPolyline
 66
     1
 10
0.0
 20
0.0
 30
0.0
  0
VERTEX
  5
89
330
88
100
AcDbEntity
  8
_U+30EC_U+30A4_U+30E4_U+30FC 1
370
     0
100
AcDbVertex
100
AcDb2dVertex
 10
66.44090574510852
 20
-133.2280435864847
 30
0.0
  0
VERTEX
  5
8A
330
88
100
AcDbEntity
  8
_U+30EC_U+30A4_U+30E4_U+30FC 1
370
     0
100
AcDbVertex
100
AcDb2dVertex
 10
66.18906926513677
 20
-133.2280435864847
 30
0.0
  0
VERTEX
  5
8B
330
88
100
AcDbEntity
  8
_U+30EC_U+30A4_U+30E4_U+30FC 1
370
     0
100
AcDbVertex
100
AcDb2dVertex
 10
66.18906926513677
 20
-132.9762071065129
 30
0.0
  0
VERTEX
  5
8C
330
88
100
AcDbEntity
  8
_U+30EC_U+30A4_U+30E4_U+30FC 1
370
     0
100
AcDbVertex
100
AcDb2dVertex
 10
66.44090574510852
 20
-132.9762071065129
 30
0.0
  0
VERTEX
  5
8D
330
88
100
AcDbEntity
  8
_U+30EC_U+30A4_U+30E4_U+30FC 1
370
     0
100
AcDbVertex
100
AcDb2dVertex
 10
66.44090574510852
 20
-133.2280435864847
 30
0.0
  0
SEQEND
  5
8E
330
88
100
AcDbEntity
  8
_U+30EC_U+30A4_U+30E4_U+30FC 1
370
     0
  0
HATCH
  5
8F
330
82
100
AcDbEntity
  8
_U+30EC_U+30A4_U+30E4_U+30FC 1
 62
   179
420
  2234388
100
AcDbHatch
 10
0.0
 20
0.0
 30
0.0
210
0.0
220
0.0
230
1.0
  2
SOLID
 70
     1
 71
     0
 91
        1
 92
        1
 93
        4
 72
     1
 10
66.44090574510852
 20
-133.2280435864847
 11
66.18906926513677
 21
-133.2280435864847
 72
     1
 10
66.18906926513677
 20
-133.2280435864847
 11
66.18906926513677
 21
-132.9762071065129
 72
     1
 10
66.18906926513677
 20
-132.9762071065129
 11
66.44090574510852
 21
-132.9762071065129
 72
     1
 10
66.44090574510852
 20
-132.9762071065129
 11
66.44090574510852
 21
-133.2280435864847
 97
        0
 75
     2
 76
     1
 98
        0
  0
SPLINE
  5
90
330
82
100
AcDbEntity
  8
_U+30EC_U+30A4_U+30E4_U+30FC 1
370
     0
100
AcDbSpline
210
0.0
220
0.0
230
1.0
 70
    11
 71
     3
 72
    44
 73
    40
 74
     0
 42
0.0000000001
 43
0.0000000001
 12
1.0
 22
0.0
 32
0.0
 13
1.0
 23
0.0
 33
0.0
 40
0.0
 40
0.0
 40
0.0
 40
0.0
 40
1.0
 40
1.0
 40
1.0
 40
2.0
 40
2.0
 40
2.0
 40
3.0
 40
3.0
 40
3.0
 40
4.0
 40
4.0
 40
4.0
 40
5.0
 40
5.0
 40
5.0
 40
6.0
 40
6.0
 40
6.0
 40
7.0
 40
7.0
 40
7.0
 40
8.0
 40
8.0
 40
8.0
 40
9.0
 40
9.0
 40
9.0
 40
10.0
 40
10.0
 40
10.0
 40
11.0
 40
11.0
 40
11.0
 40
12.0
 40
12.0
 40
12.0
 40
13.0
 40
13.0
 40
13.0
 40
13.0
 10
65.85902911764983
 20
-132.1469726232133
 30
0.0
 10
66.01784801951985
 20
-132.3647026578811
 30
0.0
 10
66.09191757245272
 20
-132.4577202359828
 30
0.0
 10
66.23557805418764
 20
-132.5066405918733
 30
0.0
 10
66.23557805418764
 20
-132.5066405918733
 30
0.0
 10
66.23557805418764
 20
-131.7280490122069
 30
0.0
 10
66.23557805418764
 20
-131.7280490122069
 30
0.0
 10
66.23557805418764
 20
-131.7280490122069
 30
0.0
 10
66.44090574510852
 20
-131.7280490122069
 30
0.0
 10
66.44090574510852
 20
-131.7280490122069
 30
0.0
 10
66.44090574510852
 20
-131.7280490122069
 30
0.0
 10
66.44090574510852
 20
-132.7560655050054
 30
0.0
 10
66.44090574510852
 20
-132.7560655050054
 30
0.0
 10
66.08330483373959
 20
-132.7243706265411
 30
0.0
 10
66.00510116622442
 20
-132.6589138123214
 30
0.0
 10
65.70675589720179
 20
-132.2737521370705
 30
0.0
 10
65.50797388770287
 20
-132.0177815425164
 30
0.0
 10
65.44010550664345
 20
-131.9523247282966
 30
0.0
 10
65.30264619678198
 20
-131.9523247282966
 30
0.0
 10
65.18413491208939
 20
-131.9523247282966
 30
0.0
 10
65.05322128364989
 20
-132.0243272239384
 30
0.0
 10
65.05322128364989
 20
-132.2210421761461
 30
0.0
 10
65.05322128364989
 20
-132.4811468852825
 30
0.0
 10
65.28369817161311
 20
-132.4894151144471
 30
0.0
 10
65.40014239901456
 20
-132.4938937385779
 30
0.0
 10
65.40014239901456
 20
-132.4938937385779
 30
0.0
 10
65.40014239901456
 20
-132.7181694546677
 30
0.0
 10
65.40014239901456
 20
-132.7181694546677
 30
0.0
 10
65.27301837560883
 20
-132.7095567159546
 30
0.0
 10
65.16105277233821
 20
-132.6988769199503
 30
0.0
 10
65.04254148764562
 20
-132.618606195144
 30
0.0
 10
64.88165552848444
 20
-132.5087076491645
 30
0.0
 10
64.84789359272901
 20
-132.3223279834125
 30
0.0
 10
64.84789359272901
 20
-132.2062282655596
 30
0.0
 10
64.84789359272901
 20
-131.928898078997
 30
0.0
 10
65.03186169164134
 20
-131.7215033307849
 30
0.0
 10
65.30471325407314
 20
-131.7215033307849
 30
0.0
 10
65.53346759429373
 20
-131.7215033307849
 30
0.0
 10
65.63268634426892
 20
-131.8379475581864
 30
0.0
 10
65.85902911764983
 20
-132.1469726232133
 30
0.0
  0
HATCH
  5
91
330
82
100
AcDbEntity
  8
_U+30EC_U+30A4_U+30E4_U+30FC 1
 62
   179
420
  2234388
100
AcDbHatch
 10
0.0
 20
0.0
 30
0.0
210
0.0
220
0.0
230
1.0
  2
SOLID
 70
     1
 71
     0
 91
        1
 92
        1
 93
        1
 72
     4
 94
        3
 73
     0
 74
     1
 95
       44
 96
       40
 40
0.0
 40
0.0
 40
0.0
 40
0.0
 40
1.0
 40
1.0
 40
1.0
 40
2.0
 40
2.0
 40
2.0
 40
3.0
 40
3.0
 40
3.0
 40
4.0
 40
4.0
 40
4.0
 40
5.0
 40
5.0
 40
5.0
 40
6.0
 40
6.0
 40
6.0
 40
7.0
 40
7.0
 40
7.0
 40
8.0
 40
8.0
 40
8.0
 40
9.0
 40
9.0
 40
9.0
 40
10.0
 40
10.0
 40
10.0
 40
11.0
 40
11.0
 40
11.0
 40
12.0
 40
12.0
 40
12.0
 40
13.0
 40
13.0
 40
13.0
 40
13.0
 10
65.85902911764983
 20
-132.1469726232133
 10
66.01784801951985
 20
-132.3647026578811
 10
66.09191757245272
 20
-132.4577202359828
 10
66.23557805418764
 20
-132.5066405918733
 10
66.23557805418764
 20
-132.5066405918733
 10
66.23557805418764
 20
-131.7280490122069
 10
66.23557805418764
 20
-131.7280490122069
 10
66.23557805418764
 20
-131.7280490122069
 10
66.44090574510852
 20
-131.7280490122069
 10
66.44090574510852
 20
-131.7280490122069
 10
66.44090574510852
 20
-131.7280490122069
 10
66.44090574510852
 20
-132.7560655050054
 10
66.44090574510852
 20
-132.7560655050054
 10
66.08330483373959
 20
-132.7243706265411
 10
66.00510116622442
 20
-132.6589138123214
 10
65.70675589720179
 20
-132.2737521370705
 10
65.50797388770287
 20
-132.0177815425164
 10
65.44010550664345
 20
-131.9523247282966
 10
65.30264619678198
 20
-131.9523247282966
 10
65.18413491208939
 20
-131.9523247282966
 10
65.05322128364989
 20
-132.0243272239384
 10
65.05322128364989
 20
-132.2210421761461
 10
65.05322128364989
 20
-132.4811468852825
 10
65.28369817161311
 20
-132.4894151144471
 10
65.40014239901456
 20
-132.4938937385779
 10
65.40014239901456
 20
-132.4938937385779
 10
65.40014239901456
 20
-132.7181694546677
 10
65.40014239901456
 20
-132.7181694546677
 10
65.27301837560883
 20
-132.7095567159546
 10
65.16105277233821
 20
-132.6988769199503
 10
65.04254148764562
 20
-132.618606195144
 10
64.88165552848444
 20
-132.5087076491645
 10
64.84789359272901
 20
-132.3223279834125
 10
64.84789359272901
 20
-132.2062282655596
 10
64.84789359272901
 20
-131.928898078997
 10
65.03186169164134
 20
-131.7215033307849
 10
65.30471325407314
 20
-131.7215033307849
 10
65.53346759429373
 20
-131.7215033307849
 10
65.63268634426892
 20
-131.8379475581864
 10
65.85902911764983
 20
-132.1469726232133
 97
        0
 97
        0
 75
     2
 76
     1
 98
        0
  0
ENDBLK
  5
85
330
82
100
AcDbEntity
  8
0
100
AcDbBlockEnd
  0
BLOCK
  5
A0
330
9E
100
AcDbEntity
  8
0
100
AcDbBlockBegin
  2
block 3
 70
     0
 10
0.0
 20
0.0
 30
0.0
  3
block 3
  1

  0
POLYLINE
  5
A2
330
9E
100
AcDbEntity
  8
_U+30EC_U+30A4_U+30E4_U+30FC 1
370
     0
100
AcDb2dPolyline
 66
     1
 10
0.0
 20
0.0
 30
0.0
  0
VERTEX
  5
A3
330
A2
100
AcDbEntity
  8
_U+30EC_U+30A4_U+30E4_U+30FC 1
370
     0
100
AcDbVertex
100
AcDb2dVertex
 10
90.70609128591722
 20
-140.4069335586483
 30
0.0
  0
VERTEX
  5
A4
330
A2
100
AcDbEntity
  8
_U+30EC_U+30A4_U+30E4_U+30FC 1
370
     0
100
AcDbVertex
100
AcDb2dVertex
 10
90.70609128591722
 20
-140.7538546740129
 30
0.0
  0
VERTEX
  5
A5
330
A2
100
AcDbEntity
  8
_U+30EC_U+30A4_U+30E4_U+30FC 1
370
     0
100
AcDbVertex
100
AcDb2dVertex
 10
90.48836125124944
 20
-140.7538546740129
 30
0.0
  0
VERTEX
  5
A6
330
A2
100
AcDbEntity
  8
_U+30EC_U+30A4_U+30E4_U+30FC 1
370
     0
100
AcDbVertex
100
AcDb2dVertex
 10
90.48836125124944
 20
-140.4069335586483
 30
0.0
  0
VERTEX
  5
A7
330
A2
100
AcDbEntity
  8
_U+30EC_U+30A4_U+30E4_U+30FC 1
370
     0
100
AcDbVertex
100
AcDb2dVertex
 10
89.83241507085788
 20
-140.4069335586483
 30
0.0
  0
VERTEX
  5
A8
330
A2
100
AcDbEntity
  8
_U+30EC_U+30A4_U+30E4_U+30FC 1
370
     0
100
AcDbVertex
100
AcDb2dVertex
 10
89.83241507085788
 20
-140.1826578425585
 30
0.0
  0
VERTEX
  5
A9
330
A2
100
AcDbEntity
  8
_U+30EC_U+30A4_U+30E4_U+30FC 1
370
     0
100
AcDbVertex
100
AcDb2dVertex
 10
90.51144339100061
 20
-139.2094183679754
 30
0.0
  0
VERTEX
  5
AA
330
A2
100
AcDbEntity
  8
_U+30EC_U+30A4_U+30E4_U+30FC 1
370
     0
100
AcDbVertex
100
AcDb2dVertex
 10
90.70609128591722
 20
-139.2094183679754
 30
0.0
  0
VERTEX
  5
AB
330
A2
100
AcDbEntity
  8
_U+30EC_U+30A4_U+30E4_U+30FC 1
370
     0
100
AcDbVertex
100
AcDb2dVertex
 10
90.70609128591722
 20
-140.2081515491494
 30
0.0
  0
VERTEX
  5
AC
330
A2
100
AcDbEntity
  8
_U+30EC_U+30A4_U+30E4_U+30FC 1
370
     0
100
AcDbVertex
100
AcDb2dVertex
 10
90.91348603412928
 20
-140.2081515491494
 30
0.0
  0
VERTEX
  5
AD
330
A2
100
AcDbEntity
  8
_U+30EC_U+30A4_U+30E4_U+30FC 1
370
     0
100
AcDbVertex
100
AcDb2dVertex
 10
90.91348603412928
 20
-140.4069335586483
 30
0.0
  0
VERTEX
  5
AE
330
A2
100
AcDbEntity
  8
_U+30EC_U+30A4_U+30E4_U+30FC 1
370
     0
100
AcDbVertex
100
AcDb2dVertex
 10
90.70609128591722
 20
-140.4069335586483
 30
0.0
  0
SEQEND
  5
AF
330
A2
100
AcDbEntity
  8
_U+30EC_U+30A4_U+30E4_U+30FC 1
370
     0
  0
POLYLINE
  5
B0
330
9E
100
AcDbEntity
  8
_U+30EC_U+30A4_U+30E4_U+30FC 1
370
     0
100
AcDb2dPolyline
 66
     1
 10
0.0
 20
0.0
 30
0.0
  0
VERTEX
  5
B1
330
B0
100
AcDbEntity
  8
_U+30EC_U+30A4_U+30E4_U+30FC 1
370
     0
100
AcDbVertex
100
AcDb2dVertex
 10
90.48836125124944
 20
-139.5522053687578
 30
0.0
  0
VERTEX
  5
B2
330
B0
100
AcDbEntity
  8
_U+30EC_U+30A4_U+30E4_U+30FC 1
370
     0
100
AcDbVertex
100
AcDb2dVertex
 10
90.03119708035679
 20
-140.2081515491494
 30
0.0
  0
VERTEX
  5
B3
330
B0
100
AcDbEntity
  8
_U+30EC_U+30A4_U+30E4_U+30FC 1
370
     0
100
AcDbVertex
100
AcDb2dVertex
 10
90.48836125124944
 20
-140.2081515491494
 30
0.0
  0
VERTEX
  5
B4
330
B0
100
AcDbEntity
  8
_U+30EC_U+30A4_U+30E4_U+30FC 1
370
     0
100
AcDbVertex
100
AcDb2dVertex
 10
90.48836125124944
 20
-139.5522053687578
 30
0.0
  0
SEQEND
  5
B5
330
B0
100
AcDbEntity
  8
_U+30EC_U+30A4_U+30E4_U+30FC 1
370
     0
  0
HATCH
  5
B6
330
9E
100
AcDbEntity
  8
_U+30EC_U+30A4_U+30E4_U+30FC 1
 62
   179
420
  2234388
100
AcDbHatch
 10
0.0
 20
0.0
 30
0.0
210
0.0
220
0.0
230
1.0
  2
SOLID
 70
     1
 71
     0
 91
        2
 92
        1
 93
       11
 72
     1
 10
90.70609128591722
 20
-140.4069335586483
 11
90.70609128591722
 21
-140.7538546740129
 72
     1
 10
90.70609128591722
 20
-140.7538546740129
 11
90.48836125124944
 21
-140.7538546740129
 72
     1
 10
90.48836125124944
 20
-140.7538546740129
 11
90.48836125124944
 21
-140.4069335586483
 72
     1
 10
90.48836125124944
 20
-140.4069335586483
 11
89.83241507085788
 21
-140.4069335586483
 72
     1
 10
89.83241507085788
 20
-140.4069335586483
 11
89.83241507085788
 21
-140.1826578425585
 72
     1
 10
89.83241507085788
 20
-140.1826578425585
 11
90.51144339100061
 21
-139.2094183679754
 72
     1
 10
90.51144339100061
 20
-139.2094183679754
 11
90.70609128591722
 21
-139.2094183679754
 72
     1
 10
90.70609128591722
 20
-139.2094183679754
 11
90.70609128591722
 21
-140.2081515491494
 72
     1
 10
90.70609128591722
 20
-140.2081515491494
 11
90.91348603412928
 21
-140.2081515491494
 72
     1
 10
90.91348603412928
 20
-140.2081515491494
 11
90.91348603412928
 21
-140.4069335586483
 72
     1
 10
90.91348603412928
 20
-140.4069335586483
 11
90.70609128591722
 21
-140.4069335586483
 97
        0
 92
        1
 93
        3
 72
     1
 10
90.48836125124944
 20
-139.5522053687578
 11
90.03119708035679
 21
-140.2081515491494
 72
     1
 10
90.03119708035679
 20
-140.2081515491494
 11
90.48836125124944
 21
-140.2081515491494
 72
     1
 10
90.48836125124944
 20
-140.2081515491494
 11
90.48836125124944
 21
-139.5522053687578
 97
        0
 75
     2
 76
     1
 98
        0
  0
POLYLINE
  5
B7
330
9E
100
AcDbEntity
  8
_U+30EC_U+30A4_U+30E4_U+30FC 1
370
     0
100
AcDb2dPolyline
 66
     1
 10
0.0
 20
0.0
 30
0.0
  0
VERTEX
  5
B8
330
B7
100
AcDbEntity
  8
_U+30EC_U+30A4_U+30E4_U+30FC 1
370
     0
100
AcDbVertex
100
AcDb2dVertex
 10
91.88276364890432
 20
-140.4069335586483
 30
0.0
  0
VERTEX
  5
B9
330
B7
100
AcDbEntity
  8
_U+30EC_U+30A4_U+30E4_U+30FC 1
370
     0
100
AcDbVertex
100
AcDb2dVertex
 10
91.88276364890432
 20
-140.7538546740129
 30
0.0
  0
VERTEX
  5
BA
330
B7
100
AcDbEntity
  8
_U+30EC_U+30A4_U+30E4_U+30FC 1
370
     0
100
AcDbVertex
100
AcDb2dVertex
 10
91.66503361423652
 20
-140.7538546740129
 30
0.0
  0
VERTEX
  5
BB
330
B7
100
AcDbEntity
  8
_U+30EC_U+30A4_U+30E4_U+30FC 1
370
     0
100
AcDbVertex
100
AcDb2dVertex
 10
91.66503361423652
 20
-140.4069335586483
 30
0.0
  0
VERTEX
  5
BC
330
B7
100
AcDbEntity
  8
_U+30EC_U+30A4_U+30E4_U+30FC 1
370
     0
100
AcDbVertex
100
AcDb2dVertex
 10
91.00925968861922
 20
-140.4069335586483
 30
0.0
  0
VERTEX
  5
BD
330
B7
100
AcDbEntity
  8
_U+30EC_U+30A4_U+30E4_U+30FC 1
370
     0
100
AcDbVertex
100
AcDb2dVertex
 10
91.00925968861922
 20
-140.1826578425585
 30
0.0
  0
VERTEX
  5
BE
330
B7
100
AcDbEntity
  8
_U+30EC_U+30A4_U+30E4_U+30FC 1
370
     0
100
AcDbVertex
100
AcDb2dVertex
 10
91.68846026353623
 20
-139.2094183679754
 30
0.0
  0
VERTEX
  5
BF
330
B7
100
AcDbEntity
  8
_U+30EC_U+30A4_U+30E4_U+30FC 1
370
     0
100
AcDbVertex
100
AcDb2dVertex
 10
91.88276364890432
 20
-139.2094183679754
 30
0.0
  0
VERTEX
  5
C0
330
B7
100
AcDbEntity
  8
_U+30EC_U+30A4_U+30E4_U+30FC 1
370
     0
100
AcDbVertex
100
AcDb2dVertex
 10
91.88276364890432
 20
-140.2081515491494
 30
0.0
  0
VERTEX
  5
C1
330
B7
100
AcDbEntity
  8
_U+30EC_U+30A4_U+30E4_U+30FC 1
370
     0
100
AcDbVertex
100
AcDb2dVertex
 10
92.09015839711635
 20
-140.2081515491494
 30
0.0
  0
VERTEX
  5
C2
330
B7
100
AcDbEntity
  8
_U+30EC_U+30A4_U+30E4_U+30FC 1
370
     0
100
AcDbVertex
100
AcDb2dVertex
 10
92.09015839711635
 20
-140.4069335586483
 30
0.0
  0
VERTEX
  5
C3
330
B7
100
AcDbEntity
  8
_U+30EC_U+30A4_U+30E4_U+30FC 1
370
     0
100
AcDbVertex
100
AcDb2dVertex
 10
91.88276364890432
 20
-140.4069335586483
 30
0.0
  0
SEQEND
  5
C4
330
B7
100
AcDbEntity
  8
_U+30EC_U+30A4_U+30E4_U+30FC 1
370
     0
  0
POLYLINE
  5
C5
330
9E
100
AcDbEntity
  8
_U+30EC_U+30A4_U+30E4_U+30FC 1
370
     0
100
AcDb2dPolyline
 66
     1
 10
0.0
 20
0.0
 30
0.0
  0
VERTEX
  5
C6
330
C5
100
AcDbEntity
  8
_U+30EC_U+30A4_U+30E4_U+30FC 1
370
     0
100
AcDbVertex
100
AcDb2dVertex
 10
91.66503361423652
 20
-139.5522053687578
 30
0.0
  0
VERTEX
  5
C7
330
C5
100
AcDbEntity
  8
_U+30EC_U+30A4_U+30E4_U+30FC 1
370
     0
100
AcDbVertex
100
AcDb2dVertex
 10
91.20804169811814
 20
-140.2081515491494
 30
0.0
  0
VERTEX
  5
C8
330
C5
100
AcDbEntity
  8
_U+30EC_U+30A4_U+30E4_U+30FC 1
370
     0
100
AcDbVertex
100
AcDb2dVertex
 10
91.66503361423652
 20
-140.2081515491494
 30
0.0
  0
VERTEX
  5
C9
330
C5
100
AcDbEntity
  8
_U+30EC_U+30A4_U+30E4_U+30FC 1
370
     0
100
AcDbVertex
100
AcDb2dVertex
 10
91.66503361423652
 20
-139.5522053687578
 30
0.0
  0
SEQEND
  5
CA
330
C5
100
AcDbEntity
  8
_U+30EC_U+30A4_U+30E4_U+30FC 1
370
     0
  0
HATCH
  5
CB
330
9E
100
AcDbEntity
  8
_U+30EC_U+30A4_U+30E4_U+30FC 1
 62
   179
420
  2234388
100
AcDbHatch
 10
0.0
 20
0.0
 30
0.0
210
0.0
220
0.0
230
1.0
  2
SOLID
 70
     1
 71
     0
 91
        2
 92
        1
 93
       11
 72
     1
 10
91.88276364890432
 20
-140.4069335586483
 11
91.88276364890432
 21
-140.7538546740129
 72
     1
 10
91.88276364890432
 20
-140.7538546740129
 11
91.66503361423652
 21
-140.7538546740129
 72
     1
 10
91.66503361423652
 20
-140.7538546740129
 11
91.66503361423652
 21
-140.4069335586483
 72
     1
 10
91.66503361423652
 20
-140.4069335586483
 11
91.00925968861922
 21
-140.4069335586483
 72
     1
 10
91.00925968861922
 20
-140.4069335586483
 11
91.00925968861922
 21
-140.1826578425585
 72
     1
 10
91.00925968861922
 20
-140.1826578425585
 11
91.68846026353623
 21
-139.2094183679754
 72
     1
 10
91.68846026353623
 20
-139.2094183679754
 11
91.88276364890432
 21
-139.2094183679754
 72
     1
 10
91.88276364890432
 20
-139.2094183679754
 11
91.88276364890432
 21
-140.2081515491494
 72
     1
 10
91.88276364890432
 20
-140.2081515491494
 11
92.09015839711635
 21
-140.2081515491494
 72
     1
 10
92.09015839711635
 20
-140.2081515491494
 11
92.09015839711635
 21
-140.4069335586483
 72
     1
 10
92.09015839711635
 20
-140.4069335586483
 11
91.88276364890432
 21
-140.4069335586483
 97
        0
 92
        1
 93
        3
 72
     1
 10
91.66503361423652
 20
-139.5522053687578
 11
91.20804169811814
 21
-140.2081515491494
 72
     1
 10
91.20804169811814
 20
-140.2081515491494
 11
91.66503361423652
 21
-140.2081515491494
 72
     1
 10
91.66503361423652
 20
-140.2081515491494
 11
91.66503361423652
 21
-139.5522053687578
 97
        0
 75
     2
 76
     1
 98
        0
  0
ENDBLK
  5
A1
330
9E
100
AcDbEntity
  8
0
100
AcDbBlockEnd
  0
BLOCK
  5
DA
330
D8
100
AcDbEntity
  8
0
100
AcDbBlockBegin
  2
block 4
 70
     0
 10
0.0
 20
0.0
 30
0.0
  3
block 4
  1

  0
SPLINE
  5
DC
330
D8
100
AcDbEntity
  8
_U+30EC_U+30A4_U+30E4_U+30FC 1
370
     0
100
AcDbSpline
210
0.0
220
0.0
230
1.0
 70
    11
 71
     3
 72
    26
 73
    22
 74
     0
 42
0.0000000001
 43
0.0000000001
 12
1.0
 22
0.0
 32
0.0
 13
1.0
 23
0.0
 33
0.0
 40
0.0
 40
0.0
 40
0.0
 40
0.0
 40
1.0
 40
1.0
 40
1.0
 40
2.0
 40
2.0
 40
2.0
 40
3.0
 40
3.0
 40
3.0
 40
4.0
 40
4.0
 40
4.0
 40
5.0
 40
5.0
 40
5.0
 40
6.0
 40
6.0
 40
6.0
 40
7.0
 40
7.0
 40
7.0
 40
7.0
 10
116.4421603441534
 20
-132.7812147020477
 30
0.0
 10
116.4421603441534
 20
-132.7812147020477
 30
0.0
 10
115.3376627315823
 20
-132.7812147020477
 30
0.0
 10
115.3376627315823
 20
-132.7812147020477
 30
0.0
 10
115.3376627315823
 20
-132.7812147020477
 30
0.0
 10
115.3376627315823
 20
-133.1112548495347
 30
0.0
 10
115.3376627315823
 20
-133.1112548495347
 30
0.0
 10
115.3376627315823
 20
-133.1112548495347
 30
0.0
 10
115.1895236257165
 20
-133.1112548495347
 30
0.0
 10
115.1895236257165
 20
-133.1112548495347
 30
0.0
 10
115.1750542246785
 20
-132.7791476447566
 30
0.0
 10
115.0117566986776
 20
-132.7326388557057
 30
0.0
 10
114.8973795285673
 20
-132.7030110345326
 30
0.0
 10
114.8973795285673
 20
-132.7030110345326
 30
0.0
 10
114.8973795285673
 20
-132.556938985958
 30
0.0
 10
114.8973795285673
 20
-132.556938985958
 30
0.0
 10
114.8973795285673
 20
-132.556938985958
 30
0.0
 10
116.4421603441534
 20
-132.556938985958
 30
0.0
 10
116.4421603441534
 20
-132.556938985958
 30
0.0
 10
116.4421603441534
 20
-132.556938985958
 30
0.0
 10
116.4421603441534
 20
-132.7812147020477
 30
0.0
 10
116.4421603441534
 20
-132.7812147020477
 30
0.0
  0
HATCH
  5
DD
330
D8
100
AcDbEntity
  8
_U+30EC_U+30A4_U+30E4_U+30FC 1
 62
   179
420
  2234388
100
AcDbHatch
 10
0.0
 20
0.0
 30
0.0
210
0.0
220
0.0
230
1.0
  2
SOLID
 70
     1
 71
     0
 91
        1
 92
        1
 93
        1
 72
     4
 94
        3
 73
     0
 74
     1
 95
       26
 96
       22
 40
0.0
 40
0.0
 40
0.0
 40
0.0
 40
1.0
 40
1.0
 40
1.0
 40
2.0
 40
2.0
 40
2.0
 40
3.0
 40
3.0
 40
3.0
 40
4.0
 40
4.0
 40
4.0
 40
5.0
 40
5.0
 40
5.0
 40
6.0
 40
6.0
 40
6.0
 40
7.0
 40
7.0
 40
7.0
 40
7.0
 10
116.4421603441534
 20
-132.7812147020477
 10
116.4421603441534
 20
-132.7812147020477
 10
115.3376627315823
 20
-132.7812147020477
 10
115.3376627315823
 20
-132.7812147020477
 10
115.3376627315823
 20
-132.7812147020477
 10
115.3376627315823
 20
-133.1112548495347
 10
115.3376627315823
 20
-133.1112548495347
 10
115.3376627315823
 20
-133.1112548495347
 10
115.1895236257165
 20
-133.1112548495347
 10
115.1895236257165
 20
-133.1112548495347
 10
115.1750542246785
 20
-132.7791476447566
 10
115.0117566986776
 20
-132.7326388557057
 10
114.8973795285673
 20
-132.7030110345326
 10
114.8973795285673
 20
-132.7030110345326
 10
114.8973795285673
 20
-132.556938985958
 10
114.8973795285673
 20
-132.556938985958
 10
114.8973795285673
 20
-132.556938985958
 10
116.4421603441534
 20
-132.556938985958
 10
116.4421603441534
 20
-132.556938985958
 10
116.4421603441534
 20
-132.556938985958
 10
116.4421603441534
 20
-132.7812147020477
 10
116.4421603441534
 20
-132.7812147020477
 97
        0
 97
        0
 75
     2
 76
     1
 98
        0
  0
SPLINE
  5
DE
330
D8
100
AcDbEntity
  8
_U+30EC_U+30A4_U+30E4_U+30FC 1
370
     0
100
AcDbSpline
210
0.0
220
0.0
230
1.0
 70
    11
 71
     3
 72
    26
 73
    22
 74
     0
 42
0.0000000001
 43
0.0000000001
 12
1.0
 22
0.0
 32
0.0
 13
1.0
 23
0.0
 33
0.0
 40
0.0
 40
0.0
 40
0.0
 40
0.0
 40
1.0
 40
1.0
 40
1.0
 40
2.0
 40
2.0
 40
2.0
 40
3.0
 40
3.0
 40
3.0
 40
4.0
 40
4.0
 40
4.0
 40
5.0
 40
5.0
 40
5.0
 40
6.0
 40
6.0
 40
6.0
 40
7.0
 40
7.0
 40
7.0
 40
7.0
 10
116.4421603441534
 20
-131.6043700842864
 30
0.0
 10
116.4421603441534
 20
-131.6043700842864
 30
0.0
 10
115.3376627315823
 20
-131.6043700842864
 30
0.0
 10
115.3376627315823
 20
-131.6043700842864
 30
0.0
 10
115.3376627315823
 20
-131.6043700842864
 30
0.0
 10
115.3376627315823
 20
-131.9344102317733
 30
0.0
 10
115.3376627315823
 20
-131.9344102317733
 30
0.0
 10
115.3376627315823
 20
-131.9344102317733
 30
0.0
 10
115.1895236257165
 20
-131.9344102317733
 30
0.0
 10
115.1895236257165
 20
-131.9344102317733
 30
0.0
 10
115.1750542246785
 20
-131.6023030269953
 30
0.0
 10
115.0117566986776
 20
-131.5557942379444
 30
0.0
 10
114.8973795285673
 20
-131.5261664167712
 30
0.0
 10
114.8973795285673
 20
-131.5261664167712
 30
0.0
 10
114.8973795285673
 20
-131.3800943681966
 30
0.0
 10
114.8973795285673
 20
-131.3800943681966
 30
0.0
 10
114.8973795285673
 20
-131.3800943681966
 30
0.0
 10
116.4421603441534
 20
-131.3800943681966
 30
0.0
 10
116.4421603441534
 20
-131.3800943681966
 30
0.0
 10
116.4421603441534
 20
-131.3800943681966
 30
0.0
 10
116.4421603441534
 20
-131.6043700842864
 30
0.0
 10
116.4421603441534
 20
-131.6043700842864
 30
0.0
  0
HATCH
  5
DF
330
D8
100
AcDbEntity
  8
_U+30EC_U+30A4_U+30E4_U+30FC 1
 62
   179
420
  2234388
100
AcDbHatch
 10
0.0
 20
0.0
 30
0.0
210
0.0
220
0.0
230
1.0
  2
SOLID
 70
     1
 71
     0
 91
        1
 92
        1
 93
        1
 72
     4
 94
        3
 73
     0
 74
     1
 95
       26
 96
       22
 40
0.0
 40
0.0
 40
0.0
 40
0.0
 40
1.0
 40
1.0
 40
1.0
 40
2.0
 40
2.0
 40
2.0
 40
3.0
 40
3.0
 40
3.0
 40
4.0
 40
4.0
 40
4.0
 40
5.0
 40
5.0
 40
5.0
 40
6.0
 40
6.0
 40
6.0
 40
7.0
 40
7.0
 40
7.0
 40
7.0
 10
116.4421603441534
 20
-131.6043700842864
 10
116.4421603441534
 20
-131.6043700842864
 10
115.3376627315823
 20
-131.6043700842864
 10
115.3376627315823
 20
-131.6043700842864
 10
115.3376627315823
 20
-131.6043700842864
 10
115.3376627315823
 20
-131.9344102317733
 10
115.3376627315823
 20
-131.9344102317733
 10
115.3376627315823
 20
-131.9344102317733
 10
115.1895236257165
 20
-131.9344102317733
 10
115.1895236257165
 20
-131.9344102317733
 10
115.1750542246785
 20
-131.6023030269953
 10
115.0117566986776
 20
-131.5557942379444
 10
114.8973795285673
 20
-131.5261664167712
 10
114.8973795285673
 20
-131.5261664167712
 10
114.8973795285673
 20
-131.3800943681966
 10
114.8973795285673
 20
-131.3800943681966
 10
114.8973795285673
 20
-131.3800943681966
 10
116.4421603441534
 20
-131.3800943681966
 10
116.4421603441534
 20
-131.3800943681966
 10
116.4421603441534
 20
-131.3800943681966
 10
116.4421603441534
 20
-131.6043700842864
 10
116.4421603441534
 20
-131.6043700842864
 97
        0
 97
        0
 75
     2
 76
     1
 98
        0
  0
POLYLINE
  5
E0
330
D8
100
AcDbEntity
  8
_U+30EC_U+30A4_U+30E4_U+30FC 1
370
     0
100
AcDb2dPolyline
 66
     1
 10
0.0
 20
0.0
 30
0.0
  0
VERTEX
  5
E1
330
E0
100
AcDbEntity
  8
_U+30EC_U+30A4_U+30E4_U+30FC 1
370
     0
100
AcDbVertex
100
AcDb2dVertex
 10
116.4421603441534
 20
-130.8188883136494
 30
0.0
  0
VERTEX
  5
E2
330
E0
100
AcDbEntity
  8
_U+30EC_U+30A4_U+30E4_U+30FC 1
370
     0
100
AcDbVertex
100
AcDb2dVertex
 10
116.1899793546331
 20
-130.8188883136494
 30
0.0
  0
VERTEX
  5
E3
330
E0
100
AcDbEntity
  8
_U+30EC_U+30A4_U+30E4_U+30FC 1
370
     0
100
AcDbVertex
100
AcDb2dVertex
 10
116.1899793546331
 20
-130.5670518336777
 30
0.0
  0
VERTEX
  5
E4
330
E0
100
AcDbEntity
  8
_U+30EC_U+30A4_U+30E4_U+30FC 1
370
     0
100
AcDbVertex
100
AcDb2dVertex
 10
116.4421603441534
 20
-130.5670518336777
 30
0.0
  0
VERTEX
  5
E5
330
E0
100
AcDbEntity
  8
_U+30EC_U+30A4_U+30E4_U+30FC 1
370
     0
100
AcDbVertex
100
AcDb2dVertex
 10
116.4421603441534
 20
-130.8188883136494
 30
0.0
  0
SEQEND
  5
E6
330
E0
100
AcDbEntity
  8
_U+30EC_U+30A4_U+30E4_U+30FC 1
370
     0
  0
HATCH
  5
E7
330
D8
100
AcDbEntity
  8
_U+30EC_U+30A4_U+30E4_U+30FC 1
 62
   179
420
  2234388
100
AcDbHatch
 10
0.0
 20
0.0
 30
0.0
210
0.0
220
0.0
230
1.0
  2
SOLID
 70
     1
 71
     0
 91
        1
 92
        1
 93
        4
 72
     1
 10
116.4421603441534
 20
-130.8188883136494
 11
116.1899793546331
 21
-130.8188883136494
 72
     1
 10
116.1899793546331
 20
-130.8188883136494
 11
116.1899793546331
 21
-130.5670518336777
 72
     1
 10
116.1899793546331
 20
-130.5670518336777
 11
116.4421603441534
 21
-130.5670518336777
 72
     1
 10
116.4421603441534
 20
-130.5670518336777
 11
116.4421603441534
 21
-130.8188883136494
 97
        0
 75
     2
 76
     1
 98
        0
  0
SPLINE
  5
E8
330
D8
100
AcDbEntity
  8
_U+30EC_U+30A4_U+30E4_U+30FC 1
370
     0
100
AcDbSpline
210
0.0
220
0.0
230
1.0
 70
    11
 71
     3
 72
    32
 73
    28
 74
     0
 42
0.0000000001
 43
0.0000000001
 12
1.0
 22
0.0
 32
0.0
 13
1.0
 23
0.0
 33
0.0
 40
0.0
 40
0.0
 40
0.0
 40
0.0
 40
1.0
 40
1.0
 40
1.0
 40
2.0
 40
2.0
 40
2.0
 40
3.0
 40
3.0
 40
3.0
 40
4.0
 40
4.0
 40
4.0
 40
5.0
 40
5.0
 40
5.0
 40
6.0
 40
6.0
 40
6.0
 40
7.0
 40
7.0
 40
7.0
 40
8.0
 40
8.0
 40
8.0
 40
9.0
 40
9.0
 40
9.0
 40
9.0
 10
116.492458738238
 20
-129.8732096029484
 30
0.0
 10
116.492458738238
 20
-130.0464979058564
 30
0.0
 10
116.422867809436
 20
-130.2921332139547
 30
0.0
 10
116.0907606046579
 20
-130.3300292642925
 30
0.0
 10
116.0907606046579
 20
-130.3300292642925
 30
0.0
 10
116.0907606046579
 20
-130.116433344207
 30
0.0
 10
116.0907606046579
 20
-130.116433344207
 30
0.0
 10
116.1500162470042
 20
-130.1057535482027
 30
0.0
 10
116.2981553528699
 20
-130.0740586697384
 30
0.0
 10
116.2981553528699
 20
-129.8711425456572
 30
0.0
 10
116.2981553528699
 20
-129.578998448508
 30
0.0
 10
115.968115205383
 20
-129.5411023981703
 30
0.0
 10
115.7627875144621
 20
-129.5283555448749
 30
0.0
 10
115.8434027488169
 20
-129.6193060656855
 30
0.0
 10
115.9005913338721
 20
-129.6868299371964
 30
0.0
 10
115.9005913338721
 20
-129.8687309788176
 30
0.0
 10
115.9005913338721
 20
-130.0485649631476
 30
0.0
 10
115.7944823929264
 20
-130.351388856301
 30
0.0
 10
115.388650144764
 20
-130.351388856301
 30
0.0
 10
115.0689452837328
 20
-130.351388856301
 30
0.0
 10
114.8491481917738
 20
-130.1522623372536
 30
0.0
 10
114.8491481917738
 20
-129.8349690430621
 30
0.0
 10
114.8491481917738
 20
-129.3209607966628
 30
0.0
 10
115.403119545802
 20
-129.3102810006585
 30
0.0
 10
115.6167154658875
 20
-129.3102810006585
 30
0.0
 10
115.8475368633992
 20
-129.3102810006585
 30
0.0
 10
116.492458738238
 20
-129.3295735353759
 30
0.0
 10
116.492458738238
 20
-129.8732096029484
 30
0.0
  0
SPLINE
  5
E9
330
D8
100
AcDbEntity
  8
_U+30EC_U+30A4_U+30E4_U+30FC 1
370
     0
100
AcDbSpline
210
0.0
220
0.0
230
1.0
 70
    11
 71
     3
 72
    17
 73
    13
 74
     0
 42
0.0000000001
 43
0.0000000001
 12
1.0
 22
0.0
 32
0.0
 13
1.0
 23
0.0
 33
0.0
 40
0.0
 40
0.0
 40
0.0
 40
0.0
 40
1.0
 40
1.0
 40
1.0
 40
2.0
 40
2.0
 40
2.0
 40
3.0
 40
3.0
 40
3.0
 40
4.0
 40
4.0
 40
4.0
 40
4.0
 10
115.0413845198508
 20
-129.8329019857709
 30
0.0
 10
115.0413845198508
 20
-129.9514132704635
 30
0.0
 10
115.0985731049059
 20
-130.1271131402113
 30
0.0
 10
115.3845160301817
 20
-130.1271131402113
 30
0.0
 10
115.610514294014
 20
-130.1271131402113
 30
0.0
 10
115.7055989294069
 20
-129.9872422635101
 30
0.0
 10
115.7055989294069
 20
-129.8518500109398
 30
0.0
 10
115.7055989294069
 20
-129.5896782445123
 30
0.0
 10
115.4961371239038
 20
-129.551437684626
 30
0.0
 10
115.3796928965023
 20
-129.551437684626
 30
0.0
 10
115.2046820458516
 20
-129.551437684626
 30
0.0
 10
115.0413845198508
 20
-129.6468668295674
 30
0.0
 10
115.0413845198508
 20
-129.8329019857709
 30
0.0
  0
HATCH
  5
EA
330
D8
100
AcDbEntity
  8
_U+30EC_U+30A4_U+30E4_U+30FC 1
 62
   179
420
  2234388
100
AcDbHatch
 10
0.0
 20
0.0
 30
0.0
210
0.0
220
0.0
230
1.0
  2
SOLID
 70
     1
 71
     0
 91
        2
 92
        1
 93
        1
 72
     4
 94
        3
 73
     0
 74
     1
 95
       32
 96
       28
 40
0.0
 40
0.0
 40
0.0
 40
0.0
 40
1.0
 40
1.0
 40
1.0
 40
2.0
 40
2.0
 40
2.0
 40
3.0
 40
3.0
 40
3.0
 40
4.0
 40
4.0
 40
4.0
 40
5.0
 40
5.0
 40
5.0
 40
6.0
 40
6.0
 40
6.0
 40
7.0
 40
7.0
 40
7.0
 40
8.0
 40
8.0
 40
8.0
 40
9.0
 40
9.0
 40
9.0
 40
9.0
 10
116.492458738238
 20
-129.8732096029484
 10
116.492458738238
 20
-130.0464979058564
 10
116.422867809436
 20
-130.2921332139547
 10
116.0907606046579
 20
-130.3300292642925
 10
116.0907606046579
 20
-130.3300292642925
 10
116.0907606046579
 20
-130.116433344207
 10
116.0907606046579
 20
-130.116433344207
 10
116.1500162470042
 20
-130.1057535482027
 10
116.2981553528699
 20
-130.0740586697384
 10
116.2981553528699
 20
-129.8711425456572
 10
116.2981553528699
 20
-129.578998448508
 10
115.968115205383
 20
-129.5411023981703
 10
115.7627875144621
 20
-129.5283555448749
 10
115.8434027488169
 20
-129.6193060656855
 10
115.9005913338721
 20
-129.6868299371964
 10
115.9005913338721
 20
-129.8687309788176
 10
115.9005913338721
 20
-130.0485649631476
 10
115.7944823929264
 20
-130.351388856301
 10
115.388650144764
 20
-130.351388856301
 10
115.0689452837328
 20
-130.351388856301
 10
114.8491481917738
 20
-130.1522623372536
 10
114.8491481917738
 20
-129.8349690430621
 10
114.8491481917738
 20
-129.3209607966628
 10
115.403119545802
 20
-129.3102810006585
 10
115.6167154658875
 20
-129.3102810006585
 10
115.8475368633992
 20
-129.3102810006585
 10
116.492458738238
 20
-129.3295735353759
 10
116.492458738238
 20
-129.8732096029484
 97
        0
 97
        0
 92
        1
 93
        1
 72
     4
 94
        3
 73
     0
 74
     1
 95
       17
 96
       13
 40
0.0
 40
0.0
 40
0.0
 40
0.0
 40
1.0
 40
1.0
 40
1.0
 40
2.0
 40
2.0
 40
2.0
 40
3.0
 40
3.0
 40
3.0
 40
4.0
 40
4.0
 40
4.0
 40
4.0
 10
115.0413845198508
 20
-129.8329019857709
 10
115.0413845198508
 20
-129.9514132704635
 10
115.0985731049059
 20
-130.1271131402113
 10
115.3845160301817
 20
-130.1271131402113
 10
115.610514294014
 20
-130.1271131402113
 10
115.7055989294069
 20
-129.9872422635101
 10
115.7055989294069
 20
-129.8518500109398
 10
115.7055989294069
 20
-129.5896782445123
 10
115.4961371239038
 20
-129.551437684626
 10
115.3796928965023
 20
-129.551437684626
 10
115.2046820458516
 20
-129.551437684626
 10
115.0413845198508
 20
-129.6468668295674
 10
115.0413845198508
 20
-129.8329019857709
 97
        0
 97
        0
 75
     2
 76
     1
 98
        0
  0
ENDBLK
  5
DB
330
D8
100
AcDbEntity
  8
0
100
AcDbBlockEnd
  0
BLOCK
  5
F9
330
F7
100
AcDbEntity
  8
0
100
AcDbBlockBegin
  2
block 5
 70
     0
 10
0.0
 20
0.0
 30
0.0
  3
block 5
  1

  0
SPLINE
  5
FB
330
F7
100
AcDbEntity
  8
_U+30EC_U+30A4_U+30E4_U+30FC 1
370
     0
100
AcDbSpline
210
0.0
220
0.0
230
1.0
 70
    11
 71
     3
 72
    26
 73
    22
 74
     0
 42
0.0000000001
 43
0.0000000001
 12
1.0
 22
0.0
 32
0.0
 13
1.0
 23
0.0
 33
0.0
 40
0.0
 40
0.0
 40
0.0
 40
0.0
 40
1.0
 40
1.0
 40
1.0
 40
2.0
 40
2.0
 40
2.0
 40
3.0
 40
3.0
 40
3.0
 40
4.0
 40
4.0
 40
4.0
 40
5.0
 40
5.0
 40
5.0
 40
6.0
 40
6.0
 40
6.0
 40
7.0
 40
7.0
 40
7.0
 40
7.0
 10
103.8255316580714
 20
-120.8539496225643
 30
0.0
 10
103.8255316580714
 20
-120.8539496225643
 30
0.0
 10
103.8255316580714
 20
-119.7497965195417
 30
0.0
 10
103.8255316580714
 20
-119.7497965195417
 30
0.0
 10
103.8255316580714
 20
-119.7497965195417
 30
0.0
 10
103.4954915105845
 20
-119.7497965195417
 30
0.0
 10
103.4954915105845
 20
-119.7497965195417
 30
0.0
 10
103.4954915105845
 20
-119.7497965195417
 30
0.0
 10
103.4954915105845
 20
-119.601657413676
 30
0.0
 10
103.4954915105845
 20
-119.601657413676
 30
0.0
 10
103.8275987153626
 20
-119.5868435030894
 30
0.0
 10
103.8737629948649
 20
-119.4238904866371
 30
0.0
 10
103.903390816038
 20
-119.3095133165268
 30
0.0
 10
103.903390816038
 20
-119.3095133165268
 30
0.0
 10
104.0494628646126
 20
-119.3095133165268
 30
0.0
 10
104.0494628646126
 20
-119.3095133165268
 30
0.0
 10
104.0494628646126
 20
-119.3095133165268
 30
0.0
 10
104.0494628646126
 20
-120.8539496225643
 30
0.0
 10
104.0494628646126
 20
-120.8539496225643
 30
0.0
 10
104.0494628646126
 20
-120.8539496225643
 30
0.0
 10
103.8255316580714
 20
-120.8539496225643
 30
0.0
 10
103.8255316580714
 20
-120.8539496225643
 30
0.0
  0
HATCH
  5
FC
330
F7
100
AcDbEntity
  8
_U+30EC_U+30A4_U+30E4_U+30FC 1
 62
   179
420
  2234388
100
AcDbHatch
 10
0.0
 20
0.0
 30
0.0
210
0.0
220
0.0
230
1.0
  2
SOLID
 70
     1
 71
     0
 91
        1
 92
        1
 93
        1
 72
     4
 94
        3
 73
     0
 74
     1
 95
       26
 96
       22
 40
0.0
 40
0.0
 40
0.0
 40
0.0
 40
1.0
 40
1.0
 40
1.0
 40
2.0
 40
2.0
 40
2.0
 40
3.0
 40
3.0
 40
3.0
 40
4.0
 40
4.0
 40
4.0
 40
5.0
 40
5.0
 40
5.0
 40
6.0
 40
6.0
 40
6.0
 40
7.0
 40
7.0
 40
7.0
 40
7.0
 10
103.8255316580714
 20
-120.8539496225643
 10
103.8255316580714
 20
-120.8539496225643
 10
103.8255316580714
 20
-119.7497965195417
 10
103.8255316580714
 20
-119.7497965195417
 10
103.8255316580714
 20
-119.7497965195417
 10
103.4954915105845
 20
-119.7497965195417
 10
103.4954915105845
 20
-119.7497965195417
 10
103.4954915105845
 20
-119.7497965195417
 10
103.4954915105845
 20
-119.601657413676
 10
103.4954915105845
 20
-119.601657413676
 10
103.8275987153626
 20
-119.5868435030894
 10
103.8737629948649
 20
-119.4238904866371
 10
103.903390816038
 20
-119.3095133165268
 10
103.903390816038
 20
-119.3095133165268
 10
104.0494628646126
 20
-119.3095133165268
 10
104.0494628646126
 20
-119.3095133165268
 10
104.0494628646126
 20
-119.3095133165268
 10
104.0494628646126
 20
-120.8539496225643
 10
104.0494628646126
 20
-120.8539496225643
 10
104.0494628646126
 20
-120.8539496225643
 10
103.8255316580714
 20
-120.8539496225643
 10
103.8255316580714
 20
-120.8539496225643
 97
        0
 97
        0
 75
     2
 76
     1
 98
        0
  0
SPLINE
  5
FD
330
F7
100
AcDbEntity
  8
_U+30EC_U+30A4_U+30E4_U+30FC 1
370
     0
100
AcDbSpline
210
0.0
220
0.0
230
1.0
 70
    11
 71
     3
 72
    26
 73
    22
 74
     0
 42
0.0000000001
 43
0.0000000001
 12
1.0
 22
0.0
 32
0.0
 13
1.0
 23
0.0
 33
0.0
 40
0.0
 40
0.0
 40
0.0
 40
0.0
 40
1.0
 40
1.0
 40
1.0
 40
2.0
 40
2.0
 40
2.0
 40
3.0
 40
3.0
 40
3.0
 40
4.0
 40
4.0
 40
4.0
 40
5.0
 40
5.0
 40
5.0
 40
6.0
 40
6.0
 40
6.0
 40
7.0
 40
7.0
 40
7.0
 40
7.0
 10
104.9617241491068
 20
-120.8539496225643
 30
0.0
 10
104.9617241491068
 20
-120.8539496225643
 30
0.0
 10
104.7247015797216
 20
-120.8539496225643
 30
0.0
 10
104.7247015797216
 20
-120.8539496225643
 30
0.0
 10
104.7501952863125
 20
-120.5449245575374
 30
0.0
 10
104.9431206334864
 20
-120.0267821965558
 30
0.0
 10
105.3489528816489
 20
-119.5210421793211
 30
0.0
 10
105.3489528816489
 20
-119.5210421793211
 30
0.0
 10
104.5111056596361
 20
-119.5210421793211
 30
0.0
 10
104.5111056596361
 20
-119.5210421793211
 30
0.0
 10
104.5111056596361
 20
-119.5210421793211
 30
0.0
 10
104.5111056596361
 20
-119.3095133165268
 30
0.0
 10
104.5111056596361
 20
-119.3095133165268
 30
0.0
 10
104.5111056596361
 20
-119.3095133165268
 30
0.0
 10
105.5859754510341
 20
-119.3095133165268
 30
0.0
 10
105.5859754510341
 20
-119.3095133165268
 30
0.0
 10
105.5859754510341
 20
-119.3095133165268
 30
0.0
 10
105.5859754510341
 20
-119.5210421793211
 30
0.0
 10
105.5859754510341
 20
-119.5210421793211
 30
0.0
 10
105.2621364754206
 20
-119.8111192191792
 30
0.0
 10
104.9954860848623
 20
-120.4033311330936
 30
0.0
 10
104.9617241491068
 20
-120.8539496225643
 30
0.0
  0
HATCH
  5
FE
330
F7
100
AcDbEntity
  8
_U+30EC_U+30A4_U+30E4_U+30FC 1
 62
   179
420
  2234388
100
AcDbHatch
 10
0.0
 20
0.0
 30
0.0
210
0.0
220
0.0
230
1.0
  2
SOLID
 70
     1
 71
     0
 91
        1
 92
        1
 93
        1
 72
     4
 94
        3
 73
     0
 74
     1
 95
       26
 96
       22
 40
0.0
 40
0.0
 40
0.0
 40
0.0
 40
1.0
 40
1.0
 40
1.0
 40
2.0
 40
2.0
 40
2.0
 40
3.0
 40
3.0
 40
3.0
 40
4.0
 40
4.0
 40
4.0
 40
5.0
 40
5.0
 40
5.0
 40
6.0
 40
6.0
 40
6.0
 40
7.0
 40
7.0
 40
7.0
 40
7.0
 10
104.9617241491068
 20
-120.8539496225643
 10
104.9617241491068
 20
-120.8539496225643
 10
104.7247015797216
 20
-120.8539496225643
 10
104.7247015797216
 20
-120.8539496225643
 10
104.7501952863125
 20
-120.5449245575374
 10
104.9431206334864
 20
-120.0267821965558
 10
105.3489528816489
 20
-119.5210421793211
 10
105.3489528816489
 20
-119.5210421793211
 10
104.5111056596361
 20
-119.5210421793211
 10
104.5111056596361
 20
-119.5210421793211
 10
104.5111056596361
 20
-119.5210421793211
 10
104.5111056596361
 20
-119.3095133165268
 10
104.5111056596361
 20
-119.3095133165268
 10
104.5111056596361
 20
-119.3095133165268
 10
105.5859754510341
 20
-119.3095133165268
 10
105.5859754510341
 20
-119.3095133165268
 10
105.5859754510341
 20
-119.3095133165268
 10
105.5859754510341
 20
-119.5210421793211
 10
105.5859754510341
 20
-119.5210421793211
 10
105.2621364754206
 20
-119.8111192191792
 10
104.9954860848623
 20
-120.4033311330936
 10
104.9617241491068
 20
-120.8539496225643
 97
        0
 97
        0
 75
     2
 76
     1
 98
        0
  0
ENDBLK
  5
FA
330
F7
100
AcDbEntity
  8
0
100
AcDbBlockEnd
  0
BLOCK
  5
109
330
107
100
AcDbEntity
  8
0
100
AcDbBlockBegin
  2
block 6
 70
     0
 10
0.0
 20
0.0
 30
0.0
  3
block 6
  1

  0
SPLINE
  5
10B
330
107
100
AcDbEntity
  8
_U+30EC_U+30A4_U+30E4_U+30FC 1
370
     0
100
AcDbSpline
210
0.0
220
0.0
230
1.0
 70
    11
 71
     3
 72
    26
 73
    22
 74
     0
 42
0.0000000001
 43
0.0000000001
 12
1.0
 22
0.0
 32
0.0
 13
1.0
 23
0.0
 33
0.0
 40
0.0
 40
0.0
 40
0.0
 40
0.0
 40
1.0
 40
1.0
 40
1.0
 40
2.0
 40
2.0
 40
2.0
 40
3.0
 40
3.0
 40
3.0
 40
4.0
 40
4.0
 40
4.0
 40
5.0
 40
5.0
 40
5.0
 40
6.0
 40
6.0
 40
6.0
 40
7.0
 40
7.0
 40
7.0
 40
7.0
 10
90.32540823479712
 20
-120.8539496225643
 30
0.0
 10
90.32540823479712
 20
-120.8539496225643
 30
0.0
 10
90.32540823479712
 20
-119.7497965195417
 30
0.0
 10
90.32540823479712
 20
-119.7497965195417
 30
0.0
 10
90.32540823479712
 20
-119.7497965195417
 30
0.0
 10
89.99536808731018
 20
-119.7497965195417
 30
0.0
 10
89.99536808731018
 20
-119.7497965195417
 30
0.0
 10
89.99536808731018
 20
-119.7497965195417
 30
0.0
 10
89.99536808731018
 20
-119.601657413676
 30
0.0
 10
89.99536808731018
 20
-119.601657413676
 30
0.0
 10
90.32747529208828
 20
-119.5868435030894
 30
0.0
 10
90.37398408113914
 20
-119.4238904866371
 30
0.0
 10
90.40361190231229
 20
-119.3095133165268
 30
0.0
 10
90.40361190231229
 20
-119.3095133165268
 30
0.0
 10
90.54968395088689
 20
-119.3095133165268
 30
0.0
 10
90.54968395088689
 20
-119.3095133165268
 30
0.0
 10
90.54968395088689
 20
-119.3095133165268
 30
0.0
 10
90.54968395088689
 20
-120.8539496225643
 30
0.0
 10
90.54968395088689
 20
-120.8539496225643
 30
0.0
 10
90.54968395088689
 20
-120.8539496225643
 30
0.0
 10
90.32540823479712
 20
-120.8539496225643
 30
0.0
 10
90.32540823479712
 20
-120.8539496225643
 30
0.0
  0
HATCH
  5
10C
330
107
100
AcDbEntity
  8
_U+30EC_U+30A4_U+30E4_U+30FC 1
 62
   179
420
  2234388
100
AcDbHatch
 10
0.0
 20
0.0
 30
0.0
210
0.0
220
0.0
230
1.0
  2
SOLID
 70
     1
 71
     0
 91
        1
 92
        1
 93
        1
 72
     4
 94
        3
 73
     0
 74
     1
 95
       26
 96
       22
 40
0.0
 40
0.0
 40
0.0
 40
0.0
 40
1.0
 40
1.0
 40
1.0
 40
2.0
 40
2.0
 40
2.0
 40
3.0
 40
3.0
 40
3.0
 40
4.0
 40
4.0
 40
4.0
 40
5.0
 40
5.0
 40
5.0
 40
6.0
 40
6.0
 40
6.0
 40
7.0
 40
7.0
 40
7.0
 40
7.0
 10
90.32540823479712
 20
-120.8539496225643
 10
90.32540823479712
 20
-120.8539496225643
 10
90.32540823479712
 20
-119.7497965195417
 10
90.32540823479712
 20
-119.7497965195417
 10
90.32540823479712
 20
-119.7497965195417
 10
89.99536808731018
 20
-119.7497965195417
 10
89.99536808731018
 20
-119.7497965195417
 10
89.99536808731018
 20
-119.7497965195417
 10
89.99536808731018
 20
-119.601657413676
 10
89.99536808731018
 20
-119.601657413676
 10
90.32747529208828
 20
-119.5868435030894
 10
90.37398408113914
 20
-119.4238904866371
 10
90.40361190231229
 20
-119.3095133165268
 10
90.40361190231229
 20
-119.3095133165268
 10
90.54968395088689
 20
-119.3095133165268
 10
90.54968395088689
 20
-119.3095133165268
 10
90.54968395088689
 20
-119.3095133165268
 10
90.54968395088689
 20
-120.8539496225643
 10
90.54968395088689
 20
-120.8539496225643
 10
90.54968395088689
 20
-120.8539496225643
 10
90.32540823479712
 20
-120.8539496225643
 10
90.32540823479712
 20
-120.8539496225643
 97
        0
 97
        0
 75
     2
 76
     1
 98
        0
  0
SPLINE
  5
10D
330
107
100
AcDbEntity
  8
_U+30EC_U+30A4_U+30E4_U+30FC 1
370
     0
100
AcDbSpline
210
0.0
220
0.0
230
1.0
 70
    11
 71
     3
 72
    29
 73
    25
 74
     0
 42
0.0000000001
 43
0.0000000001
 12
1.0
 22
0.0
 32
0.0
 13
1.0
 23
0.0
 33
0.0
 40
0.0
 40
0.0
 40
0.0
 40
0.0
 40
1.0
 40
1.0
 40
1.0
 40
2.0
 40
2.0
 40
2.0
 40
3.0
 40
3.0
 40
3.0
 40
4.0
 40
4.0
 40
4.0
 40
5.0
 40
5.0
 40
5.0
 40
6.0
 40
6.0
 40
6.0
 40
7.0
 40
7.0
 40
7.0
 40
8.0
 40
8.0
 40
8.0
 40
8.0
 10
91.94890948222111
 20
-120.6761826955254
 30
0.0
 10
91.84073348398427
 20
-120.8856445010286
 30
0.0
 10
91.66710067152768
 20
-120.9045925261975
 30
0.0
 10
91.55065644412623
 20
-120.9045925261975
 30
0.0
 10
91.39011499451358
 20
-120.9045925261975
 30
0.0
 10
91.24834931529556
 20
-120.8580837371466
 30
0.0
 10
91.15326467990266
 20
-120.6761826955254
 30
0.0
 10
91.04956730579664
 20
-120.4815348006088
 30
0.0
 10
91.03027477107923
 20
-120.2448567407721
 30
0.0
 10
91.03027477107923
 20
-120.0819037243198
 30
0.0
 10
91.03027477107923
 20
-119.9378987330364
 30
0.0
 10
91.04750024850549
 20
-119.6860622530646
 30
0.0
 10
91.15326467990266
 20
-119.4872802435657
 30
0.0
 10
91.26109616859098
 20
-119.2843641194845
 30
0.0
 10
91.42180987297789
 20
-119.2609374701848
 30
0.0
 10
91.55065644412623
 20
-119.2609374701848
 30
0.0
 10
91.70981985554477
 20
-119.2609374701848
 30
0.0
 10
91.85313582773117
 20
-119.3053792019445
 30
0.0
 10
91.94890948222111
 20
-119.4872802435657
 30
0.0
 10
92.0481282321963
 20
-119.6798610811911
 30
0.0
 10
92.071554881496
 20
-119.9082709118632
 30
0.0
 10
92.071554881496
 20
-120.0819037243198
 30
0.0
 10
92.071554881496
 20
-120.2531249699367
 30
0.0
 10
92.05019528948746
 20
-120.4836018578999
 30
0.0
 10
91.94890948222111
 20
-120.6761826955254
 30
0.0
  0
SPLINE
  5
10E
330
107
100
AcDbEntity
  8
_U+30EC_U+30A4_U+30E4_U+30FC 1
370
     0
100
AcDbSpline
210
0.0
220
0.0
230
1.0
 70
    11
 71
     3
 72
    17
 73
    13
 74
     0
 42
0.0000000001
 43
0.0000000001
 12
1.0
 22
0.0
 32
0.0
 13
1.0
 23
0.0
 33
0.0
 40
0.0
 40
0.0
 40
0.0
 40
0.0
 40
1.0
 40
1.0
 40
1.0
 40
2.0
 40
2.0
 40
2.0
 40
3.0
 40
3.0
 40
3.0
 40
4.0
 40
4.0
 40
4.0
 40
4.0
 10
91.55065644412623
 20
-119.4535183078102
 30
0.0
 10
91.30105927621987
 20
-119.4535183078102
 30
0.0
 10
91.254550487169
 20
-119.7370496662463
 30
0.0
 10
91.254550487169
 20
-120.0819037243198
 30
0.0
 10
91.254550487169
 20
-120.4012640758025
 30
0.0
 10
91.29072398976413
 20
-120.7099446312808
 30
0.0
 10
91.55065644412623
 20
-120.7099446312808
 30
0.0
 10
91.79870331906422
 20
-120.7099446312808
 30
0.0
 10
91.84693465585771
 20
-120.4288248396845
 30
0.0
 10
91.84693465585771
 20
-120.0819037243198
 30
0.0
 10
91.84693465585771
 20
-119.7621988632886
 30
0.0
 10
91.80903860551997
 20
-119.4535183078102
 30
0.0
 10
91.55065644412623
 20
-119.4535183078102
 30
0.0
  0
HATCH
  5
10F
330
107
100
AcDbEntity
  8
_U+30EC_U+30A4_U+30E4_U+30FC 1
 62
   179
420
  2234388
100
AcDbHatch
 10
0.0
 20
0.0
 30
0.0
210
0.0
220
0.0
230
1.0
  2
SOLID
 70
     1
 71
     0
 91
        2
 92
        1
 93
        1
 72
     4
 94
        3
 73
     0
 74
     1
 95
       29
 96
       25
 40
0.0
 40
0.0
 40
0.0
 40
0.0
 40
1.0
 40
1.0
 40
1.0
 40
2.0
 40
2.0
 40
2.0
 40
3.0
 40
3.0
 40
3.0
 40
4.0
 40
4.0
 40
4.0
 40
5.0
 40
5.0
 40
5.0
 40
6.0
 40
6.0
 40
6.0
 40
7.0
 40
7.0
 40
7.0
 40
8.0
 40
8.0
 40
8.0
 40
8.0
 10
91.94890948222111
 20
-120.6761826955254
 10
91.84073348398427
 20
-120.8856445010286
 10
91.66710067152768
 20
-120.9045925261975
 10
91.55065644412623
 20
-120.9045925261975
 10
91.39011499451358
 20
-120.9045925261975
 10
91.24834931529556
 20
-120.8580837371466
 10
91.15326467990266
 20
-120.6761826955254
 10
91.04956730579664
 20
-120.4815348006088
 10
91.03027477107923
 20
-120.2448567407721
 10
91.03027477107923
 20
-120.0819037243198
 10
91.03027477107923
 20
-119.9378987330364
 10
91.04750024850549
 20
-119.6860622530646
 10
91.15326467990266
 20
-119.4872802435657
 10
91.26109616859098
 20
-119.2843641194845
 10
91.42180987297789
 20
-119.2609374701848
 10
91.55065644412623
 20
-119.2609374701848
 10
91.70981985554477
 20
-119.2609374701848
 10
91.85313582773117
 20
-119.3053792019445
 10
91.94890948222111
 20
-119.4872802435657
 10
92.0481282321963
 20
-119.6798610811911
 10
92.071554881496
 20
-119.9082709118632
 10
92.071554881496
 20
-120.0819037243198
 10
92.071554881496
 20
-120.2531249699367
 10
92.05019528948746
 20
-120.4836018578999
 10
91.94890948222111
 20
-120.6761826955254
 97
        0
 97
        0
 92
        1
 93
        1
 72
     4
 94
        3
 73
     0
 74
     1
 95
       17
 96
       13
 40
0.0
 40
0.0
 40
0.0
 40
0.0
 40
1.0
 40
1.0
 40
1.0
 40
2.0
 40
2.0
 40
2.0
 40
3.0
 40
3.0
 40
3.0
 40
4.0
 40
4.0
 40
4.0
 40
4.0
 10
91.55065644412623
 20
-119.4535183078102
 10
91.30105927621987
 20
-119.4535183078102
 10
91.254550487169
 20
-119.7370496662463
 10
91.254550487169
 20
-120.0819037243198
 10
91.254550487169
 20
-120.4012640758025
 10
91.29072398976413
 20
-120.7099446312808
 10
91.55065644412623
 20
-120.7099446312808
 10
91.79870331906422
 20
-120.7099446312808
 10
91.84693465585771
 20
-120.4288248396845
 10
91.84693465585771
 20
-120.0819037243198
 10
91.84693465585771
 20
-119.7621988632886
 10
91.80903860551997
 20
-119.4535183078102
 10
91.55065644412623
 20
-119.4535183078102
 97
        0
 97
        0
 75
     2
 76
     1
 98
        0
  0
ENDBLK
  5
10A
330
107
100
AcDbEntity
  8
0
100
AcDbBlockEnd
  0
BLOCK
  5
11E
330
11C
100
AcDbEntity
  8
0
100
AcDbBlockBegin
  2
block 7
 70
     0
 10
0.0
 20
0.0
 30
0.0
  3
block 7
  1

  0
SPLINE
  5
120
330
11C
100
AcDbEntity
  8
_U+30EC_U+30A4_U+30E4_U+30FC 1
370
     0
100
AcDbSpline
210
0.0
220
0.0
230
1.0
 70
    11
 71
     3
 72
    44
 73
    40
 74
     0
 42
0.0000000001
 43
0.0000000001
 12
1.0
 22
0.0
 32
0.0
 13
1.0
 23
0.0
 33
0.0
 40
0.0
 40
0.0
 40
0.0
 40
0.0
 40
1.0
 40
1.0
 40
1.0
 40
2.0
 40
2.0
 40
2.0
 40
3.0
 40
3.0
 40
3.0
 40
4.0
 40
4.0
 40
4.0
 40
5.0
 40
5.0
 40
5.0
 40
6.0
 40
6.0
 40
6.0
 40
7.0
 40
7.0
 40
7.0
 40
8.0
 40
8.0
 40
8.0
 40
9.0
 40
9.0
 40
9.0
 40
10.0
 40
10.0
 40
10.0
 40
11.0
 40
11.0
 40
11.0
 40
12.0
 40
12.0
 40
12.0
 40
13.0
 40
13.0
 40
13.0
 40
13.0
 10
98.96725800477208
 20
-116.271972627182
 30
0.0
 10
98.7495279701043
 20
-116.430791529052
 30
0.0
 10
98.65651039200255
 20
-116.5048610819849
 30
0.0
 10
98.607590036112
 20
-116.6485215637198
 30
0.0
 10
98.607590036112
 20
-116.6485215637198
 30
0.0
 10
99.38618161577845
 20
-116.6485215637198
 30
0.0
 10
99.38618161577845
 20
-116.6485215637198
 30
0.0
 10
99.38618161577845
 20
-116.6485215637198
 30
0.0
 10
99.38618161577845
 20
-116.8538492546407
 30
0.0
 10
99.38618161577845
 20
-116.8538492546407
 30
0.0
 10
99.38618161577845
 20
-116.8538492546407
 30
0.0
 10
98.35816512297991
 20
-116.8538492546407
 30
0.0
 10
98.35816512297991
 20
-116.8538492546407
 30
0.0
 10
98.3898600014442
 20
-116.4962483432718
 30
0.0
 10
98.45531681566395
 20
-116.4180446757566
 30
0.0
 10
98.84047849091489
 20
-116.119699406734
 30
0.0
 10
99.09610457592042
 20
-115.9209173972351
 30
0.0
 10
99.16156139014016
 20
-115.8530490161756
 30
0.0
 10
99.16156139014016
 20
-115.7155897063142
 30
0.0
 10
99.16156139014016
 20
-115.5970784216216
 30
0.0
 10
99.08990340404698
 20
-115.4661647931821
 30
0.0
 10
98.89284394229068
 20
-115.4661647931821
 30
0.0
 10
98.63308374270285
 20
-115.4661647931821
 30
0.0
 10
98.62481551353825
 20
-115.6966416811453
 30
0.0
 10
98.6199923798589
 20
-115.8130859085467
 30
0.0
 10
98.6199923798589
 20
-115.8130859085467
 30
0.0
 10
98.39606117331766
 20
-115.8130859085467
 30
0.0
 10
98.39606117331766
 20
-115.8130859085467
 30
0.0
 10
98.40432940248226
 20
-115.685961885141
 30
0.0
 10
98.41535370803506
 20
-115.5739962818704
 30
0.0
 10
98.49527992329286
 20
-115.4554849971778
 30
0.0
 10
98.60552297882084
 20
-115.2945990380166
 30
0.0
 10
98.79155813502433
 20
-115.2608371022612
 30
0.0
 10
98.90800236242578
 20
-115.2608371022612
 30
0.0
 10
99.18498803943987
 20
-115.2608371022612
 30
0.0
 10
99.39238278765191
 20
-115.4448052011735
 30
0.0
 10
99.39238278765191
 20
-115.7176567636053
 30
0.0
 10
99.39238278765191
 20
-115.9464111038259
 30
0.0
 10
99.27593856025047
 20
-116.0456298538011
 30
0.0
 10
98.96725800477208
 20
-116.271972627182
 30
0.0
  0
HATCH
  5
121
330
11C
100
AcDbEntity
  8
_U+30EC_U+30A4_U+30E4_U+30FC 1
 62
   179
420
  2234388
100
AcDbHatch
 10
0.0
 20
0.0
 30
0.0
210
0.0
220
0.0
230
1.0
  2
SOLID
 70
     1
 71
     0
 91
        1
 92
        1
 93
        1
 72
     4
 94
        3
 73
     0
 74
     1
 95
       44
 96
       40
 40
0.0
 40
0.0
 40
0.0
 40
0.0
 40
1.0
 40
1.0
 40
1.0
 40
2.0
 40
2.0
 40
2.0
 40
3.0
 40
3.0
 40
3.0
 40
4.0
 40
4.0
 40
4.0
 40
5.0
 40
5.0
 40
5.0
 40
6.0
 40
6.0
 40
6.0
 40
7.0
 40
7.0
 40
7.0
 40
8.0
 40
8.0
 40
8.0
 40
9.0
 40
9.0
 40
9.0
 40
10.0
 40
10.0
 40
10.0
 40
11.0
 40
11.0
 40
11.0
 40
12.0
 40
12.0
 40
12.0
 40
13.0
 40
13.0
 40
13.0
 40
13.0
 10
98.96725800477208
 20
-116.271972627182
 10
98.7495279701043
 20
-116.430791529052
 10
98.65651039200255
 20
-116.5048610819849
 10
98.607590036112
 20
-116.6485215637198
 10
98.607590036112
 20
-116.6485215637198
 10
99.38618161577845
 20
-116.6485215637198
 10
99.38618161577845
 20
-116.6485215637198
 10
99.38618161577845
 20
-116.6485215637198
 10
99.38618161577845
 20
-116.8538492546407
 10
99.38618161577845
 20
-116.8538492546407
 10
99.38618161577845
 20
-116.8538492546407
 10
98.35816512297991
 20
-116.8538492546407
 10
98.35816512297991
 20
-116.8538492546407
 10
98.3898600014442
 20
-116.4962483432718
 10
98.45531681566395
 20
-116.4180446757566
 10
98.84047849091489
 20
-116.119699406734
 10
99.09610457592042
 20
-115.9209173972351
 10
99.16156139014016
 20
-115.8530490161756
 10
99.16156139014016
 20
-115.7155897063142
 10
99.16156139014016
 20
-115.5970784216216
 10
99.08990340404698
 20
-115.4661647931821
 10
98.89284394229068
 20
-115.4661647931821
 10
98.63308374270285
 20
-115.4661647931821
 10
98.62481551353825
 20
-115.6966416811453
 10
98.6199923798589
 20
-115.8130859085467
 10
98.6199923798589
 20
-115.8130859085467
 10
98.39606117331766
 20
-115.8130859085467
 10
98.39606117331766
 20
-115.8130859085467
 10
98.40432940248226
 20
-115.685961885141
 10
98.41535370803506
 20
-115.5739962818704
 10
98.49527992329286
 20
-115.4554849971778
 10
98.60552297882084
 20
-115.2945990380166
 10
98.79155813502433
 20
-115.2608371022612
 10
98.90800236242578
 20
-115.2608371022612
 10
99.18498803943987
 20
-115.2608371022612
 10
99.39238278765191
 20
-115.4448052011735
 10
99.39238278765191
 20
-115.7176567636053
 10
99.39238278765191
 20
-115.9464111038259
 10
99.27593856025047
 20
-116.0456298538011
 10
98.96725800477208
 20
-116.271972627182
 97
        0
 97
        0
 75
     2
 76
     1
 98
        0
  0
SPLINE
  5
122
330
11C
100
AcDbEntity
  8
_U+30EC_U+30A4_U+30E4_U+30FC 1
370
     0
100
AcDbSpline
210
0.0
220
0.0
230
1.0
 70
    11
 71
     3
 72
    26
 73
    22
 74
     0
 42
0.0000000001
 43
0.0000000001
 12
1.0
 22
0.0
 32
0.0
 13
1.0
 23
0.0
 33
0.0
 40
0.0
 40
0.0
 40
0.0
 40
0.0
 40
1.0
 40
1.0
 40
1.0
 40
2.0
 40
2.0
 40
2.0
 40
3.0
 40
3.0
 40
3.0
 40
4.0
 40
4.0
 40
4.0
 40
5.0
 40
5.0
 40
5.0
 40
6.0
 40
6.0
 40
6.0
 40
7.0
 40
7.0
 40
7.0
 40
7.0
 10
99.96220158091224
 20
-116.8538492546407
 30
0.0
 10
99.96220158091224
 20
-116.8538492546407
 30
0.0
 10
99.72517901152705
 20
-116.8538492546407
 30
0.0
 10
99.72517901152705
 20
-116.8538492546407
 30
0.0
 10
99.7506727181179
 20
-116.5448241896138
 30
0.0
 10
99.94290904619483
 20
-116.0266818286322
 30
0.0
 10
100.3494303134543
 20
-115.5209418113975
 30
0.0
 10
100.3494303134543
 20
-115.5209418113975
 30
0.0
 10
99.51158309144155
 20
-115.5209418113975
 30
0.0
 10
99.51158309144155
 20
-115.5209418113975
 30
0.0
 10
99.51158309144155
 20
-115.5209418113975
 30
0.0
 10
99.51158309144155
 20
-115.3094129486032
 30
0.0
 10
99.51158309144155
 20
-115.3094129486032
 30
0.0
 10
99.51158309144155
 20
-115.3094129486032
 30
0.0
 10
100.5864528828395
 20
-115.3094129486032
 30
0.0
 10
100.5864528828395
 20
-115.3094129486032
 30
0.0
 10
100.5864528828395
 20
-115.3094129486032
 30
0.0
 10
100.5864528828395
 20
-115.5209418113975
 30
0.0
 10
100.5864528828395
 20
-115.5209418113975
 30
0.0
 10
100.262613907226
 20
-115.8110188512556
 30
0.0
 10
99.99596351666769
 20
-116.40323076517
 30
0.0
 10
99.96220158091224
 20
-116.8538492546407
 30
0.0
  0
HATCH
  5
123
330
11C
100
AcDbEntity
  8
_U+30EC_U+30A4_U+30E4_U+30FC 1
 62
   179
420
  2234388
100
AcDbHatch
 10
0.0
 20
0.0
 30
0.0
210
0.0
220
0.0
230
1.0
  2
SOLID
 70
     1
 71
     0
 91
        1
 92
        1
 93
        1
 72
     4
 94
        3
 73
     0
 74
     1
 95
       26
 96
       22
 40
0.0
 40
0.0
 40
0.0
 40
0.0
 40
1.0
 40
1.0
 40
1.0
 40
2.0
 40
2.0
 40
2.0
 40
3.0
 40
3.0
 40
3.0
 40
4.0
 40
4.0
 40
4.0
 40
5.0
 40
5.0
 40
5.0
 40
6.0
 40
6.0
 40
6.0
 40
7.0
 40
7.0
 40
7.0
 40
7.0
 10
99.96220158091224
 20
-116.8538492546407
 10
99.96220158091224
 20
-116.8538492546407
 10
99.72517901152705
 20
-116.8538492546407
 10
99.72517901152705
 20
-116.8538492546407
 10
99.7506727181179
 20
-116.5448241896138
 10
99.94290904619483
 20
-116.0266818286322
 10
100.3494303134543
 20
-115.5209418113975
 10
100.3494303134543
 20
-115.5209418113975
 10
99.51158309144155
 20
-115.5209418113975
 10
99.51158309144155
 20
-115.5209418113975
 10
99.51158309144155
 20
-115.5209418113975
 10
99.51158309144155
 20
-115.3094129486032
 10
99.51158309144155
 20
-115.3094129486032
 10
99.51158309144155
 20
-115.3094129486032
 10
100.5864528828395
 20
-115.3094129486032
 10
100.5864528828395
 20
-115.3094129486032
 10
100.5864528828395
 20
-115.3094129486032
 10
100.5864528828395
 20
-115.5209418113975
 10
100.5864528828395
 20
-115.5209418113975
 10
100.262613907226
 20
-115.8110188512556
 10
99.99596351666769
 20
-116.40323076517
 10
99.96220158091224
 20
-116.8538492546407
 97
        0
 97
        0
 75
     2
 76
     1
 98
        0
  0
ENDBLK
  5
11F
330
11C
100
AcDbEntity
  8
0
100
AcDbBlockEnd
  0
BLOCK
  5
12E
330
12C
100
AcDbEntity
  8
0
100
AcDbBlockBegin
  2
block 8
 70
     0
 10
0.0
 20
0.0
 30
0.0
  3
block 8
  1

  0
SPLINE
  5
130
330
12C
100
AcDbEntity
  8
_U+30EC_U+30A4_U+30E4_U+30FC 1
370
     0
100
AcDbSpline
210
0.0
220
0.0
230
1.0
 70
    11
 71
     3
 72
    32
 73
    28
 74
     0
 42
0.0000000001
 43
0.0000000001
 12
1.0
 22
0.0
 32
0.0
 13
1.0
 23
0.0
 33
0.0
 40
0.0
 40
0.0
 40
0.0
 40
0.0
 40
1.0
 40
1.0
 40
1.0
 40
2.0
 40
2.0
 40
2.0
 40
3.0
 40
3.0
 40
3.0
 40
4.0
 40
4.0
 40
4.0
 40
5.0
 40
5.0
 40
5.0
 40
6.0
 40
6.0
 40
6.0
 40
7.0
 40
7.0
 40
7.0
 40
8.0
 40
8.0
 40
8.0
 40
9.0
 40
9.0
 40
9.0
 40
9.0
 10
81.49252792016506
 20
-132.2572156787413
 30
0.0
 10
81.49252792016506
 20
-132.4305039816493
 30
0.0
 10
81.42293699136302
 20
-132.6761392897476
 30
0.0
 10
81.09082978658493
 20
-132.7140353400854
 30
0.0
 10
81.09082978658493
 20
-132.7140353400854
 30
0.0
 10
81.09082978658493
 20
-132.5004394199999
 30
0.0
 10
81.09082978658493
 20
-132.5004394199999
 30
0.0
 10
81.15008542893123
 20
-132.4897596239956
 30
0.0
 10
81.29788002524845
 20
-132.4580647455313
 30
0.0
 10
81.29788002524845
 20
-132.2551486214501
 30
0.0
 10
81.29788002524845
 20
-131.9630045243009
 30
0.0
 10
80.96783987776152
 20
-131.9251084739632
 30
0.0
 10
80.76285669638915
 20
-131.9123616206678
 30
0.0
 10
80.84312742119548
 20
-132.0033121414783
 30
0.0
 10
80.90031600625062
 20
-132.0708360129892
 30
0.0
 10
80.90031600625062
 20
-132.2527370546104
 30
0.0
 10
80.90031600625062
 20
-132.4325710389405
 30
0.0
 10
80.79455157485344
 20
-132.7353949320939
 30
0.0
 10
80.38837481714249
 20
-132.7353949320939
 30
0.0
 10
80.06901446565983
 20
-132.7353949320939
 30
0.0
 10
79.84887286415237
 20
-132.5362684130465
 30
0.0
 10
79.84887286415237
 20
-132.218975118855
 30
0.0
 10
79.84887286415237
 20
-131.7049668724557
 30
0.0
 10
80.40318872772907
 20
-131.6942870764514
 30
0.0
 10
80.61678464781455
 20
-131.6942870764514
 30
0.0
 10
80.84726153577778
 20
-131.6942870764514
 30
0.0
 10
81.49252792016506
 20
-131.7135796111688
 30
0.0
 10
81.49252792016506
 20
-132.2572156787413
 30
0.0
  0
SPLINE
  5
131
330
12C
100
AcDbEntity
  8
_U+30EC_U+30A4_U+30E4_U+30FC 1
370
     0
100
AcDbSpline
210
0.0
220
0.0
230
1.0
 70
    11
 71
     3
 72
    17
 73
    13
 74
     0
 42
0.0000000001
 43
0.0000000001
 12
1.0
 22
0.0
 32
0.0
 13
1.0
 23
0.0
 33
0.0
 40
0.0
 40
0.0
 40
0.0
 40
0.0
 40
1.0
 40
1.0
 40
1.0
 40
2.0
 40
2.0
 40
2.0
 40
3.0
 40
3.0
 40
3.0
 40
4.0
 40
4.0
 40
4.0
 40
4.0
 10
80.04145370177784
 20
-132.2169080615638
 30
0.0
 10
80.04145370177784
 20
-132.3354193462564
 30
0.0
 10
80.09864228683298
 20
-132.5111192160042
 30
0.0
 10
80.38424070256019
 20
-132.5111192160042
 30
0.0
 10
80.61058347594111
 20
-132.5111192160042
 30
0.0
 10
80.705668111334
 20
-132.371248339303
 30
0.0
 10
80.705668111334
 20
-132.2358560867327
 30
0.0
 10
80.705668111334
 20
-131.9736843203052
 30
0.0
 10
80.49620630583081
 20
-131.9354437604189
 30
0.0
 10
80.37976207842937
 20
-131.9354437604189
 30
0.0
 10
80.20440671823015
 20
-131.9354437604189
 30
0.0
 10
80.04145370177784
 20
-132.0308729053604
 30
0.0
 10
80.04145370177784
 20
-132.2169080615638
 30
0.0
  0
HATCH
  5
132
330
12C
100
AcDbEntity
  8
_U+30EC_U+30A4_U+30E4_U+30FC 1
 62
   179
420
  2234388
100
AcDbHatch
 10
0.0
 20
0.0
 30
0.0
210
0.0
220
0.0
230
1.0
  2
SOLID
 70
     1
 71
     0
 91
        2
 92
        1
 93
        1
 72
     4
 94
        3
 73
     0
 74
     1
 95
       32
 96
       28
 40
0.0
 40
0.0
 40
0.0
 40
0.0
 40
1.0
 40
1.0
 40
1.0
 40
2.0
 40
2.0
 40
2.0
 40
3.0
 40
3.0
 40
3.0
 40
4.0
 40
4.0
 40
4.0
 40
5.0
 40
5.0
 40
5.0
 40
6.0
 40
6.0
 40
6.0
 40
7.0
 40
7.0
 40
7.0
 40
8.0
 40
8.0
 40
8.0
 40
9.0
 40
9.0
 40
9.0
 40
9.0
 10
81.49252792016506
 20
-132.2572156787413
 10
81.49252792016506
 20
-132.4305039816493
 10
81.42293699136302
 20
-132.6761392897476
 10
81.09082978658493
 20
-132.7140353400854
 10
81.09082978658493
 20
-132.7140353400854
 10
81.09082978658493
 20
-132.5004394199999
 10
81.09082978658493
 20
-132.5004394199999
 10
81.15008542893123
 20
-132.4897596239956
 10
81.29788002524845
 20
-132.4580647455313
 10
81.29788002524845
 20
-132.2551486214501
 10
81.29788002524845
 20
-131.9630045243009
 10
80.96783987776152
 20
-131.9251084739632
 10
80.76285669638915
 20
-131.9123616206678
 10
80.84312742119548
 20
-132.0033121414783
 10
80.90031600625062
 20
-132.0708360129892
 10
80.90031600625062
 20
-132.2527370546104
 10
80.90031600625062
 20
-132.4325710389405
 10
80.79455157485344
 20
-132.7353949320939
 10
80.38837481714249
 20
-132.7353949320939
 10
80.06901446565983
 20
-132.7353949320939
 10
79.84887286415237
 20
-132.5362684130465
 10
79.84887286415237
 20
-132.218975118855
 10
79.84887286415237
 20
-131.7049668724557
 10
80.40318872772907
 20
-131.6942870764514
 10
80.61678464781455
 20
-131.6942870764514
 10
80.84726153577778
 20
-131.6942870764514
 10
81.49252792016506
 20
-131.7135796111688
 10
81.49252792016506
 20
-132.2572156787413
 97
        0
 97
        0
 92
        1
 93
        1
 72
     4
 94
        3
 73
     0
 74
     1
 95
       17
 96
       13
 40
0.0
 40
0.0
 40
0.0
 40
0.0
 40
1.0
 40
1.0
 40
1.0
 40
2.0
 40
2.0
 40
2.0
 40
3.0
 40
3.0
 40
3.0
 40
4.0
 40
4.0
 40
4.0
 40
4.0
 10
80.04145370177784
 20
-132.2169080615638
 10
80.04145370177784
 20
-132.3354193462564
 10
80.09864228683298
 20
-132.5111192160042
 10
80.38424070256019
 20
-132.5111192160042
 10
80.61058347594111
 20
-132.5111192160042
 10
80.705668111334
 20
-132.371248339303
 10
80.705668111334
 20
-132.2358560867327
 10
80.705668111334
 20
-131.9736843203052
 10
80.49620630583081
 20
-131.9354437604189
 10
80.37976207842937
 20
-131.9354437604189
 10
80.20440671823015
 20
-131.9354437604189
 10
80.04145370177784
 20
-132.0308729053604
 10
80.04145370177784
 20
-132.2169080615638
 97
        0
 97
        0
 75
     2
 76
     1
 98
        0
  0
POLYLINE
  5
133
330
12C
100
AcDbEntity
  8
_U+30EC_U+30A4_U+30E4_U+30FC 1
370
     0
100
AcDb2dPolyline
 66
     1
 10
0.0
 20
0.0
 30
0.0
  0
VERTEX
  5
134
330
133
100
AcDbEntity
  8
_U+30EC_U+30A4_U+30E4_U+30FC 1
370
     0
100
AcDbVertex
100
AcDb2dVertex
 10
81.4418850165319
 20
-131.4779350799778
 30
0.0
  0
VERTEX
  5
135
330
133
100
AcDbEntity
  8
_U+30EC_U+30A4_U+30E4_U+30FC 1
370
     0
100
AcDbVertex
100
AcDb2dVertex
 10
81.19004853656013
 20
-131.4779350799778
 30
0.0
  0
VERTEX
  5
136
330
133
100
AcDbEntity
  8
_U+30EC_U+30A4_U+30E4_U+30FC 1
370
     0
100
AcDbVertex
100
AcDb2dVertex
 10
81.19004853656013
 20
-131.226098600006
 30
0.0
  0
VERTEX
  5
137
330
133
100
AcDbEntity
  8
_U+30EC_U+30A4_U+30E4_U+30FC 1
370
     0
100
AcDbVertex
100
AcDb2dVertex
 10
81.4418850165319
 20
-131.226098600006
 30
0.0
  0
VERTEX
  5
138
330
133
100
AcDbEntity
  8
_U+30EC_U+30A4_U+30E4_U+30FC 1
370
     0
100
AcDbVertex
100
AcDb2dVertex
 10
81.4418850165319
 20
-131.4779350799778
 30
0.0
  0
SEQEND
  5
139
330
133
100
AcDbEntity
  8
_U+30EC_U+30A4_U+30E4_U+30FC 1
370
     0
  0
HATCH
  5
13A
330
12C
100
AcDbEntity
  8
_U+30EC_U+30A4_U+30E4_U+30FC 1
 62
   179
420
  2234388
100
AcDbHatch
 10
0.0
 20
0.0
 30
0.0
210
0.0
220
0.0
230
1.0
  2
SOLID
 70
     1
 71
     0
 91
        1
 92
        1
 93
        4
 72
     1
 10
81.4418850165319
 20
-131.4779350799778
 11
81.19004853656013
 21
-131.4779350799778
 72
     1
 10
81.19004853656013
 20
-131.4779350799778
 11
81.19004853656013
 21
-131.226098600006
 72
     1
 10
81.19004853656013
 20
-131.226098600006
 11
81.4418850165319
 21
-131.226098600006
 72
     1
 10
81.4418850165319
 20
-131.226098600006
 11
81.4418850165319
 21
-131.4779350799778
 97
        0
 75
     2
 76
     1
 98
        0
  0
SPLINE
  5
13B
330
12C
100
AcDbEntity
  8
_U+30EC_U+30A4_U+30E4_U+30FC 1
370
     0
100
AcDbSpline
210
0.0
220
0.0
230
1.0
 70
    11
 71
     3
 72
    53
 73
    49
 74
     0
 42
0.0000000001
 43
0.0000000001
 12
1.0
 22
0.0
 32
0.0
 13
1.0
 23
0.0
 33
0.0
 40
0.0
 40
0.0
 40
0.0
 40
0.0
 40
1.0
 40
1.0
 40
1.0
 40
2.0
 40
2.0
 40
2.0
 40
3.0
 40
3.0
 40
3.0
 40
4.0
 40
4.0
 40
4.0
 40
5.0
 40
5.0
 40
5.0
 40
6.0
 40
6.0
 40
6.0
 40
7.0
 40
7.0
 40
7.0
 40
8.0
 40
8.0
 40
8.0
 40
9.0
 40
9.0
 40
9.0
 40
10.0
 40
10.0
 40
10.0
 40
11.0
 40
11.0
 40
11.0
 40
12.0
 40
12.0
 40
12.0
 40
13.0
 40
13.0
 40
13.0
 40
14.0
 40
14.0
 40
14.0
 40
15.0
 40
15.0
 40
15.0
 40
16.0
 40
16.0
 40
16.0
 40
16.0
 10
81.49252792016506
 20
-130.508829719977
 30
0.0
 10
81.49252792016506
 20
-130.5870333874921
 30
0.0
 10
81.47564695228735
 20
-130.688663704307
 30
0.0
 10
81.41225719535875
 20
-130.7902940211219
 30
0.0
 10
81.30235864937927
 20
-130.9635823240299
 30
0.0
 10
81.17110051139126
 20
-130.9849419160385
 30
0.0
 10
81.06326902270294
 20
-131.0038899412074
 30
0.0
 10
81.06326902270294
 20
-131.0038899412074
 30
0.0
 10
81.06326902270294
 20
-130.7816812824088
 30
0.0
 10
81.06326902270294
 20
-130.7816812824088
 30
0.0
 10
81.26205103220185
 20
-130.7269042641933
 30
0.0
 10
81.291678853375
 20
-130.5997802407876
 30
0.0
 10
81.291678853375
 20
-130.5067626626858
 30
0.0
 10
81.291678853375
 20
-130.3672362955332
 30
0.0
 10
81.19211559385128
 20
-130.2149630750852
 30
0.0
 10
80.95957164859692
 20
-130.2149630750852
 30
0.0
 10
80.70360105404285
 20
-130.2149630750852
 30
0.0
 10
80.63366561569228
 20
-130.3947970594152
 30
0.0
 10
80.63366561569228
 20
-130.5153754013989
 30
0.0
 10
80.63366561569228
 20
-130.5470702798632
 30
0.0
 10
80.63366561569228
 20
-130.688663704307
 30
0.0
 10
80.76285669638915
 20
-130.7775471678264
 30
0.0
 10
80.76285669638915
 20
-130.7775471678264
 30
0.0
 10
80.74390867122028
 20
-130.9532470375742
 30
0.0
 10
80.74390867122028
 20
-130.9532470375742
 30
0.0
 10
80.74390867122028
 20
-130.9532470375742
 30
0.0
 10
79.89744871049439
 20
-130.8326686955905
 30
0.0
 10
79.89744871049439
 20
-130.8326686955905
 30
0.0
 10
79.89744871049439
 20
-130.8326686955905
 30
0.0
 10
79.89744871049439
 20
-130.054077115924
 30
0.0
 10
79.89744871049439
 20
-130.054077115924
 30
0.0
 10
79.89744871049439
 20
-130.054077115924
 30
0.0
 10
80.092096605411
 20
-130.054077115924
 30
0.0
 10
80.092096605411
 20
-130.054077115924
 30
0.0
 10
80.092096605411
 20
-130.054077115924
 30
0.0
 10
80.092096605411
 20
-130.6697156791381
 30
0.0
 10
80.092096605411
 20
-130.6697156791381
 30
0.0
 10
80.092096605411
 20
-130.6697156791381
 30
0.0
 10
80.51515433099969
 20
-130.7351724933579
 30
0.0
 10
80.51515433099969
 20
-130.7351724933579
 30
0.0
 10
80.48139239524424
 20
-130.6738497937204
 30
0.0
 10
80.44108477806681
 20
-130.591512011623
 30
0.0
 10
80.44108477806681
 20
-130.4730007269304
 30
0.0
 10
80.44108477806681
 20
-130.2190971896675
 30
0.0
 10
80.62746444381884
 20
-129.9820746202823
 30
0.0
 10
80.94062362342804
 20
-129.9820746202823
 30
0.0
 10
81.25791691761955
 20
-129.9820746202823
 30
0.0
 10
81.49252792016506
 20
-130.206350336372
 30
0.0
 10
81.49252792016506
 20
-130.508829719977
 30
0.0
  0
HATCH
  5
13C
330
12C
100
AcDbEntity
  8
_U+30EC_U+30A4_U+30E4_U+30FC 1
 62
   179
420
  2234388
100
AcDbHatch
 10
0.0
 20
0.0
 30
0.0
210
0.0
220
0.0
230
1.0
  2
SOLID
 70
     1
 71
     0
 91
        1
 92
        1
 93
        1
 72
     4
 94
        3
 73
     0
 74
     1
 95
       53
 96
       49
 40
0.0
 40
0.0
 40
0.0
 40
0.0
 40
1.0
 40
1.0
 40
1.0
 40
2.0
 40
2.0
 40
2.0
 40
3.0
 40
3.0
 40
3.0
 40
4.0
 40
4.0
 40
4.0
 40
5.0
 40
5.0
 40
5.0
 40
6.0
 40
6.0
 40
6.0
 40
7.0
 40
7.0
 40
7.0
 40
8.0
 40
8.0
 40
8.0
 40
9.0
 40
9.0
 40
9.0
 40
10.0
 40
10.0
 40
10.0
 40
11.0
 40
11.0
 40
11.0
 40
12.0
 40
12.0
 40
12.0
 40
13.0
 40
13.0
 40
13.0
 40
14.0
 40
14.0
 40
14.0
 40
15.0
 40
15.0
 40
15.0
 40
16.0
 40
16.0
 40
16.0
 40
16.0
 10
81.49252792016506
 20
-130.508829719977
 10
81.49252792016506
 20
-130.5870333874921
 10
81.47564695228735
 20
-130.688663704307
 10
81.41225719535875
 20
-130.7902940211219
 10
81.30235864937927
 20
-130.9635823240299
 10
81.17110051139126
 20
-130.9849419160385
 10
81.06326902270294
 20
-131.0038899412074
 10
81.06326902270294
 20
-131.0038899412074
 10
81.06326902270294
 20
-130.7816812824088
 10
81.06326902270294
 20
-130.7816812824088
 10
81.26205103220185
 20
-130.7269042641933
 10
81.291678853375
 20
-130.5997802407876
 10
81.291678853375
 20
-130.5067626626858
 10
81.291678853375
 20
-130.3672362955332
 10
81.19211559385128
 20
-130.2149630750852
 10
80.95957164859692
 20
-130.2149630750852
 10
80.70360105404285
 20
-130.2149630750852
 10
80.63366561569228
 20
-130.3947970594152
 10
80.63366561569228
 20
-130.5153754013989
 10
80.63366561569228
 20
-130.5470702798632
 10
80.63366561569228
 20
-130.688663704307
 10
80.76285669638915
 20
-130.7775471678264
 10
80.76285669638915
 20
-130.7775471678264
 10
80.74390867122028
 20
-130.9532470375742
 10
80.74390867122028
 20
-130.9532470375742
 10
80.74390867122028
 20
-130.9532470375742
 10
79.89744871049439
 20
-130.8326686955905
 10
79.89744871049439
 20
-130.8326686955905
 10
79.89744871049439
 20
-130.8326686955905
 10
79.89744871049439
 20
-130.054077115924
 10
79.89744871049439
 20
-130.054077115924
 10
79.89744871049439
 20
-130.054077115924
 10
80.092096605411
 20
-130.054077115924
 10
80.092096605411
 20
-130.054077115924
 10
80.092096605411
 20
-130.054077115924
 10
80.092096605411
 20
-130.6697156791381
 10
80.092096605411
 20
-130.6697156791381
 10
80.092096605411
 20
-130.6697156791381
 10
80.51515433099969
 20
-130.7351724933579
 10
80.51515433099969
 20
-130.7351724933579
 10
80.48139239524424
 20
-130.6738497937204
 10
80.44108477806681
 20
-130.591512011623
 10
80.44108477806681
 20
-130.4730007269304
 10
80.44108477806681
 20
-130.2190971896675
 10
80.62746444381884
 20
-129.9820746202823
 10
80.94062362342804
 20
-129.9820746202823
 10
81.25791691761955
 20
-129.9820746202823
 10
81.49252792016506
 20
-130.206350336372
 10
81.49252792016506
 20
-130.508829719977
 97
        0
 97
        0
 75
     2
 76
     1
 98
        0
  0
ENDBLK
  5
12F
330
12C
100
AcDbEntity
  8
0
100
AcDbBlockEnd
  0
ENDSEC
  0
SECTION
  2
ENTITIES
  0
SPLINE
  5
41
330
1F
100
AcDbEntity
  8
_U+30EC_U+30A4_U+30E4_U+30FC 1
370
     0
100
AcDbSpline
210
0.0
220
0.0
230
1.0
 70
    11
 71
     3
 72
    41
 73
    37
 74
     0
 42
0.0000000001
 43
0.0000000001
 12
1.0
 22
0.0
 32
0.0
 13
1.0
 23
0.0
 33
0.0
 40
0.0
 40
0.0
 40
0.0
 40
0.0
 40
1.0
 40
1.0
 40
1.0
 40
2.0
 40
2.0
 40
2.0
 40
3.0
 40
3.0
 40
3.0
 40
4.0
 40
4.0
 40
4.0
 40
5.0
 40
5.0
 40
5.0
 40
6.0
 40
6.0
 40
6.0
 40
7.0
 40
7.0
 40
7.0
 40
8.0
 40
8.0
 40
8.0
 40
9.0
 40
9.0
 40
9.0
 40
10.0
 40
10.0
 40
10.0
 40
11.0
 40
11.0
 40
11.0
 40
12.0
 40
12.0
 40
12.0
 40
12.0
 10
112.4479166385547
 20
-135.1159702439988
 30
0.0
 10
112.4479166385547
 20
-135.1159702439988
 30
0.0
 10
97.44797945833938
 20
-126.2803333017633
 30
0.0
 10
97.44797945833938
 20
-126.2803333017633
 30
0.0
 10
96.52535975965513
 20
-125.7370202463435
 30
0.0
 10
95.47394089759018
 20
-125.4500355241929
 30
0.0
 10
94.40251953603553
 20
-125.4500355241929
 30
0.0
 10
94.40251953603553
 20
-125.4500355241929
 30
0.0
 10
86.03833502720143
 20
-125.4500355241929
 30
0.0
 10
86.03833502720143
 20
-125.4500355241929
 30
0.0
 10
86.03833502720143
 20
-125.4500355241929
 30
0.0
 10
86.03833502720143
 20
-126.6499738572265
 30
0.0
 10
86.03833502720143
 20
-126.6499738572265
 30
0.0
 10
86.03833502720143
 20
-126.6499738572265
 30
0.0
 10
94.40251953603553
 20
-126.6499738572265
 30
0.0
 10
94.40251953603553
 20
-126.6499738572265
 30
0.0
 10
95.25962840305775
 20
-126.6499738572265
 30
0.0
 10
96.10093282603873
 20
-126.8794205238356
 30
0.0
 10
96.83887336276786
 20
-127.3141838570603
 30
0.0
 10
96.83887336276786
 20
-127.3141838570603
 30
0.0
 10
111.8388077023099
 20
-136.1501735770736
 30
0.0
 10
111.8388077023099
 20
-136.1501735770736
 30
0.0
 10
111.8388077023099
 20
-136.1501735770736
 30
0.0
 10
69.03850351645882
 20
-136.1501735770736
 30
0.0
 10
69.03850351645882
 20
-136.1501735770736
 30
0.0
 10
69.03850351645882
 20
-136.1501735770736
 30
0.0
 10
69.03850351645882
 20
-137.3501119101072
 30
0.0
 10
69.03850351645882
 20
-137.3501119101072
 30
0.0
 10
69.03850351645882
 20
-137.3501119101072
 30
0.0
 10
111.8388077023099
 20
-137.3501119101072
 30
0.0
 10
111.8388077023099
 20
-137.3501119101072
 30
0.0
 10
112.5009715743056
 20
-137.3501119101072
 30
0.0
 10
113.0383932272614
 20
-136.8130077435744
 30
0.0
 10
113.0383932272614
 20
-136.1501735770736
 30
0.0
 10
113.0383932272614
 20
-135.7250410771801
 30
0.0
 10
112.8137796218807
 20
-135.3316232995006
 30
0.0
 10
112.4479166385547
 20
-135.1159702439988
 30
0.0
  0
POLYLINE
  5
42
330
1F
100
AcDbEntity
  8
_U+30EC_U+30A4_U+30E4_U+30FC 1
 62
   179
420
  2234388
370
    25
100
AcDb2dPolyline
 66
     1
 10
0.0
 20
0.0
 30
0.0
  0
VERTEX
  5
43
330
42
100
AcDbEntity
  8
_U+30EC_U+30A4_U+30E4_U+30FC 1
 62
   179
420
  2234388
370
    25
100
AcDbVertex
100
AcDb2dVertex
 10
69.03850351645882
 20
-137.3501119101072
 30
0.0
  0
VERTEX
  5
44
330
42
100
AcDbEntity
  8
_U+30EC_U+30A4_U+30E4_U+30FC 1
 62
   179
420
  2234388
370
    25
100
AcDbVertex
100
AcDb2dVertex
 10
111.8388077023099
 20
-137.3501119101072
 30
0.0
  0
SEQEND
  5
45
330
42
100
AcDbEntity
  8
_U+30EC_U+30A4_U+30E4_U+30FC 1
 62
   179
420
  2234388
370
    25
  0
POLYLINE
  5
46
330
1F
100
AcDbEntity
  8
_U+30EC_U+30A4_U+30E4_U+30FC 1
 62
   179
420
  2234388
370
    25
100
AcDb2dPolyline
 66
     1
 10
0.0
 20
0.0
 30
0.0
  0
VERTEX
  5
47
330
46
100
AcDbEntity
  8
_U+30EC_U+30A4_U+30E4_U+30FC 1
 62
   179
420
  2234388
370
    25
100
AcDbVertex
100
AcDb2dVertex
 10
69.03850351645882
 20
-136.1501735770736
 30
0.0
  0
VERTEX
  5
48
330
46
100
AcDbEntity
  8
_U+30EC_U+30A4_U+30E4_U+30FC 1
 62
   179
420
  2234388
370
    25
100
AcDbVertex
100
AcDb2dVertex
 10
69.03850351645882
 20
-137.3501119101072
 30
0.0
  0
SEQEND
  5
49
330
46
100
AcDbEntity
  8
_U+30EC_U+30A4_U+30E4_U+30FC 1
 62
   179
420
  2234388
370
    25
  0
POLYLINE
  5
4A
330
1F
100
AcDbEntity
  8
_U+30EC_U+30A4_U+30E4_U+30FC 1
 62
   179
420
  2234388
370
    25
100
AcDb2dPolyline
 66
     1
 10
0.0
 20
0.0
 30
0.0
  0
VERTEX
  5
4B
330
4A
100
AcDbEntity
  8
_U+30EC_U+30A4_U+30E4_U+30FC 1
 62
   179
420
  2234388
370
    25
100
AcDbVertex
100
AcDb2dVertex
 10
86.03833502720143
 20
-125.4500355241929
 30
0.0
  0
VERTEX
  5
4C
330
4A
100
AcDbEntity
  8
_U+30EC_U+30A4_U+30E4_U+30FC 1
 62
   179
420
  2234388
370
    25
100
AcDbVertex
100
AcDb2dVertex
 10
94.40251953603553
 20
-125.4500355241929
 30
0.0
  0
SEQEND
  5
4D
330
4A
100
AcDbEntity
  8
_U+30EC_U+30A4_U+30E4_U+30FC 1
 62
   179
420
  2234388
370
    25
  0
POLYLINE
  5
4E
330
1F
100
AcDbEntity
  8
_U+30EC_U+30A4_U+30E4_U+30FC 1
 62
   179
420
  2234388
370
    25
100
AcDb2dPolyline
 66
     1
 10
0.0
 20
0.0
 30
0.0
  0
VERTEX
  5
4F
330
4E
100
AcDbEntity
  8
_U+30EC_U+30A4_U+30E4_U+30FC 1
 62
   179
420
  2234388
370
    25
100
AcDbVertex
100
AcDb2dVertex
 10
69.03850351645882
 20
-136.1501735770736
 30
0.0
  0
VERTEX
  5
50
330
4E
100
AcDbEntity
  8
_U+30EC_U+30A4_U+30E4_U+30FC 1
 62
   179
420
  2234388
370
    25
100
AcDbVertex
100
AcDb2dVertex
 10
111.8388077023099
 20
-136.1501735770736
 30
0.0
  0
SEQEND
  5
51
330
4E
100
AcDbEntity
  8
_U+30EC_U+30A4_U+30E4_U+30FC 1
 62
   179
420
  2234388
370
    25
  0
POLYLINE
  5
52
330
1F
100
AcDbEntity
  8
_U+30EC_U+30A4_U+30E4_U+30FC 1
 62
   179
420
  2234388
370
    25
100
AcDb2dPolyline
 66
     1
 10
0.0
 20
0.0
 30
0.0
  0
VERTEX
  5
53
330
52
100
AcDbEntity
  8
_U+30EC_U+30A4_U+30E4_U+30FC 1
 62
   179
420
  2234388
370
    25
100
AcDbVertex
100
AcDb2dVertex
 10
86.03833502720143
 20
-125.4500355241929
 30
0.0
  0
VERTEX
  5
54
330
52
100
AcDbEntity
  8
_U+30EC_U+30A4_U+30E4_U+30FC 1
 62
   179
420
  2234388
370
    25
100
AcDbVertex
100
AcDb2dVertex
 10
86.03833502720143
 20
-126.6499738572265
 30
0.0
  0
SEQEND
  5
55
330
52
100
AcDbEntity
  8
_U+30EC_U+30A4_U+30E4_U+30FC 1
 62
   179
420
  2234388
370
    25
  0
POLYLINE
  5
56
330
1F
100
AcDbEntity
  8
_U+30EC_U+30A4_U+30E4_U+30FC 1
 62
   179
420
  2234388
370
    25
100
AcDb2dPolyline
 66
     1
 10
0.0
 20
0.0
 30
0.0
  0
VERTEX
  5
57
330
56
100
AcDbEntity
  8
_U+30EC_U+30A4_U+30E4_U+30FC 1
 62
   179
420
  2234388
370
    25
100
AcDbVertex
100
AcDb2dVertex
 10
97.44797945833938
 20
-126.2803333017633
 30
0.0
  0
VERTEX
  5
58
330
56
100
AcDbEntity
  8
_U+30EC_U+30A4_U+30E4_U+30FC 1
 62
   179
420
  2234388
370
    25
100
AcDbVertex
100
AcDb2dVertex
 10
112.4479166385547
 20
-135.1159702439988
 30
0.0
  0
SEQEND
  5
59
330
56
100
AcDbEntity
  8
_U+30EC_U+30A4_U+30E4_U+30FC 1
 62
   179
420
  2234388
370
    25
  0
POLYLINE
  5
5A
330
1F
100
AcDbEntity
  8
_U+30EC_U+30A4_U+30E4_U+30FC 1
 62
   179
420
  2234388
370
    25
100
AcDb2dPolyline
 66
     1
 10
0.0
 20
0.0
 30
0.0
  0
VERTEX
  5
5B
330
5A
100
AcDbEntity
  8
_U+30EC_U+30A4_U+30E4_U+30FC 1
 62
   179
420
  2234388
370
    25
100
AcDbVertex
100
AcDb2dVertex
 10
96.83887336276786
 20
-127.3141838570603
 30
0.0
  0
VERTEX
  5
5C
330
5A
100
AcDbEntity
  8
_U+30EC_U+30A4_U+30E4_U+30FC 1
 62
   179
420
  2234388
370
    25
100
AcDbVertex
100
AcDb2dVertex
 10
111.8388077023099
 20
-136.1501735770736
 30
0.0
  0
SEQEND
  5
5D
330
5A
100
AcDbEntity
  8
_U+30EC_U+30A4_U+30E4_U+30FC 1
 62
   179
420
  2234388
370
    25
  0
POLYLINE
  5
5E
330
1F
100
AcDbEntity
  8
_U+30EC_U+30A4_U+30E4_U+30FC 1
 62
   179
420
  2234388
370
    25
100
AcDb2dPolyline
 66
     1
 10
0.0
 20
0.0
 30
0.0
  0
VERTEX
  5
5F
330
5E
100
AcDbEntity
  8
_U+30EC_U+30A4_U+30E4_U+30FC 1
 62
   179
420
  2234388
370
    25
100
AcDbVertex
100
AcDb2dVertex
 10
86.03833502720143
 20
-126.6499738572265
 30
0.0
  0
VERTEX
  5
60
330
5E
100
AcDbEntity
  8
_U+30EC_U+30A4_U+30E4_U+30FC 1
 62
   179
420
  2234388
370
    25
100
AcDbVertex
100
AcDb2dVertex
 10
94.40251953603553
 20
-126.6499738572265
 30
0.0
  0
SEQEND
  5
61
330
5E
100
AcDbEntity
  8
_U+30EC_U+30A4_U+30E4_U+30FC 1
 62
   179
420
  2234388
370
    25
  0
SPLINE
  5
62
330
1F
100
AcDbEntity
  8
_U+30EC_U+30A4_U+30E4_U+30FC 1
 62
   179
420
  2234388
370
    25
100
AcDbSpline
210
0.0
220
0.0
230
1.0
 70
     8
 71
     3
 72
    11
 73
     7
 74
     0
 42
0.0000000001
 43
0.0000000001
 12
1.0
 22
0.0
 32
0.0
 13
1.0
 23
0.0
 33
0.0
 40
0.0
 40
0.0
 40
0.0
 40
0.0
 40
1.0
 40
1.0
 40
1.0
 40
2.0
 40
2.0
 40
2.0
 40
2.0
 10
111.8388077023099
 20
-137.3501119101072
 30
0.0
 10
112.5009715743056
 20
-137.3501119101072
 30
0.0
 10
113.0383932272614
 20
-136.8130077435744
 30
0.0
 10
113.0383932272614
 20
-136.1501735770736
 30
0.0
 10
113.0383932272614
 20
-135.7250410771801
 30
0.0
 10
112.8137796218807
 20
-135.3316232995006
 30
0.0
 10
112.4479166385547
 20
-135.1159702439988
 30
0.0
  0
SPLINE
  5
63
330
1F
100
AcDbEntity
  8
_U+30EC_U+30A4_U+30E4_U+30FC 1
 62
   179
420
  2234388
370
    25
100
AcDbSpline
210
0.0
220
0.0
230
1.0
 70
     8
 71
     3
 72
     8
 73
     4
 74
     0
 42
0.0000000001
 43
0.0000000001
 12
1.0
 22
0.0
 32
0.0
 13
1.0
 23
0.0
 33
0.0
 40
0.0
 40
0.0
 40
0.0
 40
0.0
 40
1.0
 40
1.0
 40
1.0
 40
1.0
 10
97.44797945833938
 20
-126.2803333017633
 30
0.0
 10
96.52535975965513
 20
-125.7370202463435
 30
0.0
 10
95.47394089759018
 20
-125.4500355241929
 30
0.0
 10
94.40251953603553
 20
-125.4500355241929
 30
0.0
  0
SPLINE
  5
64
330
1F
100
AcDbEntity
  8
_U+30EC_U+30A4_U+30E4_U+30FC 1
 62
   179
420
  2234388
370
    25
100
AcDbSpline
210
0.0
220
0.0
230
1.0
 70
     8
 71
     3
 72
     8
 73
     4
 74
     0
 42
0.0000000001
 43
0.0000000001
 12
1.0
 22
0.0
 32
0.0
 13
1.0
 23
0.0
 33
0.0
 40
0.0
 40
0.0
 40
0.0
 40
0.0
 40
1.0
 40
1.0
 40
1.0
 40
1.0
 10
96.83887336276786
 20
-127.3141838570603
 30
0.0
 10
96.10093282603873
 20
-126.8794205238356
 30
0.0
 10
95.25962840305775
 20
-126.6499738572265
 30
0.0
 10
94.40251953603553
 20
-126.6499738572265
 30
0.0
  0
SPLINE
  5
65
330
1F
100
AcDbEntity
  8
_U+30EC_U+30A4_U+30E4_U+30FC 1
 62
   179
420
  2234388
370
     9
100
AcDbSpline
210
0.0
220
0.0
230
1.0
 70
    11
 71
     3
 72
    17
 73
    13
 74
     0
 42
0.0000000001
 43
0.0000000001
 12
1.0
 22
0.0
 32
0.0
 13
1.0
 23
0.0
 33
0.0
 40
0.0
 40
0.0
 40
0.0
 40
0.0
 40
1.0
 40
1.0
 40
1.0
 40
2.0
 40
2.0
 40
2.0
 40
3.0
 40
3.0
 40
3.0
 40
4.0
 40
4.0
 40
4.0
 40
4.0
 10
67.1374916498822
 20
-136.1501735770736
 30
0.0
 10
67.1374916498822
 20
-136.0950696881987
 30
0.0
 10
67.09272245498872
 20
-136.0502669104319
 30
0.0
 10
67.03758328972877
 20
-136.0502669104319
 30
0.0
 10
66.9824794022457
 20
-136.0502669104319
 30
0.0
 10
66.93767662561093
 20
-136.0950696881987
 30
0.0
 10
66.93767662561093
 20
-136.1501735770736
 30
0.0
 10
66.93767662561093
 20
-136.2053127437267
 30
0.0
 10
66.9824794022457
 20
-136.2500802437152
 30
0.0
 10
67.03758328972877
 20
-136.2500802437152
 30
0.0
 10
67.09272245498872
 20
-136.2500802437152
 30
0.0
 10
67.1374916498822
 20
-136.2053127437267
 30
0.0
 10
67.1374916498822
 20
-136.1501735770736
 30
0.0
  0
SPLINE
  5
66
330
1F
100
AcDbEntity
  8
_U+30EC_U+30A4_U+30E4_U+30FC 1
 62
   179
420
  2234388
370
     9
100
AcDbSpline
210
0.0
220
0.0
230
1.0
 70
    11
 71
     3
 72
    17
 73
    13
 74
     0
 42
0.0000000001
 43
0.0000000001
 12
1.0
 22
0.0
 32
0.0
 13
1.0
 23
0.0
 33
0.0
 40
0.0
 40
0.0
 40
0.0
 40
0.0
 40
1.0
 40
1.0
 40
1.0
 40
2.0
 40
2.0
 40
2.0
 40
3.0
 40
3.0
 40
3.0
 40
4.0
 40
4.0
 40
4.0
 40
4.0
 10
67.1374916498822
 20
-137.3501119101072
 30
0.0
 10
67.1374916498822
 20
-137.2946199656763
 30
0.0
 10
67.09272245498872
 20
-137.2502052434655
 30
0.0
 10
67.03758328972877
 20
-137.2502052434655
 30
0.0
 10
66.9824794022457
 20
-137.2502052434655
 30
0.0
 10
66.93767662561093
 20
-137.2946199656763
 30
0.0
 10
66.93767662561093
 20
-137.3501119101072
 30
0.0
 10
66.93767662561093
 20
-137.4052157989821
 30
0.0
 10
66.9824794022457
 20
-137.4500185767488
 30
0.0
 10
67.03758328972877
 20
-137.4500185767488
 30
0.0
 10
67.09272245498872
 20
-137.4500185767488
 30
0.0
 10
67.1374916498822
 20
-137.4052157989821
 30
0.0
 10
67.1374916498822
 20
-137.3501119101072
 30
0.0
  0
SPLINE
  5
67
330
1F
100
AcDbEntity
  8
_U+30EC_U+30A4_U+30E4_U+30FC 1
 62
   179
420
  2234388
370
     9
100
AcDbSpline
210
0.0
220
0.0
230
1.0
 70
    11
 71
     3
 72
    17
 73
    13
 74
     0
 42
0.0000000001
 43
0.0000000001
 12
1.0
 22
0.0
 32
0.0
 13
1.0
 23
0.0
 33
0.0
 40
0.0
 40
0.0
 40
0.0
 40
0.0
 40
1.0
 40
1.0
 40
1.0
 40
2.0
 40
2.0
 40
2.0
 40
3.0
 40
3.0
 40
3.0
 40
4.0
 40
4.0
 40
4.0
 40
4.0
 10
69.13876295834542
 20
-141.3501885757736
 30
0.0
 10
69.13876295834542
 20
-141.294731909121
 30
0.0
 10
69.09396018171067
 20
-141.2499644091318
 30
0.0
 10
69.03850351645882
 20
-141.2499644091318
 30
0.0
 10
68.98339962897575
 20
-141.2499644091318
 30
0.0
 10
68.93859685234098
 20
-141.294731909121
 30
0.0
 10
68.93859685234098
 20
-141.3501885757736
 30
0.0
 10
68.93859685234098
 20
-141.4053277424267
 30
0.0
 10
68.98339962897575
 20
-141.4500952424153
 30
0.0
 10
69.03850351645882
 20
-141.4500952424153
 30
0.0
 10
69.09396018171067
 20
-141.4500952424153
 30
0.0
 10
69.13876295834542
 20
-141.4053277424267
 30
0.0
 10
69.13876295834542
 20
-141.3501885757736
 30
0.0
  0
SPLINE
  5
68
330
1F
100
AcDbEntity
  8
_U+30EC_U+30A4_U+30E4_U+30FC 1
 62
   179
420
  2234388
370
     9
100
AcDbSpline
210
0.0
220
0.0
230
1.0
 70
    11
 71
     3
 72
    17
 73
    13
 74
     0
 42
0.0000000001
 43
0.0000000001
 12
1.0
 22
0.0
 32
0.0
 13
1.0
 23
0.0
 33
0.0
 40
0.0
 40
0.0
 40
0.0
 40
0.0
 40
1.0
 40
1.0
 40
1.0
 40
2.0
 40
2.0
 40
2.0
 40
3.0
 40
3.0
 40
3.0
 40
4.0
 40
4.0
 40
4.0
 40
4.0
 10
113.1383027494933
 20
-141.3501885757736
 30
0.0
 10
113.1383027494933
 20
-141.294731909121
 30
0.0
 10
113.0935323925214
 20
-141.2499644091318
 30
0.0
 10
113.0383932272614
 20
-141.2499644091318
 30
0.0
 10
112.9832893397784
 20
-141.2499644091318
 30
0.0
 10
112.9384865631436
 20
-141.294731909121
 30
0.0
 10
112.9384865631436
 20
-141.3501885757736
 30
0.0
 10
112.9384865631436
 20
-141.4053277424267
 30
0.0
 10
112.9832893397784
 20
-141.4500952424153
 30
0.0
 10
113.0383932272614
 20
-141.4500952424153
 30
0.0
 10
113.0935323925214
 20
-141.4500952424153
 30
0.0
 10
113.1383027494933
 20
-141.4053277424267
 30
0.0
 10
113.1383027494933
 20
-141.3501885757736
 30
0.0
  0
SPLINE
  5
69
330
1F
100
AcDbEntity
  8
_U+30EC_U+30A4_U+30E4_U+30FC 1
 62
   179
420
  2234388
370
     9
100
AcDbSpline
210
0.0
220
0.0
230
1.0
 70
    11
 71
     3
 72
    17
 73
    13
 74
     0
 42
0.0000000001
 43
0.0000000001
 12
1.0
 22
0.0
 32
0.0
 13
1.0
 23
0.0
 33
0.0
 40
0.0
 40
0.0
 40
0.0
 40
0.0
 40
1.0
 40
1.0
 40
1.0
 40
2.0
 40
2.0
 40
2.0
 40
3.0
 40
3.0
 40
3.0
 40
4.0
 40
4.0
 40
4.0
 40
4.0
 10
117.1387645115411
 20
-137.3501119101072
 30
0.0
 10
117.1387645115411
 20
-137.2946199656763
 30
0.0
 10
117.0939617349064
 20
-137.2502052434655
 30
0.0
 10
117.0388578474233
 20
-137.2502052434655
 30
0.0
 10
116.9830484044027
 20
-137.2502052434655
 30
0.0
 10
116.9382456277679
 20
-137.2946199656763
 30
0.0
 10
116.9382456277679
 20
-137.3501119101072
 30
0.0
 10
116.9382456277679
 20
-137.4052157989821
 30
0.0
 10
116.9830484044027
 20
-137.4500185767488
 30
0.0
 10
117.0388578474233
 20
-137.4500185767488
 30
0.0
 10
117.0939617349064
 20
-137.4500185767488
 30
0.0
 10
117.1387645115411
 20
-137.4052157989821
 30
0.0
 10
117.1387645115411
 20
-137.3501119101072
 30
0.0
  0
SPLINE
  5
6A
330
1F
100
AcDbEntity
  8
_U+30EC_U+30A4_U+30E4_U+30FC 1
 62
   179
420
  2234388
370
     9
100
AcDbSpline
210
0.0
220
0.0
230
1.0
 70
    11
 71
     3
 72
    17
 73
    13
 74
     0
 42
0.0000000001
 43
0.0000000001
 12
1.0
 22
0.0
 32
0.0
 13
1.0
 23
0.0
 33
0.0
 40
0.0
 40
0.0
 40
0.0
 40
0.0
 40
1.0
 40
1.0
 40
1.0
 40
2.0
 40
2.0
 40
2.0
 40
3.0
 40
3.0
 40
3.0
 40
4.0
 40
4.0
 40
4.0
 40
4.0
 10
117.1387645115411
 20
-125.4500355241929
 30
0.0
 10
117.1387645115411
 20
-125.394931635318
 30
0.0
 10
117.0939617349064
 20
-125.3501288575513
 30
0.0
 10
117.0388578474233
 20
-125.3501288575513
 30
0.0
 10
116.9830484044027
 20
-125.3501288575513
 30
0.0
 10
116.9382456277679
 20
-125.394931635318
 30
0.0
 10
116.9382456277679
 20
-125.4500355241929
 30
0.0
 10
116.9382456277679
 20
-125.5055274686238
 30
0.0
 10
116.9830484044027
 20
-125.5502949686123
 30
0.0
 10
117.0388578474233
 20
-125.5502949686123
 30
0.0
 10
117.0939617349064
 20
-125.5502949686123
 30
0.0
 10
117.1387645115411
 20
-125.5055274686238
 30
0.0
 10
117.1387645115411
 20
-125.4500355241929
 30
0.0
  0
SPLINE
  5
6B
330
1F
100
AcDbEntity
  8
_U+30EC_U+30A4_U+30E4_U+30FC 1
 62
   179
420
  2234388
370
     9
100
AcDbSpline
210
0.0
220
0.0
230
1.0
 70
    11
 71
     3
 72
    17
 73
    13
 74
     0
 42
0.0000000001
 43
0.0000000001
 12
1.0
 22
0.0
 32
0.0
 13
1.0
 23
0.0
 33
0.0
 40
0.0
 40
0.0
 40
0.0
 40
0.0
 40
1.0
 40
1.0
 40
1.0
 40
2.0
 40
2.0
 40
2.0
 40
3.0
 40
3.0
 40
3.0
 40
4.0
 40
4.0
 40
4.0
 40
4.0
 10
113.1383027494933
 20
-117.4501996928596
 30
0.0
 10
113.1383027494933
 20
-117.3950605262068
 30
0.0
 10
113.0935323925214
 20
-117.3502930262179
 30
0.0
 10
113.0383932272614
 20
-117.3502930262179
 30
0.0
 10
112.9832893397784
 20
-117.3502930262179
 30
0.0
 10
112.9384865631436
 20
-117.3950605262068
 30
0.0
 10
112.9384865631436
 20
-117.4501996928596
 30
0.0
 10
112.9384865631436
 20
-117.5053035817348
 30
0.0
 10
112.9832893397784
 20
-117.5501063595015
 30
0.0
 10
113.0383932272614
 20
-117.5501063595015
 30
0.0
 10
113.0935323925214
 20
-117.5501063595015
 30
0.0
 10
113.1383027494933
 20
-117.5053035817348
 30
0.0
 10
113.1383027494933
 20
-117.4501996928596
 30
0.0
  0
SPLINE
  5
6C
330
1F
100
AcDbEntity
  8
_U+30EC_U+30A4_U+30E4_U+30FC 1
 62
   179
420
  2234388
370
     9
100
AcDbSpline
210
0.0
220
0.0
230
1.0
 70
    11
 71
     3
 72
    17
 73
    13
 74
     0
 42
0.0000000001
 43
0.0000000001
 12
1.0
 22
0.0
 32
0.0
 13
1.0
 23
0.0
 33
0.0
 40
0.0
 40
0.0
 40
0.0
 40
0.0
 40
1.0
 40
1.0
 40
1.0
 40
2.0
 40
2.0
 40
2.0
 40
3.0
 40
3.0
 40
3.0
 40
4.0
 40
4.0
 40
4.0
 40
4.0
 10
113.1383027494933
 20
-121.4499588585264
 30
0.0
 10
113.1383027494933
 20
-121.3948196918737
 30
0.0
 10
113.0935323925214
 20
-121.3500521918848
 30
0.0
 10
113.0383932272614
 20
-121.3500521918848
 30
0.0
 10
112.9832893397784
 20
-121.3500521918848
 30
0.0
 10
112.9384865631436
 20
-121.3948196918737
 30
0.0
 10
112.9384865631436
 20
-121.4499588585264
 30
0.0
 10
112.9384865631436
 20
-121.5054155251791
 30
0.0
 10
112.9832893397784
 20
-121.5502183029459
 30
0.0
 10
113.0383932272614
 20
-121.5502183029459
 30
0.0
 10
113.0935323925214
 20
-121.5502183029459
 30
0.0
 10
113.1383027494933
 20
-121.5054155251791
 30
0.0
 10
113.1383027494933
 20
-121.4499588585264
 30
0.0
  0
SPLINE
  5
6D
330
1F
100
AcDbEntity
  8
_U+30EC_U+30A4_U+30E4_U+30FC 1
 62
   179
420
  2234388
370
     9
100
AcDbSpline
210
0.0
220
0.0
230
1.0
 70
    11
 71
     3
 72
    17
 73
    13
 74
     0
 42
0.0000000001
 43
0.0000000001
 12
1.0
 22
0.0
 32
0.0
 13
1.0
 23
0.0
 33
0.0
 40
0.0
 40
0.0
 40
0.0
 40
0.0
 40
1.0
 40
1.0
 40
1.0
 40
2.0
 40
2.0
 40
2.0
 40
3.0
 40
3.0
 40
3.0
 40
4.0
 40
4.0
 40
4.0
 40
4.0
 10
96.13882115840545
 20
-121.4499588585264
 30
0.0
 10
96.13882115840545
 20
-121.3948196918737
 30
0.0
 10
96.09405365954755
 20
-121.3500521918848
 30
0.0
 10
96.03824421652693
 20
-121.3500521918848
 30
0.0
 10
95.98310505126699
 20
-121.3500521918848
 30
0.0
 10
95.9383375524091
 20
-121.3948196918737
 30
0.0
 10
95.9383375524091
 20
-121.4499588585264
 30
0.0
 10
95.9383375524091
 20
-121.5054155251791
 30
0.0
 10
95.98310505126699
 20
-121.5502183029459
 30
0.0
 10
96.03824421652693
 20
-121.5502183029459
 30
0.0
 10
96.09405365954755
 20
-121.5502183029459
 30
0.0
 10
96.13882115840545
 20
-121.5054155251791
 30
0.0
 10
96.13882115840545
 20
-121.4499588585264
 30
0.0
  0
SPLINE
  5
6E
330
1F
100
AcDbEntity
  8
_U+30EC_U+30A4_U+30E4_U+30FC 1
 62
   179
420
  2234388
370
     9
100
AcDbSpline
210
0.0
220
0.0
230
1.0
 70
    11
 71
     3
 72
    17
 73
    13
 74
     0
 42
0.0000000001
 43
0.0000000001
 12
1.0
 22
0.0
 32
0.0
 13
1.0
 23
0.0
 33
0.0
 40
0.0
 40
0.0
 40
0.0
 40
0.0
 40
1.0
 40
1.0
 40
1.0
 40
2.0
 40
2.0
 40
2.0
 40
3.0
 40
3.0
 40
3.0
 40
4.0
 40
4.0
 40
4.0
 40
4.0
 10
86.13859446908803
 20
-117.4501996928596
 30
0.0
 10
86.13859446908803
 20
-117.3950605262068
 30
0.0
 10
86.09379169245328
 20
-117.3502930262179
 30
0.0
 10
86.03833502720143
 20
-117.3502930262179
 30
0.0
 10
85.98319586194148
 20
-117.3502930262179
 30
0.0
 10
85.9384305340708
 20
-117.3950605262068
 30
0.0
 10
85.9384305340708
 20
-117.4501996928596
 30
0.0
 10
85.9384305340708
 20
-117.5053035817348
 30
0.0
 10
85.98319586194148
 20
-117.5501063595015
 30
0.0
 10
86.03833502720143
 20
-117.5501063595015
 30
0.0
 10
86.09379169245328
 20
-117.5501063595015
 30
0.0
 10
86.13859446908803
 20
-117.5053035817348
 30
0.0
 10
86.13859446908803
 20
-117.4501996928596
 30
0.0
  0
SPLINE
  5
6F
330
1F
100
AcDbEntity
  8
_U+30EC_U+30A4_U+30E4_U+30FC 1
 62
   179
420
  2234388
370
     9
100
AcDbSpline
210
0.0
220
0.0
230
1.0
 70
    11
 71
     3
 72
    17
 73
    13
 74
     0
 42
0.0000000001
 43
0.0000000001
 12
1.0
 22
0.0
 32
0.0
 13
1.0
 23
0.0
 33
0.0
 40
0.0
 40
0.0
 40
0.0
 40
0.0
 40
1.0
 40
1.0
 40
1.0
 40
2.0
 40
2.0
 40
2.0
 40
3.0
 40
3.0
 40
3.0
 40
4.0
 40
4.0
 40
4.0
 40
4.0
 10
86.13859446908803
 20
-121.4499588585264
 30
0.0
 10
86.13859446908803
 20
-121.3948196918737
 30
0.0
 10
86.09379169245328
 20
-121.3500521918848
 30
0.0
 10
86.03833502720143
 20
-121.3500521918848
 30
0.0
 10
85.98319586194148
 20
-121.3500521918848
 30
0.0
 10
85.9384305340708
 20
-121.3948196918737
 30
0.0
 10
85.9384305340708
 20
-121.4499588585264
 30
0.0
 10
85.9384305340708
 20
-121.5054155251791
 30
0.0
 10
85.98319586194148
 20
-121.5502183029459
 30
0.0
 10
86.03833502720143
 20
-121.5502183029459
 30
0.0
 10
86.09379169245328
 20
-121.5502183029459
 30
0.0
 10
86.13859446908803
 20
-121.5054155251791
 30
0.0
 10
86.13859446908803
 20
-121.4499588585264
 30
0.0
  0
SPLINE
  5
70
330
1F
100
AcDbEntity
  8
_U+30EC_U+30A4_U+30E4_U+30FC 1
 62
   179
420
  2234388
370
     9
100
AcDbSpline
210
0.0
220
0.0
230
1.0
 70
    11
 71
     3
 72
    17
 73
    13
 74
     0
 42
0.0000000001
 43
0.0000000001
 12
1.0
 22
0.0
 32
0.0
 13
1.0
 23
0.0
 33
0.0
 40
0.0
 40
0.0
 40
0.0
 40
0.0
 40
1.0
 40
1.0
 40
1.0
 40
2.0
 40
2.0
 40
2.0
 40
3.0
 40
3.0
 40
3.0
 40
4.0
 40
4.0
 40
4.0
 40
4.0
 10
82.13848262669495
 20
-126.6499738572265
 30
0.0
 10
82.13848262669495
 20
-126.5948699683513
 30
0.0
 10
82.09367985006018
 20
-126.5500671905846
 30
0.0
 10
82.03857596257711
 20
-126.5500671905846
 30
0.0
 10
81.98343886839311
 20
-126.5500671905846
 30
0.0
 10
81.93866929845927
 20
-126.5948699683513
 30
0.0
 10
81.93866929845927
 20
-126.6499738572265
 30
0.0
 10
81.93866929845927
 20
-126.7051130238793
 30
0.0
 10
81.98343886839311
 20
-126.7498805238682
 30
0.0
 10
82.03857596257711
 20
-126.7498805238682
 30
0.0
 10
82.09367985006018
 20
-126.7498805238682
 30
0.0
 10
82.13848262669495
 20
-126.7051130238793
 30
0.0
 10
82.13848262669495
 20
-126.6499738572265
 30
0.0
  0
SPLINE
  5
71
330
1F
100
AcDbEntity
  8
_U+30EC_U+30A4_U+30E4_U+30FC 1
 62
   179
420
  2234388
370
     9
100
AcDbSpline
210
0.0
220
0.0
230
1.0
 70
    11
 71
     3
 72
    17
 73
    13
 74
     0
 42
0.0000000001
 43
0.0000000001
 12
1.0
 22
0.0
 32
0.0
 13
1.0
 23
0.0
 33
0.0
 40
0.0
 40
0.0
 40
0.0
 40
0.0
 40
1.0
 40
1.0
 40
1.0
 40
2.0
 40
2.0
 40
2.0
 40
3.0
 40
3.0
 40
3.0
 40
4.0
 40
4.0
 40
4.0
 40
4.0
 10
82.13848262669495
 20
-136.1501735770736
 30
0.0
 10
82.13848262669495
 20
-136.0950696881987
 30
0.0
 10
82.09367985006018
 20
-136.0502669104319
 30
0.0
 10
82.03857596257711
 20
-136.0502669104319
 30
0.0
 10
81.98343886839311
 20
-136.0502669104319
 30
0.0
 10
81.93866929845927
 20
-136.0950696881987
 30
0.0
 10
81.93866929845927
 20
-136.1501735770736
 30
0.0
 10
81.93866929845927
 20
-136.2053127437267
 30
0.0
 10
81.98343886839311
 20
-136.2500802437152
 30
0.0
 10
82.03857596257711
 20
-136.2500802437152
 30
0.0
 10
82.09367985006018
 20
-136.2500802437152
 30
0.0
 10
82.13848262669495
 20
-136.2053127437267
 30
0.0
 10
82.13848262669495
 20
-136.1501735770736
 30
0.0
  0
POLYLINE
  5
72
330
1F
100
AcDbEntity
  8
_U+30EC_U+30A4_U+30E4_U+30FC 1
 62
   179
420
  2234388
370
     9
100
AcDb2dPolyline
 66
     1
 10
0.0
 20
0.0
 30
0.0
  0
VERTEX
  5
73
330
72
100
AcDbEntity
  8
_U+30EC_U+30A4_U+30E4_U+30FC 1
 62
   179
420
  2234388
370
     9
100
AcDbVertex
100
AcDb2dVertex
 10
67.03758328972877
 20
-136.1501735770736
 30
0.0
  0
VERTEX
  5
74
330
72
100
AcDbEntity
  8
_U+30EC_U+30A4_U+30E4_U+30FC 1
 62
   179
420
  2234388
370
     9
100
AcDbVertex
100
AcDb2dVertex
 10
67.03758328972877
 20
-130.8922677450547
 30
0.0
  0
SEQEND
  5
75
330
72
100
AcDbEntity
  8
_U+30EC_U+30A4_U+30E4_U+30FC 1
 62
   179
420
  2234388
370
     9
  0
POLYLINE
  5
76
330
1F
100
AcDbEntity
  8
_U+30EC_U+30A4_U+30E4_U+30FC 1
 62
   179
420
  2234388
370
     9
100
AcDb2dPolyline
 66
     1
 10
0.0
 20
0.0
 30
0.0
  0
VERTEX
  5
77
330
76
100
AcDbEntity
  8
_U+30EC_U+30A4_U+30E4_U+30FC 1
 62
   179
420
  2234388
370
     9
100
AcDbVertex
100
AcDb2dVertex
 10
67.03758328972877
 20
-136.1501735770736
 30
0.0
  0
VERTEX
  5
78
330
76
100
AcDbEntity
  8
_U+30EC_U+30A4_U+30E4_U+30FC 1
 62
   179
420
  2234388
370
     9
100
AcDbVertex
100
AcDb2dVertex
 10
67.03758328972877
 20
-138.3502016320793
 30
0.0
  0
SEQEND
  5
79
330
76
100
AcDbEntity
  8
_U+30EC_U+30A4_U+30E4_U+30FC 1
 62
   179
420
  2234388
370
     9
  0
POLYLINE
  5
7A
330
1F
100
AcDbEntity
  8
_U+30EC_U+30A4_U+30E4_U+30FC 1
 62
   179
420
  2234388
370
     9
100
AcDb2dPolyline
 66
     1
 10
0.0
 20
0.0
 30
0.0
  0
VERTEX
  5
7B
330
7A
100
AcDbEntity
  8
_U+30EC_U+30A4_U+30E4_U+30FC 1
 62
   179
420
  2234388
370
     9
100
AcDbVertex
100
AcDb2dVertex
 10
68.4976246413689
 20
-136.1501735770736
 30
0.0
  0
VERTEX
  5
7C
330
7A
100
AcDbEntity
  8
_U+30EC_U+30A4_U+30E4_U+30FC 1
 62
   179
420
  2234388
370
     9
100
AcDbVertex
100
AcDb2dVertex
 10
66.03781109301286
 20
-136.1501735770736
 30
0.0
  0
SEQEND
  5
7D
330
7A
100
AcDbEntity
  8
_U+30EC_U+30A4_U+30E4_U+30FC 1
 62
   179
420
  2234388
370
     9
  0
POLYLINE
  5
7E
330
1F
100
AcDbEntity
  8
_U+30EC_U+30A4_U+30E4_U+30FC 1
 62
   179
420
  2234388
370
     9
100
AcDb2dPolyline
 66
     1
 10
0.0
 20
0.0
 30
0.0
  0
VERTEX
  5
7F
330
7E
100
AcDbEntity
  8
_U+30EC_U+30A4_U+30E4_U+30FC 1
 62
   179
420
  2234388
370
     9
100
AcDbVertex
100
AcDb2dVertex
 10
68.4976246413689
 20
-137.3501119101072
 30
0.0
  0
VERTEX
  5
80
330
7E
100
AcDbEntity
  8
_U+30EC_U+30A4_U+30E4_U+30FC 1
 62
   179
420
  2234388
370
     9
100
AcDbVertex
100
AcDb2dVertex
 10
66.03781109301286
 20
-137.3501119101072
 30
0.0
  0
SEQEND
  5
81
330
7E
100
AcDbEntity
  8
_U+30EC_U+30A4_U+30E4_U+30FC 1
 62
   179
420
  2234388
370
     9
  0
INSERT
  5
83
330
1F
100
AcDbEntity
  8
_U+30EC_U+30A4_U+30E4_U+30FC 1
100
AcDbBlockReference
  2
block 2
 10
0.0
 20
0.0
 30
0.0
  0
POLYLINE
  5
92
330
1F
100
AcDbEntity
  8
_U+30EC_U+30A4_U+30E4_U+30FC 1
 62
   179
420
  2234388
370
     9
100
AcDb2dPolyline
 66
     1
 10
0.0
 20
0.0
 30
0.0
  0
VERTEX
  5
93
330
92
100
AcDbEntity
  8
_U+30EC_U+30A4_U+30E4_U+30FC 1
 62
   179
420
  2234388
370
     9
100
AcDbVertex
100
AcDb2dVertex
 10
69.03850351645882
 20
-141.3501885757736
 30
0.0
  0
VERTEX
  5
94
330
92
100
AcDbEntity
  8
_U+30EC_U+30A4_U+30E4_U+30FC 1
 62
   179
420
  2234388
370
     9
100
AcDbVertex
100
AcDb2dVertex
 10
113.0383932272614
 20
-141.3501885757736
 30
0.0
  0
SEQEND
  5
95
330
92
100
AcDbEntity
  8
_U+30EC_U+30A4_U+30E4_U+30FC 1
 62
   179
420
  2234388
370
     9
  0
POLYLINE
  5
96
330
1F
100
AcDbEntity
  8
_U+30EC_U+30A4_U+30E4_U+30FC 1
 62
   179
420
  2234388
370
     9
100
AcDb2dPolyline
 66
     1
 10
0.0
 20
0.0
 30
0.0
  0
VERTEX
  5
97
330
96
100
AcDbEntity
  8
_U+30EC_U+30A4_U+30E4_U+30FC 1
 62
   179
420
  2234388
370
     9
100
AcDbVertex
100
AcDb2dVertex
 10
69.03850351645882
 20
-139.8901824650274
 30
0.0
  0
VERTEX
  5
98
330
96
100
AcDbEntity
  8
_U+30EC_U+30A4_U+30E4_U+30FC 1
 62
   179
420
  2234388
370
     9
100
AcDbVertex
100
AcDb2dVertex
 10
69.03850351645882
 20
-142.3499607977455
 30
0.0
  0
SEQEND
  5
99
330
96
100
AcDbEntity
  8
_U+30EC_U+30A4_U+30E4_U+30FC 1
 62
   179
420
  2234388
370
     9
  0
POLYLINE
  5
9A
330
1F
100
AcDbEntity
  8
_U+30EC_U+30A4_U+30E4_U+30FC 1
 62
   179
420
  2234388
370
     9
100
AcDb2dPolyline
 66
     1
 10
0.0
 20
0.0
 30
0.0
  0
VERTEX
  5
9B
330
9A
100
AcDbEntity
  8
_U+30EC_U+30A4_U+30E4_U+30FC 1
 62
   179
420
  2234388
370
     9
100
AcDbVertex
100
AcDb2dVertex
 10
113.0383932272614
 20
-138.6902441319939
 30
0.0
  0
VERTEX
  5
9C
330
9A
100
AcDbEntity
  8
_U+30EC_U+30A4_U+30E4_U+30FC 1
 62
   179
420
  2234388
370
     9
100
AcDbVertex
100
AcDb2dVertex
 10
113.0383932272614
 20
-142.3499607977455
 30
0.0
  0
SEQEND
  5
9D
330
9A
100
AcDbEntity
  8
_U+30EC_U+30A4_U+30E4_U+30FC 1
 62
   179
420
  2234388
370
     9
  0
INSERT
  5
9F
330
1F
100
AcDbEntity
  8
_U+30EC_U+30A4_U+30E4_U+30FC 1
100
AcDbBlockReference
  2
block 3
 10
0.0
 20
0.0
 30
0.0
  0
POLYLINE
  5
CC
330
1F
100
AcDbEntity
  8
_U+30EC_U+30A4_U+30E4_U+30FC 1
 62
   179
420
  2234388
370
     9
100
AcDb2dPolyline
 66
     1
 10
0.0
 20
0.0
 30
0.0
  0
VERTEX
  5
CD
330
CC
100
AcDbEntity
  8
_U+30EC_U+30A4_U+30E4_U+30FC 1
 62
   179
420
  2234388
370
     9
100
AcDbVertex
100
AcDb2dVertex
 10
117.0388578474233
 20
-125.4500355241929
 30
0.0
  0
VERTEX
  5
CE
330
CC
100
AcDbEntity
  8
_U+30EC_U+30A4_U+30E4_U+30FC 1
 62
   179
420
  2234388
370
     9
100
AcDbVertex
100
AcDb2dVertex
 10
117.0388578474233
 20
-137.3501119101072
 30
0.0
  0
SEQEND
  5
CF
330
CC
100
AcDbEntity
  8
_U+30EC_U+30A4_U+30E4_U+30FC 1
 62
   179
420
  2234388
370
     9
  0
POLYLINE
  5
D0
330
1F
100
AcDbEntity
  8
_U+30EC_U+30A4_U+30E4_U+30FC 1
 62
   179
420
  2234388
370
     9
100
AcDb2dPolyline
 66
     1
 10
0.0
 20
0.0
 30
0.0
  0
VERTEX
  5
D1
330
D0
100
AcDbEntity
  8
_U+30EC_U+30A4_U+30E4_U+30FC 1
 62
   179
420
  2234388
370
     9
100
AcDbVertex
100
AcDb2dVertex
 10
96.94290752678039
 20
-125.4500355241929
 30
0.0
  0
VERTEX
  5
D2
330
D0
100
AcDbEntity
  8
_U+30EC_U+30A4_U+30E4_U+30FC 1
 62
   179
420
  2234388
370
     9
100
AcDbVertex
100
AcDb2dVertex
 10
118.0386300441392
 20
-125.4500355241929
 30
0.0
  0
SEQEND
  5
D3
330
D0
100
AcDbEntity
  8
_U+30EC_U+30A4_U+30E4_U+30FC 1
 62
   179
420
  2234388
370
     9
  0
POLYLINE
  5
D4
330
1F
100
AcDbEntity
  8
_U+30EC_U+30A4_U+30E4_U+30FC 1
 62
   179
420
  2234388
370
     9
100
AcDb2dPolyline
 66
     1
 10
0.0
 20
0.0
 30
0.0
  0
VERTEX
  5
D5
330
D4
100
AcDbEntity
  8
_U+30EC_U+30A4_U+30E4_U+30FC 1
 62
   179
420
  2234388
370
     9
100
AcDbVertex
100
AcDb2dVertex
 10
114.3785606930709
 20
-137.3501119101072
 30
0.0
  0
VERTEX
  5
D6
330
D4
100
AcDbEntity
  8
_U+30EC_U+30A4_U+30E4_U+30FC 1
 62
   179
420
  2234388
370
     9
100
AcDbVertex
100
AcDb2dVertex
 10
118.0386300441392
 20
-137.3501119101072
 30
0.0
  0
SEQEND
  5
D7
330
D4
100
AcDbEntity
  8
_U+30EC_U+30A4_U+30E4_U+30FC 1
 62
   179
420
  2234388
370
     9
  0
INSERT
  5
D9
330
1F
100
AcDbEntity
  8
_U+30EC_U+30A4_U+30E4_U+30FC 1
100
AcDbBlockReference
  2
block 4
 10
0.0
 20
0.0
 30
0.0
  0
POLYLINE
  5
EB
330
1F
100
AcDbEntity
  8
_U+30EC_U+30A4_U+30E4_U+30FC 1
 62
   179
420
  2234388
370
     9
100
AcDb2dPolyline
 66
     1
 10
0.0
 20
0.0
 30
0.0
  0
VERTEX
  5
EC
330
EB
100
AcDbEntity
  8
_U+30EC_U+30A4_U+30E4_U+30FC 1
 62
   179
420
  2234388
370
     9
100
AcDbVertex
100
AcDb2dVertex
 10
96.03824421652693
 20
-121.4499588585264
 30
0.0
  0
VERTEX
  5
ED
330
EB
100
AcDbEntity
  8
_U+30EC_U+30A4_U+30E4_U+30FC 1
 62
   179
420
  2234388
370
     9
100
AcDbVertex
100
AcDb2dVertex
 10
113.0383932272614
 20
-121.4499588585264
 30
0.0
  0
SEQEND
  5
EE
330
EB
100
AcDbEntity
  8
_U+30EC_U+30A4_U+30E4_U+30FC 1
 62
   179
420
  2234388
370
     9
  0
POLYLINE
  5
EF
330
1F
100
AcDbEntity
  8
_U+30EC_U+30A4_U+30E4_U+30FC 1
 62
   179
420
  2234388
370
     9
100
AcDb2dPolyline
 66
     1
 10
0.0
 20
0.0
 30
0.0
  0
VERTEX
  5
F0
330
EF
100
AcDbEntity
  8
_U+30EC_U+30A4_U+30E4_U+30FC 1
 62
   179
420
  2234388
370
     9
100
AcDbVertex
100
AcDb2dVertex
 10
96.03824421652693
 20
-122.9100002470502
 30
0.0
  0
VERTEX
  5
F1
330
EF
100
AcDbEntity
  8
_U+30EC_U+30A4_U+30E4_U+30FC 1
 62
   179
420
  2234388
370
     9
100
AcDbVertex
100
AcDb2dVertex
 10
96.03824421652693
 20
-120.4501866365542
 30
0.0
  0
SEQEND
  5
F2
330
EF
100
AcDbEntity
  8
_U+30EC_U+30A4_U+30E4_U+30FC 1
 62
   179
420
  2234388
370
     9
  0
POLYLINE
  5
F3
330
1F
100
AcDbEntity
  8
_U+30EC_U+30A4_U+30E4_U+30FC 1
 62
   179
420
  2234388
370
     9
100
AcDb2dPolyline
 66
     1
 10
0.0
 20
0.0
 30
0.0
  0
VERTEX
  5
F4
330
F3
100
AcDbEntity
  8
_U+30EC_U+30A4_U+30E4_U+30FC 1
 62
   179
420
  2234388
370
     9
100
AcDbVertex
100
AcDb2dVertex
 10
113.0383932272614
 20
-133.6101030221533
 30
0.0
  0
VERTEX
  5
F5
330
F3
100
AcDbEntity
  8
_U+30EC_U+30A4_U+30E4_U+30FC 1
 62
   179
420
  2234388
370
     9
100
AcDbVertex
100
AcDb2dVertex
 10
113.0383932272614
 20
-120.4501866365542
 30
0.0
  0
SEQEND
  5
F6
330
F3
100
AcDbEntity
  8
_U+30EC_U+30A4_U+30E4_U+30FC 1
 62
   179
420
  2234388
370
     9
  0
INSERT
  5
F8
330
1F
100
AcDbEntity
  8
_U+30EC_U+30A4_U+30E4_U+30FC 1
100
AcDbBlockReference
  2
block 5
 10
0.0
 20
0.0
 30
0.0
  0
POLYLINE
  5
FF
330
1F
100
AcDbEntity
  8
_U+30EC_U+30A4_U+30E4_U+30FC 1
 62
   179
420
  2234388
370
     9
100
AcDb2dPolyline
 66
     1
 10
0.0
 20
0.0
 30
0.0
  0
VERTEX
  5
100
330
FF
100
AcDbEntity
  8
_U+30EC_U+30A4_U+30E4_U+30FC 1
 62
   179
420
  2234388
370
     9
100
AcDbVertex
100
AcDb2dVertex
 10
86.03833502720143
 20
-121.4499588585264
 30
0.0
  0
VERTEX
  5
101
330
FF
100
AcDbEntity
  8
_U+30EC_U+30A4_U+30E4_U+30FC 1
 62
   179
420
  2234388
370
     9
100
AcDbVertex
100
AcDb2dVertex
 10
96.03824421652693
 20
-121.4499588585264
 30
0.0
  0
SEQEND
  5
102
330
FF
100
AcDbEntity
  8
_U+30EC_U+30A4_U+30E4_U+30FC 1
 62
   179
420
  2234388
370
     9
  0
POLYLINE
  5
103
330
1F
100
AcDbEntity
  8
_U+30EC_U+30A4_U+30E4_U+30FC 1
 62
   179
420
  2234388
370
     9
100
AcDb2dPolyline
 66
     1
 10
0.0
 20
0.0
 30
0.0
  0
VERTEX
  5
104
330
103
100
AcDbEntity
  8
_U+30EC_U+30A4_U+30E4_U+30FC 1
 62
   179
420
  2234388
370
     9
100
AcDbVertex
100
AcDb2dVertex
 10
86.03833502720143
 20
-122.9100002470502
 30
0.0
  0
VERTEX
  5
105
330
103
100
AcDbEntity
  8
_U+30EC_U+30A4_U+30E4_U+30FC 1
 62
   179
420
  2234388
370
     9
100
AcDbVertex
100
AcDb2dVertex
 10
86.03833502720143
 20
-120.4501866365542
 30
0.0
  0
SEQEND
  5
106
330
103
100
AcDbEntity
  8
_U+30EC_U+30A4_U+30E4_U+30FC 1
 62
   179
420
  2234388
370
     9
  0
INSERT
  5
108
330
1F
100
AcDbEntity
  8
_U+30EC_U+30A4_U+30E4_U+30FC 1
100
AcDbBlockReference
  2
block 6
 10
0.0
 20
0.0
 30
0.0
  0
POLYLINE
  5
110
330
1F
100
AcDbEntity
  8
_U+30EC_U+30A4_U+30E4_U+30FC 1
 62
   179
420
  2234388
370
     9
100
AcDb2dPolyline
 66
     1
 10
0.0
 20
0.0
 30
0.0
  0
VERTEX
  5
111
330
110
100
AcDbEntity
  8
_U+30EC_U+30A4_U+30E4_U+30FC 1
 62
   179
420
  2234388
370
     9
100
AcDbVertex
100
AcDb2dVertex
 10
86.03833502720143
 20
-117.4501996928596
 30
0.0
  0
VERTEX
  5
112
330
110
100
AcDbEntity
  8
_U+30EC_U+30A4_U+30E4_U+30FC 1
 62
   179
420
  2234388
370
     9
100
AcDbVertex
100
AcDb2dVertex
 10
113.0383932272614
 20
-117.4501996928596
 30
0.0
  0
SEQEND
  5
113
330
110
100
AcDbEntity
  8
_U+30EC_U+30A4_U+30E4_U+30FC 1
 62
   179
420
  2234388
370
     9
  0
POLYLINE
  5
114
330
1F
100
AcDbEntity
  8
_U+30EC_U+30A4_U+30E4_U+30FC 1
 62
   179
420
  2234388
370
     9
100
AcDb2dPolyline
 66
     1
 10
0.0
 20
0.0
 30
0.0
  0
VERTEX
  5
115
330
114
100
AcDbEntity
  8
_U+30EC_U+30A4_U+30E4_U+30FC 1
 62
   179
420
  2234388
370
     9
100
AcDbVertex
100
AcDb2dVertex
 10
86.03833502720143
 20
-122.9100002470502
 30
0.0
  0
VERTEX
  5
116
330
114
100
AcDbEntity
  8
_U+30EC_U+30A4_U+30E4_U+30FC 1
 62
   179
420
  2234388
370
     9
100
AcDbVertex
100
AcDb2dVertex
 10
86.03833502720143
 20
-116.4500746931096
 30
0.0
  0
SEQEND
  5
117
330
114
100
AcDbEntity
  8
_U+30EC_U+30A4_U+30E4_U+30FC 1
 62
   179
420
  2234388
370
     9
  0
POLYLINE
  5
118
330
1F
100
AcDbEntity
  8
_U+30EC_U+30A4_U+30E4_U+30FC 1
 62
   179
420
  2234388
370
     9
100
AcDb2dPolyline
 66
     1
 10
0.0
 20
0.0
 30
0.0
  0
VERTEX
  5
119
330
118
100
AcDbEntity
  8
_U+30EC_U+30A4_U+30E4_U+30FC 1
 62
   179
420
  2234388
370
     9
100
AcDbVertex
100
AcDb2dVertex
 10
113.0383932272614
 20
-133.6101030221533
 30
0.0
  0
VERTEX
  5
11A
330
118
100
AcDbEntity
  8
_U+30EC_U+30A4_U+30E4_U+30FC 1
 62
   179
420
  2234388
370
     9
100
AcDbVertex
100
AcDb2dVertex
 10
113.0383932272614
 20
-116.4500746931096
 30
0.0
  0
SEQEND
  5
11B
330
118
100
AcDbEntity
  8
_U+30EC_U+30A4_U+30E4_U+30FC 1
 62
   179
420
  2234388
370
     9
  0
INSERT
  5
11D
330
1F
100
AcDbEntity
  8
_U+30EC_U+30A4_U+30E4_U+30FC 1
100
AcDbBlockReference
  2
block 7
 10
0.0
 20
0.0
 30
0.0
  0
POLYLINE
  5
124
330
1F
100
AcDbEntity
  8
_U+30EC_U+30A4_U+30E4_U+30FC 1
 62
   179
420
  2234388
370
     9
100
AcDb2dPolyline
 66
     1
 10
0.0
 20
0.0
 30
0.0
  0
VERTEX
  5
125
330
124
100
AcDbEntity
  8
_U+30EC_U+30A4_U+30E4_U+30FC 1
 62
   179
420
  2234388
370
     9
100
AcDbVertex
100
AcDb2dVertex
 10
82.03857596257711
 20
-126.6499738572265
 30
0.0
  0
VERTEX
  5
126
330
124
100
AcDbEntity
  8
_U+30EC_U+30A4_U+30E4_U+30FC 1
 62
   179
420
  2234388
370
     9
100
AcDbVertex
100
AcDb2dVertex
 10
82.03857596257711
 20
-136.1501735770736
 30
0.0
  0
SEQEND
  5
127
330
124
100
AcDbEntity
  8
_U+30EC_U+30A4_U+30E4_U+30FC 1
 62
   179
420
  2234388
370
     9
  0
POLYLINE
  5
128
330
1F
100
AcDbEntity
  8
_U+30EC_U+30A4_U+30E4_U+30FC 1
 62
   179
420
  2234388
370
     9
100
AcDb2dPolyline
 66
     1
 10
0.0
 20
0.0
 30
0.0
  0
VERTEX
  5
129
330
128
100
AcDbEntity
  8
_U+30EC_U+30A4_U+30E4_U+30FC 1
 62
   179
420
  2234388
370
     9
100
AcDbVertex
100
AcDb2dVertex
 10
83.4986194235699
 20
-126.6499738572265
 30
0.0
  0
VERTEX
  5
12A
330
128
100
AcDbEntity
  8
_U+30EC_U+30A4_U+30E4_U+30FC 1
 62
   179
420
  2234388
370
     9
100
AcDbVertex
100
AcDb2dVertex
 10
81.03845098809244
 20
-126.6499738572265
 30
0.0
  0
SEQEND
  5
12B
330
128
100
AcDbEntity
  8
_U+30EC_U+30A4_U+30E4_U+30FC 1
 62
   179
420
  2234388
370
     9
  0
INSERT
  5
12D
330
1F
100
AcDbEntity
  8
_U+30EC_U+30A4_U+30E4_U+30FC 1
100
AcDbBlockReference
  2
block 8
 10
0.0
 20
0.0
 30
0.0
  0
ENDSEC
  0
SECTION
  2
OBJECTS
  0
DICTIONARY
  5
C
330
0
100
AcDbDictionary
281
     1
  3
ACAD_GROUP
350
D
  3
ACAD_LAYOUT
350
1A
  3
ACAD_MATERIAL
350
3B
  3
ACAD_MLEADERSTYLE
350
13E
  3
ACAD_MLINESTYLE
350
17
  3
ACAD_PLOTSETTINGS
350
19
  3
ACAD_PLOTSTYLENAME
350
E
  3
ACAD_TABLESTYLE
350
13D
  3
ACAD_VISUALSTYLE
350
2A
  0
SUN
  5
3F
330
29
100
AcDbSun
 90
        1
290
     0
 63
     7
421
 16777215
 40
1.0
291
     1
 91
  2455826
 92
 54000000
292
     0
 70
     2
 71
   256
280
     1
  0
DICTIONARY
  5
D
102
{ACAD_REACTORS
330
C
102
}
330
C
100
AcDbDictionary
281
     1
  0
DICTIONARY
  5
1A
102
{ACAD_REACTORS
330
C
102
}
330
C
100
AcDbDictionary
281
     1
  3
Layout1
350
1E
  3
Layout2
350
26
  3
Model
350
22
  0
DICTIONARY
  5
3B
102
{ACAD_REACTORS
330
C
102
}
330
C
100
AcDbDictionary
281
     1
  3
ByBlock
350
3D
  3
ByLayer
350
3C
  3
Global
350
3E
  0
DICTIONARY
  5
13E
102
{ACAD_REACTORS
330
C
102
}
330
C
100
AcDbDictionary
281
     1
  0
DICTIONARY
  5
17
102
{ACAD_REACTORS
330
C
102
}
330
C
100
AcDbDictionary
281
     1
  3
Standard
350
18
  0
DICTIONARY
  5
19
102
{ACAD_REACTORS
330
C
102
}
330
C
100
AcDbDictionary
281
     1
  0
ACDBDICTIONARYWDFLT
  5
E
102
{ACAD_REACTORS
330
C
102
}
330
C
100
AcDbDictionary
281
     1
  3
Normal
350
F
100
AcDbDictionaryWithDefault
340
F
  0
DICTIONARY
  5
13D
102
{ACAD_REACTORS
330
C
102
}
330
C
100
AcDbDictionary
281
     1
  0
DICTIONARY
  5
2A
102
{ACAD_REACTORS
330
C
102
}
330
C
100
AcDbDictionary
281
     1
  3
2dWireframe
350
2F
  3
3D Hidden
350
31
  3
3dWireframe
350
30
  3
Basic
350
32
  3
Brighten
350
36
  3
ColorChange
350
3A
  3
Conceptual
350
34
  3
Dim
350
35
  3
Facepattern
350
39
  3
Flat
350
2B
  3
FlatWithEdges
350
2C
  3
Gouraud
350
2D
  3
GouraudWithEdges
350
2E
  3
Linepattern
350
38
  3
Realistic
350
33
  3
Thicken
350
37
  0
LAYOUT
  5
1E
102
{ACAD_REACTORS
330
1A
102
}
330
1A
100
AcDbPlotSettings
  1

  2
none_device
  4

  6

 40
0.0
 41
0.0
 42
0.0
 43
0.0
 44
0.0
 45
0.0
 46
0.0
 47
0.0
 48
0.0
 49
0.0
140
0.0
141
0.0
142
1.0
143
1.0
 70
   688
 72
     0
 73
     0
 74
     5
  7

 75
    16
 76
     0
 77
     2
 78
   300
147
1.0
148
0.0
149
0.0
100
AcDbLayout
  1
Layout1
 70
     1
 71
     1
 10
0.0
 20
0.0
 11
12.0
 21
9.0
 12
0.0
 22
0.0
 32
0.0
 14
1.000000000000000E+20
 24
1.000000000000000E+20
 34
1.000000000000000E+20
 15
-1.000000000000000E+20
 25
-1.000000000000000E+20
 35
-1.000000000000000E+20
146
0.0
 13
0.0
 23
0.0
 33
0.0
 16
1.0
 26
0.0
 36
0.0
 17
0.0
 27
1.0
 37
0.0
 76
     0
330
1B
  0
LAYOUT
  5
26
102
{ACAD_REACTORS
330
1A
102
}
330
1A
100
AcDbPlotSettings
  1

  2
none_device
  4

  6

 40
0.0
 41
0.0
 42
0.0
 43
0.0
 44
0.0
 45
0.0
 46
0.0
 47
0.0
 48
0.0
 49
0.0
140
0.0
141
0.0
142
1.0
143
1.0
 70
   688
 72
     0
 73
     0
 74
     5
  7

 75
    16
 76
     0
 77
     2
 78
   300
147
1.0
148
0.0
149
0.0
100
AcDbLayout
  1
Layout2
 70
     1
 71
     2
 10
0.0
 20
0.0
 11
0.0
 21
0.0
 12
0.0
 22
0.0
 32
0.0
 14
0.0
 24
0.0
 34
0.0
 15
0.0
 25
0.0
 35
0.0
146
0.0
 13
0.0
 23
0.0
 33
0.0
 16
1.0
 26
0.0
 36
0.0
 17
0.0
 27
1.0
 37
0.0
 76
     0
330
23
  0
LAYOUT
  5
22
102
{ACAD_REACTORS
330
1A
102
}
330
1A
100
AcDbPlotSettings
  1

  2
none_device
  4

  6

 40
0.0
 41
0.0
 42
0.0
 43
0.0
 44
0.0
 45
0.0
 46
0.0
 47
0.0
 48
0.0
 49
0.0
140
0.0
141
0.0
142
1.0
143
1.0
 70
  1712
 72
     0
 73
     0
 74
     0
  7

 75
     0
 76
     0
 77
     2
 78
   300
147
1.0
148
0.0
149
0.0
100
AcDbLayout
  1
Model
 70
     1
 71
     0
 10
0.0
 20
0.0
 11
12.0
 21
9.0
 12
0.0
 22
0.0
 32
0.0
 14
1.000000000000000E+20
 24
1.000000000000000E+20
 34
1.000000000000000E+20
 15
-1.000000000000000E+20
 25
-1.000000000000000E+20
 35
-1.000000000000000E+20
146
0.0
 13
0.0
 23
0.0
 33
0.0
 16
1.0
 26
0.0
 36
0.0
 17
0.0
 27
1.0
 37
0.0
 76
     0
330
1F
331
29
  0
MATERIAL
  5
3D
102
{ACAD_REACTORS
330
3B
102
}
330
3B
100
AcDbMaterial
  1
ByBlock
 72
     1
 94
      127
  0
MATERIAL
  5
3C
102
{ACAD_REACTORS
330
3B
102
}
330
3B
100
AcDbMaterial
  1
ByLayer
 72
     1
 94
      127
  0
MATERIAL
  5
3E
102
{ACAD_REACTORS
330
3B
102
}
330
3B
100
AcDbMaterial
  1
Global
 72
     1
 94
      127
  0
MLINESTYLE
  5
18
102
{ACAD_REACTORS
330
17
102
}
330
17
100
AcDbMlineStyle
  2
Standard
 70
     0
  3

 62
   256
 51
90.0
 52
90.0
 71
     2
 49
0.5
 62
   256
  6
BYLAYER
 49
-0.5
 62
   256
  6
BYLAYER
  0
ACDBPLACEHOLDER
  5
F
102
{ACAD_REACTORS
330
E
102
}
330
E
  0
VISUALSTYLE
  5
2F
102
{ACAD_REACTORS
330
2A
102
}
330
2A
100
AcDbVisualStyle
  2
2dWireframe
 70
     4
177
     2
291
     0
 71
     0
176
     1
 72
     2
176
     1
 73
     0
176
     1
 90
        0
176
     1
 40
-0.6
176
     1
 41
-30.0
176
     1
 62
     5
 63
     7
421
 16777215
176
     1
 74
     1
176
     1
 91
        4
176
     1
 64
     7
176
     1
 65
   257
176
     1
 75
     1
176
     1
175
     1
176
     1
 42
1.0
176
     1
 92
        0
176
     1
 66
   257
176
     1
 43
1.0
176
     1
 76
     1
176
     1
 77
     6
176
     1
 78
     2
176
     1
 67
     7
176
     1
 79
     5
176
     1
170
     0
176
     1
171
     0
176
     1
290
     0
176
     1
 93
        1
176
     1
 44
0.0
176
     1
173
     0
176
     1
  0
VISUALSTYLE
  5
31
102
{ACAD_REACTORS
330
2A
102
}
330
2A
100
AcDbVisualStyle
  2
3D Hidden
 70
     6
177
     2
291
     0
 71
     1
176
     1
 72
     2
176
     1
 73
     2
176
     1
 90
        0
176
     1
 40
-0.6
176
     1
 41
-30.0
176
     1
 62
     5
 63
     7
421
 16777215
176
     1
 74
     2
176
     1
 91
        2
176
     1
 64
     7
176
     1
 65
   257
176
     1
 75
     2
176
     1
175
     1
176
     1
 42
40.0
176
     1
 92
        0
176
     1
 66
   257
176
     1
 43
1.0
176
     1
 76
     1
176
     1
 77
     6
176
     1
 78
     2
176
     1
 67
     7
176
     1
 79
     3
176
     1
170
     0
176
     1
171
     0
176
     1
290
     0
176
     1
 93
        1
176
     1
 44
0.0
176
     1
173
     0
176
     1
  0
VISUALSTYLE
  5
30
102
{ACAD_REACTORS
330
2A
102
}
330
2A
100
AcDbVisualStyle
  2
3dWireframe
 70
     5
177
     2
291
     0
 71
     0
176
     1
 72
     2
176
     1
 73
     0
176
     1
 90
        0
176
     1
 40
-0.6
176
     1
 41
-30.0
176
     1
 62
     5
 63
     7
421
 16777215
176
     1
 74
     1
176
     1
 91
        4
176
     1
 64
     7
176
     1
 65
   257
176
     1
 75
     1
176
     1
175
     1
176
     1
 42
1.0
176
     1
 92
        0
176
     1
 66
   257
176
     1
 43
1.0
176
     1
 76
     1
176
     1
 77
     6
176
     1
 78
     2
176
     1
 67
     7
176
     1
 79
     5
176
     1
170
     0
176
     1
171
     0
176
     1
290
     0
176
     1
 93
        1
176
     1
 44
0.0
176
     1
173
     0
176
     1
  0
VISUALSTYLE
  5
32
102
{ACAD_REACTORS
330
2A
102
}
330
2A
100
AcDbVisualStyle
  2
Basic
 70
     7
177
     2
291
     1
 71
     1
176
     1
 72
     0
176
     1
 73
     1
176
     1
 90
        0
176
     1
 40
-0.6
176
     1
 41
-30.0
176
     1
 62
     5
 63
     7
421
 16777215
176
     1
 74
     0
176
     1
 91
        4
176
     1
 64
     7
176
     1
 65
   257
176
     1
 75
     1
176
     1
175
     1
176
     1
 42
1.0
176
     1
 92
        8
176
     1
 66
     7
176
     1
 43
1.0
176
     1
 76
     1
176
     1
 77
     6
176
     1
 78
     2
176
     1
 67
     7
176
     1
 79
     5
176
     1
170
     0
176
     1
171
     0
176
     1
290
     0
176
     1
 93
        1
176
     1
 44
0.0
176
     1
173
     0
176
     1
  0
VISUALSTYLE
  5
36
102
{ACAD_REACTORS
330
2A
102
}
330
2A
100
AcDbVisualStyle
  2
Brighten
 70
    12
177
     2
291
     1
 71
     2
176
     1
 72
     2
176
     1
 73
     0
176
     1
 90
        0
176
     1
 40
-0.6
176
     1
 41
-30.0
176
     1
 62
     5
 63
     7
421
 16777215
176
     1
 74
     1
176
     1
 91
        4
176
     1
 64
     7
176
     1
 65
   257
176
     1
 75
     1
176
     1
175
     1
176
     1
 42
1.0
176
     1
 92
        8
176
     1
 66
     7
176
     1
 43
1.0
176
     1
 76
     1
176
     1
 77
     6
176
     1
 78
     2
176
     1
 67
     7
176
     1
 79
     5
176
     1
170
     0
176
     1
171
     0
176
     1
290
     0
176
     1
 93
        1
176
     1
 44
50.0
176
     1
173
     0
176
     1
  0
VISUALSTYLE
  5
3A
102
{ACAD_REACTORS
330
2A
102
}
330
2A
100
AcDbVisualStyle
  2
ColorChange
 70
    16
177
     2
291
     1
 71
     2
176
     1
 72
     2
176
     1
 73
     3
176
     1
 90
        0
176
     1
 40
-0.6
176
     1
 41
-30.0
176
     1
 62
     5
 63
     8
421
  8421504
176
     1
 74
     1
176
     1
 91
        4
176
     1
 64
     7
176
     1
 65
   257
176
     1
 75
     1
176
     1
175
     1
176
     1
 42
1.0
176
     1
 92
        8
176
     1
 66
     8
424
  8421504
176
     1
 43
1.0
176
     1
 76
     1
176
     1
 77
     6
176
     1
 78
     2
176
     1
 67
     7
176
     1
 79
     5
176
     1
170
     0
176
     1
171
     0
176
     1
290
     0
176
     1
 93
        1
176
     1
 44
0.0
176
     1
173
     0
176
     1
  0
VISUALSTYLE
  5
34
102
{ACAD_REACTORS
330
2A
102
}
330
2A
100
AcDbVisualStyle
  2
Conceptual
 70
     9
177
     2
291
     0
 71
     3
176
     1
 72
     2
176
     1
 73
     0
176
     1
 90
        0
176
     1
 40
-0.6
176
     1
 41
-30.0
176
     1
 62
     5
 63
     7
421
 16777215
176
     1
 74
     2
176
     1
 91
        2
176
     1
 64
     7
176
     1
 65
   257
176
     1
 75
     1
176
     1
175
     1
176
     1
 42
40.0
176
     1
 92
        8
176
     1
 66
     7
176
     1
 43
1.0
176
     1
 76
     1
176
     1
 77
     6
176
     1
 78
     2
176
     1
 67
     7
176
     1
 79
     3
176
     1
170
     0
176
     1
171
     0
176
     1
290
     0
176
     1
 93
        1
176
     1
 44
0.0
176
     1
173
     0
176
     1
  0
VISUALSTYLE
  5
35
102
{ACAD_REACTORS
330
2A
102
}
330
2A
100
AcDbVisualStyle
  2
Dim
 70
    11
177
     2
291
     1
 71
     2
176
     1
 72
     2
176
     1
 73
     0
176
     1
 90
        0
176
     1
 40
-0.6
176
     1
 41
-30.0
176
     1
 62
     5
 63
     7
421
 16777215
176
     1
 74
     1
176
     1
 91
        4
176
     1
 64
     7
176
     1
 65
   257
176
     1
 75
     1
176
     1
175
     1
176
     1
 42
1.0
176
     1
 92
        8
176
     1
 66
     7
176
     1
 43
1.0
176
     1
 76
     1
176
     1
 77
     6
176
     1
 78
     2
176
     1
 67
     7
176
     1
 79
     5
176
     1
170
     0
176
     1
171
     0
176
     1
290
     0
176
     1
 93
        1
176
     1
 44
-50.0
176
     1
173
     0
176
     1
  0
VISUALSTYLE
  5
39
102
{ACAD_REACTORS
330
2A
102
}
330
2A
100
AcDbVisualStyle
  2
Facepattern
 70
    15
177
     2
291
     1
 71
     2
176
     1
 72
     2
176
     1
 73
     0
176
     1
 90
        0
176
     1
 40
-0.6
176
     1
 41
-30.0
176
     1
 62
     5
 63
     7
421
 16777215
176
     1
 74
     1
176
     1
 91
        4
176
     1
 64
     7
176
     1
 65
   257
176
     1
 75
     1
176
     1
175
     1
176
     1
 42
1.0
176
     1
 92
        8
176
     1
 66
     7
176
     1
 43
1.0
176
     1
 76
     1
176
     1
 77
     6
176
     1
 78
     2
176
     1
 67
     7
176
     1
 79
     5
176
     1
170
     0
176
     1
171
     0
176
     1
290
     0
176
     1
 93
        1
176
     1
 44
0.0
176
     1
173
     0
176
     1
  0
VISUALSTYLE
  5
2B
102
{ACAD_REACTORS
330
2A
102
}
330
2A
100
AcDbVisualStyle
  2
Flat
 70
     0
177
     2
291
     1
 71
     2
176
     1
 72
     1
176
     1
 73
     1
176
     1
 90
        2
176
     1
 40
-0.6
176
     1
 41
30.0
176
     1
 62
     5
 63
     7
421
 16777215
176
     1
 74
     0
176
     1
 91
        4
176
     1
 64
     7
176
     1
 65
   257
176
     1
 75
     1
176
     1
175
     1
176
     1
 42
1.0
176
     1
 92
        8
176
     1
 66
     7
176
     1
 43
1.0
176
     1
 76
     1
176
     1
 77
     6
176
     1
 78
     2
176
     1
 67
     7
176
     1
 79
     5
176
     1
170
     0
176
     1
171
     0
176
     1
290
     0
176
     1
 93
       13
176
     1
 44
0.0
176
     1
173
     0
176
     1
  0
VISUALSTYLE
  5
2C
102
{ACAD_REACTORS
330
2A
102
}
330
2A
100
AcDbVisualStyle
  2
FlatWithEdges
 70
     1
177
     2
291
     1
 71
     2
176
     1
 72
     1
176
     1
 73
     1
176
     1
 90
        2
176
     1
 40
-0.6
176
     1
 41
30.0
176
     1
 62
     5
 63
     7
421
 16777215
176
     1
 74
     1
176
     1
 91
        4
176
     1
 64
     7
176
     1
 65
   257
176
     1
 75
     1
176
     1
175
     1
176
     1
 42
1.0
176
     1
 92
        0
176
     1
 66
   257
176
     1
 43
1.0
176
     1
 76
     1
176
     1
 77
     6
176
     1
 78
     2
176
     1
 67
     7
176
     1
 79
     5
176
     1
170
     0
176
     1
171
     0
176
     1
290
     0
176
     1
 93
       13
176
     1
 44
0.0
176
     1
173
     0
176
     1
  0
VISUALSTYLE
  5
2D
102
{ACAD_REACTORS
330
2A
102
}
330
2A
100
AcDbVisualStyle
  2
Gouraud
 70
     2
177
     2
291
     1
 71
     2
176
     1
 72
     2
176
     1
 73
     1
176
     1
 90
        2
176
     1
 40
-0.6
176
     1
 41
30.0
176
     1
 62
     5
 63
     7
421
 16777215
176
     1
 74
     0
176
     1
 91
        4
176
     1
 64
     7
176
     1
 65
   257
176
     1
 75
     1
176
     1
175
     1
176
     1
 42
1.0
176
     1
 92
        0
176
     1
 66
     7
176
     1
 43
1.0
176
     1
 76
     1
176
     1
 77
     6
176
     1
 78
     2
176
     1
 67
     7
176
     1
 79
     5
176
     1
170
     0
176
     1
171
     0
176
     1
290
     0
176
     1
 93
       13
176
     1
 44
0.0
176
     1
173
     0
176
     1
  0
VISUALSTYLE
  5
2E
102
{ACAD_REACTORS
330
2A
102
}
330
2A
100
AcDbVisualStyle
  2
GouraudWithEdges
 70
     3
177
     2
291
     1
 71
     2
176
     1
 72
     2
176
     1
 73
     1
176
     1
 90
        2
176
     1
 40
-0.6
176
     1
 41
30.0
176
     1
 62
     5
 63
     7
421
 16777215
176
     1
 74
     1
176
     1
 91
        4
176
     1
 64
     7
176
     1
 65
   257
176
     1
 75
     1
176
     1
175
     1
176
     1
 42
1.0
176
     1
 92
        0
176
     1
 66
   257
176
     1
 43
1.0
176
     1
 76
     1
176
     1
 77
     6
176
     1
 78
     2
176
     1
 67
     7
176
     1
 79
     5
176
     1
170
     0
176
     1
171
     0
176
     1
290
     0
176
     1
 93
       13
176
     1
 44
0.0
176
     1
173
     0
176
     1
  0
VISUALSTYLE
  5
38
102
{ACAD_REACTORS
330
2A
102
}
330
2A
100
AcDbVisualStyle
  2
Linepattern
 70
    14
177
     2
291
     1
 71
     2
176
     1
 72
     2
176
     1
 73
     0
176
     1
 90
        0
176
     1
 40
-0.6
176
     1
 41
-30.0
176
     1
 62
     5
 63
     7
421
 16777215
176
     1
 74
     1
176
     1
 91
        4
176
     1
 64
     7
176
     1
 65
   257
176
     1
 75
     7
176
     1
175
     7
176
     1
 42
1.0
176
     1
 92
        8
176
     1
 66
     7
176
     1
 43
1.0
176
     1
 76
     1
176
     1
 77
     6
176
     1
 78
     2
176
     1
 67
     7
176
     1
 79
     5
176
     1
170
     0
176
     1
171
     0
176
     1
290
     0
176
     1
 93
        1
176
     1
 44
0.0
176
     1
173
     0
176
     1
  0
VISUALSTYLE
  5
33
102
{ACAD_REACTORS
330
2A
102
}
330
2A
100
AcDbVisualStyle
  2
Realistic
 70
     8
177
     2
291
     0
 71
     2
176
     1
 72
     2
176
     1
 73
     0
176
     1
 90
        0
176
     1
 40
-0.6
176
     1
 41
-30.0
176
     1
 62
     5
 63
     7
421
 16777215
176
     1
 74
     1
176
     1
 91
        0
176
     1
 64
     7
176
     1
 65
   257
176
     1
 75
     1
176
     1
175
     1
176
     1
 42
1.0
176
     1
 92
        8
176
     1
 66
     8
424
  7895160
176
     1
 43
1.0
176
     1
 76
     1
176
     1
 77
     6
176
     1
 78
     2
176
     1
 67
     7
176
     1
 79
     5
176
     1
170
     0
176
     1
171
     0
176
     1
290
     0
176
     1
 93
       13
176
     1
 44
0.0
176
     1
173
     0
176
     1
  0
VISUALSTYLE
  5
37
102
{ACAD_REACTORS
330
2A
102
}
330
2A
100
AcDbVisualStyle
  2
Thicken
 70
    13
177
     2
291
     1
 71
     2
176
     1
 72
     2
176
     1
 73
     0
176
     1
 90
        0
176
     1
 40
-0.6
176
     1
 41
-30.0
176
     1
 62
     5
 63
     7
421
 16777215
176
     1
 74
     1
176
     1
 91
        4
176
     1
 64
     7
176
     1
 65
   257
176
     1
 75
     1
176
     1
175
     1
176
     1
 42
1.0
176
     1
 92
       12
176
     1
 66
     7
176
     1
 43
1.0
176
     1
 76
     1
176
     1
 77
     6
176
     1
 78
     2
176
     1
 67
     7
176
     1
 79
     5
176
     1
170
     0
176
     1
171
     0
176
     1
290
     0
176
     1
 93
        1
176
     1
 44
0.0
176
     1
173
     0
176
     1
  0
ENDSEC
  0
EOF
