  0
SECTION
  2
HEADER
  9
$ACADVER
  1
AC1024
  9
$ACADMAINTVER
 70
     6
  9
$DWGCODEPAGE
  3
UNDEFINED
  9
$INSBASE
 10
0.0
 20
0.0
 30
0.0
  9
$EXTMIN
 10
1.000000000000000E+20
 20
1.000000000000000E+20
 30
1.000000000000000E+20
  9
$EXTMAX
 10
-1.000000000000000E+20
 20
-1.000000000000000E+20
 30
-1.000000000000000E+20
  9
$LIMMIN
 10
0.0
 20
0.0
  9
$LIMMAX
 10
12.0
 20
9.0
  9
$ORTHOMODE
 70
     0
  9
$REGENMODE
 70
     1
  9
$FILLMODE
 70
     1
  9
$QTEXTMODE
 70
     0
  9
$MIRRTEXT
 70
     1
  9
$LTSCALE
 40
1.0
  9
$ATTMODE
 70
     1
  9
$TEXTSIZE
 40
0.2
  9
$TRACEWID
 40
0.05
  9
$TEXTSTYLE
  7
Standard
  9
$CLAYER
  8
0
  9
$CELTYPE
  6
ByLayer
  9
$CECOLOR
 62
   256
  9
$CELTSCALE
 40
1.0
  9
$DISPSILH
 70
     0
  9
$DIMSCALE
 40
1.0
  9
$DIMASZ
 40
0.18
  9
$DIMEXO
 40
0.0625
  9
$DIMDLI
 40
0.38
  9
$DIMRND
 40
0.0
  9
$DIMDLE
 40
0.0
  9
$DIMEXE
 40
0.18
  9
$DIMTP
 40
0.0
  9
$DIMTM
 40
0.0
  9
$DIMTXT
 40
0.18
  9
$DIMCEN
 40
0.09
  9
$DIMTSZ
 40
0.0
  9
$DIMTOL
 70
     0
  9
$DIMLIM
 70
     0
  9
$DIMTIH
 70
     1
  9
$DIMTOH
 70
     1
  9
$DIMSE1
 70
     0
  9
$DIMSE2
 70
     0
  9
$DIMTAD
 70
     0
  9
$DIMZIN
 70
     0
  9
$DIMBLK
  1

  9
$DIMASO
 70
     1
  9
$DIMSHO
 70
     1
  9
$DIMPOST
  1

  9
$DIMAPOST
  1

  9
$DIMALT
 70
     0
  9
$DIMALTD
 70
     2
  9
$DIMALTF
 40
25.4
  9
$DIMLFAC
 40
1.0
  9
$DIMTOFL
 70
     0
  9
$DIMTVP
 40
0.0
  9
$DIMTIX
 70
     0
  9
$DIMSOXD
 70
     0
  9
$DIMSAH
 70
     0
  9
$DIMBLK1
  1

  9
$DIMBLK2
  1

  9
$DIMSTYLE
  2
Standard
  9
$DIMCLRD
 70
     0
  9
$DIMCLRE
 70
     0
  9
$DIMCLRT
 70
     0
  9
$DIMTFAC
 40
1.0
  9
$DIMGAP
 40
0.09
  9
$DIMJUST
 70
     0
  9
$DIMSD1
 70
     0
  9
$DIMSD2
 70
     0
  9
$DIMTOLJ
 70
     1
  9
$DIMTZIN
 70
     0
  9
$DIMALTZ
 70
     0
  9
$DIMALTTZ
 70
     0
  9
$DIMUPT
 70
     0
  9
$DIMDEC
 70
     4
  9
$DIMTDEC
 70
     4
  9
$DIMALTU
 70
     2
  9
$DIMALTTD
 70
     2
  9
$DIMTXSTY
  7
Standard
  9
$DIMAUNIT
 70
     0
  9
$DIMADEC
 70
     0
  9
$DIMALTRND
 40
0.0
  9
$DIMAZIN
 70
     0
  9
$DIMDSEP
 70
    46
  9
$DIMATFIT
 70
     3
  9
$DIMFRAC
 70
     0
  9
$DIMLDRBLK
  1

  9
$DIMLUNIT
 70
     2
  9
$DIMLWD
 70
    -2
  9
$DIMLWE
 70
    -2
  9
$DIMTMOVE
 70
     0
  9
$DIMFXL
 40
1.0
  9
$DIMFXLON
 70
     0
  9
$DIMJOGANG
 40
0.7853981633974483
  9
$DIMTFILL
 70
     0
  9
$DIMTFILLCLR
 70
     0
  9
$DIMARCSYM
 70
     0
  9
$DIMLTYPE
  6

  9
$DIMLTEX1
  6

  9
$DIMLTEX2
  6

  9
$DIMTXTDIRECTION
 70
     0
  9
$LUNITS
 70
     2
  9
$LUPREC
 70
     4
  9
$SKETCHINC
 40
0.1
  9
$FILLETRAD
 40
0.5
  9
$AUNITS
 70
     0
  9
$AUPREC
 70
     0
  9
$MENU
  1
.
  9
$ELEVATION
 40
0.0
  9
$PELEVATION
 40
0.0
  9
$THICKNESS
 40
0.0
  9
$LIMCHECK
 70
     0
  9
$CHAMFERA
 40
0.5
  9
$CHAMFERB
 40
0.5
  9
$CHAMFERC
 40
1.0
  9
$CHAMFERD
 40
0.0
  9
$SKPOLY
 70
     0
  9
$TDCREATE
 40
2457917.632152766
  9
$TDUCREATE
 40
2457917.257152778
  9
$TDUPDATE
 40
2457917.632152766
  9
$TDUUPDATE
 40
2457917.257152778
  9
$TDINDWG
 40
0.0000000116
  9
$TDUSRTIMER
 40
0.0000000116
  9
$USRTIMER
 70
     1
  9
$ANGBASE
 50
0.0
  9
$ANGDIR
 70
     0
  9
$PDMODE
 70
     0
  9
$PDSIZE
 40
0.0
  9
$PLINEWID
 40
0.0
  9
$SPLFRAME
 70
     0
  9
$SPLINETYPE
 70
     6
  9
$SPLINESEGS
 70
     8
  9
$HANDSEED
  5
FB
  9
$SURFTAB1
 70
     6
  9
$SURFTAB2
 70
     6
  9
$SURFTYPE
 70
     6
  9
$SURFU
 70
     6
  9
$SURFV
 70
     6
  9
$UCSBASE
  2

  9
$UCSNAME
  2

  9
$UCSORG
 10
0.0
 20
0.0
 30
0.0
  9
$UCSXDIR
 10
1.0
 20
0.0
 30
0.0
  9
$UCSYDIR
 10
0.0
 20
1.0
 30
0.0
  9
$UCSORTHOREF
  2

  9
$UCSORTHOVIEW
 70
     0
  9
$UCSORGTOP
 10
0.0
 20
0.0
 30
0.0
  9
$UCSORGBOTTOM
 10
0.0
 20
0.0
 30
0.0
  9
$UCSORGLEFT
 10
0.0
 20
0.0
 30
0.0
  9
$UCSORGRIGHT
 10
0.0
 20
0.0
 30
0.0
  9
$UCSORGFRONT
 10
0.0
 20
0.0
 30
0.0
  9
$UCSORGBACK
 10
0.0
 20
0.0
 30
0.0
  9
$PUCSBASE
  2

  9
$PUCSNAME
  2

  9
$PUCSORG
 10
0.0
 20
0.0
 30
0.0
  9
$PUCSXDIR
 10
1.0
 20
0.0
 30
0.0
  9
$PUCSYDIR
 10
0.0
 20
1.0
 30
0.0
  9
$PUCSORTHOREF
  2

  9
$PUCSORTHOVIEW
 70
     0
  9
$PUCSORGTOP
 10
0.0
 20
0.0
 30
0.0
  9
$PUCSORGBOTTOM
 10
0.0
 20
0.0
 30
0.0
  9
$PUCSORGLEFT
 10
0.0
 20
0.0
 30
0.0
  9
$PUCSORGRIGHT
 10
0.0
 20
0.0
 30
0.0
  9
$PUCSORGFRONT
 10
0.0
 20
0.0
 30
0.0
  9
$PUCSORGBACK
 10
0.0
 20
0.0
 30
0.0
  9
$USERI1
 70
     0
  9
$USERI2
 70
     0
  9
$USERI3
 70
     0
  9
$USERI4
 70
     0
  9
$USERI5
 70
     0
  9
$USERR1
 40
0.0
  9
$USERR2
 40
0.0
  9
$USERR3
 40
0.0
  9
$USERR4
 40
0.0
  9
$USERR5
 40
0.0
  9
$WORLDVIEW
 70
     1
  9
$SHADEDGE
 70
     3
  9
$SHADEDIF
 70
    70
  9
$TILEMODE
 70
     1
  9
$MAXACTVP
 70
    64
  9
$PINSBASE
 10
0.0
 20
0.0
 30
0.0
  9
$PLIMCHECK
 70
     0
  9
$PEXTMIN
 10
1.000000000000000E+20
 20
1.000000000000000E+20
 30
1.000000000000000E+20
  9
$PEXTMAX
 10
-1.000000000000000E+20
 20
-1.000000000000000E+20
 30
-1.000000000000000E+20
  9
$PLIMMIN
 10
0.0
 20
0.0
  9
$PLIMMAX
 10
12.0
 20
9.0
  9
$UNITMODE
 70
     0
  9
$VISRETAIN
 70
     1
  9
$PLINEGEN
 70
     0
  9
$PSLTSCALE
 70
     1
  9
$TREEDEPTH
 70
  3020
  9
$CMLSTYLE
  2
Standard
  9
$CMLJUST
 70
     0
  9
$CMLSCALE
 40
1.0
  9
$PROXYGRAPHICS
 70
     1
  9
$MEASUREMENT
 70
     0
  9
$CELWEIGHT
370
    -1
  9
$ENDCAPS
280
     0
  9
$JOINSTYLE
280
     0
  9
$LWDISPLAY
290
     1
  9
$INSUNITS
 70
     1
  9
$HYPERLINKBASE
  1

  9
$STYLESHEET
  1

  9
$XEDIT
290
     1
  9
$CEPSNTYPE
380
     0
  9
$PSTYLEMODE
290
     1
  9
$FINGERPRINTGUID
  2
{57C13688-DE0C-9607-9262-03DC21B16A03}
  9
$VERSIONGUID
  2
{FAEB1C32-E019-11D5-929B-00C0DF256EC4}
  9
$EXTNAMES
290
     1
  9
$PSVPSCALE
 40
0.0
  9
$OLESTARTUP
290
     0
  9
$SORTENTS
280
   127
  9
$INDEXCTL
280
     0
  9
$HIDETEXT
280
     1
  9
$XCLIPFRAME
280
     2
  9
$HALOGAP
280
     0
  9
$OBSCOLOR
 70
   257
  9
$OBSLTYPE
280
     0
  9
$INTERSECTIONDISPLAY
280
     0
  9
$INTERSECTIONCOLOR
 70
   257
  9
$DIMASSOC
280
     2
  9
$PROJECTNAME
  1

  9
$CAMERADISPLAY
290
     0
  9
$LENSLENGTH
 40
50.0
  9
$CAMERAHEIGHT
 40
0.0
  9
$STEPSPERSEC
 40
2.0
  9
$STEPSIZE
 40
6.0
  9
$3DDWFPREC
 40
2.0
  9
$PSOLWIDTH
 40
0.25
  9
$PSOLHEIGHT
 40
4.0
  9
$LOFTANG1
 40
1.570796326794897
  9
$LOFTANG2
 40
1.570796326794897
  9
$LOFTMAG1
 40
0.0
  9
$LOFTMAG2
 40
0.0
  9
$LOFTPARAM
 70
     7
  9
$LOFTNORMALS
280
     1
  9
$LATITUDE
 40
37.795
  9
$LONGITUDE
 40
-122.394
  9
$NORTHDIRECTION
 40
0.0
  9
$TIMEZONE
 70
 -8000
  9
$LIGHTGLYPHDISPLAY
280
     1
  9
$TILEMODELIGHTSYNCH
280
     1
  9
$CMATERIAL
347
3C
  9
$SOLIDHIST
280
     1
  9
$SHOWHIST
280
     1
  9
$DWFFRAME
280
     2
  9
$DGNFRAME
280
     2
  9
$REALWORLDSCALE
290
     1
  9
$INTERFERECOLOR
 62
   256
  9
$CSHADOW
280
     0
  9
$SHADOWPLANELOCATION
 40
0.0
  0
ENDSEC
  0
SECTION
  2
CLASSES
  0
CLASS
  1
ACDBDICTIONARYWDFLT
  2
AcDbDictionaryWithDefault
  3
ObjectDBX Classes
 90
        0
 91
        4
280
     0
281
     0
  0
CLASS
  1
VISUALSTYLE
  2
AcDbVisualStyle
  3
ObjectDBX Classes
 90
     4095
 91
        4
280
     0
281
     0
  0
CLASS
  1
MATERIAL
  2
AcDbMaterial
  3
ObjectDBX Classes
 90
     1153
 91
        4
280
     0
281
     0
  0
CLASS
  1
SUN
  2
AcDbSun
  3
SCENEOE
 90
     1024
 91
        4
280
     0
281
     0
  0
ENDSEC
  0
SECTION
  2
TABLES
  0
TABLE
  2
VPORT
  5
8
330
0
100
AcDbSymbolTable
 70
     1
  0
VPORT
  5
29
330
8
100
AcDbSymbolTableRecord
100
AcDbViewportTableRecord
  2
*Active
 70
     0
 10
0.0
 20
0.0
 11
1.0
 21
1.0
 12
0.0
 22
0.0
 13
0.0
 23
0.0
 14
0.5
 24
0.5
 15
0.5
 25
0.5
 16
0.0
 26
0.0
 36
1.0
 17
91.00082462281999
 27
-128.4993055234307
 37
0.0
 40
256.9986110468615
 41
0.7081814508812795
 42
50.0
 43
0.0
 44
0.0
 50
0.0
 51
0.0
 71
     0
 72
   100
 73
     1
 74
     3
 75
     0
 76
     0
 77
     0
 78
     0
281
     0
 65
     1
110
0.0
120
0.0
130
0.0
111
1.0
121
0.0
131
0.0
112
0.0
122
1.0
132
0.0
 79
     0
146
0.0
 60
     3
 61
     5
292
     1
282
     1
141
0.0
142
0.0
 63
   250
361
3F
  0
ENDTAB
  0
TABLE
  2
LTYPE
  5
5
330
0
100
AcDbSymbolTable
 70
     1
  0
LTYPE
  5
14
330
5
100
AcDbSymbolTableRecord
100
AcDbLinetypeTableRecord
  2
ByBlock
 70
     0
  3

 72
    65
 73
     0
 40
0.0
  0
LTYPE
  5
15
330
5
100
AcDbSymbolTableRecord
100
AcDbLinetypeTableRecord
  2
ByLayer
 70
     0
  3

 72
    65
 73
     0
 40
0.0
  0
LTYPE
  5
16
330
5
100
AcDbSymbolTableRecord
100
AcDbLinetypeTableRecord
  2
Continuous
 70
     0
  3
Solid line
 72
    65
 73
     0
 40
0.0
  0
ENDTAB
  0
TABLE
  2
LAYER
  5
2
330
0
100
AcDbSymbolTable
 70
     2
  0
LAYER
  5
10
330
2
100
AcDbSymbolTableRecord
100
AcDbLayerTableRecord
  2
0
 70
     0
 62
     7
  6
Continuous
370
    -3
390
F
347
3E
  0
LAYER
  5
40
330
2
100
AcDbSymbolTableRecord
100
AcDbLayerTableRecord
  2
_U+30EC_U+30A4_U+30E4_U+30FC 1
 70
     0
 62
     7
  6
Continuous
370
    -3
390
F
347
3E
  0
ENDTAB
  0
TABLE
  2
STYLE
  5
3
330
0
100
AcDbSymbolTable
 70
     1
  0
STYLE
  5
11
330
3
100
AcDbSymbolTableRecord
100
AcDbTextStyleTableRecord
  2
Standard
 70
     0
 40
0.0
 41
1.0
 50
0.0
 71
     0
 42
0.2
  3
txt
  4

  0
ENDTAB
  0
TABLE
  2
VIEW
  5
6
330
0
100
AcDbSymbolTable
 70
     0
  0
ENDTAB
  0
TABLE
  2
UCS
  5
7
330
0
100
AcDbSymbolTable
 70
     0
  0
ENDTAB
  0
TABLE
  2
APPID
  5
9
330
0
100
AcDbSymbolTable
 70
     1
  0
APPID
  5
12
330
9
100
AcDbSymbolTableRecord
100
AcDbRegAppTableRecord
  2
ACAD
 70
     0
  0
ENDTAB
  0
TABLE
  2
DIMSTYLE
  5
A
330
0
100
AcDbSymbolTable
 70
     1
100
AcDbDimStyleTable
  0
DIMSTYLE
105
27
330
A
100
AcDbSymbolTableRecord
100
AcDbDimStyleTableRecord
  2
Standard
 70
     0
178
     0
340
11
  0
ENDTAB
  0
TABLE
  2
BLOCK_RECORD
  5
1
330
0
100
AcDbSymbolTable
 70
     6
  0
BLOCK_RECORD
  5
1F
330
1
100
AcDbSymbolTableRecord
100
AcDbBlockTableRecord
  2
*Model_Space
340
22
 70
     0
280
     1
281
     0
  0
BLOCK_RECORD
  5
1B
330
1
100
AcDbSymbolTableRecord
100
AcDbBlockTableRecord
  2
*Paper_Space
340
1E
 70
     0
280
     1
281
     0
  0
BLOCK_RECORD
  5
23
330
1
100
AcDbSymbolTableRecord
100
AcDbBlockTableRecord
  2
*Paper_Space0
340
26
 70
     0
280
     1
281
     0
  0
BLOCK_RECORD
  5
7C
330
1
100
AcDbSymbolTableRecord
100
AcDbBlockTableRecord
  2
block 2
340
0
102
{BLKREFS
331
7D
102
}
 70
     0
280
     1
281
     0
  0
BLOCK_RECORD
  5
97
330
1
100
AcDbSymbolTableRecord
100
AcDbBlockTableRecord
  2
block 3
340
0
102
{BLKREFS
331
98
102
}
 70
     0
280
     1
281
     0
  0
BLOCK_RECORD
  5
C7
330
1
100
AcDbSymbolTableRecord
100
AcDbBlockTableRecord
  2
block 4
340
0
102
{BLKREFS
331
C8
102
}
 70
     0
280
     1
281
     0
  0
BLOCK_RECORD
  5
DB
330
1
100
AcDbSymbolTableRecord
100
AcDbBlockTableRecord
  2
block 5
340
0
102
{BLKREFS
331
DC
102
}
 70
     0
280
     1
281
     0
  0
BLOCK_RECORD
  5
F1
330
1
100
AcDbSymbolTableRecord
100
AcDbBlockTableRecord
  2
block 6
340
0
102
{BLKREFS
331
F2
102
}
 70
     0
280
     1
281
     0
  0
ENDTAB
  0
ENDSEC
  0
SECTION
  2
BLOCKS
  0
BLOCK
  5
20
330
1F
100
AcDbEntity
  8
0
100
AcDbBlockBegin
  2
*Model_Space
 70
     0
 10
0.0
 20
0.0
 30
0.0
  3
*Model_Space
  1

  0
ENDBLK
  5
21
330
1F
100
AcDbEntity
  8
0
100
AcDbBlockEnd
  0
BLOCK
  5
1C
330
1B
100
AcDbEntity
 67
     1
  8
0
100
AcDbBlockBegin
  2
*Paper_Space
 70
     0
 10
0.0
 20
0.0
 30
0.0
  3
*Paper_Space
  1

  0
ENDBLK
  5
1D
330
1B
100
AcDbEntity
 67
     1
  8
0
100
AcDbBlockEnd
  0
BLOCK
  5
24
330
23
100
AcDbEntity
  8
0
100
AcDbBlockBegin
  2
*Paper_Space0
 70
     0
 10
0.0
 20
0.0
 30
0.0
  3
*Paper_Space0
  1

  0
ENDBLK
  5
25
330
23
100
AcDbEntity
  8
0
100
AcDbBlockEnd
  0
BLOCK
  5
7E
330
7C
100
AcDbEntity
  8
0
100
AcDbBlockBegin
  2
block 2
 70
     0
 10
0.0
 20
0.0
 30
0.0
  3
block 2
  1

  0
SPLINE
  5
80
330
7C
100
AcDbEntity
  8
_U+30EC_U+30A4_U+30E4_U+30FC 1
370
     0
100
AcDbSpline
210
0.0
220
0.0
230
1.0
 70
    11
 71
     3
 72
    29
 73
    25
 74
     0
 42
0.0000000001
 43
0.0000000001
 12
1.0
 22
0.0
 32
0.0
 13
1.0
 23
0.0
 33
0.0
 40
0.0
 40
0.0
 40
0.0
 40
0.0
 40
1.0
 40
1.0
 40
1.0
 40
2.0
 40
2.0
 40
2.0
 40
3.0
 40
3.0
 40
3.0
 40
4.0
 40
4.0
 40
4.0
 40
5.0
 40
5.0
 40
5.0
 40
6.0
 40
6.0
 40
6.0
 40
7.0
 40
7.0
 40
7.0
 40
8.0
 40
8.0
 40
8.0
 40
8.0
 10
69.56646862410145
 20
-131.2367783960103
 30
0.0
 10
69.77593042960463
 20
-131.3449543942471
 30
0.0
 10
69.79487845477351
 20
-131.5182426971552
 30
0.0
 10
69.79487845477351
 20
-131.6346869245566
 30
0.0
 10
69.79487845477351
 20
-131.7955728837178
 30
0.0
 10
69.74836966572263
 20
-131.9371663081616
 30
0.0
 10
69.56646862410145
 20
-132.0322509435544
 30
0.0
 10
69.37182072918482
 20
-132.1359483176604
 30
0.0
 10
69.13514266934816
 20
-132.1552408523779
 30
0.0
 10
68.97218965289585
 20
-132.1552408523779
 30
0.0
 10
68.8281846616124
 20
-132.1552408523779
 30
0.0
 10
68.57634818164064
 20
-132.1380153749516
 30
0.0
 10
68.37756617214173
 20
-132.0322509435544
 30
0.0
 10
68.17465004806051
 20
-131.9244194548661
 30
0.0
 10
68.1512233987608
 20
-131.763533495705
 30
0.0
 10
68.1512233987608
 20
-131.6346869245566
 30
0.0
 10
68.1512233987608
 20
-131.4758680226866
 30
0.0
 10
68.19566513052054
 20
-131.3322075409517
 30
0.0
 10
68.37756617214173
 20
-131.2367783960103
 30
0.0
 10
68.57014700976718
 20
-131.1375596460351
 30
0.0
 10
68.79855684043925
 20
-131.1141329967353
 30
0.0
 10
68.97218965289585
 20
-131.1141329967353
 30
0.0
 10
69.14341089851276
 20
-131.1141329967353
 30
0.0
 10
69.37388778647598
 20
-131.1354925887439
 30
0.0
 10
69.56646862410145
 20
-131.2367783960103
 30
0.0
  0
SPLINE
  5
81
330
7C
100
AcDbEntity
  8
_U+30EC_U+30A4_U+30E4_U+30FC 1
370
     0
100
AcDbSpline
210
0.0
220
0.0
230
1.0
 70
    11
 71
     3
 72
    17
 73
    13
 74
     0
 42
0.0000000001
 43
0.0000000001
 12
1.0
 22
0.0
 32
0.0
 13
1.0
 23
0.0
 33
0.0
 40
0.0
 40
0.0
 40
0.0
 40
0.0
 40
1.0
 40
1.0
 40
1.0
 40
2.0
 40
2.0
 40
2.0
 40
3.0
 40
3.0
 40
3.0
 40
4.0
 40
4.0
 40
4.0
 40
4.0
 10
68.34380423638628
 20
-131.6346869245566
 30
0.0
 10
68.34380423638628
 20
-131.8844563472372
 30
0.0
 10
68.62733559482234
 20
-131.9309651362881
 30
0.0
 10
68.97218965289585
 20
-131.9309651362881
 30
0.0
 10
69.29155000437851
 20
-131.9309651362881
 30
0.0
 10
69.6002305598569
 20
-131.894791633693
 30
0.0
 10
69.6002305598569
 20
-131.6346869245566
 30
0.0
 10
69.6002305598569
 20
-131.3869845591672
 30
0.0
 10
69.3191107682605
 20
-131.3384087128251
 30
0.0
 10
68.97218965289585
 20
-131.3384087128251
 30
0.0
 10
68.65248479186467
 20
-131.3384087128251
 30
0.0
 10
68.34380423638628
 20
-131.3766492727114
 30
0.0
 10
68.34380423638628
 20
-131.6346869245566
 30
0.0
  0
HATCH
  5
82
330
7C
100
AcDbEntity
  8
_U+30EC_U+30A4_U+30E4_U+30FC 1
 62
   179
420
  2234388
100
AcDbHatch
 10
0.0
 20
0.0
 30
0.0
210
0.0
220
0.0
230
1.0
  2
SOLID
 70
     1
 71
     0
 91
        2
 92
        1
 93
        1
 72
     4
 94
        3
 73
     0
 74
     1
 95
       29
 96
       25
 40
0.0
 40
0.0
 40
0.0
 40
0.0
 40
1.0
 40
1.0
 40
1.0
 40
2.0
 40
2.0
 40
2.0
 40
3.0
 40
3.0
 40
3.0
 40
4.0
 40
4.0
 40
4.0
 40
5.0
 40
5.0
 40
5.0
 40
6.0
 40
6.0
 40
6.0
 40
7.0
 40
7.0
 40
7.0
 40
8.0
 40
8.0
 40
8.0
 40
8.0
 10
69.56646862410145
 20
-131.2367783960103
 10
69.77593042960463
 20
-131.3449543942471
 10
69.79487845477351
 20
-131.5182426971552
 10
69.79487845477351
 20
-131.6346869245566
 10
69.79487845477351
 20
-131.7955728837178
 10
69.74836966572263
 20
-131.9371663081616
 10
69.56646862410145
 20
-132.0322509435544
 10
69.37182072918482
 20
-132.1359483176604
 10
69.13514266934816
 20
-132.1552408523779
 10
68.97218965289585
 20
-132.1552408523779
 10
68.8281846616124
 20
-132.1552408523779
 10
68.57634818164064
 20
-132.1380153749516
 10
68.37756617214173
 20
-132.0322509435544
 10
68.17465004806051
 20
-131.9244194548661
 10
68.1512233987608
 20
-131.763533495705
 10
68.1512233987608
 20
-131.6346869245566
 10
68.1512233987608
 20
-131.4758680226866
 10
68.19566513052054
 20
-131.3322075409517
 10
68.37756617214173
 20
-131.2367783960103
 10
68.57014700976718
 20
-131.1375596460351
 10
68.79855684043925
 20
-131.1141329967353
 10
68.97218965289585
 20
-131.1141329967353
 10
69.14341089851276
 20
-131.1141329967353
 10
69.37388778647598
 20
-131.1354925887439
 10
69.56646862410145
 20
-131.2367783960103
 97
        0
 97
        0
 92
        1
 93
        1
 72
     4
 94
        3
 73
     0
 74
     1
 95
       17
 96
       13
 40
0.0
 40
0.0
 40
0.0
 40
0.0
 40
1.0
 40
1.0
 40
1.0
 40
2.0
 40
2.0
 40
2.0
 40
3.0
 40
3.0
 40
3.0
 40
4.0
 40
4.0
 40
4.0
 40
4.0
 10
68.34380423638628
 20
-131.6346869245566
 10
68.34380423638628
 20
-131.8844563472372
 10
68.62733559482234
 20
-131.9309651362881
 10
68.97218965289585
 20
-131.9309651362881
 10
69.29155000437851
 20
-131.9309651362881
 10
69.6002305598569
 20
-131.894791633693
 10
69.6002305598569
 20
-131.6346869245566
 10
69.6002305598569
 20
-131.3869845591672
 10
69.3191107682605
 20
-131.3384087128251
 10
68.97218965289585
 20
-131.3384087128251
 10
68.65248479186467
 20
-131.3384087128251
 10
68.34380423638628
 20
-131.3766492727114
 10
68.34380423638628
 20
-131.6346869245566
 97
        0
 97
        0
 75
     2
 76
     1
 98
        0
  0
POLYLINE
  5
83
330
7C
100
AcDbEntity
  8
_U+30EC_U+30A4_U+30E4_U+30FC 1
370
     0
100
AcDb2dPolyline
 66
     1
 10
0.0
 20
0.0
 30
0.0
  0
VERTEX
  5
84
330
83
100
AcDbEntity
  8
_U+30EC_U+30A4_U+30E4_U+30FC 1
370
     0
100
AcDbVertex
100
AcDb2dVertex
 10
69.74423555114033
 20
-130.8977810002617
 30
0.0
  0
VERTEX
  5
85
330
83
100
AcDbEntity
  8
_U+30EC_U+30A4_U+30E4_U+30FC 1
370
     0
100
AcDbVertex
100
AcDb2dVertex
 10
69.49239907116856
 20
-130.8977810002617
 30
0.0
  0
VERTEX
  5
86
330
83
100
AcDbEntity
  8
_U+30EC_U+30A4_U+30E4_U+30FC 1
370
     0
100
AcDbVertex
100
AcDb2dVertex
 10
69.49239907116856
 20
-130.6459445202899
 30
0.0
  0
VERTEX
  5
87
330
83
100
AcDbEntity
  8
_U+30EC_U+30A4_U+30E4_U+30FC 1
370
     0
100
AcDbVertex
100
AcDb2dVertex
 10
69.74423555114033
 20
-130.6459445202899
 30
0.0
  0
VERTEX
  5
88
330
83
100
AcDbEntity
  8
_U+30EC_U+30A4_U+30E4_U+30FC 1
370
     0
100
AcDbVertex
100
AcDb2dVertex
 10
69.74423555114033
 20
-130.8977810002617
 30
0.0
  0
SEQEND
  5
89
330
83
100
AcDbEntity
  8
_U+30EC_U+30A4_U+30E4_U+30FC 1
370
     0
  0
HATCH
  5
8A
330
7C
100
AcDbEntity
  8
_U+30EC_U+30A4_U+30E4_U+30FC 1
 62
   179
420
  2234388
100
AcDbHatch
 10
0.0
 20
0.0
 30
0.0
210
0.0
220
0.0
230
1.0
  2
SOLID
 70
     1
 71
     0
 91
        1
 92
        1
 93
        4
 72
     1
 10
69.74423555114033
 20
-130.8977810002617
 11
69.49239907116856
 21
-130.8977810002617
 72
     1
 10
69.49239907116856
 20
-130.8977810002617
 11
69.49239907116856
 21
-130.6459445202899
 72
     1
 10
69.49239907116856
 20
-130.6459445202899
 11
69.74423555114033
 21
-130.6459445202899
 72
     1
 10
69.74423555114033
 20
-130.6459445202899
 11
69.74423555114033
 21
-130.8977810002617
 97
        0
 75
     2
 76
     1
 98
        0
  0
SPLINE
  5
8B
330
7C
100
AcDbEntity
  8
_U+30EC_U+30A4_U+30E4_U+30FC 1
370
     0
100
AcDbSpline
210
0.0
220
0.0
230
1.0
 70
    11
 71
     3
 72
    29
 73
    25
 74
     0
 42
0.0000000001
 43
0.0000000001
 12
1.0
 22
0.0
 32
0.0
 13
1.0
 23
0.0
 33
0.0
 40
0.0
 40
0.0
 40
0.0
 40
0.0
 40
1.0
 40
1.0
 40
1.0
 40
2.0
 40
2.0
 40
2.0
 40
3.0
 40
3.0
 40
3.0
 40
4.0
 40
4.0
 40
4.0
 40
5.0
 40
5.0
 40
5.0
 40
6.0
 40
6.0
 40
6.0
 40
7.0
 40
7.0
 40
7.0
 40
8.0
 40
8.0
 40
8.0
 40
8.0
 10
69.79487845477351
 20
-129.909727615092
 30
0.0
 10
69.79487845477351
 20
-130.1763780056503
 30
0.0
 10
69.65741914491204
 20
-130.4299370333648
 30
0.0
 10
69.30843097225623
 20
-130.4299370333648
 30
0.0
 10
69.05246037770216
 20
-130.4299370333648
 30
0.0
 10
68.95737574230927
 20
-130.288343608921
 30
0.0
 10
68.89605304267182
 20
-130.1825791775238
 30
0.0
 10
68.83679740032552
 20
-130.3072916340898
 30
0.0
 10
68.72242023021523
 20
-130.3834282443139
 30
0.0
 10
68.56153427105406
 20
-130.3834282443139
 30
0.0
 10
68.28661565133113
 20
-130.3834282443139
 30
0.0
 10
68.1512233987608
 20
-130.1846462348149
 30
0.0
 10
68.1512233987608
 20
-129.909727615092
 30
0.0
 10
68.1512233987608
 20
-129.626196256656
 30
0.0
 10
68.29522839004426
 20
-129.4356824763216
 30
0.0
 10
68.56153427105406
 20
-129.4356824763216
 30
0.0
 10
68.72242023021523
 20
-129.4356824763216
 30
0.0
 10
68.83679740032552
 20
-129.5142306533853
 30
0.0
 10
68.89605304267182
 20
-129.6389431099514
 30
0.0
 10
68.946695946305
 20
-129.5500596464319
 30
0.0
 10
69.04178058169789
 20
-129.3912407445619
 30
0.0
 10
69.30429685767393
 20
-129.3912407445619
 30
0.0
 10
69.67877873692059
 20
-129.3912407445619
 30
0.0
 10
69.79487845477351
 20
-129.6706379884157
 30
0.0
 10
69.79487845477351
 20
-129.909727615092
 30
0.0
  0
SPLINE
  5
8C
330
7C
100
AcDbEntity
  8
_U+30EC_U+30A4_U+30E4_U+30FC 1
370
     0
100
AcDbSpline
210
0.0
220
0.0
230
1.0
 70
    11
 71
     3
 72
    17
 73
    13
 74
     0
 42
0.0000000001
 43
0.0000000001
 12
1.0
 22
0.0
 32
0.0
 13
1.0
 23
0.0
 33
0.0
 40
0.0
 40
0.0
 40
0.0
 40
0.0
 40
1.0
 40
1.0
 40
1.0
 40
2.0
 40
2.0
 40
2.0
 40
3.0
 40
3.0
 40
3.0
 40
4.0
 40
4.0
 40
4.0
 40
4.0
 10
68.34380423638628
 20
-129.909727615092
 30
0.0
 10
68.34380423638628
 20
-130.0747476888355
 30
0.0
 10
68.43888887177917
 20
-130.1591525282241
 30
0.0
 10
68.57428112434948
 20
-130.1591525282241
 30
0.0
 10
68.69692652362438
 20
-130.1591525282241
 30
0.0
 10
68.81543780831697
 20
-130.0874945421309
 30
0.0
 10
68.81543780831697
 20
-129.909727615092
 30
0.0
 10
68.81543780831697
 20
-129.7319606880531
 30
0.0
 10
68.69692652362438
 20
-129.6599581924114
 30
0.0
 10
68.57428112434948
 20
-129.6599581924114
 30
0.0
 10
68.43888887177917
 20
-129.6599581924114
 30
0.0
 10
68.34380423638628
 20
-129.7467745986397
 30
0.0
 10
68.34380423638628
 20
-129.909727615092
 30
0.0
  0
SPLINE
  5
8D
330
7C
100
AcDbEntity
  8
_U+30EC_U+30A4_U+30E4_U+30FC 1
370
     0
100
AcDbSpline
210
0.0
220
0.0
230
1.0
 70
    11
 71
     3
 72
    17
 73
    13
 74
     0
 42
0.0000000001
 43
0.0000000001
 12
1.0
 22
0.0
 32
0.0
 13
1.0
 23
0.0
 33
0.0
 40
0.0
 40
0.0
 40
0.0
 40
0.0
 40
1.0
 40
1.0
 40
1.0
 40
2.0
 40
2.0
 40
2.0
 40
3.0
 40
3.0
 40
3.0
 40
4.0
 40
4.0
 40
4.0
 40
4.0
 10
69.00388453136014
 20
-129.909727615092
 30
0.0
 10
69.00388453136014
 20
-130.053388096827
 30
0.0
 10
69.09070093758844
 20
-130.2060058268235
 30
0.0
 10
69.29361706166965
 20
-130.2060058268235
 30
0.0
 10
69.49894475259055
 20
-130.2060058268235
 30
0.0
 10
69.6002305598569
 20
-130.0788818034178
 30
0.0
 10
69.6002305598569
 20
-129.909727615092
 30
0.0
 10
69.6002305598569
 20
-129.7236924588885
 30
0.0
 10
69.477585160582
 20
-129.6134494033605
 30
0.0
 10
69.2998182335431
 20
-129.6134494033605
 30
0.0
 10
69.07795408429301
 20
-129.6134494033605
 30
0.0
 10
69.00388453136014
 20
-129.7764024198129
 30
0.0
 10
69.00388453136014
 20
-129.909727615092
 30
0.0
  0
HATCH
  5
8E
330
7C
100
AcDbEntity
  8
_U+30EC_U+30A4_U+30E4_U+30FC 1
 62
   179
420
  2234388
100
AcDbHatch
 10
0.0
 20
0.0
 30
0.0
210
0.0
220
0.0
230
1.0
  2
SOLID
 70
     1
 71
     0
 91
        3
 92
        1
 93
        1
 72
     4
 94
        3
 73
     0
 74
     1
 95
       29
 96
       25
 40
0.0
 40
0.0
 40
0.0
 40
0.0
 40
1.0
 40
1.0
 40
1.0
 40
2.0
 40
2.0
 40
2.0
 40
3.0
 40
3.0
 40
3.0
 40
4.0
 40
4.0
 40
4.0
 40
5.0
 40
5.0
 40
5.0
 40
6.0
 40
6.0
 40
6.0
 40
7.0
 40
7.0
 40
7.0
 40
8.0
 40
8.0
 40
8.0
 40
8.0
 10
69.79487845477351
 20
-129.909727615092
 10
69.79487845477351
 20
-130.1763780056503
 10
69.65741914491204
 20
-130.4299370333648
 10
69.30843097225623
 20
-130.4299370333648
 10
69.05246037770216
 20
-130.4299370333648
 10
68.95737574230927
 20
-130.288343608921
 10
68.89605304267182
 20
-130.1825791775238
 10
68.83679740032552
 20
-130.3072916340898
 10
68.72242023021523
 20
-130.3834282443139
 10
68.56153427105406
 20
-130.3834282443139
 10
68.28661565133113
 20
-130.3834282443139
 10
68.1512233987608
 20
-130.1846462348149
 10
68.1512233987608
 20
-129.909727615092
 10
68.1512233987608
 20
-129.626196256656
 10
68.29522839004426
 20
-129.4356824763216
 10
68.56153427105406
 20
-129.4356824763216
 10
68.72242023021523
 20
-129.4356824763216
 10
68.83679740032552
 20
-129.5142306533853
 10
68.89605304267182
 20
-129.6389431099514
 10
68.946695946305
 20
-129.5500596464319
 10
69.04178058169789
 20
-129.3912407445619
 10
69.30429685767393
 20
-129.3912407445619
 10
69.67877873692059
 20
-129.3912407445619
 10
69.79487845477351
 20
-129.6706379884157
 10
69.79487845477351
 20
-129.909727615092
 97
        0
 97
        0
 92
        1
 93
        1
 72
     4
 94
        3
 73
     0
 74
     1
 95
       17
 96
       13
 40
0.0
 40
0.0
 40
0.0
 40
0.0
 40
1.0
 40
1.0
 40
1.0
 40
2.0
 40
2.0
 40
2.0
 40
3.0
 40
3.0
 40
3.0
 40
4.0
 40
4.0
 40
4.0
 40
4.0
 10
68.34380423638628
 20
-129.909727615092
 10
68.34380423638628
 20
-130.0747476888355
 10
68.43888887177917
 20
-130.1591525282241
 10
68.57428112434948
 20
-130.1591525282241
 10
68.69692652362438
 20
-130.1591525282241
 10
68.81543780831697
 20
-130.0874945421309
 10
68.81543780831697
 20
-129.909727615092
 10
68.81543780831697
 20
-129.7319606880531
 10
68.69692652362438
 20
-129.6599581924114
 10
68.57428112434948
 20
-129.6599581924114
 10
68.43888887177917
 20
-129.6599581924114
 10
68.34380423638628
 20
-129.7467745986397
 10
68.34380423638628
 20
-129.909727615092
 97
        0
 97
        0
 92
        1
 93
        1
 72
     4
 94
        3
 73
     0
 74
     1
 95
       17
 96
       13
 40
0.0
 40
0.0
 40
0.0
 40
0.0
 40
1.0
 40
1.0
 40
1.0
 40
2.0
 40
2.0
 40
2.0
 40
3.0
 40
3.0
 40
3.0
 40
4.0
 40
4.0
 40
4.0
 40
4.0
 10
69.00388453136014
 20
-129.909727615092
 10
69.00388453136014
 20
-130.053388096827
 10
69.09070093758844
 20
-130.2060058268235
 10
69.29361706166965
 20
-130.2060058268235
 10
69.49894475259055
 20
-130.2060058268235
 10
69.6002305598569
 20
-130.0788818034178
 10
69.6002305598569
 20
-129.909727615092
 10
69.6002305598569
 20
-129.7236924588885
 10
69.477585160582
 20
-129.6134494033605
 10
69.2998182335431
 20
-129.6134494033605
 10
69.07795408429301
 20
-129.6134494033605
 10
69.00388453136014
 20
-129.7764024198129
 10
69.00388453136014
 20
-129.909727615092
 97
        0
 97
        0
 75
     2
 76
     1
 98
        0
  0
ENDBLK
  5
7F
330
7C
100
AcDbEntity
  8
0
100
AcDbBlockEnd
  0
BLOCK
  5
99
330
97
100
AcDbEntity
  8
0
100
AcDbBlockBegin
  2
block 3
 70
     0
 10
0.0
 20
0.0
 30
0.0
  3
block 3
  1

  0
SPLINE
  5
9B
330
97
100
AcDbEntity
  8
_U+30EC_U+30A4_U+30E4_U+30FC 1
370
     0
100
AcDbSpline
210
0.0
220
0.0
230
1.0
 70
    11
 71
     3
 72
    32
 73
    28
 74
     0
 42
0.0000000001
 43
0.0000000001
 12
1.0
 22
0.0
 32
0.0
 13
1.0
 23
0.0
 33
0.0
 40
0.0
 40
0.0
 40
0.0
 40
0.0
 40
1.0
 40
1.0
 40
1.0
 40
2.0
 40
2.0
 40
2.0
 40
3.0
 40
3.0
 40
3.0
 40
4.0
 40
4.0
 40
4.0
 40
5.0
 40
5.0
 40
5.0
 40
6.0
 40
6.0
 40
6.0
 40
7.0
 40
7.0
 40
7.0
 40
8.0
 40
8.0
 40
8.0
 40
9.0
 40
9.0
 40
9.0
 40
9.0
 10
93.7951361527665
 20
-129.9772514866029
 30
0.0
 10
93.7951361527665
 20
-130.150539789511
 30
0.0
 10
93.72554522396445
 20
-130.3961750976093
 30
0.0
 10
93.39343801918636
 20
-130.434071147947
 30
0.0
 10
93.39343801918636
 20
-130.434071147947
 30
0.0
 10
93.39343801918636
 20
-130.2204752278616
 30
0.0
 10
93.39343801918636
 20
-130.2204752278616
 30
0.0
 10
93.45269366153266
 20
-130.2097954318573
 30
0.0
 10
93.60048825784988
 20
-130.178100553393
 30
0.0
 10
93.60048825784988
 20
-129.9751844293118
 30
0.0
 10
93.60048825784988
 20
-129.6830403321626
 30
0.0
 10
93.27079261991148
 20
-129.6451442818248
 30
0.0
 10
93.06546492899058
 20
-129.6323974285294
 30
0.0
 10
93.1457356537969
 20
-129.72334794934
 30
0.0
 10
93.20292423885205
 20
-129.7908718208509
 30
0.0
 10
93.20292423885205
 20
-129.9727728624721
 30
0.0
 10
93.20292423885205
 20
-130.1526068468021
 30
0.0
 10
93.09715980745489
 20
-130.4554307399556
 30
0.0
 10
92.69098304974392
 20
-130.4554307399556
 30
0.0
 10
92.37162269826126
 20
-130.4554307399556
 30
0.0
 10
92.1514810967538
 20
-130.2563042209082
 30
0.0
 10
92.1514810967538
 20
-129.9390109267166
 30
0.0
 10
92.1514810967538
 20
-129.4250026803174
 30
0.0
 10
92.7057969603305
 20
-129.4143228843131
 30
0.0
 10
92.91939288041598
 20
-129.4143228843131
 30
0.0
 10
93.1498697683792
 20
-129.4143228843131
 30
0.0
 10
93.7951361527665
 20
-129.4336154190305
 30
0.0
 10
93.7951361527665
 20
-129.9772514866029
 30
0.0
  0
SPLINE
  5
9C
330
97
100
AcDbEntity
  8
_U+30EC_U+30A4_U+30E4_U+30FC 1
370
     0
100
AcDbSpline
210
0.0
220
0.0
230
1.0
 70
    11
 71
     3
 72
    17
 73
    13
 74
     0
 42
0.0000000001
 43
0.0000000001
 12
1.0
 22
0.0
 32
0.0
 13
1.0
 23
0.0
 33
0.0
 40
0.0
 40
0.0
 40
0.0
 40
0.0
 40
1.0
 40
1.0
 40
1.0
 40
2.0
 40
2.0
 40
2.0
 40
3.0
 40
3.0
 40
3.0
 40
4.0
 40
4.0
 40
4.0
 40
4.0
 10
92.34406193437927
 20
-129.9369438694255
 30
0.0
 10
92.34406193437927
 20
-130.0554551541181
 30
0.0
 10
92.40125051943441
 20
-130.2311550238658
 30
0.0
 10
92.68684893516162
 20
-130.2311550238658
 30
0.0
 10
92.91319170854254
 20
-130.2311550238658
 30
0.0
 10
93.00827634393544
 20
-130.0912841471647
 30
0.0
 10
93.00827634393544
 20
-129.9558918945944
 30
0.0
 10
93.00827634393544
 20
-129.6937201281669
 30
0.0
 10
92.79881453843224
 20
-129.6554795682806
 30
0.0
 10
92.6823703110308
 20
-129.6554795682806
 30
0.0
 10
92.50701495083159
 20
-129.6554795682806
 30
0.0
 10
92.34406193437927
 20
-129.750908713222
 30
0.0
 10
92.34406193437927
 20
-129.9369438694255
 30
0.0
  0
HATCH
  5
9D
330
97
100
AcDbEntity
  8
_U+30EC_U+30A4_U+30E4_U+30FC 1
 62
   179
420
  2234388
100
AcDbHatch
 10
0.0
 20
0.0
 30
0.0
210
0.0
220
0.0
230
1.0
  2
SOLID
 70
     1
 71
     0
 91
        2
 92
        1
 93
        1
 72
     4
 94
        3
 73
     0
 74
     1
 95
       32
 96
       28
 40
0.0
 40
0.0
 40
0.0
 40
0.0
 40
1.0
 40
1.0
 40
1.0
 40
2.0
 40
2.0
 40
2.0
 40
3.0
 40
3.0
 40
3.0
 40
4.0
 40
4.0
 40
4.0
 40
5.0
 40
5.0
 40
5.0
 40
6.0
 40
6.0
 40
6.0
 40
7.0
 40
7.0
 40
7.0
 40
8.0
 40
8.0
 40
8.0
 40
9.0
 40
9.0
 40
9.0
 40
9.0
 10
93.7951361527665
 20
-129.9772514866029
 10
93.7951361527665
 20
-130.150539789511
 10
93.72554522396445
 20
-130.3961750976093
 10
93.39343801918636
 20
-130.434071147947
 10
93.39343801918636
 20
-130.434071147947
 10
93.39343801918636
 20
-130.2204752278616
 10
93.39343801918636
 20
-130.2204752278616
 10
93.45269366153266
 20
-130.2097954318573
 10
93.60048825784988
 20
-130.178100553393
 10
93.60048825784988
 20
-129.9751844293118
 10
93.60048825784988
 20
-129.6830403321626
 10
93.27079261991148
 20
-129.6451442818248
 10
93.06546492899058
 20
-129.6323974285294
 10
93.1457356537969
 20
-129.72334794934
 10
93.20292423885205
 20
-129.7908718208509
 10
93.20292423885205
 20
-129.9727728624721
 10
93.20292423885205
 20
-130.1526068468021
 10
93.09715980745489
 20
-130.4554307399556
 10
92.69098304974392
 20
-130.4554307399556
 10
92.37162269826126
 20
-130.4554307399556
 10
92.1514810967538
 20
-130.2563042209082
 10
92.1514810967538
 20
-129.9390109267166
 10
92.1514810967538
 20
-129.4250026803174
 10
92.7057969603305
 20
-129.4143228843131
 10
92.91939288041598
 20
-129.4143228843131
 10
93.1498697683792
 20
-129.4143228843131
 10
93.7951361527665
 20
-129.4336154190305
 10
93.7951361527665
 20
-129.9772514866029
 97
        0
 97
        0
 92
        1
 93
        1
 72
     4
 94
        3
 73
     0
 74
     1
 95
       17
 96
       13
 40
0.0
 40
0.0
 40
0.0
 40
0.0
 40
1.0
 40
1.0
 40
1.0
 40
2.0
 40
2.0
 40
2.0
 40
3.0
 40
3.0
 40
3.0
 40
4.0
 40
4.0
 40
4.0
 40
4.0
 10
92.34406193437927
 20
-129.9369438694255
 10
92.34406193437927
 20
-130.0554551541181
 10
92.40125051943441
 20
-130.2311550238658
 10
92.68684893516162
 20
-130.2311550238658
 10
92.91319170854254
 20
-130.2311550238658
 10
93.00827634393544
 20
-130.0912841471647
 10
93.00827634393544
 20
-129.9558918945944
 10
93.00827634393544
 20
-129.6937201281669
 10
92.79881453843224
 20
-129.6554795682806
 10
92.6823703110308
 20
-129.6554795682806
 10
92.50701495083159
 20
-129.6554795682806
 10
92.34406193437927
 20
-129.750908713222
 10
92.34406193437927
 20
-129.9369438694255
 97
        0
 97
        0
 75
     2
 76
     1
 98
        0
  0
POLYLINE
  5
9E
330
97
100
AcDbEntity
  8
_U+30EC_U+30A4_U+30E4_U+30FC 1
370
     0
100
AcDb2dPolyline
 66
     1
 10
0.0
 20
0.0
 30
0.0
  0
VERTEX
  5
9F
330
9E
100
AcDbEntity
  8
_U+30EC_U+30A4_U+30E4_U+30FC 1
370
     0
100
AcDbVertex
100
AcDb2dVertex
 10
93.74449324913333
 20
-129.1979708878394
 30
0.0
  0
VERTEX
  5
A0
330
9E
100
AcDbEntity
  8
_U+30EC_U+30A4_U+30E4_U+30FC 1
370
     0
100
AcDbVertex
100
AcDb2dVertex
 10
93.49265676916156
 20
-129.1979708878394
 30
0.0
  0
VERTEX
  5
A1
330
9E
100
AcDbEntity
  8
_U+30EC_U+30A4_U+30E4_U+30FC 1
370
     0
100
AcDbVertex
100
AcDb2dVertex
 10
93.49265676916156
 20
-128.9461344078676
 30
0.0
  0
VERTEX
  5
A2
330
9E
100
AcDbEntity
  8
_U+30EC_U+30A4_U+30E4_U+30FC 1
370
     0
100
AcDbVertex
100
AcDb2dVertex
 10
93.74449324913333
 20
-128.9461344078676
 30
0.0
  0
VERTEX
  5
A3
330
9E
100
AcDbEntity
  8
_U+30EC_U+30A4_U+30E4_U+30FC 1
370
     0
100
AcDbVertex
100
AcDb2dVertex
 10
93.74449324913333
 20
-129.1979708878394
 30
0.0
  0
SEQEND
  5
A4
330
9E
100
AcDbEntity
  8
_U+30EC_U+30A4_U+30E4_U+30FC 1
370
     0
  0
HATCH
  5
A5
330
97
100
AcDbEntity
  8
_U+30EC_U+30A4_U+30E4_U+30FC 1
 62
   179
420
  2234388
100
AcDbHatch
 10
0.0
 20
0.0
 30
0.0
210
0.0
220
0.0
230
1.0
  2
SOLID
 70
     1
 71
     0
 91
        1
 92
        1
 93
        4
 72
     1
 10
93.74449324913333
 20
-129.1979708878394
 11
93.49265676916156
 21
-129.1979708878394
 72
     1
 10
93.49265676916156
 20
-129.1979708878394
 11
93.49265676916156
 21
-128.9461344078676
 72
     1
 10
93.49265676916156
 20
-128.9461344078676
 11
93.74449324913333
 21
-128.9461344078676
 72
     1
 10
93.74449324913333
 20
-128.9461344078676
 11
93.74449324913333
 21
-129.1979708878394
 97
        0
 75
     2
 76
     1
 98
        0
  0
POLYLINE
  5
A6
330
97
100
AcDbEntity
  8
_U+30EC_U+30A4_U+30E4_U+30FC 1
370
     0
100
AcDb2dPolyline
 66
     1
 10
0.0
 20
0.0
 30
0.0
  0
VERTEX
  5
A7
330
A6
100
AcDbEntity
  8
_U+30EC_U+30A4_U+30E4_U+30FC 1
370
     0
100
AcDbVertex
100
AcDb2dVertex
 10
93.39757213376866
 20
-127.8778102978917
 30
0.0
  0
VERTEX
  5
A8
330
A6
100
AcDbEntity
  8
_U+30EC_U+30A4_U+30E4_U+30FC 1
370
     0
100
AcDbVertex
100
AcDb2dVertex
 10
93.74449324913333
 20
-127.8778102978917
 30
0.0
  0
VERTEX
  5
A9
330
A6
100
AcDbEntity
  8
_U+30EC_U+30A4_U+30E4_U+30FC 1
370
     0
100
AcDbVertex
100
AcDb2dVertex
 10
93.74449324913333
 20
-128.0955403325595
 30
0.0
  0
VERTEX
  5
AA
330
A6
100
AcDbEntity
  8
_U+30EC_U+30A4_U+30E4_U+30FC 1
370
     0
100
AcDbVertex
100
AcDb2dVertex
 10
93.39757213376866
 20
-128.0955403325595
 30
0.0
  0
VERTEX
  5
AB
330
A6
100
AcDbEntity
  8
_U+30EC_U+30A4_U+30E4_U+30FC 1
370
     0
100
AcDbVertex
100
AcDb2dVertex
 10
93.39757213376866
 20
-128.751486512951
 30
0.0
  0
VERTEX
  5
AC
330
A6
100
AcDbEntity
  8
_U+30EC_U+30A4_U+30E4_U+30FC 1
370
     0
100
AcDbVertex
100
AcDb2dVertex
 10
93.1732964176789
 20
-128.751486512951
 30
0.0
  0
VERTEX
  5
AD
330
A6
100
AcDbEntity
  8
_U+30EC_U+30A4_U+30E4_U+30FC 1
370
     0
100
AcDbVertex
100
AcDb2dVertex
 10
92.20005694309582
 20
-128.0724581928083
 30
0.0
  0
VERTEX
  5
AE
330
A6
100
AcDbEntity
  8
_U+30EC_U+30A4_U+30E4_U+30FC 1
370
     0
100
AcDbVertex
100
AcDb2dVertex
 10
92.20005694309582
 20
-127.8778102978917
 30
0.0
  0
VERTEX
  5
AF
330
A6
100
AcDbEntity
  8
_U+30EC_U+30A4_U+30E4_U+30FC 1
370
     0
100
AcDbVertex
100
AcDb2dVertex
 10
93.19879012426975
 20
-127.8778102978917
 30
0.0
  0
VERTEX
  5
B0
330
A6
100
AcDbEntity
  8
_U+30EC_U+30A4_U+30E4_U+30FC 1
370
     0
100
AcDbVertex
100
AcDb2dVertex
 10
93.19879012426975
 20
-127.6704155496796
 30
0.0
  0
VERTEX
  5
B1
330
A6
100
AcDbEntity
  8
_U+30EC_U+30A4_U+30E4_U+30FC 1
370
     0
100
AcDbVertex
100
AcDb2dVertex
 10
93.39757213376866
 20
-127.6704155496796
 30
0.0
  0
VERTEX
  5
B2
330
A6
100
AcDbEntity
  8
_U+30EC_U+30A4_U+30E4_U+30FC 1
370
     0
100
AcDbVertex
100
AcDb2dVertex
 10
93.39757213376866
 20
-127.8778102978917
 30
0.0
  0
SEQEND
  5
B3
330
A6
100
AcDbEntity
  8
_U+30EC_U+30A4_U+30E4_U+30FC 1
370
     0
  0
POLYLINE
  5
B4
330
97
100
AcDbEntity
  8
_U+30EC_U+30A4_U+30E4_U+30FC 1
370
     0
100
AcDb2dPolyline
 66
     1
 10
0.0
 20
0.0
 30
0.0
  0
VERTEX
  5
B5
330
B4
100
AcDbEntity
  8
_U+30EC_U+30A4_U+30E4_U+30FC 1
370
     0
100
AcDbVertex
100
AcDb2dVertex
 10
92.54284394387818
 20
-128.0955403325595
 30
0.0
  0
VERTEX
  5
B6
330
B4
100
AcDbEntity
  8
_U+30EC_U+30A4_U+30E4_U+30FC 1
370
     0
100
AcDbVertex
100
AcDb2dVertex
 10
93.19879012426975
 20
-128.5527045034521
 30
0.0
  0
VERTEX
  5
B7
330
B4
100
AcDbEntity
  8
_U+30EC_U+30A4_U+30E4_U+30FC 1
370
     0
100
AcDbVertex
100
AcDb2dVertex
 10
93.19879012426975
 20
-128.0955403325595
 30
0.0
  0
VERTEX
  5
B8
330
B4
100
AcDbEntity
  8
_U+30EC_U+30A4_U+30E4_U+30FC 1
370
     0
100
AcDbVertex
100
AcDb2dVertex
 10
92.54284394387818
 20
-128.0955403325595
 30
0.0
  0
SEQEND
  5
B9
330
B4
100
AcDbEntity
  8
_U+30EC_U+30A4_U+30E4_U+30FC 1
370
     0
  0
HATCH
  5
BA
330
97
100
AcDbEntity
  8
_U+30EC_U+30A4_U+30E4_U+30FC 1
 62
   179
420
  2234388
100
AcDbHatch
 10
0.0
 20
0.0
 30
0.0
210
0.0
220
0.0
230
1.0
  2
SOLID
 70
     1
 71
     0
 91
        2
 92
        1
 93
       11
 72
     1
 10
93.39757213376866
 20
-127.8778102978917
 11
93.74449324913333
 21
-127.8778102978917
 72
     1
 10
93.74449324913333
 20
-127.8778102978917
 11
93.74449324913333
 21
-128.0955403325595
 72
     1
 10
93.74449324913333
 20
-128.0955403325595
 11
93.39757213376866
 21
-128.0955403325595
 72
     1
 10
93.39757213376866
 20
-128.0955403325595
 11
93.39757213376866
 21
-128.751486512951
 72
     1
 10
93.39757213376866
 20
-128.751486512951
 11
93.1732964176789
 21
-128.751486512951
 72
     1
 10
93.1732964176789
 20
-128.751486512951
 11
92.20005694309582
 21
-128.0724581928083
 72
     1
 10
92.20005694309582
 20
-128.0724581928083
 11
92.20005694309582
 21
-127.8778102978917
 72
     1
 10
92.20005694309582
 20
-127.8778102978917
 11
93.19879012426975
 21
-127.8778102978917
 72
     1
 10
93.19879012426975
 20
-127.8778102978917
 11
93.19879012426975
 21
-127.6704155496796
 72
     1
 10
93.19879012426975
 20
-127.6704155496796
 11
93.39757213376866
 21
-127.6704155496796
 72
     1
 10
93.39757213376866
 20
-127.6704155496796
 11
93.39757213376866
 21
-127.8778102978917
 97
        0
 92
        1
 93
        3
 72
     1
 10
92.54284394387818
 20
-128.0955403325595
 11
93.19879012426975
 21
-128.5527045034521
 72
     1
 10
93.19879012426975
 20
-128.5527045034521
 11
93.19879012426975
 21
-128.0955403325595
 72
     1
 10
93.19879012426975
 20
-128.0955403325595
 11
92.54284394387818
 21
-128.0955403325595
 97
        0
 75
     2
 76
     1
 98
        0
  0
ENDBLK
  5
9A
330
97
100
AcDbEntity
  8
0
100
AcDbBlockEnd
  0
BLOCK
  5
C9
330
C7
100
AcDbEntity
  8
0
100
AcDbBlockBegin
  2
block 4
 70
     0
 10
0.0
 20
0.0
 30
0.0
  3
block 4
  1

  0
SPLINE
  5
CB
330
C7
100
AcDbEntity
  8
_U+30EC_U+30A4_U+30E4_U+30FC 1
370
     0
100
AcDbSpline
210
0.0
220
0.0
230
1.0
 70
    11
 71
     3
 72
    26
 73
    22
 74
     0
 42
0.0000000001
 43
0.0000000001
 12
1.0
 22
0.0
 32
0.0
 13
1.0
 23
0.0
 33
0.0
 40
0.0
 40
0.0
 40
0.0
 40
0.0
 40
1.0
 40
1.0
 40
1.0
 40
2.0
 40
2.0
 40
2.0
 40
3.0
 40
3.0
 40
3.0
 40
4.0
 40
4.0
 40
4.0
 40
5.0
 40
5.0
 40
5.0
 40
6.0
 40
6.0
 40
6.0
 40
7.0
 40
7.0
 40
7.0
 40
7.0
 10
112.7441948502862
 20
-129.8332464953195
 30
0.0
 10
112.7441948502862
 20
-129.8332464953195
 30
0.0
 10
111.6400417472636
 20
-129.8332464953195
 30
0.0
 10
111.6400417472636
 20
-129.8332464953195
 30
0.0
 10
111.6400417472636
 20
-129.8332464953195
 30
0.0
 10
111.6400417472636
 20
-130.1632866428064
 30
0.0
 10
111.6400417472636
 20
-130.1632866428064
 30
0.0
 10
111.6400417472636
 20
-130.1632866428064
 30
0.0
 10
111.4919026413979
 20
-130.1632866428064
 30
0.0
 10
111.4919026413979
 20
-130.1632866428064
 30
0.0
 10
111.4770887308113
 20
-129.8311794380283
 30
0.0
 10
111.314135714359
 20
-129.7846706489775
 30
0.0
 10
111.1997585442487
 20
-129.7550428278043
 30
0.0
 10
111.1997585442487
 20
-129.7550428278043
 30
0.0
 10
111.1997585442487
 20
-129.6089707792297
 30
0.0
 10
111.1997585442487
 20
-129.6089707792297
 30
0.0
 10
111.1997585442487
 20
-129.6089707792297
 30
0.0
 10
112.7441948502862
 20
-129.6089707792297
 30
0.0
 10
112.7441948502862
 20
-129.6089707792297
 30
0.0
 10
112.7441948502862
 20
-129.6089707792297
 30
0.0
 10
112.7441948502862
 20
-129.8332464953195
 30
0.0
 10
112.7441948502862
 20
-129.8332464953195
 30
0.0
  0
HATCH
  5
CC
330
C7
100
AcDbEntity
  8
_U+30EC_U+30A4_U+30E4_U+30FC 1
 62
   179
420
  2234388
100
AcDbHatch
 10
0.0
 20
0.0
 30
0.0
210
0.0
220
0.0
230
1.0
  2
SOLID
 70
     1
 71
     0
 91
        1
 92
        1
 93
        1
 72
     4
 94
        3
 73
     0
 74
     1
 95
       26
 96
       22
 40
0.0
 40
0.0
 40
0.0
 40
0.0
 40
1.0
 40
1.0
 40
1.0
 40
2.0
 40
2.0
 40
2.0
 40
3.0
 40
3.0
 40
3.0
 40
4.0
 40
4.0
 40
4.0
 40
5.0
 40
5.0
 40
5.0
 40
6.0
 40
6.0
 40
6.0
 40
7.0
 40
7.0
 40
7.0
 40
7.0
 10
112.7441948502862
 20
-129.8332464953195
 10
112.7441948502862
 20
-129.8332464953195
 10
111.6400417472636
 20
-129.8332464953195
 10
111.6400417472636
 20
-129.8332464953195
 10
111.6400417472636
 20
-129.8332464953195
 10
111.6400417472636
 20
-130.1632866428064
 10
111.6400417472636
 20
-130.1632866428064
 10
111.6400417472636
 20
-130.1632866428064
 10
111.4919026413979
 20
-130.1632866428064
 10
111.4919026413979
 20
-130.1632866428064
 10
111.4770887308113
 20
-129.8311794380283
 10
111.314135714359
 20
-129.7846706489775
 10
111.1997585442487
 20
-129.7550428278043
 10
111.1997585442487
 20
-129.7550428278043
 10
111.1997585442487
 20
-129.6089707792297
 10
111.1997585442487
 20
-129.6089707792297
 10
111.1997585442487
 20
-129.6089707792297
 10
112.7441948502862
 20
-129.6089707792297
 10
112.7441948502862
 20
-129.6089707792297
 10
112.7441948502862
 20
-129.6089707792297
 10
112.7441948502862
 20
-129.8332464953195
 10
112.7441948502862
 20
-129.8332464953195
 97
        0
 97
        0
 75
     2
 76
     1
 98
        0
  0
SPLINE
  5
CD
330
C7
100
AcDbEntity
  8
_U+30EC_U+30A4_U+30E4_U+30FC 1
370
     0
100
AcDbSpline
210
0.0
220
0.0
230
1.0
 70
    11
 71
     3
 72
    26
 73
    22
 74
     0
 42
0.0000000001
 43
0.0000000001
 12
1.0
 22
0.0
 32
0.0
 13
1.0
 23
0.0
 33
0.0
 40
0.0
 40
0.0
 40
0.0
 40
0.0
 40
1.0
 40
1.0
 40
1.0
 40
2.0
 40
2.0
 40
2.0
 40
3.0
 40
3.0
 40
3.0
 40
4.0
 40
4.0
 40
4.0
 40
5.0
 40
5.0
 40
5.0
 40
6.0
 40
6.0
 40
6.0
 40
7.0
 40
7.0
 40
7.0
 40
7.0
 10
112.7441948502862
 20
-128.6564018775581
 30
0.0
 10
112.7441948502862
 20
-128.6564018775581
 30
0.0
 10
111.6400417472636
 20
-128.6564018775581
 30
0.0
 10
111.6400417472636
 20
-128.6564018775581
 30
0.0
 10
111.6400417472636
 20
-128.6564018775581
 30
0.0
 10
111.6400417472636
 20
-128.9864420250451
 30
0.0
 10
111.6400417472636
 20
-128.9864420250451
 30
0.0
 10
111.6400417472636
 20
-128.9864420250451
 30
0.0
 10
111.4919026413979
 20
-128.9864420250451
 30
0.0
 10
111.4919026413979
 20
-128.9864420250451
 30
0.0
 10
111.4770887308113
 20
-128.654334820267
 30
0.0
 10
111.314135714359
 20
-128.6078260312161
 30
0.0
 10
111.1997585442487
 20
-128.578198210043
 30
0.0
 10
111.1997585442487
 20
-128.578198210043
 30
0.0
 10
111.1997585442487
 20
-128.4321261614684
 30
0.0
 10
111.1997585442487
 20
-128.4321261614684
 30
0.0
 10
111.1997585442487
 20
-128.4321261614684
 30
0.0
 10
112.7441948502862
 20
-128.4321261614684
 30
0.0
 10
112.7441948502862
 20
-128.4321261614684
 30
0.0
 10
112.7441948502862
 20
-128.4321261614684
 30
0.0
 10
112.7441948502862
 20
-128.6564018775581
 30
0.0
 10
112.7441948502862
 20
-128.6564018775581
 30
0.0
  0
HATCH
  5
CE
330
C7
100
AcDbEntity
  8
_U+30EC_U+30A4_U+30E4_U+30FC 1
 62
   179
420
  2234388
100
AcDbHatch
 10
0.0
 20
0.0
 30
0.0
210
0.0
220
0.0
230
1.0
  2
SOLID
 70
     1
 71
     0
 91
        1
 92
        1
 93
        1
 72
     4
 94
        3
 73
     0
 74
     1
 95
       26
 96
       22
 40
0.0
 40
0.0
 40
0.0
 40
0.0
 40
1.0
 40
1.0
 40
1.0
 40
2.0
 40
2.0
 40
2.0
 40
3.0
 40
3.0
 40
3.0
 40
4.0
 40
4.0
 40
4.0
 40
5.0
 40
5.0
 40
5.0
 40
6.0
 40
6.0
 40
6.0
 40
7.0
 40
7.0
 40
7.0
 40
7.0
 10
112.7441948502862
 20
-128.6564018775581
 10
112.7441948502862
 20
-128.6564018775581
 10
111.6400417472636
 20
-128.6564018775581
 10
111.6400417472636
 20
-128.6564018775581
 10
111.6400417472636
 20
-128.6564018775581
 10
111.6400417472636
 20
-128.9864420250451
 10
111.6400417472636
 20
-128.9864420250451
 10
111.6400417472636
 20
-128.9864420250451
 10
111.4919026413979
 20
-128.9864420250451
 10
111.4919026413979
 20
-128.9864420250451
 10
111.4770887308113
 20
-128.654334820267
 10
111.314135714359
 20
-128.6078260312161
 10
111.1997585442487
 20
-128.578198210043
 10
111.1997585442487
 20
-128.578198210043
 10
111.1997585442487
 20
-128.4321261614684
 10
111.1997585442487
 20
-128.4321261614684
 10
111.1997585442487
 20
-128.4321261614684
 10
112.7441948502862
 20
-128.4321261614684
 10
112.7441948502862
 20
-128.4321261614684
 10
112.7441948502862
 20
-128.4321261614684
 10
112.7441948502862
 20
-128.6564018775581
 10
112.7441948502862
 20
-128.6564018775581
 97
        0
 97
        0
 75
     2
 76
     1
 98
        0
  0
ENDBLK
  5
CA
330
C7
100
AcDbEntity
  8
0
100
AcDbBlockEnd
  0
BLOCK
  5
DD
330
DB
100
AcDbEntity
  8
0
100
AcDbBlockBegin
  2
block 5
 70
     0
 10
0.0
 20
0.0
 30
0.0
  3
block 5
  1

  0
SPLINE
  5
DF
330
DB
100
AcDbEntity
  8
_U+30EC_U+30A4_U+30E4_U+30FC 1
370
     0
100
AcDbSpline
210
0.0
220
0.0
230
1.0
 70
    11
 71
     3
 72
    62
 73
    58
 74
     0
 42
0.0000000001
 43
0.0000000001
 12
1.0
 22
0.0
 32
0.0
 13
1.0
 23
0.0
 33
0.0
 40
0.0
 40
0.0
 40
0.0
 40
0.0
 40
1.0
 40
1.0
 40
1.0
 40
2.0
 40
2.0
 40
2.0
 40
3.0
 40
3.0
 40
3.0
 40
4.0
 40
4.0
 40
4.0
 40
5.0
 40
5.0
 40
5.0
 40
6.0
 40
6.0
 40
6.0
 40
7.0
 40
7.0
 40
7.0
 40
8.0
 40
8.0
 40
8.0
 40
9.0
 40
9.0
 40
9.0
 40
10.0
 40
10.0
 40
10.0
 40
11.0
 40
11.0
 40
11.0
 40
12.0
 40
12.0
 40
12.0
 40
13.0
 40
13.0
 40
13.0
 40
14.0
 40
14.0
 40
14.0
 40
15.0
 40
15.0
 40
15.0
 40
16.0
 40
16.0
 40
16.0
 40
17.0
 40
17.0
 40
17.0
 40
18.0
 40
18.0
 40
18.0
 40
19.0
 40
19.0
 40
19.0
 40
19.0
 10
91.16790633571497
 20
-138.0746039151341
 30
0.0
 10
91.07247719077355
 20
-138.0746039151341
 30
0.0
 10
90.85474715610576
 20
-138.0535888326741
 30
0.0
 10
90.72969018999119
 20
-137.8675536764706
 30
0.0
 10
90.65596514660685
 20
-137.7552435636515
 30
0.0
 10
90.65148652247602
 20
-137.6560248136763
 30
0.0
 10
90.64735240789372
 20
-137.5712754647391
 30
0.0
 10
90.64735240789372
 20
-137.5712754647391
 30
0.0
 10
90.86749400940118
 20
-137.5712754647391
 30
0.0
 10
90.86749400940118
 20
-137.5712754647391
 30
0.0
 10
90.86956106669234
 20
-137.645345017672
 30
0.0
 10
90.87989635314808
 20
-137.8799560202175
 30
0.0
 10
91.16342771158415
 20
-137.8799560202175
 30
0.0
 10
91.30088702144562
 20
-137.8799560202175
 30
0.0
 10
91.45350475144218
 20
-137.8103650914155
 30
0.0
 10
91.45350475144218
 20
-137.5819552607434
 30
0.0
 10
91.45350475144218
 20
-137.465511033342
 30
0.0
 10
91.4152641915559
 20
-137.416935187
 30
0.0
 10
91.38356931309161
 20
-137.3852403085356
 30
0.0
 10
91.30949976015874
 20
-137.3111707556028
 30
0.0
 10
91.1930555327573
 20
-137.2984239023073
 30
0.0
 10
91.13827851454182
 20
-137.2984239023073
 30
0.0
 10
91.11898597982443
 20
-137.2984239023073
 30
0.0
 10
91.08315698677782
 20
-137.3004909595985
 30
0.0
 10
91.05559622289583
 20
-137.3046250741808
 30
0.0
 10
91.05559622289583
 20
-137.3046250741808
 30
0.0
 10
91.05559622289583
 20
-137.1099771792642
 30
0.0
 10
91.05559622289583
 20
-137.1099771792642
 30
0.0
 10
91.0938367827821
 20
-137.1165228606862
 30
0.0
 10
91.13586694770216
 20
-137.1185899179773
 30
0.0
 10
91.14241262912412
 20
-137.1185899179773
 30
0.0
 10
91.20786944334387
 20
-137.1185899179773
 30
0.0
 10
91.40665145284278
 20
-137.0972303259688
 30
0.0
 10
91.40665145284278
 20
-136.8605522661321
 30
0.0
 10
91.40665145284278
 20
-136.6827853390932
 30
0.0
 10
91.2757378244033
 20
-136.6276638113292
 30
0.0
 10
91.16549476887529
 20
-136.6276638113292
 30
0.0
 10
90.90125594515663
 20
-136.6276638113292
 30
0.0
 10
90.89264320644351
 20
-136.8605522661321
 30
0.0
 10
90.88850909186121
 20
-136.9322102522253
 30
0.0
 10
90.88850909186121
 20
-136.9322102522253
 30
0.0
 10
90.68524845823147
 20
-136.9322102522253
 30
0.0
 10
90.68524845823147
 20
-136.9322102522253
 30
0.0
 10
90.6938611969446
 20
-136.8074977956592
 30
0.0
 10
90.72142196082659
 20
-136.4309488591214
 30
0.0
 10
91.17824162217072
 20
-136.4309488591214
 30
0.0
 10
91.40251733826048
 20
-136.4309488591214
 30
0.0
 10
91.64367402222797
 20
-136.5580728825271
 30
0.0
 10
91.64367402222797
 20
-136.8540065847101
 30
0.0
 10
91.64367402222797
 20
-137.0403862504621
 30
0.0
 10
91.54858938683508
 20
-137.1227240325596
 30
0.0
 10
91.44902612731136
 20
-137.1840467321971
 30
0.0
 10
91.5103488269488
 20
-137.211607496079
 30
0.0
 10
91.69224986857
 20
-137.2918782208854
 30
0.0
 10
91.69224986857
 20
-137.569208407448
 30
0.0
 10
91.69224986857
 20
-137.9075167840995
 30
0.0
 10
91.44489201272906
 20
-138.0746039151341
 30
0.0
 10
91.16790633571497
 20
-138.0746039151341
 30
0.0
  0
HATCH
  5
E0
330
DB
100
AcDbEntity
  8
_U+30EC_U+30A4_U+30E4_U+30FC 1
 62
   179
420
  2234388
100
AcDbHatch
 10
0.0
 20
0.0
 30
0.0
210
0.0
220
0.0
230
1.0
  2
SOLID
 70
     1
 71
     0
 91
        1
 92
        1
 93
        1
 72
     4
 94
        3
 73
     0
 74
     1
 95
       62
 96
       58
 40
0.0
 40
0.0
 40
0.0
 40
0.0
 40
1.0
 40
1.0
 40
1.0
 40
2.0
 40
2.0
 40
2.0
 40
3.0
 40
3.0
 40
3.0
 40
4.0
 40
4.0
 40
4.0
 40
5.0
 40
5.0
 40
5.0
 40
6.0
 40
6.0
 40
6.0
 40
7.0
 40
7.0
 40
7.0
 40
8.0
 40
8.0
 40
8.0
 40
9.0
 40
9.0
 40
9.0
 40
10.0
 40
10.0
 40
10.0
 40
11.0
 40
11.0
 40
11.0
 40
12.0
 40
12.0
 40
12.0
 40
13.0
 40
13.0
 40
13.0
 40
14.0
 40
14.0
 40
14.0
 40
15.0
 40
15.0
 40
15.0
 40
16.0
 40
16.0
 40
16.0
 40
17.0
 40
17.0
 40
17.0
 40
18.0
 40
18.0
 40
18.0
 40
19.0
 40
19.0
 40
19.0
 40
19.0
 10
91.16790633571497
 20
-138.0746039151341
 10
91.07247719077355
 20
-138.0746039151341
 10
90.85474715610576
 20
-138.0535888326741
 10
90.72969018999119
 20
-137.8675536764706
 10
90.65596514660685
 20
-137.7552435636515
 10
90.65148652247602
 20
-137.6560248136763
 10
90.64735240789372
 20
-137.5712754647391
 10
90.64735240789372
 20
-137.5712754647391
 10
90.86749400940118
 20
-137.5712754647391
 10
90.86749400940118
 20
-137.5712754647391
 10
90.86956106669234
 20
-137.645345017672
 10
90.87989635314808
 20
-137.8799560202175
 10
91.16342771158415
 20
-137.8799560202175
 10
91.30088702144562
 20
-137.8799560202175
 10
91.45350475144218
 20
-137.8103650914155
 10
91.45350475144218
 20
-137.5819552607434
 10
91.45350475144218
 20
-137.465511033342
 10
91.4152641915559
 20
-137.416935187
 10
91.38356931309161
 20
-137.3852403085356
 10
91.30949976015874
 20
-137.3111707556028
 10
91.1930555327573
 20
-137.2984239023073
 10
91.13827851454182
 20
-137.2984239023073
 10
91.11898597982443
 20
-137.2984239023073
 10
91.08315698677782
 20
-137.3004909595985
 10
91.05559622289583
 20
-137.3046250741808
 10
91.05559622289583
 20
-137.3046250741808
 10
91.05559622289583
 20
-137.1099771792642
 10
91.05559622289583
 20
-137.1099771792642
 10
91.0938367827821
 20
-137.1165228606862
 10
91.13586694770216
 20
-137.1185899179773
 10
91.14241262912412
 20
-137.1185899179773
 10
91.20786944334387
 20
-137.1185899179773
 10
91.40665145284278
 20
-137.0972303259688
 10
91.40665145284278
 20
-136.8605522661321
 10
91.40665145284278
 20
-136.6827853390932
 10
91.2757378244033
 20
-136.6276638113292
 10
91.16549476887529
 20
-136.6276638113292
 10
90.90125594515663
 20
-136.6276638113292
 10
90.89264320644351
 20
-136.8605522661321
 10
90.88850909186121
 20
-136.9322102522253
 10
90.88850909186121
 20
-136.9322102522253
 10
90.68524845823147
 20
-136.9322102522253
 10
90.68524845823147
 20
-136.9322102522253
 10
90.6938611969446
 20
-136.8074977956592
 10
90.72142196082659
 20
-136.4309488591214
 10
91.17824162217072
 20
-136.4309488591214
 10
91.40251733826048
 20
-136.4309488591214
 10
91.64367402222797
 20
-136.5580728825271
 10
91.64367402222797
 20
-136.8540065847101
 10
91.64367402222797
 20
-137.0403862504621
 10
91.54858938683508
 20
-137.1227240325596
 10
91.44902612731136
 20
-137.1840467321971
 10
91.5103488269488
 20
-137.211607496079
 10
91.69224986857
 20
-137.2918782208854
 10
91.69224986857
 20
-137.569208407448
 10
91.69224986857
 20
-137.9075167840995
 10
91.44489201272906
 20
-138.0746039151341
 10
91.16790633571497
 20
-138.0746039151341
 97
        0
 97
        0
 75
     2
 76
     1
 98
        0
  0
SPLINE
  5
E1
330
DB
100
AcDbEntity
  8
_U+30EC_U+30A4_U+30E4_U+30FC 1
370
     0
100
AcDbSpline
210
0.0
220
0.0
230
1.0
 70
    11
 71
     3
 72
    53
 73
    49
 74
     0
 42
0.0000000001
 43
0.0000000001
 12
1.0
 22
0.0
 32
0.0
 13
1.0
 23
0.0
 33
0.0
 40
0.0
 40
0.0
 40
0.0
 40
0.0
 40
1.0
 40
1.0
 40
1.0
 40
2.0
 40
2.0
 40
2.0
 40
3.0
 40
3.0
 40
3.0
 40
4.0
 40
4.0
 40
4.0
 40
5.0
 40
5.0
 40
5.0
 40
6.0
 40
6.0
 40
6.0
 40
7.0
 40
7.0
 40
7.0
 40
8.0
 40
8.0
 40
8.0
 40
9.0
 40
9.0
 40
9.0
 40
10.0
 40
10.0
 40
10.0
 40
11.0
 40
11.0
 40
11.0
 40
12.0
 40
12.0
 40
12.0
 40
13.0
 40
13.0
 40
13.0
 40
14.0
 40
14.0
 40
14.0
 40
15.0
 40
15.0
 40
15.0
 40
16.0
 40
16.0
 40
16.0
 40
16.0
 10
92.33407115747204
 20
-138.0746039151341
 30
0.0
 10
92.25586748995687
 20
-138.0746039151341
 30
0.0
 10
92.15423717314201
 20
-138.0577229472564
 30
0.0
 10
92.05260685632713
 20
-137.9943331903278
 30
0.0
 10
91.87931855341907
 20
-137.8844346443483
 30
0.0
 10
91.85795896141052
 20
-137.7531765063603
 30
0.0
 10
91.83901093624164
 20
-137.645345017672
 30
0.0
 10
91.83901093624164
 20
-137.645345017672
 30
0.0
 10
92.06121959504026
 20
-137.645345017672
 30
0.0
 10
92.06121959504026
 20
-137.645345017672
 30
0.0
 10
92.11599661325573
 20
-137.8441270271709
 30
0.0
 10
92.24312063666144
 20
-137.8737548483441
 30
0.0
 10
92.3361382147632
 20
-137.8737548483441
 30
0.0
 10
92.47566458191581
 20
-137.8737548483441
 30
0.0
 10
92.62793780236386
 20
-137.7741915888203
 30
0.0
 10
92.62793780236386
 20
-137.541647643566
 30
0.0
 10
92.62793780236386
 20
-137.2856770490119
 30
0.0
 10
92.44810381803381
 20
-137.2157416106614
 30
0.0
 10
92.32752547605007
 20
-137.2157416106614
 30
0.0
 10
92.29583059758576
 20
-137.2157416106614
 30
0.0
 10
92.15423717314201
 20
-137.2157416106614
 30
0.0
 10
92.06535370962256
 20
-137.3449326913582
 30
0.0
 10
92.06535370962256
 20
-137.3449326913582
 30
0.0
 10
91.88965383987481
 20
-137.3259846661894
 30
0.0
 10
91.88965383987481
 20
-137.3259846661894
 30
0.0
 10
91.88965383987481
 20
-137.3259846661894
 30
0.0
 10
92.01023218185856
 20
-136.4795247054635
 30
0.0
 10
92.01023218185856
 20
-136.4795247054635
 30
0.0
 10
92.01023218185856
 20
-136.4795247054635
 30
0.0
 10
92.78882376152502
 20
-136.4795247054635
 30
0.0
 10
92.78882376152502
 20
-136.4795247054635
 30
0.0
 10
92.78882376152502
 20
-136.4795247054635
 30
0.0
 10
92.78882376152502
 20
-136.6741726003801
 30
0.0
 10
92.78882376152502
 20
-136.6741726003801
 30
0.0
 10
92.78882376152502
 20
-136.6741726003801
 30
0.0
 10
92.17318519831088
 20
-136.6741726003801
 30
0.0
 10
92.17318519831088
 20
-136.6741726003801
 30
0.0
 10
92.17318519831088
 20
-136.6741726003801
 30
0.0
 10
92.10772838409113
 20
-137.0972303259688
 30
0.0
 10
92.10772838409113
 20
-137.0972303259688
 30
0.0
 10
92.16905108372858
 20
-137.0634683902133
 30
0.0
 10
92.25138886582604
 20
-137.0231607730359
 30
0.0
 10
92.36990015051865
 20
-137.0231607730359
 30
0.0
 10
92.62380368778156
 20
-137.0231607730359
 30
0.0
 10
92.86082625716674
 20
-137.2095404387879
 30
0.0
 10
92.86082625716674
 20
-137.5226996183971
 30
0.0
 10
92.86082625716674
 20
-137.8399929125886
 30
0.0
 10
92.63655054107697
 20
-138.0746039151341
 30
0.0
 10
92.33407115747204
 20
-138.0746039151341
 30
0.0
  0
HATCH
  5
E2
330
DB
100
AcDbEntity
  8
_U+30EC_U+30A4_U+30E4_U+30FC 1
 62
   179
420
  2234388
100
AcDbHatch
 10
0.0
 20
0.0
 30
0.0
210
0.0
220
0.0
230
1.0
  2
SOLID
 70
     1
 71
     0
 91
        1
 92
        1
 93
        1
 72
     4
 94
        3
 73
     0
 74
     1
 95
       53
 96
       49
 40
0.0
 40
0.0
 40
0.0
 40
0.0
 40
1.0
 40
1.0
 40
1.0
 40
2.0
 40
2.0
 40
2.0
 40
3.0
 40
3.0
 40
3.0
 40
4.0
 40
4.0
 40
4.0
 40
5.0
 40
5.0
 40
5.0
 40
6.0
 40
6.0
 40
6.0
 40
7.0
 40
7.0
 40
7.0
 40
8.0
 40
8.0
 40
8.0
 40
9.0
 40
9.0
 40
9.0
 40
10.0
 40
10.0
 40
10.0
 40
11.0
 40
11.0
 40
11.0
 40
12.0
 40
12.0
 40
12.0
 40
13.0
 40
13.0
 40
13.0
 40
14.0
 40
14.0
 40
14.0
 40
15.0
 40
15.0
 40
15.0
 40
16.0
 40
16.0
 40
16.0
 40
16.0
 10
92.33407115747204
 20
-138.0746039151341
 10
92.25586748995687
 20
-138.0746039151341
 10
92.15423717314201
 20
-138.0577229472564
 10
92.05260685632713
 20
-137.9943331903278
 10
91.87931855341907
 20
-137.8844346443483
 10
91.85795896141052
 20
-137.7531765063603
 10
91.83901093624164
 20
-137.645345017672
 10
91.83901093624164
 20
-137.645345017672
 10
92.06121959504026
 20
-137.645345017672
 10
92.06121959504026
 20
-137.645345017672
 10
92.11599661325573
 20
-137.8441270271709
 10
92.24312063666144
 20
-137.8737548483441
 10
92.3361382147632
 20
-137.8737548483441
 10
92.47566458191581
 20
-137.8737548483441
 10
92.62793780236386
 20
-137.7741915888203
 10
92.62793780236386
 20
-137.541647643566
 10
92.62793780236386
 20
-137.2856770490119
 10
92.44810381803381
 20
-137.2157416106614
 10
92.32752547605007
 20
-137.2157416106614
 10
92.29583059758576
 20
-137.2157416106614
 10
92.15423717314201
 20
-137.2157416106614
 10
92.06535370962256
 20
-137.3449326913582
 10
92.06535370962256
 20
-137.3449326913582
 10
91.88965383987481
 20
-137.3259846661894
 10
91.88965383987481
 20
-137.3259846661894
 10
91.88965383987481
 20
-137.3259846661894
 10
92.01023218185856
 20
-136.4795247054635
 10
92.01023218185856
 20
-136.4795247054635
 10
92.01023218185856
 20
-136.4795247054635
 10
92.78882376152502
 20
-136.4795247054635
 10
92.78882376152502
 20
-136.4795247054635
 10
92.78882376152502
 20
-136.4795247054635
 10
92.78882376152502
 20
-136.6741726003801
 10
92.78882376152502
 20
-136.6741726003801
 10
92.78882376152502
 20
-136.6741726003801
 10
92.17318519831088
 20
-136.6741726003801
 10
92.17318519831088
 20
-136.6741726003801
 10
92.17318519831088
 20
-136.6741726003801
 10
92.10772838409113
 20
-137.0972303259688
 10
92.10772838409113
 20
-137.0972303259688
 10
92.16905108372858
 20
-137.0634683902133
 10
92.25138886582604
 20
-137.0231607730359
 10
92.36990015051865
 20
-137.0231607730359
 10
92.62380368778156
 20
-137.0231607730359
 10
92.86082625716674
 20
-137.2095404387879
 10
92.86082625716674
 20
-137.5226996183971
 10
92.86082625716674
 20
-137.8399929125886
 10
92.63655054107697
 20
-138.0746039151341
 10
92.33407115747204
 20
-138.0746039151341
 97
        0
 97
        0
 75
     2
 76
     1
 98
        0
  0
ENDBLK
  5
DE
330
DB
100
AcDbEntity
  8
0
100
AcDbBlockEnd
  0
BLOCK
  5
F3
330
F1
100
AcDbEntity
  8
0
100
AcDbBlockBegin
  2
block 6
 70
     0
 10
0.0
 20
0.0
 30
0.0
  3
block 6
  1

  0
SPLINE
  5
F5
330
F1
100
AcDbEntity
  8
_U+30EC_U+30A4_U+30E4_U+30FC 1
370
     0
100
AcDbSpline
210
0.0
220
0.0
230
1.0
 70
    11
 71
     3
 72
    26
 73
    22
 74
     0
 42
0.0000000001
 43
0.0000000001
 12
1.0
 22
0.0
 32
0.0
 13
1.0
 23
0.0
 33
0.0
 40
0.0
 40
0.0
 40
0.0
 40
0.0
 40
1.0
 40
1.0
 40
1.0
 40
2.0
 40
2.0
 40
2.0
 40
3.0
 40
3.0
 40
3.0
 40
4.0
 40
4.0
 40
4.0
 40
5.0
 40
5.0
 40
5.0
 40
6.0
 40
6.0
 40
6.0
 40
7.0
 40
7.0
 40
7.0
 40
7.0
 10
103.1006835679748
 20
-119.0237426460253
 30
0.0
 10
103.1006835679748
 20
-119.0237426460253
 30
0.0
 10
103.1006835679748
 20
-117.9194172882285
 30
0.0
 10
103.1006835679748
 20
-117.9194172882285
 30
0.0
 10
103.1006835679748
 20
-117.9194172882285
 30
0.0
 10
102.7706434204879
 20
-117.9194172882285
 30
0.0
 10
102.7706434204879
 20
-117.9194172882285
 30
0.0
 10
102.7706434204879
 20
-117.9194172882285
 30
0.0
 10
102.7706434204879
 20
-117.7712781823627
 30
0.0
 10
102.7706434204879
 20
-117.7712781823627
 30
0.0
 10
103.102750625266
 20
-117.7566365265504
 30
0.0
 10
103.1492594143169
 20
-117.5936835100981
 30
0.0
 10
103.17888723549
 20
-117.4794785947621
 30
0.0
 10
103.17888723549
 20
-117.4794785947621
 30
0.0
 10
103.3249592840646
 20
-117.4794785947621
 30
0.0
 10
103.3249592840646
 20
-117.4794785947621
 30
0.0
 10
103.3249592840646
 20
-117.4794785947621
 30
0.0
 10
103.3249592840646
 20
-119.0237426460253
 30
0.0
 10
103.3249592840646
 20
-119.0237426460253
 30
0.0
 10
103.3249592840646
 20
-119.0237426460253
 30
0.0
 10
103.1006835679748
 20
-119.0237426460253
 30
0.0
 10
103.1006835679748
 20
-119.0237426460253
 30
0.0
  0
HATCH
  5
F6
330
F1
100
AcDbEntity
  8
_U+30EC_U+30A4_U+30E4_U+30FC 1
 62
   179
420
  2234388
100
AcDbHatch
 10
0.0
 20
0.0
 30
0.0
210
0.0
220
0.0
230
1.0
  2
SOLID
 70
     1
 71
     0
 91
        1
 92
        1
 93
        1
 72
     4
 94
        3
 73
     0
 74
     1
 95
       26
 96
       22
 40
0.0
 40
0.0
 40
0.0
 40
0.0
 40
1.0
 40
1.0
 40
1.0
 40
2.0
 40
2.0
 40
2.0
 40
3.0
 40
3.0
 40
3.0
 40
4.0
 40
4.0
 40
4.0
 40
5.0
 40
5.0
 40
5.0
 40
6.0
 40
6.0
 40
6.0
 40
7.0
 40
7.0
 40
7.0
 40
7.0
 10
103.1006835679748
 20
-119.0237426460253
 10
103.1006835679748
 20
-119.0237426460253
 10
103.1006835679748
 20
-117.9194172882285
 10
103.1006835679748
 20
-117.9194172882285
 10
103.1006835679748
 20
-117.9194172882285
 10
102.7706434204879
 20
-117.9194172882285
 10
102.7706434204879
 20
-117.9194172882285
 10
102.7706434204879
 20
-117.9194172882285
 10
102.7706434204879
 20
-117.7712781823627
 10
102.7706434204879
 20
-117.7712781823627
 10
103.102750625266
 20
-117.7566365265504
 10
103.1492594143169
 20
-117.5936835100981
 10
103.17888723549
 20
-117.4794785947621
 10
103.17888723549
 20
-117.4794785947621
 10
103.3249592840646
 20
-117.4794785947621
 10
103.3249592840646
 20
-117.4794785947621
 10
103.3249592840646
 20
-117.4794785947621
 10
103.3249592840646
 20
-119.0237426460253
 10
103.3249592840646
 20
-119.0237426460253
 10
103.3249592840646
 20
-119.0237426460253
 10
103.1006835679748
 20
-119.0237426460253
 10
103.1006835679748
 20
-119.0237426460253
 97
        0
 97
        0
 75
     2
 76
     1
 98
        0
  0
SPLINE
  5
F7
330
F1
100
AcDbEntity
  8
_U+30EC_U+30A4_U+30E4_U+30FC 1
370
     0
100
AcDbSpline
210
0.0
220
0.0
230
1.0
 70
    11
 71
     3
 72
    26
 73
    22
 74
     0
 42
0.0000000001
 43
0.0000000001
 12
1.0
 22
0.0
 32
0.0
 13
1.0
 23
0.0
 33
0.0
 40
0.0
 40
0.0
 40
0.0
 40
0.0
 40
1.0
 40
1.0
 40
1.0
 40
2.0
 40
2.0
 40
2.0
 40
3.0
 40
3.0
 40
3.0
 40
4.0
 40
4.0
 40
4.0
 40
5.0
 40
5.0
 40
5.0
 40
6.0
 40
6.0
 40
6.0
 40
7.0
 40
7.0
 40
7.0
 40
7.0
 10
104.2775281857362
 20
-119.0237426460253
 30
0.0
 10
104.2775281857362
 20
-119.0237426460253
 30
0.0
 10
104.2775281857362
 20
-117.9194172882285
 30
0.0
 10
104.2775281857362
 20
-117.9194172882285
 30
0.0
 10
104.2775281857362
 20
-117.9194172882285
 30
0.0
 10
103.9474880382492
 20
-117.9194172882285
 30
0.0
 10
103.9474880382492
 20
-117.9194172882285
 30
0.0
 10
103.9474880382492
 20
-117.9194172882285
 30
0.0
 10
103.9474880382492
 20
-117.7712781823627
 30
0.0
 10
103.9474880382492
 20
-117.7712781823627
 30
0.0
 10
104.2795952430273
 20
-117.7566365265504
 30
0.0
 10
104.3261040320782
 20
-117.5936835100981
 30
0.0
 10
104.3557318532514
 20
-117.4794785947621
 30
0.0
 10
104.3557318532514
 20
-117.4794785947621
 30
0.0
 10
104.5018039018259
 20
-117.4794785947621
 30
0.0
 10
104.5018039018259
 20
-117.4794785947621
 30
0.0
 10
104.5018039018259
 20
-117.4794785947621
 30
0.0
 10
104.5018039018259
 20
-119.0237426460253
 30
0.0
 10
104.5018039018259
 20
-119.0237426460253
 30
0.0
 10
104.5018039018259
 20
-119.0237426460253
 30
0.0
 10
104.2775281857362
 20
-119.0237426460253
 30
0.0
 10
104.2775281857362
 20
-119.0237426460253
 30
0.0
  0
HATCH
  5
F8
330
F1
100
AcDbEntity
  8
_U+30EC_U+30A4_U+30E4_U+30FC 1
 62
   179
420
  2234388
100
AcDbHatch
 10
0.0
 20
0.0
 30
0.0
210
0.0
220
0.0
230
1.0
  2
SOLID
 70
     1
 71
     0
 91
        1
 92
        1
 93
        1
 72
     4
 94
        3
 73
     0
 74
     1
 95
       26
 96
       22
 40
0.0
 40
0.0
 40
0.0
 40
0.0
 40
1.0
 40
1.0
 40
1.0
 40
2.0
 40
2.0
 40
2.0
 40
3.0
 40
3.0
 40
3.0
 40
4.0
 40
4.0
 40
4.0
 40
5.0
 40
5.0
 40
5.0
 40
6.0
 40
6.0
 40
6.0
 40
7.0
 40
7.0
 40
7.0
 40
7.0
 10
104.2775281857362
 20
-119.0237426460253
 10
104.2775281857362
 20
-119.0237426460253
 10
104.2775281857362
 20
-117.9194172882285
 10
104.2775281857362
 20
-117.9194172882285
 10
104.2775281857362
 20
-117.9194172882285
 10
103.9474880382492
 20
-117.9194172882285
 10
103.9474880382492
 20
-117.9194172882285
 10
103.9474880382492
 20
-117.9194172882285
 10
103.9474880382492
 20
-117.7712781823627
 10
103.9474880382492
 20
-117.7712781823627
 10
104.2795952430273
 20
-117.7566365265504
 10
104.3261040320782
 20
-117.5936835100981
 10
104.3557318532514
 20
-117.4794785947621
 10
104.3557318532514
 20
-117.4794785947621
 10
104.5018039018259
 20
-117.4794785947621
 10
104.5018039018259
 20
-117.4794785947621
 10
104.5018039018259
 20
-117.4794785947621
 10
104.5018039018259
 20
-119.0237426460253
 10
104.5018039018259
 20
-119.0237426460253
 10
104.5018039018259
 20
-119.0237426460253
 10
104.2775281857362
 20
-119.0237426460253
 10
104.2775281857362
 20
-119.0237426460253
 97
        0
 97
        0
 75
     2
 76
     1
 98
        0
  0
ENDBLK
  5
F4
330
F1
100
AcDbEntity
  8
0
100
AcDbBlockEnd
  0
ENDSEC
  0
SECTION
  2
ENTITIES
  0
SPLINE
  5
41
330
1F
100
AcDbEntity
  8
_U+30EC_U+30A4_U+30E4_U+30FC 1
370
     0
100
AcDbSpline
210
0.0
220
0.0
230
1.0
 70
    11
 71
     3
 72
    35
 73
    31
 74
     0
 42
0.0000000001
 43
0.0000000001
 12
1.0
 22
0.0
 32
0.0
 13
1.0
 23
0.0
 33
0.0
 40
0.0
 40
0.0
 40
0.0
 40
0.0
 40
1.0
 40
1.0
 40
1.0
 40
2.0
 40
2.0
 40
2.0
 40
3.0
 40
3.0
 40
3.0
 40
4.0
 40
4.0
 40
4.0
 40
5.0
 40
5.0
 40
5.0
 40
6.0
 40
6.0
 40
6.0
 40
7.0
 40
7.0
 40
7.0
 40
8.0
 40
8.0
 40
8.0
 40
9.0
 40
9.0
 40
9.0
 40
10.0
 40
10.0
 40
10.0
 40
10.0
 10
108.5404766753462
 20
-123.6201771913171
 30
0.0
 10
108.5404766753462
 20
-123.6201771913171
 30
0.0
 10
98.34057776890062
 20
-123.6201771913171
 30
0.0
 10
98.34057776890062
 20
-123.6201771913171
 30
0.0
 10
98.34057776890062
 20
-123.6201771913171
 30
0.0
 10
98.34057776890062
 20
-124.420136080006
 30
0.0
 10
98.34057776890062
 20
-124.420136080006
 30
0.0
 10
98.34057776890062
 20
-124.420136080006
 30
0.0
 10
108.5404766753462
 20
-124.420136080006
 30
0.0
 10
108.5404766753462
 20
-124.420136080006
 30
0.0
 10
108.5404766753462
 20
-124.420136080006
 30
0.0
 10
108.5404766753462
 20
-133.8198999665451
 30
0.0
 10
108.5404766753462
 20
-133.8198999665451
 30
0.0
 10
108.5404766753462
 20
-133.8198999665451
 30
0.0
 10
75.14064169411364
 20
-133.8198999665451
 30
0.0
 10
75.14064169411364
 20
-133.8198999665451
 30
0.0
 10
75.14064169411364
 20
-133.8198999665451
 30
0.0
 10
74.3406828256334
 20
-134.6198588552338
 30
0.0
 10
74.3406828256334
 20
-134.6198588552338
 30
0.0
 10
74.3406828256334
 20
-134.6198588552338
 30
0.0
 10
108.5404766753462
 20
-134.6198588552338
 30
0.0
 10
108.5404766753462
 20
-134.6198588552338
 30
0.0
 10
108.9825072196246
 20
-134.6198588552338
 30
0.0
 10
109.3407883215952
 20
-134.26224802199
 30
0.0
 10
109.3407883215952
 20
-133.8198999665451
 30
0.0
 10
109.3407883215952
 20
-133.8198999665451
 30
0.0
 10
109.3407883215952
 20
-124.420136080006
 30
0.0
 10
109.3407883215952
 20
-124.420136080006
 30
0.0
 10
109.3407883215952
 20
-123.9781408023389
 30
0.0
 10
108.9825072196246
 20
-123.6201771913171
 30
0.0
 10
108.5404766753462
 20
-123.6201771913171
 30
0.0
  0
POLYLINE
  5
42
330
1F
100
AcDbEntity
  8
_U+30EC_U+30A4_U+30E4_U+30FC 1
 62
   179
420
  2234388
370
    25
100
AcDb2dPolyline
 66
     1
 10
0.0
 20
0.0
 30
0.0
  0
VERTEX
  5
43
330
42
100
AcDbEntity
  8
_U+30EC_U+30A4_U+30E4_U+30FC 1
 62
   179
420
  2234388
370
    25
100
AcDbVertex
100
AcDb2dVertex
 10
74.3406828256334
 20
-134.6198588552338
 30
0.0
  0
VERTEX
  5
44
330
42
100
AcDbEntity
  8
_U+30EC_U+30A4_U+30E4_U+30FC 1
 62
   179
420
  2234388
370
    25
100
AcDbVertex
100
AcDb2dVertex
 10
108.5404766753462
 20
-134.6198588552338
 30
0.0
  0
SEQEND
  5
45
330
42
100
AcDbEntity
  8
_U+30EC_U+30A4_U+30E4_U+30FC 1
 62
   179
420
  2234388
370
    25
  0
POLYLINE
  5
46
330
1F
100
AcDbEntity
  8
_U+30EC_U+30A4_U+30E4_U+30FC 1
 62
   179
420
  2234388
370
    25
100
AcDb2dPolyline
 66
     1
 10
0.0
 20
0.0
 30
0.0
  0
VERTEX
  5
47
330
46
100
AcDbEntity
  8
_U+30EC_U+30A4_U+30E4_U+30FC 1
 62
   179
420
  2234388
370
    25
100
AcDbVertex
100
AcDb2dVertex
 10
109.3407883215952
 20
-124.420136080006
 30
0.0
  0
VERTEX
  5
48
330
46
100
AcDbEntity
  8
_U+30EC_U+30A4_U+30E4_U+30FC 1
 62
   179
420
  2234388
370
    25
100
AcDbVertex
100
AcDb2dVertex
 10
109.3407883215952
 20
-133.8198999665451
 30
0.0
  0
SEQEND
  5
49
330
46
100
AcDbEntity
  8
_U+30EC_U+30A4_U+30E4_U+30FC 1
 62
   179
420
  2234388
370
    25
  0
POLYLINE
  5
4A
330
1F
100
AcDbEntity
  8
_U+30EC_U+30A4_U+30E4_U+30FC 1
 62
   179
420
  2234388
370
    25
100
AcDb2dPolyline
 66
     1
 10
0.0
 20
0.0
 30
0.0
  0
VERTEX
  5
4B
330
4A
100
AcDbEntity
  8
_U+30EC_U+30A4_U+30E4_U+30FC 1
 62
   179
420
  2234388
370
    25
100
AcDbVertex
100
AcDb2dVertex
 10
98.34057776890062
 20
-123.6201771913171
 30
0.0
  0
VERTEX
  5
4C
330
4A
100
AcDbEntity
  8
_U+30EC_U+30A4_U+30E4_U+30FC 1
 62
   179
420
  2234388
370
    25
100
AcDbVertex
100
AcDb2dVertex
 10
108.5404766753462
 20
-123.6201771913171
 30
0.0
  0
SEQEND
  5
4D
330
4A
100
AcDbEntity
  8
_U+30EC_U+30A4_U+30E4_U+30FC 1
 62
   179
420
  2234388
370
    25
  0
POLYLINE
  5
4E
330
1F
100
AcDbEntity
  8
_U+30EC_U+30A4_U+30E4_U+30FC 1
 62
   179
420
  2234388
370
    25
100
AcDb2dPolyline
 66
     1
 10
0.0
 20
0.0
 30
0.0
  0
VERTEX
  5
4F
330
4E
100
AcDbEntity
  8
_U+30EC_U+30A4_U+30E4_U+30FC 1
 62
   179
420
  2234388
370
    25
100
AcDbVertex
100
AcDb2dVertex
 10
98.34057776890062
 20
-123.6201771913171
 30
0.0
  0
VERTEX
  5
50
330
4E
100
AcDbEntity
  8
_U+30EC_U+30A4_U+30E4_U+30FC 1
 62
   179
420
  2234388
370
    25
100
AcDbVertex
100
AcDb2dVertex
 10
98.34057776890062
 20
-124.420136080006
 30
0.0
  0
SEQEND
  5
51
330
4E
100
AcDbEntity
  8
_U+30EC_U+30A4_U+30E4_U+30FC 1
 62
   179
420
  2234388
370
    25
  0
POLYLINE
  5
52
330
1F
100
AcDbEntity
  8
_U+30EC_U+30A4_U+30E4_U+30FC 1
 62
   179
420
  2234388
370
    25
100
AcDb2dPolyline
 66
     1
 10
0.0
 20
0.0
 30
0.0
  0
VERTEX
  5
53
330
52
100
AcDbEntity
  8
_U+30EC_U+30A4_U+30E4_U+30FC 1
 62
   179
420
  2234388
370
    25
100
AcDbVertex
100
AcDb2dVertex
 10
75.14064169411364
 20
-133.8198999665451
 30
0.0
  0
VERTEX
  5
54
330
52
100
AcDbEntity
  8
_U+30EC_U+30A4_U+30E4_U+30FC 1
 62
   179
420
  2234388
370
    25
100
AcDbVertex
100
AcDb2dVertex
 10
108.5404766753462
 20
-133.8198999665451
 30
0.0
  0
SEQEND
  5
55
330
52
100
AcDbEntity
  8
_U+30EC_U+30A4_U+30E4_U+30FC 1
 62
   179
420
  2234388
370
    25
  0
POLYLINE
  5
56
330
1F
100
AcDbEntity
  8
_U+30EC_U+30A4_U+30E4_U+30FC 1
 62
   179
420
  2234388
370
    25
100
AcDb2dPolyline
 66
     1
 10
0.0
 20
0.0
 30
0.0
  0
VERTEX
  5
57
330
56
100
AcDbEntity
  8
_U+30EC_U+30A4_U+30E4_U+30FC 1
 62
   179
420
  2234388
370
    25
100
AcDbVertex
100
AcDb2dVertex
 10
98.34057776890062
 20
-124.420136080006
 30
0.0
  0
VERTEX
  5
58
330
56
100
AcDbEntity
  8
_U+30EC_U+30A4_U+30E4_U+30FC 1
 62
   179
420
  2234388
370
    25
100
AcDbVertex
100
AcDb2dVertex
 10
108.5404766753462
 20
-124.420136080006
 30
0.0
  0
SEQEND
  5
59
330
56
100
AcDbEntity
  8
_U+30EC_U+30A4_U+30E4_U+30FC 1
 62
   179
420
  2234388
370
    25
  0
POLYLINE
  5
5A
330
1F
100
AcDbEntity
  8
_U+30EC_U+30A4_U+30E4_U+30FC 1
 62
   179
420
  2234388
370
    25
100
AcDb2dPolyline
 66
     1
 10
0.0
 20
0.0
 30
0.0
  0
VERTEX
  5
5B
330
5A
100
AcDbEntity
  8
_U+30EC_U+30A4_U+30E4_U+30FC 1
 62
   179
420
  2234388
370
    25
100
AcDbVertex
100
AcDb2dVertex
 10
108.5404766753462
 20
-124.420136080006
 30
0.0
  0
VERTEX
  5
5C
330
5A
100
AcDbEntity
  8
_U+30EC_U+30A4_U+30E4_U+30FC 1
 62
   179
420
  2234388
370
    25
100
AcDbVertex
100
AcDb2dVertex
 10
108.5404766753462
 20
-133.8198999665451
 30
0.0
  0
SEQEND
  5
5D
330
5A
100
AcDbEntity
  8
_U+30EC_U+30A4_U+30E4_U+30FC 1
 62
   179
420
  2234388
370
    25
  0
POLYLINE
  5
5E
330
1F
100
AcDbEntity
  8
_U+30EC_U+30A4_U+30E4_U+30FC 1
 62
   179
420
  2234388
370
    25
100
AcDb2dPolyline
 66
     1
 10
0.0
 20
0.0
 30
0.0
  0
VERTEX
  5
5F
330
5E
100
AcDbEntity
  8
_U+30EC_U+30A4_U+30E4_U+30FC 1
 62
   179
420
  2234388
370
    25
100
AcDbVertex
100
AcDb2dVertex
 10
74.3406828256334
 20
-134.6198588552338
 30
0.0
  0
VERTEX
  5
60
330
5E
100
AcDbEntity
  8
_U+30EC_U+30A4_U+30E4_U+30FC 1
 62
   179
420
  2234388
370
    25
100
AcDbVertex
100
AcDb2dVertex
 10
75.14064169411364
 20
-133.8198999665451
 30
0.0
  0
SEQEND
  5
61
330
5E
100
AcDbEntity
  8
_U+30EC_U+30A4_U+30E4_U+30FC 1
 62
   179
420
  2234388
370
    25
  0
SPLINE
  5
62
330
1F
100
AcDbEntity
  8
_U+30EC_U+30A4_U+30E4_U+30FC 1
 62
   179
420
  2234388
370
    25
100
AcDbSpline
210
0.0
220
0.0
230
1.0
 70
     8
 71
     3
 72
     8
 73
     4
 74
     0
 42
0.0000000001
 43
0.0000000001
 12
1.0
 22
0.0
 32
0.0
 13
1.0
 23
0.0
 33
0.0
 40
0.0
 40
0.0
 40
0.0
 40
0.0
 40
1.0
 40
1.0
 40
1.0
 40
1.0
 10
108.5404766753462
 20
-134.6198588552338
 30
0.0
 10
108.9825072196246
 20
-134.6198588552338
 30
0.0
 10
109.3407883215952
 20
-134.26224802199
 30
0.0
 10
109.3407883215952
 20
-133.8198999665451
 30
0.0
  0
SPLINE
  5
63
330
1F
100
AcDbEntity
  8
_U+30EC_U+30A4_U+30E4_U+30FC 1
 62
   179
420
  2234388
370
    25
100
AcDbSpline
210
0.0
220
0.0
230
1.0
 70
     8
 71
     3
 72
     8
 73
     4
 74
     0
 42
0.0000000001
 43
0.0000000001
 12
1.0
 22
0.0
 32
0.0
 13
1.0
 23
0.0
 33
0.0
 40
0.0
 40
0.0
 40
0.0
 40
0.0
 40
1.0
 40
1.0
 40
1.0
 40
1.0
 10
109.3407883215952
 20
-124.420136080006
 30
0.0
 10
109.3407883215952
 20
-123.9781408023389
 30
0.0
 10
108.9825072196246
 20
-123.6201771913171
 30
0.0
 10
108.5404766753462
 20
-123.6201771913171
 30
0.0
  0
SPLINE
  5
64
330
1F
100
AcDbEntity
  8
_U+30EC_U+30A4_U+30E4_U+30FC 1
 62
   179
420
  2234388
370
     9
100
AcDbSpline
210
0.0
220
0.0
230
1.0
 70
    11
 71
     3
 72
    17
 73
    13
 74
     0
 42
0.0000000001
 43
0.0000000001
 12
1.0
 22
0.0
 32
0.0
 13
1.0
 23
0.0
 33
0.0
 40
0.0
 40
0.0
 40
0.0
 40
0.0
 40
1.0
 40
1.0
 40
1.0
 40
2.0
 40
2.0
 40
2.0
 40
3.0
 40
3.0
 40
3.0
 40
4.0
 40
4.0
 40
4.0
 40
4.0
 10
70.44083042512692
 20
-133.8198999665451
 30
0.0
 10
70.44083042512692
 20
-133.7647960776702
 30
0.0
 10
70.39606292626904
 20
-133.7199932999035
 30
0.0
 10
70.34057098324031
 20
-133.7199932999035
 30
0.0
 10
70.28546709575724
 20
-133.7199932999035
 30
0.0
 10
70.24066431912247
 20
-133.7647960776702
 30
0.0
 10
70.24066431912247
 20
-133.8198999665451
 30
0.0
 10
70.24066431912247
 20
-133.8750391331982
 30
0.0
 10
70.28546709575724
 20
-133.9198066331868
 30
0.0
 10
70.34057098324031
 20
-133.9198066331868
 30
0.0
 10
70.39606292626904
 20
-133.9198066331868
 30
0.0
 10
70.44083042512692
 20
-133.8750391331982
 30
0.0
 10
70.44083042512692
 20
-133.8198999665451
 30
0.0
  0
SPLINE
  5
65
330
1F
100
AcDbEntity
  8
_U+30EC_U+30A4_U+30E4_U+30FC 1
 62
   179
420
  2234388
370
     9
100
AcDbSpline
210
0.0
220
0.0
230
1.0
 70
    11
 71
     3
 72
    17
 73
    13
 74
     0
 42
0.0000000001
 43
0.0000000001
 12
1.0
 22
0.0
 32
0.0
 13
1.0
 23
0.0
 33
0.0
 40
0.0
 40
0.0
 40
0.0
 40
0.0
 40
1.0
 40
1.0
 40
1.0
 40
2.0
 40
2.0
 40
2.0
 40
3.0
 40
3.0
 40
3.0
 40
4.0
 40
4.0
 40
4.0
 40
4.0
 10
70.44083042512692
 20
-134.6198588552338
 30
0.0
 10
70.44083042512692
 20
-134.5647549663589
 30
0.0
 10
70.39606292626904
 20
-134.5199521885921
 30
0.0
 10
70.34057098324031
 20
-134.5199521885921
 30
0.0
 10
70.28546709575724
 20
-134.5199521885921
 30
0.0
 10
70.24066431912247
 20
-134.5647549663589
 30
0.0
 10
70.24066431912247
 20
-134.6198588552338
 30
0.0
 10
70.24066431912247
 20
-134.6749980218869
 30
0.0
 10
70.28546709575724
 20
-134.7197655218754
 30
0.0
 10
70.34057098324031
 20
-134.7197655218754
 30
0.0
 10
70.39606292626904
 20
-134.7197655218754
 30
0.0
 10
70.44083042512692
 20
-134.6749980218869
 30
0.0
 10
70.44083042512692
 20
-134.6198588552338
 30
0.0
  0
SPLINE
  5
66
330
1F
100
AcDbEntity
  8
_U+30EC_U+30A4_U+30E4_U+30FC 1
 62
   179
420
  2234388
370
     9
100
AcDbSpline
210
0.0
220
0.0
230
1.0
 70
    11
 71
     3
 72
    17
 73
    13
 74
     0
 42
0.0000000001
 43
0.0000000001
 12
1.0
 22
0.0
 32
0.0
 13
1.0
 23
0.0
 33
0.0
 40
0.0
 40
0.0
 40
0.0
 40
0.0
 40
1.0
 40
1.0
 40
1.0
 40
2.0
 40
2.0
 40
2.0
 40
3.0
 40
3.0
 40
3.0
 40
4.0
 40
4.0
 40
4.0
 40
4.0
 10
74.44058948975123
 20
-138.6203235764562
 30
0.0
 10
74.44058948975123
 20
-138.5645141320257
 30
0.0
 10
74.39578671311646
 20
-138.519711354259
 30
0.0
 10
74.3406828256334
 20
-138.519711354259
 30
0.0
 10
74.28554366037345
 20
-138.519711354259
 30
0.0
 10
74.24077616151556
 20
-138.5645141320257
 30
0.0
 10
74.24077616151556
 20
-138.6203235764562
 30
0.0
 10
74.24077616151556
 20
-138.6754274653311
 30
0.0
 10
74.28554366037345
 20
-138.7202302430978
 30
0.0
 10
74.3406828256334
 20
-138.7202302430978
 30
0.0
 10
74.39578671311646
 20
-138.7202302430978
 30
0.0
 10
74.44058948975123
 20
-138.6754274653311
 30
0.0
 10
74.44058948975123
 20
-138.6203235764562
 30
0.0
  0
SPLINE
  5
67
330
1F
100
AcDbEntity
  8
_U+30EC_U+30A4_U+30E4_U+30FC 1
 62
   179
420
  2234388
370
     9
100
AcDbSpline
210
0.0
220
0.0
230
1.0
 70
    11
 71
     3
 72
    17
 73
    13
 74
     0
 42
0.0000000001
 43
0.0000000001
 12
1.0
 22
0.0
 32
0.0
 13
1.0
 23
0.0
 33
0.0
 40
0.0
 40
0.0
 40
0.0
 40
0.0
 40
1.0
 40
1.0
 40
1.0
 40
2.0
 40
2.0
 40
2.0
 40
3.0
 40
3.0
 40
3.0
 40
4.0
 40
4.0
 40
4.0
 40
4.0
 10
109.440694985713
 20
-138.6203235764562
 30
0.0
 10
109.440694985713
 20
-138.5645141320257
 30
0.0
 10
109.3958922090783
 20
-138.519711354259
 30
0.0
 10
109.3407883215952
 20
-138.519711354259
 30
0.0
 10
109.2853316563434
 20
-138.519711354259
 30
0.0
 10
109.2405288797086
 20
-138.5645141320257
 30
0.0
 10
109.2405288797086
 20
-138.6203235764562
 30
0.0
 10
109.2405288797086
 20
-138.6754274653311
 30
0.0
 10
109.2853316563434
 20
-138.7202302430978
 30
0.0
 10
109.3407883215952
 20
-138.7202302430978
 30
0.0
 10
109.3958922090783
 20
-138.7202302430978
 30
0.0
 10
109.440694985713
 20
-138.6754274653311
 30
0.0
 10
109.440694985713
 20
-138.6203235764562
 30
0.0
  0
SPLINE
  5
68
330
1F
100
AcDbEntity
  8
_U+30EC_U+30A4_U+30E4_U+30FC 1
 62
   179
420
  2234388
370
     9
100
AcDbSpline
210
0.0
220
0.0
230
1.0
 70
    11
 71
     3
 72
    17
 73
    13
 74
     0
 42
0.0000000001
 43
0.0000000001
 12
1.0
 22
0.0
 32
0.0
 13
1.0
 23
0.0
 33
0.0
 40
0.0
 40
0.0
 40
0.0
 40
0.0
 40
1.0
 40
1.0
 40
1.0
 40
2.0
 40
2.0
 40
2.0
 40
3.0
 40
3.0
 40
3.0
 40
4.0
 40
4.0
 40
4.0
 40
4.0
 10
94.44076064617103
 20
-124.420136080006
 30
0.0
 10
94.44076064617103
 20
-124.3650321911311
 30
0.0
 10
94.39595786953626
 20
-124.3202294133644
 30
0.0
 10
94.34050120428441
 20
-124.3202294133644
 30
0.0
 10
94.28536203902446
 20
-124.3202294133644
 30
0.0
 10
94.24059454016657
 20
-124.3650321911311
 30
0.0
 10
94.24059454016657
 20
-124.420136080006
 30
0.0
 10
94.24059454016657
 20
-124.4752752466591
 30
0.0
 10
94.28536203902446
 20
-124.5200427466477
 30
0.0
 10
94.34050120428441
 20
-124.5200427466477
 30
0.0
 10
94.39595786953626
 20
-124.5200427466477
 30
0.0
 10
94.44076064617103
 20
-124.4752752466591
 30
0.0
 10
94.44076064617103
 20
-124.420136080006
 30
0.0
  0
SPLINE
  5
69
330
1F
100
AcDbEntity
  8
_U+30EC_U+30A4_U+30E4_U+30FC 1
 62
   179
420
  2234388
370
     9
100
AcDbSpline
210
0.0
220
0.0
230
1.0
 70
    11
 71
     3
 72
    17
 73
    13
 74
     0
 42
0.0000000001
 43
0.0000000001
 12
1.0
 22
0.0
 32
0.0
 13
1.0
 23
0.0
 33
0.0
 40
0.0
 40
0.0
 40
0.0
 40
0.0
 40
1.0
 40
1.0
 40
1.0
 40
2.0
 40
2.0
 40
2.0
 40
3.0
 40
3.0
 40
3.0
 40
4.0
 40
4.0
 40
4.0
 40
4.0
 10
94.44076064617103
 20
-133.8198999665451
 30
0.0
 10
94.44076064617103
 20
-133.7647960776702
 30
0.0
 10
94.39595786953626
 20
-133.7199932999035
 30
0.0
 10
94.34050120428441
 20
-133.7199932999035
 30
0.0
 10
94.28536203902446
 20
-133.7199932999035
 30
0.0
 10
94.24059454016657
 20
-133.7647960776702
 30
0.0
 10
94.24059454016657
 20
-133.8198999665451
 30
0.0
 10
94.24059454016657
 20
-133.8750391331982
 30
0.0
 10
94.28536203902446
 20
-133.9198066331868
 30
0.0
 10
94.34050120428441
 20
-133.9198066331868
 30
0.0
 10
94.39595786953626
 20
-133.9198066331868
 30
0.0
 10
94.44076064617103
 20
-133.8750391331982
 30
0.0
 10
94.44076064617103
 20
-133.8198999665451
 30
0.0
  0
SPLINE
  5
6A
330
1F
100
AcDbEntity
  8
_U+30EC_U+30A4_U+30E4_U+30FC 1
 62
   179
420
  2234388
370
     9
100
AcDbSpline
210
0.0
220
0.0
230
1.0
 70
    11
 71
     3
 72
    17
 73
    13
 74
     0
 42
0.0000000001
 43
0.0000000001
 12
1.0
 22
0.0
 32
0.0
 13
1.0
 23
0.0
 33
0.0
 40
0.0
 40
0.0
 40
0.0
 40
0.0
 40
1.0
 40
1.0
 40
1.0
 40
2.0
 40
2.0
 40
2.0
 40
3.0
 40
3.0
 40
3.0
 40
4.0
 40
4.0
 40
4.0
 40
4.0
 10
113.4404540503374
 20
-134.6198588552338
 30
0.0
 10
113.4404540503374
 20
-134.5647549663589
 30
0.0
 10
113.3960040514714
 20
-134.5199521885921
 30
0.0
 10
113.3405473862195
 20
-134.5199521885921
 30
0.0
 10
113.2854110827897
 20
-134.5199521885921
 30
0.0
 10
113.2406407221017
 20
-134.5647549663589
 30
0.0
 10
113.2406407221017
 20
-134.6198588552338
 30
0.0
 10
113.2406407221017
 20
-134.6749980218869
 30
0.0
 10
113.2854110827897
 20
-134.7197655218754
 30
0.0
 10
113.3405473862195
 20
-134.7197655218754
 30
0.0
 10
113.3960040514714
 20
-134.7197655218754
 30
0.0
 10
113.4404540503374
 20
-134.6749980218869
 30
0.0
 10
113.4404540503374
 20
-134.6198588552338
 30
0.0
  0
SPLINE
  5
6B
330
1F
100
AcDbEntity
  8
_U+30EC_U+30A4_U+30E4_U+30FC 1
 62
   179
420
  2234388
370
     9
100
AcDbSpline
210
0.0
220
0.0
230
1.0
 70
    11
 71
     3
 72
    17
 73
    13
 74
     0
 42
0.0000000001
 43
0.0000000001
 12
1.0
 22
0.0
 32
0.0
 13
1.0
 23
0.0
 33
0.0
 40
0.0
 40
0.0
 40
0.0
 40
0.0
 40
1.0
 40
1.0
 40
1.0
 40
2.0
 40
2.0
 40
2.0
 40
3.0
 40
3.0
 40
3.0
 40
4.0
 40
4.0
 40
4.0
 40
4.0
 10
113.4404540503374
 20
-123.6201771913171
 30
0.0
 10
113.4404540503374
 20
-123.5650733024422
 30
0.0
 10
113.3960040514714
 20
-123.5202705246755
 30
0.0
 10
113.3405473862195
 20
-123.5202705246755
 30
0.0
 10
113.2854110827897
 20
-123.5202705246755
 30
0.0
 10
113.2406407221017
 20
-123.5650733024422
 30
0.0
 10
113.2406407221017
 20
-123.6201771913171
 30
0.0
 10
113.2406407221017
 20
-123.6753163579702
 30
0.0
 10
113.2854110827897
 20
-123.7200838579587
 30
0.0
 10
113.3405473862195
 20
-123.7200838579587
 30
0.0
 10
113.3960040514714
 20
-123.7200838579587
 30
0.0
 10
113.4404540503374
 20
-123.6753163579702
 30
0.0
 10
113.4404540503374
 20
-123.6201771913171
 30
0.0
  0
POLYLINE
  5
6C
330
1F
100
AcDbEntity
  8
_U+30EC_U+30A4_U+30E4_U+30FC 1
 62
   179
420
  2234388
370
     9
100
AcDb2dPolyline
 66
     1
 10
0.0
 20
0.0
 30
0.0
  0
VERTEX
  5
6D
330
6C
100
AcDbEntity
  8
_U+30EC_U+30A4_U+30E4_U+30FC 1
 62
   179
420
  2234388
370
     9
100
AcDbVertex
100
AcDb2dVertex
 10
70.34057098324031
 20
-133.8198999665451
 30
0.0
  0
VERTEX
  5
6E
330
6C
100
AcDbEntity
  8
_U+30EC_U+30A4_U+30E4_U+30FC 1
 62
   179
420
  2234388
370
     9
100
AcDbVertex
100
AcDb2dVertex
 10
70.34057098324031
 20
-128.5621705234151
 30
0.0
  0
SEQEND
  5
6F
330
6C
100
AcDbEntity
  8
_U+30EC_U+30A4_U+30E4_U+30FC 1
 62
   179
420
  2234388
370
     9
  0
POLYLINE
  5
70
330
1F
100
AcDbEntity
  8
_U+30EC_U+30A4_U+30E4_U+30FC 1
 62
   179
420
  2234388
370
     9
100
AcDb2dPolyline
 66
     1
 10
0.0
 20
0.0
 30
0.0
  0
VERTEX
  5
71
330
70
100
AcDbEntity
  8
_U+30EC_U+30A4_U+30E4_U+30FC 1
 62
   179
420
  2234388
370
     9
100
AcDbVertex
100
AcDb2dVertex
 10
70.34057098324031
 20
-133.8198999665451
 30
0.0
  0
VERTEX
  5
72
330
70
100
AcDbEntity
  8
_U+30EC_U+30A4_U+30E4_U+30FC 1
 62
   179
420
  2234388
370
     9
100
AcDbVertex
100
AcDb2dVertex
 10
70.34057098324031
 20
-135.6203013549837
 30
0.0
  0
SEQEND
  5
73
330
70
100
AcDbEntity
  8
_U+30EC_U+30A4_U+30E4_U+30FC 1
 62
   179
420
  2234388
370
     9
  0
POLYLINE
  5
74
330
1F
100
AcDbEntity
  8
_U+30EC_U+30A4_U+30E4_U+30FC 1
 62
   179
420
  2234388
370
     9
100
AcDb2dPolyline
 66
     1
 10
0.0
 20
0.0
 30
0.0
  0
VERTEX
  5
75
330
74
100
AcDbEntity
  8
_U+30EC_U+30A4_U+30E4_U+30FC 1
 62
   179
420
  2234388
370
     9
100
AcDbVertex
100
AcDb2dVertex
 10
72.60057120336067
 20
-133.8198999665451
 30
0.0
  0
VERTEX
  5
76
330
74
100
AcDbEntity
  8
_U+30EC_U+30A4_U+30E4_U+30FC 1
 62
   179
420
  2234388
370
     9
100
AcDbVertex
100
AcDb2dVertex
 10
69.3404812865325
 20
-133.8198999665451
 30
0.0
  0
SEQEND
  5
77
330
74
100
AcDbEntity
  8
_U+30EC_U+30A4_U+30E4_U+30FC 1
 62
   179
420
  2234388
370
     9
  0
POLYLINE
  5
78
330
1F
100
AcDbEntity
  8
_U+30EC_U+30A4_U+30E4_U+30FC 1
 62
   179
420
  2234388
370
     9
100
AcDb2dPolyline
 66
     1
 10
0.0
 20
0.0
 30
0.0
  0
VERTEX
  5
79
330
78
100
AcDbEntity
  8
_U+30EC_U+30A4_U+30E4_U+30FC 1
 62
   179
420
  2234388
370
     9
100
AcDbVertex
100
AcDb2dVertex
 10
71.80061233488044
 20
-134.6198588552338
 30
0.0
  0
VERTEX
  5
7A
330
78
100
AcDbEntity
  8
_U+30EC_U+30A4_U+30E4_U+30FC 1
 62
   179
420
  2234388
370
     9
100
AcDbVertex
100
AcDb2dVertex
 10
69.3404812865325
 20
-134.6198588552338
 30
0.0
  0
SEQEND
  5
7B
330
78
100
AcDbEntity
  8
_U+30EC_U+30A4_U+30E4_U+30FC 1
 62
   179
420
  2234388
370
     9
  0
INSERT
  5
7D
330
1F
100
AcDbEntity
  8
_U+30EC_U+30A4_U+30E4_U+30FC 1
100
AcDbBlockReference
  2
block 2
 10
0.0
 20
0.0
 30
0.0
  0
POLYLINE
  5
8F
330
1F
100
AcDbEntity
  8
_U+30EC_U+30A4_U+30E4_U+30FC 1
 62
   179
420
  2234388
370
     9
100
AcDb2dPolyline
 66
     1
 10
0.0
 20
0.0
 30
0.0
  0
VERTEX
  5
90
330
8F
100
AcDbEntity
  8
_U+30EC_U+30A4_U+30E4_U+30FC 1
 62
   179
420
  2234388
370
     9
100
AcDbVertex
100
AcDb2dVertex
 10
94.34050120428441
 20
-133.8198999665451
 30
0.0
  0
VERTEX
  5
91
330
8F
100
AcDbEntity
  8
_U+30EC_U+30A4_U+30E4_U+30FC 1
 62
   179
420
  2234388
370
     9
100
AcDbVertex
100
AcDb2dVertex
 10
94.34050120428441
 20
-124.420136080006
 30
0.0
  0
SEQEND
  5
92
330
8F
100
AcDbEntity
  8
_U+30EC_U+30A4_U+30E4_U+30FC 1
 62
   179
420
  2234388
370
     9
  0
POLYLINE
  5
93
330
1F
100
AcDbEntity
  8
_U+30EC_U+30A4_U+30E4_U+30FC 1
 62
   179
420
  2234388
370
     9
100
AcDb2dPolyline
 66
     1
 10
0.0
 20
0.0
 30
0.0
  0
VERTEX
  5
94
330
93
100
AcDbEntity
  8
_U+30EC_U+30A4_U+30E4_U+30FC 1
 62
   179
420
  2234388
370
     9
100
AcDbVertex
100
AcDb2dVertex
 10
95.80050727814766
 20
-124.420136080006
 30
0.0
  0
VERTEX
  5
95
330
93
100
AcDbEntity
  8
_U+30EC_U+30A4_U+30E4_U+30FC 1
 62
   179
420
  2234388
370
     9
100
AcDbVertex
100
AcDb2dVertex
 10
93.3407290075685
 20
-124.420136080006
 30
0.0
  0
SEQEND
  5
96
330
93
100
AcDbEntity
  8
_U+30EC_U+30A4_U+30E4_U+30FC 1
 62
   179
420
  2234388
370
     9
  0
INSERT
  5
98
330
1F
100
AcDbEntity
  8
_U+30EC_U+30A4_U+30E4_U+30FC 1
100
AcDbBlockReference
  2
block 3
 10
0.0
 20
0.0
 30
0.0
  0
POLYLINE
  5
BB
330
1F
100
AcDbEntity
  8
_U+30EC_U+30A4_U+30E4_U+30FC 1
 62
   179
420
  2234388
370
     9
100
AcDb2dPolyline
 66
     1
 10
0.0
 20
0.0
 30
0.0
  0
VERTEX
  5
BC
330
BB
100
AcDbEntity
  8
_U+30EC_U+30A4_U+30E4_U+30FC 1
 62
   179
420
  2234388
370
     9
100
AcDbVertex
100
AcDb2dVertex
 10
113.3405473862195
 20
-123.6201771913171
 30
0.0
  0
VERTEX
  5
BD
330
BB
100
AcDbEntity
  8
_U+30EC_U+30A4_U+30E4_U+30FC 1
 62
   179
420
  2234388
370
     9
100
AcDbVertex
100
AcDb2dVertex
 10
113.3405473862195
 20
-134.6198588552338
 30
0.0
  0
SEQEND
  5
BE
330
BB
100
AcDbEntity
  8
_U+30EC_U+30A4_U+30E4_U+30FC 1
 62
   179
420
  2234388
370
     9
  0
POLYLINE
  5
BF
330
1F
100
AcDbEntity
  8
_U+30EC_U+30A4_U+30E4_U+30FC 1
 62
   179
420
  2234388
370
     9
100
AcDb2dPolyline
 66
     1
 10
0.0
 20
0.0
 30
0.0
  0
VERTEX
  5
C0
330
BF
100
AcDbEntity
  8
_U+30EC_U+30A4_U+30E4_U+30FC 1
 62
   179
420
  2234388
370
     9
100
AcDbVertex
100
AcDb2dVertex
 10
111.0805499722298
 20
-123.6201771913171
 30
0.0
  0
VERTEX
  5
C1
330
BF
100
AcDbEntity
  8
_U+30EC_U+30A4_U+30E4_U+30FC 1
 62
   179
420
  2234388
370
     9
100
AcDbVertex
100
AcDb2dVertex
 10
114.3406370829273
 20
-123.6201771913171
 30
0.0
  0
SEQEND
  5
C2
330
BF
100
AcDbEntity
  8
_U+30EC_U+30A4_U+30E4_U+30FC 1
 62
   179
420
  2234388
370
     9
  0
POLYLINE
  5
C3
330
1F
100
AcDbEntity
  8
_U+30EC_U+30A4_U+30E4_U+30FC 1
 62
   179
420
  2234388
370
     9
100
AcDb2dPolyline
 66
     1
 10
0.0
 20
0.0
 30
0.0
  0
VERTEX
  5
C4
330
C3
100
AcDbEntity
  8
_U+30EC_U+30A4_U+30E4_U+30FC 1
 62
   179
420
  2234388
370
     9
100
AcDbVertex
100
AcDb2dVertex
 10
111.0805499722298
 20
-134.6198588552338
 30
0.0
  0
VERTEX
  5
C5
330
C3
100
AcDbEntity
  8
_U+30EC_U+30A4_U+30E4_U+30FC 1
 62
   179
420
  2234388
370
     9
100
AcDbVertex
100
AcDb2dVertex
 10
114.3406370829273
 20
-134.6198588552338
 30
0.0
  0
SEQEND
  5
C6
330
C3
100
AcDbEntity
  8
_U+30EC_U+30A4_U+30E4_U+30FC 1
 62
   179
420
  2234388
370
     9
  0
INSERT
  5
C8
330
1F
100
AcDbEntity
  8
_U+30EC_U+30A4_U+30E4_U+30FC 1
100
AcDbBlockReference
  2
block 4
 10
0.0
 20
0.0
 30
0.0
  0
POLYLINE
  5
CF
330
1F
100
AcDbEntity
  8
_U+30EC_U+30A4_U+30E4_U+30FC 1
 62
   179
420
  2234388
370
     9
100
AcDb2dPolyline
 66
     1
 10
0.0
 20
0.0
 30
0.0
  0
VERTEX
  5
D0
330
CF
100
AcDbEntity
  8
_U+30EC_U+30A4_U+30E4_U+30FC 1
 62
   179
420
  2234388
370
     9
100
AcDbVertex
100
AcDb2dVertex
 10
74.3406828256334
 20
-138.6203235764562
 30
0.0
  0
VERTEX
  5
D1
330
CF
100
AcDbEntity
  8
_U+30EC_U+30A4_U+30E4_U+30FC 1
 62
   179
420
  2234388
370
     9
100
AcDbVertex
100
AcDb2dVertex
 10
109.3407883215952
 20
-138.6203235764562
 30
0.0
  0
SEQEND
  5
D2
330
CF
100
AcDbEntity
  8
_U+30EC_U+30A4_U+30E4_U+30FC 1
 62
   179
420
  2234388
370
     9
  0
POLYLINE
  5
D3
330
1F
100
AcDbEntity
  8
_U+30EC_U+30A4_U+30E4_U+30FC 1
 62
   179
420
  2234388
370
     9
100
AcDb2dPolyline
 66
     1
 10
0.0
 20
0.0
 30
0.0
  0
VERTEX
  5
D4
330
D3
100
AcDbEntity
  8
_U+30EC_U+30A4_U+30E4_U+30FC 1
 62
   179
420
  2234388
370
     9
100
AcDbVertex
100
AcDb2dVertex
 10
74.3406828256334
 20
-137.1602821879325
 30
0.0
  0
VERTEX
  5
D5
330
D3
100
AcDbEntity
  8
_U+30EC_U+30A4_U+30E4_U+30FC 1
 62
   179
420
  2234388
370
     9
100
AcDbVertex
100
AcDb2dVertex
 10
74.3406828256334
 20
-139.6200605206506
 30
0.0
  0
SEQEND
  5
D6
330
D3
100
AcDbEntity
  8
_U+30EC_U+30A4_U+30E4_U+30FC 1
 62
   179
420
  2234388
370
     9
  0
POLYLINE
  5
D7
330
1F
100
AcDbEntity
  8
_U+30EC_U+30A4_U+30E4_U+30FC 1
 62
   179
420
  2234388
370
     9
100
AcDb2dPolyline
 66
     1
 10
0.0
 20
0.0
 30
0.0
  0
VERTEX
  5
D8
330
D7
100
AcDbEntity
  8
_U+30EC_U+30A4_U+30E4_U+30FC 1
 62
   179
420
  2234388
370
     9
100
AcDbVertex
100
AcDb2dVertex
 10
109.3407883215952
 20
-136.3603232992432
 30
0.0
  0
VERTEX
  5
D9
330
D7
100
AcDbEntity
  8
_U+30EC_U+30A4_U+30E4_U+30FC 1
 62
   179
420
  2234388
370
     9
100
AcDbVertex
100
AcDb2dVertex
 10
109.3407883215952
 20
-139.6200605206506
 30
0.0
  0
SEQEND
  5
DA
330
D7
100
AcDbEntity
  8
_U+30EC_U+30A4_U+30E4_U+30FC 1
 62
   179
420
  2234388
370
     9
  0
INSERT
  5
DC
330
1F
100
AcDbEntity
  8
_U+30EC_U+30A4_U+30E4_U+30FC 1
100
AcDbBlockReference
  2
block 5
 10
0.0
 20
0.0
 30
0.0
  0
SPLINE
  5
E3
330
1F
100
AcDbEntity
  8
_U+30EC_U+30A4_U+30E4_U+30FC 1
 62
   179
420
  2234388
370
     9
100
AcDbSpline
210
0.0
220
0.0
230
1.0
 70
    11
 71
     3
 72
    17
 73
    13
 74
     0
 42
0.0000000001
 43
0.0000000001
 12
1.0
 22
0.0
 32
0.0
 13
1.0
 23
0.0
 33
0.0
 40
0.0
 40
0.0
 40
0.0
 40
0.0
 40
1.0
 40
1.0
 40
1.0
 40
2.0
 40
2.0
 40
2.0
 40
3.0
 40
3.0
 40
3.0
 40
4.0
 40
4.0
 40
4.0
 40
4.0
 10
98.44048443301845
 20
-119.6204180256505
 30
0.0
 10
98.44048443301845
 20
-119.5653141367753
 30
0.0
 10
98.39571941984534
 20
-119.5205113590089
 30
0.0
 10
98.34057776890062
 20
-119.5205113590089
 30
0.0
 10
98.28476832588
 20
-119.5205113590089
 30
0.0
 10
98.24000082702212
 20
-119.5653141367753
 30
0.0
 10
98.24000082702212
 20
-119.6204180256505
 30
0.0
 10
98.24000082702212
 20
-119.6755571923033
 30
0.0
 10
98.28476832588
 20
-119.7203246922922
 30
0.0
 10
98.34057776890062
 20
-119.7203246922922
 30
0.0
 10
98.39571941984534
 20
-119.7203246922922
 30
0.0
 10
98.44048443301845
 20
-119.6755571923033
 30
0.0
 10
98.44048443301845
 20
-119.6204180256505
 30
0.0
  0
SPLINE
  5
E4
330
1F
100
AcDbEntity
  8
_U+30EC_U+30A4_U+30E4_U+30FC 1
 62
   179
420
  2234388
370
     9
100
AcDbSpline
210
0.0
220
0.0
230
1.0
 70
    11
 71
     3
 72
    17
 73
    13
 74
     0
 42
0.0000000001
 43
0.0000000001
 12
1.0
 22
0.0
 32
0.0
 13
1.0
 23
0.0
 33
0.0
 40
0.0
 40
0.0
 40
0.0
 40
0.0
 40
1.0
 40
1.0
 40
1.0
 40
2.0
 40
2.0
 40
2.0
 40
3.0
 40
3.0
 40
3.0
 40
4.0
 40
4.0
 40
4.0
 40
4.0
 10
109.440694985713
 20
-119.6204180256505
 30
0.0
 10
109.440694985713
 20
-119.5653141367753
 30
0.0
 10
109.3958922090783
 20
-119.5205113590089
 30
0.0
 10
109.3407883215952
 20
-119.5205113590089
 30
0.0
 10
109.2856491563353
 20
-119.5205113590089
 30
0.0
 10
109.2408816574774
 20
-119.5653141367753
 30
0.0
 10
109.2408816574774
 20
-119.6204180256505
 30
0.0
 10
109.2408816574774
 20
-119.6755571923033
 30
0.0
 10
109.2856491563353
 20
-119.7203246922922
 30
0.0
 10
109.3407883215952
 20
-119.7203246922922
 30
0.0
 10
109.3958922090783
 20
-119.7203246922922
 30
0.0
 10
109.440694985713
 20
-119.6755571923033
 30
0.0
 10
109.440694985713
 20
-119.6204180256505
 30
0.0
  0
POLYLINE
  5
E5
330
1F
100
AcDbEntity
  8
_U+30EC_U+30A4_U+30E4_U+30FC 1
 62
   179
420
  2234388
370
     9
100
AcDb2dPolyline
 66
     1
 10
0.0
 20
0.0
 30
0.0
  0
VERTEX
  5
E6
330
E5
100
AcDbEntity
  8
_U+30EC_U+30A4_U+30E4_U+30FC 1
 62
   179
420
  2234388
370
     9
100
AcDbVertex
100
AcDb2dVertex
 10
98.34057776890062
 20
-119.6204180256505
 30
0.0
  0
VERTEX
  5
E7
330
E5
100
AcDbEntity
  8
_U+30EC_U+30A4_U+30E4_U+30FC 1
 62
   179
420
  2234388
370
     9
100
AcDbVertex
100
AcDb2dVertex
 10
109.3407883215952
 20
-119.6204180256505
 30
0.0
  0
SEQEND
  5
E8
330
E5
100
AcDbEntity
  8
_U+30EC_U+30A4_U+30E4_U+30FC 1
 62
   179
420
  2234388
370
     9
  0
POLYLINE
  5
E9
330
1F
100
AcDbEntity
  8
_U+30EC_U+30A4_U+30E4_U+30FC 1
 62
   179
420
  2234388
370
     9
100
AcDb2dPolyline
 66
     1
 10
0.0
 20
0.0
 30
0.0
  0
VERTEX
  5
EA
330
E9
100
AcDbEntity
  8
_U+30EC_U+30A4_U+30E4_U+30FC 1
 62
   179
420
  2234388
370
     9
100
AcDbVertex
100
AcDb2dVertex
 10
98.34057776890062
 20
-121.0804594141742
 30
0.0
  0
VERTEX
  5
EB
330
E9
100
AcDbEntity
  8
_U+30EC_U+30A4_U+30E4_U+30FC 1
 62
   179
420
  2234388
370
     9
100
AcDbVertex
100
AcDb2dVertex
 10
98.34057776890062
 20
-118.6203283036784
 30
0.0
  0
SEQEND
  5
EC
330
E9
100
AcDbEntity
  8
_U+30EC_U+30A4_U+30E4_U+30FC 1
 62
   179
420
  2234388
370
     9
  0
POLYLINE
  5
ED
330
1F
100
AcDbEntity
  8
_U+30EC_U+30A4_U+30E4_U+30FC 1
 62
   179
420
  2234388
370
     9
100
AcDb2dPolyline
 66
     1
 10
0.0
 20
0.0
 30
0.0
  0
VERTEX
  5
EE
330
ED
100
AcDbEntity
  8
_U+30EC_U+30A4_U+30E4_U+30FC 1
 62
   179
420
  2234388
370
     9
100
AcDbVertex
100
AcDb2dVertex
 10
109.3407883215952
 20
-121.8804183028632
 30
0.0
  0
VERTEX
  5
EF
330
ED
100
AcDbEntity
  8
_U+30EC_U+30A4_U+30E4_U+30FC 1
 62
   179
420
  2234388
370
     9
100
AcDbVertex
100
AcDb2dVertex
 10
109.3407883215952
 20
-118.6203283036784
 30
0.0
  0
SEQEND
  5
F0
330
ED
100
AcDbEntity
  8
_U+30EC_U+30A4_U+30E4_U+30FC 1
 62
   179
420
  2234388
370
     9
  0
INSERT
  5
F2
330
1F
100
AcDbEntity
  8
_U+30EC_U+30A4_U+30E4_U+30FC 1
100
AcDbBlockReference
  2
block 6
 10
0.0
 20
0.0
 30
0.0
  0
ENDSEC
  0
SECTION
  2
OBJECTS
  0
DICTIONARY
  5
C
330
0
100
AcDbDictionary
281
     1
  3
ACAD_GROUP
350
D
  3
ACAD_LAYOUT
350
1A
  3
ACAD_MATERIAL
350
3B
  3
ACAD_MLEADERSTYLE
350
FA
  3
ACAD_MLINESTYLE
350
17
  3
ACAD_PLOTSETTINGS
350
19
  3
ACAD_PLOTSTYLENAME
350
E
  3
ACAD_TABLESTYLE
350
F9
  3
ACAD_VISUALSTYLE
350
2A
  0
SUN
  5
3F
330
29
100
AcDbSun
 90
        1
290
     0
 63
     7
421
 16777215
 40
1.0
291
     1
 91
  2455826
 92
 54000000
292
     0
 70
     2
 71
   256
280
     1
  0
DICTIONARY
  5
D
102
{ACAD_REACTORS
330
C
102
}
330
C
100
AcDbDictionary
281
     1
  0
DICTIONARY
  5
1A
102
{ACAD_REACTORS
330
C
102
}
330
C
100
AcDbDictionary
281
     1
  3
Layout1
350
1E
  3
Layout2
350
26
  3
Model
350
22
  0
DICTIONARY
  5
3B
102
{ACAD_REACTORS
330
C
102
}
330
C
100
AcDbDictionary
281
     1
  3
ByBlock
350
3D
  3
ByLayer
350
3C
  3
Global
350
3E
  0
DICTIONARY
  5
FA
102
{ACAD_REACTORS
330
C
102
}
330
C
100
AcDbDictionary
281
     1
  0
DICTIONARY
  5
17
102
{ACAD_REACTORS
330
C
102
}
330
C
100
AcDbDictionary
281
     1
  3
Standard
350
18
  0
DICTIONARY
  5
19
102
{ACAD_REACTORS
330
C
102
}
330
C
100
AcDbDictionary
281
     1
  0
ACDBDICTIONARYWDFLT
  5
E
102
{ACAD_REACTORS
330
C
102
}
330
C
100
AcDbDictionary
281
     1
  3
Normal
350
F
100
AcDbDictionaryWithDefault
340
F
  0
DICTIONARY
  5
F9
102
{ACAD_REACTORS
330
C
102
}
330
C
100
AcDbDictionary
281
     1
  0
DICTIONARY
  5
2A
102
{ACAD_REACTORS
330
C
102
}
330
C
100
AcDbDictionary
281
     1
  3
2dWireframe
350
2F
  3
3D Hidden
350
31
  3
3dWireframe
350
30
  3
Basic
350
32
  3
Brighten
350
36
  3
ColorChange
350
3A
  3
Conceptual
350
34
  3
Dim
350
35
  3
Facepattern
350
39
  3
Flat
350
2B
  3
FlatWithEdges
350
2C
  3
Gouraud
350
2D
  3
GouraudWithEdges
350
2E
  3
Linepattern
350
38
  3
Realistic
350
33
  3
Thicken
350
37
  0
LAYOUT
  5
1E
102
{ACAD_REACTORS
330
1A
102
}
330
1A
100
AcDbPlotSettings
  1

  2
none_device
  4

  6

 40
0.0
 41
0.0
 42
0.0
 43
0.0
 44
0.0
 45
0.0
 46
0.0
 47
0.0
 48
0.0
 49
0.0
140
0.0
141
0.0
142
1.0
143
1.0
 70
   688
 72
     0
 73
     0
 74
     5
  7

 75
    16
 76
     0
 77
     2
 78
   300
147
1.0
148
0.0
149
0.0
100
AcDbLayout
  1
Layout1
 70
     1
 71
     1
 10
0.0
 20
0.0
 11
12.0
 21
9.0
 12
0.0
 22
0.0
 32
0.0
 14
1.000000000000000E+20
 24
1.000000000000000E+20
 34
1.000000000000000E+20
 15
-1.000000000000000E+20
 25
-1.000000000000000E+20
 35
-1.000000000000000E+20
146
0.0
 13
0.0
 23
0.0
 33
0.0
 16
1.0
 26
0.0
 36
0.0
 17
0.0
 27
1.0
 37
0.0
 76
     0
330
1B
  0
LAYOUT
  5
26
102
{ACAD_REACTORS
330
1A
102
}
330
1A
100
AcDbPlotSettings
  1

  2
none_device
  4

  6

 40
0.0
 41
0.0
 42
0.0
 43
0.0
 44
0.0
 45
0.0
 46
0.0
 47
0.0
 48
0.0
 49
0.0
140
0.0
141
0.0
142
1.0
143
1.0
 70
   688
 72
     0
 73
     0
 74
     5
  7

 75
    16
 76
     0
 77
     2
 78
   300
147
1.0
148
0.0
149
0.0
100
AcDbLayout
  1
Layout2
 70
     1
 71
     2
 10
0.0
 20
0.0
 11
0.0
 21
0.0
 12
0.0
 22
0.0
 32
0.0
 14
0.0
 24
0.0
 34
0.0
 15
0.0
 25
0.0
 35
0.0
146
0.0
 13
0.0
 23
0.0
 33
0.0
 16
1.0
 26
0.0
 36
0.0
 17
0.0
 27
1.0
 37
0.0
 76
     0
330
23
  0
LAYOUT
  5
22
102
{ACAD_REACTORS
330
1A
102
}
330
1A
100
AcDbPlotSettings
  1

  2
none_device
  4

  6

 40
0.0
 41
0.0
 42
0.0
 43
0.0
 44
0.0
 45
0.0
 46
0.0
 47
0.0
 48
0.0
 49
0.0
140
0.0
141
0.0
142
1.0
143
1.0
 70
  1712
 72
     0
 73
     0
 74
     0
  7

 75
     0
 76
     0
 77
     2
 78
   300
147
1.0
148
0.0
149
0.0
100
AcDbLayout
  1
Model
 70
     1
 71
     0
 10
0.0
 20
0.0
 11
12.0
 21
9.0
 12
0.0
 22
0.0
 32
0.0
 14
1.000000000000000E+20
 24
1.000000000000000E+20
 34
1.000000000000000E+20
 15
-1.000000000000000E+20
 25
-1.000000000000000E+20
 35
-1.000000000000000E+20
146
0.0
 13
0.0
 23
0.0
 33
0.0
 16
1.0
 26
0.0
 36
0.0
 17
0.0
 27
1.0
 37
0.0
 76
     0
330
1F
331
29
  0
MATERIAL
  5
3D
102
{ACAD_REACTORS
330
3B
102
}
330
3B
100
AcDbMaterial
  1
ByBlock
 72
     1
 94
      127
  0
MATERIAL
  5
3C
102
{ACAD_REACTORS
330
3B
102
}
330
3B
100
AcDbMaterial
  1
ByLayer
 72
     1
 94
      127
  0
MATERIAL
  5
3E
102
{ACAD_REACTORS
330
3B
102
}
330
3B
100
AcDbMaterial
  1
Global
 72
     1
 94
      127
  0
MLINESTYLE
  5
18
102
{ACAD_REACTORS
330
17
102
}
330
17
100
AcDbMlineStyle
  2
Standard
 70
     0
  3

 62
   256
 51
90.0
 52
90.0
 71
     2
 49
0.5
 62
   256
  6
BYLAYER
 49
-0.5
 62
   256
  6
BYLAYER
  0
ACDBPLACEHOLDER
  5
F
102
{ACAD_REACTORS
330
E
102
}
330
E
  0
VISUALSTYLE
  5
2F
102
{ACAD_REACTORS
330
2A
102
}
330
2A
100
AcDbVisualStyle
  2
2dWireframe
 70
     4
177
     2
291
     0
 71
     0
176
     1
 72
     2
176
     1
 73
     0
176
     1
 90
        0
176
     1
 40
-0.6
176
     1
 41
-30.0
176
     1
 62
     5
 63
     7
421
 16777215
176
     1
 74
     1
176
     1
 91
        4
176
     1
 64
     7
176
     1
 65
   257
176
     1
 75
     1
176
     1
175
     1
176
     1
 42
1.0
176
     1
 92
        0
176
     1
 66
   257
176
     1
 43
1.0
176
     1
 76
     1
176
     1
 77
     6
176
     1
 78
     2
176
     1
 67
     7
176
     1
 79
     5
176
     1
170
     0
176
     1
171
     0
176
     1
290
     0
176
     1
 93
        1
176
     1
 44
0.0
176
     1
173
     0
176
     1
  0
VISUALSTYLE
  5
31
102
{ACAD_REACTORS
330
2A
102
}
330
2A
100
AcDbVisualStyle
  2
3D Hidden
 70
     6
177
     2
291
     0
 71
     1
176
     1
 72
     2
176
     1
 73
     2
176
     1
 90
        0
176
     1
 40
-0.6
176
     1
 41
-30.0
176
     1
 62
     5
 63
     7
421
 16777215
176
     1
 74
     2
176
     1
 91
        2
176
     1
 64
     7
176
     1
 65
   257
176
     1
 75
     2
176
     1
175
     1
176
     1
 42
40.0
176
     1
 92
        0
176
     1
 66
   257
176
     1
 43
1.0
176
     1
 76
     1
176
     1
 77
     6
176
     1
 78
     2
176
     1
 67
     7
176
     1
 79
     3
176
     1
170
     0
176
     1
171
     0
176
     1
290
     0
176
     1
 93
        1
176
     1
 44
0.0
176
     1
173
     0
176
     1
  0
VISUALSTYLE
  5
30
102
{ACAD_REACTORS
330
2A
102
}
330
2A
100
AcDbVisualStyle
  2
3dWireframe
 70
     5
177
     2
291
     0
 71
     0
176
     1
 72
     2
176
     1
 73
     0
176
     1
 90
        0
176
     1
 40
-0.6
176
     1
 41
-30.0
176
     1
 62
     5
 63
     7
421
 16777215
176
     1
 74
     1
176
     1
 91
        4
176
     1
 64
     7
176
     1
 65
   257
176
     1
 75
     1
176
     1
175
     1
176
     1
 42
1.0
176
     1
 92
        0
176
     1
 66
   257
176
     1
 43
1.0
176
     1
 76
     1
176
     1
 77
     6
176
     1
 78
     2
176
     1
 67
     7
176
     1
 79
     5
176
     1
170
     0
176
     1
171
     0
176
     1
290
     0
176
     1
 93
        1
176
     1
 44
0.0
176
     1
173
     0
176
     1
  0
VISUALSTYLE
  5
32
102
{ACAD_REACTORS
330
2A
102
}
330
2A
100
AcDbVisualStyle
  2
Basic
 70
     7
177
     2
291
     1
 71
     1
176
     1
 72
     0
176
     1
 73
     1
176
     1
 90
        0
176
     1
 40
-0.6
176
     1
 41
-30.0
176
     1
 62
     5
 63
     7
421
 16777215
176
     1
 74
     0
176
     1
 91
        4
176
     1
 64
     7
176
     1
 65
   257
176
     1
 75
     1
176
     1
175
     1
176
     1
 42
1.0
176
     1
 92
        8
176
     1
 66
     7
176
     1
 43
1.0
176
     1
 76
     1
176
     1
 77
     6
176
     1
 78
     2
176
     1
 67
     7
176
     1
 79
     5
176
     1
170
     0
176
     1
171
     0
176
     1
290
     0
176
     1
 93
        1
176
     1
 44
0.0
176
     1
173
     0
176
     1
  0
VISUALSTYLE
  5
36
102
{ACAD_REACTORS
330
2A
102
}
330
2A
100
AcDbVisualStyle
  2
Brighten
 70
    12
177
     2
291
     1
 71
     2
176
     1
 72
     2
176
     1
 73
     0
176
     1
 90
        0
176
     1
 40
-0.6
176
     1
 41
-30.0
176
     1
 62
     5
 63
     7
421
 16777215
176
     1
 74
     1
176
     1
 91
        4
176
     1
 64
     7
176
     1
 65
   257
176
     1
 75
     1
176
     1
175
     1
176
     1
 42
1.0
176
     1
 92
        8
176
     1
 66
     7
176
     1
 43
1.0
176
     1
 76
     1
176
     1
 77
     6
176
     1
 78
     2
176
     1
 67
     7
176
     1
 79
     5
176
     1
170
     0
176
     1
171
     0
176
     1
290
     0
176
     1
 93
        1
176
     1
 44
50.0
176
     1
173
     0
176
     1
  0
VISUALSTYLE
  5
3A
102
{ACAD_REACTORS
330
2A
102
}
330
2A
100
AcDbVisualStyle
  2
ColorChange
 70
    16
177
     2
291
     1
 71
     2
176
     1
 72
     2
176
     1
 73
     3
176
     1
 90
        0
176
     1
 40
-0.6
176
     1
 41
-30.0
176
     1
 62
     5
 63
     8
421
  8421504
176
     1
 74
     1
176
     1
 91
        4
176
     1
 64
     7
176
     1
 65
   257
176
     1
 75
     1
176
     1
175
     1
176
     1
 42
1.0
176
     1
 92
        8
176
     1
 66
     8
424
  8421504
176
     1
 43
1.0
176
     1
 76
     1
176
     1
 77
     6
176
     1
 78
     2
176
     1
 67
     7
176
     1
 79
     5
176
     1
170
     0
176
     1
171
     0
176
     1
290
     0
176
     1
 93
        1
176
     1
 44
0.0
176
     1
173
     0
176
     1
  0
VISUALSTYLE
  5
34
102
{ACAD_REACTORS
330
2A
102
}
330
2A
100
AcDbVisualStyle
  2
Conceptual
 70
     9
177
     2
291
     0
 71
     3
176
     1
 72
     2
176
     1
 73
     0
176
     1
 90
        0
176
     1
 40
-0.6
176
     1
 41
-30.0
176
     1
 62
     5
 63
     7
421
 16777215
176
     1
 74
     2
176
     1
 91
        2
176
     1
 64
     7
176
     1
 65
   257
176
     1
 75
     1
176
     1
175
     1
176
     1
 42
40.0
176
     1
 92
        8
176
     1
 66
     7
176
     1
 43
1.0
176
     1
 76
     1
176
     1
 77
     6
176
     1
 78
     2
176
     1
 67
     7
176
     1
 79
     3
176
     1
170
     0
176
     1
171
     0
176
     1
290
     0
176
     1
 93
        1
176
     1
 44
0.0
176
     1
173
     0
176
     1
  0
VISUALSTYLE
  5
35
102
{ACAD_REACTORS
330
2A
102
}
330
2A
100
AcDbVisualStyle
  2
Dim
 70
    11
177
     2
291
     1
 71
     2
176
     1
 72
     2
176
     1
 73
     0
176
     1
 90
        0
176
     1
 40
-0.6
176
     1
 41
-30.0
176
     1
 62
     5
 63
     7
421
 16777215
176
     1
 74
     1
176
     1
 91
        4
176
     1
 64
     7
176
     1
 65
   257
176
     1
 75
     1
176
     1
175
     1
176
     1
 42
1.0
176
     1
 92
        8
176
     1
 66
     7
176
     1
 43
1.0
176
     1
 76
     1
176
     1
 77
     6
176
     1
 78
     2
176
     1
 67
     7
176
     1
 79
     5
176
     1
170
     0
176
     1
171
     0
176
     1
290
     0
176
     1
 93
        1
176
     1
 44
-50.0
176
     1
173
     0
176
     1
  0
VISUALSTYLE
  5
39
102
{ACAD_REACTORS
330
2A
102
}
330
2A
100
AcDbVisualStyle
  2
Facepattern
 70
    15
177
     2
291
     1
 71
     2
176
     1
 72
     2
176
     1
 73
     0
176
     1
 90
        0
176
     1
 40
-0.6
176
     1
 41
-30.0
176
     1
 62
     5
 63
     7
421
 16777215
176
     1
 74
     1
176
     1
 91
        4
176
     1
 64
     7
176
     1
 65
   257
176
     1
 75
     1
176
     1
175
     1
176
     1
 42
1.0
176
     1
 92
        8
176
     1
 66
     7
176
     1
 43
1.0
176
     1
 76
     1
176
     1
 77
     6
176
     1
 78
     2
176
     1
 67
     7
176
     1
 79
     5
176
     1
170
     0
176
     1
171
     0
176
     1
290
     0
176
     1
 93
        1
176
     1
 44
0.0
176
     1
173
     0
176
     1
  0
VISUALSTYLE
  5
2B
102
{ACAD_REACTORS
330
2A
102
}
330
2A
100
AcDbVisualStyle
  2
Flat
 70
     0
177
     2
291
     1
 71
     2
176
     1
 72
     1
176
     1
 73
     1
176
     1
 90
        2
176
     1
 40
-0.6
176
     1
 41
30.0
176
     1
 62
     5
 63
     7
421
 16777215
176
     1
 74
     0
176
     1
 91
        4
176
     1
 64
     7
176
     1
 65
   257
176
     1
 75
     1
176
     1
175
     1
176
     1
 42
1.0
176
     1
 92
        8
176
     1
 66
     7
176
     1
 43
1.0
176
     1
 76
     1
176
     1
 77
     6
176
     1
 78
     2
176
     1
 67
     7
176
     1
 79
     5
176
     1
170
     0
176
     1
171
     0
176
     1
290
     0
176
     1
 93
       13
176
     1
 44
0.0
176
     1
173
     0
176
     1
  0
VISUALSTYLE
  5
2C
102
{ACAD_REACTORS
330
2A
102
}
330
2A
100
AcDbVisualStyle
  2
FlatWithEdges
 70
     1
177
     2
291
     1
 71
     2
176
     1
 72
     1
176
     1
 73
     1
176
     1
 90
        2
176
     1
 40
-0.6
176
     1
 41
30.0
176
     1
 62
     5
 63
     7
421
 16777215
176
     1
 74
     1
176
     1
 91
        4
176
     1
 64
     7
176
     1
 65
   257
176
     1
 75
     1
176
     1
175
     1
176
     1
 42
1.0
176
     1
 92
        0
176
     1
 66
   257
176
     1
 43
1.0
176
     1
 76
     1
176
     1
 77
     6
176
     1
 78
     2
176
     1
 67
     7
176
     1
 79
     5
176
     1
170
     0
176
     1
171
     0
176
     1
290
     0
176
     1
 93
       13
176
     1
 44
0.0
176
     1
173
     0
176
     1
  0
VISUALSTYLE
  5
2D
102
{ACAD_REACTORS
330
2A
102
}
330
2A
100
AcDbVisualStyle
  2
Gouraud
 70
     2
177
     2
291
     1
 71
     2
176
     1
 72
     2
176
     1
 73
     1
176
     1
 90
        2
176
     1
 40
-0.6
176
     1
 41
30.0
176
     1
 62
     5
 63
     7
421
 16777215
176
     1
 74
     0
176
     1
 91
        4
176
     1
 64
     7
176
     1
 65
   257
176
     1
 75
     1
176
     1
175
     1
176
     1
 42
1.0
176
     1
 92
        0
176
     1
 66
     7
176
     1
 43
1.0
176
     1
 76
     1
176
     1
 77
     6
176
     1
 78
     2
176
     1
 67
     7
176
     1
 79
     5
176
     1
170
     0
176
     1
171
     0
176
     1
290
     0
176
     1
 93
       13
176
     1
 44
0.0
176
     1
173
     0
176
     1
  0
VISUALSTYLE
  5
2E
102
{ACAD_REACTORS
330
2A
102
}
330
2A
100
AcDbVisualStyle
  2
GouraudWithEdges
 70
     3
177
     2
291
     1
 71
     2
176
     1
 72
     2
176
     1
 73
     1
176
     1
 90
        2
176
     1
 40
-0.6
176
     1
 41
30.0
176
     1
 62
     5
 63
     7
421
 16777215
176
     1
 74
     1
176
     1
 91
        4
176
     1
 64
     7
176
     1
 65
   257
176
     1
 75
     1
176
     1
175
     1
176
     1
 42
1.0
176
     1
 92
        0
176
     1
 66
   257
176
     1
 43
1.0
176
     1
 76
     1
176
     1
 77
     6
176
     1
 78
     2
176
     1
 67
     7
176
     1
 79
     5
176
     1
170
     0
176
     1
171
     0
176
     1
290
     0
176
     1
 93
       13
176
     1
 44
0.0
176
     1
173
     0
176
     1
  0
VISUALSTYLE
  5
38
102
{ACAD_REACTORS
330
2A
102
}
330
2A
100
AcDbVisualStyle
  2
Linepattern
 70
    14
177
     2
291
     1
 71
     2
176
     1
 72
     2
176
     1
 73
     0
176
     1
 90
        0
176
     1
 40
-0.6
176
     1
 41
-30.0
176
     1
 62
     5
 63
     7
421
 16777215
176
     1
 74
     1
176
     1
 91
        4
176
     1
 64
     7
176
     1
 65
   257
176
     1
 75
     7
176
     1
175
     7
176
     1
 42
1.0
176
     1
 92
        8
176
     1
 66
     7
176
     1
 43
1.0
176
     1
 76
     1
176
     1
 77
     6
176
     1
 78
     2
176
     1
 67
     7
176
     1
 79
     5
176
     1
170
     0
176
     1
171
     0
176
     1
290
     0
176
     1
 93
        1
176
     1
 44
0.0
176
     1
173
     0
176
     1
  0
VISUALSTYLE
  5
33
102
{ACAD_REACTORS
330
2A
102
}
330
2A
100
AcDbVisualStyle
  2
Realistic
 70
     8
177
     2
291
     0
 71
     2
176
     1
 72
     2
176
     1
 73
     0
176
     1
 90
        0
176
     1
 40
-0.6
176
     1
 41
-30.0
176
     1
 62
     5
 63
     7
421
 16777215
176
     1
 74
     1
176
     1
 91
        0
176
     1
 64
     7
176
     1
 65
   257
176
     1
 75
     1
176
     1
175
     1
176
     1
 42
1.0
176
     1
 92
        8
176
     1
 66
     8
424
  7895160
176
     1
 43
1.0
176
     1
 76
     1
176
     1
 77
     6
176
     1
 78
     2
176
     1
 67
     7
176
     1
 79
     5
176
     1
170
     0
176
     1
171
     0
176
     1
290
     0
176
     1
 93
       13
176
     1
 44
0.0
176
     1
173
     0
176
     1
  0
VISUALSTYLE
  5
37
102
{ACAD_REACTORS
330
2A
102
}
330
2A
100
AcDbVisualStyle
  2
Thicken
 70
    13
177
     2
291
     1
 71
     2
176
     1
 72
     2
176
     1
 73
     0
176
     1
 90
        0
176
     1
 40
-0.6
176
     1
 41
-30.0
176
     1
 62
     5
 63
     7
421
 16777215
176
     1
 74
     1
176
     1
 91
        4
176
     1
 64
     7
176
     1
 65
   257
176
     1
 75
     1
176
     1
175
     1
176
     1
 42
1.0
176
     1
 92
       12
176
     1
 66
     7
176
     1
 43
1.0
176
     1
 76
     1
176
     1
 77
     6
176
     1
 78
     2
176
     1
 67
     7
176
     1
 79
     5
176
     1
170
     0
176
     1
171
     0
176
     1
290
     0
176
     1
 93
        1
176
     1
 44
0.0
176
     1
173
     0
176
     1
  0
ENDSEC
  0
EOF
