  0
SECTION
  2
HEADER
  9
$ACADVER
  1
AC1024
  9
$ACADMAINTVER
 70
     6
  9
$DWGCODEPAGE
  3
UNDEFINED
  9
$INSBASE
 10
0.0
 20
0.0
 30
0.0
  9
$EXTMIN
 10
1.000000000000000E+20
 20
1.000000000000000E+20
 30
1.000000000000000E+20
  9
$EXTMAX
 10
-1.000000000000000E+20
 20
-1.000000000000000E+20
 30
-1.000000000000000E+20
  9
$LIMMIN
 10
0.0
 20
0.0
  9
$LIMMAX
 10
12.0
 20
9.0
  9
$ORTHOMODE
 70
     0
  9
$REGENMODE
 70
     1
  9
$FILLMODE
 70
     1
  9
$QTEXTMODE
 70
     0
  9
$MIRRTEXT
 70
     1
  9
$LTSCALE
 40
1.0
  9
$ATTMODE
 70
     1
  9
$TEXTSIZE
 40
0.2
  9
$TRACEWID
 40
0.05
  9
$TEXTSTYLE
  7
Standard
  9
$CLAYER
  8
0
  9
$CELTYPE
  6
ByLayer
  9
$CECOLOR
 62
   256
  9
$CELTSCALE
 40
1.0
  9
$DISPSILH
 70
     0
  9
$DIMSCALE
 40
1.0
  9
$DIMASZ
 40
0.18
  9
$DIMEXO
 40
0.0625
  9
$DIMDLI
 40
0.38
  9
$DIMRND
 40
0.0
  9
$DIMDLE
 40
0.0
  9
$DIMEXE
 40
0.18
  9
$DIMTP
 40
0.0
  9
$DIMTM
 40
0.0
  9
$DIMTXT
 40
0.18
  9
$DIMCEN
 40
0.09
  9
$DIMTSZ
 40
0.0
  9
$DIMTOL
 70
     0
  9
$DIMLIM
 70
     0
  9
$DIMTIH
 70
     1
  9
$DIMTOH
 70
     1
  9
$DIMSE1
 70
     0
  9
$DIMSE2
 70
     0
  9
$DIMTAD
 70
     0
  9
$DIMZIN
 70
     0
  9
$DIMBLK
  1

  9
$DIMASO
 70
     1
  9
$DIMSHO
 70
     1
  9
$DIMPOST
  1

  9
$DIMAPOST
  1

  9
$DIMALT
 70
     0
  9
$DIMALTD
 70
     2
  9
$DIMALTF
 40
25.4
  9
$DIMLFAC
 40
1.0
  9
$DIMTOFL
 70
     0
  9
$DIMTVP
 40
0.0
  9
$DIMTIX
 70
     0
  9
$DIMSOXD
 70
     0
  9
$DIMSAH
 70
     0
  9
$DIMBLK1
  1

  9
$DIMBLK2
  1

  9
$DIMSTYLE
  2
Standard
  9
$DIMCLRD
 70
     0
  9
$DIMCLRE
 70
     0
  9
$DIMCLRT
 70
     0
  9
$DIMTFAC
 40
1.0
  9
$DIMGAP
 40
0.09
  9
$DIMJUST
 70
     0
  9
$DIMSD1
 70
     0
  9
$DIMSD2
 70
     0
  9
$DIMTOLJ
 70
     1
  9
$DIMTZIN
 70
     0
  9
$DIMALTZ
 70
     0
  9
$DIMALTTZ
 70
     0
  9
$DIMUPT
 70
     0
  9
$DIMDEC
 70
     4
  9
$DIMTDEC
 70
     4
  9
$DIMALTU
 70
     2
  9
$DIMALTTD
 70
     2
  9
$DIMTXSTY
  7
Standard
  9
$DIMAUNIT
 70
     0
  9
$DIMADEC
 70
     0
  9
$DIMALTRND
 40
0.0
  9
$DIMAZIN
 70
     0
  9
$DIMDSEP
 70
    46
  9
$DIMATFIT
 70
     3
  9
$DIMFRAC
 70
     0
  9
$DIMLDRBLK
  1

  9
$DIMLUNIT
 70
     2
  9
$DIMLWD
 70
    -2
  9
$DIMLWE
 70
    -2
  9
$DIMTMOVE
 70
     0
  9
$DIMFXL
 40
1.0
  9
$DIMFXLON
 70
     0
  9
$DIMJOGANG
 40
0.7853981633974483
  9
$DIMTFILL
 70
     0
  9
$DIMTFILLCLR
 70
     0
  9
$DIMARCSYM
 70
     0
  9
$DIMLTYPE
  6

  9
$DIMLTEX1
  6

  9
$DIMLTEX2
  6

  9
$DIMTXTDIRECTION
 70
     0
  9
$LUNITS
 70
     2
  9
$LUPREC
 70
     4
  9
$SKETCHINC
 40
0.1
  9
$FILLETRAD
 40
0.5
  9
$AUNITS
 70
     0
  9
$AUPREC
 70
     0
  9
$MENU
  1
.
  9
$ELEVATION
 40
0.0
  9
$PELEVATION
 40
0.0
  9
$THICKNESS
 40
0.0
  9
$LIMCHECK
 70
     0
  9
$CHAMFERA
 40
0.5
  9
$CHAMFERB
 40
0.5
  9
$CHAMFERC
 40
1.0
  9
$CHAMFERD
 40
0.0
  9
$SKPOLY
 70
     0
  9
$TDCREATE
 40
2457917.632129618
  9
$TDUCREATE
 40
2457917.25712963
  9
$TDUPDATE
 40
2457917.632129618
  9
$TDUUPDATE
 40
2457917.25712963
  9
$TDINDWG
 40
0.0000000116
  9
$TDUSRTIMER
 40
0.0000000116
  9
$USRTIMER
 70
     1
  9
$ANGBASE
 50
0.0
  9
$ANGDIR
 70
     0
  9
$PDMODE
 70
     0
  9
$PDSIZE
 40
0.0
  9
$PLINEWID
 40
0.0
  9
$SPLFRAME
 70
     0
  9
$SPLINETYPE
 70
     6
  9
$SPLINESEGS
 70
     8
  9
$HANDSEED
  5
F7
  9
$SURFTAB1
 70
     6
  9
$SURFTAB2
 70
     6
  9
$SURFTYPE
 70
     6
  9
$SURFU
 70
     6
  9
$SURFV
 70
     6
  9
$UCSBASE
  2

  9
$UCSNAME
  2

  9
$UCSORG
 10
0.0
 20
0.0
 30
0.0
  9
$UCSXDIR
 10
1.0
 20
0.0
 30
0.0
  9
$UCSYDIR
 10
0.0
 20
1.0
 30
0.0
  9
$UCSORTHOREF
  2

  9
$UCSORTHOVIEW
 70
     0
  9
$UCSORGTOP
 10
0.0
 20
0.0
 30
0.0
  9
$UCSORGBOTTOM
 10
0.0
 20
0.0
 30
0.0
  9
$UCSORGLEFT
 10
0.0
 20
0.0
 30
0.0
  9
$UCSORGRIGHT
 10
0.0
 20
0.0
 30
0.0
  9
$UCSORGFRONT
 10
0.0
 20
0.0
 30
0.0
  9
$UCSORGBACK
 10
0.0
 20
0.0
 30
0.0
  9
$PUCSBASE
  2

  9
$PUCSNAME
  2

  9
$PUCSORG
 10
0.0
 20
0.0
 30
0.0
  9
$PUCSXDIR
 10
1.0
 20
0.0
 30
0.0
  9
$PUCSYDIR
 10
0.0
 20
1.0
 30
0.0
  9
$PUCSORTHOREF
  2

  9
$PUCSORTHOVIEW
 70
     0
  9
$PUCSORGTOP
 10
0.0
 20
0.0
 30
0.0
  9
$PUCSORGBOTTOM
 10
0.0
 20
0.0
 30
0.0
  9
$PUCSORGLEFT
 10
0.0
 20
0.0
 30
0.0
  9
$PUCSORGRIGHT
 10
0.0
 20
0.0
 30
0.0
  9
$PUCSORGFRONT
 10
0.0
 20
0.0
 30
0.0
  9
$PUCSORGBACK
 10
0.0
 20
0.0
 30
0.0
  9
$USERI1
 70
     0
  9
$USERI2
 70
     0
  9
$USERI3
 70
     0
  9
$USERI4
 70
     0
  9
$USERI5
 70
     0
  9
$USERR1
 40
0.0
  9
$USERR2
 40
0.0
  9
$USERR3
 40
0.0
  9
$USERR4
 40
0.0
  9
$USERR5
 40
0.0
  9
$WORLDVIEW
 70
     1
  9
$SHADEDGE
 70
     3
  9
$SHADEDIF
 70
    70
  9
$TILEMODE
 70
     1
  9
$MAXACTVP
 70
    64
  9
$PINSBASE
 10
0.0
 20
0.0
 30
0.0
  9
$PLIMCHECK
 70
     0
  9
$PEXTMIN
 10
1.000000000000000E+20
 20
1.000000000000000E+20
 30
1.000000000000000E+20
  9
$PEXTMAX
 10
-1.000000000000000E+20
 20
-1.000000000000000E+20
 30
-1.000000000000000E+20
  9
$PLIMMIN
 10
0.0
 20
0.0
  9
$PLIMMAX
 10
12.0
 20
9.0
  9
$UNITMODE
 70
     0
  9
$VISRETAIN
 70
     1
  9
$PLINEGEN
 70
     0
  9
$PSLTSCALE
 70
     1
  9
$TREEDEPTH
 70
  3020
  9
$CMLSTYLE
  2
Standard
  9
$CMLJUST
 70
     0
  9
$CMLSCALE
 40
1.0
  9
$PROXYGRAPHICS
 70
     1
  9
$MEASUREMENT
 70
     0
  9
$CELWEIGHT
370
    -1
  9
$ENDCAPS
280
     0
  9
$JOINSTYLE
280
     0
  9
$LWDISPLAY
290
     1
  9
$INSUNITS
 70
     1
  9
$HYPERLINKBASE
  1

  9
$STYLESHEET
  1

  9
$XEDIT
290
     1
  9
$CEPSNTYPE
380
     0
  9
$PSTYLEMODE
290
     1
  9
$FINGERPRINTGUID
  2
{A0A54D4F-6CF8-FACB-D99C-FAF3932E798A}
  9
$VERSIONGUID
  2
{FAEB1C32-E019-11D5-929B-00C0DF256EC4}
  9
$EXTNAMES
290
     1
  9
$PSVPSCALE
 40
0.0
  9
$OLESTARTUP
290
     0
  9
$SORTENTS
280
   127
  9
$INDEXCTL
280
     0
  9
$HIDETEXT
280
     1
  9
$XCLIPFRAME
280
     2
  9
$HALOGAP
280
     0
  9
$OBSCOLOR
 70
   257
  9
$OBSLTYPE
280
     0
  9
$INTERSECTIONDISPLAY
280
     0
  9
$INTERSECTIONCOLOR
 70
   257
  9
$DIMASSOC
280
     2
  9
$PROJECTNAME
  1

  9
$CAMERADISPLAY
290
     0
  9
$LENSLENGTH
 40
50.0
  9
$CAMERAHEIGHT
 40
0.0
  9
$STEPSPERSEC
 40
2.0
  9
$STEPSIZE
 40
6.0
  9
$3DDWFPREC
 40
2.0
  9
$PSOLWIDTH
 40
0.25
  9
$PSOLHEIGHT
 40
4.0
  9
$LOFTANG1
 40
1.570796326794897
  9
$LOFTANG2
 40
1.570796326794897
  9
$LOFTMAG1
 40
0.0
  9
$LOFTMAG2
 40
0.0
  9
$LOFTPARAM
 70
     7
  9
$LOFTNORMALS
280
     1
  9
$LATITUDE
 40
37.795
  9
$LONGITUDE
 40
-122.394
  9
$NORTHDIRECTION
 40
0.0
  9
$TIMEZONE
 70
 -8000
  9
$LIGHTGLYPHDISPLAY
280
     1
  9
$TILEMODELIGHTSYNCH
280
     1
  9
$CMATERIAL
347
3C
  9
$SOLIDHIST
280
     1
  9
$SHOWHIST
280
     1
  9
$DWFFRAME
280
     2
  9
$DGNFRAME
280
     2
  9
$REALWORLDSCALE
290
     1
  9
$INTERFERECOLOR
 62
   256
  9
$CSHADOW
280
     0
  9
$SHADOWPLANELOCATION
 40
0.0
  0
ENDSEC
  0
SECTION
  2
CLASSES
  0
CLASS
  1
ACDBDICTIONARYWDFLT
  2
AcDbDictionaryWithDefault
  3
ObjectDBX Classes
 90
        0
 91
        4
280
     0
281
     0
  0
CLASS
  1
VISUALSTYLE
  2
AcDbVisualStyle
  3
ObjectDBX Classes
 90
     4095
 91
        4
280
     0
281
     0
  0
CLASS
  1
MATERIAL
  2
AcDbMaterial
  3
ObjectDBX Classes
 90
     1153
 91
        4
280
     0
281
     0
  0
CLASS
  1
SUN
  2
AcDbSun
  3
SCENEOE
 90
     1024
 91
        4
280
     0
281
     0
  0
ENDSEC
  0
SECTION
  2
TABLES
  0
TABLE
  2
VPORT
  5
8
330
0
100
AcDbSymbolTable
 70
     1
  0
VPORT
  5
29
330
8
100
AcDbSymbolTableRecord
100
AcDbViewportTableRecord
  2
*Active
 70
     0
 10
0.0
 20
0.0
 11
1.0
 21
1.0
 12
0.0
 22
0.0
 13
0.0
 23
0.0
 14
0.5
 24
0.5
 15
0.5
 25
0.5
 16
0.0
 26
0.0
 36
1.0
 17
91.00082462281999
 27
-128.4993055234307
 37
0.0
 40
256.9986110468615
 41
0.7081814508812795
 42
50.0
 43
0.0
 44
0.0
 50
0.0
 51
0.0
 71
     0
 72
   100
 73
     1
 74
     3
 75
     0
 76
     0
 77
     0
 78
     0
281
     0
 65
     1
110
0.0
120
0.0
130
0.0
111
1.0
121
0.0
131
0.0
112
0.0
122
1.0
132
0.0
 79
     0
146
0.0
 60
     3
 61
     5
292
     1
282
     1
141
0.0
142
0.0
 63
   250
361
3F
  0
ENDTAB
  0
TABLE
  2
LTYPE
  5
5
330
0
100
AcDbSymbolTable
 70
     1
  0
LTYPE
  5
14
330
5
100
AcDbSymbolTableRecord
100
AcDbLinetypeTableRecord
  2
ByBlock
 70
     0
  3

 72
    65
 73
     0
 40
0.0
  0
LTYPE
  5
15
330
5
100
AcDbSymbolTableRecord
100
AcDbLinetypeTableRecord
  2
ByLayer
 70
     0
  3

 72
    65
 73
     0
 40
0.0
  0
LTYPE
  5
16
330
5
100
AcDbSymbolTableRecord
100
AcDbLinetypeTableRecord
  2
Continuous
 70
     0
  3
Solid line
 72
    65
 73
     0
 40
0.0
  0
ENDTAB
  0
TABLE
  2
LAYER
  5
2
330
0
100
AcDbSymbolTable
 70
     2
  0
LAYER
  5
10
330
2
100
AcDbSymbolTableRecord
100
AcDbLayerTableRecord
  2
0
 70
     0
 62
     7
  6
Continuous
370
    -3
390
F
347
3E
  0
LAYER
  5
40
330
2
100
AcDbSymbolTableRecord
100
AcDbLayerTableRecord
  2
_U+30EC_U+30A4_U+30E4_U+30FC 1
 70
     0
 62
     7
  6
Continuous
370
    -3
390
F
347
3E
  0
ENDTAB
  0
TABLE
  2
STYLE
  5
3
330
0
100
AcDbSymbolTable
 70
     1
  0
STYLE
  5
11
330
3
100
AcDbSymbolTableRecord
100
AcDbTextStyleTableRecord
  2
Standard
 70
     0
 40
0.0
 41
1.0
 50
0.0
 71
     0
 42
0.2
  3
txt
  4

  0
ENDTAB
  0
TABLE
  2
VIEW
  5
6
330
0
100
AcDbSymbolTable
 70
     0
  0
ENDTAB
  0
TABLE
  2
UCS
  5
7
330
0
100
AcDbSymbolTable
 70
     0
  0
ENDTAB
  0
TABLE
  2
APPID
  5
9
330
0
100
AcDbSymbolTable
 70
     1
  0
APPID
  5
12
330
9
100
AcDbSymbolTableRecord
100
AcDbRegAppTableRecord
  2
ACAD
 70
     0
  0
ENDTAB
  0
TABLE
  2
DIMSTYLE
  5
A
330
0
100
AcDbSymbolTable
 70
     1
100
AcDbDimStyleTable
  0
DIMSTYLE
105
27
330
A
100
AcDbSymbolTableRecord
100
AcDbDimStyleTableRecord
  2
Standard
 70
     0
178
     0
340
11
  0
ENDTAB
  0
TABLE
  2
BLOCK_RECORD
  5
1
330
0
100
AcDbSymbolTable
 70
     6
  0
BLOCK_RECORD
  5
1F
330
1
100
AcDbSymbolTableRecord
100
AcDbBlockTableRecord
  2
*Model_Space
340
22
 70
     0
280
     1
281
     0
  0
BLOCK_RECORD
  5
1B
330
1
100
AcDbSymbolTableRecord
100
AcDbBlockTableRecord
  2
*Paper_Space
340
1E
 70
     0
280
     1
281
     0
  0
BLOCK_RECORD
  5
23
330
1
100
AcDbSymbolTableRecord
100
AcDbBlockTableRecord
  2
*Paper_Space0
340
26
 70
     0
280
     1
281
     0
  0
BLOCK_RECORD
  5
7E
330
1
100
AcDbSymbolTableRecord
100
AcDbBlockTableRecord
  2
block 2
340
0
102
{BLKREFS
331
7F
102
}
 70
     0
280
     1
281
     0
  0
BLOCK_RECORD
  5
9D
330
1
100
AcDbSymbolTableRecord
100
AcDbBlockTableRecord
  2
block 3
340
0
102
{BLKREFS
331
9E
102
}
 70
     0
280
     1
281
     0
  0
BLOCK_RECORD
  5
B2
330
1
100
AcDbSymbolTableRecord
100
AcDbBlockTableRecord
  2
block 4
340
0
102
{BLKREFS
331
B3
102
}
 70
     0
280
     1
281
     0
  0
BLOCK_RECORD
  5
C0
330
1
100
AcDbSymbolTableRecord
100
AcDbBlockTableRecord
  2
block 5
340
0
102
{BLKREFS
331
C1
102
}
 70
     0
280
     1
281
     0
  0
BLOCK_RECORD
  5
EF
330
1
100
AcDbSymbolTableRecord
100
AcDbBlockTableRecord
  2
block 6
340
0
102
{BLKREFS
331
F0
102
}
 70
     0
280
     1
281
     0
  0
ENDTAB
  0
ENDSEC
  0
SECTION
  2
BLOCKS
  0
BLOCK
  5
20
330
1F
100
AcDbEntity
  8
0
100
AcDbBlockBegin
  2
*Model_Space
 70
     0
 10
0.0
 20
0.0
 30
0.0
  3
*Model_Space
  1

  0
ENDBLK
  5
21
330
1F
100
AcDbEntity
  8
0
100
AcDbBlockEnd
  0
BLOCK
  5
1C
330
1B
100
AcDbEntity
 67
     1
  8
0
100
AcDbBlockBegin
  2
*Paper_Space
 70
     0
 10
0.0
 20
0.0
 30
0.0
  3
*Paper_Space
  1

  0
ENDBLK
  5
1D
330
1B
100
AcDbEntity
 67
     1
  8
0
100
AcDbBlockEnd
  0
BLOCK
  5
24
330
23
100
AcDbEntity
  8
0
100
AcDbBlockBegin
  2
*Paper_Space0
 70
     0
 10
0.0
 20
0.0
 30
0.0
  3
*Paper_Space0
  1

  0
ENDBLK
  5
25
330
23
100
AcDbEntity
  8
0
100
AcDbBlockEnd
  0
BLOCK
  5
80
330
7E
100
AcDbEntity
  8
0
100
AcDbBlockBegin
  2
block 2
 70
     0
 10
0.0
 20
0.0
 30
0.0
  3
block 2
  1

  0
SPLINE
  5
82
330
7E
100
AcDbEntity
  8
_U+30EC_U+30A4_U+30E4_U+30FC 1
370
     0
100
AcDbSpline
210
0.0
220
0.0
230
1.0
 70
    11
 71
     3
 72
    29
 73
    25
 74
     0
 42
0.0000000001
 43
0.0000000001
 12
1.0
 22
0.0
 32
0.0
 13
1.0
 23
0.0
 33
0.0
 40
0.0
 40
0.0
 40
0.0
 40
0.0
 40
1.0
 40
1.0
 40
1.0
 40
2.0
 40
2.0
 40
2.0
 40
3.0
 40
3.0
 40
3.0
 40
4.0
 40
4.0
 40
4.0
 40
5.0
 40
5.0
 40
5.0
 40
6.0
 40
6.0
 40
6.0
 40
7.0
 40
7.0
 40
7.0
 40
8.0
 40
8.0
 40
8.0
 40
8.0
 10
73.95207517682448
 20
-129.4728895075623
 30
0.0
 10
74.16153698232768
 20
-129.5810655057992
 30
0.0
 10
74.18048500749654
 20
-129.7543538087073
 30
0.0
 10
74.18048500749654
 20
-129.8707980361087
 30
0.0
 10
74.18048500749654
 20
-130.0316839952699
 30
0.0
 10
74.13397621844568
 20
-130.1732774197136
 30
0.0
 10
73.95207517682448
 20
-130.2683620551065
 30
0.0
 10
73.75742728190787
 20
-130.3720594292126
 30
0.0
 10
73.5207492220712
 20
-130.3913519639299
 30
0.0
 10
73.35779620561888
 20
-130.3913519639299
 30
0.0
 10
73.21379121433544
 20
-130.3913519639299
 30
0.0
 10
72.96195473436369
 20
-130.3741264865037
 30
0.0
 10
72.76317272486476
 20
-130.2683620551065
 30
0.0
 10
72.56025660078355
 20
-130.1605305664182
 30
0.0
 10
72.53682995148385
 20
-129.999644607257
 30
0.0
 10
72.53682995148385
 20
-129.8707980361087
 30
0.0
 10
72.53682995148385
 20
-129.7119791342387
 30
0.0
 10
72.58127168324357
 20
-129.5683186525038
 30
0.0
 10
72.76317272486476
 20
-129.4728895075623
 30
0.0
 10
72.95575356249023
 20
-129.3736707575871
 30
0.0
 10
73.1841633931623
 20
-129.3502441082875
 30
0.0
 10
73.35779620561888
 20
-129.3502441082875
 30
0.0
 10
73.5290174512358
 20
-129.3502441082875
 30
0.0
 10
73.75949433919902
 20
-129.371603700296
 30
0.0
 10
73.95207517682448
 20
-129.4728895075623
 30
0.0
  0
SPLINE
  5
83
330
7E
100
AcDbEntity
  8
_U+30EC_U+30A4_U+30E4_U+30FC 1
370
     0
100
AcDbSpline
210
0.0
220
0.0
230
1.0
 70
    11
 71
     3
 72
    17
 73
    13
 74
     0
 42
0.0000000001
 43
0.0000000001
 12
1.0
 22
0.0
 32
0.0
 13
1.0
 23
0.0
 33
0.0
 40
0.0
 40
0.0
 40
0.0
 40
0.0
 40
1.0
 40
1.0
 40
1.0
 40
2.0
 40
2.0
 40
2.0
 40
3.0
 40
3.0
 40
3.0
 40
4.0
 40
4.0
 40
4.0
 40
4.0
 10
72.72941078910932
 20
-129.8707980361087
 30
0.0
 10
72.72941078910932
 20
-130.1205674587893
 30
0.0
 10
73.01294214754537
 20
-130.1670762478402
 30
0.0
 10
73.35779620561888
 20
-130.1670762478402
 30
0.0
 10
73.67715655710155
 20
-130.1670762478402
 30
0.0
 10
73.98583711257993
 20
-130.1309027452451
 30
0.0
 10
73.98583711257993
 20
-129.8707980361087
 30
0.0
 10
73.98583711257993
 20
-129.6230956707192
 30
0.0
 10
73.70471732098355
 20
-129.5745198243772
 30
0.0
 10
73.35779620561888
 20
-129.5745198243772
 30
0.0
 10
73.0380913445877
 20
-129.5745198243772
 30
0.0
 10
72.72941078910932
 20
-129.6127603842635
 30
0.0
 10
72.72941078910932
 20
-129.8707980361087
 30
0.0
  0
HATCH
  5
84
330
7E
100
AcDbEntity
  8
_U+30EC_U+30A4_U+30E4_U+30FC 1
 62
   179
420
  2234388
100
AcDbHatch
 10
0.0
 20
0.0
 30
0.0
210
0.0
220
0.0
230
1.0
  2
SOLID
 70
     1
 71
     0
 91
        2
 92
        1
 93
        1
 72
     4
 94
        3
 73
     0
 74
     1
 95
       29
 96
       25
 40
0.0
 40
0.0
 40
0.0
 40
0.0
 40
1.0
 40
1.0
 40
1.0
 40
2.0
 40
2.0
 40
2.0
 40
3.0
 40
3.0
 40
3.0
 40
4.0
 40
4.0
 40
4.0
 40
5.0
 40
5.0
 40
5.0
 40
6.0
 40
6.0
 40
6.0
 40
7.0
 40
7.0
 40
7.0
 40
8.0
 40
8.0
 40
8.0
 40
8.0
 10
73.95207517682448
 20
-129.4728895075623
 10
74.16153698232768
 20
-129.5810655057992
 10
74.18048500749654
 20
-129.7543538087073
 10
74.18048500749654
 20
-129.8707980361087
 10
74.18048500749654
 20
-130.0316839952699
 10
74.13397621844568
 20
-130.1732774197136
 10
73.95207517682448
 20
-130.2683620551065
 10
73.75742728190787
 20
-130.3720594292126
 10
73.5207492220712
 20
-130.3913519639299
 10
73.35779620561888
 20
-130.3913519639299
 10
73.21379121433544
 20
-130.3913519639299
 10
72.96195473436369
 20
-130.3741264865037
 10
72.76317272486476
 20
-130.2683620551065
 10
72.56025660078355
 20
-130.1605305664182
 10
72.53682995148385
 20
-129.999644607257
 10
72.53682995148385
 20
-129.8707980361087
 10
72.53682995148385
 20
-129.7119791342387
 10
72.58127168324357
 20
-129.5683186525038
 10
72.76317272486476
 20
-129.4728895075623
 10
72.95575356249023
 20
-129.3736707575871
 10
73.1841633931623
 20
-129.3502441082875
 10
73.35779620561888
 20
-129.3502441082875
 10
73.5290174512358
 20
-129.3502441082875
 10
73.75949433919902
 20
-129.371603700296
 10
73.95207517682448
 20
-129.4728895075623
 97
        0
 97
        0
 92
        1
 93
        1
 72
     4
 94
        3
 73
     0
 74
     1
 95
       17
 96
       13
 40
0.0
 40
0.0
 40
0.0
 40
0.0
 40
1.0
 40
1.0
 40
1.0
 40
2.0
 40
2.0
 40
2.0
 40
3.0
 40
3.0
 40
3.0
 40
4.0
 40
4.0
 40
4.0
 40
4.0
 10
72.72941078910932
 20
-129.8707980361087
 10
72.72941078910932
 20
-130.1205674587893
 10
73.01294214754537
 20
-130.1670762478402
 10
73.35779620561888
 20
-130.1670762478402
 10
73.67715655710155
 20
-130.1670762478402
 10
73.98583711257993
 20
-130.1309027452451
 10
73.98583711257993
 20
-129.8707980361087
 10
73.98583711257993
 20
-129.6230956707192
 10
73.70471732098355
 20
-129.5745198243772
 10
73.35779620561888
 20
-129.5745198243772
 10
73.0380913445877
 20
-129.5745198243772
 10
72.72941078910932
 20
-129.6127603842635
 10
72.72941078910932
 20
-129.8707980361087
 97
        0
 97
        0
 75
     2
 76
     1
 98
        0
  0
POLYLINE
  5
85
330
7E
100
AcDbEntity
  8
_U+30EC_U+30A4_U+30E4_U+30FC 1
370
     0
100
AcDb2dPolyline
 66
     1
 10
0.0
 20
0.0
 30
0.0
  0
VERTEX
  5
86
330
85
100
AcDbEntity
  8
_U+30EC_U+30A4_U+30E4_U+30FC 1
370
     0
100
AcDbVertex
100
AcDb2dVertex
 10
74.12984210386338
 20
-129.1338921118138
 30
0.0
  0
VERTEX
  5
87
330
85
100
AcDbEntity
  8
_U+30EC_U+30A4_U+30E4_U+30FC 1
370
     0
100
AcDbVertex
100
AcDb2dVertex
 10
73.87800562389161
 20
-129.1338921118138
 30
0.0
  0
VERTEX
  5
88
330
85
100
AcDbEntity
  8
_U+30EC_U+30A4_U+30E4_U+30FC 1
370
     0
100
AcDbVertex
100
AcDb2dVertex
 10
73.87800562389161
 20
-128.882055631842
 30
0.0
  0
VERTEX
  5
89
330
85
100
AcDbEntity
  8
_U+30EC_U+30A4_U+30E4_U+30FC 1
370
     0
100
AcDbVertex
100
AcDb2dVertex
 10
74.12984210386338
 20
-128.882055631842
 30
0.0
  0
VERTEX
  5
8A
330
85
100
AcDbEntity
  8
_U+30EC_U+30A4_U+30E4_U+30FC 1
370
     0
100
AcDbVertex
100
AcDb2dVertex
 10
74.12984210386338
 20
-129.1338921118138
 30
0.0
  0
SEQEND
  5
8B
330
85
100
AcDbEntity
  8
_U+30EC_U+30A4_U+30E4_U+30FC 1
370
     0
  0
HATCH
  5
8C
330
7E
100
AcDbEntity
  8
_U+30EC_U+30A4_U+30E4_U+30FC 1
 62
   179
420
  2234388
100
AcDbHatch
 10
0.0
 20
0.0
 30
0.0
210
0.0
220
0.0
230
1.0
  2
SOLID
 70
     1
 71
     0
 91
        1
 92
        1
 93
        4
 72
     1
 10
74.12984210386338
 20
-129.1338921118138
 11
73.87800562389161
 21
-129.1338921118138
 72
     1
 10
73.87800562389161
 20
-129.1338921118138
 11
73.87800562389161
 21
-128.882055631842
 72
     1
 10
73.87800562389161
 20
-128.882055631842
 11
74.12984210386338
 21
-128.882055631842
 72
     1
 10
74.12984210386338
 20
-128.882055631842
 11
74.12984210386338
 21
-129.1338921118138
 97
        0
 75
     2
 76
     1
 98
        0
  0
SPLINE
  5
8D
330
7E
100
AcDbEntity
  8
_U+30EC_U+30A4_U+30E4_U+30FC 1
370
     0
100
AcDbSpline
210
0.0
220
0.0
230
1.0
 70
    11
 71
     3
 72
    29
 73
    25
 74
     0
 42
0.0000000001
 43
0.0000000001
 12
1.0
 22
0.0
 32
0.0
 13
1.0
 23
0.0
 33
0.0
 40
0.0
 40
0.0
 40
0.0
 40
0.0
 40
1.0
 40
1.0
 40
1.0
 40
2.0
 40
2.0
 40
2.0
 40
3.0
 40
3.0
 40
3.0
 40
4.0
 40
4.0
 40
4.0
 40
5.0
 40
5.0
 40
5.0
 40
6.0
 40
6.0
 40
6.0
 40
7.0
 40
7.0
 40
7.0
 40
8.0
 40
8.0
 40
8.0
 40
8.0
 10
74.18048500749654
 20
-128.1458387266441
 30
0.0
 10
74.18048500749654
 20
-128.4124891172024
 30
0.0
 10
74.04302569763507
 20
-128.6660481449168
 30
0.0
 10
73.69403752497927
 20
-128.6660481449168
 30
0.0
 10
73.43806693042521
 20
-128.6660481449168
 30
0.0
 10
73.34298229503231
 20
-128.524454720473
 30
0.0
 10
73.28165959539487
 20
-128.4186902890759
 30
0.0
 10
73.22240395304857
 20
-128.5434027456419
 30
0.0
 10
73.10802678293827
 20
-128.619539355866
 30
0.0
 10
72.9471408237771
 20
-128.619539355866
 30
0.0
 10
72.67222220405417
 20
-128.619539355866
 30
0.0
 10
72.53682995148385
 20
-128.420757346367
 30
0.0
 10
72.53682995148385
 20
-128.1458387266441
 30
0.0
 10
72.53682995148385
 20
-127.862307368208
 30
0.0
 10
72.68083494276729
 20
-127.6717935878737
 30
0.0
 10
72.9471408237771
 20
-127.6717935878737
 30
0.0
 10
73.10802678293827
 20
-127.6717935878737
 30
0.0
 10
73.22240395304857
 20
-127.7503417649374
 30
0.0
 10
73.28165959539487
 20
-127.8750542215035
 30
0.0
 10
73.33230249902805
 20
-127.786170757984
 30
0.0
 10
73.42738713442094
 20
-127.627351856114
 30
0.0
 10
73.68990341039697
 20
-127.627351856114
 30
0.0
 10
74.06438528964362
 20
-127.627351856114
 30
0.0
 10
74.18048500749654
 20
-127.9067490999678
 30
0.0
 10
74.18048500749654
 20
-128.1458387266441
 30
0.0
  0
SPLINE
  5
8E
330
7E
100
AcDbEntity
  8
_U+30EC_U+30A4_U+30E4_U+30FC 1
370
     0
100
AcDbSpline
210
0.0
220
0.0
230
1.0
 70
    11
 71
     3
 72
    17
 73
    13
 74
     0
 42
0.0000000001
 43
0.0000000001
 12
1.0
 22
0.0
 32
0.0
 13
1.0
 23
0.0
 33
0.0
 40
0.0
 40
0.0
 40
0.0
 40
0.0
 40
1.0
 40
1.0
 40
1.0
 40
2.0
 40
2.0
 40
2.0
 40
3.0
 40
3.0
 40
3.0
 40
4.0
 40
4.0
 40
4.0
 40
4.0
 10
72.72941078910932
 20
-128.1458387266441
 30
0.0
 10
72.72941078910932
 20
-128.3108588003876
 30
0.0
 10
72.82449542450222
 20
-128.3952636397762
 30
0.0
 10
72.95988767707253
 20
-128.3952636397762
 30
0.0
 10
73.08253307634743
 20
-128.3952636397762
 30
0.0
 10
73.20104436104002
 20
-128.323605653683
 30
0.0
 10
73.20104436104002
 20
-128.1458387266441
 30
0.0
 10
73.20104436104002
 20
-127.9680717996052
 30
0.0
 10
73.08253307634743
 20
-127.8960693039635
 30
0.0
 10
72.95988767707253
 20
-127.8960693039635
 30
0.0
 10
72.82449542450222
 20
-127.8960693039635
 30
0.0
 10
72.72941078910932
 20
-127.9828857101918
 30
0.0
 10
72.72941078910932
 20
-128.1458387266441
 30
0.0
  0
SPLINE
  5
8F
330
7E
100
AcDbEntity
  8
_U+30EC_U+30A4_U+30E4_U+30FC 1
370
     0
100
AcDbSpline
210
0.0
220
0.0
230
1.0
 70
    11
 71
     3
 72
    17
 73
    13
 74
     0
 42
0.0000000001
 43
0.0000000001
 12
1.0
 22
0.0
 32
0.0
 13
1.0
 23
0.0
 33
0.0
 40
0.0
 40
0.0
 40
0.0
 40
0.0
 40
1.0
 40
1.0
 40
1.0
 40
2.0
 40
2.0
 40
2.0
 40
3.0
 40
3.0
 40
3.0
 40
4.0
 40
4.0
 40
4.0
 40
4.0
 10
73.38949108408319
 20
-128.1458387266441
 30
0.0
 10
73.38949108408319
 20
-128.289499208379
 30
0.0
 10
73.47630749031148
 20
-128.4421169383756
 30
0.0
 10
73.6792236143927
 20
-128.4421169383756
 30
0.0
 10
73.8845513053136
 20
-128.4421169383756
 30
0.0
 10
73.98583711257993
 20
-128.3149929149699
 30
0.0
 10
73.98583711257993
 20
-128.1458387266441
 30
0.0
 10
73.98583711257993
 20
-127.9598035704406
 30
0.0
 10
73.86319171330504
 20
-127.8495605149126
 30
0.0
 10
73.68542478626615
 20
-127.8495605149126
 30
0.0
 10
73.46356063701606
 20
-127.8495605149126
 30
0.0
 10
73.38949108408319
 20
-128.0125135313649
 30
0.0
 10
73.38949108408319
 20
-128.1458387266441
 30
0.0
  0
HATCH
  5
90
330
7E
100
AcDbEntity
  8
_U+30EC_U+30A4_U+30E4_U+30FC 1
 62
   179
420
  2234388
100
AcDbHatch
 10
0.0
 20
0.0
 30
0.0
210
0.0
220
0.0
230
1.0
  2
SOLID
 70
     1
 71
     0
 91
        3
 92
        1
 93
        1
 72
     4
 94
        3
 73
     0
 74
     1
 95
       29
 96
       25
 40
0.0
 40
0.0
 40
0.0
 40
0.0
 40
1.0
 40
1.0
 40
1.0
 40
2.0
 40
2.0
 40
2.0
 40
3.0
 40
3.0
 40
3.0
 40
4.0
 40
4.0
 40
4.0
 40
5.0
 40
5.0
 40
5.0
 40
6.0
 40
6.0
 40
6.0
 40
7.0
 40
7.0
 40
7.0
 40
8.0
 40
8.0
 40
8.0
 40
8.0
 10
74.18048500749654
 20
-128.1458387266441
 10
74.18048500749654
 20
-128.4124891172024
 10
74.04302569763507
 20
-128.6660481449168
 10
73.69403752497927
 20
-128.6660481449168
 10
73.43806693042521
 20
-128.6660481449168
 10
73.34298229503231
 20
-128.524454720473
 10
73.28165959539487
 20
-128.4186902890759
 10
73.22240395304857
 20
-128.5434027456419
 10
73.10802678293827
 20
-128.619539355866
 10
72.9471408237771
 20
-128.619539355866
 10
72.67222220405417
 20
-128.619539355866
 10
72.53682995148385
 20
-128.420757346367
 10
72.53682995148385
 20
-128.1458387266441
 10
72.53682995148385
 20
-127.862307368208
 10
72.68083494276729
 20
-127.6717935878737
 10
72.9471408237771
 20
-127.6717935878737
 10
73.10802678293827
 20
-127.6717935878737
 10
73.22240395304857
 20
-127.7503417649374
 10
73.28165959539487
 20
-127.8750542215035
 10
73.33230249902805
 20
-127.786170757984
 10
73.42738713442094
 20
-127.627351856114
 10
73.68990341039697
 20
-127.627351856114
 10
74.06438528964362
 20
-127.627351856114
 10
74.18048500749654
 20
-127.9067490999678
 10
74.18048500749654
 20
-128.1458387266441
 97
        0
 97
        0
 92
        1
 93
        1
 72
     4
 94
        3
 73
     0
 74
     1
 95
       17
 96
       13
 40
0.0
 40
0.0
 40
0.0
 40
0.0
 40
1.0
 40
1.0
 40
1.0
 40
2.0
 40
2.0
 40
2.0
 40
3.0
 40
3.0
 40
3.0
 40
4.0
 40
4.0
 40
4.0
 40
4.0
 10
72.72941078910932
 20
-128.1458387266441
 10
72.72941078910932
 20
-128.3108588003876
 10
72.82449542450222
 20
-128.3952636397762
 10
72.95988767707253
 20
-128.3952636397762
 10
73.08253307634743
 20
-128.3952636397762
 10
73.20104436104002
 20
-128.323605653683
 10
73.20104436104002
 20
-128.1458387266441
 10
73.20104436104002
 20
-127.9680717996052
 10
73.08253307634743
 20
-127.8960693039635
 10
72.95988767707253
 20
-127.8960693039635
 10
72.82449542450222
 20
-127.8960693039635
 10
72.72941078910932
 20
-127.9828857101918
 10
72.72941078910932
 20
-128.1458387266441
 97
        0
 97
        0
 92
        1
 93
        1
 72
     4
 94
        3
 73
     0
 74
     1
 95
       17
 96
       13
 40
0.0
 40
0.0
 40
0.0
 40
0.0
 40
1.0
 40
1.0
 40
1.0
 40
2.0
 40
2.0
 40
2.0
 40
3.0
 40
3.0
 40
3.0
 40
4.0
 40
4.0
 40
4.0
 40
4.0
 10
73.38949108408319
 20
-128.1458387266441
 10
73.38949108408319
 20
-128.289499208379
 10
73.47630749031148
 20
-128.4421169383756
 10
73.6792236143927
 20
-128.4421169383756
 10
73.8845513053136
 20
-128.4421169383756
 10
73.98583711257993
 20
-128.3149929149699
 10
73.98583711257993
 20
-128.1458387266441
 10
73.98583711257993
 20
-127.9598035704406
 10
73.86319171330504
 20
-127.8495605149126
 10
73.68542478626615
 20
-127.8495605149126
 10
73.46356063701606
 20
-127.8495605149126
 10
73.38949108408319
 20
-128.0125135313649
 10
73.38949108408319
 20
-128.1458387266441
 97
        0
 97
        0
 75
     2
 76
     1
 98
        0
  0
ENDBLK
  5
81
330
7E
100
AcDbEntity
  8
0
100
AcDbBlockEnd
  0
BLOCK
  5
9F
330
9D
100
AcDbEntity
  8
0
100
AcDbBlockBegin
  2
block 3
 70
     0
 10
0.0
 20
0.0
 30
0.0
  3
block 3
  1

  0
SPLINE
  5
A1
330
9D
100
AcDbEntity
  8
_U+30EC_U+30A4_U+30E4_U+30FC 1
370
     0
100
AcDbSpline
210
0.0
220
0.0
230
1.0
 70
    11
 71
     3
 72
    44
 73
    40
 74
     0
 42
0.0000000001
 43
0.0000000001
 12
1.0
 22
0.0
 32
0.0
 13
1.0
 23
0.0
 33
0.0
 40
0.0
 40
0.0
 40
0.0
 40
0.0
 40
1.0
 40
1.0
 40
1.0
 40
2.0
 40
2.0
 40
2.0
 40
3.0
 40
3.0
 40
3.0
 40
4.0
 40
4.0
 40
4.0
 40
5.0
 40
5.0
 40
5.0
 40
6.0
 40
6.0
 40
6.0
 40
7.0
 40
7.0
 40
7.0
 40
8.0
 40
8.0
 40
8.0
 40
9.0
 40
9.0
 40
9.0
 40
10.0
 40
10.0
 40
10.0
 40
11.0
 40
11.0
 40
11.0
 40
12.0
 40
12.0
 40
12.0
 40
13.0
 40
13.0
 40
13.0
 40
13.0
 10
91.1544704633225
 20
-135.6781954955943
 30
0.0
 10
90.9367404286547
 20
-135.8370143974644
 30
0.0
 10
90.84372285055296
 20
-135.9110839503972
 30
0.0
 10
90.79480249466242
 20
-136.0547444321321
 30
0.0
 10
90.79480249466242
 20
-136.0547444321321
 30
0.0
 10
91.57339407432887
 20
-136.0547444321321
 30
0.0
 10
91.57339407432887
 20
-136.0547444321321
 30
0.0
 10
91.57339407432887
 20
-136.0547444321321
 30
0.0
 10
91.57339407432887
 20
-136.260072123053
 30
0.0
 10
91.57339407432887
 20
-136.260072123053
 30
0.0
 10
91.57339407432887
 20
-136.260072123053
 30
0.0
 10
90.54537758153033
 20
-136.260072123053
 30
0.0
 10
90.54537758153033
 20
-136.260072123053
 30
0.0
 10
90.57707245999462
 20
-135.9024712116841
 30
0.0
 10
90.64252927421437
 20
-135.8242675441689
 30
0.0
 10
91.02769094946531
 20
-135.5259222751463
 30
0.0
 10
91.28366154401937
 20
-135.3271402656474
 30
0.0
 10
91.34911835823911
 20
-135.259271884588
 30
0.0
 10
91.34911835823911
 20
-135.1218125747265
 30
0.0
 10
91.34911835823911
 20
-135.0033012900339
 30
0.0
 10
91.2771158625974
 20
-134.8723876615944
 30
0.0
 10
91.08040091038963
 20
-134.8723876615944
 30
0.0
 10
90.82029620125326
 20
-134.8723876615944
 30
0.0
 10
90.81168346254015
 20
-135.1028645495576
 30
0.0
 10
90.80754934795785
 20
-135.2193087769591
 30
0.0
 10
90.80754934795785
 20
-135.2193087769591
 30
0.0
 10
90.58327363186808
 20
-135.2193087769591
 30
0.0
 10
90.58327363186808
 20
-135.2193087769591
 30
0.0
 10
90.5918863705812
 20
-135.0921847535533
 30
0.0
 10
90.60256616658548
 20
-134.9802191502827
 30
0.0
 10
90.6828368913918
 20
-134.8617078655901
 30
0.0
 10
90.79273543737126
 20
-134.700821906429
 30
0.0
 10
90.97911510312328
 20
-134.6670599706735
 30
0.0
 10
91.0952148209762
 20
-134.6670599706735
 30
0.0
 10
91.37254500753882
 20
-134.6670599706735
 30
0.0
 10
91.57993975575086
 20
-134.8510280695859
 30
0.0
 10
91.57993975575086
 20
-135.1238796320176
 30
0.0
 10
91.57993975575086
 20
-135.3526339722382
 30
0.0
 10
91.46349552834941
 20
-135.4518527222134
 30
0.0
 10
91.1544704633225
 20
-135.6781954955943
 30
0.0
  0
HATCH
  5
A2
330
9D
100
AcDbEntity
  8
_U+30EC_U+30A4_U+30E4_U+30FC 1
 62
   179
420
  2234388
100
AcDbHatch
 10
0.0
 20
0.0
 30
0.0
210
0.0
220
0.0
230
1.0
  2
SOLID
 70
     1
 71
     0
 91
        1
 92
        1
 93
        1
 72
     4
 94
        3
 73
     0
 74
     1
 95
       44
 96
       40
 40
0.0
 40
0.0
 40
0.0
 40
0.0
 40
1.0
 40
1.0
 40
1.0
 40
2.0
 40
2.0
 40
2.0
 40
3.0
 40
3.0
 40
3.0
 40
4.0
 40
4.0
 40
4.0
 40
5.0
 40
5.0
 40
5.0
 40
6.0
 40
6.0
 40
6.0
 40
7.0
 40
7.0
 40
7.0
 40
8.0
 40
8.0
 40
8.0
 40
9.0
 40
9.0
 40
9.0
 40
10.0
 40
10.0
 40
10.0
 40
11.0
 40
11.0
 40
11.0
 40
12.0
 40
12.0
 40
12.0
 40
13.0
 40
13.0
 40
13.0
 40
13.0
 10
91.1544704633225
 20
-135.6781954955943
 10
90.9367404286547
 20
-135.8370143974644
 10
90.84372285055296
 20
-135.9110839503972
 10
90.79480249466242
 20
-136.0547444321321
 10
90.79480249466242
 20
-136.0547444321321
 10
91.57339407432887
 20
-136.0547444321321
 10
91.57339407432887
 20
-136.0547444321321
 10
91.57339407432887
 20
-136.0547444321321
 10
91.57339407432887
 20
-136.260072123053
 10
91.57339407432887
 20
-136.260072123053
 10
91.57339407432887
 20
-136.260072123053
 10
90.54537758153033
 20
-136.260072123053
 10
90.54537758153033
 20
-136.260072123053
 10
90.57707245999462
 20
-135.9024712116841
 10
90.64252927421437
 20
-135.8242675441689
 10
91.02769094946531
 20
-135.5259222751463
 10
91.28366154401937
 20
-135.3271402656474
 10
91.34911835823911
 20
-135.259271884588
 10
91.34911835823911
 20
-135.1218125747265
 10
91.34911835823911
 20
-135.0033012900339
 10
91.2771158625974
 20
-134.8723876615944
 10
91.08040091038963
 20
-134.8723876615944
 10
90.82029620125326
 20
-134.8723876615944
 10
90.81168346254015
 20
-135.1028645495576
 10
90.80754934795785
 20
-135.2193087769591
 10
90.80754934795785
 20
-135.2193087769591
 10
90.58327363186808
 20
-135.2193087769591
 10
90.58327363186808
 20
-135.2193087769591
 10
90.5918863705812
 20
-135.0921847535533
 10
90.60256616658548
 20
-134.9802191502827
 10
90.6828368913918
 20
-134.8617078655901
 10
90.79273543737126
 20
-134.700821906429
 10
90.97911510312328
 20
-134.6670599706735
 10
91.0952148209762
 20
-134.6670599706735
 10
91.37254500753882
 20
-134.6670599706735
 10
91.57993975575086
 20
-134.8510280695859
 10
91.57993975575086
 20
-135.1238796320176
 10
91.57993975575086
 20
-135.3526339722382
 10
91.46349552834941
 20
-135.4518527222134
 10
91.1544704633225
 20
-135.6781954955943
 97
        0
 97
        0
 75
     2
 76
     1
 98
        0
  0
SPLINE
  5
A3
330
9D
100
AcDbEntity
  8
_U+30EC_U+30A4_U+30E4_U+30FC 1
370
     0
100
AcDbSpline
210
0.0
220
0.0
230
1.0
 70
    11
 71
     3
 72
    32
 73
    28
 74
     0
 42
0.0000000001
 43
0.0000000001
 12
1.0
 22
0.0
 32
0.0
 13
1.0
 23
0.0
 33
0.0
 40
0.0
 40
0.0
 40
0.0
 40
0.0
 40
1.0
 40
1.0
 40
1.0
 40
2.0
 40
2.0
 40
2.0
 40
3.0
 40
3.0
 40
3.0
 40
4.0
 40
4.0
 40
4.0
 40
5.0
 40
5.0
 40
5.0
 40
6.0
 40
6.0
 40
6.0
 40
7.0
 40
7.0
 40
7.0
 40
8.0
 40
8.0
 40
8.0
 40
9.0
 40
9.0
 40
9.0
 40
9.0
 10
92.24243161756439
 20
-136.3107150266862
 30
0.0
 10
91.72635631387396
 20
-136.3107150266862
 30
0.0
 10
91.71774357516085
 20
-135.756743672658
 30
0.0
 10
91.71774357516085
 20
-135.542803243024
 30
0.0
 10
91.71774357516085
 20
-135.3123263550608
 30
0.0
 10
91.73703610987825
 20
-134.6649929133824
 30
0.0
 10
92.28067217745067
 20
-134.6649929133824
 30
0.0
 10
92.45396048035873
 20
-134.6649929133824
 30
0.0
 10
92.69959578845705
 20
-134.7349283517329
 30
0.0
 10
92.7374918387948
 20
-135.067035556511
 30
0.0
 10
92.7374918387948
 20
-135.067035556511
 30
0.0
 10
92.52389591870931
 20
-135.067035556511
 30
0.0
 10
92.52389591870931
 20
-135.067035556511
 30
0.0
 10
92.51321612270503
 20
-135.0098469714559
 30
0.0
 10
92.48152124424074
 20
-134.8617078655901
 30
0.0
 10
92.27860512015953
 20
-134.8617078655901
 30
0.0
 10
91.98646102301034
 20
-134.8617078655901
 30
0.0
 10
91.94649791538143
 20
-135.1896809557859
 30
0.0
 10
91.93375106208602
 20
-135.3946641371583
 30
0.0
 10
92.02676864018775
 20
-135.3164604696431
 30
0.0
 10
92.09463702124718
 20
-135.2572048272968
 30
0.0
 10
92.27653806286837
 20
-135.2572048272968
 30
0.0
 10
92.45637204719841
 20
-135.2572048272968
 30
0.0
 10
92.75885143080335
 20
-135.3653808255337
 30
0.0
 10
92.75885143080335
 20
-135.7715575832446
 30
0.0
 10
92.75885143080335
 20
-136.0909179347273
 30
0.0
 10
92.55972491175591
 20
-136.3107150266862
 30
0.0
 10
92.24243161756439
 20
-136.3107150266862
 30
0.0
  0
SPLINE
  5
A4
330
9D
100
AcDbEntity
  8
_U+30EC_U+30A4_U+30E4_U+30FC 1
370
     0
100
AcDbSpline
210
0.0
220
0.0
230
1.0
 70
    11
 71
     3
 72
    17
 73
    13
 74
     0
 42
0.0000000001
 43
0.0000000001
 12
1.0
 22
0.0
 32
0.0
 13
1.0
 23
0.0
 33
0.0
 40
0.0
 40
0.0
 40
0.0
 40
0.0
 40
1.0
 40
1.0
 40
1.0
 40
2.0
 40
2.0
 40
2.0
 40
3.0
 40
3.0
 40
3.0
 40
4.0
 40
4.0
 40
4.0
 40
4.0
 10
92.25931258544212
 20
-135.4518527222134
 30
0.0
 10
91.9971408190146
 20
-135.4518527222134
 30
0.0
 10
91.95924476867685
 20
-135.6633815850078
 30
0.0
 10
91.95924476867685
 20
-135.7798258124092
 30
0.0
 10
91.95924476867685
 20
-135.9555256821569
 30
0.0
 10
92.05432940406976
 20
-136.1184786986093
 30
0.0
 10
92.23829750298209
 20
-136.1184786986093
 30
0.0
 10
92.35887584496584
 20
-136.1184786986093
 30
0.0
 10
92.53457571471358
 20
-136.059223056263
 30
0.0
 10
92.53457571471358
 20
-135.7736246405358
 30
0.0
 10
92.53457571471358
 20
-135.549348924446
 30
0.0
 10
92.39504934756097
 20
-135.4518527222134
 30
0.0
 10
92.25931258544212
 20
-135.4518527222134
 30
0.0
  0
HATCH
  5
A5
330
9D
100
AcDbEntity
  8
_U+30EC_U+30A4_U+30E4_U+30FC 1
 62
   179
420
  2234388
100
AcDbHatch
 10
0.0
 20
0.0
 30
0.0
210
0.0
220
0.0
230
1.0
  2
SOLID
 70
     1
 71
     0
 91
        2
 92
        1
 93
        1
 72
     4
 94
        3
 73
     0
 74
     1
 95
       32
 96
       28
 40
0.0
 40
0.0
 40
0.0
 40
0.0
 40
1.0
 40
1.0
 40
1.0
 40
2.0
 40
2.0
 40
2.0
 40
3.0
 40
3.0
 40
3.0
 40
4.0
 40
4.0
 40
4.0
 40
5.0
 40
5.0
 40
5.0
 40
6.0
 40
6.0
 40
6.0
 40
7.0
 40
7.0
 40
7.0
 40
8.0
 40
8.0
 40
8.0
 40
9.0
 40
9.0
 40
9.0
 40
9.0
 10
92.24243161756439
 20
-136.3107150266862
 10
91.72635631387396
 20
-136.3107150266862
 10
91.71774357516085
 20
-135.756743672658
 10
91.71774357516085
 20
-135.542803243024
 10
91.71774357516085
 20
-135.3123263550608
 10
91.73703610987825
 20
-134.6649929133824
 10
92.28067217745067
 20
-134.6649929133824
 10
92.45396048035873
 20
-134.6649929133824
 10
92.69959578845705
 20
-134.7349283517329
 10
92.7374918387948
 20
-135.067035556511
 10
92.7374918387948
 20
-135.067035556511
 10
92.52389591870931
 20
-135.067035556511
 10
92.52389591870931
 20
-135.067035556511
 10
92.51321612270503
 20
-135.0098469714559
 10
92.48152124424074
 20
-134.8617078655901
 10
92.27860512015953
 20
-134.8617078655901
 10
91.98646102301034
 20
-134.8617078655901
 10
91.94649791538143
 20
-135.1896809557859
 10
91.93375106208602
 20
-135.3946641371583
 10
92.02676864018775
 20
-135.3164604696431
 10
92.09463702124718
 20
-135.2572048272968
 10
92.27653806286837
 20
-135.2572048272968
 10
92.45637204719841
 20
-135.2572048272968
 10
92.75885143080335
 20
-135.3653808255337
 10
92.75885143080335
 20
-135.7715575832446
 10
92.75885143080335
 20
-136.0909179347273
 10
92.55972491175591
 20
-136.3107150266862
 10
92.24243161756439
 20
-136.3107150266862
 97
        0
 97
        0
 92
        1
 93
        1
 72
     4
 94
        3
 73
     0
 74
     1
 95
       17
 96
       13
 40
0.0
 40
0.0
 40
0.0
 40
0.0
 40
1.0
 40
1.0
 40
1.0
 40
2.0
 40
2.0
 40
2.0
 40
3.0
 40
3.0
 40
3.0
 40
4.0
 40
4.0
 40
4.0
 40
4.0
 10
92.25931258544212
 20
-135.4518527222134
 10
91.9971408190146
 20
-135.4518527222134
 10
91.95924476867685
 20
-135.6633815850078
 10
91.95924476867685
 20
-135.7798258124092
 10
91.95924476867685
 20
-135.9555256821569
 10
92.05432940406976
 20
-136.1184786986093
 10
92.23829750298209
 20
-136.1184786986093
 10
92.35887584496584
 20
-136.1184786986093
 10
92.53457571471358
 20
-136.059223056263
 10
92.53457571471358
 20
-135.7736246405358
 10
92.53457571471358
 20
-135.549348924446
 10
92.39504934756097
 20
-135.4518527222134
 10
92.25931258544212
 20
-135.4518527222134
 97
        0
 97
        0
 75
     2
 76
     1
 98
        0
  0
ENDBLK
  5
A0
330
9D
100
AcDbEntity
  8
0
100
AcDbBlockEnd
  0
BLOCK
  5
B4
330
B2
100
AcDbEntity
  8
0
100
AcDbBlockBegin
  2
block 4
 70
     0
 10
0.0
 20
0.0
 30
0.0
  3
block 4
  1

  0
SPLINE
  5
B6
330
B2
100
AcDbEntity
  8
_U+30EC_U+30A4_U+30E4_U+30FC 1
370
     0
100
AcDbSpline
210
0.0
220
0.0
230
1.0
 70
    11
 71
     3
 72
    26
 73
    22
 74
     0
 42
0.0000000001
 43
0.0000000001
 12
1.0
 22
0.0
 32
0.0
 13
1.0
 23
0.0
 33
0.0
 40
0.0
 40
0.0
 40
0.0
 40
0.0
 40
1.0
 40
1.0
 40
1.0
 40
2.0
 40
2.0
 40
2.0
 40
3.0
 40
3.0
 40
3.0
 40
4.0
 40
4.0
 40
4.0
 40
5.0
 40
5.0
 40
5.0
 40
6.0
 40
6.0
 40
6.0
 40
7.0
 40
7.0
 40
7.0
 40
7.0
 10
101.1393907082221
 20
-121.2596096159525
 30
0.0
 10
101.1393907082221
 20
-121.2596096159525
 30
0.0
 10
100.9023681388369
 20
-121.2596096159525
 30
0.0
 10
100.9023681388369
 20
-121.2596096159525
 30
0.0
 10
100.9278618454278
 20
-120.9507568056998
 30
0.0
 10
101.1204426830532
 20
-120.432442189944
 30
0.0
 10
101.5266194407642
 20
-119.9268744274836
 30
0.0
 10
101.5266194407642
 20
-119.9268744274836
 30
0.0
 10
100.6887722187514
 20
-119.9268744274836
 30
0.0
 10
100.6887722187514
 20
-119.9268744274836
 30
0.0
 10
100.6887722187514
 20
-119.9268744274836
 30
0.0
 10
100.6887722187514
 20
-119.7153455646892
 30
0.0
 10
100.6887722187514
 20
-119.7153455646892
 30
0.0
 10
100.6887722187514
 20
-119.7153455646892
 30
0.0
 10
101.7636420101494
 20
-119.7153455646892
 30
0.0
 10
101.7636420101494
 20
-119.7153455646892
 30
0.0
 10
101.7636420101494
 20
-119.7153455646892
 30
0.0
 10
101.7636420101494
 20
-119.9268744274836
 30
0.0
 10
101.7636420101494
 20
-119.9268744274836
 30
0.0
 10
101.4398030345359
 20
-120.2166069577931
 30
0.0
 10
101.1731526439775
 20
-120.8089911264818
 30
0.0
 10
101.1393907082221
 20
-121.2596096159525
 30
0.0
  0
HATCH
  5
B7
330
B2
100
AcDbEntity
  8
_U+30EC_U+30A4_U+30E4_U+30FC 1
 62
   179
420
  2234388
100
AcDbHatch
 10
0.0
 20
0.0
 30
0.0
210
0.0
220
0.0
230
1.0
  2
SOLID
 70
     1
 71
     0
 91
        1
 92
        1
 93
        1
 72
     4
 94
        3
 73
     0
 74
     1
 95
       26
 96
       22
 40
0.0
 40
0.0
 40
0.0
 40
0.0
 40
1.0
 40
1.0
 40
1.0
 40
2.0
 40
2.0
 40
2.0
 40
3.0
 40
3.0
 40
3.0
 40
4.0
 40
4.0
 40
4.0
 40
5.0
 40
5.0
 40
5.0
 40
6.0
 40
6.0
 40
6.0
 40
7.0
 40
7.0
 40
7.0
 40
7.0
 10
101.1393907082221
 20
-121.2596096159525
 10
101.1393907082221
 20
-121.2596096159525
 10
100.9023681388369
 20
-121.2596096159525
 10
100.9023681388369
 20
-121.2596096159525
 10
100.9278618454278
 20
-120.9507568056998
 10
101.1204426830532
 20
-120.432442189944
 10
101.5266194407642
 20
-119.9268744274836
 10
101.5266194407642
 20
-119.9268744274836
 10
100.6887722187514
 20
-119.9268744274836
 10
100.6887722187514
 20
-119.9268744274836
 10
100.6887722187514
 20
-119.9268744274836
 10
100.6887722187514
 20
-119.7153455646892
 10
100.6887722187514
 20
-119.7153455646892
 10
100.6887722187514
 20
-119.7153455646892
 10
101.7636420101494
 20
-119.7153455646892
 10
101.7636420101494
 20
-119.7153455646892
 10
101.7636420101494
 20
-119.7153455646892
 10
101.7636420101494
 20
-119.9268744274836
 10
101.7636420101494
 20
-119.9268744274836
 10
101.4398030345359
 20
-120.2166069577931
 10
101.1731526439775
 20
-120.8089911264818
 10
101.1393907082221
 20
-121.2596096159525
 97
        0
 97
        0
 75
     2
 76
     1
 98
        0
  0
ENDBLK
  5
B5
330
B2
100
AcDbEntity
  8
0
100
AcDbBlockEnd
  0
BLOCK
  5
C2
330
C0
100
AcDbEntity
  8
0
100
AcDbBlockBegin
  2
block 5
 70
     0
 10
0.0
 20
0.0
 30
0.0
  3
block 5
  1

  0
SPLINE
  5
C4
330
C0
100
AcDbEntity
  8
_U+30EC_U+30A4_U+30E4_U+30FC 1
370
     0
100
AcDbSpline
210
0.0
220
0.0
230
1.0
 70
    11
 71
     3
 72
    53
 73
    49
 74
     0
 42
0.0000000001
 43
0.0000000001
 12
1.0
 22
0.0
 32
0.0
 13
1.0
 23
0.0
 33
0.0
 40
0.0
 40
0.0
 40
0.0
 40
0.0
 40
1.0
 40
1.0
 40
1.0
 40
2.0
 40
2.0
 40
2.0
 40
3.0
 40
3.0
 40
3.0
 40
4.0
 40
4.0
 40
4.0
 40
5.0
 40
5.0
 40
5.0
 40
6.0
 40
6.0
 40
6.0
 40
7.0
 40
7.0
 40
7.0
 40
8.0
 40
8.0
 40
8.0
 40
9.0
 40
9.0
 40
9.0
 40
10.0
 40
10.0
 40
10.0
 40
11.0
 40
11.0
 40
11.0
 40
12.0
 40
12.0
 40
12.0
 40
13.0
 40
13.0
 40
13.0
 40
14.0
 40
14.0
 40
14.0
 40
15.0
 40
15.0
 40
15.0
 40
16.0
 40
16.0
 40
16.0
 40
16.0
 10
93.18018660864941
 20
-130.1901583875914
 30
0.0
 10
93.18018660864941
 20
-130.2683620551065
 30
0.0
 10
93.16330564077168
 20
-130.3699923719214
 30
0.0
 10
93.09991588384308
 20
-130.4716226887363
 30
0.0
 10
92.9900173378636
 20
-130.6449109916443
 30
0.0
 10
92.85875919987559
 20
-130.6662705836529
 30
0.0
 10
92.75092771118727
 20
-130.6852186088218
 30
0.0
 10
92.75092771118727
 20
-130.6852186088218
 30
0.0
 10
92.75092771118727
 20
-130.4630099500231
 30
0.0
 10
92.75092771118727
 20
-130.4630099500231
 30
0.0
 10
92.94970972068619
 20
-130.4082329318077
 30
0.0
 10
92.97933754185934
 20
-130.281108908402
 30
0.0
 10
92.97933754185934
 20
-130.1880913303002
 30
0.0
 10
92.97933754185934
 20
-130.0485649631476
 30
0.0
 10
92.87977428233562
 20
-129.8962917426995
 30
0.0
 10
92.64723033708125
 20
-129.8962917426995
 30
0.0
 10
92.39125974252718
 20
-129.8962917426995
 30
0.0
 10
92.32132430417661
 20
-130.0761257270296
 30
0.0
 10
92.32132430417661
 20
-130.1967040690133
 30
0.0
 10
92.32132430417661
 20
-130.2283989474776
 30
0.0
 10
92.32132430417661
 20
-130.3699923719214
 30
0.0
 10
92.45051538487348
 20
-130.4588758354408
 30
0.0
 10
92.45051538487348
 20
-130.4588758354408
 30
0.0
 10
92.43156735970462
 20
-130.6345757051886
 30
0.0
 10
92.43156735970462
 20
-130.6345757051886
 30
0.0
 10
92.43156735970462
 20
-130.6345757051886
 30
0.0
 10
91.58510739897872
 20
-130.5139973632049
 30
0.0
 10
91.58510739897872
 20
-130.5139973632049
 30
0.0
 10
91.58510739897872
 20
-130.5139973632049
 30
0.0
 10
91.58510739897872
 20
-129.7354057835384
 30
0.0
 10
91.58510739897872
 20
-129.7354057835384
 30
0.0
 10
91.58510739897872
 20
-129.7354057835384
 30
0.0
 10
91.77975529389535
 20
-129.7354057835384
 30
0.0
 10
91.77975529389535
 20
-129.7354057835384
 30
0.0
 10
91.77975529389535
 20
-129.7354057835384
 30
0.0
 10
91.77975529389535
 20
-130.3510443467525
 30
0.0
 10
91.77975529389535
 20
-130.3510443467525
 30
0.0
 10
91.77975529389535
 20
-130.3510443467525
 30
0.0
 10
92.20281301948403
 20
-130.4165011609723
 30
0.0
 10
92.20281301948403
 20
-130.4165011609723
 30
0.0
 10
92.16905108372858
 20
-130.3551784613348
 30
0.0
 10
92.12874346655116
 20
-130.2728406792374
 30
0.0
 10
92.12874346655116
 20
-130.1543293945448
 30
0.0
 10
92.12874346655116
 20
-129.9004258572818
 30
0.0
 10
92.31512313230317
 20
-129.6634032878966
 30
0.0
 10
92.62828231191237
 20
-129.6634032878966
 30
0.0
 10
92.94557560610389
 20
-129.6634032878966
 30
0.0
 10
93.18018660864941
 20
-129.8876790039864
 30
0.0
 10
93.18018660864941
 20
-130.1901583875914
 30
0.0
  0
HATCH
  5
C5
330
C0
100
AcDbEntity
  8
_U+30EC_U+30A4_U+30E4_U+30FC 1
 62
   179
420
  2234388
100
AcDbHatch
 10
0.0
 20
0.0
 30
0.0
210
0.0
220
0.0
230
1.0
  2
SOLID
 70
     1
 71
     0
 91
        1
 92
        1
 93
        1
 72
     4
 94
        3
 73
     0
 74
     1
 95
       53
 96
       49
 40
0.0
 40
0.0
 40
0.0
 40
0.0
 40
1.0
 40
1.0
 40
1.0
 40
2.0
 40
2.0
 40
2.0
 40
3.0
 40
3.0
 40
3.0
 40
4.0
 40
4.0
 40
4.0
 40
5.0
 40
5.0
 40
5.0
 40
6.0
 40
6.0
 40
6.0
 40
7.0
 40
7.0
 40
7.0
 40
8.0
 40
8.0
 40
8.0
 40
9.0
 40
9.0
 40
9.0
 40
10.0
 40
10.0
 40
10.0
 40
11.0
 40
11.0
 40
11.0
 40
12.0
 40
12.0
 40
12.0
 40
13.0
 40
13.0
 40
13.0
 40
14.0
 40
14.0
 40
14.0
 40
15.0
 40
15.0
 40
15.0
 40
16.0
 40
16.0
 40
16.0
 40
16.0
 10
93.18018660864941
 20
-130.1901583875914
 10
93.18018660864941
 20
-130.2683620551065
 10
93.16330564077168
 20
-130.3699923719214
 10
93.09991588384308
 20
-130.4716226887363
 10
92.9900173378636
 20
-130.6449109916443
 10
92.85875919987559
 20
-130.6662705836529
 10
92.75092771118727
 20
-130.6852186088218
 10
92.75092771118727
 20
-130.6852186088218
 10
92.75092771118727
 20
-130.4630099500231
 10
92.75092771118727
 20
-130.4630099500231
 10
92.94970972068619
 20
-130.4082329318077
 10
92.97933754185934
 20
-130.281108908402
 10
92.97933754185934
 20
-130.1880913303002
 10
92.97933754185934
 20
-130.0485649631476
 10
92.87977428233562
 20
-129.8962917426995
 10
92.64723033708125
 20
-129.8962917426995
 10
92.39125974252718
 20
-129.8962917426995
 10
92.32132430417661
 20
-130.0761257270296
 10
92.32132430417661
 20
-130.1967040690133
 10
92.32132430417661
 20
-130.2283989474776
 10
92.32132430417661
 20
-130.3699923719214
 10
92.45051538487348
 20
-130.4588758354408
 10
92.45051538487348
 20
-130.4588758354408
 10
92.43156735970462
 20
-130.6345757051886
 10
92.43156735970462
 20
-130.6345757051886
 10
92.43156735970462
 20
-130.6345757051886
 10
91.58510739897872
 20
-130.5139973632049
 10
91.58510739897872
 20
-130.5139973632049
 10
91.58510739897872
 20
-130.5139973632049
 10
91.58510739897872
 20
-129.7354057835384
 10
91.58510739897872
 20
-129.7354057835384
 10
91.58510739897872
 20
-129.7354057835384
 10
91.77975529389535
 20
-129.7354057835384
 10
91.77975529389535
 20
-129.7354057835384
 10
91.77975529389535
 20
-129.7354057835384
 10
91.77975529389535
 20
-130.3510443467525
 10
91.77975529389535
 20
-130.3510443467525
 10
91.77975529389535
 20
-130.3510443467525
 10
92.20281301948403
 20
-130.4165011609723
 10
92.20281301948403
 20
-130.4165011609723
 10
92.16905108372858
 20
-130.3551784613348
 10
92.12874346655116
 20
-130.2728406792374
 10
92.12874346655116
 20
-130.1543293945448
 10
92.12874346655116
 20
-129.9004258572818
 10
92.31512313230317
 20
-129.6634032878966
 10
92.62828231191237
 20
-129.6634032878966
 10
92.94557560610389
 20
-129.6634032878966
 10
93.18018660864941
 20
-129.8876790039864
 10
93.18018660864941
 20
-130.1901583875914
 97
        0
 97
        0
 75
     2
 76
     1
 98
        0
  0
POLYLINE
  5
C6
330
C0
100
AcDbEntity
  8
_U+30EC_U+30A4_U+30E4_U+30FC 1
370
     0
100
AcDb2dPolyline
 66
     1
 10
0.0
 20
0.0
 30
0.0
  0
VERTEX
  5
C7
330
C6
100
AcDbEntity
  8
_U+30EC_U+30A4_U+30E4_U+30FC 1
370
     0
100
AcDbVertex
100
AcDb2dVertex
 10
93.12954370501623
 20
-129.4343044381276
 30
0.0
  0
VERTEX
  5
C8
330
C6
100
AcDbEntity
  8
_U+30EC_U+30A4_U+30E4_U+30FC 1
370
     0
100
AcDbVertex
100
AcDb2dVertex
 10
92.87770722504446
 20
-129.4343044381276
 30
0.0
  0
VERTEX
  5
C9
330
C6
100
AcDbEntity
  8
_U+30EC_U+30A4_U+30E4_U+30FC 1
370
     0
100
AcDbVertex
100
AcDb2dVertex
 10
92.87770722504446
 20
-129.1824679581558
 30
0.0
  0
VERTEX
  5
CA
330
C6
100
AcDbEntity
  8
_U+30EC_U+30A4_U+30E4_U+30FC 1
370
     0
100
AcDbVertex
100
AcDb2dVertex
 10
93.12954370501623
 20
-129.1824679581558
 30
0.0
  0
VERTEX
  5
CB
330
C6
100
AcDbEntity
  8
_U+30EC_U+30A4_U+30E4_U+30FC 1
370
     0
100
AcDbVertex
100
AcDb2dVertex
 10
93.12954370501623
 20
-129.4343044381276
 30
0.0
  0
SEQEND
  5
CC
330
C6
100
AcDbEntity
  8
_U+30EC_U+30A4_U+30E4_U+30FC 1
370
     0
  0
HATCH
  5
CD
330
C0
100
AcDbEntity
  8
_U+30EC_U+30A4_U+30E4_U+30FC 1
 62
   179
420
  2234388
100
AcDbHatch
 10
0.0
 20
0.0
 30
0.0
210
0.0
220
0.0
230
1.0
  2
SOLID
 70
     1
 71
     0
 91
        1
 92
        1
 93
        4
 72
     1
 10
93.12954370501623
 20
-129.4343044381276
 11
92.87770722504446
 21
-129.4343044381276
 72
     1
 10
92.87770722504446
 20
-129.4343044381276
 11
92.87770722504446
 21
-129.1824679581558
 72
     1
 10
92.87770722504446
 20
-129.1824679581558
 11
93.12954370501623
 21
-129.1824679581558
 72
     1
 10
93.12954370501623
 20
-129.1824679581558
 11
93.12954370501623
 21
-129.4343044381276
 97
        0
 75
     2
 76
     1
 98
        0
  0
POLYLINE
  5
CE
330
C0
100
AcDbEntity
  8
_U+30EC_U+30A4_U+30E4_U+30FC 1
370
     0
100
AcDb2dPolyline
 66
     1
 10
0.0
 20
0.0
 30
0.0
  0
VERTEX
  5
CF
330
CE
100
AcDbEntity
  8
_U+30EC_U+30A4_U+30E4_U+30FC 1
370
     0
100
AcDbVertex
100
AcDb2dVertex
 10
92.78262258965157
 20
-128.1141438481798
 30
0.0
  0
VERTEX
  5
D0
330
CE
100
AcDbEntity
  8
_U+30EC_U+30A4_U+30E4_U+30FC 1
370
     0
100
AcDbVertex
100
AcDb2dVertex
 10
93.12954370501623
 20
-128.1141438481798
 30
0.0
  0
VERTEX
  5
D1
330
CE
100
AcDbEntity
  8
_U+30EC_U+30A4_U+30E4_U+30FC 1
370
     0
100
AcDbVertex
100
AcDb2dVertex
 10
93.12954370501623
 20
-128.3318738828476
 30
0.0
  0
VERTEX
  5
D2
330
CE
100
AcDbEntity
  8
_U+30EC_U+30A4_U+30E4_U+30FC 1
370
     0
100
AcDbVertex
100
AcDb2dVertex
 10
92.78262258965157
 20
-128.3318738828476
 30
0.0
  0
VERTEX
  5
D3
330
CE
100
AcDbEntity
  8
_U+30EC_U+30A4_U+30E4_U+30FC 1
370
     0
100
AcDbVertex
100
AcDb2dVertex
 10
92.78262258965157
 20
-128.9878200632392
 30
0.0
  0
VERTEX
  5
D4
330
CE
100
AcDbEntity
  8
_U+30EC_U+30A4_U+30E4_U+30FC 1
370
     0
100
AcDbVertex
100
AcDb2dVertex
 10
92.5583468735618
 20
-128.9878200632392
 30
0.0
  0
VERTEX
  5
D5
330
CE
100
AcDbEntity
  8
_U+30EC_U+30A4_U+30E4_U+30FC 1
370
     0
100
AcDbVertex
100
AcDb2dVertex
 10
91.58510739897872
 20
-128.3087917430964
 30
0.0
  0
VERTEX
  5
D6
330
CE
100
AcDbEntity
  8
_U+30EC_U+30A4_U+30E4_U+30FC 1
370
     0
100
AcDbVertex
100
AcDb2dVertex
 10
91.58510739897872
 20
-128.1141438481798
 30
0.0
  0
VERTEX
  5
D7
330
CE
100
AcDbEntity
  8
_U+30EC_U+30A4_U+30E4_U+30FC 1
370
     0
100
AcDbVertex
100
AcDb2dVertex
 10
92.58384058015265
 20
-128.1141438481798
 30
0.0
  0
VERTEX
  5
D8
330
CE
100
AcDbEntity
  8
_U+30EC_U+30A4_U+30E4_U+30FC 1
370
     0
100
AcDbVertex
100
AcDb2dVertex
 10
92.58384058015265
 20
-127.9067490999678
 30
0.0
  0
VERTEX
  5
D9
330
CE
100
AcDbEntity
  8
_U+30EC_U+30A4_U+30E4_U+30FC 1
370
     0
100
AcDbVertex
100
AcDb2dVertex
 10
92.78262258965157
 20
-127.9067490999678
 30
0.0
  0
VERTEX
  5
DA
330
CE
100
AcDbEntity
  8
_U+30EC_U+30A4_U+30E4_U+30FC 1
370
     0
100
AcDbVertex
100
AcDb2dVertex
 10
92.78262258965157
 20
-128.1141438481798
 30
0.0
  0
SEQEND
  5
DB
330
CE
100
AcDbEntity
  8
_U+30EC_U+30A4_U+30E4_U+30FC 1
370
     0
  0
POLYLINE
  5
DC
330
C0
100
AcDbEntity
  8
_U+30EC_U+30A4_U+30E4_U+30FC 1
370
     0
100
AcDb2dPolyline
 66
     1
 10
0.0
 20
0.0
 30
0.0
  0
VERTEX
  5
DD
330
DC
100
AcDbEntity
  8
_U+30EC_U+30A4_U+30E4_U+30FC 1
370
     0
100
AcDbVertex
100
AcDb2dVertex
 10
91.92789439976109
 20
-128.3318738828476
 30
0.0
  0
VERTEX
  5
DE
330
DC
100
AcDbEntity
  8
_U+30EC_U+30A4_U+30E4_U+30FC 1
370
     0
100
AcDbVertex
100
AcDb2dVertex
 10
92.58384058015265
 20
-128.7890380537403
 30
0.0
  0
VERTEX
  5
DF
330
DC
100
AcDbEntity
  8
_U+30EC_U+30A4_U+30E4_U+30FC 1
370
     0
100
AcDbVertex
100
AcDb2dVertex
 10
92.58384058015265
 20
-128.3318738828476
 30
0.0
  0
VERTEX
  5
E0
330
DC
100
AcDbEntity
  8
_U+30EC_U+30A4_U+30E4_U+30FC 1
370
     0
100
AcDbVertex
100
AcDb2dVertex
 10
91.92789439976109
 20
-128.3318738828476
 30
0.0
  0
SEQEND
  5
E1
330
DC
100
AcDbEntity
  8
_U+30EC_U+30A4_U+30E4_U+30FC 1
370
     0
  0
HATCH
  5
E2
330
C0
100
AcDbEntity
  8
_U+30EC_U+30A4_U+30E4_U+30FC 1
 62
   179
420
  2234388
100
AcDbHatch
 10
0.0
 20
0.0
 30
0.0
210
0.0
220
0.0
230
1.0
  2
SOLID
 70
     1
 71
     0
 91
        2
 92
        1
 93
       11
 72
     1
 10
92.78262258965157
 20
-128.1141438481798
 11
93.12954370501623
 21
-128.1141438481798
 72
     1
 10
93.12954370501623
 20
-128.1141438481798
 11
93.12954370501623
 21
-128.3318738828476
 72
     1
 10
93.12954370501623
 20
-128.3318738828476
 11
92.78262258965157
 21
-128.3318738828476
 72
     1
 10
92.78262258965157
 20
-128.3318738828476
 11
92.78262258965157
 21
-128.9878200632392
 72
     1
 10
92.78262258965157
 20
-128.9878200632392
 11
92.5583468735618
 21
-128.9878200632392
 72
     1
 10
92.5583468735618
 20
-128.9878200632392
 11
91.58510739897872
 21
-128.3087917430964
 72
     1
 10
91.58510739897872
 20
-128.3087917430964
 11
91.58510739897872
 21
-128.1141438481798
 72
     1
 10
91.58510739897872
 20
-128.1141438481798
 11
92.58384058015265
 21
-128.1141438481798
 72
     1
 10
92.58384058015265
 20
-128.1141438481798
 11
92.58384058015265
 21
-127.9067490999678
 72
     1
 10
92.58384058015265
 20
-127.9067490999678
 11
92.78262258965157
 21
-127.9067490999678
 72
     1
 10
92.78262258965157
 20
-127.9067490999678
 11
92.78262258965157
 21
-128.1141438481798
 97
        0
 92
        1
 93
        3
 72
     1
 10
91.92789439976109
 20
-128.3318738828476
 11
92.58384058015265
 21
-128.7890380537403
 72
     1
 10
92.58384058015265
 20
-128.7890380537403
 11
92.58384058015265
 21
-128.3318738828476
 72
     1
 10
92.58384058015265
 20
-128.3318738828476
 11
91.92789439976109
 21
-128.3318738828476
 97
        0
 75
     2
 76
     1
 98
        0
  0
ENDBLK
  5
C3
330
C0
100
AcDbEntity
  8
0
100
AcDbBlockEnd
  0
BLOCK
  5
F1
330
EF
100
AcDbEntity
  8
0
100
AcDbBlockBegin
  2
block 6
 70
     0
 10
0.0
 20
0.0
 30
0.0
  3
block 6
  1

  0
SPLINE
  5
F3
330
EF
100
AcDbEntity
  8
_U+30EC_U+30A4_U+30E4_U+30FC 1
370
     0
100
AcDbSpline
210
0.0
220
0.0
230
1.0
 70
    11
 71
     3
 72
    26
 73
    22
 74
     0
 42
0.0000000001
 43
0.0000000001
 12
1.0
 22
0.0
 32
0.0
 13
1.0
 23
0.0
 33
0.0
 40
0.0
 40
0.0
 40
0.0
 40
0.0
 40
1.0
 40
1.0
 40
1.0
 40
2.0
 40
2.0
 40
2.0
 40
3.0
 40
3.0
 40
3.0
 40
4.0
 40
4.0
 40
4.0
 40
5.0
 40
5.0
 40
5.0
 40
6.0
 40
6.0
 40
6.0
 40
7.0
 40
7.0
 40
7.0
 40
7.0
 10
108.1298339573425
 20
-129.4429171768407
 30
0.0
 10
108.1298339573425
 20
-129.4429171768407
 30
0.0
 10
108.1298339573425
 20
-129.6799397462258
 30
0.0
 10
108.1298339573425
 20
-129.6799397462258
 30
0.0
 10
107.8208088923156
 20
-129.654446039635
 30
0.0
 10
107.3026665313341
 20
-129.4618652020095
 30
0.0
 10
106.7969265140994
 20
-129.0556884442986
 30
0.0
 10
106.7969265140994
 20
-129.0556884442986
 30
0.0
 10
106.7969265140994
 20
-129.8935356663114
 30
0.0
 10
106.7969265140994
 20
-129.8935356663114
 30
0.0
 10
106.7969265140994
 20
-129.8935356663114
 30
0.0
 10
106.585397651305
 20
-129.8935356663114
 30
0.0
 10
106.585397651305
 20
-129.8935356663114
 30
0.0
 10
106.585397651305
 20
-129.8935356663114
 30
0.0
 10
106.585397651305
 20
-128.8186658749134
 30
0.0
 10
106.585397651305
 20
-128.8186658749134
 30
0.0
 10
106.585397651305
 20
-128.8186658749134
 30
0.0
 10
106.7969265140994
 20
-128.8186658749134
 30
0.0
 10
106.7969265140994
 20
-128.8186658749134
 30
0.0
 10
107.0870035539574
 20
-129.1425048505269
 30
0.0
 10
107.6792154678719
 20
-129.4091552410852
 30
0.0
 10
108.1298339573425
 20
-129.4429171768407
 30
0.0
  0
HATCH
  5
F4
330
EF
100
AcDbEntity
  8
_U+30EC_U+30A4_U+30E4_U+30FC 1
 62
   179
420
  2234388
100
AcDbHatch
 10
0.0
 20
0.0
 30
0.0
210
0.0
220
0.0
230
1.0
  2
SOLID
 70
     1
 71
     0
 91
        1
 92
        1
 93
        1
 72
     4
 94
        3
 73
     0
 74
     1
 95
       26
 96
       22
 40
0.0
 40
0.0
 40
0.0
 40
0.0
 40
1.0
 40
1.0
 40
1.0
 40
2.0
 40
2.0
 40
2.0
 40
3.0
 40
3.0
 40
3.0
 40
4.0
 40
4.0
 40
4.0
 40
5.0
 40
5.0
 40
5.0
 40
6.0
 40
6.0
 40
6.0
 40
7.0
 40
7.0
 40
7.0
 40
7.0
 10
108.1298339573425
 20
-129.4429171768407
 10
108.1298339573425
 20
-129.4429171768407
 10
108.1298339573425
 20
-129.6799397462258
 10
108.1298339573425
 20
-129.6799397462258
 10
107.8208088923156
 20
-129.654446039635
 10
107.3026665313341
 20
-129.4618652020095
 10
106.7969265140994
 20
-129.0556884442986
 10
106.7969265140994
 20
-129.0556884442986
 10
106.7969265140994
 20
-129.8935356663114
 10
106.7969265140994
 20
-129.8935356663114
 10
106.7969265140994
 20
-129.8935356663114
 10
106.585397651305
 20
-129.8935356663114
 10
106.585397651305
 20
-129.8935356663114
 10
106.585397651305
 20
-129.8935356663114
 10
106.585397651305
 20
-128.8186658749134
 10
106.585397651305
 20
-128.8186658749134
 10
106.585397651305
 20
-128.8186658749134
 10
106.7969265140994
 20
-128.8186658749134
 10
106.7969265140994
 20
-128.8186658749134
 10
107.0870035539574
 20
-129.1425048505269
 10
107.6792154678719
 20
-129.4091552410852
 10
108.1298339573425
 20
-129.4429171768407
 97
        0
 97
        0
 75
     2
 76
     1
 98
        0
  0
ENDBLK
  5
F2
330
EF
100
AcDbEntity
  8
0
100
AcDbBlockEnd
  0
ENDSEC
  0
SECTION
  2
ENTITIES
  0
SPLINE
  5
41
330
1F
100
AcDbEntity
  8
_U+30EC_U+30A4_U+30E4_U+30FC 1
370
     0
100
AcDbSpline
210
0.0
220
0.0
230
1.0
 70
    11
 71
     3
 72
    35
 73
    31
 74
     0
 42
0.0000000001
 43
0.0000000001
 12
1.0
 22
0.0
 32
0.0
 13
1.0
 23
0.0
 33
0.0
 40
0.0
 40
0.0
 40
0.0
 40
0.0
 40
1.0
 40
1.0
 40
1.0
 40
2.0
 40
2.0
 40
2.0
 40
3.0
 40
3.0
 40
3.0
 40
4.0
 40
4.0
 40
4.0
 40
5.0
 40
5.0
 40
5.0
 40
6.0
 40
6.0
 40
6.0
 40
7.0
 40
7.0
 40
7.0
 40
8.0
 40
8.0
 40
8.0
 40
9.0
 40
9.0
 40
9.0
 40
10.0
 40
10.0
 40
10.0
 40
10.0
 10
103.9261434597343
 20
-125.8560474685361
 30
0.0
 10
103.9261434597343
 20
-125.8560474685361
 30
0.0
 10
97.72632111790494
 20
-125.8560474685361
 30
0.0
 10
97.72632111790494
 20
-125.8560474685361
 30
0.0
 10
97.72632111790494
 20
-125.8560474685361
 30
0.0
 10
97.72632111790494
 20
-126.656006357225
 30
0.0
 10
97.72632111790494
 20
-126.656006357225
 30
0.0
 10
97.72632111790494
 20
-126.656006357225
 30
0.0
 10
103.9261434597343
 20
-126.656006357225
 30
0.0
 10
103.9261434597343
 20
-126.656006357225
 30
0.0
 10
103.9261434597343
 20
-126.656006357225
 30
0.0
 10
103.9261434597343
 20
-132.0560110780972
 30
0.0
 10
103.9261434597343
 20
-132.0560110780972
 30
0.0
 10
103.9261434597343
 20
-132.0560110780972
 30
0.0
 10
79.52623380445009
 20
-132.0560110780972
 30
0.0
 10
79.52623380445009
 20
-132.0560110780972
 30
0.0
 10
79.52623380445009
 20
-132.0560110780972
 30
0.0
 10
78.72627493596984
 20
-132.8559699667859
 30
0.0
 10
78.72627493596984
 20
-132.8559699667859
 30
0.0
 10
78.72627493596984
 20
-132.8559699667859
 30
0.0
 10
103.9261434597343
 20
-132.8559699667859
 30
0.0
 10
103.9261434597343
 20
-132.8559699667859
 30
0.0
 10
104.3677859484671
 20
-132.8559699667859
 30
0.0
 10
104.7260670504377
 20
-132.4983591335421
 30
0.0
 10
104.7260670504377
 20
-132.0560110780972
 30
0.0
 10
104.7260670504377
 20
-132.0560110780972
 30
0.0
 10
104.7260670504377
 20
-126.656006357225
 30
0.0
 10
104.7260670504377
 20
-126.656006357225
 30
0.0
 10
104.7260670504377
 20
-126.2143285795575
 30
0.0
 10
104.3677859484671
 20
-125.8560474685361
 30
0.0
 10
103.9261434597343
 20
-125.8560474685361
 30
0.0
  0
POLYLINE
  5
42
330
1F
100
AcDbEntity
  8
_U+30EC_U+30A4_U+30E4_U+30FC 1
 62
   179
420
  2234388
370
    25
100
AcDb2dPolyline
 66
     1
 10
0.0
 20
0.0
 30
0.0
  0
VERTEX
  5
43
330
42
100
AcDbEntity
  8
_U+30EC_U+30A4_U+30E4_U+30FC 1
 62
   179
420
  2234388
370
    25
100
AcDbVertex
100
AcDb2dVertex
 10
78.72627493596984
 20
-132.8559699667859
 30
0.0
  0
VERTEX
  5
44
330
42
100
AcDbEntity
  8
_U+30EC_U+30A4_U+30E4_U+30FC 1
 62
   179
420
  2234388
370
    25
100
AcDbVertex
100
AcDb2dVertex
 10
103.9261434597343
 20
-132.8559699667859
 30
0.0
  0
SEQEND
  5
45
330
42
100
AcDbEntity
  8
_U+30EC_U+30A4_U+30E4_U+30FC 1
 62
   179
420
  2234388
370
    25
  0
POLYLINE
  5
46
330
1F
100
AcDbEntity
  8
_U+30EC_U+30A4_U+30E4_U+30FC 1
 62
   179
420
  2234388
370
    25
100
AcDb2dPolyline
 66
     1
 10
0.0
 20
0.0
 30
0.0
  0
VERTEX
  5
47
330
46
100
AcDbEntity
  8
_U+30EC_U+30A4_U+30E4_U+30FC 1
 62
   179
420
  2234388
370
    25
100
AcDbVertex
100
AcDb2dVertex
 10
104.7260670504377
 20
-126.656006357225
 30
0.0
  0
VERTEX
  5
48
330
46
100
AcDbEntity
  8
_U+30EC_U+30A4_U+30E4_U+30FC 1
 62
   179
420
  2234388
370
    25
100
AcDbVertex
100
AcDb2dVertex
 10
104.7260670504377
 20
-132.0560110780972
 30
0.0
  0
SEQEND
  5
49
330
46
100
AcDbEntity
  8
_U+30EC_U+30A4_U+30E4_U+30FC 1
 62
   179
420
  2234388
370
    25
  0
POLYLINE
  5
4A
330
1F
100
AcDbEntity
  8
_U+30EC_U+30A4_U+30E4_U+30FC 1
 62
   179
420
  2234388
370
    25
100
AcDb2dPolyline
 66
     1
 10
0.0
 20
0.0
 30
0.0
  0
VERTEX
  5
4B
330
4A
100
AcDbEntity
  8
_U+30EC_U+30A4_U+30E4_U+30FC 1
 62
   179
420
  2234388
370
    25
100
AcDbVertex
100
AcDb2dVertex
 10
97.72632111790494
 20
-125.8560474685361
 30
0.0
  0
VERTEX
  5
4C
330
4A
100
AcDbEntity
  8
_U+30EC_U+30A4_U+30E4_U+30FC 1
 62
   179
420
  2234388
370
    25
100
AcDbVertex
100
AcDb2dVertex
 10
103.9261434597343
 20
-125.8560474685361
 30
0.0
  0
SEQEND
  5
4D
330
4A
100
AcDbEntity
  8
_U+30EC_U+30A4_U+30E4_U+30FC 1
 62
   179
420
  2234388
370
    25
  0
POLYLINE
  5
4E
330
1F
100
AcDbEntity
  8
_U+30EC_U+30A4_U+30E4_U+30FC 1
 62
   179
420
  2234388
370
    25
100
AcDb2dPolyline
 66
     1
 10
0.0
 20
0.0
 30
0.0
  0
VERTEX
  5
4F
330
4E
100
AcDbEntity
  8
_U+30EC_U+30A4_U+30E4_U+30FC 1
 62
   179
420
  2234388
370
    25
100
AcDbVertex
100
AcDb2dVertex
 10
97.72632111790494
 20
-125.8560474685361
 30
0.0
  0
VERTEX
  5
50
330
4E
100
AcDbEntity
  8
_U+30EC_U+30A4_U+30E4_U+30FC 1
 62
   179
420
  2234388
370
    25
100
AcDbVertex
100
AcDb2dVertex
 10
97.72632111790494
 20
-126.656006357225
 30
0.0
  0
SEQEND
  5
51
330
4E
100
AcDbEntity
  8
_U+30EC_U+30A4_U+30E4_U+30FC 1
 62
   179
420
  2234388
370
    25
  0
POLYLINE
  5
52
330
1F
100
AcDbEntity
  8
_U+30EC_U+30A4_U+30E4_U+30FC 1
 62
   179
420
  2234388
370
    25
100
AcDb2dPolyline
 66
     1
 10
0.0
 20
0.0
 30
0.0
  0
VERTEX
  5
53
330
52
100
AcDbEntity
  8
_U+30EC_U+30A4_U+30E4_U+30FC 1
 62
   179
420
  2234388
370
    25
100
AcDbVertex
100
AcDb2dVertex
 10
79.52623380445009
 20
-132.0560110780972
 30
0.0
  0
VERTEX
  5
54
330
52
100
AcDbEntity
  8
_U+30EC_U+30A4_U+30E4_U+30FC 1
 62
   179
420
  2234388
370
    25
100
AcDbVertex
100
AcDb2dVertex
 10
103.9261434597343
 20
-132.0560110780972
 30
0.0
  0
SEQEND
  5
55
330
52
100
AcDbEntity
  8
_U+30EC_U+30A4_U+30E4_U+30FC 1
 62
   179
420
  2234388
370
    25
  0
POLYLINE
  5
56
330
1F
100
AcDbEntity
  8
_U+30EC_U+30A4_U+30E4_U+30FC 1
 62
   179
420
  2234388
370
    25
100
AcDb2dPolyline
 66
     1
 10
0.0
 20
0.0
 30
0.0
  0
VERTEX
  5
57
330
56
100
AcDbEntity
  8
_U+30EC_U+30A4_U+30E4_U+30FC 1
 62
   179
420
  2234388
370
    25
100
AcDbVertex
100
AcDb2dVertex
 10
97.72632111790494
 20
-126.656006357225
 30
0.0
  0
VERTEX
  5
58
330
56
100
AcDbEntity
  8
_U+30EC_U+30A4_U+30E4_U+30FC 1
 62
   179
420
  2234388
370
    25
100
AcDbVertex
100
AcDb2dVertex
 10
103.9261434597343
 20
-126.656006357225
 30
0.0
  0
SEQEND
  5
59
330
56
100
AcDbEntity
  8
_U+30EC_U+30A4_U+30E4_U+30FC 1
 62
   179
420
  2234388
370
    25
  0
POLYLINE
  5
5A
330
1F
100
AcDbEntity
  8
_U+30EC_U+30A4_U+30E4_U+30FC 1
 62
   179
420
  2234388
370
    25
100
AcDb2dPolyline
 66
     1
 10
0.0
 20
0.0
 30
0.0
  0
VERTEX
  5
5B
330
5A
100
AcDbEntity
  8
_U+30EC_U+30A4_U+30E4_U+30FC 1
 62
   179
420
  2234388
370
    25
100
AcDbVertex
100
AcDb2dVertex
 10
103.9261434597343
 20
-126.656006357225
 30
0.0
  0
VERTEX
  5
5C
330
5A
100
AcDbEntity
  8
_U+30EC_U+30A4_U+30E4_U+30FC 1
 62
   179
420
  2234388
370
    25
100
AcDbVertex
100
AcDb2dVertex
 10
103.9261434597343
 20
-132.0560110780972
 30
0.0
  0
SEQEND
  5
5D
330
5A
100
AcDbEntity
  8
_U+30EC_U+30A4_U+30E4_U+30FC 1
 62
   179
420
  2234388
370
    25
  0
POLYLINE
  5
5E
330
1F
100
AcDbEntity
  8
_U+30EC_U+30A4_U+30E4_U+30FC 1
 62
   179
420
  2234388
370
    25
100
AcDb2dPolyline
 66
     1
 10
0.0
 20
0.0
 30
0.0
  0
VERTEX
  5
5F
330
5E
100
AcDbEntity
  8
_U+30EC_U+30A4_U+30E4_U+30FC 1
 62
   179
420
  2234388
370
    25
100
AcDbVertex
100
AcDb2dVertex
 10
78.72627493596984
 20
-132.8559699667859
 30
0.0
  0
VERTEX
  5
60
330
5E
100
AcDbEntity
  8
_U+30EC_U+30A4_U+30E4_U+30FC 1
 62
   179
420
  2234388
370
    25
100
AcDbVertex
100
AcDb2dVertex
 10
79.52623380445009
 20
-132.0560110780972
 30
0.0
  0
SEQEND
  5
61
330
5E
100
AcDbEntity
  8
_U+30EC_U+30A4_U+30E4_U+30FC 1
 62
   179
420
  2234388
370
    25
  0
SPLINE
  5
62
330
1F
100
AcDbEntity
  8
_U+30EC_U+30A4_U+30E4_U+30FC 1
 62
   179
420
  2234388
370
    25
100
AcDbSpline
210
0.0
220
0.0
230
1.0
 70
     8
 71
     3
 72
     8
 73
     4
 74
     0
 42
0.0000000001
 43
0.0000000001
 12
1.0
 22
0.0
 32
0.0
 13
1.0
 23
0.0
 33
0.0
 40
0.0
 40
0.0
 40
0.0
 40
0.0
 40
1.0
 40
1.0
 40
1.0
 40
1.0
 10
103.9261434597343
 20
-132.8559699667859
 30
0.0
 10
104.3677859484671
 20
-132.8559699667859
 30
0.0
 10
104.7260670504377
 20
-132.4983591335421
 30
0.0
 10
104.7260670504377
 20
-132.0560110780972
 30
0.0
  0
SPLINE
  5
63
330
1F
100
AcDbEntity
  8
_U+30EC_U+30A4_U+30E4_U+30FC 1
 62
   179
420
  2234388
370
    25
100
AcDbSpline
210
0.0
220
0.0
230
1.0
 70
     8
 71
     3
 72
     8
 73
     4
 74
     0
 42
0.0000000001
 43
0.0000000001
 12
1.0
 22
0.0
 32
0.0
 13
1.0
 23
0.0
 33
0.0
 40
0.0
 40
0.0
 40
0.0
 40
0.0
 40
1.0
 40
1.0
 40
1.0
 40
1.0
 10
104.7260670504377
 20
-126.656006357225
 30
0.0
 10
104.7260670504377
 20
-126.2143285795575
 30
0.0
 10
104.3677859484671
 20
-125.8560474685361
 30
0.0
 10
103.9261434597343
 20
-125.8560474685361
 30
0.0
  0
SPLINE
  5
64
330
1F
100
AcDbEntity
  8
_U+30EC_U+30A4_U+30E4_U+30FC 1
 62
   179
420
  2234388
370
     9
100
AcDbSpline
210
0.0
220
0.0
230
1.0
 70
    11
 71
     3
 72
    17
 73
    13
 74
     0
 42
0.0000000001
 43
0.0000000001
 12
1.0
 22
0.0
 32
0.0
 13
1.0
 23
0.0
 33
0.0
 40
0.0
 40
0.0
 40
0.0
 40
0.0
 40
1.0
 40
1.0
 40
1.0
 40
2.0
 40
2.0
 40
2.0
 40
3.0
 40
3.0
 40
3.0
 40
4.0
 40
4.0
 40
4.0
 40
4.0
 10
74.82642253546337
 20
-132.0560110780972
 30
0.0
 10
74.82642253546337
 20
-132.0009071892223
 30
0.0
 10
74.78165503660549
 20
-131.9561044114556
 30
0.0
 10
74.72619837135363
 20
-131.9561044114556
 30
0.0
 10
74.67106109244341
 20
-131.9561044114556
 30
0.0
 10
74.6262917072358
 20
-132.0009071892223
 30
0.0
 10
74.6262917072358
 20
-132.0560110780972
 30
0.0
 10
74.6262917072358
 20
-132.1111502447503
 30
0.0
 10
74.67106109244341
 20
-132.1559177447389
 30
0.0
 10
74.72619837135363
 20
-132.1559177447389
 30
0.0
 10
74.78165503660549
 20
-132.1559177447389
 30
0.0
 10
74.82642253546337
 20
-132.1111502447503
 30
0.0
 10
74.82642253546337
 20
-132.0560110780972
 30
0.0
  0
SPLINE
  5
65
330
1F
100
AcDbEntity
  8
_U+30EC_U+30A4_U+30E4_U+30FC 1
 62
   179
420
  2234388
370
     9
100
AcDbSpline
210
0.0
220
0.0
230
1.0
 70
    11
 71
     3
 72
    17
 73
    13
 74
     0
 42
0.0000000001
 43
0.0000000001
 12
1.0
 22
0.0
 32
0.0
 13
1.0
 23
0.0
 33
0.0
 40
0.0
 40
0.0
 40
0.0
 40
0.0
 40
1.0
 40
1.0
 40
1.0
 40
2.0
 40
2.0
 40
2.0
 40
3.0
 40
3.0
 40
3.0
 40
4.0
 40
4.0
 40
4.0
 40
4.0
 10
74.82642253546337
 20
-132.8559699667859
 30
0.0
 10
74.82642253546337
 20
-132.8008660779109
 30
0.0
 10
74.78165503660549
 20
-132.7560633001442
 30
0.0
 10
74.72619837135363
 20
-132.7560633001442
 30
0.0
 10
74.67106109244341
 20
-132.7560633001442
 30
0.0
 10
74.6262917072358
 20
-132.8008660779109
 30
0.0
 10
74.6262917072358
 20
-132.8559699667859
 30
0.0
 10
74.6262917072358
 20
-132.9111091334389
 30
0.0
 10
74.67106109244341
 20
-132.9558766334275
 30
0.0
 10
74.72619837135363
 20
-132.9558766334275
 30
0.0
 10
74.78165503660549
 20
-132.9558766334275
 30
0.0
 10
74.82642253546337
 20
-132.9111091334389
 30
0.0
 10
74.82642253546337
 20
-132.8559699667859
 30
0.0
  0
SPLINE
  5
66
330
1F
100
AcDbEntity
  8
_U+30EC_U+30A4_U+30E4_U+30FC 1
 62
   179
420
  2234388
370
     9
100
AcDbSpline
210
0.0
220
0.0
230
1.0
 70
    11
 71
     3
 72
    17
 73
    13
 74
     0
 42
0.0000000001
 43
0.0000000001
 12
1.0
 22
0.0
 32
0.0
 13
1.0
 23
0.0
 33
0.0
 40
0.0
 40
0.0
 40
0.0
 40
0.0
 40
1.0
 40
1.0
 40
1.0
 40
2.0
 40
2.0
 40
2.0
 40
3.0
 40
3.0
 40
3.0
 40
4.0
 40
4.0
 40
4.0
 40
4.0
 10
78.82618160008768
 20
-136.8564346880082
 30
0.0
 10
78.82618160008768
 20
-136.8006252435778
 30
0.0
 10
78.7814141012298
 20
-136.7558224658111
 30
0.0
 10
78.72627493596984
 20
-136.7558224658111
 30
0.0
 10
78.67117104848677
 20
-136.7558224658111
 30
0.0
 10
78.626368271852
 20
-136.8006252435778
 30
0.0
 10
78.626368271852
 20
-136.8564346880082
 30
0.0
 10
78.626368271852
 20
-136.9115385768832
 30
0.0
 10
78.67117104848677
 20
-136.9563413546499
 30
0.0
 10
78.72627493596984
 20
-136.9563413546499
 30
0.0
 10
78.7814141012298
 20
-136.9563413546499
 30
0.0
 10
78.82618160008768
 20
-136.9115385768832
 30
0.0
 10
78.82618160008768
 20
-136.8564346880082
 30
0.0
  0
SPLINE
  5
67
330
1F
100
AcDbEntity
  8
_U+30EC_U+30A4_U+30E4_U+30FC 1
 62
   179
420
  2234388
370
     9
100
AcDbSpline
210
0.0
220
0.0
230
1.0
 70
    11
 71
     3
 72
    17
 73
    13
 74
     0
 42
0.0000000001
 43
0.0000000001
 12
1.0
 22
0.0
 32
0.0
 13
1.0
 23
0.0
 33
0.0
 40
0.0
 40
0.0
 40
0.0
 40
0.0
 40
1.0
 40
1.0
 40
1.0
 40
2.0
 40
2.0
 40
2.0
 40
3.0
 40
3.0
 40
3.0
 40
4.0
 40
4.0
 40
4.0
 40
4.0
 10
104.8259737145555
 20
-136.8564346880082
 30
0.0
 10
104.8259737145555
 20
-136.8006252435778
 30
0.0
 10
104.7812062156976
 20
-136.7558224658111
 30
0.0
 10
104.7260670504377
 20
-136.7558224658111
 30
0.0
 10
104.6709631629546
 20
-136.7558224658111
 30
0.0
 10
104.6261603863198
 20
-136.8006252435778
 30
0.0
 10
104.6261603863198
 20
-136.8564346880082
 30
0.0
 10
104.6261603863198
 20
-136.9115385768832
 30
0.0
 10
104.6709631629546
 20
-136.9563413546499
 30
0.0
 10
104.7260670504377
 20
-136.9563413546499
 30
0.0
 10
104.7812062156976
 20
-136.9563413546499
 30
0.0
 10
104.8259737145555
 20
-136.9115385768832
 30
0.0
 10
104.8259737145555
 20
-136.8564346880082
 30
0.0
  0
SPLINE
  5
68
330
1F
100
AcDbEntity
  8
_U+30EC_U+30A4_U+30E4_U+30FC 1
 62
   179
420
  2234388
370
     9
100
AcDbSpline
210
0.0
220
0.0
230
1.0
 70
    11
 71
     3
 72
    17
 73
    13
 74
     0
 42
0.0000000001
 43
0.0000000001
 12
1.0
 22
0.0
 32
0.0
 13
1.0
 23
0.0
 33
0.0
 40
0.0
 40
0.0
 40
0.0
 40
0.0
 40
1.0
 40
1.0
 40
1.0
 40
2.0
 40
2.0
 40
2.0
 40
3.0
 40
3.0
 40
3.0
 40
4.0
 40
4.0
 40
4.0
 40
4.0
 10
97.82622778202278
 20
-121.8562883028692
 30
0.0
 10
97.82622778202278
 20
-121.8011844139943
 30
0.0
 10
97.7814602831649
 20
-121.7563816362275
 30
0.0
 10
97.72632111790494
 20
-121.7563816362275
 30
0.0
 10
97.67051167488432
 20
-121.7563816362275
 30
0.0
 10
97.62574417602643
 20
-121.8011844139943
 30
0.0
 10
97.62574417602643
 20
-121.8562883028692
 30
0.0
 10
97.62574417602643
 20
-121.9114274695223
 30
0.0
 10
97.67051167488432
 20
-121.9561949695108
 30
0.0
 10
97.72632111790494
 20
-121.9561949695108
 30
0.0
 10
97.7814602831649
 20
-121.9561949695108
 30
0.0
 10
97.82622778202278
 20
-121.9114274695223
 30
0.0
 10
97.82622778202278
 20
-121.8562883028692
 30
0.0
  0
SPLINE
  5
69
330
1F
100
AcDbEntity
  8
_U+30EC_U+30A4_U+30E4_U+30FC 1
 62
   179
420
  2234388
370
     9
100
AcDbSpline
210
0.0
220
0.0
230
1.0
 70
    11
 71
     3
 72
    17
 73
    13
 74
     0
 42
0.0000000001
 43
0.0000000001
 12
1.0
 22
0.0
 32
0.0
 13
1.0
 23
0.0
 33
0.0
 40
0.0
 40
0.0
 40
0.0
 40
0.0
 40
1.0
 40
1.0
 40
1.0
 40
2.0
 40
2.0
 40
2.0
 40
3.0
 40
3.0
 40
3.0
 40
4.0
 40
4.0
 40
4.0
 40
4.0
 10
104.8259737145555
 20
-121.8562883028692
 30
0.0
 10
104.8259737145555
 20
-121.8011844139943
 30
0.0
 10
104.7812062156976
 20
-121.7563816362275
 30
0.0
 10
104.7260670504377
 20
-121.7563816362275
 30
0.0
 10
104.6709631629546
 20
-121.7563816362275
 30
0.0
 10
104.6261603863198
 20
-121.8011844139943
 30
0.0
 10
104.6261603863198
 20
-121.8562883028692
 30
0.0
 10
104.6261603863198
 20
-121.9114274695223
 30
0.0
 10
104.6709631629546
 20
-121.9561949695108
 30
0.0
 10
104.7260670504377
 20
-121.9561949695108
 30
0.0
 10
104.7812062156976
 20
-121.9561949695108
 30
0.0
 10
104.8259737145555
 20
-121.9114274695223
 30
0.0
 10
104.8259737145555
 20
-121.8562883028692
 30
0.0
  0
SPLINE
  5
6A
330
1F
100
AcDbEntity
  8
_U+30EC_U+30A4_U+30E4_U+30FC 1
 62
   179
420
  2234388
370
     9
100
AcDbSpline
210
0.0
220
0.0
230
1.0
 70
    11
 71
     3
 72
    17
 73
    13
 74
     0
 42
0.0000000001
 43
0.0000000001
 12
1.0
 22
0.0
 32
0.0
 13
1.0
 23
0.0
 33
0.0
 40
0.0
 40
0.0
 40
0.0
 40
0.0
 40
1.0
 40
1.0
 40
1.0
 40
2.0
 40
2.0
 40
2.0
 40
3.0
 40
3.0
 40
3.0
 40
4.0
 40
4.0
 40
4.0
 40
4.0
 10
93.8257984396378
 20
-126.656006357225
 30
0.0
 10
93.8257984396378
 20
-126.6009024683498
 30
0.0
 10
93.78099566300303
 20
-126.5560996905834
 30
0.0
 10
93.72589177551995
 20
-126.5560996905834
 30
0.0
 10
93.67075261026001
 20
-126.5560996905834
 30
0.0
 10
93.62598511140213
 20
-126.6009024683498
 30
0.0
 10
93.62598511140213
 20
-126.656006357225
 30
0.0
 10
93.62598511140213
 20
-126.7114630238777
 30
0.0
 10
93.67075261026001
 20
-126.7559130238667
 30
0.0
 10
93.72589177551995
 20
-126.7559130238667
 30
0.0
 10
93.78099566300303
 20
-126.7559130238667
 30
0.0
 10
93.8257984396378
 20
-126.7114630238777
 30
0.0
 10
93.8257984396378
 20
-126.656006357225
 30
0.0
  0
SPLINE
  5
6B
330
1F
100
AcDbEntity
  8
_U+30EC_U+30A4_U+30E4_U+30FC 1
 62
   179
420
  2234388
370
     9
100
AcDbSpline
210
0.0
220
0.0
230
1.0
 70
    11
 71
     3
 72
    17
 73
    13
 74
     0
 42
0.0000000001
 43
0.0000000001
 12
1.0
 22
0.0
 32
0.0
 13
1.0
 23
0.0
 33
0.0
 40
0.0
 40
0.0
 40
0.0
 40
0.0
 40
1.0
 40
1.0
 40
1.0
 40
2.0
 40
2.0
 40
2.0
 40
3.0
 40
3.0
 40
3.0
 40
4.0
 40
4.0
 40
4.0
 40
4.0
 10
93.8257984396378
 20
-132.0560110780972
 30
0.0
 10
93.8257984396378
 20
-132.0009071892223
 30
0.0
 10
93.78099566300303
 20
-131.9561044114556
 30
0.0
 10
93.72589177551995
 20
-131.9561044114556
 30
0.0
 10
93.67075261026001
 20
-131.9561044114556
 30
0.0
 10
93.62598511140213
 20
-132.0009071892223
 30
0.0
 10
93.62598511140213
 20
-132.0560110780972
 30
0.0
 10
93.62598511140213
 20
-132.1111502447503
 30
0.0
 10
93.67075261026001
 20
-132.1559177447389
 30
0.0
 10
93.72589177551995
 20
-132.1559177447389
 30
0.0
 10
93.78099566300303
 20
-132.1559177447389
 30
0.0
 10
93.8257984396378
 20
-132.1111502447503
 30
0.0
 10
93.8257984396378
 20
-132.0560110780972
 30
0.0
  0
SPLINE
  5
6C
330
1F
100
AcDbEntity
  8
_U+30EC_U+30A4_U+30E4_U+30FC 1
 62
   179
420
  2234388
370
     9
100
AcDbSpline
210
0.0
220
0.0
230
1.0
 70
    11
 71
     3
 72
    17
 73
    13
 74
     0
 42
0.0000000001
 43
0.0000000001
 12
1.0
 22
0.0
 32
0.0
 13
1.0
 23
0.0
 33
0.0
 40
0.0
 40
0.0
 40
0.0
 40
0.0
 40
1.0
 40
1.0
 40
1.0
 40
2.0
 40
2.0
 40
2.0
 40
3.0
 40
3.0
 40
3.0
 40
4.0
 40
4.0
 40
4.0
 40
4.0
 10
108.8257327791798
 20
-132.8559699667859
 30
0.0
 10
108.8257327791798
 20
-132.8008660779109
 30
0.0
 10
108.7809652803219
 20
-132.7560633001442
 30
0.0
 10
108.725826115062
 20
-132.7560633001442
 30
0.0
 10
108.6707249728322
 20
-132.7560633001442
 30
0.0
 10
108.6259221950655
 20
-132.8008660779109
 30
0.0
 10
108.6259221950655
 20
-132.8559699667859
 30
0.0
 10
108.6259221950655
 20
-132.9111091334389
 30
0.0
 10
108.6707249728322
 20
-132.9558766334275
 30
0.0
 10
108.725826115062
 20
-132.9558766334275
 30
0.0
 10
108.7809652803219
 20
-132.9558766334275
 30
0.0
 10
108.8257327791798
 20
-132.9111091334389
 30
0.0
 10
108.8257327791798
 20
-132.8559699667859
 30
0.0
  0
SPLINE
  5
6D
330
1F
100
AcDbEntity
  8
_U+30EC_U+30A4_U+30E4_U+30FC 1
 62
   179
420
  2234388
370
     9
100
AcDbSpline
210
0.0
220
0.0
230
1.0
 70
    11
 71
     3
 72
    17
 73
    13
 74
     0
 42
0.0000000001
 43
0.0000000001
 12
1.0
 22
0.0
 32
0.0
 13
1.0
 23
0.0
 33
0.0
 40
0.0
 40
0.0
 40
0.0
 40
0.0
 40
1.0
 40
1.0
 40
1.0
 40
2.0
 40
2.0
 40
2.0
 40
3.0
 40
3.0
 40
3.0
 40
4.0
 40
4.0
 40
4.0
 40
4.0
 10
108.8257327791798
 20
-125.8560474685361
 30
0.0
 10
108.8257327791798
 20
-125.8009435796608
 30
0.0
 10
108.7809652803219
 20
-125.7561408018944
 30
0.0
 10
108.725826115062
 20
-125.7561408018944
 30
0.0
 10
108.6707249728322
 20
-125.7561408018944
 30
0.0
 10
108.6259221950655
 20
-125.8009435796608
 30
0.0
 10
108.6259221950655
 20
-125.8560474685361
 30
0.0
 10
108.6259221950655
 20
-125.9111866351888
 30
0.0
 10
108.6707249728322
 20
-125.9559541351777
 30
0.0
 10
108.725826115062
 20
-125.9559541351777
 30
0.0
 10
108.7809652803219
 20
-125.9559541351777
 30
0.0
 10
108.8257327791798
 20
-125.9111866351888
 30
0.0
 10
108.8257327791798
 20
-125.8560474685361
 30
0.0
  0
POLYLINE
  5
6E
330
1F
100
AcDbEntity
  8
_U+30EC_U+30A4_U+30E4_U+30FC 1
 62
   179
420
  2234388
370
     9
100
AcDb2dPolyline
 66
     1
 10
0.0
 20
0.0
 30
0.0
  0
VERTEX
  5
6F
330
6E
100
AcDbEntity
  8
_U+30EC_U+30A4_U+30E4_U+30FC 1
 62
   179
420
  2234388
370
     9
100
AcDbVertex
100
AcDb2dVertex
 10
74.72619837135363
 20
-132.0560110780972
 30
0.0
  0
VERTEX
  5
70
330
6E
100
AcDbEntity
  8
_U+30EC_U+30A4_U+30E4_U+30FC 1
 62
   179
420
  2234388
370
     9
100
AcDbVertex
100
AcDb2dVertex
 10
74.72619837135363
 20
-126.7982816349672
 30
0.0
  0
SEQEND
  5
71
330
6E
100
AcDbEntity
  8
_U+30EC_U+30A4_U+30E4_U+30FC 1
 62
   179
420
  2234388
370
     9
  0
POLYLINE
  5
72
330
1F
100
AcDbEntity
  8
_U+30EC_U+30A4_U+30E4_U+30FC 1
 62
   179
420
  2234388
370
     9
100
AcDb2dPolyline
 66
     1
 10
0.0
 20
0.0
 30
0.0
  0
VERTEX
  5
73
330
72
100
AcDbEntity
  8
_U+30EC_U+30A4_U+30E4_U+30FC 1
 62
   179
420
  2234388
370
     9
100
AcDbVertex
100
AcDb2dVertex
 10
74.72619837135363
 20
-132.0560110780972
 30
0.0
  0
VERTEX
  5
74
330
72
100
AcDbEntity
  8
_U+30EC_U+30A4_U+30E4_U+30FC 1
 62
   179
420
  2234388
370
     9
100
AcDbVertex
100
AcDb2dVertex
 10
74.72619837135363
 20
-133.8564124665358
 30
0.0
  0
SEQEND
  5
75
330
72
100
AcDbEntity
  8
_U+30EC_U+30A4_U+30E4_U+30FC 1
 62
   179
420
  2234388
370
     9
  0
POLYLINE
  5
76
330
1F
100
AcDbEntity
  8
_U+30EC_U+30A4_U+30E4_U+30FC 1
 62
   179
420
  2234388
370
     9
100
AcDb2dPolyline
 66
     1
 10
0.0
 20
0.0
 30
0.0
  0
VERTEX
  5
77
330
76
100
AcDbEntity
  8
_U+30EC_U+30A4_U+30E4_U+30FC 1
 62
   179
420
  2234388
370
     9
100
AcDbVertex
100
AcDb2dVertex
 10
76.98616331369712
 20
-132.0560110780972
 30
0.0
  0
VERTEX
  5
78
330
76
100
AcDbEntity
  8
_U+30EC_U+30A4_U+30E4_U+30FC 1
 62
   179
420
  2234388
370
     9
100
AcDbVertex
100
AcDb2dVertex
 10
73.72607339686894
 20
-132.0560110780972
 30
0.0
  0
SEQEND
  5
79
330
76
100
AcDbEntity
  8
_U+30EC_U+30A4_U+30E4_U+30FC 1
 62
   179
420
  2234388
370
     9
  0
POLYLINE
  5
7A
330
1F
100
AcDbEntity
  8
_U+30EC_U+30A4_U+30E4_U+30FC 1
 62
   179
420
  2234388
370
     9
100
AcDb2dPolyline
 66
     1
 10
0.0
 20
0.0
 30
0.0
  0
VERTEX
  5
7B
330
7A
100
AcDbEntity
  8
_U+30EC_U+30A4_U+30E4_U+30FC 1
 62
   179
420
  2234388
370
     9
100
AcDbVertex
100
AcDb2dVertex
 10
76.18620444521689
 20
-132.8559699667859
 30
0.0
  0
VERTEX
  5
7C
330
7A
100
AcDbEntity
  8
_U+30EC_U+30A4_U+30E4_U+30FC 1
 62
   179
420
  2234388
370
     9
100
AcDbVertex
100
AcDb2dVertex
 10
73.72607339686894
 20
-132.8559699667859
 30
0.0
  0
SEQEND
  5
7D
330
7A
100
AcDbEntity
  8
_U+30EC_U+30A4_U+30E4_U+30FC 1
 62
   179
420
  2234388
370
     9
  0
INSERT
  5
7F
330
1F
100
AcDbEntity
  8
_U+30EC_U+30A4_U+30E4_U+30FC 1
100
AcDbBlockReference
  2
block 2
 10
0.0
 20
0.0
 30
0.0
  0
POLYLINE
  5
91
330
1F
100
AcDbEntity
  8
_U+30EC_U+30A4_U+30E4_U+30FC 1
 62
   179
420
  2234388
370
     9
100
AcDb2dPolyline
 66
     1
 10
0.0
 20
0.0
 30
0.0
  0
VERTEX
  5
92
330
91
100
AcDbEntity
  8
_U+30EC_U+30A4_U+30E4_U+30FC 1
 62
   179
420
  2234388
370
     9
100
AcDbVertex
100
AcDb2dVertex
 10
78.72627493596984
 20
-136.8564346880082
 30
0.0
  0
VERTEX
  5
93
330
91
100
AcDbEntity
  8
_U+30EC_U+30A4_U+30E4_U+30FC 1
 62
   179
420
  2234388
370
     9
100
AcDbVertex
100
AcDb2dVertex
 10
104.7260670504377
 20
-136.8564346880082
 30
0.0
  0
SEQEND
  5
94
330
91
100
AcDbEntity
  8
_U+30EC_U+30A4_U+30E4_U+30FC 1
 62
   179
420
  2234388
370
     9
  0
POLYLINE
  5
95
330
1F
100
AcDbEntity
  8
_U+30EC_U+30A4_U+30E4_U+30FC 1
 62
   179
420
  2234388
370
     9
100
AcDb2dPolyline
 66
     1
 10
0.0
 20
0.0
 30
0.0
  0
VERTEX
  5
96
330
95
100
AcDbEntity
  8
_U+30EC_U+30A4_U+30E4_U+30FC 1
 62
   179
420
  2234388
370
     9
100
AcDbVertex
100
AcDb2dVertex
 10
78.72627493596984
 20
-135.3963932994845
 30
0.0
  0
VERTEX
  5
97
330
95
100
AcDbEntity
  8
_U+30EC_U+30A4_U+30E4_U+30FC 1
 62
   179
420
  2234388
370
     9
100
AcDbVertex
100
AcDb2dVertex
 10
78.72627493596984
 20
-137.8561716322026
 30
0.0
  0
SEQEND
  5
98
330
95
100
AcDbEntity
  8
_U+30EC_U+30A4_U+30E4_U+30FC 1
 62
   179
420
  2234388
370
     9
  0
POLYLINE
  5
99
330
1F
100
AcDbEntity
  8
_U+30EC_U+30A4_U+30E4_U+30FC 1
 62
   179
420
  2234388
370
     9
100
AcDb2dPolyline
 66
     1
 10
0.0
 20
0.0
 30
0.0
  0
VERTEX
  5
9A
330
99
100
AcDbEntity
  8
_U+30EC_U+30A4_U+30E4_U+30FC 1
 62
   179
420
  2234388
370
     9
100
AcDbVertex
100
AcDb2dVertex
 10
104.7260670504377
 20
-134.5964344107953
 30
0.0
  0
VERTEX
  5
9B
330
99
100
AcDbEntity
  8
_U+30EC_U+30A4_U+30E4_U+30FC 1
 62
   179
420
  2234388
370
     9
100
AcDbVertex
100
AcDb2dVertex
 10
104.7260670504377
 20
-137.8561716322026
 30
0.0
  0
SEQEND
  5
9C
330
99
100
AcDbEntity
  8
_U+30EC_U+30A4_U+30E4_U+30FC 1
 62
   179
420
  2234388
370
     9
  0
INSERT
  5
9E
330
1F
100
AcDbEntity
  8
_U+30EC_U+30A4_U+30E4_U+30FC 1
100
AcDbBlockReference
  2
block 3
 10
0.0
 20
0.0
 30
0.0
  0
POLYLINE
  5
A6
330
1F
100
AcDbEntity
  8
_U+30EC_U+30A4_U+30E4_U+30FC 1
 62
   179
420
  2234388
370
     9
100
AcDb2dPolyline
 66
     1
 10
0.0
 20
0.0
 30
0.0
  0
VERTEX
  5
A7
330
A6
100
AcDbEntity
  8
_U+30EC_U+30A4_U+30E4_U+30FC 1
 62
   179
420
  2234388
370
     9
100
AcDbVertex
100
AcDb2dVertex
 10
97.72632111790494
 20
-121.8562883028692
 30
0.0
  0
VERTEX
  5
A8
330
A6
100
AcDbEntity
  8
_U+30EC_U+30A4_U+30E4_U+30FC 1
 62
   179
420
  2234388
370
     9
100
AcDbVertex
100
AcDb2dVertex
 10
104.7260670504377
 20
-121.8562883028692
 30
0.0
  0
SEQEND
  5
A9
330
A6
100
AcDbEntity
  8
_U+30EC_U+30A4_U+30E4_U+30FC 1
 62
   179
420
  2234388
370
     9
  0
POLYLINE
  5
AA
330
1F
100
AcDbEntity
  8
_U+30EC_U+30A4_U+30E4_U+30FC 1
 62
   179
420
  2234388
370
     9
100
AcDb2dPolyline
 66
     1
 10
0.0
 20
0.0
 30
0.0
  0
VERTEX
  5
AB
330
AA
100
AcDbEntity
  8
_U+30EC_U+30A4_U+30E4_U+30FC 1
 62
   179
420
  2234388
370
     9
100
AcDbVertex
100
AcDb2dVertex
 10
97.72632111790494
 20
-123.3163296913932
 30
0.0
  0
VERTEX
  5
AC
330
AA
100
AcDbEntity
  8
_U+30EC_U+30A4_U+30E4_U+30FC 1
 62
   179
420
  2234388
370
     9
100
AcDbVertex
100
AcDb2dVertex
 10
97.72632111790494
 20
-120.856198580897
 30
0.0
  0
SEQEND
  5
AD
330
AA
100
AcDbEntity
  8
_U+30EC_U+30A4_U+30E4_U+30FC 1
 62
   179
420
  2234388
370
     9
  0
POLYLINE
  5
AE
330
1F
100
AcDbEntity
  8
_U+30EC_U+30A4_U+30E4_U+30FC 1
 62
   179
420
  2234388
370
     9
100
AcDb2dPolyline
 66
     1
 10
0.0
 20
0.0
 30
0.0
  0
VERTEX
  5
AF
330
AE
100
AcDbEntity
  8
_U+30EC_U+30A4_U+30E4_U+30FC 1
 62
   179
420
  2234388
370
     9
100
AcDbVertex
100
AcDb2dVertex
 10
104.7260670504377
 20
-124.1162885800822
 30
0.0
  0
VERTEX
  5
B0
330
AE
100
AcDbEntity
  8
_U+30EC_U+30A4_U+30E4_U+30FC 1
 62
   179
420
  2234388
370
     9
100
AcDbVertex
100
AcDb2dVertex
 10
104.7260670504377
 20
-120.856198580897
 30
0.0
  0
SEQEND
  5
B1
330
AE
100
AcDbEntity
  8
_U+30EC_U+30A4_U+30E4_U+30FC 1
 62
   179
420
  2234388
370
     9
  0
INSERT
  5
B3
330
1F
100
AcDbEntity
  8
_U+30EC_U+30A4_U+30E4_U+30FC 1
100
AcDbBlockReference
  2
block 4
 10
0.0
 20
0.0
 30
0.0
  0
POLYLINE
  5
B8
330
1F
100
AcDbEntity
  8
_U+30EC_U+30A4_U+30E4_U+30FC 1
 62
   179
420
  2234388
370
     9
100
AcDb2dPolyline
 66
     1
 10
0.0
 20
0.0
 30
0.0
  0
VERTEX
  5
B9
330
B8
100
AcDbEntity
  8
_U+30EC_U+30A4_U+30E4_U+30FC 1
 62
   179
420
  2234388
370
     9
100
AcDbVertex
100
AcDb2dVertex
 10
93.72589177551995
 20
-132.0560110780972
 30
0.0
  0
VERTEX
  5
BA
330
B8
100
AcDbEntity
  8
_U+30EC_U+30A4_U+30E4_U+30FC 1
 62
   179
420
  2234388
370
     9
100
AcDbVertex
100
AcDb2dVertex
 10
93.72589177551995
 20
-126.656006357225
 30
0.0
  0
SEQEND
  5
BB
330
B8
100
AcDbEntity
  8
_U+30EC_U+30A4_U+30E4_U+30FC 1
 62
   179
420
  2234388
370
     9
  0
POLYLINE
  5
BC
330
1F
100
AcDbEntity
  8
_U+30EC_U+30A4_U+30E4_U+30FC 1
 62
   179
420
  2234388
370
     9
100
AcDb2dPolyline
 66
     1
 10
0.0
 20
0.0
 30
0.0
  0
VERTEX
  5
BD
330
BC
100
AcDbEntity
  8
_U+30EC_U+30A4_U+30E4_U+30FC 1
 62
   179
420
  2234388
370
     9
100
AcDbVertex
100
AcDb2dVertex
 10
95.18593312716008
 20
-126.656006357225
 30
0.0
  0
VERTEX
  5
BE
330
BC
100
AcDbEntity
  8
_U+30EC_U+30A4_U+30E4_U+30FC 1
 62
   179
420
  2234388
370
     9
100
AcDbVertex
100
AcDb2dVertex
 10
92.72611957880405
 20
-126.656006357225
 30
0.0
  0
SEQEND
  5
BF
330
BC
100
AcDbEntity
  8
_U+30EC_U+30A4_U+30E4_U+30FC 1
 62
   179
420
  2234388
370
     9
  0
INSERT
  5
C1
330
1F
100
AcDbEntity
  8
_U+30EC_U+30A4_U+30E4_U+30FC 1
100
AcDbBlockReference
  2
block 5
 10
0.0
 20
0.0
 30
0.0
  0
POLYLINE
  5
E3
330
1F
100
AcDbEntity
  8
_U+30EC_U+30A4_U+30E4_U+30FC 1
 62
   179
420
  2234388
370
     9
100
AcDb2dPolyline
 66
     1
 10
0.0
 20
0.0
 30
0.0
  0
VERTEX
  5
E4
330
E3
100
AcDbEntity
  8
_U+30EC_U+30A4_U+30E4_U+30FC 1
 62
   179
420
  2234388
370
     9
100
AcDbVertex
100
AcDb2dVertex
 10
108.725826115062
 20
-132.8559699667859
 30
0.0
  0
VERTEX
  5
E5
330
E3
100
AcDbEntity
  8
_U+30EC_U+30A4_U+30E4_U+30FC 1
 62
   179
420
  2234388
370
     9
100
AcDbVertex
100
AcDb2dVertex
 10
108.725826115062
 20
-125.8560474685361
 30
0.0
  0
SEQEND
  5
E6
330
E3
100
AcDbEntity
  8
_U+30EC_U+30A4_U+30E4_U+30FC 1
 62
   179
420
  2234388
370
     9
  0
POLYLINE
  5
E7
330
1F
100
AcDbEntity
  8
_U+30EC_U+30A4_U+30E4_U+30FC 1
 62
   179
420
  2234388
370
     9
100
AcDb2dPolyline
 66
     1
 10
0.0
 20
0.0
 30
0.0
  0
VERTEX
  5
E8
330
E7
100
AcDbEntity
  8
_U+30EC_U+30A4_U+30E4_U+30FC 1
 62
   179
420
  2234388
370
     9
100
AcDbVertex
100
AcDb2dVertex
 10
106.4658638622723
 20
-132.8559699667859
 30
0.0
  0
VERTEX
  5
E9
330
E7
100
AcDbEntity
  8
_U+30EC_U+30A4_U+30E4_U+30FC 1
 62
   179
420
  2234388
370
     9
100
AcDbVertex
100
AcDb2dVertex
 10
109.7263038673154
 20
-132.8559699667859
 30
0.0
  0
SEQEND
  5
EA
330
E7
100
AcDbEntity
  8
_U+30EC_U+30A4_U+30E4_U+30FC 1
 62
   179
420
  2234388
370
     9
  0
POLYLINE
  5
EB
330
1F
100
AcDbEntity
  8
_U+30EC_U+30A4_U+30E4_U+30FC 1
 62
   179
420
  2234388
370
     9
100
AcDb2dPolyline
 66
     1
 10
0.0
 20
0.0
 30
0.0
  0
VERTEX
  5
EC
330
EB
100
AcDbEntity
  8
_U+30EC_U+30A4_U+30E4_U+30FC 1
 62
   179
420
  2234388
370
     9
100
AcDbVertex
100
AcDb2dVertex
 10
106.4658638622723
 20
-125.8560474685361
 30
0.0
  0
VERTEX
  5
ED
330
EB
100
AcDbEntity
  8
_U+30EC_U+30A4_U+30E4_U+30FC 1
 62
   179
420
  2234388
370
     9
100
AcDbVertex
100
AcDb2dVertex
 10
109.7263038673154
 20
-125.8560474685361
 30
0.0
  0
SEQEND
  5
EE
330
EB
100
AcDbEntity
  8
_U+30EC_U+30A4_U+30E4_U+30FC 1
 62
   179
420
  2234388
370
     9
  0
INSERT
  5
F0
330
1F
100
AcDbEntity
  8
_U+30EC_U+30A4_U+30E4_U+30FC 1
100
AcDbBlockReference
  2
block 6
 10
0.0
 20
0.0
 30
0.0
  0
ENDSEC
  0
SECTION
  2
OBJECTS
  0
DICTIONARY
  5
C
330
0
100
AcDbDictionary
281
     1
  3
ACAD_GROUP
350
D
  3
ACAD_LAYOUT
350
1A
  3
ACAD_MATERIAL
350
3B
  3
ACAD_MLEADERSTYLE
350
F6
  3
ACAD_MLINESTYLE
350
17
  3
ACAD_PLOTSETTINGS
350
19
  3
ACAD_PLOTSTYLENAME
350
E
  3
ACAD_TABLESTYLE
350
F5
  3
ACAD_VISUALSTYLE
350
2A
  0
SUN
  5
3F
330
29
100
AcDbSun
 90
        1
290
     0
 63
     7
421
 16777215
 40
1.0
291
     1
 91
  2455826
 92
 54000000
292
     0
 70
     2
 71
   256
280
     1
  0
DICTIONARY
  5
D
102
{ACAD_REACTORS
330
C
102
}
330
C
100
AcDbDictionary
281
     1
  0
DICTIONARY
  5
1A
102
{ACAD_REACTORS
330
C
102
}
330
C
100
AcDbDictionary
281
     1
  3
Layout1
350
1E
  3
Layout2
350
26
  3
Model
350
22
  0
DICTIONARY
  5
3B
102
{ACAD_REACTORS
330
C
102
}
330
C
100
AcDbDictionary
281
     1
  3
ByBlock
350
3D
  3
ByLayer
350
3C
  3
Global
350
3E
  0
DICTIONARY
  5
F6
102
{ACAD_REACTORS
330
C
102
}
330
C
100
AcDbDictionary
281
     1
  0
DICTIONARY
  5
17
102
{ACAD_REACTORS
330
C
102
}
330
C
100
AcDbDictionary
281
     1
  3
Standard
350
18
  0
DICTIONARY
  5
19
102
{ACAD_REACTORS
330
C
102
}
330
C
100
AcDbDictionary
281
     1
  0
ACDBDICTIONARYWDFLT
  5
E
102
{ACAD_REACTORS
330
C
102
}
330
C
100
AcDbDictionary
281
     1
  3
Normal
350
F
100
AcDbDictionaryWithDefault
340
F
  0
DICTIONARY
  5
F5
102
{ACAD_REACTORS
330
C
102
}
330
C
100
AcDbDictionary
281
     1
  0
DICTIONARY
  5
2A
102
{ACAD_REACTORS
330
C
102
}
330
C
100
AcDbDictionary
281
     1
  3
2dWireframe
350
2F
  3
3D Hidden
350
31
  3
3dWireframe
350
30
  3
Basic
350
32
  3
Brighten
350
36
  3
ColorChange
350
3A
  3
Conceptual
350
34
  3
Dim
350
35
  3
Facepattern
350
39
  3
Flat
350
2B
  3
FlatWithEdges
350
2C
  3
Gouraud
350
2D
  3
GouraudWithEdges
350
2E
  3
Linepattern
350
38
  3
Realistic
350
33
  3
Thicken
350
37
  0
LAYOUT
  5
1E
102
{ACAD_REACTORS
330
1A
102
}
330
1A
100
AcDbPlotSettings
  1

  2
none_device
  4

  6

 40
0.0
 41
0.0
 42
0.0
 43
0.0
 44
0.0
 45
0.0
 46
0.0
 47
0.0
 48
0.0
 49
0.0
140
0.0
141
0.0
142
1.0
143
1.0
 70
   688
 72
     0
 73
     0
 74
     5
  7

 75
    16
 76
     0
 77
     2
 78
   300
147
1.0
148
0.0
149
0.0
100
AcDbLayout
  1
Layout1
 70
     1
 71
     1
 10
0.0
 20
0.0
 11
12.0
 21
9.0
 12
0.0
 22
0.0
 32
0.0
 14
1.000000000000000E+20
 24
1.000000000000000E+20
 34
1.000000000000000E+20
 15
-1.000000000000000E+20
 25
-1.000000000000000E+20
 35
-1.000000000000000E+20
146
0.0
 13
0.0
 23
0.0
 33
0.0
 16
1.0
 26
0.0
 36
0.0
 17
0.0
 27
1.0
 37
0.0
 76
     0
330
1B
  0
LAYOUT
  5
26
102
{ACAD_REACTORS
330
1A
102
}
330
1A
100
AcDbPlotSettings
  1

  2
none_device
  4

  6

 40
0.0
 41
0.0
 42
0.0
 43
0.0
 44
0.0
 45
0.0
 46
0.0
 47
0.0
 48
0.0
 49
0.0
140
0.0
141
0.0
142
1.0
143
1.0
 70
   688
 72
     0
 73
     0
 74
     5
  7

 75
    16
 76
     0
 77
     2
 78
   300
147
1.0
148
0.0
149
0.0
100
AcDbLayout
  1
Layout2
 70
     1
 71
     2
 10
0.0
 20
0.0
 11
0.0
 21
0.0
 12
0.0
 22
0.0
 32
0.0
 14
0.0
 24
0.0
 34
0.0
 15
0.0
 25
0.0
 35
0.0
146
0.0
 13
0.0
 23
0.0
 33
0.0
 16
1.0
 26
0.0
 36
0.0
 17
0.0
 27
1.0
 37
0.0
 76
     0
330
23
  0
LAYOUT
  5
22
102
{ACAD_REACTORS
330
1A
102
}
330
1A
100
AcDbPlotSettings
  1

  2
none_device
  4

  6

 40
0.0
 41
0.0
 42
0.0
 43
0.0
 44
0.0
 45
0.0
 46
0.0
 47
0.0
 48
0.0
 49
0.0
140
0.0
141
0.0
142
1.0
143
1.0
 70
  1712
 72
     0
 73
     0
 74
     0
  7

 75
     0
 76
     0
 77
     2
 78
   300
147
1.0
148
0.0
149
0.0
100
AcDbLayout
  1
Model
 70
     1
 71
     0
 10
0.0
 20
0.0
 11
12.0
 21
9.0
 12
0.0
 22
0.0
 32
0.0
 14
1.000000000000000E+20
 24
1.000000000000000E+20
 34
1.000000000000000E+20
 15
-1.000000000000000E+20
 25
-1.000000000000000E+20
 35
-1.000000000000000E+20
146
0.0
 13
0.0
 23
0.0
 33
0.0
 16
1.0
 26
0.0
 36
0.0
 17
0.0
 27
1.0
 37
0.0
 76
     0
330
1F
331
29
  0
MATERIAL
  5
3D
102
{ACAD_REACTORS
330
3B
102
}
330
3B
100
AcDbMaterial
  1
ByBlock
 72
     1
 94
      127
  0
MATERIAL
  5
3C
102
{ACAD_REACTORS
330
3B
102
}
330
3B
100
AcDbMaterial
  1
ByLayer
 72
     1
 94
      127
  0
MATERIAL
  5
3E
102
{ACAD_REACTORS
330
3B
102
}
330
3B
100
AcDbMaterial
  1
Global
 72
     1
 94
      127
  0
MLINESTYLE
  5
18
102
{ACAD_REACTORS
330
17
102
}
330
17
100
AcDbMlineStyle
  2
Standard
 70
     0
  3

 62
   256
 51
90.0
 52
90.0
 71
     2
 49
0.5
 62
   256
  6
BYLAYER
 49
-0.5
 62
   256
  6
BYLAYER
  0
ACDBPLACEHOLDER
  5
F
102
{ACAD_REACTORS
330
E
102
}
330
E
  0
VISUALSTYLE
  5
2F
102
{ACAD_REACTORS
330
2A
102
}
330
2A
100
AcDbVisualStyle
  2
2dWireframe
 70
     4
177
     2
291
     0
 71
     0
176
     1
 72
     2
176
     1
 73
     0
176
     1
 90
        0
176
     1
 40
-0.6
176
     1
 41
-30.0
176
     1
 62
     5
 63
     7
421
 16777215
176
     1
 74
     1
176
     1
 91
        4
176
     1
 64
     7
176
     1
 65
   257
176
     1
 75
     1
176
     1
175
     1
176
     1
 42
1.0
176
     1
 92
        0
176
     1
 66
   257
176
     1
 43
1.0
176
     1
 76
     1
176
     1
 77
     6
176
     1
 78
     2
176
     1
 67
     7
176
     1
 79
     5
176
     1
170
     0
176
     1
171
     0
176
     1
290
     0
176
     1
 93
        1
176
     1
 44
0.0
176
     1
173
     0
176
     1
  0
VISUALSTYLE
  5
31
102
{ACAD_REACTORS
330
2A
102
}
330
2A
100
AcDbVisualStyle
  2
3D Hidden
 70
     6
177
     2
291
     0
 71
     1
176
     1
 72
     2
176
     1
 73
     2
176
     1
 90
        0
176
     1
 40
-0.6
176
     1
 41
-30.0
176
     1
 62
     5
 63
     7
421
 16777215
176
     1
 74
     2
176
     1
 91
        2
176
     1
 64
     7
176
     1
 65
   257
176
     1
 75
     2
176
     1
175
     1
176
     1
 42
40.0
176
     1
 92
        0
176
     1
 66
   257
176
     1
 43
1.0
176
     1
 76
     1
176
     1
 77
     6
176
     1
 78
     2
176
     1
 67
     7
176
     1
 79
     3
176
     1
170
     0
176
     1
171
     0
176
     1
290
     0
176
     1
 93
        1
176
     1
 44
0.0
176
     1
173
     0
176
     1
  0
VISUALSTYLE
  5
30
102
{ACAD_REACTORS
330
2A
102
}
330
2A
100
AcDbVisualStyle
  2
3dWireframe
 70
     5
177
     2
291
     0
 71
     0
176
     1
 72
     2
176
     1
 73
     0
176
     1
 90
        0
176
     1
 40
-0.6
176
     1
 41
-30.0
176
     1
 62
     5
 63
     7
421
 16777215
176
     1
 74
     1
176
     1
 91
        4
176
     1
 64
     7
176
     1
 65
   257
176
     1
 75
     1
176
     1
175
     1
176
     1
 42
1.0
176
     1
 92
        0
176
     1
 66
   257
176
     1
 43
1.0
176
     1
 76
     1
176
     1
 77
     6
176
     1
 78
     2
176
     1
 67
     7
176
     1
 79
     5
176
     1
170
     0
176
     1
171
     0
176
     1
290
     0
176
     1
 93
        1
176
     1
 44
0.0
176
     1
173
     0
176
     1
  0
VISUALSTYLE
  5
32
102
{ACAD_REACTORS
330
2A
102
}
330
2A
100
AcDbVisualStyle
  2
Basic
 70
     7
177
     2
291
     1
 71
     1
176
     1
 72
     0
176
     1
 73
     1
176
     1
 90
        0
176
     1
 40
-0.6
176
     1
 41
-30.0
176
     1
 62
     5
 63
     7
421
 16777215
176
     1
 74
     0
176
     1
 91
        4
176
     1
 64
     7
176
     1
 65
   257
176
     1
 75
     1
176
     1
175
     1
176
     1
 42
1.0
176
     1
 92
        8
176
     1
 66
     7
176
     1
 43
1.0
176
     1
 76
     1
176
     1
 77
     6
176
     1
 78
     2
176
     1
 67
     7
176
     1
 79
     5
176
     1
170
     0
176
     1
171
     0
176
     1
290
     0
176
     1
 93
        1
176
     1
 44
0.0
176
     1
173
     0
176
     1
  0
VISUALSTYLE
  5
36
102
{ACAD_REACTORS
330
2A
102
}
330
2A
100
AcDbVisualStyle
  2
Brighten
 70
    12
177
     2
291
     1
 71
     2
176
     1
 72
     2
176
     1
 73
     0
176
     1
 90
        0
176
     1
 40
-0.6
176
     1
 41
-30.0
176
     1
 62
     5
 63
     7
421
 16777215
176
     1
 74
     1
176
     1
 91
        4
176
     1
 64
     7
176
     1
 65
   257
176
     1
 75
     1
176
     1
175
     1
176
     1
 42
1.0
176
     1
 92
        8
176
     1
 66
     7
176
     1
 43
1.0
176
     1
 76
     1
176
     1
 77
     6
176
     1
 78
     2
176
     1
 67
     7
176
     1
 79
     5
176
     1
170
     0
176
     1
171
     0
176
     1
290
     0
176
     1
 93
        1
176
     1
 44
50.0
176
     1
173
     0
176
     1
  0
VISUALSTYLE
  5
3A
102
{ACAD_REACTORS
330
2A
102
}
330
2A
100
AcDbVisualStyle
  2
ColorChange
 70
    16
177
     2
291
     1
 71
     2
176
     1
 72
     2
176
     1
 73
     3
176
     1
 90
        0
176
     1
 40
-0.6
176
     1
 41
-30.0
176
     1
 62
     5
 63
     8
421
  8421504
176
     1
 74
     1
176
     1
 91
        4
176
     1
 64
     7
176
     1
 65
   257
176
     1
 75
     1
176
     1
175
     1
176
     1
 42
1.0
176
     1
 92
        8
176
     1
 66
     8
424
  8421504
176
     1
 43
1.0
176
     1
 76
     1
176
     1
 77
     6
176
     1
 78
     2
176
     1
 67
     7
176
     1
 79
     5
176
     1
170
     0
176
     1
171
     0
176
     1
290
     0
176
     1
 93
        1
176
     1
 44
0.0
176
     1
173
     0
176
     1
  0
VISUALSTYLE
  5
34
102
{ACAD_REACTORS
330
2A
102
}
330
2A
100
AcDbVisualStyle
  2
Conceptual
 70
     9
177
     2
291
     0
 71
     3
176
     1
 72
     2
176
     1
 73
     0
176
     1
 90
        0
176
     1
 40
-0.6
176
     1
 41
-30.0
176
     1
 62
     5
 63
     7
421
 16777215
176
     1
 74
     2
176
     1
 91
        2
176
     1
 64
     7
176
     1
 65
   257
176
     1
 75
     1
176
     1
175
     1
176
     1
 42
40.0
176
     1
 92
        8
176
     1
 66
     7
176
     1
 43
1.0
176
     1
 76
     1
176
     1
 77
     6
176
     1
 78
     2
176
     1
 67
     7
176
     1
 79
     3
176
     1
170
     0
176
     1
171
     0
176
     1
290
     0
176
     1
 93
        1
176
     1
 44
0.0
176
     1
173
     0
176
     1
  0
VISUALSTYLE
  5
35
102
{ACAD_REACTORS
330
2A
102
}
330
2A
100
AcDbVisualStyle
  2
Dim
 70
    11
177
     2
291
     1
 71
     2
176
     1
 72
     2
176
     1
 73
     0
176
     1
 90
        0
176
     1
 40
-0.6
176
     1
 41
-30.0
176
     1
 62
     5
 63
     7
421
 16777215
176
     1
 74
     1
176
     1
 91
        4
176
     1
 64
     7
176
     1
 65
   257
176
     1
 75
     1
176
     1
175
     1
176
     1
 42
1.0
176
     1
 92
        8
176
     1
 66
     7
176
     1
 43
1.0
176
     1
 76
     1
176
     1
 77
     6
176
     1
 78
     2
176
     1
 67
     7
176
     1
 79
     5
176
     1
170
     0
176
     1
171
     0
176
     1
290
     0
176
     1
 93
        1
176
     1
 44
-50.0
176
     1
173
     0
176
     1
  0
VISUALSTYLE
  5
39
102
{ACAD_REACTORS
330
2A
102
}
330
2A
100
AcDbVisualStyle
  2
Facepattern
 70
    15
177
     2
291
     1
 71
     2
176
     1
 72
     2
176
     1
 73
     0
176
     1
 90
        0
176
     1
 40
-0.6
176
     1
 41
-30.0
176
     1
 62
     5
 63
     7
421
 16777215
176
     1
 74
     1
176
     1
 91
        4
176
     1
 64
     7
176
     1
 65
   257
176
     1
 75
     1
176
     1
175
     1
176
     1
 42
1.0
176
     1
 92
        8
176
     1
 66
     7
176
     1
 43
1.0
176
     1
 76
     1
176
     1
 77
     6
176
     1
 78
     2
176
     1
 67
     7
176
     1
 79
     5
176
     1
170
     0
176
     1
171
     0
176
     1
290
     0
176
     1
 93
        1
176
     1
 44
0.0
176
     1
173
     0
176
     1
  0
VISUALSTYLE
  5
2B
102
{ACAD_REACTORS
330
2A
102
}
330
2A
100
AcDbVisualStyle
  2
Flat
 70
     0
177
     2
291
     1
 71
     2
176
     1
 72
     1
176
     1
 73
     1
176
     1
 90
        2
176
     1
 40
-0.6
176
     1
 41
30.0
176
     1
 62
     5
 63
     7
421
 16777215
176
     1
 74
     0
176
     1
 91
        4
176
     1
 64
     7
176
     1
 65
   257
176
     1
 75
     1
176
     1
175
     1
176
     1
 42
1.0
176
     1
 92
        8
176
     1
 66
     7
176
     1
 43
1.0
176
     1
 76
     1
176
     1
 77
     6
176
     1
 78
     2
176
     1
 67
     7
176
     1
 79
     5
176
     1
170
     0
176
     1
171
     0
176
     1
290
     0
176
     1
 93
       13
176
     1
 44
0.0
176
     1
173
     0
176
     1
  0
VISUALSTYLE
  5
2C
102
{ACAD_REACTORS
330
2A
102
}
330
2A
100
AcDbVisualStyle
  2
FlatWithEdges
 70
     1
177
     2
291
     1
 71
     2
176
     1
 72
     1
176
     1
 73
     1
176
     1
 90
        2
176
     1
 40
-0.6
176
     1
 41
30.0
176
     1
 62
     5
 63
     7
421
 16777215
176
     1
 74
     1
176
     1
 91
        4
176
     1
 64
     7
176
     1
 65
   257
176
     1
 75
     1
176
     1
175
     1
176
     1
 42
1.0
176
     1
 92
        0
176
     1
 66
   257
176
     1
 43
1.0
176
     1
 76
     1
176
     1
 77
     6
176
     1
 78
     2
176
     1
 67
     7
176
     1
 79
     5
176
     1
170
     0
176
     1
171
     0
176
     1
290
     0
176
     1
 93
       13
176
     1
 44
0.0
176
     1
173
     0
176
     1
  0
VISUALSTYLE
  5
2D
102
{ACAD_REACTORS
330
2A
102
}
330
2A
100
AcDbVisualStyle
  2
Gouraud
 70
     2
177
     2
291
     1
 71
     2
176
     1
 72
     2
176
     1
 73
     1
176
     1
 90
        2
176
     1
 40
-0.6
176
     1
 41
30.0
176
     1
 62
     5
 63
     7
421
 16777215
176
     1
 74
     0
176
     1
 91
        4
176
     1
 64
     7
176
     1
 65
   257
176
     1
 75
     1
176
     1
175
     1
176
     1
 42
1.0
176
     1
 92
        0
176
     1
 66
     7
176
     1
 43
1.0
176
     1
 76
     1
176
     1
 77
     6
176
     1
 78
     2
176
     1
 67
     7
176
     1
 79
     5
176
     1
170
     0
176
     1
171
     0
176
     1
290
     0
176
     1
 93
       13
176
     1
 44
0.0
176
     1
173
     0
176
     1
  0
VISUALSTYLE
  5
2E
102
{ACAD_REACTORS
330
2A
102
}
330
2A
100
AcDbVisualStyle
  2
GouraudWithEdges
 70
     3
177
     2
291
     1
 71
     2
176
     1
 72
     2
176
     1
 73
     1
176
     1
 90
        2
176
     1
 40
-0.6
176
     1
 41
30.0
176
     1
 62
     5
 63
     7
421
 16777215
176
     1
 74
     1
176
     1
 91
        4
176
     1
 64
     7
176
     1
 65
   257
176
     1
 75
     1
176
     1
175
     1
176
     1
 42
1.0
176
     1
 92
        0
176
     1
 66
   257
176
     1
 43
1.0
176
     1
 76
     1
176
     1
 77
     6
176
     1
 78
     2
176
     1
 67
     7
176
     1
 79
     5
176
     1
170
     0
176
     1
171
     0
176
     1
290
     0
176
     1
 93
       13
176
     1
 44
0.0
176
     1
173
     0
176
     1
  0
VISUALSTYLE
  5
38
102
{ACAD_REACTORS
330
2A
102
}
330
2A
100
AcDbVisualStyle
  2
Linepattern
 70
    14
177
     2
291
     1
 71
     2
176
     1
 72
     2
176
     1
 73
     0
176
     1
 90
        0
176
     1
 40
-0.6
176
     1
 41
-30.0
176
     1
 62
     5
 63
     7
421
 16777215
176
     1
 74
     1
176
     1
 91
        4
176
     1
 64
     7
176
     1
 65
   257
176
     1
 75
     7
176
     1
175
     7
176
     1
 42
1.0
176
     1
 92
        8
176
     1
 66
     7
176
     1
 43
1.0
176
     1
 76
     1
176
     1
 77
     6
176
     1
 78
     2
176
     1
 67
     7
176
     1
 79
     5
176
     1
170
     0
176
     1
171
     0
176
     1
290
     0
176
     1
 93
        1
176
     1
 44
0.0
176
     1
173
     0
176
     1
  0
VISUALSTYLE
  5
33
102
{ACAD_REACTORS
330
2A
102
}
330
2A
100
AcDbVisualStyle
  2
Realistic
 70
     8
177
     2
291
     0
 71
     2
176
     1
 72
     2
176
     1
 73
     0
176
     1
 90
        0
176
     1
 40
-0.6
176
     1
 41
-30.0
176
     1
 62
     5
 63
     7
421
 16777215
176
     1
 74
     1
176
     1
 91
        0
176
     1
 64
     7
176
     1
 65
   257
176
     1
 75
     1
176
     1
175
     1
176
     1
 42
1.0
176
     1
 92
        8
176
     1
 66
     8
424
  7895160
176
     1
 43
1.0
176
     1
 76
     1
176
     1
 77
     6
176
     1
 78
     2
176
     1
 67
     7
176
     1
 79
     5
176
     1
170
     0
176
     1
171
     0
176
     1
290
     0
176
     1
 93
       13
176
     1
 44
0.0
176
     1
173
     0
176
     1
  0
VISUALSTYLE
  5
37
102
{ACAD_REACTORS
330
2A
102
}
330
2A
100
AcDbVisualStyle
  2
Thicken
 70
    13
177
     2
291
     1
 71
     2
176
     1
 72
     2
176
     1
 73
     0
176
     1
 90
        0
176
     1
 40
-0.6
176
     1
 41
-30.0
176
     1
 62
     5
 63
     7
421
 16777215
176
     1
 74
     1
176
     1
 91
        4
176
     1
 64
     7
176
     1
 65
   257
176
     1
 75
     1
176
     1
175
     1
176
     1
 42
1.0
176
     1
 92
       12
176
     1
 66
     7
176
     1
 43
1.0
176
     1
 76
     1
176
     1
 77
     6
176
     1
 78
     2
176
     1
 67
     7
176
     1
 79
     5
176
     1
170
     0
176
     1
171
     0
176
     1
290
     0
176
     1
 93
        1
176
     1
 44
0.0
176
     1
173
     0
176
     1
  0
ENDSEC
  0
EOF
