  0
SECTION
  2
HEADER
  9
$ACADVER
  1
AC1024
  9
$ACADMAINTVER
 70
     6
  9
$DWGCODEPAGE
  3
UNDEFINED
  9
$INSBASE
 10
0.0
 20
0.0
 30
0.0
  9
$EXTMIN
 10
1.000000000000000E+20
 20
1.000000000000000E+20
 30
1.000000000000000E+20
  9
$EXTMAX
 10
-1.000000000000000E+20
 20
-1.000000000000000E+20
 30
-1.000000000000000E+20
  9
$LIMMIN
 10
0.0
 20
0.0
  9
$LIMMAX
 10
12.0
 20
9.0
  9
$ORTHOMODE
 70
     0
  9
$REGENMODE
 70
     1
  9
$FILLMODE
 70
     1
  9
$QTEXTMODE
 70
     0
  9
$MIRRTEXT
 70
     1
  9
$LTSCALE
 40
1.0
  9
$ATTMODE
 70
     1
  9
$TEXTSIZE
 40
0.2
  9
$TRACEWID
 40
0.05
  9
$TEXTSTYLE
  7
Standard
  9
$CLAYER
  8
0
  9
$CELTYPE
  6
ByLayer
  9
$CECOLOR
 62
   256
  9
$CELTSCALE
 40
1.0
  9
$DISPSILH
 70
     0
  9
$DIMSCALE
 40
1.0
  9
$DIMASZ
 40
0.18
  9
$DIMEXO
 40
0.0625
  9
$DIMDLI
 40
0.38
  9
$DIMRND
 40
0.0
  9
$DIMDLE
 40
0.0
  9
$DIMEXE
 40
0.18
  9
$DIMTP
 40
0.0
  9
$DIMTM
 40
0.0
  9
$DIMTXT
 40
0.18
  9
$DIMCEN
 40
0.09
  9
$DIMTSZ
 40
0.0
  9
$DIMTOL
 70
     0
  9
$DIMLIM
 70
     0
  9
$DIMTIH
 70
     1
  9
$DIMTOH
 70
     1
  9
$DIMSE1
 70
     0
  9
$DIMSE2
 70
     0
  9
$DIMTAD
 70
     0
  9
$DIMZIN
 70
     0
  9
$DIMBLK
  1

  9
$DIMASO
 70
     1
  9
$DIMSHO
 70
     1
  9
$DIMPOST
  1

  9
$DIMAPOST
  1

  9
$DIMALT
 70
     0
  9
$DIMALTD
 70
     2
  9
$DIMALTF
 40
25.4
  9
$DIMLFAC
 40
1.0
  9
$DIMTOFL
 70
     0
  9
$DIMTVP
 40
0.0
  9
$DIMTIX
 70
     0
  9
$DIMSOXD
 70
     0
  9
$DIMSAH
 70
     0
  9
$DIMBLK1
  1

  9
$DIMBLK2
  1

  9
$DIMSTYLE
  2
Standard
  9
$DIMCLRD
 70
     0
  9
$DIMCLRE
 70
     0
  9
$DIMCLRT
 70
     0
  9
$DIMTFAC
 40
1.0
  9
$DIMGAP
 40
0.09
  9
$DIMJUST
 70
     0
  9
$DIMSD1
 70
     0
  9
$DIMSD2
 70
     0
  9
$DIMTOLJ
 70
     1
  9
$DIMTZIN
 70
     0
  9
$DIMALTZ
 70
     0
  9
$DIMALTTZ
 70
     0
  9
$DIMUPT
 70
     0
  9
$DIMDEC
 70
     4
  9
$DIMTDEC
 70
     4
  9
$DIMALTU
 70
     2
  9
$DIMALTTD
 70
     2
  9
$DIMTXSTY
  7
Standard
  9
$DIMAUNIT
 70
     0
  9
$DIMADEC
 70
     0
  9
$DIMALTRND
 40
0.0
  9
$DIMAZIN
 70
     0
  9
$DIMDSEP
 70
    46
  9
$DIMATFIT
 70
     3
  9
$DIMFRAC
 70
     0
  9
$DIMLDRBLK
  1

  9
$DIMLUNIT
 70
     2
  9
$DIMLWD
 70
    -2
  9
$DIMLWE
 70
    -2
  9
$DIMTMOVE
 70
     0
  9
$DIMFXL
 40
1.0
  9
$DIMFXLON
 70
     0
  9
$DIMJOGANG
 40
0.7853981633974483
  9
$DIMTFILL
 70
     0
  9
$DIMTFILLCLR
 70
     0
  9
$DIMARCSYM
 70
     0
  9
$DIMLTYPE
  6

  9
$DIMLTEX1
  6

  9
$DIMLTEX2
  6

  9
$DIMTXTDIRECTION
 70
     0
  9
$LUNITS
 70
     2
  9
$LUPREC
 70
     4
  9
$SKETCHINC
 40
0.1
  9
$FILLETRAD
 40
0.5
  9
$AUNITS
 70
     0
  9
$AUPREC
 70
     0
  9
$MENU
  1
.
  9
$ELEVATION
 40
0.0
  9
$PELEVATION
 40
0.0
  9
$THICKNESS
 40
0.0
  9
$LIMCHECK
 70
     0
  9
$CHAMFERA
 40
0.5
  9
$CHAMFERB
 40
0.5
  9
$CHAMFERC
 40
1.0
  9
$CHAMFERD
 40
0.0
  9
$SKPOLY
 70
     0
  9
$TDCREATE
 40
2457917.632106482
  9
$TDUCREATE
 40
2457917.257106482
  9
$TDUPDATE
 40
2457917.632106482
  9
$TDUUPDATE
 40
2457917.257106482
  9
$TDINDWG
 40
0.0000000116
  9
$TDUSRTIMER
 40
0.0000000116
  9
$USRTIMER
 70
     1
  9
$ANGBASE
 50
0.0
  9
$ANGDIR
 70
     0
  9
$PDMODE
 70
     0
  9
$PDSIZE
 40
0.0
  9
$PLINEWID
 40
0.0
  9
$SPLFRAME
 70
     0
  9
$SPLINETYPE
 70
     6
  9
$SPLINESEGS
 70
     8
  9
$HANDSEED
  5
109
  9
$SURFTAB1
 70
     6
  9
$SURFTAB2
 70
     6
  9
$SURFTYPE
 70
     6
  9
$SURFU
 70
     6
  9
$SURFV
 70
     6
  9
$UCSBASE
  2

  9
$UCSNAME
  2

  9
$UCSORG
 10
0.0
 20
0.0
 30
0.0
  9
$UCSXDIR
 10
1.0
 20
0.0
 30
0.0
  9
$UCSYDIR
 10
0.0
 20
1.0
 30
0.0
  9
$UCSORTHOREF
  2

  9
$UCSORTHOVIEW
 70
     0
  9
$UCSORGTOP
 10
0.0
 20
0.0
 30
0.0
  9
$UCSORGBOTTOM
 10
0.0
 20
0.0
 30
0.0
  9
$UCSORGLEFT
 10
0.0
 20
0.0
 30
0.0
  9
$UCSORGRIGHT
 10
0.0
 20
0.0
 30
0.0
  9
$UCSORGFRONT
 10
0.0
 20
0.0
 30
0.0
  9
$UCSORGBACK
 10
0.0
 20
0.0
 30
0.0
  9
$PUCSBASE
  2

  9
$PUCSNAME
  2

  9
$PUCSORG
 10
0.0
 20
0.0
 30
0.0
  9
$PUCSXDIR
 10
1.0
 20
0.0
 30
0.0
  9
$PUCSYDIR
 10
0.0
 20
1.0
 30
0.0
  9
$PUCSORTHOREF
  2

  9
$PUCSORTHOVIEW
 70
     0
  9
$PUCSORGTOP
 10
0.0
 20
0.0
 30
0.0
  9
$PUCSORGBOTTOM
 10
0.0
 20
0.0
 30
0.0
  9
$PUCSORGLEFT
 10
0.0
 20
0.0
 30
0.0
  9
$PUCSORGRIGHT
 10
0.0
 20
0.0
 30
0.0
  9
$PUCSORGFRONT
 10
0.0
 20
0.0
 30
0.0
  9
$PUCSORGBACK
 10
0.0
 20
0.0
 30
0.0
  9
$USERI1
 70
     0
  9
$USERI2
 70
     0
  9
$USERI3
 70
     0
  9
$USERI4
 70
     0
  9
$USERI5
 70
     0
  9
$USERR1
 40
0.0
  9
$USERR2
 40
0.0
  9
$USERR3
 40
0.0
  9
$USERR4
 40
0.0
  9
$USERR5
 40
0.0
  9
$WORLDVIEW
 70
     1
  9
$SHADEDGE
 70
     3
  9
$SHADEDIF
 70
    70
  9
$TILEMODE
 70
     1
  9
$MAXACTVP
 70
    64
  9
$PINSBASE
 10
0.0
 20
0.0
 30
0.0
  9
$PLIMCHECK
 70
     0
  9
$PEXTMIN
 10
1.000000000000000E+20
 20
1.000000000000000E+20
 30
1.000000000000000E+20
  9
$PEXTMAX
 10
-1.000000000000000E+20
 20
-1.000000000000000E+20
 30
-1.000000000000000E+20
  9
$PLIMMIN
 10
0.0
 20
0.0
  9
$PLIMMAX
 10
12.0
 20
9.0
  9
$UNITMODE
 70
     0
  9
$VISRETAIN
 70
     1
  9
$PLINEGEN
 70
     0
  9
$PSLTSCALE
 70
     1
  9
$TREEDEPTH
 70
  3020
  9
$CMLSTYLE
  2
Standard
  9
$CMLJUST
 70
     0
  9
$CMLSCALE
 40
1.0
  9
$PROXYGRAPHICS
 70
     1
  9
$MEASUREMENT
 70
     0
  9
$CELWEIGHT
370
    -1
  9
$ENDCAPS
280
     0
  9
$JOINSTYLE
280
     0
  9
$LWDISPLAY
290
     1
  9
$INSUNITS
 70
     1
  9
$HYPERLINKBASE
  1

  9
$STYLESHEET
  1

  9
$XEDIT
290
     1
  9
$CEPSNTYPE
380
     0
  9
$PSTYLEMODE
290
     1
  9
$FINGERPRINTGUID
  2
{0D0F0EA7-591A-8916-C9BF-DD3462CA5496}
  9
$VERSIONGUID
  2
{FAEB1C32-E019-11D5-929B-00C0DF256EC4}
  9
$EXTNAMES
290
     1
  9
$PSVPSCALE
 40
0.0
  9
$OLESTARTUP
290
     0
  9
$SORTENTS
280
   127
  9
$INDEXCTL
280
     0
  9
$HIDETEXT
280
     1
  9
$XCLIPFRAME
280
     2
  9
$HALOGAP
280
     0
  9
$OBSCOLOR
 70
   257
  9
$OBSLTYPE
280
     0
  9
$INTERSECTIONDISPLAY
280
     0
  9
$INTERSECTIONCOLOR
 70
   257
  9
$DIMASSOC
280
     2
  9
$PROJECTNAME
  1

  9
$CAMERADISPLAY
290
     0
  9
$LENSLENGTH
 40
50.0
  9
$CAMERAHEIGHT
 40
0.0
  9
$STEPSPERSEC
 40
2.0
  9
$STEPSIZE
 40
6.0
  9
$3DDWFPREC
 40
2.0
  9
$PSOLWIDTH
 40
0.25
  9
$PSOLHEIGHT
 40
4.0
  9
$LOFTANG1
 40
1.570796326794897
  9
$LOFTANG2
 40
1.570796326794897
  9
$LOFTMAG1
 40
0.0
  9
$LOFTMAG2
 40
0.0
  9
$LOFTPARAM
 70
     7
  9
$LOFTNORMALS
280
     1
  9
$LATITUDE
 40
37.795
  9
$LONGITUDE
 40
-122.394
  9
$NORTHDIRECTION
 40
0.0
  9
$TIMEZONE
 70
 -8000
  9
$LIGHTGLYPHDISPLAY
280
     1
  9
$TILEMODELIGHTSYNCH
280
     1
  9
$CMATERIAL
347
3C
  9
$SOLIDHIST
280
     1
  9
$SHOWHIST
280
     1
  9
$DWFFRAME
280
     2
  9
$DGNFRAME
280
     2
  9
$REALWORLDSCALE
290
     1
  9
$INTERFERECOLOR
 62
   256
  9
$CSHADOW
280
     0
  9
$SHADOWPLANELOCATION
 40
0.0
  0
ENDSEC
  0
SECTION
  2
CLASSES
  0
CLASS
  1
ACDBDICTIONARYWDFLT
  2
AcDbDictionaryWithDefault
  3
ObjectDBX Classes
 90
        0
 91
        4
280
     0
281
     0
  0
CLASS
  1
VISUALSTYLE
  2
AcDbVisualStyle
  3
ObjectDBX Classes
 90
     4095
 91
        4
280
     0
281
     0
  0
CLASS
  1
MATERIAL
  2
AcDbMaterial
  3
ObjectDBX Classes
 90
     1153
 91
        4
280
     0
281
     0
  0
CLASS
  1
SUN
  2
AcDbSun
  3
SCENEOE
 90
     1024
 91
        4
280
     0
281
     0
  0
ENDSEC
  0
SECTION
  2
TABLES
  0
TABLE
  2
VPORT
  5
8
330
0
100
AcDbSymbolTable
 70
     1
  0
VPORT
  5
29
330
8
100
AcDbSymbolTableRecord
100
AcDbViewportTableRecord
  2
*Active
 70
     0
 10
0.0
 20
0.0
 11
1.0
 21
1.0
 12
0.0
 22
0.0
 13
0.0
 23
0.0
 14
0.5
 24
0.5
 15
0.5
 25
0.5
 16
0.0
 26
0.0
 36
1.0
 17
91.00082462281999
 27
-128.4993055234307
 37
0.0
 40
256.9986110468615
 41
0.7081814508812795
 42
50.0
 43
0.0
 44
0.0
 50
0.0
 51
0.0
 71
     0
 72
   100
 73
     1
 74
     3
 75
     0
 76
     0
 77
     0
 78
     0
281
     0
 65
     1
110
0.0
120
0.0
130
0.0
111
1.0
121
0.0
131
0.0
112
0.0
122
1.0
132
0.0
 79
     0
146
0.0
 60
     3
 61
     5
292
     1
282
     1
141
0.0
142
0.0
 63
   250
361
3F
  0
ENDTAB
  0
TABLE
  2
LTYPE
  5
5
330
0
100
AcDbSymbolTable
 70
     1
  0
LTYPE
  5
14
330
5
100
AcDbSymbolTableRecord
100
AcDbLinetypeTableRecord
  2
ByBlock
 70
     0
  3

 72
    65
 73
     0
 40
0.0
  0
LTYPE
  5
15
330
5
100
AcDbSymbolTableRecord
100
AcDbLinetypeTableRecord
  2
ByLayer
 70
     0
  3

 72
    65
 73
     0
 40
0.0
  0
LTYPE
  5
16
330
5
100
AcDbSymbolTableRecord
100
AcDbLinetypeTableRecord
  2
Continuous
 70
     0
  3
Solid line
 72
    65
 73
     0
 40
0.0
  0
ENDTAB
  0
TABLE
  2
LAYER
  5
2
330
0
100
AcDbSymbolTable
 70
     2
  0
LAYER
  5
10
330
2
100
AcDbSymbolTableRecord
100
AcDbLayerTableRecord
  2
0
 70
     0
 62
     7
  6
Continuous
370
    -3
390
F
347
3E
  0
LAYER
  5
40
330
2
100
AcDbSymbolTableRecord
100
AcDbLayerTableRecord
  2
_U+30EC_U+30A4_U+30E4_U+30FC 1
 70
     0
 62
     7
  6
Continuous
370
    -3
390
F
347
3E
  0
ENDTAB
  0
TABLE
  2
STYLE
  5
3
330
0
100
AcDbSymbolTable
 70
     1
  0
STYLE
  5
11
330
3
100
AcDbSymbolTableRecord
100
AcDbTextStyleTableRecord
  2
Standard
 70
     0
 40
0.0
 41
1.0
 50
0.0
 71
     0
 42
0.2
  3
txt
  4

  0
ENDTAB
  0
TABLE
  2
VIEW
  5
6
330
0
100
AcDbSymbolTable
 70
     0
  0
ENDTAB
  0
TABLE
  2
UCS
  5
7
330
0
100
AcDbSymbolTable
 70
     0
  0
ENDTAB
  0
TABLE
  2
APPID
  5
9
330
0
100
AcDbSymbolTable
 70
     1
  0
APPID
  5
12
330
9
100
AcDbSymbolTableRecord
100
AcDbRegAppTableRecord
  2
ACAD
 70
     0
  0
ENDTAB
  0
TABLE
  2
DIMSTYLE
  5
A
330
0
100
AcDbSymbolTable
 70
     1
100
AcDbDimStyleTable
  0
DIMSTYLE
105
27
330
A
100
AcDbSymbolTableRecord
100
AcDbDimStyleTableRecord
  2
Standard
 70
     0
178
     0
340
11
  0
ENDTAB
  0
TABLE
  2
BLOCK_RECORD
  5
1
330
0
100
AcDbSymbolTable
 70
     6
  0
BLOCK_RECORD
  5
1F
330
1
100
AcDbSymbolTableRecord
100
AcDbBlockTableRecord
  2
*Model_Space
340
22
 70
     0
280
     1
281
     0
  0
BLOCK_RECORD
  5
1B
330
1
100
AcDbSymbolTableRecord
100
AcDbBlockTableRecord
  2
*Paper_Space
340
1E
 70
     0
280
     1
281
     0
  0
BLOCK_RECORD
  5
23
330
1
100
AcDbSymbolTableRecord
100
AcDbBlockTableRecord
  2
*Paper_Space0
340
26
 70
     0
280
     1
281
     0
  0
BLOCK_RECORD
  5
41
330
1
100
AcDbSymbolTableRecord
100
AcDbBlockTableRecord
  2
block 2
340
0
102
{BLKREFS
331
42
102
}
 70
     0
280
     1
281
     0
  0
BLOCK_RECORD
  5
4A
330
1
100
AcDbSymbolTableRecord
100
AcDbBlockTableRecord
  2
block 3
340
0
102
{BLKREFS
331
4B
102
}
 70
     0
280
     1
281
     0
  0
BLOCK_RECORD
  5
5D
330
1
100
AcDbSymbolTableRecord
100
AcDbBlockTableRecord
  2
block 4
340
0
102
{BLKREFS
331
5E
102
}
 70
     0
280
     1
281
     0
  0
BLOCK_RECORD
  5
63
330
1
100
AcDbSymbolTableRecord
100
AcDbBlockTableRecord
  2
block 5
340
0
102
{BLKREFS
331
64
102
}
 70
     0
280
     1
281
     0
  0
BLOCK_RECORD
  5
86
330
1
100
AcDbSymbolTableRecord
100
AcDbBlockTableRecord
  2
block 6
340
0
102
{BLKREFS
331
87
102
}
 70
     0
280
     1
281
     0
  0
ENDTAB
  0
ENDSEC
  0
SECTION
  2
BLOCKS
  0
BLOCK
  5
20
330
1F
100
AcDbEntity
  8
0
100
AcDbBlockBegin
  2
*Model_Space
 70
     0
 10
0.0
 20
0.0
 30
0.0
  3
*Model_Space
  1

  0
ENDBLK
  5
21
330
1F
100
AcDbEntity
  8
0
100
AcDbBlockEnd
  0
BLOCK
  5
1C
330
1B
100
AcDbEntity
 67
     1
  8
0
100
AcDbBlockBegin
  2
*Paper_Space
 70
     0
 10
0.0
 20
0.0
 30
0.0
  3
*Paper_Space
  1

  0
ENDBLK
  5
1D
330
1B
100
AcDbEntity
 67
     1
  8
0
100
AcDbBlockEnd
  0
BLOCK
  5
24
330
23
100
AcDbEntity
  8
0
100
AcDbBlockBegin
  2
*Paper_Space0
 70
     0
 10
0.0
 20
0.0
 30
0.0
  3
*Paper_Space0
  1

  0
ENDBLK
  5
25
330
23
100
AcDbEntity
  8
0
100
AcDbBlockEnd
  0
BLOCK
  5
43
330
41
100
AcDbEntity
  8
0
100
AcDbBlockBegin
  2
block 2
 70
     0
 10
0.0
 20
0.0
 30
0.0
  3
block 2
  1

  0
SPLINE
  5
45
330
41
100
AcDbEntity
  8
_U+30EC_U+30A4_U+30E4_U+30FC 1
370
     0
100
AcDbSpline
210
0.0
220
0.0
230
1.0
 70
    11
 71
     3
 72
    44
 73
    40
 74
     0
 42
0.0000000001
 43
0.0000000001
 12
1.0
 22
0.0
 32
0.0
 13
1.0
 23
0.0
 33
0.0
 40
0.0
 40
0.0
 40
0.0
 40
0.0
 40
1.0
 40
1.0
 40
1.0
 40
2.0
 40
2.0
 40
2.0
 40
3.0
 40
3.0
 40
3.0
 40
4.0
 40
4.0
 40
4.0
 40
5.0
 40
5.0
 40
5.0
 40
6.0
 40
6.0
 40
6.0
 40
7.0
 40
7.0
 40
7.0
 40
8.0
 40
8.0
 40
8.0
 40
9.0
 40
9.0
 40
9.0
 40
10.0
 40
10.0
 40
10.0
 40
11.0
 40
11.0
 40
11.0
 40
12.0
 40
12.0
 40
12.0
 40
13.0
 40
13.0
 40
13.0
 40
13.0
 10
84.1679890740101
 20
-129.930053678455
 30
0.0
 10
84.3268079758801
 20
-130.1629421332579
 30
0.0
 10
84.40087752881298
 20
-130.2625053927816
 30
0.0
 10
84.5445380105479
 20
-130.3141818250604
 30
0.0
 10
84.5445380105479
 20
-130.3141818250604
 30
0.0
 10
84.5445380105479
 20
-129.482535774921
 30
0.0
 10
84.5445380105479
 20
-129.482535774921
 30
0.0
 10
84.5445380105479
 20
-129.482535774921
 30
0.0
 10
84.74986570146879
 20
-129.482535774921
 30
0.0
 10
84.74986570146879
 20
-129.482535774921
 30
0.0
 10
84.74986570146879
 20
-129.482535774921
 30
0.0
 10
84.74986570146879
 20
-130.5811767251672
 30
0.0
 10
84.74986570146879
 20
-130.5811767251672
 30
0.0
 10
84.39226479009986
 20
-130.5470702798632
 30
0.0
 10
84.31406112258469
 20
-130.4771348415127
 30
0.0
 10
84.01571585356204
 20
-130.0657904405738
 30
0.0
 10
83.81693384406313
 20
-129.792249859045
 30
0.0
 10
83.7490654630037
 20
-129.7219699111459
 30
0.0
 10
83.61160615314225
 20
-129.7219699111459
 30
0.0
 10
83.49309486844965
 20
-129.7219699111459
 30
0.0
 10
83.36218124001016
 20
-129.798795540467
 30
0.0
 10
83.36218124001016
 20
-130.0092908746157
 30
0.0
 10
83.36218124001016
 20
-130.2873100802754
 30
0.0
 10
83.59265812797337
 20
-130.2962673285371
 30
0.0
 10
83.70910235537481
 20
-130.3007459526679
 30
0.0
 10
83.70910235537481
 20
-130.3007459526679
 30
0.0
 10
83.70910235537481
 20
-130.5405245984413
 30
0.0
 10
83.70910235537481
 20
-130.5405245984413
 30
0.0
 10
83.5819783319691
 20
-130.5312228406311
 30
0.0
 10
83.47001272869848
 20
-130.5201985350783
 30
0.0
 10
83.35150144400588
 20
-130.434071147947
 30
0.0
 10
83.19061548484471
 20
-130.3165933919
 30
0.0
 10
83.15685354908926
 20
-130.1178113824011
 30
0.0
 10
83.15685354908926
 20
-129.9934434353836
 30
0.0
 10
83.15685354908926
 20
-129.6971652236521
 30
0.0
 10
83.34082164800161
 20
-129.4756455839506
 30
0.0
 10
83.61367321043339
 20
-129.4756455839506
 30
0.0
 10
83.84242755065398
 20
-129.4756455839506
 30
0.0
 10
83.94164630062917
 20
-129.6000135309681
 30
0.0
 10
84.1679890740101
 20
-129.930053678455
 30
0.0
  0
HATCH
  5
46
330
41
100
AcDbEntity
  8
_U+30EC_U+30A4_U+30E4_U+30FC 1
 62
   179
420
  2234388
100
AcDbHatch
 10
0.0
 20
0.0
 30
0.0
210
0.0
220
0.0
230
1.0
  2
SOLID
 70
     1
 71
     0
 91
        1
 92
        1
 93
        1
 72
     4
 94
        3
 73
     0
 74
     1
 95
       44
 96
       40
 40
0.0
 40
0.0
 40
0.0
 40
0.0
 40
1.0
 40
1.0
 40
1.0
 40
2.0
 40
2.0
 40
2.0
 40
3.0
 40
3.0
 40
3.0
 40
4.0
 40
4.0
 40
4.0
 40
5.0
 40
5.0
 40
5.0
 40
6.0
 40
6.0
 40
6.0
 40
7.0
 40
7.0
 40
7.0
 40
8.0
 40
8.0
 40
8.0
 40
9.0
 40
9.0
 40
9.0
 40
10.0
 40
10.0
 40
10.0
 40
11.0
 40
11.0
 40
11.0
 40
12.0
 40
12.0
 40
12.0
 40
13.0
 40
13.0
 40
13.0
 40
13.0
 10
84.1679890740101
 20
-129.930053678455
 10
84.3268079758801
 20
-130.1629421332579
 10
84.40087752881298
 20
-130.2625053927816
 10
84.5445380105479
 20
-130.3141818250604
 10
84.5445380105479
 20
-130.3141818250604
 10
84.5445380105479
 20
-129.482535774921
 10
84.5445380105479
 20
-129.482535774921
 10
84.5445380105479
 20
-129.482535774921
 10
84.74986570146879
 20
-129.482535774921
 10
84.74986570146879
 20
-129.482535774921
 10
84.74986570146879
 20
-129.482535774921
 10
84.74986570146879
 20
-130.5811767251672
 10
84.74986570146879
 20
-130.5811767251672
 10
84.39226479009986
 20
-130.5470702798632
 10
84.31406112258469
 20
-130.4771348415127
 10
84.01571585356204
 20
-130.0657904405738
 10
83.81693384406313
 20
-129.792249859045
 10
83.7490654630037
 20
-129.7219699111459
 10
83.61160615314225
 20
-129.7219699111459
 10
83.49309486844965
 20
-129.7219699111459
 10
83.36218124001016
 20
-129.798795540467
 10
83.36218124001016
 20
-130.0092908746157
 10
83.36218124001016
 20
-130.2873100802754
 10
83.59265812797337
 20
-130.2962673285371
 10
83.70910235537481
 20
-130.3007459526679
 10
83.70910235537481
 20
-130.3007459526679
 10
83.70910235537481
 20
-130.5405245984413
 10
83.70910235537481
 20
-130.5405245984413
 10
83.5819783319691
 20
-130.5312228406311
 10
83.47001272869848
 20
-130.5201985350783
 10
83.35150144400588
 20
-130.434071147947
 10
83.19061548484471
 20
-130.3165933919
 10
83.15685354908926
 20
-130.1178113824011
 10
83.15685354908926
 20
-129.9934434353836
 10
83.15685354908926
 20
-129.6971652236521
 10
83.34082164800161
 20
-129.4756455839506
 10
83.61367321043339
 20
-129.4756455839506
 10
83.84242755065398
 20
-129.4756455839506
 10
83.94164630062917
 20
-129.6000135309681
 10
84.1679890740101
 20
-129.930053678455
 97
        0
 97
        0
 75
     2
 76
     1
 98
        0
  0
SPLINE
  5
47
330
41
100
AcDbEntity
  8
_U+30EC_U+30A4_U+30E4_U+30FC 1
370
     0
100
AcDbSpline
210
0.0
220
0.0
230
1.0
 70
    11
 71
     3
 72
    32
 73
    28
 74
     0
 42
0.0000000001
 43
0.0000000001
 12
1.0
 22
0.0
 32
0.0
 13
1.0
 23
0.0
 33
0.0
 40
0.0
 40
0.0
 40
0.0
 40
0.0
 40
1.0
 40
1.0
 40
1.0
 40
2.0
 40
2.0
 40
2.0
 40
3.0
 40
3.0
 40
3.0
 40
4.0
 40
4.0
 40
4.0
 40
5.0
 40
5.0
 40
5.0
 40
6.0
 40
6.0
 40
6.0
 40
7.0
 40
7.0
 40
7.0
 40
8.0
 40
8.0
 40
8.0
 40
9.0
 40
9.0
 40
9.0
 40
9.0
 10
84.80050860510195
 20
-128.7673339521832
 30
0.0
 10
84.80050860510195
 20
-129.3188937393717
 30
0.0
 10
84.24653725107379
 20
-129.3278509876333
 30
0.0
 10
84.03259682143977
 20
-129.3278509876333
 30
0.0
 10
83.80211993347656
 20
-129.3278509876333
 30
0.0
 10
83.1547864917981
 20
-129.3075249242704
 30
0.0
 10
83.1547864917981
 20
-128.7263373159087
 30
0.0
 10
83.1547864917981
 20
-128.5409911788022
 30
0.0
 10
83.22472193014869
 20
-128.2788194123748
 30
0.0
 10
83.55682913492677
 20
-128.2381672856488
 30
0.0
 10
83.55682913492677
 20
-128.2381672856488
 30
0.0
 10
83.55682913492677
 20
-128.4665771163208
 30
0.0
 10
83.55682913492677
 20
-128.4665771163208
 30
0.0
 10
83.49964054987163
 20
-128.4779459314222
 30
0.0
 10
83.35150144400588
 20
-128.5117078671776
 30
0.0
 10
83.35150144400588
 20
-128.7287488827484
 30
0.0
 10
83.35150144400588
 20
-129.040874533712
 30
0.0
 10
83.67947453420166
 20
-129.0835937177291
 30
0.0
 10
83.88445771557403
 20
-129.0973740996701
 30
0.0
 10
83.80625404805886
 20
-128.9978108401464
 30
0.0
 10
83.74699840571256
 20
-128.9254638349561
 30
0.0
 10
83.74699840571256
 20
-128.7308159400395
 30
0.0
 10
83.74699840571256
 20
-128.5389241215111
 30
0.0
 10
83.8551744039494
 20
-128.2154296554461
 30
0.0
 10
84.26135116166036
 20
-128.2154296554461
 30
0.0
 10
84.58071151314302
 20
-128.2154296554461
 30
0.0
 10
84.80050860510195
 20
-128.4279920468861
 30
0.0
 10
84.80050860510195
 20
-128.7673339521832
 30
0.0
  0
SPLINE
  5
48
330
41
100
AcDbEntity
  8
_U+30EC_U+30A4_U+30E4_U+30FC 1
370
     0
100
AcDbSpline
210
0.0
220
0.0
230
1.0
 70
    11
 71
     3
 72
    17
 73
    13
 74
     0
 42
0.0000000001
 43
0.0000000001
 12
1.0
 22
0.0
 32
0.0
 13
1.0
 23
0.0
 33
0.0
 40
0.0
 40
0.0
 40
0.0
 40
0.0
 40
1.0
 40
1.0
 40
1.0
 40
2.0
 40
2.0
 40
2.0
 40
3.0
 40
3.0
 40
3.0
 40
4.0
 40
4.0
 40
4.0
 40
4.0
 10
83.94164630062917
 20
-128.7490749461113
 30
0.0
 10
83.94164630062917
 20
-129.0295057186107
 30
0.0
 10
84.15317516342351
 20
-129.0701578453366
 30
0.0
 10
84.26961939082496
 20
-129.0701578453366
 30
0.0
 10
84.4453192605727
 20
-129.0701578453366
 30
0.0
 10
84.60827227702502
 20
-128.9685275285218
 30
0.0
 10
84.60827227702502
 20
-128.771812576314
 30
0.0
 10
84.60827227702502
 20
-128.6429660051656
 30
0.0
 10
84.54901663467872
 20
-128.4552083012195
 30
0.0
 10
84.26341821895151
 20
-128.4552083012195
 30
0.0
 10
84.03914250286175
 20
-128.4552083012195
 30
0.0
 10
83.94164630062917
 20
-128.6043809357309
 30
0.0
 10
83.94164630062917
 20
-128.7490749461113
 30
0.0
  0
HATCH
  5
49
330
41
100
AcDbEntity
  8
_U+30EC_U+30A4_U+30E4_U+30FC 1
 62
   179
420
  2234388
100
AcDbHatch
 10
0.0
 20
0.0
 30
0.0
210
0.0
220
0.0
230
1.0
  2
SOLID
 70
     1
 71
     0
 91
        2
 92
        1
 93
        1
 72
     4
 94
        3
 73
     0
 74
     1
 95
       32
 96
       28
 40
0.0
 40
0.0
 40
0.0
 40
0.0
 40
1.0
 40
1.0
 40
1.0
 40
2.0
 40
2.0
 40
2.0
 40
3.0
 40
3.0
 40
3.0
 40
4.0
 40
4.0
 40
4.0
 40
5.0
 40
5.0
 40
5.0
 40
6.0
 40
6.0
 40
6.0
 40
7.0
 40
7.0
 40
7.0
 40
8.0
 40
8.0
 40
8.0
 40
9.0
 40
9.0
 40
9.0
 40
9.0
 10
84.80050860510195
 20
-128.7673339521832
 10
84.80050860510195
 20
-129.3188937393717
 10
84.24653725107379
 20
-129.3278509876333
 10
84.03259682143977
 20
-129.3278509876333
 10
83.80211993347656
 20
-129.3278509876333
 10
83.1547864917981
 20
-129.3075249242704
 10
83.1547864917981
 20
-128.7263373159087
 10
83.1547864917981
 20
-128.5409911788022
 10
83.22472193014869
 20
-128.2788194123748
 10
83.55682913492677
 20
-128.2381672856488
 10
83.55682913492677
 20
-128.2381672856488
 10
83.55682913492677
 20
-128.4665771163208
 10
83.55682913492677
 20
-128.4665771163208
 10
83.49964054987163
 20
-128.4779459314222
 10
83.35150144400588
 20
-128.5117078671776
 10
83.35150144400588
 20
-128.7287488827484
 10
83.35150144400588
 20
-129.040874533712
 10
83.67947453420166
 20
-129.0835937177291
 10
83.88445771557403
 20
-129.0973740996701
 10
83.80625404805886
 20
-128.9978108401464
 10
83.74699840571256
 20
-128.9254638349561
 10
83.74699840571256
 20
-128.7308159400395
 10
83.74699840571256
 20
-128.5389241215111
 10
83.8551744039494
 20
-128.2154296554461
 10
84.26135116166036
 20
-128.2154296554461
 10
84.58071151314302
 20
-128.2154296554461
 10
84.80050860510195
 20
-128.4279920468861
 10
84.80050860510195
 20
-128.7673339521832
 97
        0
 97
        0
 92
        1
 93
        1
 72
     4
 94
        3
 73
     0
 74
     1
 95
       17
 96
       13
 40
0.0
 40
0.0
 40
0.0
 40
0.0
 40
1.0
 40
1.0
 40
1.0
 40
2.0
 40
2.0
 40
2.0
 40
3.0
 40
3.0
 40
3.0
 40
4.0
 40
4.0
 40
4.0
 40
4.0
 10
83.94164630062917
 20
-128.7490749461113
 10
83.94164630062917
 20
-129.0295057186107
 10
84.15317516342351
 20
-129.0701578453366
 10
84.26961939082496
 20
-129.0701578453366
 10
84.4453192605727
 20
-129.0701578453366
 10
84.60827227702502
 20
-128.9685275285218
 10
84.60827227702502
 20
-128.771812576314
 10
84.60827227702502
 20
-128.6429660051656
 10
84.54901663467872
 20
-128.4552083012195
 10
84.26341821895151
 20
-128.4552083012195
 10
84.03914250286175
 20
-128.4552083012195
 10
83.94164630062917
 20
-128.6043809357309
 10
83.94164630062917
 20
-128.7490749461113
 97
        0
 97
        0
 75
     2
 76
     1
 98
        0
  0
ENDBLK
  5
44
330
41
100
AcDbEntity
  8
0
100
AcDbBlockEnd
  0
BLOCK
  5
4C
330
4A
100
AcDbEntity
  8
0
100
AcDbBlockBegin
  2
block 3
 70
     0
 10
0.0
 20
0.0
 30
0.0
  3
block 3
  1

  0
SPLINE
  5
4E
330
4A
100
AcDbEntity
  8
_U+30EC_U+30A4_U+30E4_U+30FC 1
370
     0
100
AcDbSpline
210
0.0
220
0.0
230
1.0
 70
    11
 71
     3
 72
    29
 73
    25
 74
     0
 42
0.0000000001
 43
0.0000000001
 12
1.0
 22
0.0
 32
0.0
 13
1.0
 23
0.0
 33
0.0
 40
0.0
 40
0.0
 40
0.0
 40
0.0
 40
1.0
 40
1.0
 40
1.0
 40
2.0
 40
2.0
 40
2.0
 40
3.0
 40
3.0
 40
3.0
 40
4.0
 40
4.0
 40
4.0
 40
5.0
 40
5.0
 40
5.0
 40
6.0
 40
6.0
 40
6.0
 40
7.0
 40
7.0
 40
7.0
 40
8.0
 40
8.0
 40
8.0
 40
8.0
 10
93.13436683869558
 20
-145.4161023942015
 30
0.0
 10
93.0189561399397
 20
-145.6255641997047
 30
0.0
 10
92.83361000283327
 20
-145.6445122248736
 30
0.0
 10
92.70924205581575
 20
-145.6445122248736
 30
0.0
 10
92.5376763006503
 20
-145.6445122248736
 30
0.0
 10
92.38609209929932
 20
-145.5980034358227
 30
0.0
 10
92.28446178248444
 20
-145.4161023942015
 30
0.0
 10
92.1735297078594
 20
-145.2214544992849
 30
0.0
 10
92.15320364449643
 20
-144.9847764394483
 30
0.0
 10
92.15320364449643
 20
-144.8218234229959
 30
0.0
 10
92.15320364449643
 20
-144.6778184317125
 30
0.0
 10
92.17111814101972
 20
-144.4259819517407
 30
0.0
 10
92.28446178248444
 20
-144.2271999422418
 30
0.0
 10
92.39952797169178
 20
-144.0242838181606
 30
0.0
 10
92.57143823640575
 20
-144.0008571688609
 30
0.0
 10
92.70924205581575
 20
-144.0008571688609
 30
0.0
 10
92.87908526323857
 20
-144.0008571688609
 30
0.0
 10
93.03273652188071
 20
-144.0452989006206
 30
0.0
 10
93.13436683869558
 20
-144.2271999422418
 30
0.0
 10
93.2408202891898
 20
-144.4197807798673
 30
0.0
 10
93.2656249766836
 20
-144.6481906105394
 30
0.0
 10
93.2656249766836
 20
-144.8218234229959
 30
0.0
 10
93.2656249766836
 20
-144.9930446686129
 30
0.0
 10
93.24288734648096
 20
-145.2235215565761
 30
0.0
 10
93.13436683869558
 20
-145.4161023942015
 30
0.0
  0
SPLINE
  5
4F
330
4A
100
AcDbEntity
  8
_U+30EC_U+30A4_U+30E4_U+30FC 1
370
     0
100
AcDbSpline
210
0.0
220
0.0
230
1.0
 70
    11
 71
     3
 72
    17
 73
    13
 74
     0
 42
0.0000000001
 43
0.0000000001
 12
1.0
 22
0.0
 32
0.0
 13
1.0
 23
0.0
 33
0.0
 40
0.0
 40
0.0
 40
0.0
 40
0.0
 40
1.0
 40
1.0
 40
1.0
 40
2.0
 40
2.0
 40
2.0
 40
3.0
 40
3.0
 40
3.0
 40
4.0
 40
4.0
 40
4.0
 40
4.0
 10
92.70924205581575
 20
-144.1934380064864
 30
0.0
 10
92.44259166525741
 20
-144.1934380064864
 30
0.0
 10
92.39298229026981
 20
-144.4769693649224
 30
0.0
 10
92.39298229026981
 20
-144.8218234229959
 30
0.0
 10
92.39298229026981
 20
-145.1411837744786
 30
0.0
 10
92.43122285015609
 20
-145.449864329957
 30
0.0
 10
92.70924205581575
 20
-145.449864329957
 30
0.0
 10
92.97382538908293
 20
-145.449864329957
 30
0.0
 10
93.02584633091021
 20
-145.1687445383606
 30
0.0
 10
93.02584633091021
 20
-144.8218234229959
 30
0.0
 10
93.02584633091021
 20
-144.5021185619647
 30
0.0
 10
92.98519420418427
 20
-144.1934380064864
 30
0.0
 10
92.70924205581575
 20
-144.1934380064864
 30
0.0
  0
HATCH
  5
50
330
4A
100
AcDbEntity
  8
_U+30EC_U+30A4_U+30E4_U+30FC 1
 62
   179
420
  2234388
100
AcDbHatch
 10
0.0
 20
0.0
 30
0.0
210
0.0
220
0.0
230
1.0
  2
SOLID
 70
     1
 71
     0
 91
        2
 92
        1
 93
        1
 72
     4
 94
        3
 73
     0
 74
     1
 95
       29
 96
       25
 40
0.0
 40
0.0
 40
0.0
 40
0.0
 40
1.0
 40
1.0
 40
1.0
 40
2.0
 40
2.0
 40
2.0
 40
3.0
 40
3.0
 40
3.0
 40
4.0
 40
4.0
 40
4.0
 40
5.0
 40
5.0
 40
5.0
 40
6.0
 40
6.0
 40
6.0
 40
7.0
 40
7.0
 40
7.0
 40
8.0
 40
8.0
 40
8.0
 40
8.0
 10
93.13436683869558
 20
-145.4161023942015
 10
93.0189561399397
 20
-145.6255641997047
 10
92.83361000283327
 20
-145.6445122248736
 10
92.70924205581575
 20
-145.6445122248736
 10
92.5376763006503
 20
-145.6445122248736
 10
92.38609209929932
 20
-145.5980034358227
 10
92.28446178248444
 20
-145.4161023942015
 10
92.1735297078594
 20
-145.2214544992849
 10
92.15320364449643
 20
-144.9847764394483
 10
92.15320364449643
 20
-144.8218234229959
 10
92.15320364449643
 20
-144.6778184317125
 10
92.17111814101972
 20
-144.4259819517407
 10
92.28446178248444
 20
-144.2271999422418
 10
92.39952797169178
 20
-144.0242838181606
 10
92.57143823640575
 20
-144.0008571688609
 10
92.70924205581575
 20
-144.0008571688609
 10
92.87908526323857
 20
-144.0008571688609
 10
93.03273652188071
 20
-144.0452989006206
 10
93.13436683869558
 20
-144.2271999422418
 10
93.2408202891898
 20
-144.4197807798673
 10
93.2656249766836
 20
-144.6481906105394
 10
93.2656249766836
 20
-144.8218234229959
 10
93.2656249766836
 20
-144.9930446686129
 10
93.24288734648096
 20
-145.2235215565761
 10
93.13436683869558
 20
-145.4161023942015
 97
        0
 97
        0
 92
        1
 93
        1
 72
     4
 94
        3
 73
     0
 74
     1
 95
       17
 96
       13
 40
0.0
 40
0.0
 40
0.0
 40
0.0
 40
1.0
 40
1.0
 40
1.0
 40
2.0
 40
2.0
 40
2.0
 40
3.0
 40
3.0
 40
3.0
 40
4.0
 40
4.0
 40
4.0
 40
4.0
 10
92.70924205581575
 20
-144.1934380064864
 10
92.44259166525741
 20
-144.1934380064864
 10
92.39298229026981
 20
-144.4769693649224
 10
92.39298229026981
 20
-144.8218234229959
 10
92.39298229026981
 20
-145.1411837744786
 10
92.43122285015609
 20
-145.449864329957
 10
92.70924205581575
 20
-145.449864329957
 10
92.97382538908293
 20
-145.449864329957
 10
93.02584633091021
 20
-145.1687445383606
 10
93.02584633091021
 20
-144.8218234229959
 10
93.02584633091021
 20
-144.5021185619647
 10
92.98519420418427
 20
-144.1934380064864
 10
92.70924205581575
 20
-144.1934380064864
 97
        0
 97
        0
 75
     2
 76
     1
 98
        0
  0
POLYLINE
  5
51
330
4A
100
AcDbEntity
  8
_U+30EC_U+30A4_U+30E4_U+30FC 1
370
     0
100
AcDb2dPolyline
 66
     1
 10
0.0
 20
0.0
 30
0.0
  0
VERTEX
  5
52
330
51
100
AcDbEntity
  8
_U+30EC_U+30A4_U+30E4_U+30FC 1
370
     0
100
AcDbVertex
100
AcDb2dVertex
 10
93.49679088374386
 20
-145.5938693212404
 30
0.0
  0
VERTEX
  5
53
330
51
100
AcDbEntity
  8
_U+30EC_U+30A4_U+30E4_U+30FC 1
370
     0
100
AcDbVertex
100
AcDb2dVertex
 10
93.49679088374386
 20
-145.3420328412687
 30
0.0
  0
VERTEX
  5
54
330
51
100
AcDbEntity
  8
_U+30EC_U+30A4_U+30E4_U+30FC 1
370
     0
100
AcDbVertex
100
AcDb2dVertex
 10
93.76585284114188
 20
-145.3420328412687
 30
0.0
  0
VERTEX
  5
55
330
51
100
AcDbEntity
  8
_U+30EC_U+30A4_U+30E4_U+30FC 1
370
     0
100
AcDbVertex
100
AcDb2dVertex
 10
93.76585284114188
 20
-145.5938693212404
 30
0.0
  0
VERTEX
  5
56
330
51
100
AcDbEntity
  8
_U+30EC_U+30A4_U+30E4_U+30FC 1
370
     0
100
AcDbVertex
100
AcDb2dVertex
 10
93.49679088374386
 20
-145.5938693212404
 30
0.0
  0
SEQEND
  5
57
330
51
100
AcDbEntity
  8
_U+30EC_U+30A4_U+30E4_U+30FC 1
370
     0
  0
HATCH
  5
58
330
4A
100
AcDbEntity
  8
_U+30EC_U+30A4_U+30E4_U+30FC 1
 62
   179
420
  2234388
100
AcDbHatch
 10
0.0
 20
0.0
 30
0.0
210
0.0
220
0.0
230
1.0
  2
SOLID
 70
     1
 71
     0
 91
        1
 92
        1
 93
        4
 72
     1
 10
93.49679088374386
 20
-145.5938693212404
 11
93.49679088374386
 21
-145.3420328412687
 72
     1
 10
93.49679088374386
 20
-145.3420328412687
 11
93.76585284114188
 21
-145.3420328412687
 72
     1
 10
93.76585284114188
 20
-145.3420328412687
 11
93.76585284114188
 21
-145.5938693212404
 72
     1
 10
93.76585284114188
 20
-145.5938693212404
 11
93.49679088374386
 21
-145.5938693212404
 97
        0
 75
     2
 76
     1
 98
        0
  0
SPLINE
  5
59
330
4A
100
AcDbEntity
  8
_U+30EC_U+30A4_U+30E4_U+30FC 1
370
     0
100
AcDbSpline
210
0.0
220
0.0
230
1.0
 70
    11
 71
     3
 72
    29
 73
    25
 74
     0
 42
0.0000000001
 43
0.0000000001
 12
1.0
 22
0.0
 32
0.0
 13
1.0
 23
0.0
 33
0.0
 40
0.0
 40
0.0
 40
0.0
 40
0.0
 40
1.0
 40
1.0
 40
1.0
 40
2.0
 40
2.0
 40
2.0
 40
3.0
 40
3.0
 40
3.0
 40
4.0
 40
4.0
 40
4.0
 40
5.0
 40
5.0
 40
5.0
 40
6.0
 40
6.0
 40
6.0
 40
7.0
 40
7.0
 40
7.0
 40
8.0
 40
8.0
 40
8.0
 40
8.0
 10
94.55305715952146
 20
-145.6445122248736
 30
0.0
 10
94.26849227243983
 20
-145.6445122248736
 30
0.0
 10
93.99701874820214
 20
-145.5070529150121
 30
0.0
 10
93.99701874820214
 20
-145.1580647423563
 30
0.0
 10
93.99701874820214
 20
-144.9020941478023
 30
0.0
 10
94.14860294955314
 20
-144.8070095124094
 30
0.0
 10
94.26160208146932
 20
-144.7456868127719
 30
0.0
 10
94.12827688619015
 20
-144.6864311704256
 30
0.0
 10
94.04662812318973
 20
-144.5720540003153
 30
0.0
 10
94.04662812318973
 20
-144.4111680411542
 30
0.0
 10
94.04662812318973
 20
-144.1362494214312
 30
0.0
 10
94.25919051462965
 20
-144.0008571688609
 30
0.0
 10
94.55305715952146
 20
-144.0008571688609
 30
0.0
 10
94.85622556222344
 20
-144.0008571688609
 30
0.0
 10
95.05948619585318
 20
-144.1448621601444
 30
0.0
 10
95.05948619585318
 20
-144.4111680411542
 30
0.0
 10
95.05948619585318
 20
-144.5720540003153
 30
0.0
 10
94.97611488511014
 20
-144.6864311704256
 30
0.0
 10
94.84244518028245
 20
-144.7456868127719
 30
0.0
 10
94.93752981567535
 20
-144.7963297164051
 30
0.0
 10
95.10702851354964
 20
-144.891414351798
 30
0.0
 10
95.10702851354964
 20
-145.153930627774
 30
0.0
 10
95.10702851354964
 20
-145.5284125070207
 30
0.0
 10
94.808683244527
 20
-145.6445122248736
 30
0.0
 10
94.55305715952146
 20
-145.6445122248736
 30
0.0
  0
SPLINE
  5
5A
330
4A
100
AcDbEntity
  8
_U+30EC_U+30A4_U+30E4_U+30FC 1
370
     0
100
AcDbSpline
210
0.0
220
0.0
230
1.0
 70
    11
 71
     3
 72
    17
 73
    13
 74
     0
 42
0.0000000001
 43
0.0000000001
 12
1.0
 22
0.0
 32
0.0
 13
1.0
 23
0.0
 33
0.0
 40
0.0
 40
0.0
 40
0.0
 40
0.0
 40
1.0
 40
1.0
 40
1.0
 40
2.0
 40
2.0
 40
2.0
 40
3.0
 40
3.0
 40
3.0
 40
4.0
 40
4.0
 40
4.0
 40
4.0
 10
94.55305715952146
 20
-144.8535183014602
 30
0.0
 10
94.39940590087932
 20
-144.8535183014602
 30
0.0
 10
94.23679739397552
 20
-144.9403347076885
 30
0.0
 10
94.23679739397552
 20
-145.1432508317698
 30
0.0
 10
94.23679739397552
 20
-145.3485785226906
 30
0.0
 10
94.37218964654585
 20
-145.449864329957
 30
0.0
 10
94.55305715952146
 20
-145.449864329957
 30
0.0
 10
94.7521836785689
 20
-145.449864329957
 30
0.0
 10
94.86966143461592
 20
-145.3272189306821
 30
0.0
 10
94.86966143461592
 20
-145.1494520036432
 30
0.0
 10
94.86966143461592
 20
-144.9275878543931
 30
0.0
 10
94.6956841126108
 20
-144.8535183014602
 30
0.0
 10
94.55305715952146
 20
-144.8535183014602
 30
0.0
  0
SPLINE
  5
5B
330
4A
100
AcDbEntity
  8
_U+30EC_U+30A4_U+30E4_U+30FC 1
370
     0
100
AcDbSpline
210
0.0
220
0.0
230
1.0
 70
    11
 71
     3
 72
    17
 73
    13
 74
     0
 42
0.0000000001
 43
0.0000000001
 12
1.0
 22
0.0
 32
0.0
 13
1.0
 23
0.0
 33
0.0
 40
0.0
 40
0.0
 40
0.0
 40
0.0
 40
1.0
 40
1.0
 40
1.0
 40
2.0
 40
2.0
 40
2.0
 40
3.0
 40
3.0
 40
3.0
 40
4.0
 40
4.0
 40
4.0
 40
4.0
 10
94.55305715952146
 20
-144.1934380064864
 30
0.0
 10
94.37666827067667
 20
-144.1934380064864
 30
0.0
 10
94.28640676896312
 20
-144.2885226418793
 30
0.0
 10
94.28640676896312
 20
-144.4239148944496
 30
0.0
 10
94.28640676896312
 20
-144.5465602937245
 30
0.0
 10
94.3632323982842
 20
-144.6650715784171
 30
0.0
 10
94.55305715952146
 20
-144.6650715784171
 30
0.0
 10
94.74322643030726
 20
-144.6650715784171
 30
0.0
 10
94.82005205962832
 20
-144.5465602937245
 30
0.0
 10
94.82005205962832
 20
-144.4239148944496
 30
0.0
 10
94.82005205962832
 20
-144.2885226418793
 30
0.0
 10
94.7273789910751
 20
-144.1934380064864
 30
0.0
 10
94.55305715952146
 20
-144.1934380064864
 30
0.0
  0
HATCH
  5
5C
330
4A
100
AcDbEntity
  8
_U+30EC_U+30A4_U+30E4_U+30FC 1
 62
   179
420
  2234388
100
AcDbHatch
 10
0.0
 20
0.0
 30
0.0
210
0.0
220
0.0
230
1.0
  2
SOLID
 70
     1
 71
     0
 91
        3
 92
        1
 93
        1
 72
     4
 94
        3
 73
     0
 74
     1
 95
       29
 96
       25
 40
0.0
 40
0.0
 40
0.0
 40
0.0
 40
1.0
 40
1.0
 40
1.0
 40
2.0
 40
2.0
 40
2.0
 40
3.0
 40
3.0
 40
3.0
 40
4.0
 40
4.0
 40
4.0
 40
5.0
 40
5.0
 40
5.0
 40
6.0
 40
6.0
 40
6.0
 40
7.0
 40
7.0
 40
7.0
 40
8.0
 40
8.0
 40
8.0
 40
8.0
 10
94.55305715952146
 20
-145.6445122248736
 10
94.26849227243983
 20
-145.6445122248736
 10
93.99701874820214
 20
-145.5070529150121
 10
93.99701874820214
 20
-145.1580647423563
 10
93.99701874820214
 20
-144.9020941478023
 10
94.14860294955314
 20
-144.8070095124094
 10
94.26160208146932
 20
-144.7456868127719
 10
94.12827688619015
 20
-144.6864311704256
 10
94.04662812318973
 20
-144.5720540003153
 10
94.04662812318973
 20
-144.4111680411542
 10
94.04662812318973
 20
-144.1362494214312
 10
94.25919051462965
 20
-144.0008571688609
 10
94.55305715952146
 20
-144.0008571688609
 10
94.85622556222344
 20
-144.0008571688609
 10
95.05948619585318
 20
-144.1448621601444
 10
95.05948619585318
 20
-144.4111680411542
 10
95.05948619585318
 20
-144.5720540003153
 10
94.97611488511014
 20
-144.6864311704256
 10
94.84244518028245
 20
-144.7456868127719
 10
94.93752981567535
 20
-144.7963297164051
 10
95.10702851354964
 20
-144.891414351798
 10
95.10702851354964
 20
-145.153930627774
 10
95.10702851354964
 20
-145.5284125070207
 10
94.808683244527
 20
-145.6445122248736
 10
94.55305715952146
 20
-145.6445122248736
 97
        0
 97
        0
 92
        1
 93
        1
 72
     4
 94
        3
 73
     0
 74
     1
 95
       17
 96
       13
 40
0.0
 40
0.0
 40
0.0
 40
0.0
 40
1.0
 40
1.0
 40
1.0
 40
2.0
 40
2.0
 40
2.0
 40
3.0
 40
3.0
 40
3.0
 40
4.0
 40
4.0
 40
4.0
 40
4.0
 10
94.55305715952146
 20
-144.8535183014602
 10
94.39940590087932
 20
-144.8535183014602
 10
94.23679739397552
 20
-144.9403347076885
 10
94.23679739397552
 20
-145.1432508317698
 10
94.23679739397552
 20
-145.3485785226906
 10
94.37218964654585
 20
-145.449864329957
 10
94.55305715952146
 20
-145.449864329957
 10
94.7521836785689
 20
-145.449864329957
 10
94.86966143461592
 20
-145.3272189306821
 10
94.86966143461592
 20
-145.1494520036432
 10
94.86966143461592
 20
-144.9275878543931
 10
94.6956841126108
 20
-144.8535183014602
 10
94.55305715952146
 20
-144.8535183014602
 97
        0
 97
        0
 92
        1
 93
        1
 72
     4
 94
        3
 73
     0
 74
     1
 95
       17
 96
       13
 40
0.0
 40
0.0
 40
0.0
 40
0.0
 40
1.0
 40
1.0
 40
1.0
 40
2.0
 40
2.0
 40
2.0
 40
3.0
 40
3.0
 40
3.0
 40
4.0
 40
4.0
 40
4.0
 40
4.0
 10
94.55305715952146
 20
-144.1934380064864
 10
94.37666827067667
 20
-144.1934380064864
 10
94.28640676896312
 20
-144.2885226418793
 10
94.28640676896312
 20
-144.4239148944496
 10
94.28640676896312
 20
-144.5465602937245
 10
94.3632323982842
 20
-144.6650715784171
 10
94.55305715952146
 20
-144.6650715784171
 10
94.74322643030726
 20
-144.6650715784171
 10
94.82005205962832
 20
-144.5465602937245
 10
94.82005205962832
 20
-144.4239148944496
 10
94.82005205962832
 20
-144.2885226418793
 10
94.7273789910751
 20
-144.1934380064864
 10
94.55305715952146
 20
-144.1934380064864
 97
        0
 97
        0
 75
     2
 76
     1
 98
        0
  0
ENDBLK
  5
4D
330
4A
100
AcDbEntity
  8
0
100
AcDbBlockEnd
  0
BLOCK
  5
5F
330
5D
100
AcDbEntity
  8
0
100
AcDbBlockBegin
  2
block 4
 70
     0
 10
0.0
 20
0.0
 30
0.0
  3
block 4
  1

  0
SPLINE
  5
61
330
5D
100
AcDbEntity
  8
_U+30EC_U+30A4_U+30E4_U+30FC 1
370
     0
100
AcDbSpline
210
0.0
220
0.0
230
1.0
 70
    11
 71
     3
 72
    26
 73
    22
 74
     0
 42
0.0000000001
 43
0.0000000001
 12
1.0
 22
0.0
 32
0.0
 13
1.0
 23
0.0
 33
0.0
 40
0.0
 40
0.0
 40
0.0
 40
0.0
 40
1.0
 40
1.0
 40
1.0
 40
2.0
 40
2.0
 40
2.0
 40
3.0
 40
3.0
 40
3.0
 40
4.0
 40
4.0
 40
4.0
 40
5.0
 40
5.0
 40
5.0
 40
6.0
 40
6.0
 40
6.0
 40
7.0
 40
7.0
 40
7.0
 40
7.0
 10
96.87780759296805
 20
-119.9151611028337
 30
0.0
 10
96.87780759296805
 20
-119.9151611028337
 30
0.0
 10
96.87780759296805
 20
-120.1683756209996
 30
0.0
 10
96.87780759296805
 20
-120.1683756209996
 30
0.0
 10
96.56878252794114
 20
-120.1415038762146
 30
0.0
 10
96.05064016695957
 20
-119.9354871661967
 30
0.0
 10
95.5449001497249
 20
-119.5014051350552
 30
0.0
 10
95.5449001497249
 20
-119.5014051350552
 30
0.0
 10
95.5449001497249
 20
-120.3967854516716
 30
0.0
 10
95.5449001497249
 20
-120.3967854516716
 30
0.0
 10
95.5449001497249
 20
-120.3967854516716
 30
0.0
 10
95.33337128693056
 20
-120.3967854516716
 30
0.0
 10
95.33337128693056
 20
-120.3967854516716
 30
0.0
 10
95.33337128693056
 20
-120.3967854516716
 30
0.0
 10
95.33337128693056
 20
-119.2481906168893
 30
0.0
 10
95.33337128693056
 20
-119.2481906168893
 30
0.0
 10
95.33337128693056
 20
-119.2481906168893
 30
0.0
 10
95.5449001497249
 20
-119.2481906168893
 30
0.0
 10
95.5449001497249
 20
-119.2481906168893
 30
0.0
 10
95.83497718958293
 20
-119.5940782036084
 30
0.0
 10
96.42718910349737
 20
-119.8789876002386
 30
0.0
 10
96.87780759296805
 20
-119.9151611028337
 30
0.0
  0
HATCH
  5
62
330
5D
100
AcDbEntity
  8
_U+30EC_U+30A4_U+30E4_U+30FC 1
 62
   179
420
  2234388
100
AcDbHatch
 10
0.0
 20
0.0
 30
0.0
210
0.0
220
0.0
230
1.0
  2
SOLID
 70
     1
 71
     0
 91
        1
 92
        1
 93
        1
 72
     4
 94
        3
 73
     0
 74
     1
 95
       26
 96
       22
 40
0.0
 40
0.0
 40
0.0
 40
0.0
 40
1.0
 40
1.0
 40
1.0
 40
2.0
 40
2.0
 40
2.0
 40
3.0
 40
3.0
 40
3.0
 40
4.0
 40
4.0
 40
4.0
 40
5.0
 40
5.0
 40
5.0
 40
6.0
 40
6.0
 40
6.0
 40
7.0
 40
7.0
 40
7.0
 40
7.0
 10
96.87780759296805
 20
-119.9151611028337
 10
96.87780759296805
 20
-119.9151611028337
 10
96.87780759296805
 20
-120.1683756209996
 10
96.87780759296805
 20
-120.1683756209996
 10
96.56878252794114
 20
-120.1415038762146
 10
96.05064016695957
 20
-119.9354871661967
 10
95.5449001497249
 20
-119.5014051350552
 10
95.5449001497249
 20
-119.5014051350552
 10
95.5449001497249
 20
-120.3967854516716
 10
95.5449001497249
 20
-120.3967854516716
 10
95.5449001497249
 20
-120.3967854516716
 10
95.33337128693056
 20
-120.3967854516716
 10
95.33337128693056
 20
-120.3967854516716
 10
95.33337128693056
 20
-120.3967854516716
 10
95.33337128693056
 20
-119.2481906168893
 10
95.33337128693056
 20
-119.2481906168893
 10
95.33337128693056
 20
-119.2481906168893
 10
95.5449001497249
 20
-119.2481906168893
 10
95.5449001497249
 20
-119.2481906168893
 10
95.83497718958293
 20
-119.5940782036084
 10
96.42718910349737
 20
-119.8789876002386
 10
96.87780759296805
 20
-119.9151611028337
 97
        0
 97
        0
 75
     2
 76
     1
 98
        0
  0
ENDBLK
  5
60
330
5D
100
AcDbEntity
  8
0
100
AcDbBlockEnd
  0
BLOCK
  5
65
330
63
100
AcDbEntity
  8
0
100
AcDbBlockBegin
  2
block 5
 70
     0
 10
0.0
 20
0.0
 30
0.0
  3
block 5
  1

  0
POLYLINE
  5
67
330
63
100
AcDbEntity
  8
_U+30EC_U+30A4_U+30E4_U+30FC 1
370
     0
100
AcDb2dPolyline
 66
     1
 10
0.0
 20
0.0
 30
0.0
  0
VERTEX
  5
68
330
67
100
AcDbEntity
  8
_U+30EC_U+30A4_U+30E4_U+30FC 1
370
     0
100
AcDbVertex
100
AcDb2dVertex
 10
96.07096623032254
 20
-111.0461072856065
 30
0.0
  0
VERTEX
  5
69
330
67
100
AcDbEntity
  8
_U+30EC_U+30A4_U+30E4_U+30FC 1
370
     0
100
AcDbVertex
100
AcDb2dVertex
 10
96.07096623032254
 20
-111.3930284009712
 30
0.0
  0
VERTEX
  5
6A
330
67
100
AcDbEntity
  8
_U+30EC_U+30A4_U+30E4_U+30FC 1
370
     0
100
AcDbVertex
100
AcDb2dVertex
 10
95.83807777551965
 20
-111.3930284009712
 30
0.0
  0
VERTEX
  5
6B
330
67
100
AcDbEntity
  8
_U+30EC_U+30A4_U+30E4_U+30FC 1
370
     0
100
AcDbVertex
100
AcDb2dVertex
 10
95.83807777551965
 20
-111.0461072856065
 30
0.0
  0
VERTEX
  5
6C
330
67
100
AcDbEntity
  8
_U+30EC_U+30A4_U+30E4_U+30FC 1
370
     0
100
AcDbVertex
100
AcDb2dVertex
 10
95.13700084427131
 20
-111.0461072856065
 30
0.0
  0
VERTEX
  5
6D
330
67
100
AcDbEntity
  8
_U+30EC_U+30A4_U+30E4_U+30FC 1
370
     0
100
AcDbVertex
100
AcDb2dVertex
 10
95.13700084427131
 20
-110.8218315695168
 30
0.0
  0
VERTEX
  5
6E
330
67
100
AcDbEntity
  8
_U+30EC_U+30A4_U+30E4_U+30FC 1
370
     0
100
AcDbVertex
100
AcDb2dVertex
 10
95.86288246301345
 20
-109.8485920949337
 30
0.0
  0
VERTEX
  5
6F
330
67
100
AcDbEntity
  8
_U+30EC_U+30A4_U+30E4_U+30FC 1
370
     0
100
AcDbVertex
100
AcDb2dVertex
 10
96.07096623032254
 20
-109.8485920949337
 30
0.0
  0
VERTEX
  5
70
330
67
100
AcDbEntity
  8
_U+30EC_U+30A4_U+30E4_U+30FC 1
370
     0
100
AcDbVertex
100
AcDb2dVertex
 10
96.07096623032254
 20
-110.8473252761076
 30
0.0
  0
VERTEX
  5
71
330
67
100
AcDbEntity
  8
_U+30EC_U+30A4_U+30E4_U+30FC 1
370
     0
100
AcDbVertex
100
AcDb2dVertex
 10
96.29248587002411
 20
-110.8473252761076
 30
0.0
  0
VERTEX
  5
72
330
67
100
AcDbEntity
  8
_U+30EC_U+30A4_U+30E4_U+30FC 1
370
     0
100
AcDbVertex
100
AcDb2dVertex
 10
96.29248587002411
 20
-111.0461072856065
 30
0.0
  0
VERTEX
  5
73
330
67
100
AcDbEntity
  8
_U+30EC_U+30A4_U+30E4_U+30FC 1
370
     0
100
AcDbVertex
100
AcDb2dVertex
 10
96.07096623032254
 20
-111.0461072856065
 30
0.0
  0
SEQEND
  5
74
330
67
100
AcDbEntity
  8
_U+30EC_U+30A4_U+30E4_U+30FC 1
370
     0
  0
POLYLINE
  5
75
330
63
100
AcDbEntity
  8
_U+30EC_U+30A4_U+30E4_U+30FC 1
370
     0
100
AcDb2dPolyline
 66
     1
 10
0.0
 20
0.0
 30
0.0
  0
VERTEX
  5
76
330
75
100
AcDbEntity
  8
_U+30EC_U+30A4_U+30E4_U+30FC 1
370
     0
100
AcDbVertex
100
AcDb2dVertex
 10
95.83807777551965
 20
-110.191379095716
 30
0.0
  0
VERTEX
  5
77
330
75
100
AcDbEntity
  8
_U+30EC_U+30A4_U+30E4_U+30FC 1
370
     0
100
AcDbVertex
100
AcDb2dVertex
 10
95.34956323571123
 20
-110.8473252761076
 30
0.0
  0
VERTEX
  5
78
330
75
100
AcDbEntity
  8
_U+30EC_U+30A4_U+30E4_U+30FC 1
370
     0
100
AcDbVertex
100
AcDb2dVertex
 10
95.83807777551965
 20
-110.8473252761076
 30
0.0
  0
VERTEX
  5
79
330
75
100
AcDbEntity
  8
_U+30EC_U+30A4_U+30E4_U+30FC 1
370
     0
100
AcDbVertex
100
AcDb2dVertex
 10
95.83807777551965
 20
-110.191379095716
 30
0.0
  0
SEQEND
  5
7A
330
75
100
AcDbEntity
  8
_U+30EC_U+30A4_U+30E4_U+30FC 1
370
     0
  0
HATCH
  5
7B
330
63
100
AcDbEntity
  8
_U+30EC_U+30A4_U+30E4_U+30FC 1
 62
   179
420
  2234388
100
AcDbHatch
 10
0.0
 20
0.0
 30
0.0
210
0.0
220
0.0
230
1.0
  2
SOLID
 70
     1
 71
     0
 91
        2
 92
        1
 93
       11
 72
     1
 10
96.07096623032254
 20
-111.0461072856065
 11
96.07096623032254
 21
-111.3930284009712
 72
     1
 10
96.07096623032254
 20
-111.3930284009712
 11
95.83807777551965
 21
-111.3930284009712
 72
     1
 10
95.83807777551965
 20
-111.3930284009712
 11
95.83807777551965
 21
-111.0461072856065
 72
     1
 10
95.83807777551965
 20
-111.0461072856065
 11
95.13700084427131
 21
-111.0461072856065
 72
     1
 10
95.13700084427131
 20
-111.0461072856065
 11
95.13700084427131
 21
-110.8218315695168
 72
     1
 10
95.13700084427131
 20
-110.8218315695168
 11
95.86288246301345
 21
-109.8485920949337
 72
     1
 10
95.86288246301345
 20
-109.8485920949337
 11
96.07096623032254
 21
-109.8485920949337
 72
     1
 10
96.07096623032254
 20
-109.8485920949337
 11
96.07096623032254
 21
-110.8473252761076
 72
     1
 10
96.07096623032254
 20
-110.8473252761076
 11
96.29248587002411
 21
-110.8473252761076
 72
     1
 10
96.29248587002411
 20
-110.8473252761076
 11
96.29248587002411
 21
-111.0461072856065
 72
     1
 10
96.29248587002411
 20
-111.0461072856065
 11
96.07096623032254
 21
-111.0461072856065
 97
        0
 92
        1
 93
        3
 72
     1
 10
95.83807777551965
 20
-110.191379095716
 11
95.34956323571123
 21
-110.8473252761076
 72
     1
 10
95.34956323571123
 20
-110.8473252761076
 11
95.83807777551965
 21
-110.8473252761076
 72
     1
 10
95.83807777551965
 20
-110.8473252761076
 11
95.83807777551965
 21
-110.191379095716
 97
        0
 75
     2
 76
     1
 98
        0
  0
POLYLINE
  5
7C
330
63
100
AcDbEntity
  8
_U+30EC_U+30A4_U+30E4_U+30FC 1
370
     0
100
AcDb2dPolyline
 66
     1
 10
0.0
 20
0.0
 30
0.0
  0
VERTEX
  5
7D
330
7C
100
AcDbEntity
  8
_U+30EC_U+30A4_U+30E4_U+30FC 1
370
     0
100
AcDbVertex
100
AcDb2dVertex
 10
96.5033257137214
 20
-111.3930284009712
 30
0.0
  0
VERTEX
  5
7E
330
7C
100
AcDbEntity
  8
_U+30EC_U+30A4_U+30E4_U+30FC 1
370
     0
100
AcDbVertex
100
AcDb2dVertex
 10
96.5033257137214
 20
-111.1411919209994
 30
0.0
  0
VERTEX
  5
7F
330
7C
100
AcDbEntity
  8
_U+30EC_U+30A4_U+30E4_U+30FC 1
370
     0
100
AcDbVertex
100
AcDb2dVertex
 10
96.7723876711194
 20
-111.1411919209994
 30
0.0
  0
VERTEX
  5
80
330
7C
100
AcDbEntity
  8
_U+30EC_U+30A4_U+30E4_U+30FC 1
370
     0
100
AcDbVertex
100
AcDb2dVertex
 10
96.7723876711194
 20
-111.3930284009712
 30
0.0
  0
VERTEX
  5
81
330
7C
100
AcDbEntity
  8
_U+30EC_U+30A4_U+30E4_U+30FC 1
370
     0
100
AcDbVertex
100
AcDb2dVertex
 10
96.5033257137214
 20
-111.3930284009712
 30
0.0
  0
SEQEND
  5
82
330
7C
100
AcDbEntity
  8
_U+30EC_U+30A4_U+30E4_U+30FC 1
370
     0
  0
HATCH
  5
83
330
63
100
AcDbEntity
  8
_U+30EC_U+30A4_U+30E4_U+30FC 1
 62
   179
420
  2234388
100
AcDbHatch
 10
0.0
 20
0.0
 30
0.0
210
0.0
220
0.0
230
1.0
  2
SOLID
 70
     1
 71
     0
 91
        1
 92
        1
 93
        4
 72
     1
 10
96.5033257137214
 20
-111.3930284009712
 11
96.5033257137214
 21
-111.1411919209994
 72
     1
 10
96.5033257137214
 20
-111.1411919209994
 11
96.7723876711194
 21
-111.1411919209994
 72
     1
 10
96.7723876711194
 20
-111.1411919209994
 11
96.7723876711194
 21
-111.3930284009712
 72
     1
 10
96.7723876711194
 20
-111.3930284009712
 11
96.5033257137214
 21
-111.3930284009712
 97
        0
 75
     2
 76
     1
 98
        0
  0
SPLINE
  5
84
330
63
100
AcDbEntity
  8
_U+30EC_U+30A4_U+30E4_U+30FC 1
370
     0
100
AcDbSpline
210
0.0
220
0.0
230
1.0
 70
    11
 71
     3
 72
    26
 73
    22
 74
     0
 42
0.0000000001
 43
0.0000000001
 12
1.0
 22
0.0
 32
0.0
 13
1.0
 23
0.0
 33
0.0
 40
0.0
 40
0.0
 40
0.0
 40
0.0
 40
1.0
 40
1.0
 40
1.0
 40
2.0
 40
2.0
 40
2.0
 40
3.0
 40
3.0
 40
3.0
 40
4.0
 40
4.0
 40
4.0
 40
5.0
 40
5.0
 40
5.0
 40
6.0
 40
6.0
 40
6.0
 40
7.0
 40
7.0
 40
7.0
 40
7.0
 10
97.50757104767172
 20
-111.3930284009712
 30
0.0
 10
97.50757104767172
 20
-111.3930284009712
 30
0.0
 10
97.50757104767172
 20
-110.2888752979486
 30
0.0
 10
97.50757104767172
 20
-110.2888752979486
 30
0.0
 10
97.50757104767172
 20
-110.2888752979486
 30
0.0
 10
97.15513777953066
 20
-110.2888752979486
 30
0.0
 10
97.15513777953066
 20
-110.2888752979486
 30
0.0
 10
97.15513777953066
 20
-110.2888752979486
 30
0.0
 10
97.15513777953066
 20
-110.1407361920829
 30
0.0
 10
97.15513777953066
 20
-110.1407361920829
 30
0.0
 10
97.5099826145114
 20
-110.1259222814963
 30
0.0
 10
97.559591989499
 20
-109.962969265044
 30
0.0
 10
97.59128686796329
 20
-109.8485920949337
 30
0.0
 10
97.59128686796329
 20
-109.8485920949337
 30
0.0
 10
97.74734969344512
 20
-109.8485920949337
 30
0.0
 10
97.74734969344512
 20
-109.8485920949337
 30
0.0
 10
97.74734969344512
 20
-109.8485920949337
 30
0.0
 10
97.74734969344512
 20
-111.3930284009712
 30
0.0
 10
97.74734969344512
 20
-111.3930284009712
 30
0.0
 10
97.74734969344512
 20
-111.3930284009712
 30
0.0
 10
97.50757104767172
 20
-111.3930284009712
 30
0.0
 10
97.50757104767172
 20
-111.3930284009712
 30
0.0
  0
HATCH
  5
85
330
63
100
AcDbEntity
  8
_U+30EC_U+30A4_U+30E4_U+30FC 1
 62
   179
420
  2234388
100
AcDbHatch
 10
0.0
 20
0.0
 30
0.0
210
0.0
220
0.0
230
1.0
  2
SOLID
 70
     1
 71
     0
 91
        1
 92
        1
 93
        1
 72
     4
 94
        3
 73
     0
 74
     1
 95
       26
 96
       22
 40
0.0
 40
0.0
 40
0.0
 40
0.0
 40
1.0
 40
1.0
 40
1.0
 40
2.0
 40
2.0
 40
2.0
 40
3.0
 40
3.0
 40
3.0
 40
4.0
 40
4.0
 40
4.0
 40
5.0
 40
5.0
 40
5.0
 40
6.0
 40
6.0
 40
6.0
 40
7.0
 40
7.0
 40
7.0
 40
7.0
 10
97.50757104767172
 20
-111.3930284009712
 10
97.50757104767172
 20
-111.3930284009712
 10
97.50757104767172
 20
-110.2888752979486
 10
97.50757104767172
 20
-110.2888752979486
 10
97.50757104767172
 20
-110.2888752979486
 10
97.15513777953066
 20
-110.2888752979486
 10
97.15513777953066
 20
-110.2888752979486
 10
97.15513777953066
 20
-110.2888752979486
 10
97.15513777953066
 20
-110.1407361920829
 10
97.15513777953066
 20
-110.1407361920829
 10
97.5099826145114
 20
-110.1259222814963
 10
97.559591989499
 20
-109.962969265044
 10
97.59128686796329
 20
-109.8485920949337
 10
97.59128686796329
 20
-109.8485920949337
 10
97.74734969344512
 20
-109.8485920949337
 10
97.74734969344512
 20
-109.8485920949337
 10
97.74734969344512
 20
-109.8485920949337
 10
97.74734969344512
 20
-111.3930284009712
 10
97.74734969344512
 20
-111.3930284009712
 10
97.74734969344512
 20
-111.3930284009712
 10
97.50757104767172
 20
-111.3930284009712
 10
97.50757104767172
 20
-111.3930284009712
 97
        0
 97
        0
 75
     2
 76
     1
 98
        0
  0
ENDBLK
  5
66
330
63
100
AcDbEntity
  8
0
100
AcDbBlockEnd
  0
BLOCK
  5
88
330
86
100
AcDbEntity
  8
0
100
AcDbBlockBegin
  2
block 6
 70
     0
 10
0.0
 20
0.0
 30
0.0
  3
block 6
  1

  0
SPLINE
  5
8A
330
86
100
AcDbEntity
  8
_U+30EC_U+30A4_U+30E4_U+30FC 1
370
     0
100
AcDbSpline
210
0.0
220
0.0
230
1.0
 70
    11
 71
     3
 72
    44
 73
    40
 74
     0
 42
0.0000000001
 43
0.0000000001
 12
1.0
 22
0.0
 32
0.0
 13
1.0
 23
0.0
 33
0.0
 40
0.0
 40
0.0
 40
0.0
 40
0.0
 40
1.0
 40
1.0
 40
1.0
 40
2.0
 40
2.0
 40
2.0
 40
3.0
 40
3.0
 40
3.0
 40
4.0
 40
4.0
 40
4.0
 40
5.0
 40
5.0
 40
5.0
 40
6.0
 40
6.0
 40
6.0
 40
7.0
 40
7.0
 40
7.0
 40
8.0
 40
8.0
 40
8.0
 40
9.0
 40
9.0
 40
9.0
 40
10.0
 40
10.0
 40
10.0
 40
11.0
 40
11.0
 40
11.0
 40
12.0
 40
12.0
 40
12.0
 40
13.0
 40
13.0
 40
13.0
 40
13.0
 10
95.01538897364199
 20
-126.2954779415164
 30
0.0
 10
94.7825005188391
 20
-126.4542968433864
 30
0.0
 10
94.68293725931538
 20
-126.5283663963193
 30
0.0
 10
94.63126082703663
 20
-126.6720268780542
 30
0.0
 10
94.63126082703663
 20
-126.6720268780542
 30
0.0
 10
95.46290687717594
 20
-126.6720268780542
 30
0.0
 10
95.46290687717594
 20
-126.6720268780542
 30
0.0
 10
95.46290687717594
 20
-126.6720268780542
 30
0.0
 10
95.46290687717594
 20
-126.8773545689751
 30
0.0
 10
95.46290687717594
 20
-126.8773545689751
 30
0.0
 10
95.46290687717594
 20
-126.8773545689751
 30
0.0
 10
94.36426592692978
 20
-126.8773545689751
 30
0.0
 10
94.36426592692978
 20
-126.8773545689751
 30
0.0
 10
94.39837237223375
 20
-126.5197536576062
 30
0.0
 10
94.46830781058432
 20
-126.441549990091
 30
0.0
 10
94.87965221152315
 20
-126.1432047210684
 30
0.0
 10
95.15319279305199
 20
-125.9444227115695
 30
0.0
 10
95.22347274095108
 20
-125.87655433051
 30
0.0
 10
95.22347274095108
 20
-125.7390950206486
 30
0.0
 10
95.22347274095108
 20
-125.620583735956
 30
0.0
 10
95.14664711163
 20
-125.4896701075165
 30
0.0
 10
94.93615177748124
 20
-125.4896701075165
 30
0.0
 10
94.65813257182158
 20
-125.4896701075165
 30
0.0
 10
94.64917532355993
 20
-125.7201469954797
 30
0.0
 10
94.6446966994291
 20
-125.8365912228811
 30
0.0
 10
94.6446966994291
 20
-125.8365912228811
 30
0.0
 10
94.40491805365572
 20
-125.8365912228811
 30
0.0
 10
94.40491805365572
 20
-125.8365912228811
 30
0.0
 10
94.4142198114659
 20
-125.7094671994754
 30
0.0
 10
94.42524411701869
 20
-125.5975015962048
 30
0.0
 10
94.51137150414993
 20
-125.4789903115122
 30
0.0
 10
94.62884926019696
 20
-125.318104352351
 30
0.0
 10
94.82763126969587
 20
-125.2843424165956
 30
0.0
 10
94.95199921671339
 20
-125.2843424165956
 30
0.0
 10
95.24827742844488
 20
-125.2843424165956
 30
0.0
 10
95.46979706814645
 20
-125.4683105155079
 30
0.0
 10
95.46979706814645
 20
-125.7411620779397
 30
0.0
 10
95.46979706814645
 20
-125.9699164181603
 30
0.0
 10
95.34542912112893
 20
-126.0691351681355
 30
0.0
 10
95.01538897364199
 20
-126.2954779415164
 30
0.0
  0
HATCH
  5
8B
330
86
100
AcDbEntity
  8
_U+30EC_U+30A4_U+30E4_U+30FC 1
 62
   179
420
  2234388
100
AcDbHatch
 10
0.0
 20
0.0
 30
0.0
210
0.0
220
0.0
230
1.0
  2
SOLID
 70
     1
 71
     0
 91
        1
 92
        1
 93
        1
 72
     4
 94
        3
 73
     0
 74
     1
 95
       44
 96
       40
 40
0.0
 40
0.0
 40
0.0
 40
0.0
 40
1.0
 40
1.0
 40
1.0
 40
2.0
 40
2.0
 40
2.0
 40
3.0
 40
3.0
 40
3.0
 40
4.0
 40
4.0
 40
4.0
 40
5.0
 40
5.0
 40
5.0
 40
6.0
 40
6.0
 40
6.0
 40
7.0
 40
7.0
 40
7.0
 40
8.0
 40
8.0
 40
8.0
 40
9.0
 40
9.0
 40
9.0
 40
10.0
 40
10.0
 40
10.0
 40
11.0
 40
11.0
 40
11.0
 40
12.0
 40
12.0
 40
12.0
 40
13.0
 40
13.0
 40
13.0
 40
13.0
 10
95.01538897364199
 20
-126.2954779415164
 10
94.7825005188391
 20
-126.4542968433864
 10
94.68293725931538
 20
-126.5283663963193
 10
94.63126082703663
 20
-126.6720268780542
 10
94.63126082703663
 20
-126.6720268780542
 10
95.46290687717594
 20
-126.6720268780542
 10
95.46290687717594
 20
-126.6720268780542
 10
95.46290687717594
 20
-126.6720268780542
 10
95.46290687717594
 20
-126.8773545689751
 10
95.46290687717594
 20
-126.8773545689751
 10
95.46290687717594
 20
-126.8773545689751
 10
94.36426592692978
 20
-126.8773545689751
 10
94.36426592692978
 20
-126.8773545689751
 10
94.39837237223375
 20
-126.5197536576062
 10
94.46830781058432
 20
-126.441549990091
 10
94.87965221152315
 20
-126.1432047210684
 10
95.15319279305199
 20
-125.9444227115695
 10
95.22347274095108
 20
-125.87655433051
 10
95.22347274095108
 20
-125.7390950206486
 10
95.22347274095108
 20
-125.620583735956
 10
95.14664711163
 20
-125.4896701075165
 10
94.93615177748124
 20
-125.4896701075165
 10
94.65813257182158
 20
-125.4896701075165
 10
94.64917532355993
 20
-125.7201469954797
 10
94.6446966994291
 20
-125.8365912228811
 10
94.6446966994291
 20
-125.8365912228811
 10
94.40491805365572
 20
-125.8365912228811
 10
94.40491805365572
 20
-125.8365912228811
 10
94.4142198114659
 20
-125.7094671994754
 10
94.42524411701869
 20
-125.5975015962048
 10
94.51137150414993
 20
-125.4789903115122
 10
94.62884926019696
 20
-125.318104352351
 10
94.82763126969587
 20
-125.2843424165956
 10
94.95199921671339
 20
-125.2843424165956
 10
95.24827742844488
 20
-125.2843424165956
 10
95.46979706814645
 20
-125.4683105155079
 10
95.46979706814645
 20
-125.7411620779397
 10
95.46979706814645
 20
-125.9699164181603
 10
95.34542912112893
 20
-126.0691351681355
 10
95.01538897364199
 20
-126.2954779415164
 97
        0
 97
        0
 75
     2
 76
     1
 98
        0
  0
POLYLINE
  5
8C
330
86
100
AcDbEntity
  8
_U+30EC_U+30A4_U+30E4_U+30FC 1
370
     0
100
AcDb2dPolyline
 66
     1
 10
0.0
 20
0.0
 30
0.0
  0
VERTEX
  5
8D
330
8C
100
AcDbEntity
  8
_U+30EC_U+30A4_U+30E4_U+30FC 1
370
     0
100
AcDbVertex
100
AcDb2dVertex
 10
95.70337454204638
 20
-126.8773545689751
 30
0.0
  0
VERTEX
  5
8E
330
8C
100
AcDbEntity
  8
_U+30EC_U+30A4_U+30E4_U+30FC 1
370
     0
100
AcDbVertex
100
AcDb2dVertex
 10
95.70337454204638
 20
-126.6255180890034
 30
0.0
  0
VERTEX
  5
8F
330
8C
100
AcDbEntity
  8
_U+30EC_U+30A4_U+30E4_U+30FC 1
370
     0
100
AcDbVertex
100
AcDb2dVertex
 10
95.9724364994444
 20
-126.6255180890034
 30
0.0
  0
VERTEX
  5
90
330
8C
100
AcDbEntity
  8
_U+30EC_U+30A4_U+30E4_U+30FC 1
370
     0
100
AcDbVertex
100
AcDb2dVertex
 10
95.9724364994444
 20
-126.8773545689751
 30
0.0
  0
VERTEX
  5
91
330
8C
100
AcDbEntity
  8
_U+30EC_U+30A4_U+30E4_U+30FC 1
370
     0
100
AcDbVertex
100
AcDb2dVertex
 10
95.70337454204638
 20
-126.8773545689751
 30
0.0
  0
SEQEND
  5
92
330
8C
100
AcDbEntity
  8
_U+30EC_U+30A4_U+30E4_U+30FC 1
370
     0
  0
HATCH
  5
93
330
86
100
AcDbEntity
  8
_U+30EC_U+30A4_U+30E4_U+30FC 1
 62
   179
420
  2234388
100
AcDbHatch
 10
0.0
 20
0.0
 30
0.0
210
0.0
220
0.0
230
1.0
  2
SOLID
 70
     1
 71
     0
 91
        1
 92
        1
 93
        4
 72
     1
 10
95.70337454204638
 20
-126.8773545689751
 11
95.70337454204638
 21
-126.6255180890034
 72
     1
 10
95.70337454204638
 20
-126.6255180890034
 11
95.9724364994444
 21
-126.6255180890034
 72
     1
 10
95.9724364994444
 20
-126.6255180890034
 11
95.9724364994444
 21
-126.8773545689751
 72
     1
 10
95.9724364994444
 20
-126.8773545689751
 11
95.70337454204638
 21
-126.8773545689751
 97
        0
 75
     2
 76
     1
 98
        0
  0
SPLINE
  5
94
330
86
100
AcDbEntity
  8
_U+30EC_U+30A4_U+30E4_U+30FC 1
370
     0
100
AcDbSpline
210
0.0
220
0.0
230
1.0
 70
    11
 71
     3
 72
    53
 73
    49
 74
     0
 42
0.0000000001
 43
0.0000000001
 12
1.0
 22
0.0
 32
0.0
 13
1.0
 23
0.0
 33
0.0
 40
0.0
 40
0.0
 40
0.0
 40
0.0
 40
1.0
 40
1.0
 40
1.0
 40
2.0
 40
2.0
 40
2.0
 40
3.0
 40
3.0
 40
3.0
 40
4.0
 40
4.0
 40
4.0
 40
5.0
 40
5.0
 40
5.0
 40
6.0
 40
6.0
 40
6.0
 40
7.0
 40
7.0
 40
7.0
 40
8.0
 40
8.0
 40
8.0
 40
9.0
 40
9.0
 40
9.0
 40
10.0
 40
10.0
 40
10.0
 40
11.0
 40
11.0
 40
11.0
 40
12.0
 40
12.0
 40
12.0
 40
13.0
 40
13.0
 40
13.0
 40
14.0
 40
14.0
 40
14.0
 40
15.0
 40
15.0
 40
15.0
 40
16.0
 40
16.0
 40
16.0
 40
16.0
 10
96.739314754461
 20
-126.9279974726083
 30
0.0
 10
96.65559893416943
 20
-126.9279974726083
 30
0.0
 10
96.54742293593259
 20
-126.9111165047306
 30
0.0
 10
96.4385579185987
 20
-126.847726747802
 30
0.0
 10
96.25321178149225
 20
-126.7378282018225
 30
0.0
 10
96.23081866083814
 20
-126.6065700638345
 30
0.0
 10
96.21049259747515
 20
-126.4987385751461
 30
0.0
 10
96.21049259747515
 20
-126.4987385751461
 30
0.0
 10
96.44785967640887
 20
-126.4987385751461
 30
0.0
 10
96.44785967640887
 20
-126.4987385751461
 30
0.0
 10
96.50642629965812
 20
-126.6975205846451
 30
0.0
 10
96.64216306177697
 20
-126.7271484058182
 30
0.0
 10
96.74172632130069
 20
-126.7271484058182
 30
0.0
 10
96.890898955812
 20
-126.7271484058182
 30
0.0
 10
97.05385197226433
 20
-126.6275851462945
 30
0.0
 10
97.05385197226433
 20
-126.3950412010401
 30
0.0
 10
97.05385197226433
 20
-126.1390706064861
 30
0.0
 10
96.86161564418738
 20
-126.0691351681355
 30
0.0
 10
96.73276907303904
 20
-126.0691351681355
 30
0.0
 10
96.69866262773506
 20
-126.0691351681355
 30
0.0
 10
96.54742293593259
 20
-126.0691351681355
 30
0.0
 10
96.4523383005397
 20
-126.1983262488324
 30
0.0
 10
96.4523383005397
 20
-126.1983262488324
 30
0.0
 10
96.26458059659358
 20
-126.1793782236635
 30
0.0
 10
96.26458059659358
 20
-126.1793782236635
 30
0.0
 10
96.26458059659358
 20
-126.1793782236635
 30
0.0
 10
96.39342716774192
 20
-125.3329182629376
 30
0.0
 10
96.39342716774192
 20
-125.3329182629376
 30
0.0
 10
96.39342716774192
 20
-125.3329182629376
 30
0.0
 10
97.22541772742976
 20
-125.3329182629376
 30
0.0
 10
97.22541772742976
 20
-125.3329182629376
 30
0.0
 10
97.22541772742976
 20
-125.3329182629376
 30
0.0
 10
97.22541772742976
 20
-125.5275661578542
 30
0.0
 10
97.22541772742976
 20
-125.5275661578542
 30
0.0
 10
97.22541772742976
 20
-125.5275661578542
 30
0.0
 10
96.56774899929557
 20
-125.5275661578542
 30
0.0
 10
96.56774899929557
 20
-125.5275661578542
 30
0.0
 10
96.56774899929557
 20
-125.5275661578542
 30
0.0
 10
96.49746905139646
 20
-125.9506238834429
 30
0.0
 10
96.49746905139646
 20
-125.9506238834429
 30
0.0
 10
96.56292586561622
 20
-125.9168619476875
 30
0.0
 10
96.6511203100386
 20
-125.87655433051
 30
0.0
 10
96.77789982389581
 20
-125.87655433051
 30
0.0
 10
97.04902883858497
 20
-125.87655433051
 30
0.0
 10
97.30224335675084
 20
-126.062933996262
 30
0.0
 10
97.30224335675084
 20
-126.3760931758713
 30
0.0
 10
97.30224335675084
 20
-126.6933864700628
 30
0.0
 10
97.06280922052596
 20
-126.9279974726083
 30
0.0
 10
96.739314754461
 20
-126.9279974726083
 30
0.0
  0
HATCH
  5
95
330
86
100
AcDbEntity
  8
_U+30EC_U+30A4_U+30E4_U+30FC 1
 62
   179
420
  2234388
100
AcDbHatch
 10
0.0
 20
0.0
 30
0.0
210
0.0
220
0.0
230
1.0
  2
SOLID
 70
     1
 71
     0
 91
        1
 92
        1
 93
        1
 72
     4
 94
        3
 73
     0
 74
     1
 95
       53
 96
       49
 40
0.0
 40
0.0
 40
0.0
 40
0.0
 40
1.0
 40
1.0
 40
1.0
 40
2.0
 40
2.0
 40
2.0
 40
3.0
 40
3.0
 40
3.0
 40
4.0
 40
4.0
 40
4.0
 40
5.0
 40
5.0
 40
5.0
 40
6.0
 40
6.0
 40
6.0
 40
7.0
 40
7.0
 40
7.0
 40
8.0
 40
8.0
 40
8.0
 40
9.0
 40
9.0
 40
9.0
 40
10.0
 40
10.0
 40
10.0
 40
11.0
 40
11.0
 40
11.0
 40
12.0
 40
12.0
 40
12.0
 40
13.0
 40
13.0
 40
13.0
 40
14.0
 40
14.0
 40
14.0
 40
15.0
 40
15.0
 40
15.0
 40
16.0
 40
16.0
 40
16.0
 40
16.0
 10
96.739314754461
 20
-126.9279974726083
 10
96.65559893416943
 20
-126.9279974726083
 10
96.54742293593259
 20
-126.9111165047306
 10
96.4385579185987
 20
-126.847726747802
 10
96.25321178149225
 20
-126.7378282018225
 10
96.23081866083814
 20
-126.6065700638345
 10
96.21049259747515
 20
-126.4987385751461
 10
96.21049259747515
 20
-126.4987385751461
 10
96.44785967640887
 20
-126.4987385751461
 10
96.44785967640887
 20
-126.4987385751461
 10
96.50642629965812
 20
-126.6975205846451
 10
96.64216306177697
 20
-126.7271484058182
 10
96.74172632130069
 20
-126.7271484058182
 10
96.890898955812
 20
-126.7271484058182
 10
97.05385197226433
 20
-126.6275851462945
 10
97.05385197226433
 20
-126.3950412010401
 10
97.05385197226433
 20
-126.1390706064861
 10
96.86161564418738
 20
-126.0691351681355
 10
96.73276907303904
 20
-126.0691351681355
 10
96.69866262773506
 20
-126.0691351681355
 10
96.54742293593259
 20
-126.0691351681355
 10
96.4523383005397
 20
-126.1983262488324
 10
96.4523383005397
 20
-126.1983262488324
 10
96.26458059659358
 20
-126.1793782236635
 10
96.26458059659358
 20
-126.1793782236635
 10
96.26458059659358
 20
-126.1793782236635
 10
96.39342716774192
 20
-125.3329182629376
 10
96.39342716774192
 20
-125.3329182629376
 10
96.39342716774192
 20
-125.3329182629376
 10
97.22541772742976
 20
-125.3329182629376
 10
97.22541772742976
 20
-125.3329182629376
 10
97.22541772742976
 20
-125.3329182629376
 10
97.22541772742976
 20
-125.5275661578542
 10
97.22541772742976
 20
-125.5275661578542
 10
97.22541772742976
 20
-125.5275661578542
 10
96.56774899929557
 20
-125.5275661578542
 10
96.56774899929557
 20
-125.5275661578542
 10
96.56774899929557
 20
-125.5275661578542
 10
96.49746905139646
 20
-125.9506238834429
 10
96.49746905139646
 20
-125.9506238834429
 10
96.56292586561622
 20
-125.9168619476875
 10
96.6511203100386
 20
-125.87655433051
 10
96.77789982389581
 20
-125.87655433051
 10
97.04902883858497
 20
-125.87655433051
 10
97.30224335675084
 20
-126.062933996262
 10
97.30224335675084
 20
-126.3760931758713
 10
97.30224335675084
 20
-126.6933864700628
 10
97.06280922052596
 20
-126.9279974726083
 10
96.739314754461
 20
-126.9279974726083
 97
        0
 97
        0
 75
     2
 76
     1
 98
        0
  0
ENDBLK
  5
89
330
86
100
AcDbEntity
  8
0
100
AcDbBlockEnd
  0
ENDSEC
  0
SECTION
  2
ENTITIES
  0
INSERT
  5
42
330
1F
100
AcDbEntity
  8
_U+30EC_U+30A4_U+30E4_U+30FC 1
100
AcDbBlockReference
  2
block 2
 10
0.0
 20
0.0
 30
0.0
  0
INSERT
  5
4B
330
1F
100
AcDbEntity
  8
_U+30EC_U+30A4_U+30E4_U+30FC 1
100
AcDbBlockReference
  2
block 3
 10
0.0
 20
0.0
 30
0.0
  0
INSERT
  5
5E
330
1F
100
AcDbEntity
  8
_U+30EC_U+30A4_U+30E4_U+30FC 1
100
AcDbBlockReference
  2
block 4
 10
0.0
 20
0.0
 30
0.0
  0
INSERT
  5
64
330
1F
100
AcDbEntity
  8
_U+30EC_U+30A4_U+30E4_U+30FC 1
100
AcDbBlockReference
  2
block 5
 10
0.0
 20
0.0
 30
0.0
  0
INSERT
  5
87
330
1F
100
AcDbEntity
  8
_U+30EC_U+30A4_U+30E4_U+30FC 1
100
AcDbBlockReference
  2
block 6
 10
0.0
 20
0.0
 30
0.0
  0
SPLINE
  5
96
330
1F
100
AcDbEntity
  8
_U+30EC_U+30A4_U+30E4_U+30FC 1
370
     0
100
AcDbSpline
210
0.0
220
0.0
230
1.0
 70
    11
 71
     3
 72
    35
 73
    31
 74
     0
 42
0.0000000001
 43
0.0000000001
 12
1.0
 22
0.0
 32
0.0
 13
1.0
 23
0.0
 33
0.0
 40
0.0
 40
0.0
 40
0.0
 40
0.0
 40
1.0
 40
1.0
 40
1.0
 40
2.0
 40
2.0
 40
2.0
 40
3.0
 40
3.0
 40
3.0
 40
4.0
 40
4.0
 40
4.0
 40
5.0
 40
5.0
 40
5.0
 40
6.0
 40
6.0
 40
6.0
 40
7.0
 40
7.0
 40
7.0
 40
8.0
 40
8.0
 40
8.0
 40
9.0
 40
9.0
 40
9.0
 40
10.0
 40
10.0
 40
10.0
 40
10.0
 10
90.28941297430295
 20
-116.3234627486971
 30
0.0
 10
90.28941297430295
 20
-116.3234627486971
 30
0.0
 10
92.78986652162217
 20
-116.3234627486971
 30
0.0
 10
92.78986652162217
 20
-116.3234627486971
 30
0.0
 10
93.23150901035494
 20
-116.3234627486971
 30
0.0
 10
93.58979011232553
 20
-116.6817791374963
 30
0.0
 10
93.58979011232553
 20
-117.1234216373857
 30
0.0
 10
93.58979011232553
 20
-117.1234216373857
 30
0.0
 10
93.58979011232553
 20
-123.323208858058
 30
0.0
 10
93.58979011232553
 20
-123.323208858058
 30
0.0
 10
93.58979011232553
 20
-123.323208858058
 30
0.0
 10
92.78986652162217
 20
-123.323208858058
 30
0.0
 10
92.78986652162217
 20
-123.323208858058
 30
0.0
 10
92.78986652162217
 20
-123.323208858058
 30
0.0
 10
92.78986652162217
 20
-117.1234216373857
 30
0.0
 10
92.78986652162217
 20
-117.1234216373857
 30
0.0
 10
92.78986652162217
 20
-117.1234216373857
 30
0.0
 10
90.28941297430295
 20
-117.1234216373857
 30
0.0
 10
90.28941297430295
 20
-117.1234216373857
 30
0.0
 10
90.28941297430295
 20
-117.1234216373857
 30
0.0
 10
90.28941297430295
 20
-141.5224499646191
 30
0.0
 10
90.28941297430295
 20
-141.5224499646191
 30
0.0
 10
90.28941297430295
 20
-141.5224499646191
 30
0.0
 10
89.48945410582272
 20
-142.3220560755306
 30
0.0
 10
89.48945410582272
 20
-142.3220560755306
 30
0.0
 10
89.48945410582272
 20
-142.3220560755306
 30
0.0
 10
89.48945410582272
 20
-117.1234216373857
 30
0.0
 10
89.48945410582272
 20
-117.1234216373857
 30
0.0
 10
89.48945410582272
 20
-116.6817791374963
 30
0.0
 10
89.8477352077933
 20
-116.3234627486971
 30
0.0
 10
90.28941297430295
 20
-116.3234627486971
 30
0.0
  0
POLYLINE
  5
97
330
1F
100
AcDbEntity
  8
_U+30EC_U+30A4_U+30E4_U+30FC 1
 62
   179
420
  2234388
370
    25
100
AcDb2dPolyline
 66
     1
 10
0.0
 20
0.0
 30
0.0
  0
VERTEX
  5
98
330
97
100
AcDbEntity
  8
_U+30EC_U+30A4_U+30E4_U+30FC 1
 62
   179
420
  2234388
370
    25
100
AcDbVertex
100
AcDb2dVertex
 10
89.48945410582272
 20
-142.3220560755306
 30
0.0
  0
VERTEX
  5
99
330
97
100
AcDbEntity
  8
_U+30EC_U+30A4_U+30E4_U+30FC 1
 62
   179
420
  2234388
370
    25
100
AcDbVertex
100
AcDb2dVertex
 10
89.48945410582272
 20
-117.1234216373857
 30
0.0
  0
SEQEND
  5
9A
330
97
100
AcDbEntity
  8
_U+30EC_U+30A4_U+30E4_U+30FC 1
 62
   179
420
  2234388
370
    25
  0
POLYLINE
  5
9B
330
1F
100
AcDbEntity
  8
_U+30EC_U+30A4_U+30E4_U+30FC 1
 62
   179
420
  2234388
370
    25
100
AcDb2dPolyline
 66
     1
 10
0.0
 20
0.0
 30
0.0
  0
VERTEX
  5
9C
330
9B
100
AcDbEntity
  8
_U+30EC_U+30A4_U+30E4_U+30FC 1
 62
   179
420
  2234388
370
    25
100
AcDbVertex
100
AcDb2dVertex
 10
92.78986652162217
 20
-116.3234627486971
 30
0.0
  0
VERTEX
  5
9D
330
9B
100
AcDbEntity
  8
_U+30EC_U+30A4_U+30E4_U+30FC 1
 62
   179
420
  2234388
370
    25
100
AcDbVertex
100
AcDb2dVertex
 10
90.28941297430295
 20
-116.3234627486971
 30
0.0
  0
SEQEND
  5
9E
330
9B
100
AcDbEntity
  8
_U+30EC_U+30A4_U+30E4_U+30FC 1
 62
   179
420
  2234388
370
    25
  0
POLYLINE
  5
9F
330
1F
100
AcDbEntity
  8
_U+30EC_U+30A4_U+30E4_U+30FC 1
 62
   179
420
  2234388
370
    25
100
AcDb2dPolyline
 66
     1
 10
0.0
 20
0.0
 30
0.0
  0
VERTEX
  5
A0
330
9F
100
AcDbEntity
  8
_U+30EC_U+30A4_U+30E4_U+30FC 1
 62
   179
420
  2234388
370
    25
100
AcDbVertex
100
AcDb2dVertex
 10
93.58979011232553
 20
-123.323208858058
 30
0.0
  0
VERTEX
  5
A1
330
9F
100
AcDbEntity
  8
_U+30EC_U+30A4_U+30E4_U+30FC 1
 62
   179
420
  2234388
370
    25
100
AcDbVertex
100
AcDb2dVertex
 10
93.58979011232553
 20
-117.1234216373857
 30
0.0
  0
SEQEND
  5
A2
330
9F
100
AcDbEntity
  8
_U+30EC_U+30A4_U+30E4_U+30FC 1
 62
   179
420
  2234388
370
    25
  0
POLYLINE
  5
A3
330
1F
100
AcDbEntity
  8
_U+30EC_U+30A4_U+30E4_U+30FC 1
 62
   179
420
  2234388
370
    25
100
AcDb2dPolyline
 66
     1
 10
0.0
 20
0.0
 30
0.0
  0
VERTEX
  5
A4
330
A3
100
AcDbEntity
  8
_U+30EC_U+30A4_U+30E4_U+30FC 1
 62
   179
420
  2234388
370
    25
100
AcDbVertex
100
AcDb2dVertex
 10
93.58979011232553
 20
-123.323208858058
 30
0.0
  0
VERTEX
  5
A5
330
A3
100
AcDbEntity
  8
_U+30EC_U+30A4_U+30E4_U+30FC 1
 62
   179
420
  2234388
370
    25
100
AcDbVertex
100
AcDb2dVertex
 10
92.78986652162217
 20
-123.323208858058
 30
0.0
  0
SEQEND
  5
A6
330
A3
100
AcDbEntity
  8
_U+30EC_U+30A4_U+30E4_U+30FC 1
 62
   179
420
  2234388
370
    25
  0
POLYLINE
  5
A7
330
1F
100
AcDbEntity
  8
_U+30EC_U+30A4_U+30E4_U+30FC 1
 62
   179
420
  2234388
370
    25
100
AcDb2dPolyline
 66
     1
 10
0.0
 20
0.0
 30
0.0
  0
VERTEX
  5
A8
330
A7
100
AcDbEntity
  8
_U+30EC_U+30A4_U+30E4_U+30FC 1
 62
   179
420
  2234388
370
    25
100
AcDbVertex
100
AcDb2dVertex
 10
90.28941297430295
 20
-141.5224499646191
 30
0.0
  0
VERTEX
  5
A9
330
A7
100
AcDbEntity
  8
_U+30EC_U+30A4_U+30E4_U+30FC 1
 62
   179
420
  2234388
370
    25
100
AcDbVertex
100
AcDb2dVertex
 10
90.28941297430295
 20
-117.1234216373857
 30
0.0
  0
SEQEND
  5
AA
330
A7
100
AcDbEntity
  8
_U+30EC_U+30A4_U+30E4_U+30FC 1
 62
   179
420
  2234388
370
    25
  0
POLYLINE
  5
AB
330
1F
100
AcDbEntity
  8
_U+30EC_U+30A4_U+30E4_U+30FC 1
 62
   179
420
  2234388
370
    25
100
AcDb2dPolyline
 66
     1
 10
0.0
 20
0.0
 30
0.0
  0
VERTEX
  5
AC
330
AB
100
AcDbEntity
  8
_U+30EC_U+30A4_U+30E4_U+30FC 1
 62
   179
420
  2234388
370
    25
100
AcDbVertex
100
AcDb2dVertex
 10
92.78986652162217
 20
-123.323208858058
 30
0.0
  0
VERTEX
  5
AD
330
AB
100
AcDbEntity
  8
_U+30EC_U+30A4_U+30E4_U+30FC 1
 62
   179
420
  2234388
370
    25
100
AcDbVertex
100
AcDb2dVertex
 10
92.78986652162217
 20
-117.1234216373857
 30
0.0
  0
SEQEND
  5
AE
330
AB
100
AcDbEntity
  8
_U+30EC_U+30A4_U+30E4_U+30FC 1
 62
   179
420
  2234388
370
    25
  0
POLYLINE
  5
AF
330
1F
100
AcDbEntity
  8
_U+30EC_U+30A4_U+30E4_U+30FC 1
 62
   179
420
  2234388
370
    25
100
AcDb2dPolyline
 66
     1
 10
0.0
 20
0.0
 30
0.0
  0
VERTEX
  5
B0
330
AF
100
AcDbEntity
  8
_U+30EC_U+30A4_U+30E4_U+30FC 1
 62
   179
420
  2234388
370
    25
100
AcDbVertex
100
AcDb2dVertex
 10
92.78986652162217
 20
-117.1234216373857
 30
0.0
  0
VERTEX
  5
B1
330
AF
100
AcDbEntity
  8
_U+30EC_U+30A4_U+30E4_U+30FC 1
 62
   179
420
  2234388
370
    25
100
AcDbVertex
100
AcDb2dVertex
 10
90.28941297430295
 20
-117.1234216373857
 30
0.0
  0
SEQEND
  5
B2
330
AF
100
AcDbEntity
  8
_U+30EC_U+30A4_U+30E4_U+30FC 1
 62
   179
420
  2234388
370
    25
  0
POLYLINE
  5
B3
330
1F
100
AcDbEntity
  8
_U+30EC_U+30A4_U+30E4_U+30FC 1
 62
   179
420
  2234388
370
    25
100
AcDb2dPolyline
 66
     1
 10
0.0
 20
0.0
 30
0.0
  0
VERTEX
  5
B4
330
B3
100
AcDbEntity
  8
_U+30EC_U+30A4_U+30E4_U+30FC 1
 62
   179
420
  2234388
370
    25
100
AcDbVertex
100
AcDb2dVertex
 10
89.48945410582272
 20
-142.3220560755306
 30
0.0
  0
VERTEX
  5
B5
330
B3
100
AcDbEntity
  8
_U+30EC_U+30A4_U+30E4_U+30FC 1
 62
   179
420
  2234388
370
    25
100
AcDbVertex
100
AcDb2dVertex
 10
90.28941297430295
 20
-141.5224499646191
 30
0.0
  0
SEQEND
  5
B6
330
B3
100
AcDbEntity
  8
_U+30EC_U+30A4_U+30E4_U+30FC 1
 62
   179
420
  2234388
370
    25
  0
SPLINE
  5
B7
330
1F
100
AcDbEntity
  8
_U+30EC_U+30A4_U+30E4_U+30FC 1
 62
   179
420
  2234388
370
    25
100
AcDbSpline
210
0.0
220
0.0
230
1.0
 70
     8
 71
     3
 72
     8
 73
     4
 74
     0
 42
0.0000000001
 43
0.0000000001
 12
1.0
 22
0.0
 32
0.0
 13
1.0
 23
0.0
 33
0.0
 40
0.0
 40
0.0
 40
0.0
 40
0.0
 40
1.0
 40
1.0
 40
1.0
 40
1.0
 10
89.48945410582272
 20
-117.1234216373857
 30
0.0
 10
89.48945410582272
 20
-116.6817791374963
 30
0.0
 10
89.8477352077933
 20
-116.3234627486971
 30
0.0
 10
90.28941297430295
 20
-116.3234627486971
 30
0.0
  0
SPLINE
  5
B8
330
1F
100
AcDbEntity
  8
_U+30EC_U+30A4_U+30E4_U+30FC 1
 62
   179
420
  2234388
370
    25
100
AcDbSpline
210
0.0
220
0.0
230
1.0
 70
     8
 71
     3
 72
     8
 73
     4
 74
     0
 42
0.0000000001
 43
0.0000000001
 12
1.0
 22
0.0
 32
0.0
 13
1.0
 23
0.0
 33
0.0
 40
0.0
 40
0.0
 40
0.0
 40
0.0
 40
1.0
 40
1.0
 40
1.0
 40
1.0
 10
92.78986652162217
 20
-116.3234627486971
 30
0.0
 10
93.23150901035494
 20
-116.3234627486971
 30
0.0
 10
93.58979011232553
 20
-116.6817791374963
 30
0.0
 10
93.58979011232553
 20
-117.1234216373857
 30
0.0
  0
SPLINE
  5
B9
330
1F
100
AcDbEntity
  8
_U+30EC_U+30A4_U+30E4_U+30FC 1
 62
   179
420
  2234388
370
     9
100
AcDbSpline
210
0.0
220
0.0
230
1.0
 70
    11
 71
     3
 72
    17
 73
    13
 74
     0
 42
0.0000000001
 43
0.0000000001
 12
1.0
 22
0.0
 32
0.0
 13
1.0
 23
0.0
 33
0.0
 40
0.0
 40
0.0
 40
0.0
 40
0.0
 40
1.0
 40
1.0
 40
1.0
 40
2.0
 40
2.0
 40
2.0
 40
3.0
 40
3.0
 40
3.0
 40
4.0
 40
4.0
 40
4.0
 40
4.0
 10
90.28941297430295
 20
-146.2219085745559
 30
0.0
 10
90.34522241732357
 20
-146.2219085745559
 30
0.0
 10
90.38998991618146
 20
-146.2667113523219
 30
0.0
 10
90.38998991618146
 20
-146.3218152411975
 30
0.0
 10
90.38998991618146
 20
-146.37695440785
 30
0.0
 10
90.34522241732357
 20
-146.4217219078392
 30
0.0
 10
90.28941297430295
 20
-146.4217219078392
 30
0.0
 10
90.234273809043
 20
-146.4217219078392
 30
0.0
 10
90.18950631018511
 20
-146.37695440785
 30
0.0
 10
90.18950631018511
 20
-146.3218152411975
 30
0.0
 10
90.18950631018511
 20
-146.2667113523219
 30
0.0
 10
90.234273809043
 20
-146.2219085745559
 30
0.0
 10
90.28941297430295
 20
-146.2219085745559
 30
0.0
  0
SPLINE
  5
BA
330
1F
100
AcDbEntity
  8
_U+30EC_U+30A4_U+30E4_U+30FC 1
 62
   179
420
  2234388
370
     9
100
AcDbSpline
210
0.0
220
0.0
230
1.0
 70
    11
 71
     3
 72
    17
 73
    13
 74
     0
 42
0.0000000001
 43
0.0000000001
 12
1.0
 22
0.0
 32
0.0
 13
1.0
 23
0.0
 33
0.0
 40
0.0
 40
0.0
 40
0.0
 40
0.0
 40
1.0
 40
1.0
 40
1.0
 40
2.0
 40
2.0
 40
2.0
 40
3.0
 40
3.0
 40
3.0
 40
4.0
 40
4.0
 40
4.0
 40
4.0
 10
89.48945410582272
 20
-146.2219085745559
 30
0.0
 10
89.54526354884334
 20
-146.2219085745559
 30
0.0
 10
89.58936076994054
 20
-146.2667113523219
 30
0.0
 10
89.58936076994054
 20
-146.3218152411975
 30
0.0
 10
89.58936076994054
 20
-146.37695440785
 30
0.0
 10
89.54526354884334
 20
-146.4217219078392
 30
0.0
 10
89.48945410582272
 20
-146.4217219078392
 30
0.0
 10
89.43431494056276
 20
-146.4217219078392
 30
0.0
 10
89.38954744170488
 20
-146.37695440785
 30
0.0
 10
89.38954744170488
 20
-146.3218152411975
 30
0.0
 10
89.38954744170488
 20
-146.2667113523219
 30
0.0
 10
89.43431494056276
 20
-146.2219085745559
 30
0.0
 10
89.48945410582272
 20
-146.2219085745559
 30
0.0
  0
SPLINE
  5
BB
330
1F
100
AcDbEntity
  8
_U+30EC_U+30A4_U+30E4_U+30FC 1
 62
   179
420
  2234388
370
     9
100
AcDbSpline
210
0.0
220
0.0
230
1.0
 70
    11
 71
     3
 72
    17
 73
    13
 74
     0
 42
0.0000000001
 43
0.0000000001
 12
1.0
 22
0.0
 32
0.0
 13
1.0
 23
0.0
 33
0.0
 40
0.0
 40
0.0
 40
0.0
 40
0.0
 40
1.0
 40
1.0
 40
1.0
 40
2.0
 40
2.0
 40
2.0
 40
3.0
 40
3.0
 40
3.0
 40
4.0
 40
4.0
 40
4.0
 40
4.0
 10
85.48969720084968
 20
-142.222149408889
 30
0.0
 10
85.54483420645835
 20
-142.222149408889
 30
0.0
 10
85.58960170531624
 20
-142.2669521866557
 30
0.0
 10
85.58960170531624
 20
-142.3220560755306
 30
0.0
 10
85.58960170531624
 20
-142.3771952421837
 30
0.0
 10
85.54483420645835
 20
-142.4219627421723
 30
0.0
 10
85.48969720084968
 20
-142.4219627421723
 30
0.0
 10
85.43459115371533
 20
-142.4219627421723
 30
0.0
 10
85.38978837708056
 20
-142.3771952421837
 30
0.0
 10
85.38978837708056
 20
-142.3220560755306
 30
0.0
 10
85.38978837708056
 20
-142.2669521866557
 30
0.0
 10
85.43459115371533
 20
-142.222149408889
 30
0.0
 10
85.48969720084968
 20
-142.222149408889
 30
0.0
  0
SPLINE
  5
BC
330
1F
100
AcDbEntity
  8
_U+30EC_U+30A4_U+30E4_U+30FC 1
 62
   179
420
  2234388
370
     9
100
AcDbSpline
210
0.0
220
0.0
230
1.0
 70
    11
 71
     3
 72
    17
 73
    13
 74
     0
 42
0.0000000001
 43
0.0000000001
 12
1.0
 22
0.0
 32
0.0
 13
1.0
 23
0.0
 33
0.0
 40
0.0
 40
0.0
 40
0.0
 40
0.0
 40
1.0
 40
1.0
 40
1.0
 40
2.0
 40
2.0
 40
2.0
 40
3.0
 40
3.0
 40
3.0
 40
4.0
 40
4.0
 40
4.0
 40
4.0
 10
85.48969720084968
 20
-116.2235560820551
 30
0.0
 10
85.54483420645835
 20
-116.2235560820551
 30
0.0
 10
85.58960170531624
 20
-116.2683588598218
 30
0.0
 10
85.58960170531624
 20
-116.3234627486971
 30
0.0
 10
85.58960170531624
 20
-116.3786019153498
 30
0.0
 10
85.54483420645835
 20
-116.4233694153387
 30
0.0
 10
85.48969720084968
 20
-116.4233694153387
 30
0.0
 10
85.43459115371533
 20
-116.4233694153387
 30
0.0
 10
85.38978837708056
 20
-116.3786019153498
 30
0.0
 10
85.38978837708056
 20
-116.3234627486971
 30
0.0
 10
85.38978837708056
 20
-116.2683588598218
 30
0.0
 10
85.43459115371533
 20
-116.2235560820551
 30
0.0
 10
85.48969720084968
 20
-116.2235560820551
 30
0.0
  0
SPLINE
  5
BD
330
1F
100
AcDbEntity
  8
_U+30EC_U+30A4_U+30E4_U+30FC 1
 62
   179
420
  2234388
370
     9
100
AcDbSpline
210
0.0
220
0.0
230
1.0
 70
    11
 71
     3
 72
    17
 73
    13
 74
     0
 42
0.0000000001
 43
0.0000000001
 12
1.0
 22
0.0
 32
0.0
 13
1.0
 23
0.0
 33
0.0
 40
0.0
 40
0.0
 40
0.0
 40
0.0
 40
1.0
 40
1.0
 40
1.0
 40
2.0
 40
2.0
 40
2.0
 40
3.0
 40
3.0
 40
3.0
 40
4.0
 40
4.0
 40
4.0
 40
4.0
 10
97.58954917694984
 20
-123.2233021914163
 30
0.0
 10
97.64468834220979
 20
-123.2233021914163
 30
0.0
 10
97.68945830891128
 20
-123.268104969183
 30
0.0
 10
97.68945830891128
 20
-123.323208858058
 30
0.0
 10
97.68945830891128
 20
-123.3790183024887
 30
0.0
 10
97.64468834220979
 20
-123.4238210802551
 30
0.0
 10
97.58954917694984
 20
-123.4238210802551
 30
0.0
 10
97.53444528946677
 20
-123.4238210802551
 30
0.0
 10
97.489642512832
 20
-123.3790183024887
 30
0.0
 10
97.489642512832
 20
-123.323208858058
 30
0.0
 10
97.489642512832
 20
-123.268104969183
 30
0.0
 10
97.53444528946677
 20
-123.2233021914163
 30
0.0
 10
97.58954917694984
 20
-123.2233021914163
 30
0.0
  0
SPLINE
  5
BE
330
1F
100
AcDbEntity
  8
_U+30EC_U+30A4_U+30E4_U+30FC 1
 62
   179
420
  2234388
370
     9
100
AcDbSpline
210
0.0
220
0.0
230
1.0
 70
    11
 71
     3
 72
    17
 73
    13
 74
     0
 42
0.0000000001
 43
0.0000000001
 12
1.0
 22
0.0
 32
0.0
 13
1.0
 23
0.0
 33
0.0
 40
0.0
 40
0.0
 40
0.0
 40
0.0
 40
1.0
 40
1.0
 40
1.0
 40
2.0
 40
2.0
 40
2.0
 40
3.0
 40
3.0
 40
3.0
 40
4.0
 40
4.0
 40
4.0
 40
4.0
 10
97.58954917694984
 20
-116.2235560820551
 30
0.0
 10
97.64468834220979
 20
-116.2235560820551
 30
0.0
 10
97.68945830891128
 20
-116.2683588598218
 30
0.0
 10
97.68945830891128
 20
-116.3234627486971
 30
0.0
 10
97.68945830891128
 20
-116.3786019153498
 30
0.0
 10
97.64468834220979
 20
-116.4233694153387
 30
0.0
 10
97.58954917694984
 20
-116.4233694153387
 30
0.0
 10
97.53444528946677
 20
-116.4233694153387
 30
0.0
 10
97.489642512832
 20
-116.3786019153498
 30
0.0
 10
97.489642512832
 20
-116.3234627486971
 30
0.0
 10
97.489642512832
 20
-116.2683588598218
 30
0.0
 10
97.53444528946677
 20
-116.2235560820551
 30
0.0
 10
97.58954917694984
 20
-116.2235560820551
 30
0.0
  0
SPLINE
  5
BF
330
1F
100
AcDbEntity
  8
_U+30EC_U+30A4_U+30E4_U+30FC 1
 62
   179
420
  2234388
370
     9
100
AcDbSpline
210
0.0
220
0.0
230
1.0
 70
    11
 71
     3
 72
    17
 73
    13
 74
     0
 42
0.0000000001
 43
0.0000000001
 12
1.0
 22
0.0
 32
0.0
 13
1.0
 23
0.0
 33
0.0
 40
0.0
 40
0.0
 40
0.0
 40
0.0
 40
1.0
 40
1.0
 40
1.0
 40
2.0
 40
2.0
 40
2.0
 40
3.0
 40
3.0
 40
3.0
 40
4.0
 40
4.0
 40
4.0
 40
4.0
 10
92.78986652162217
 20
-127.2237669126384
 30
0.0
 10
92.84497040910524
 20
-127.2237669126384
 30
0.0
 10
92.88977318574001
 20
-127.2685344126273
 30
0.0
 10
92.88977318574001
 20
-127.32367357928
 30
0.0
 10
92.88977318574001
 20
-127.3787774681553
 30
0.0
 10
92.84497040910524
 20
-127.423580245922
 30
0.0
 10
92.78986652162217
 20
-127.423580245922
 30
0.0
 10
92.73472735636223
 20
-127.423580245922
 30
0.0
 10
92.68995985750433
 20
-127.3787774681553
 30
0.0
 10
92.68995985750433
 20
-127.32367357928
 30
0.0
 10
92.68995985750433
 20
-127.2685344126273
 30
0.0
 10
92.73472735636223
 20
-127.2237669126384
 30
0.0
 10
92.78986652162217
 20
-127.2237669126384
 30
0.0
  0
SPLINE
  5
C0
330
1F
100
AcDbEntity
  8
_U+30EC_U+30A4_U+30E4_U+30FC 1
 62
   179
420
  2234388
370
     9
100
AcDbSpline
210
0.0
220
0.0
230
1.0
 70
    11
 71
     3
 72
    17
 73
    13
 74
     0
 42
0.0000000001
 43
0.0000000001
 12
1.0
 22
0.0
 32
0.0
 13
1.0
 23
0.0
 33
0.0
 40
0.0
 40
0.0
 40
0.0
 40
0.0
 40
1.0
 40
1.0
 40
1.0
 40
2.0
 40
2.0
 40
2.0
 40
3.0
 40
3.0
 40
3.0
 40
4.0
 40
4.0
 40
4.0
 40
4.0
 10
90.28941297430295
 20
-127.2237669126384
 30
0.0
 10
90.34522241732357
 20
-127.2237669126384
 30
0.0
 10
90.38998991618146
 20
-127.2685344126273
 30
0.0
 10
90.38998991618146
 20
-127.32367357928
 30
0.0
 10
90.38998991618146
 20
-127.3787774681553
 30
0.0
 10
90.34522241732357
 20
-127.423580245922
 30
0.0
 10
90.28941297430295
 20
-127.423580245922
 30
0.0
 10
90.234273809043
 20
-127.423580245922
 30
0.0
 10
90.18950631018511
 20
-127.3787774681553
 30
0.0
 10
90.18950631018511
 20
-127.32367357928
 30
0.0
 10
90.18950631018511
 20
-127.2685344126273
 30
0.0
 10
90.234273809043
 20
-127.2237669126384
 30
0.0
 10
90.28941297430295
 20
-127.2237669126384
 30
0.0
  0
SPLINE
  5
C1
330
1F
100
AcDbEntity
  8
_U+30EC_U+30A4_U+30E4_U+30FC 1
 62
   179
420
  2234388
370
     9
100
AcDbSpline
210
0.0
220
0.0
230
1.0
 70
    11
 71
     3
 72
    17
 73
    13
 74
     0
 42
0.0000000001
 43
0.0000000001
 12
1.0
 22
0.0
 32
0.0
 13
1.0
 23
0.0
 33
0.0
 40
0.0
 40
0.0
 40
0.0
 40
0.0
 40
1.0
 40
1.0
 40
1.0
 40
2.0
 40
2.0
 40
2.0
 40
3.0
 40
3.0
 40
3.0
 40
4.0
 40
4.0
 40
4.0
 40
4.0
 10
89.48945410582272
 20
-112.2237969163885
 30
0.0
 10
89.54526354884334
 20
-112.2237969163885
 30
0.0
 10
89.58936076994054
 20
-112.2685996941553
 30
0.0
 10
89.58936076994054
 20
-112.3237035830302
 30
0.0
 10
89.58936076994054
 20
-112.3788427496832
 30
0.0
 10
89.54526354884334
 20
-112.4236455274497
 30
0.0
 10
89.48945410582272
 20
-112.4236455274497
 30
0.0
 10
89.43431494056276
 20
-112.4236455274497
 30
0.0
 10
89.38954744170488
 20
-112.3788427496832
 30
0.0
 10
89.38954744170488
 20
-112.3237035830302
 30
0.0
 10
89.38954744170488
 20
-112.2685996941553
 30
0.0
 10
89.43431494056276
 20
-112.2237969163885
 30
0.0
 10
89.48945410582272
 20
-112.2237969163885
 30
0.0
  0
SPLINE
  5
C2
330
1F
100
AcDbEntity
  8
_U+30EC_U+30A4_U+30E4_U+30FC 1
 62
   179
420
  2234388
370
     9
100
AcDbSpline
210
0.0
220
0.0
230
1.0
 70
    11
 71
     3
 72
    17
 73
    13
 74
     0
 42
0.0000000001
 43
0.0000000001
 12
1.0
 22
0.0
 32
0.0
 13
1.0
 23
0.0
 33
0.0
 40
0.0
 40
0.0
 40
0.0
 40
0.0
 40
1.0
 40
1.0
 40
1.0
 40
2.0
 40
2.0
 40
2.0
 40
3.0
 40
3.0
 40
3.0
 40
4.0
 40
4.0
 40
4.0
 40
4.0
 10
93.58979011232553
 20
-112.2237969163885
 30
0.0
 10
93.64492927758549
 20
-112.2237969163885
 30
0.0
 10
93.68969677644337
 20
-112.2685996941553
 30
0.0
 10
93.68969677644337
 20
-112.3237035830302
 30
0.0
 10
93.68969677644337
 20
-112.3788427496832
 30
0.0
 10
93.64492927758549
 20
-112.4236455274497
 30
0.0
 10
93.58979011232553
 20
-112.4236455274497
 30
0.0
 10
93.53468622484246
 20
-112.4236455274497
 30
0.0
 10
93.4898834482077
 20
-112.3788427496832
 30
0.0
 10
93.4898834482077
 20
-112.3237035830302
 30
0.0
 10
93.4898834482077
 20
-112.2685996941553
 30
0.0
 10
93.53468622484246
 20
-112.2237969163885
 30
0.0
 10
93.58979011232553
 20
-112.2237969163885
 30
0.0
  0
POLYLINE
  5
C3
330
1F
100
AcDbEntity
  8
_U+30EC_U+30A4_U+30E4_U+30FC 1
 62
   179
420
  2234388
370
     9
100
AcDb2dPolyline
 66
     1
 10
0.0
 20
0.0
 30
0.0
  0
VERTEX
  5
C4
330
C3
100
AcDbEntity
  8
_U+30EC_U+30A4_U+30E4_U+30FC 1
 62
   179
420
  2234388
370
     9
100
AcDbVertex
100
AcDb2dVertex
 10
90.28941297430295
 20
-146.3218152411975
 30
0.0
  0
VERTEX
  5
C5
330
C3
100
AcDbEntity
  8
_U+30EC_U+30A4_U+30E4_U+30FC 1
 62
   179
420
  2234388
370
     9
100
AcDbVertex
100
AcDb2dVertex
 10
95.54731867349594
 20
-146.3218152411975
 30
0.0
  0
SEQEND
  5
C6
330
C3
100
AcDbEntity
  8
_U+30EC_U+30A4_U+30E4_U+30FC 1
 62
   179
420
  2234388
370
     9
  0
POLYLINE
  5
C7
330
1F
100
AcDbEntity
  8
_U+30EC_U+30A4_U+30E4_U+30FC 1
 62
   179
420
  2234388
370
     9
100
AcDb2dPolyline
 66
     1
 10
0.0
 20
0.0
 30
0.0
  0
VERTEX
  5
C8
330
C7
100
AcDbEntity
  8
_U+30EC_U+30A4_U+30E4_U+30FC 1
 62
   179
420
  2234388
370
     9
100
AcDbVertex
100
AcDb2dVertex
 10
90.28941297430295
 20
-146.3218152411975
 30
0.0
  0
VERTEX
  5
C9
330
C7
100
AcDbEntity
  8
_U+30EC_U+30A4_U+30E4_U+30FC 1
 62
   179
420
  2234388
370
     9
100
AcDbVertex
100
AcDb2dVertex
 10
88.4896819091068
 20
-146.3218152411975
 30
0.0
  0
SEQEND
  5
CA
330
C7
100
AcDbEntity
  8
_U+30EC_U+30A4_U+30E4_U+30FC 1
 62
   179
420
  2234388
370
     9
  0
POLYLINE
  5
CB
330
1F
100
AcDbEntity
  8
_U+30EC_U+30A4_U+30E4_U+30FC 1
 62
   179
420
  2234388
370
     9
100
AcDb2dPolyline
 66
     1
 10
0.0
 20
0.0
 30
0.0
  0
VERTEX
  5
CC
330
CB
100
AcDbEntity
  8
_U+30EC_U+30A4_U+30E4_U+30FC 1
 62
   179
420
  2234388
370
     9
100
AcDbVertex
100
AcDb2dVertex
 10
90.28941297430295
 20
-144.0618502417621
 30
0.0
  0
VERTEX
  5
CD
330
CB
100
AcDbEntity
  8
_U+30EC_U+30A4_U+30E4_U+30FC 1
 62
   179
420
  2234388
370
     9
100
AcDbVertex
100
AcDb2dVertex
 10
90.28941297430295
 20
-147.3222577409474
 30
0.0
  0
SEQEND
  5
CE
330
CB
100
AcDbEntity
  8
_U+30EC_U+30A4_U+30E4_U+30FC 1
 62
   179
420
  2234388
370
     9
  0
POLYLINE
  5
CF
330
1F
100
AcDbEntity
  8
_U+30EC_U+30A4_U+30E4_U+30FC 1
 62
   179
420
  2234388
370
     9
100
AcDb2dPolyline
 66
     1
 10
0.0
 20
0.0
 30
0.0
  0
VERTEX
  5
D0
330
CF
100
AcDbEntity
  8
_U+30EC_U+30A4_U+30E4_U+30FC 1
 62
   179
420
  2234388
370
     9
100
AcDbVertex
100
AcDb2dVertex
 10
89.48945410582272
 20
-144.8617738526732
 30
0.0
  0
VERTEX
  5
D1
330
CF
100
AcDbEntity
  8
_U+30EC_U+30A4_U+30E4_U+30FC 1
 62
   179
420
  2234388
370
     9
100
AcDbVertex
100
AcDb2dVertex
 10
89.48945410582272
 20
-147.3222577409474
 30
0.0
  0
SEQEND
  5
D2
330
CF
100
AcDbEntity
  8
_U+30EC_U+30A4_U+30E4_U+30FC 1
 62
   179
420
  2234388
370
     9
  0
POLYLINE
  5
D3
330
1F
100
AcDbEntity
  8
_U+30EC_U+30A4_U+30E4_U+30FC 1
 62
   179
420
  2234388
370
     9
100
AcDb2dPolyline
 66
     1
 10
0.0
 20
0.0
 30
0.0
  0
VERTEX
  5
D4
330
D3
100
AcDbEntity
  8
_U+30EC_U+30A4_U+30E4_U+30FC 1
 62
   179
420
  2234388
370
     9
100
AcDbVertex
100
AcDb2dVertex
 10
85.48969720084968
 20
-142.3220560755306
 30
0.0
  0
VERTEX
  5
D5
330
D3
100
AcDbEntity
  8
_U+30EC_U+30A4_U+30E4_U+30FC 1
 62
   179
420
  2234388
370
     9
100
AcDbVertex
100
AcDb2dVertex
 10
85.48969720084968
 20
-116.3234627486971
 30
0.0
  0
SEQEND
  5
D6
330
D3
100
AcDbEntity
  8
_U+30EC_U+30A4_U+30E4_U+30FC 1
 62
   179
420
  2234388
370
     9
  0
POLYLINE
  5
D7
330
1F
100
AcDbEntity
  8
_U+30EC_U+30A4_U+30E4_U+30FC 1
 62
   179
420
  2234388
370
     9
100
AcDb2dPolyline
 66
     1
 10
0.0
 20
0.0
 30
0.0
  0
VERTEX
  5
D8
330
D7
100
AcDbEntity
  8
_U+30EC_U+30A4_U+30E4_U+30FC 1
 62
   179
420
  2234388
370
     9
100
AcDbVertex
100
AcDb2dVertex
 10
86.94973639283853
 20
-142.3220560755306
 30
0.0
  0
VERTEX
  5
D9
330
D7
100
AcDbEntity
  8
_U+30EC_U+30A4_U+30E4_U+30FC 1
 62
   179
420
  2234388
370
     9
100
AcDbVertex
100
AcDb2dVertex
 10
84.48992497887745
 20
-142.3220560755306
 30
0.0
  0
SEQEND
  5
DA
330
D7
100
AcDbEntity
  8
_U+30EC_U+30A4_U+30E4_U+30FC 1
 62
   179
420
  2234388
370
     9
  0
POLYLINE
  5
DB
330
1F
100
AcDbEntity
  8
_U+30EC_U+30A4_U+30E4_U+30FC 1
 62
   179
420
  2234388
370
     9
100
AcDb2dPolyline
 66
     1
 10
0.0
 20
0.0
 30
0.0
  0
VERTEX
  5
DC
330
DB
100
AcDbEntity
  8
_U+30EC_U+30A4_U+30E4_U+30FC 1
 62
   179
420
  2234388
370
     9
100
AcDbVertex
100
AcDb2dVertex
 10
87.74969526131876
 20
-116.3234627486971
 30
0.0
  0
VERTEX
  5
DD
330
DB
100
AcDbEntity
  8
_U+30EC_U+30A4_U+30E4_U+30FC 1
 62
   179
420
  2234388
370
     9
100
AcDbVertex
100
AcDb2dVertex
 10
84.48992497887745
 20
-116.3234627486971
 30
0.0
  0
SEQEND
  5
DE
330
DB
100
AcDbEntity
  8
_U+30EC_U+30A4_U+30E4_U+30FC 1
 62
   179
420
  2234388
370
     9
  0
POLYLINE
  5
DF
330
1F
100
AcDbEntity
  8
_U+30EC_U+30A4_U+30E4_U+30FC 1
 62
   179
420
  2234388
370
     9
100
AcDb2dPolyline
 66
     1
 10
0.0
 20
0.0
 30
0.0
  0
VERTEX
  5
E0
330
DF
100
AcDbEntity
  8
_U+30EC_U+30A4_U+30E4_U+30FC 1
 62
   179
420
  2234388
370
     9
100
AcDbVertex
100
AcDb2dVertex
 10
97.58954917694984
 20
-123.323208858058
 30
0.0
  0
VERTEX
  5
E1
330
DF
100
AcDbEntity
  8
_U+30EC_U+30A4_U+30E4_U+30FC 1
 62
   179
420
  2234388
370
     9
100
AcDbVertex
100
AcDb2dVertex
 10
97.58954917694984
 20
-116.3234627486971
 30
0.0
  0
SEQEND
  5
E2
330
DF
100
AcDbEntity
  8
_U+30EC_U+30A4_U+30E4_U+30FC 1
 62
   179
420
  2234388
370
     9
  0
POLYLINE
  5
E3
330
1F
100
AcDbEntity
  8
_U+30EC_U+30A4_U+30E4_U+30FC 1
 62
   179
420
  2234388
370
     9
100
AcDb2dPolyline
 66
     1
 10
0.0
 20
0.0
 30
0.0
  0
VERTEX
  5
E4
330
E3
100
AcDbEntity
  8
_U+30EC_U+30A4_U+30E4_U+30FC 1
 62
   179
420
  2234388
370
     9
100
AcDbVertex
100
AcDb2dVertex
 10
96.12954310308659
 20
-123.323208858058
 30
0.0
  0
VERTEX
  5
E5
330
E3
100
AcDbEntity
  8
_U+30EC_U+30A4_U+30E4_U+30FC 1
 62
   179
420
  2234388
370
     9
100
AcDbVertex
100
AcDb2dVertex
 10
98.5900269292033
 20
-123.323208858058
 30
0.0
  0
SEQEND
  5
E6
330
E3
100
AcDbEntity
  8
_U+30EC_U+30A4_U+30E4_U+30FC 1
 62
   179
420
  2234388
370
     9
  0
POLYLINE
  5
E7
330
1F
100
AcDbEntity
  8
_U+30EC_U+30A4_U+30E4_U+30FC 1
 62
   179
420
  2234388
370
     9
100
AcDb2dPolyline
 66
     1
 10
0.0
 20
0.0
 30
0.0
  0
VERTEX
  5
E8
330
E7
100
AcDbEntity
  8
_U+30EC_U+30A4_U+30E4_U+30FC 1
 62
   179
420
  2234388
370
     9
100
AcDbVertex
100
AcDb2dVertex
 10
95.32958423460636
 20
-116.3234627486971
 30
0.0
  0
VERTEX
  5
E9
330
E7
100
AcDbEntity
  8
_U+30EC_U+30A4_U+30E4_U+30FC 1
 62
   179
420
  2234388
370
     9
100
AcDbVertex
100
AcDb2dVertex
 10
98.5900269292033
 20
-116.3234627486971
 30
0.0
  0
SEQEND
  5
EA
330
E7
100
AcDbEntity
  8
_U+30EC_U+30A4_U+30E4_U+30FC 1
 62
   179
420
  2234388
370
     9
  0
POLYLINE
  5
EB
330
1F
100
AcDbEntity
  8
_U+30EC_U+30A4_U+30E4_U+30FC 1
 62
   179
420
  2234388
370
     9
100
AcDb2dPolyline
 66
     1
 10
0.0
 20
0.0
 30
0.0
  0
VERTEX
  5
EC
330
EB
100
AcDbEntity
  8
_U+30EC_U+30A4_U+30E4_U+30FC 1
 62
   179
420
  2234388
370
     9
100
AcDbVertex
100
AcDb2dVertex
 10
92.78986652162217
 20
-127.32367357928
 30
0.0
  0
VERTEX
  5
ED
330
EB
100
AcDbEntity
  8
_U+30EC_U+30A4_U+30E4_U+30FC 1
 62
   179
420
  2234388
370
     9
100
AcDbVertex
100
AcDb2dVertex
 10
98.04777222081516
 20
-127.32367357928
 30
0.0
  0
SEQEND
  5
EE
330
EB
100
AcDbEntity
  8
_U+30EC_U+30A4_U+30E4_U+30FC 1
 62
   179
420
  2234388
370
     9
  0
POLYLINE
  5
EF
330
1F
100
AcDbEntity
  8
_U+30EC_U+30A4_U+30E4_U+30FC 1
 62
   179
420
  2234388
370
     9
100
AcDb2dPolyline
 66
     1
 10
0.0
 20
0.0
 30
0.0
  0
VERTEX
  5
F0
330
EF
100
AcDbEntity
  8
_U+30EC_U+30A4_U+30E4_U+30FC 1
 62
   179
420
  2234388
370
     9
100
AcDbVertex
100
AcDb2dVertex
 10
90.28941297430295
 20
-127.32367357928
 30
0.0
  0
VERTEX
  5
F1
330
EF
100
AcDbEntity
  8
_U+30EC_U+30A4_U+30E4_U+30FC 1
 62
   179
420
  2234388
370
     9
100
AcDbVertex
100
AcDb2dVertex
 10
92.78986652162217
 20
-127.32367357928
 30
0.0
  0
SEQEND
  5
F2
330
EF
100
AcDbEntity
  8
_U+30EC_U+30A4_U+30E4_U+30FC 1
 62
   179
420
  2234388
370
     9
  0
POLYLINE
  5
F3
330
1F
100
AcDbEntity
  8
_U+30EC_U+30A4_U+30E4_U+30FC 1
 62
   179
420
  2234388
370
     9
100
AcDb2dPolyline
 66
     1
 10
0.0
 20
0.0
 30
0.0
  0
VERTEX
  5
F4
330
F3
100
AcDbEntity
  8
_U+30EC_U+30A4_U+30E4_U+30FC 1
 62
   179
420
  2234388
370
     9
100
AcDbVertex
100
AcDb2dVertex
 10
92.78986652162217
 20
-125.8636321907563
 30
0.0
  0
VERTEX
  5
F5
330
F3
100
AcDbEntity
  8
_U+30EC_U+30A4_U+30E4_U+30FC 1
 62
   179
420
  2234388
370
     9
100
AcDbVertex
100
AcDb2dVertex
 10
92.78986652162217
 20
-128.3234458012526
 30
0.0
  0
SEQEND
  5
F6
330
F3
100
AcDbEntity
  8
_U+30EC_U+30A4_U+30E4_U+30FC 1
 62
   179
420
  2234388
370
     9
  0
POLYLINE
  5
F7
330
1F
100
AcDbEntity
  8
_U+30EC_U+30A4_U+30E4_U+30FC 1
 62
   179
420
  2234388
370
     9
100
AcDb2dPolyline
 66
     1
 10
0.0
 20
0.0
 30
0.0
  0
VERTEX
  5
F8
330
F7
100
AcDbEntity
  8
_U+30EC_U+30A4_U+30E4_U+30FC 1
 62
   179
420
  2234388
370
     9
100
AcDbVertex
100
AcDb2dVertex
 10
93.58979011232553
 20
-112.3237035830302
 30
0.0
  0
VERTEX
  5
F9
330
F7
100
AcDbEntity
  8
_U+30EC_U+30A4_U+30E4_U+30FC 1
 62
   179
420
  2234388
370
     9
100
AcDbVertex
100
AcDb2dVertex
 10
98.84769581151852
 20
-112.3237035830302
 30
0.0
  0
SEQEND
  5
FA
330
F7
100
AcDbEntity
  8
_U+30EC_U+30A4_U+30E4_U+30FC 1
 62
   179
420
  2234388
370
     9
  0
POLYLINE
  5
FB
330
1F
100
AcDbEntity
  8
_U+30EC_U+30A4_U+30E4_U+30FC 1
 62
   179
420
  2234388
370
     9
100
AcDb2dPolyline
 66
     1
 10
0.0
 20
0.0
 30
0.0
  0
VERTEX
  5
FC
330
FB
100
AcDbEntity
  8
_U+30EC_U+30A4_U+30E4_U+30FC 1
 62
   179
420
  2234388
370
     9
100
AcDbVertex
100
AcDb2dVertex
 10
89.48945410582272
 20
-112.3237035830302
 30
0.0
  0
VERTEX
  5
FD
330
FB
100
AcDbEntity
  8
_U+30EC_U+30A4_U+30E4_U+30FC 1
 62
   179
420
  2234388
370
     9
100
AcDbVertex
100
AcDb2dVertex
 10
93.58979011232553
 20
-112.3237035830302
 30
0.0
  0
SEQEND
  5
FE
330
FB
100
AcDbEntity
  8
_U+30EC_U+30A4_U+30E4_U+30FC 1
 62
   179
420
  2234388
370
     9
  0
POLYLINE
  5
FF
330
1F
100
AcDbEntity
  8
_U+30EC_U+30A4_U+30E4_U+30FC 1
 62
   179
420
  2234388
370
     9
100
AcDb2dPolyline
 66
     1
 10
0.0
 20
0.0
 30
0.0
  0
VERTEX
  5
100
330
FF
100
AcDbEntity
  8
_U+30EC_U+30A4_U+30E4_U+30FC 1
 62
   179
420
  2234388
370
     9
100
AcDbVertex
100
AcDb2dVertex
 10
89.48945410582272
 20
-114.5837038602431
 30
0.0
  0
VERTEX
  5
101
330
FF
100
AcDbEntity
  8
_U+30EC_U+30A4_U+30E4_U+30FC 1
 62
   179
420
  2234388
370
     9
100
AcDbVertex
100
AcDb2dVertex
 10
89.48945410582272
 20
-111.3232610832803
 30
0.0
  0
SEQEND
  5
102
330
FF
100
AcDbEntity
  8
_U+30EC_U+30A4_U+30E4_U+30FC 1
 62
   179
420
  2234388
370
     9
  0
POLYLINE
  5
103
330
1F
100
AcDbEntity
  8
_U+30EC_U+30A4_U+30E4_U+30FC 1
 62
   179
420
  2234388
370
     9
100
AcDb2dPolyline
 66
     1
 10
0.0
 20
0.0
 30
0.0
  0
VERTEX
  5
104
330
103
100
AcDbEntity
  8
_U+30EC_U+30A4_U+30E4_U+30FC 1
 62
   179
420
  2234388
370
     9
100
AcDbVertex
100
AcDb2dVertex
 10
93.58979011232553
 20
-114.5837038602431
 30
0.0
  0
VERTEX
  5
105
330
103
100
AcDbEntity
  8
_U+30EC_U+30A4_U+30E4_U+30FC 1
 62
   179
420
  2234388
370
     9
100
AcDbVertex
100
AcDb2dVertex
 10
93.58979011232553
 20
-111.3232610832803
 30
0.0
  0
SEQEND
  5
106
330
103
100
AcDbEntity
  8
_U+30EC_U+30A4_U+30E4_U+30FC 1
 62
   179
420
  2234388
370
     9
  0
ENDSEC
  0
SECTION
  2
OBJECTS
  0
DICTIONARY
  5
C
330
0
100
AcDbDictionary
281
     1
  3
ACAD_GROUP
350
D
  3
ACAD_LAYOUT
350
1A
  3
ACAD_MATERIAL
350
3B
  3
ACAD_MLEADERSTYLE
350
108
  3
ACAD_MLINESTYLE
350
17
  3
ACAD_PLOTSETTINGS
350
19
  3
ACAD_PLOTSTYLENAME
350
E
  3
ACAD_TABLESTYLE
350
107
  3
ACAD_VISUALSTYLE
350
2A
  0
SUN
  5
3F
330
29
100
AcDbSun
 90
        1
290
     0
 63
     7
421
 16777215
 40
1.0
291
     1
 91
  2455826
 92
 54000000
292
     0
 70
     2
 71
   256
280
     1
  0
DICTIONARY
  5
D
102
{ACAD_REACTORS
330
C
102
}
330
C
100
AcDbDictionary
281
     1
  0
DICTIONARY
  5
1A
102
{ACAD_REACTORS
330
C
102
}
330
C
100
AcDbDictionary
281
     1
  3
Layout1
350
1E
  3
Layout2
350
26
  3
Model
350
22
  0
DICTIONARY
  5
3B
102
{ACAD_REACTORS
330
C
102
}
330
C
100
AcDbDictionary
281
     1
  3
ByBlock
350
3D
  3
ByLayer
350
3C
  3
Global
350
3E
  0
DICTIONARY
  5
108
102
{ACAD_REACTORS
330
C
102
}
330
C
100
AcDbDictionary
281
     1
  0
DICTIONARY
  5
17
102
{ACAD_REACTORS
330
C
102
}
330
C
100
AcDbDictionary
281
     1
  3
Standard
350
18
  0
DICTIONARY
  5
19
102
{ACAD_REACTORS
330
C
102
}
330
C
100
AcDbDictionary
281
     1
  0
ACDBDICTIONARYWDFLT
  5
E
102
{ACAD_REACTORS
330
C
102
}
330
C
100
AcDbDictionary
281
     1
  3
Normal
350
F
100
AcDbDictionaryWithDefault
340
F
  0
DICTIONARY
  5
107
102
{ACAD_REACTORS
330
C
102
}
330
C
100
AcDbDictionary
281
     1
  0
DICTIONARY
  5
2A
102
{ACAD_REACTORS
330
C
102
}
330
C
100
AcDbDictionary
281
     1
  3
2dWireframe
350
2F
  3
3D Hidden
350
31
  3
3dWireframe
350
30
  3
Basic
350
32
  3
Brighten
350
36
  3
ColorChange
350
3A
  3
Conceptual
350
34
  3
Dim
350
35
  3
Facepattern
350
39
  3
Flat
350
2B
  3
FlatWithEdges
350
2C
  3
Gouraud
350
2D
  3
GouraudWithEdges
350
2E
  3
Linepattern
350
38
  3
Realistic
350
33
  3
Thicken
350
37
  0
LAYOUT
  5
1E
102
{ACAD_REACTORS
330
1A
102
}
330
1A
100
AcDbPlotSettings
  1

  2
none_device
  4

  6

 40
0.0
 41
0.0
 42
0.0
 43
0.0
 44
0.0
 45
0.0
 46
0.0
 47
0.0
 48
0.0
 49
0.0
140
0.0
141
0.0
142
1.0
143
1.0
 70
   688
 72
     0
 73
     0
 74
     5
  7

 75
    16
 76
     0
 77
     2
 78
   300
147
1.0
148
0.0
149
0.0
100
AcDbLayout
  1
Layout1
 70
     1
 71
     1
 10
0.0
 20
0.0
 11
12.0
 21
9.0
 12
0.0
 22
0.0
 32
0.0
 14
1.000000000000000E+20
 24
1.000000000000000E+20
 34
1.000000000000000E+20
 15
-1.000000000000000E+20
 25
-1.000000000000000E+20
 35
-1.000000000000000E+20
146
0.0
 13
0.0
 23
0.0
 33
0.0
 16
1.0
 26
0.0
 36
0.0
 17
0.0
 27
1.0
 37
0.0
 76
     0
330
1B
  0
LAYOUT
  5
26
102
{ACAD_REACTORS
330
1A
102
}
330
1A
100
AcDbPlotSettings
  1

  2
none_device
  4

  6

 40
0.0
 41
0.0
 42
0.0
 43
0.0
 44
0.0
 45
0.0
 46
0.0
 47
0.0
 48
0.0
 49
0.0
140
0.0
141
0.0
142
1.0
143
1.0
 70
   688
 72
     0
 73
     0
 74
     5
  7

 75
    16
 76
     0
 77
     2
 78
   300
147
1.0
148
0.0
149
0.0
100
AcDbLayout
  1
Layout2
 70
     1
 71
     2
 10
0.0
 20
0.0
 11
0.0
 21
0.0
 12
0.0
 22
0.0
 32
0.0
 14
0.0
 24
0.0
 34
0.0
 15
0.0
 25
0.0
 35
0.0
146
0.0
 13
0.0
 23
0.0
 33
0.0
 16
1.0
 26
0.0
 36
0.0
 17
0.0
 27
1.0
 37
0.0
 76
     0
330
23
  0
LAYOUT
  5
22
102
{ACAD_REACTORS
330
1A
102
}
330
1A
100
AcDbPlotSettings
  1

  2
none_device
  4

  6

 40
0.0
 41
0.0
 42
0.0
 43
0.0
 44
0.0
 45
0.0
 46
0.0
 47
0.0
 48
0.0
 49
0.0
140
0.0
141
0.0
142
1.0
143
1.0
 70
  1712
 72
     0
 73
     0
 74
     0
  7

 75
     0
 76
     0
 77
     2
 78
   300
147
1.0
148
0.0
149
0.0
100
AcDbLayout
  1
Model
 70
     1
 71
     0
 10
0.0
 20
0.0
 11
12.0
 21
9.0
 12
0.0
 22
0.0
 32
0.0
 14
1.000000000000000E+20
 24
1.000000000000000E+20
 34
1.000000000000000E+20
 15
-1.000000000000000E+20
 25
-1.000000000000000E+20
 35
-1.000000000000000E+20
146
0.0
 13
0.0
 23
0.0
 33
0.0
 16
1.0
 26
0.0
 36
0.0
 17
0.0
 27
1.0
 37
0.0
 76
     0
330
1F
331
29
  0
MATERIAL
  5
3D
102
{ACAD_REACTORS
330
3B
102
}
330
3B
100
AcDbMaterial
  1
ByBlock
 72
     1
 94
      127
  0
MATERIAL
  5
3C
102
{ACAD_REACTORS
330
3B
102
}
330
3B
100
AcDbMaterial
  1
ByLayer
 72
     1
 94
      127
  0
MATERIAL
  5
3E
102
{ACAD_REACTORS
330
3B
102
}
330
3B
100
AcDbMaterial
  1
Global
 72
     1
 94
      127
  0
MLINESTYLE
  5
18
102
{ACAD_REACTORS
330
17
102
}
330
17
100
AcDbMlineStyle
  2
Standard
 70
     0
  3

 62
   256
 51
90.0
 52
90.0
 71
     2
 49
0.5
 62
   256
  6
BYLAYER
 49
-0.5
 62
   256
  6
BYLAYER
  0
ACDBPLACEHOLDER
  5
F
102
{ACAD_REACTORS
330
E
102
}
330
E
  0
VISUALSTYLE
  5
2F
102
{ACAD_REACTORS
330
2A
102
}
330
2A
100
AcDbVisualStyle
  2
2dWireframe
 70
     4
177
     2
291
     0
 71
     0
176
     1
 72
     2
176
     1
 73
     0
176
     1
 90
        0
176
     1
 40
-0.6
176
     1
 41
-30.0
176
     1
 62
     5
 63
     7
421
 16777215
176
     1
 74
     1
176
     1
 91
        4
176
     1
 64
     7
176
     1
 65
   257
176
     1
 75
     1
176
     1
175
     1
176
     1
 42
1.0
176
     1
 92
        0
176
     1
 66
   257
176
     1
 43
1.0
176
     1
 76
     1
176
     1
 77
     6
176
     1
 78
     2
176
     1
 67
     7
176
     1
 79
     5
176
     1
170
     0
176
     1
171
     0
176
     1
290
     0
176
     1
 93
        1
176
     1
 44
0.0
176
     1
173
     0
176
     1
  0
VISUALSTYLE
  5
31
102
{ACAD_REACTORS
330
2A
102
}
330
2A
100
AcDbVisualStyle
  2
3D Hidden
 70
     6
177
     2
291
     0
 71
     1
176
     1
 72
     2
176
     1
 73
     2
176
     1
 90
        0
176
     1
 40
-0.6
176
     1
 41
-30.0
176
     1
 62
     5
 63
     7
421
 16777215
176
     1
 74
     2
176
     1
 91
        2
176
     1
 64
     7
176
     1
 65
   257
176
     1
 75
     2
176
     1
175
     1
176
     1
 42
40.0
176
     1
 92
        0
176
     1
 66
   257
176
     1
 43
1.0
176
     1
 76
     1
176
     1
 77
     6
176
     1
 78
     2
176
     1
 67
     7
176
     1
 79
     3
176
     1
170
     0
176
     1
171
     0
176
     1
290
     0
176
     1
 93
        1
176
     1
 44
0.0
176
     1
173
     0
176
     1
  0
VISUALSTYLE
  5
30
102
{ACAD_REACTORS
330
2A
102
}
330
2A
100
AcDbVisualStyle
  2
3dWireframe
 70
     5
177
     2
291
     0
 71
     0
176
     1
 72
     2
176
     1
 73
     0
176
     1
 90
        0
176
     1
 40
-0.6
176
     1
 41
-30.0
176
     1
 62
     5
 63
     7
421
 16777215
176
     1
 74
     1
176
     1
 91
        4
176
     1
 64
     7
176
     1
 65
   257
176
     1
 75
     1
176
     1
175
     1
176
     1
 42
1.0
176
     1
 92
        0
176
     1
 66
   257
176
     1
 43
1.0
176
     1
 76
     1
176
     1
 77
     6
176
     1
 78
     2
176
     1
 67
     7
176
     1
 79
     5
176
     1
170
     0
176
     1
171
     0
176
     1
290
     0
176
     1
 93
        1
176
     1
 44
0.0
176
     1
173
     0
176
     1
  0
VISUALSTYLE
  5
32
102
{ACAD_REACTORS
330
2A
102
}
330
2A
100
AcDbVisualStyle
  2
Basic
 70
     7
177
     2
291
     1
 71
     1
176
     1
 72
     0
176
     1
 73
     1
176
     1
 90
        0
176
     1
 40
-0.6
176
     1
 41
-30.0
176
     1
 62
     5
 63
     7
421
 16777215
176
     1
 74
     0
176
     1
 91
        4
176
     1
 64
     7
176
     1
 65
   257
176
     1
 75
     1
176
     1
175
     1
176
     1
 42
1.0
176
     1
 92
        8
176
     1
 66
     7
176
     1
 43
1.0
176
     1
 76
     1
176
     1
 77
     6
176
     1
 78
     2
176
     1
 67
     7
176
     1
 79
     5
176
     1
170
     0
176
     1
171
     0
176
     1
290
     0
176
     1
 93
        1
176
     1
 44
0.0
176
     1
173
     0
176
     1
  0
VISUALSTYLE
  5
36
102
{ACAD_REACTORS
330
2A
102
}
330
2A
100
AcDbVisualStyle
  2
Brighten
 70
    12
177
     2
291
     1
 71
     2
176
     1
 72
     2
176
     1
 73
     0
176
     1
 90
        0
176
     1
 40
-0.6
176
     1
 41
-30.0
176
     1
 62
     5
 63
     7
421
 16777215
176
     1
 74
     1
176
     1
 91
        4
176
     1
 64
     7
176
     1
 65
   257
176
     1
 75
     1
176
     1
175
     1
176
     1
 42
1.0
176
     1
 92
        8
176
     1
 66
     7
176
     1
 43
1.0
176
     1
 76
     1
176
     1
 77
     6
176
     1
 78
     2
176
     1
 67
     7
176
     1
 79
     5
176
     1
170
     0
176
     1
171
     0
176
     1
290
     0
176
     1
 93
        1
176
     1
 44
50.0
176
     1
173
     0
176
     1
  0
VISUALSTYLE
  5
3A
102
{ACAD_REACTORS
330
2A
102
}
330
2A
100
AcDbVisualStyle
  2
ColorChange
 70
    16
177
     2
291
     1
 71
     2
176
     1
 72
     2
176
     1
 73
     3
176
     1
 90
        0
176
     1
 40
-0.6
176
     1
 41
-30.0
176
     1
 62
     5
 63
     8
421
  8421504
176
     1
 74
     1
176
     1
 91
        4
176
     1
 64
     7
176
     1
 65
   257
176
     1
 75
     1
176
     1
175
     1
176
     1
 42
1.0
176
     1
 92
        8
176
     1
 66
     8
424
  8421504
176
     1
 43
1.0
176
     1
 76
     1
176
     1
 77
     6
176
     1
 78
     2
176
     1
 67
     7
176
     1
 79
     5
176
     1
170
     0
176
     1
171
     0
176
     1
290
     0
176
     1
 93
        1
176
     1
 44
0.0
176
     1
173
     0
176
     1
  0
VISUALSTYLE
  5
34
102
{ACAD_REACTORS
330
2A
102
}
330
2A
100
AcDbVisualStyle
  2
Conceptual
 70
     9
177
     2
291
     0
 71
     3
176
     1
 72
     2
176
     1
 73
     0
176
     1
 90
        0
176
     1
 40
-0.6
176
     1
 41
-30.0
176
     1
 62
     5
 63
     7
421
 16777215
176
     1
 74
     2
176
     1
 91
        2
176
     1
 64
     7
176
     1
 65
   257
176
     1
 75
     1
176
     1
175
     1
176
     1
 42
40.0
176
     1
 92
        8
176
     1
 66
     7
176
     1
 43
1.0
176
     1
 76
     1
176
     1
 77
     6
176
     1
 78
     2
176
     1
 67
     7
176
     1
 79
     3
176
     1
170
     0
176
     1
171
     0
176
     1
290
     0
176
     1
 93
        1
176
     1
 44
0.0
176
     1
173
     0
176
     1
  0
VISUALSTYLE
  5
35
102
{ACAD_REACTORS
330
2A
102
}
330
2A
100
AcDbVisualStyle
  2
Dim
 70
    11
177
     2
291
     1
 71
     2
176
     1
 72
     2
176
     1
 73
     0
176
     1
 90
        0
176
     1
 40
-0.6
176
     1
 41
-30.0
176
     1
 62
     5
 63
     7
421
 16777215
176
     1
 74
     1
176
     1
 91
        4
176
     1
 64
     7
176
     1
 65
   257
176
     1
 75
     1
176
     1
175
     1
176
     1
 42
1.0
176
     1
 92
        8
176
     1
 66
     7
176
     1
 43
1.0
176
     1
 76
     1
176
     1
 77
     6
176
     1
 78
     2
176
     1
 67
     7
176
     1
 79
     5
176
     1
170
     0
176
     1
171
     0
176
     1
290
     0
176
     1
 93
        1
176
     1
 44
-50.0
176
     1
173
     0
176
     1
  0
VISUALSTYLE
  5
39
102
{ACAD_REACTORS
330
2A
102
}
330
2A
100
AcDbVisualStyle
  2
Facepattern
 70
    15
177
     2
291
     1
 71
     2
176
     1
 72
     2
176
     1
 73
     0
176
     1
 90
        0
176
     1
 40
-0.6
176
     1
 41
-30.0
176
     1
 62
     5
 63
     7
421
 16777215
176
     1
 74
     1
176
     1
 91
        4
176
     1
 64
     7
176
     1
 65
   257
176
     1
 75
     1
176
     1
175
     1
176
     1
 42
1.0
176
     1
 92
        8
176
     1
 66
     7
176
     1
 43
1.0
176
     1
 76
     1
176
     1
 77
     6
176
     1
 78
     2
176
     1
 67
     7
176
     1
 79
     5
176
     1
170
     0
176
     1
171
     0
176
     1
290
     0
176
     1
 93
        1
176
     1
 44
0.0
176
     1
173
     0
176
     1
  0
VISUALSTYLE
  5
2B
102
{ACAD_REACTORS
330
2A
102
}
330
2A
100
AcDbVisualStyle
  2
Flat
 70
     0
177
     2
291
     1
 71
     2
176
     1
 72
     1
176
     1
 73
     1
176
     1
 90
        2
176
     1
 40
-0.6
176
     1
 41
30.0
176
     1
 62
     5
 63
     7
421
 16777215
176
     1
 74
     0
176
     1
 91
        4
176
     1
 64
     7
176
     1
 65
   257
176
     1
 75
     1
176
     1
175
     1
176
     1
 42
1.0
176
     1
 92
        8
176
     1
 66
     7
176
     1
 43
1.0
176
     1
 76
     1
176
     1
 77
     6
176
     1
 78
     2
176
     1
 67
     7
176
     1
 79
     5
176
     1
170
     0
176
     1
171
     0
176
     1
290
     0
176
     1
 93
       13
176
     1
 44
0.0
176
     1
173
     0
176
     1
  0
VISUALSTYLE
  5
2C
102
{ACAD_REACTORS
330
2A
102
}
330
2A
100
AcDbVisualStyle
  2
FlatWithEdges
 70
     1
177
     2
291
     1
 71
     2
176
     1
 72
     1
176
     1
 73
     1
176
     1
 90
        2
176
     1
 40
-0.6
176
     1
 41
30.0
176
     1
 62
     5
 63
     7
421
 16777215
176
     1
 74
     1
176
     1
 91
        4
176
     1
 64
     7
176
     1
 65
   257
176
     1
 75
     1
176
     1
175
     1
176
     1
 42
1.0
176
     1
 92
        0
176
     1
 66
   257
176
     1
 43
1.0
176
     1
 76
     1
176
     1
 77
     6
176
     1
 78
     2
176
     1
 67
     7
176
     1
 79
     5
176
     1
170
     0
176
     1
171
     0
176
     1
290
     0
176
     1
 93
       13
176
     1
 44
0.0
176
     1
173
     0
176
     1
  0
VISUALSTYLE
  5
2D
102
{ACAD_REACTORS
330
2A
102
}
330
2A
100
AcDbVisualStyle
  2
Gouraud
 70
     2
177
     2
291
     1
 71
     2
176
     1
 72
     2
176
     1
 73
     1
176
     1
 90
        2
176
     1
 40
-0.6
176
     1
 41
30.0
176
     1
 62
     5
 63
     7
421
 16777215
176
     1
 74
     0
176
     1
 91
        4
176
     1
 64
     7
176
     1
 65
   257
176
     1
 75
     1
176
     1
175
     1
176
     1
 42
1.0
176
     1
 92
        0
176
     1
 66
     7
176
     1
 43
1.0
176
     1
 76
     1
176
     1
 77
     6
176
     1
 78
     2
176
     1
 67
     7
176
     1
 79
     5
176
     1
170
     0
176
     1
171
     0
176
     1
290
     0
176
     1
 93
       13
176
     1
 44
0.0
176
     1
173
     0
176
     1
  0
VISUALSTYLE
  5
2E
102
{ACAD_REACTORS
330
2A
102
}
330
2A
100
AcDbVisualStyle
  2
GouraudWithEdges
 70
     3
177
     2
291
     1
 71
     2
176
     1
 72
     2
176
     1
 73
     1
176
     1
 90
        2
176
     1
 40
-0.6
176
     1
 41
30.0
176
     1
 62
     5
 63
     7
421
 16777215
176
     1
 74
     1
176
     1
 91
        4
176
     1
 64
     7
176
     1
 65
   257
176
     1
 75
     1
176
     1
175
     1
176
     1
 42
1.0
176
     1
 92
        0
176
     1
 66
   257
176
     1
 43
1.0
176
     1
 76
     1
176
     1
 77
     6
176
     1
 78
     2
176
     1
 67
     7
176
     1
 79
     5
176
     1
170
     0
176
     1
171
     0
176
     1
290
     0
176
     1
 93
       13
176
     1
 44
0.0
176
     1
173
     0
176
     1
  0
VISUALSTYLE
  5
38
102
{ACAD_REACTORS
330
2A
102
}
330
2A
100
AcDbVisualStyle
  2
Linepattern
 70
    14
177
     2
291
     1
 71
     2
176
     1
 72
     2
176
     1
 73
     0
176
     1
 90
        0
176
     1
 40
-0.6
176
     1
 41
-30.0
176
     1
 62
     5
 63
     7
421
 16777215
176
     1
 74
     1
176
     1
 91
        4
176
     1
 64
     7
176
     1
 65
   257
176
     1
 75
     7
176
     1
175
     7
176
     1
 42
1.0
176
     1
 92
        8
176
     1
 66
     7
176
     1
 43
1.0
176
     1
 76
     1
176
     1
 77
     6
176
     1
 78
     2
176
     1
 67
     7
176
     1
 79
     5
176
     1
170
     0
176
     1
171
     0
176
     1
290
     0
176
     1
 93
        1
176
     1
 44
0.0
176
     1
173
     0
176
     1
  0
VISUALSTYLE
  5
33
102
{ACAD_REACTORS
330
2A
102
}
330
2A
100
AcDbVisualStyle
  2
Realistic
 70
     8
177
     2
291
     0
 71
     2
176
     1
 72
     2
176
     1
 73
     0
176
     1
 90
        0
176
     1
 40
-0.6
176
     1
 41
-30.0
176
     1
 62
     5
 63
     7
421
 16777215
176
     1
 74
     1
176
     1
 91
        0
176
     1
 64
     7
176
     1
 65
   257
176
     1
 75
     1
176
     1
175
     1
176
     1
 42
1.0
176
     1
 92
        8
176
     1
 66
     8
424
  7895160
176
     1
 43
1.0
176
     1
 76
     1
176
     1
 77
     6
176
     1
 78
     2
176
     1
 67
     7
176
     1
 79
     5
176
     1
170
     0
176
     1
171
     0
176
     1
290
     0
176
     1
 93
       13
176
     1
 44
0.0
176
     1
173
     0
176
     1
  0
VISUALSTYLE
  5
37
102
{ACAD_REACTORS
330
2A
102
}
330
2A
100
AcDbVisualStyle
  2
Thicken
 70
    13
177
     2
291
     1
 71
     2
176
     1
 72
     2
176
     1
 73
     0
176
     1
 90
        0
176
     1
 40
-0.6
176
     1
 41
-30.0
176
     1
 62
     5
 63
     7
421
 16777215
176
     1
 74
     1
176
     1
 91
        4
176
     1
 64
     7
176
     1
 65
   257
176
     1
 75
     1
176
     1
175
     1
176
     1
 42
1.0
176
     1
 92
       12
176
     1
 66
     7
176
     1
 43
1.0
176
     1
 76
     1
176
     1
 77
     6
176
     1
 78
     2
176
     1
 67
     7
176
     1
 79
     5
176
     1
170
     0
176
     1
171
     0
176
     1
290
     0
176
     1
 93
        1
176
     1
 44
0.0
176
     1
173
     0
176
     1
  0
ENDSEC
  0
EOF
