  0
SECTION
  2
HEADER
  9
$ACADVER
  1
AC1024
  9
$ACADMAINTVER
 70
     6
  9
$DWGCODEPAGE
  3
UNDEFINED
  9
$INSBASE
 10
0.0
 20
0.0
 30
0.0
  9
$EXTMIN
 10
1.000000000000000E+20
 20
1.000000000000000E+20
 30
1.000000000000000E+20
  9
$EXTMAX
 10
-1.000000000000000E+20
 20
-1.000000000000000E+20
 30
-1.000000000000000E+20
  9
$LIMMIN
 10
0.0
 20
0.0
  9
$LIMMAX
 10
12.0
 20
9.0
  9
$ORTHOMODE
 70
     0
  9
$REGENMODE
 70
     1
  9
$FILLMODE
 70
     1
  9
$QTEXTMODE
 70
     0
  9
$MIRRTEXT
 70
     1
  9
$LTSCALE
 40
1.0
  9
$ATTMODE
 70
     1
  9
$TEXTSIZE
 40
0.2
  9
$TRACEWID
 40
0.05
  9
$TEXTSTYLE
  7
Standard
  9
$CLAYER
  8
0
  9
$CELTYPE
  6
ByLayer
  9
$CECOLOR
 62
   256
  9
$CELTSCALE
 40
1.0
  9
$DISPSILH
 70
     0
  9
$DIMSCALE
 40
1.0
  9
$DIMASZ
 40
0.18
  9
$DIMEXO
 40
0.0625
  9
$DIMDLI
 40
0.38
  9
$DIMRND
 40
0.0
  9
$DIMDLE
 40
0.0
  9
$DIMEXE
 40
0.18
  9
$DIMTP
 40
0.0
  9
$DIMTM
 40
0.0
  9
$DIMTXT
 40
0.18
  9
$DIMCEN
 40
0.09
  9
$DIMTSZ
 40
0.0
  9
$DIMTOL
 70
     0
  9
$DIMLIM
 70
     0
  9
$DIMTIH
 70
     1
  9
$DIMTOH
 70
     1
  9
$DIMSE1
 70
     0
  9
$DIMSE2
 70
     0
  9
$DIMTAD
 70
     0
  9
$DIMZIN
 70
     0
  9
$DIMBLK
  1

  9
$DIMASO
 70
     1
  9
$DIMSHO
 70
     1
  9
$DIMPOST
  1

  9
$DIMAPOST
  1

  9
$DIMALT
 70
     0
  9
$DIMALTD
 70
     2
  9
$DIMALTF
 40
25.4
  9
$DIMLFAC
 40
1.0
  9
$DIMTOFL
 70
     0
  9
$DIMTVP
 40
0.0
  9
$DIMTIX
 70
     0
  9
$DIMSOXD
 70
     0
  9
$DIMSAH
 70
     0
  9
$DIMBLK1
  1

  9
$DIMBLK2
  1

  9
$DIMSTYLE
  2
Standard
  9
$DIMCLRD
 70
     0
  9
$DIMCLRE
 70
     0
  9
$DIMCLRT
 70
     0
  9
$DIMTFAC
 40
1.0
  9
$DIMGAP
 40
0.09
  9
$DIMJUST
 70
     0
  9
$DIMSD1
 70
     0
  9
$DIMSD2
 70
     0
  9
$DIMTOLJ
 70
     1
  9
$DIMTZIN
 70
     0
  9
$DIMALTZ
 70
     0
  9
$DIMALTTZ
 70
     0
  9
$DIMUPT
 70
     0
  9
$DIMDEC
 70
     4
  9
$DIMTDEC
 70
     4
  9
$DIMALTU
 70
     2
  9
$DIMALTTD
 70
     2
  9
$DIMTXSTY
  7
Standard
  9
$DIMAUNIT
 70
     0
  9
$DIMADEC
 70
     0
  9
$DIMALTRND
 40
0.0
  9
$DIMAZIN
 70
     0
  9
$DIMDSEP
 70
    46
  9
$DIMATFIT
 70
     3
  9
$DIMFRAC
 70
     0
  9
$DIMLDRBLK
  1

  9
$DIMLUNIT
 70
     2
  9
$DIMLWD
 70
    -2
  9
$DIMLWE
 70
    -2
  9
$DIMTMOVE
 70
     0
  9
$DIMFXL
 40
1.0
  9
$DIMFXLON
 70
     0
  9
$DIMJOGANG
 40
0.7853981633974483
  9
$DIMTFILL
 70
     0
  9
$DIMTFILLCLR
 70
     0
  9
$DIMARCSYM
 70
     0
  9
$DIMLTYPE
  6

  9
$DIMLTEX1
  6

  9
$DIMLTEX2
  6

  9
$DIMTXTDIRECTION
 70
     0
  9
$LUNITS
 70
     2
  9
$LUPREC
 70
     4
  9
$SKETCHINC
 40
0.1
  9
$FILLETRAD
 40
0.5
  9
$AUNITS
 70
     0
  9
$AUPREC
 70
     0
  9
$MENU
  1
.
  9
$ELEVATION
 40
0.0
  9
$PELEVATION
 40
0.0
  9
$THICKNESS
 40
0.0
  9
$LIMCHECK
 70
     0
  9
$CHAMFERA
 40
0.5
  9
$CHAMFERB
 40
0.5
  9
$CHAMFERC
 40
1.0
  9
$CHAMFERD
 40
0.0
  9
$SKPOLY
 70
     0
  9
$TDCREATE
 40
2457917.631759259
  9
$TDUCREATE
 40
2457917.256759259
  9
$TDUPDATE
 40
2457917.631759259
  9
$TDUUPDATE
 40
2457917.256759259
  9
$TDINDWG
 40
0.0000000116
  9
$TDUSRTIMER
 40
0.0000000116
  9
$USRTIMER
 70
     1
  9
$ANGBASE
 50
0.0
  9
$ANGDIR
 70
     0
  9
$PDMODE
 70
     0
  9
$PDSIZE
 40
0.0
  9
$PLINEWID
 40
0.0
  9
$SPLFRAME
 70
     0
  9
$SPLINETYPE
 70
     6
  9
$SPLINESEGS
 70
     8
  9
$HANDSEED
  5
AB
  9
$SURFTAB1
 70
     6
  9
$SURFTAB2
 70
     6
  9
$SURFTYPE
 70
     6
  9
$SURFU
 70
     6
  9
$SURFV
 70
     6
  9
$UCSBASE
  2

  9
$UCSNAME
  2

  9
$UCSORG
 10
0.0
 20
0.0
 30
0.0
  9
$UCSXDIR
 10
1.0
 20
0.0
 30
0.0
  9
$UCSYDIR
 10
0.0
 20
1.0
 30
0.0
  9
$UCSORTHOREF
  2

  9
$UCSORTHOVIEW
 70
     0
  9
$UCSORGTOP
 10
0.0
 20
0.0
 30
0.0
  9
$UCSORGBOTTOM
 10
0.0
 20
0.0
 30
0.0
  9
$UCSORGLEFT
 10
0.0
 20
0.0
 30
0.0
  9
$UCSORGRIGHT
 10
0.0
 20
0.0
 30
0.0
  9
$UCSORGFRONT
 10
0.0
 20
0.0
 30
0.0
  9
$UCSORGBACK
 10
0.0
 20
0.0
 30
0.0
  9
$PUCSBASE
  2

  9
$PUCSNAME
  2

  9
$PUCSORG
 10
0.0
 20
0.0
 30
0.0
  9
$PUCSXDIR
 10
1.0
 20
0.0
 30
0.0
  9
$PUCSYDIR
 10
0.0
 20
1.0
 30
0.0
  9
$PUCSORTHOREF
  2

  9
$PUCSORTHOVIEW
 70
     0
  9
$PUCSORGTOP
 10
0.0
 20
0.0
 30
0.0
  9
$PUCSORGBOTTOM
 10
0.0
 20
0.0
 30
0.0
  9
$PUCSORGLEFT
 10
0.0
 20
0.0
 30
0.0
  9
$PUCSORGRIGHT
 10
0.0
 20
0.0
 30
0.0
  9
$PUCSORGFRONT
 10
0.0
 20
0.0
 30
0.0
  9
$PUCSORGBACK
 10
0.0
 20
0.0
 30
0.0
  9
$USERI1
 70
     0
  9
$USERI2
 70
     0
  9
$USERI3
 70
     0
  9
$USERI4
 70
     0
  9
$USERI5
 70
     0
  9
$USERR1
 40
0.0
  9
$USERR2
 40
0.0
  9
$USERR3
 40
0.0
  9
$USERR4
 40
0.0
  9
$USERR5
 40
0.0
  9
$WORLDVIEW
 70
     1
  9
$SHADEDGE
 70
     3
  9
$SHADEDIF
 70
    70
  9
$TILEMODE
 70
     1
  9
$MAXACTVP
 70
    64
  9
$PINSBASE
 10
0.0
 20
0.0
 30
0.0
  9
$PLIMCHECK
 70
     0
  9
$PEXTMIN
 10
1.000000000000000E+20
 20
1.000000000000000E+20
 30
1.000000000000000E+20
  9
$PEXTMAX
 10
-1.000000000000000E+20
 20
-1.000000000000000E+20
 30
-1.000000000000000E+20
  9
$PLIMMIN
 10
0.0
 20
0.0
  9
$PLIMMAX
 10
12.0
 20
9.0
  9
$UNITMODE
 70
     0
  9
$VISRETAIN
 70
     1
  9
$PLINEGEN
 70
     0
  9
$PSLTSCALE
 70
     1
  9
$TREEDEPTH
 70
  3020
  9
$CMLSTYLE
  2
Standard
  9
$CMLJUST
 70
     0
  9
$CMLSCALE
 40
1.0
  9
$PROXYGRAPHICS
 70
     1
  9
$MEASUREMENT
 70
     0
  9
$CELWEIGHT
370
    -1
  9
$ENDCAPS
280
     0
  9
$JOINSTYLE
280
     0
  9
$LWDISPLAY
290
     1
  9
$INSUNITS
 70
     1
  9
$HYPERLINKBASE
  1

  9
$STYLESHEET
  1

  9
$XEDIT
290
     1
  9
$CEPSNTYPE
380
     0
  9
$PSTYLEMODE
290
     1
  9
$FINGERPRINTGUID
  2
{CCEE908B-A14F-374C-F451-4EBF6FD98E92}
  9
$VERSIONGUID
  2
{FAEB1C32-E019-11D5-929B-00C0DF256EC4}
  9
$EXTNAMES
290
     1
  9
$PSVPSCALE
 40
0.0
  9
$OLESTARTUP
290
     0
  9
$SORTENTS
280
   127
  9
$INDEXCTL
280
     0
  9
$HIDETEXT
280
     1
  9
$XCLIPFRAME
280
     2
  9
$HALOGAP
280
     0
  9
$OBSCOLOR
 70
   257
  9
$OBSLTYPE
280
     0
  9
$INTERSECTIONDISPLAY
280
     0
  9
$INTERSECTIONCOLOR
 70
   257
  9
$DIMASSOC
280
     2
  9
$PROJECTNAME
  1

  9
$CAMERADISPLAY
290
     0
  9
$LENSLENGTH
 40
50.0
  9
$CAMERAHEIGHT
 40
0.0
  9
$STEPSPERSEC
 40
2.0
  9
$STEPSIZE
 40
6.0
  9
$3DDWFPREC
 40
2.0
  9
$PSOLWIDTH
 40
0.25
  9
$PSOLHEIGHT
 40
4.0
  9
$LOFTANG1
 40
1.570796326794897
  9
$LOFTANG2
 40
1.570796326794897
  9
$LOFTMAG1
 40
0.0
  9
$LOFTMAG2
 40
0.0
  9
$LOFTPARAM
 70
     7
  9
$LOFTNORMALS
280
     1
  9
$LATITUDE
 40
37.795
  9
$LONGITUDE
 40
-122.394
  9
$NORTHDIRECTION
 40
0.0
  9
$TIMEZONE
 70
 -8000
  9
$LIGHTGLYPHDISPLAY
280
     1
  9
$TILEMODELIGHTSYNCH
280
     1
  9
$CMATERIAL
347
3C
  9
$SOLIDHIST
280
     1
  9
$SHOWHIST
280
     1
  9
$DWFFRAME
280
     2
  9
$DGNFRAME
280
     2
  9
$REALWORLDSCALE
290
     1
  9
$INTERFERECOLOR
 62
   256
  9
$CSHADOW
280
     0
  9
$SHADOWPLANELOCATION
 40
0.0
  0
ENDSEC
  0
SECTION
  2
CLASSES
  0
CLASS
  1
ACDBDICTIONARYWDFLT
  2
AcDbDictionaryWithDefault
  3
ObjectDBX Classes
 90
        0
 91
        4
280
     0
281
     0
  0
CLASS
  1
VISUALSTYLE
  2
AcDbVisualStyle
  3
ObjectDBX Classes
 90
     4095
 91
        4
280
     0
281
     0
  0
CLASS
  1
MATERIAL
  2
AcDbMaterial
  3
ObjectDBX Classes
 90
     1153
 91
        4
280
     0
281
     0
  0
CLASS
  1
SUN
  2
AcDbSun
  3
SCENEOE
 90
     1024
 91
        4
280
     0
281
     0
  0
ENDSEC
  0
SECTION
  2
TABLES
  0
TABLE
  2
VPORT
  5
8
330
0
100
AcDbSymbolTable
 70
     1
  0
VPORT
  5
29
330
8
100
AcDbSymbolTableRecord
100
AcDbViewportTableRecord
  2
*Active
 70
     0
 10
0.0
 20
0.0
 11
1.0
 21
1.0
 12
0.0
 22
0.0
 13
0.0
 23
0.0
 14
0.5
 24
0.5
 15
0.5
 25
0.5
 16
0.0
 26
0.0
 36
1.0
 17
91.00082462281999
 27
-128.4993055234307
 37
0.0
 40
256.9986110468615
 41
0.7081814508812795
 42
50.0
 43
0.0
 44
0.0
 50
0.0
 51
0.0
 71
     0
 72
   100
 73
     1
 74
     3
 75
     0
 76
     0
 77
     0
 78
     0
281
     0
 65
     1
110
0.0
120
0.0
130
0.0
111
1.0
121
0.0
131
0.0
112
0.0
122
1.0
132
0.0
 79
     0
146
0.0
 60
     3
 61
     5
292
     1
282
     1
141
0.0
142
0.0
 63
   250
361
3F
  0
ENDTAB
  0
TABLE
  2
LTYPE
  5
5
330
0
100
AcDbSymbolTable
 70
     1
  0
LTYPE
  5
14
330
5
100
AcDbSymbolTableRecord
100
AcDbLinetypeTableRecord
  2
ByBlock
 70
     0
  3

 72
    65
 73
     0
 40
0.0
  0
LTYPE
  5
15
330
5
100
AcDbSymbolTableRecord
100
AcDbLinetypeTableRecord
  2
ByLayer
 70
     0
  3

 72
    65
 73
     0
 40
0.0
  0
LTYPE
  5
16
330
5
100
AcDbSymbolTableRecord
100
AcDbLinetypeTableRecord
  2
Continuous
 70
     0
  3
Solid line
 72
    65
 73
     0
 40
0.0
  0
ENDTAB
  0
TABLE
  2
LAYER
  5
2
330
0
100
AcDbSymbolTable
 70
     2
  0
LAYER
  5
10
330
2
100
AcDbSymbolTableRecord
100
AcDbLayerTableRecord
  2
0
 70
     0
 62
     7
  6
Continuous
370
    -3
390
F
347
3E
  0
LAYER
  5
40
330
2
100
AcDbSymbolTableRecord
100
AcDbLayerTableRecord
  2
_U+30EC_U+30A4_U+30E4_U+30FC 1
 70
     0
 62
     7
  6
Continuous
370
    -3
390
F
347
3E
  0
ENDTAB
  0
TABLE
  2
STYLE
  5
3
330
0
100
AcDbSymbolTable
 70
     1
  0
STYLE
  5
11
330
3
100
AcDbSymbolTableRecord
100
AcDbTextStyleTableRecord
  2
Standard
 70
     0
 40
0.0
 41
1.0
 50
0.0
 71
     0
 42
0.2
  3
txt
  4

  0
ENDTAB
  0
TABLE
  2
VIEW
  5
6
330
0
100
AcDbSymbolTable
 70
     0
  0
ENDTAB
  0
TABLE
  2
UCS
  5
7
330
0
100
AcDbSymbolTable
 70
     0
  0
ENDTAB
  0
TABLE
  2
APPID
  5
9
330
0
100
AcDbSymbolTable
 70
     1
  0
APPID
  5
12
330
9
100
AcDbSymbolTableRecord
100
AcDbRegAppTableRecord
  2
ACAD
 70
     0
  0
ENDTAB
  0
TABLE
  2
DIMSTYLE
  5
A
330
0
100
AcDbSymbolTable
 70
     1
100
AcDbDimStyleTable
  0
DIMSTYLE
105
27
330
A
100
AcDbSymbolTableRecord
100
AcDbDimStyleTableRecord
  2
Standard
 70
     0
178
     0
340
11
  0
ENDTAB
  0
TABLE
  2
BLOCK_RECORD
  5
1
330
0
100
AcDbSymbolTable
 70
     4
  0
BLOCK_RECORD
  5
1F
330
1
100
AcDbSymbolTableRecord
100
AcDbBlockTableRecord
  2
*Model_Space
340
22
 70
     0
280
     1
281
     0
  0
BLOCK_RECORD
  5
1B
330
1
100
AcDbSymbolTableRecord
100
AcDbBlockTableRecord
  2
*Paper_Space
340
1E
 70
     0
280
     1
281
     0
  0
BLOCK_RECORD
  5
23
330
1
100
AcDbSymbolTableRecord
100
AcDbBlockTableRecord
  2
*Paper_Space0
340
26
 70
     0
280
     1
281
     0
  0
BLOCK_RECORD
  5
66
330
1
100
AcDbSymbolTableRecord
100
AcDbBlockTableRecord
  2
block 2
340
0
102
{BLKREFS
331
67
102
}
 70
     0
280
     1
281
     0
  0
BLOCK_RECORD
  5
7D
330
1
100
AcDbSymbolTableRecord
100
AcDbBlockTableRecord
  2
block 3
340
0
102
{BLKREFS
331
7E
102
}
 70
     0
280
     1
281
     0
  0
BLOCK_RECORD
  5
90
330
1
100
AcDbSymbolTableRecord
100
AcDbBlockTableRecord
  2
block 4
340
0
102
{BLKREFS
331
91
102
}
 70
     0
280
     1
281
     0
  0
ENDTAB
  0
ENDSEC
  0
SECTION
  2
BLOCKS
  0
BLOCK
  5
20
330
1F
100
AcDbEntity
  8
0
100
AcDbBlockBegin
  2
*Model_Space
 70
     0
 10
0.0
 20
0.0
 30
0.0
  3
*Model_Space
  1

  0
ENDBLK
  5
21
330
1F
100
AcDbEntity
  8
0
100
AcDbBlockEnd
  0
BLOCK
  5
1C
330
1B
100
AcDbEntity
 67
     1
  8
0
100
AcDbBlockBegin
  2
*Paper_Space
 70
     0
 10
0.0
 20
0.0
 30
0.0
  3
*Paper_Space
  1

  0
ENDBLK
  5
1D
330
1B
100
AcDbEntity
 67
     1
  8
0
100
AcDbBlockEnd
  0
BLOCK
  5
24
330
23
100
AcDbEntity
  8
0
100
AcDbBlockBegin
  2
*Paper_Space0
 70
     0
 10
0.0
 20
0.0
 30
0.0
  3
*Paper_Space0
  1

  0
ENDBLK
  5
25
330
23
100
AcDbEntity
  8
0
100
AcDbBlockEnd
  0
BLOCK
  5
68
330
66
100
AcDbEntity
  8
0
100
AcDbBlockBegin
  2
block 2
 70
     0
 10
0.0
 20
0.0
 30
0.0
  3
block 2
  1

  0
SPLINE
  5
6A
330
66
100
AcDbEntity
  8
_U+30EC_U+30A4_U+30E4_U+30FC 1
370
     0
100
AcDbSpline
210
0.0
220
0.0
230
1.0
 70
    11
 71
     3
 72
    62
 73
    58
 74
     0
 42
0.0000000001
 43
0.0000000001
 12
1.0
 22
0.0
 32
0.0
 13
1.0
 23
0.0
 33
0.0
 40
0.0
 40
0.0
 40
0.0
 40
0.0
 40
1.0
 40
1.0
 40
1.0
 40
2.0
 40
2.0
 40
2.0
 40
3.0
 40
3.0
 40
3.0
 40
4.0
 40
4.0
 40
4.0
 40
5.0
 40
5.0
 40
5.0
 40
6.0
 40
6.0
 40
6.0
 40
7.0
 40
7.0
 40
7.0
 40
8.0
 40
8.0
 40
8.0
 40
9.0
 40
9.0
 40
9.0
 40
10.0
 40
10.0
 40
10.0
 40
11.0
 40
11.0
 40
11.0
 40
12.0
 40
12.0
 40
12.0
 40
13.0
 40
13.0
 40
13.0
 40
14.0
 40
14.0
 40
14.0
 40
15.0
 40
15.0
 40
15.0
 40
16.0
 40
16.0
 40
16.0
 40
17.0
 40
17.0
 40
17.0
 40
18.0
 40
18.0
 40
18.0
 40
19.0
 40
19.0
 40
19.0
 40
19.0
 10
91.35032414165894
 20
-118.0732408016449
 30
0.0
 10
91.25523950626605
 20
-118.0732408016449
 30
0.0
 10
91.037337216824
 20
-118.0520534644106
 30
0.0
 10
90.9124525054837
 20
-117.8658460534328
 30
0.0
 10
90.83838295255083
 20
-117.753708195388
 30
0.0
 10
90.83424883796853
 20
-117.6543171906385
 30
0.0
 10
90.82994246861196
 20
-117.5697400964756
 30
0.0
 10
90.82994246861196
 20
-117.5697400964756
 30
0.0
 10
91.05008407011942
 20
-117.5697400964756
 30
0.0
 10
91.05008407011942
 20
-117.5697400964756
 30
0.0
 10
91.05215112741058
 20
-117.6438096494085
 30
0.0
 10
91.0626586686406
 20
-117.8785929067283
 30
0.0
 10
91.34619002707664
 20
-117.8785929067283
 30
0.0
 10
91.48382159171238
 20
-117.8785929067283
 30
0.0
 10
91.63609481216042
 20
-117.808829723152
 30
0.0
 10
91.63609481216042
 20
-117.5802476377056
 30
0.0
 10
91.63609481216042
 20
-117.4639756650785
 30
0.0
 10
91.59785425227415
 20
-117.4152275639622
 30
0.0
 10
91.56615937380985
 20
-117.3835326854979
 30
0.0
 10
91.49208982087698
 20
-117.309463132565
 30
0.0
 10
91.37564559347554
 20
-117.2968885340438
 30
0.0
 10
91.32086857526006
 20
-117.2968885340438
 30
0.0
 10
91.30174829531693
 20
-117.2968885340438
 30
0.0
 10
91.26574704749606
 20
-117.298955591335
 30
0.0
 10
91.23835853838833
 20
-117.3032619606916
 30
0.0
 10
91.23835853838833
 20
-117.3032619606916
 30
0.0
 10
91.23835853838833
 20
-117.1086140657749
 30
0.0
 10
91.23835853838833
 20
-117.1086140657749
 30
0.0
 10
91.27642684350035
 20
-117.1149874924226
 30
0.0
 10
91.31862926319465
 20
-117.1170545497138
 30
0.0
 10
91.32500268984236
 20
-117.1170545497138
 30
0.0
 10
91.39045950406211
 20
-117.1170545497138
 30
0.0
 10
91.58958602310955
 20
-117.0958672124795
 30
0.0
 10
91.58958602310955
 20
-116.8590168978686
 30
0.0
 10
91.58958602310955
 20
-116.6812499708297
 30
0.0
 10
91.45832788512153
 20
-116.62630069784
 30
0.0
 10
91.3482570843678
 20
-116.62630069784
 30
0.0
 10
91.08384600587488
 20
-116.62630069784
 30
0.0
 10
91.07540552193602
 20
-116.8590168978686
 30
0.0
 10
91.07109915257945
 20
-116.930847138736
 30
0.0
 10
91.07109915257945
 20
-116.930847138736
 30
0.0
 10
90.86801077372397
 20
-116.930847138736
 30
0.0
 10
90.86801077372397
 20
-116.930847138736
 30
0.0
 10
90.87645125766284
 20
-116.8059624273957
 30
0.0
 10
90.90401202154483
 20
-116.4294134908579
 30
0.0
 10
91.36100393766323
 20
-116.4294134908579
 30
0.0
 10
91.58510739897872
 20
-116.4294134908579
 30
0.0
 10
91.82626408294621
 20
-116.5563652594894
 30
0.0
 10
91.82626408294621
 20
-116.8526434712209
 30
0.0
 10
91.82626408294621
 20
-117.0386786274244
 30
0.0
 10
91.73117944755332
 20
-117.1211886642961
 30
0.0
 10
91.6316161880296
 20
-117.1826836187078
 30
0.0
 10
91.69328339721557
 20
-117.2100721278155
 30
0.0
 10
91.87518443883677
 20
-117.2905151073961
 30
0.0
 10
91.87518443883677
 20
-117.5676730391845
 30
0.0
 10
91.87518443883677
 20
-117.9061536706103
 30
0.0
 10
91.6274820734473
 20
-118.0732408016449
 30
0.0
 10
91.35032414165894
 20
-118.0732408016449
 30
0.0
  0
HATCH
  5
6B
330
66
100
AcDbEntity
  8
_U+30EC_U+30A4_U+30E4_U+30FC 1
 62
   179
420
  2234388
100
AcDbHatch
 10
0.0
 20
0.0
 30
0.0
210
0.0
220
0.0
230
1.0
  2
SOLID
 70
     1
 71
     0
 91
        1
 92
        1
 93
        1
 72
     4
 94
        3
 73
     0
 74
     1
 95
       62
 96
       58
 40
0.0
 40
0.0
 40
0.0
 40
0.0
 40
1.0
 40
1.0
 40
1.0
 40
2.0
 40
2.0
 40
2.0
 40
3.0
 40
3.0
 40
3.0
 40
4.0
 40
4.0
 40
4.0
 40
5.0
 40
5.0
 40
5.0
 40
6.0
 40
6.0
 40
6.0
 40
7.0
 40
7.0
 40
7.0
 40
8.0
 40
8.0
 40
8.0
 40
9.0
 40
9.0
 40
9.0
 40
10.0
 40
10.0
 40
10.0
 40
11.0
 40
11.0
 40
11.0
 40
12.0
 40
12.0
 40
12.0
 40
13.0
 40
13.0
 40
13.0
 40
14.0
 40
14.0
 40
14.0
 40
15.0
 40
15.0
 40
15.0
 40
16.0
 40
16.0
 40
16.0
 40
17.0
 40
17.0
 40
17.0
 40
18.0
 40
18.0
 40
18.0
 40
19.0
 40
19.0
 40
19.0
 40
19.0
 10
91.35032414165894
 20
-118.0732408016449
 10
91.25523950626605
 20
-118.0732408016449
 10
91.037337216824
 20
-118.0520534644106
 10
90.9124525054837
 20
-117.8658460534328
 10
90.83838295255083
 20
-117.753708195388
 10
90.83424883796853
 20
-117.6543171906385
 10
90.82994246861196
 20
-117.5697400964756
 10
90.82994246861196
 20
-117.5697400964756
 10
91.05008407011942
 20
-117.5697400964756
 10
91.05008407011942
 20
-117.5697400964756
 10
91.05215112741058
 20
-117.6438096494085
 10
91.0626586686406
 20
-117.8785929067283
 10
91.34619002707664
 20
-117.8785929067283
 10
91.48382159171238
 20
-117.8785929067283
 10
91.63609481216042
 20
-117.808829723152
 10
91.63609481216042
 20
-117.5802476377056
 10
91.63609481216042
 20
-117.4639756650785
 10
91.59785425227415
 20
-117.4152275639622
 10
91.56615937380985
 20
-117.3835326854979
 10
91.49208982087698
 20
-117.309463132565
 10
91.37564559347554
 20
-117.2968885340438
 10
91.32086857526006
 20
-117.2968885340438
 10
91.30174829531693
 20
-117.2968885340438
 10
91.26574704749606
 20
-117.298955591335
 10
91.23835853838833
 20
-117.3032619606916
 10
91.23835853838833
 20
-117.3032619606916
 10
91.23835853838833
 20
-117.1086140657749
 10
91.23835853838833
 20
-117.1086140657749
 10
91.27642684350035
 20
-117.1149874924226
 10
91.31862926319465
 20
-117.1170545497138
 10
91.32500268984236
 20
-117.1170545497138
 10
91.39045950406211
 20
-117.1170545497138
 10
91.58958602310955
 20
-117.0958672124795
 10
91.58958602310955
 20
-116.8590168978686
 10
91.58958602310955
 20
-116.6812499708297
 10
91.45832788512153
 20
-116.62630069784
 10
91.3482570843678
 20
-116.62630069784
 10
91.08384600587488
 20
-116.62630069784
 10
91.07540552193602
 20
-116.8590168978686
 10
91.07109915257945
 20
-116.930847138736
 10
91.07109915257945
 20
-116.930847138736
 10
90.86801077372397
 20
-116.930847138736
 10
90.86801077372397
 20
-116.930847138736
 10
90.87645125766284
 20
-116.8059624273957
 10
90.90401202154483
 20
-116.4294134908579
 10
91.36100393766323
 20
-116.4294134908579
 10
91.58510739897872
 20
-116.4294134908579
 10
91.82626408294621
 20
-116.5563652594894
 10
91.82626408294621
 20
-116.8526434712209
 10
91.82626408294621
 20
-117.0386786274244
 10
91.73117944755332
 20
-117.1211886642961
 10
91.6316161880296
 20
-117.1826836187078
 10
91.69328339721557
 20
-117.2100721278155
 10
91.87518443883677
 20
-117.2905151073961
 10
91.87518443883677
 20
-117.5676730391845
 10
91.87518443883677
 20
-117.9061536706103
 10
91.6274820734473
 20
-118.0732408016449
 10
91.35032414165894
 20
-118.0732408016449
 97
        0
 97
        0
 75
     2
 76
     1
 98
        0
  0
SPLINE
  5
6C
330
66
100
AcDbEntity
  8
_U+30EC_U+30A4_U+30E4_U+30FC 1
370
     0
100
AcDbSpline
210
0.0
220
0.0
230
1.0
 70
    11
 71
     3
 72
    32
 73
    28
 74
     0
 42
0.0000000001
 43
0.0000000001
 12
1.0
 22
0.0
 32
0.0
 13
1.0
 23
0.0
 33
0.0
 40
0.0
 40
0.0
 40
0.0
 40
0.0
 40
1.0
 40
1.0
 40
1.0
 40
2.0
 40
2.0
 40
2.0
 40
3.0
 40
3.0
 40
3.0
 40
4.0
 40
4.0
 40
4.0
 40
5.0
 40
5.0
 40
5.0
 40
6.0
 40
6.0
 40
6.0
 40
7.0
 40
7.0
 40
7.0
 40
8.0
 40
8.0
 40
8.0
 40
9.0
 40
9.0
 40
9.0
 40
9.0
 10
92.54008786748999
 20
-118.0732408016449
 30
0.0
 10
92.02366805425103
 20
-118.0732408016449
 30
0.0
 10
92.01539982508643
 20
-117.5189249380682
 30
0.0
 10
92.01539982508643
 20
-117.3053290179827
 30
0.0
 10
92.01539982508643
 20
-117.0746798752452
 30
0.0
 10
92.0343478502553
 20
-116.4273464335668
 30
0.0
 10
92.57798391782774
 20
-116.4273464335668
 30
0.0
 10
92.75161673028433
 20
-116.4273464335668
 30
0.0
 10
92.99690752883411
 20
-116.4971096171431
 30
0.0
 10
93.03514808872039
 20
-116.8293890766954
 30
0.0
 10
93.03514808872039
 20
-116.8293890766954
 30
0.0
 10
92.82120765908637
 20
-116.8293890766954
 30
0.0
 10
92.82120765908637
 20
-116.8293890766954
 30
0.0
 10
92.81087237263061
 20
-116.7722004916403
 30
0.0
 10
92.77917749416632
 20
-116.6240613857745
 30
0.0
 10
92.57591686053658
 20
-116.6240613857745
 30
0.0
 10
92.28411727293592
 20
-116.6240613857745
 30
0.0
 10
92.2438096557585
 20
-116.9520344759703
 30
0.0
 10
92.23106280246307
 20
-117.157189912117
 30
0.0
 10
92.32408038056482
 20
-117.0789862446018
 30
0.0
 10
92.39194876162423
 20
-117.0197306022555
 30
0.0
 10
92.57384980324544
 20
-117.0197306022555
 30
0.0
 10
92.75368378757547
 20
-117.0197306022555
 30
0.0
 10
93.0561631711804
 20
-117.1275620909438
 30
0.0
 10
93.0561631711804
 20
-117.5337388486548
 30
0.0
 10
93.0561631711804
 20
-117.8532714549117
 30
0.0
 10
92.85738116168149
 20
-118.0732408016449
 30
0.0
 10
92.54008786748999
 20
-118.0732408016449
 30
0.0
  0
SPLINE
  5
6D
330
66
100
AcDbEntity
  8
_U+30EC_U+30A4_U+30E4_U+30FC 1
370
     0
100
AcDbSpline
210
0.0
220
0.0
230
1.0
 70
    11
 71
     3
 72
    17
 73
    13
 74
     0
 42
0.0000000001
 43
0.0000000001
 12
1.0
 22
0.0
 32
0.0
 13
1.0
 23
0.0
 33
0.0
 40
0.0
 40
0.0
 40
0.0
 40
0.0
 40
1.0
 40
1.0
 40
1.0
 40
2.0
 40
2.0
 40
2.0
 40
3.0
 40
3.0
 40
3.0
 40
4.0
 40
4.0
 40
4.0
 40
4.0
 10
92.55696883536771
 20
-117.2143784971721
 30
0.0
 10
92.29445255939167
 20
-117.2143784971721
 30
0.0
 10
92.25655650905392
 20
-117.4259073599664
 30
0.0
 10
92.25655650905392
 20
-117.5421793325936
 30
0.0
 10
92.25655650905392
 20
-117.7178792023414
 30
0.0
 10
92.35164114444682
 20
-117.8806599640194
 30
0.0
 10
92.53560924335916
 20
-117.8806599640194
 30
0.0
 10
92.6561875853429
 20
-117.8806599640194
 30
0.0
 10
92.83188745509064
 20
-117.8214043216731
 30
0.0
 10
92.83188745509064
 20
-117.5359781607202
 30
0.0
 10
92.83188745509064
 20
-117.3117024446304
 30
0.0
 10
92.69236108793802
 20
-117.2143784971721
 30
0.0
 10
92.55696883536771
 20
-117.2143784971721
 30
0.0
  0
HATCH
  5
6E
330
66
100
AcDbEntity
  8
_U+30EC_U+30A4_U+30E4_U+30FC 1
 62
   179
420
  2234388
100
AcDbHatch
 10
0.0
 20
0.0
 30
0.0
210
0.0
220
0.0
230
1.0
  2
SOLID
 70
     1
 71
     0
 91
        2
 92
        1
 93
        1
 72
     4
 94
        3
 73
     0
 74
     1
 95
       32
 96
       28
 40
0.0
 40
0.0
 40
0.0
 40
0.0
 40
1.0
 40
1.0
 40
1.0
 40
2.0
 40
2.0
 40
2.0
 40
3.0
 40
3.0
 40
3.0
 40
4.0
 40
4.0
 40
4.0
 40
5.0
 40
5.0
 40
5.0
 40
6.0
 40
6.0
 40
6.0
 40
7.0
 40
7.0
 40
7.0
 40
8.0
 40
8.0
 40
8.0
 40
9.0
 40
9.0
 40
9.0
 40
9.0
 10
92.54008786748999
 20
-118.0732408016449
 10
92.02366805425103
 20
-118.0732408016449
 10
92.01539982508643
 20
-117.5189249380682
 10
92.01539982508643
 20
-117.3053290179827
 10
92.01539982508643
 20
-117.0746798752452
 10
92.0343478502553
 20
-116.4273464335668
 10
92.57798391782774
 20
-116.4273464335668
 10
92.75161673028433
 20
-116.4273464335668
 10
92.99690752883411
 20
-116.4971096171431
 10
93.03514808872039
 20
-116.8293890766954
 10
93.03514808872039
 20
-116.8293890766954
 10
92.82120765908637
 20
-116.8293890766954
 10
92.82120765908637
 20
-116.8293890766954
 10
92.81087237263061
 20
-116.7722004916403
 10
92.77917749416632
 20
-116.6240613857745
 10
92.57591686053658
 20
-116.6240613857745
 10
92.28411727293592
 20
-116.6240613857745
 10
92.2438096557585
 20
-116.9520344759703
 10
92.23106280246307
 20
-117.157189912117
 10
92.32408038056482
 20
-117.0789862446018
 10
92.39194876162423
 20
-117.0197306022555
 10
92.57384980324544
 20
-117.0197306022555
 10
92.75368378757547
 20
-117.0197306022555
 10
93.0561631711804
 20
-117.1275620909438
 10
93.0561631711804
 20
-117.5337388486548
 10
93.0561631711804
 20
-117.8532714549117
 10
92.85738116168149
 20
-118.0732408016449
 10
92.54008786748999
 20
-118.0732408016449
 97
        0
 97
        0
 92
        1
 93
        1
 72
     4
 94
        3
 73
     0
 74
     1
 95
       17
 96
       13
 40
0.0
 40
0.0
 40
0.0
 40
0.0
 40
1.0
 40
1.0
 40
1.0
 40
2.0
 40
2.0
 40
2.0
 40
3.0
 40
3.0
 40
3.0
 40
4.0
 40
4.0
 40
4.0
 40
4.0
 10
92.55696883536771
 20
-117.2143784971721
 10
92.29445255939167
 20
-117.2143784971721
 10
92.25655650905392
 20
-117.4259073599664
 10
92.25655650905392
 20
-117.5421793325936
 10
92.25655650905392
 20
-117.7178792023414
 10
92.35164114444682
 20
-117.8806599640194
 10
92.53560924335916
 20
-117.8806599640194
 10
92.6561875853429
 20
-117.8806599640194
 10
92.83188745509064
 20
-117.8214043216731
 10
92.83188745509064
 20
-117.5359781607202
 10
92.83188745509064
 20
-117.3117024446304
 10
92.69236108793802
 20
-117.2143784971721
 10
92.55696883536771
 20
-117.2143784971721
 97
        0
 97
        0
 75
     2
 76
     1
 98
        0
  0
ENDBLK
  5
69
330
66
100
AcDbEntity
  8
0
100
AcDbBlockEnd
  0
BLOCK
  5
7F
330
7D
100
AcDbEntity
  8
0
100
AcDbBlockBegin
  2
block 3
 70
     0
 10
0.0
 20
0.0
 30
0.0
  3
block 3
  1

  0
SPLINE
  5
81
330
7D
100
AcDbEntity
  8
_U+30EC_U+30A4_U+30E4_U+30FC 1
370
     0
100
AcDbSpline
210
0.0
220
0.0
230
1.0
 70
    11
 71
     3
 72
    26
 73
    22
 74
     0
 42
0.0000000001
 43
0.0000000001
 12
1.0
 22
0.0
 32
0.0
 13
1.0
 23
0.0
 33
0.0
 40
0.0
 40
0.0
 40
0.0
 40
0.0
 40
1.0
 40
1.0
 40
1.0
 40
2.0
 40
2.0
 40
2.0
 40
3.0
 40
3.0
 40
3.0
 40
4.0
 40
4.0
 40
4.0
 40
5.0
 40
5.0
 40
5.0
 40
6.0
 40
6.0
 40
6.0
 40
7.0
 40
7.0
 40
7.0
 40
7.0
 10
69.57508136281457
 20
-134.1320366418142
 30
0.0
 10
69.57508136281457
 20
-134.1320366418142
 30
0.0
 10
68.47075600501773
 20
-134.1320366418142
 30
0.0
 10
68.47075600501773
 20
-134.1320366418142
 30
0.0
 10
68.47075600501773
 20
-134.1320366418142
 30
0.0
 10
68.47075600501773
 20
-134.4620767893012
 30
0.0
 10
68.47075600501773
 20
-134.4620767893012
 30
0.0
 10
68.47075600501773
 20
-134.4620767893012
 30
0.0
 10
68.32278915392625
 20
-134.4620767893012
 30
0.0
 10
68.32278915392625
 20
-134.4620767893012
 30
0.0
 10
68.30797524333967
 20
-134.1299695845231
 30
0.0
 10
68.14502222688736
 20
-134.0831162859237
 30
0.0
 10
68.03081731155133
 20
-134.0534884647505
 30
0.0
 10
68.03081731155133
 20
-134.0534884647505
 30
0.0
 10
68.03081731155133
 20
-133.9077609257245
 30
0.0
 10
68.03081731155133
 20
-133.9077609257245
 30
0.0
 10
68.03081731155133
 20
-133.9077609257245
 30
0.0
 10
69.57508136281457
 20
-133.9077609257245
 30
0.0
 10
69.57508136281457
 20
-133.9077609257245
 30
0.0
 10
69.57508136281457
 20
-133.9077609257245
 30
0.0
 10
69.57508136281457
 20
-134.1320366418142
 30
0.0
 10
69.57508136281457
 20
-134.1320366418142
 30
0.0
  0
HATCH
  5
82
330
7D
100
AcDbEntity
  8
_U+30EC_U+30A4_U+30E4_U+30FC 1
 62
   179
420
  2234388
100
AcDbHatch
 10
0.0
 20
0.0
 30
0.0
210
0.0
220
0.0
230
1.0
  2
SOLID
 70
     1
 71
     0
 91
        1
 92
        1
 93
        1
 72
     4
 94
        3
 73
     0
 74
     1
 95
       26
 96
       22
 40
0.0
 40
0.0
 40
0.0
 40
0.0
 40
1.0
 40
1.0
 40
1.0
 40
2.0
 40
2.0
 40
2.0
 40
3.0
 40
3.0
 40
3.0
 40
4.0
 40
4.0
 40
4.0
 40
5.0
 40
5.0
 40
5.0
 40
6.0
 40
6.0
 40
6.0
 40
7.0
 40
7.0
 40
7.0
 40
7.0
 10
69.57508136281457
 20
-134.1320366418142
 10
69.57508136281457
 20
-134.1320366418142
 10
68.47075600501773
 20
-134.1320366418142
 10
68.47075600501773
 20
-134.1320366418142
 10
68.47075600501773
 20
-134.1320366418142
 10
68.47075600501773
 20
-134.4620767893012
 10
68.47075600501773
 20
-134.4620767893012
 10
68.47075600501773
 20
-134.4620767893012
 10
68.32278915392625
 20
-134.4620767893012
 10
68.32278915392625
 20
-134.4620767893012
 10
68.30797524333967
 20
-134.1299695845231
 10
68.14502222688736
 20
-134.0831162859237
 10
68.03081731155133
 20
-134.0534884647505
 10
68.03081731155133
 20
-134.0534884647505
 10
68.03081731155133
 20
-133.9077609257245
 10
68.03081731155133
 20
-133.9077609257245
 10
68.03081731155133
 20
-133.9077609257245
 10
69.57508136281457
 20
-133.9077609257245
 10
69.57508136281457
 20
-133.9077609257245
 10
69.57508136281457
 20
-133.9077609257245
 10
69.57508136281457
 20
-134.1320366418142
 10
69.57508136281457
 20
-134.1320366418142
 97
        0
 97
        0
 75
     2
 76
     1
 98
        0
  0
SPLINE
  5
83
330
7D
100
AcDbEntity
  8
_U+30EC_U+30A4_U+30E4_U+30FC 1
370
     0
100
AcDbSpline
210
0.0
220
0.0
230
1.0
 70
    11
 71
     3
 72
    29
 73
    25
 74
     0
 42
0.0000000001
 43
0.0000000001
 12
1.0
 22
0.0
 32
0.0
 13
1.0
 23
0.0
 33
0.0
 40
0.0
 40
0.0
 40
0.0
 40
0.0
 40
1.0
 40
1.0
 40
1.0
 40
2.0
 40
2.0
 40
2.0
 40
3.0
 40
3.0
 40
3.0
 40
4.0
 40
4.0
 40
4.0
 40
5.0
 40
5.0
 40
5.0
 40
6.0
 40
6.0
 40
6.0
 40
7.0
 40
7.0
 40
7.0
 40
8.0
 40
8.0
 40
8.0
 40
8.0
 10
69.625896521222
 20
-132.9062716681623
 30
0.0
 10
69.625896521222
 20
-133.1729220587207
 30
0.0
 10
69.48843721136053
 20
-133.4268255959836
 30
0.0
 10
69.13927678393046
 20
-133.4268255959836
 30
0.0
 10
68.8833061893764
 20
-133.4268255959836
 30
0.0
 10
68.7882215539835
 20
-133.2852321715398
 30
0.0
 10
68.72672659957179
 20
-133.1794677401426
 30
0.0
 10
68.66764321199976
 20
-133.3041801967087
 30
0.0
 10
68.55326604188946
 20
-133.3803168069327
 30
0.0
 10
68.39255233750256
 20
-133.3803168069327
 30
0.0
 10
68.11746146300536
 20
-133.3803168069327
 30
0.0
 10
67.98206921043504
 20
-133.1815347974338
 30
0.0
 10
67.98206921043504
 20
-132.9062716681623
 30
0.0
 10
67.98206921043504
 20
-132.6230848192748
 30
0.0
 10
68.12607420171848
 20
-132.4325710389405
 30
0.0
 10
68.39255233750256
 20
-132.4325710389405
 30
0.0
 10
68.55326604188946
 20
-132.4325710389405
 30
0.0
 10
68.66764321199976
 20
-132.5107747064556
 30
0.0
 10
68.72672659957179
 20
-132.6354871630217
 30
0.0
 10
68.77754175797922
 20
-132.5466036995022
 30
0.0
 10
68.87279864814639
 20
-132.3881293071807
 30
0.0
 10
69.13514266934816
 20
-132.3881293071807
 30
0.0
 10
69.50945229382056
 20
-132.3881293071807
 30
0.0
 10
69.625896521222
 20
-132.6675265510345
 30
0.0
 10
69.625896521222
 20
-132.9062716681623
 30
0.0
  0
SPLINE
  5
84
330
7D
100
AcDbEntity
  8
_U+30EC_U+30A4_U+30E4_U+30FC 1
370
     0
100
AcDbSpline
210
0.0
220
0.0
230
1.0
 70
    11
 71
     3
 72
    17
 73
    13
 74
     0
 42
0.0000000001
 43
0.0000000001
 12
1.0
 22
0.0
 32
0.0
 13
1.0
 23
0.0
 33
0.0
 40
0.0
 40
0.0
 40
0.0
 40
0.0
 40
1.0
 40
1.0
 40
1.0
 40
2.0
 40
2.0
 40
2.0
 40
3.0
 40
3.0
 40
3.0
 40
4.0
 40
4.0
 40
4.0
 40
4.0
 10
68.17465004806051
 20
-132.9062716681623
 30
0.0
 10
68.17465004806051
 20
-133.0712917419058
 30
0.0
 10
68.26990693822766
 20
-133.1560410908429
 30
0.0
 10
68.40529919079799
 20
-133.1560410908429
 30
0.0
 10
68.52794459007288
 20
-133.1560410908429
 30
0.0
 10
68.64645587476548
 20
-133.0840385952012
 30
0.0
 10
68.64645587476548
 20
-132.9062716681623
 30
0.0
 10
68.64645587476548
 20
-132.728849250672
 30
0.0
 10
68.52794459007288
 20
-132.6568467550302
 30
0.0
 10
68.40529919079799
 20
-132.6568467550302
 30
0.0
 10
68.26990693822766
 20
-132.6568467550302
 30
0.0
 10
68.17465004806051
 20
-132.7436631612585
 30
0.0
 10
68.17465004806051
 20
-132.9062716681623
 30
0.0
  0
SPLINE
  5
85
330
7D
100
AcDbEntity
  8
_U+30EC_U+30A4_U+30E4_U+30FC 1
370
     0
100
AcDbSpline
210
0.0
220
0.0
230
1.0
 70
    11
 71
     3
 72
    17
 73
    13
 74
     0
 42
0.0000000001
 43
0.0000000001
 12
1.0
 22
0.0
 32
0.0
 13
1.0
 23
0.0
 33
0.0
 40
0.0
 40
0.0
 40
0.0
 40
0.0
 40
1.0
 40
1.0
 40
1.0
 40
2.0
 40
2.0
 40
2.0
 40
3.0
 40
3.0
 40
3.0
 40
4.0
 40
4.0
 40
4.0
 40
4.0
 10
68.83473034303438
 20
-132.9062716681623
 30
0.0
 10
68.83473034303438
 20
-133.0502766594458
 30
0.0
 10
68.9213744944884
 20
-133.2025498798938
 30
0.0
 10
69.12446287334389
 20
-133.2025498798938
 30
0.0
 10
69.32979056426478
 20
-133.2025498798938
 30
0.0
 10
69.43124862630539
 20
-133.0757703660366
 30
0.0
 10
69.43124862630539
 20
-132.9062716681623
 30
0.0
 10
69.43124862630539
 20
-132.7202365119588
 30
0.0
 10
69.30860322703049
 20
-132.6103379659794
 30
0.0
 10
69.1308362999916
 20
-132.6103379659794
 30
0.0
 10
68.90879989596725
 20
-132.6103379659794
 30
0.0
 10
68.83473034303438
 20
-132.7732909824317
 30
0.0
 10
68.83473034303438
 20
-132.9062716681623
 30
0.0
  0
HATCH
  5
86
330
7D
100
AcDbEntity
  8
_U+30EC_U+30A4_U+30E4_U+30FC 1
 62
   179
420
  2234388
100
AcDbHatch
 10
0.0
 20
0.0
 30
0.0
210
0.0
220
0.0
230
1.0
  2
SOLID
 70
     1
 71
     0
 91
        3
 92
        1
 93
        1
 72
     4
 94
        3
 73
     0
 74
     1
 95
       29
 96
       25
 40
0.0
 40
0.0
 40
0.0
 40
0.0
 40
1.0
 40
1.0
 40
1.0
 40
2.0
 40
2.0
 40
2.0
 40
3.0
 40
3.0
 40
3.0
 40
4.0
 40
4.0
 40
4.0
 40
5.0
 40
5.0
 40
5.0
 40
6.0
 40
6.0
 40
6.0
 40
7.0
 40
7.0
 40
7.0
 40
8.0
 40
8.0
 40
8.0
 40
8.0
 10
69.625896521222
 20
-132.9062716681623
 10
69.625896521222
 20
-133.1729220587207
 10
69.48843721136053
 20
-133.4268255959836
 10
69.13927678393046
 20
-133.4268255959836
 10
68.8833061893764
 20
-133.4268255959836
 10
68.7882215539835
 20
-133.2852321715398
 10
68.72672659957179
 20
-133.1794677401426
 10
68.66764321199976
 20
-133.3041801967087
 10
68.55326604188946
 20
-133.3803168069327
 10
68.39255233750256
 20
-133.3803168069327
 10
68.11746146300536
 20
-133.3803168069327
 10
67.98206921043504
 20
-133.1815347974338
 10
67.98206921043504
 20
-132.9062716681623
 10
67.98206921043504
 20
-132.6230848192748
 10
68.12607420171848
 20
-132.4325710389405
 10
68.39255233750256
 20
-132.4325710389405
 10
68.55326604188946
 20
-132.4325710389405
 10
68.66764321199976
 20
-132.5107747064556
 10
68.72672659957179
 20
-132.6354871630217
 10
68.77754175797922
 20
-132.5466036995022
 10
68.87279864814639
 20
-132.3881293071807
 10
69.13514266934816
 20
-132.3881293071807
 10
69.50945229382056
 20
-132.3881293071807
 10
69.625896521222
 20
-132.6675265510345
 10
69.625896521222
 20
-132.9062716681623
 97
        0
 97
        0
 92
        1
 93
        1
 72
     4
 94
        3
 73
     0
 74
     1
 95
       17
 96
       13
 40
0.0
 40
0.0
 40
0.0
 40
0.0
 40
1.0
 40
1.0
 40
1.0
 40
2.0
 40
2.0
 40
2.0
 40
3.0
 40
3.0
 40
3.0
 40
4.0
 40
4.0
 40
4.0
 40
4.0
 10
68.17465004806051
 20
-132.9062716681623
 10
68.17465004806051
 20
-133.0712917419058
 10
68.26990693822766
 20
-133.1560410908429
 10
68.40529919079799
 20
-133.1560410908429
 10
68.52794459007288
 20
-133.1560410908429
 10
68.64645587476548
 20
-133.0840385952012
 10
68.64645587476548
 20
-132.9062716681623
 10
68.64645587476548
 20
-132.728849250672
 10
68.52794459007288
 20
-132.6568467550302
 10
68.40529919079799
 20
-132.6568467550302
 10
68.26990693822766
 20
-132.6568467550302
 10
68.17465004806051
 20
-132.7436631612585
 10
68.17465004806051
 20
-132.9062716681623
 97
        0
 97
        0
 92
        1
 93
        1
 72
     4
 94
        3
 73
     0
 74
     1
 95
       17
 96
       13
 40
0.0
 40
0.0
 40
0.0
 40
0.0
 40
1.0
 40
1.0
 40
1.0
 40
2.0
 40
2.0
 40
2.0
 40
3.0
 40
3.0
 40
3.0
 40
4.0
 40
4.0
 40
4.0
 40
4.0
 10
68.83473034303438
 20
-132.9062716681623
 10
68.83473034303438
 20
-133.0502766594458
 10
68.9213744944884
 20
-133.2025498798938
 10
69.12446287334389
 20
-133.2025498798938
 10
69.32979056426478
 20
-133.2025498798938
 10
69.43124862630539
 20
-133.0757703660366
 10
69.43124862630539
 20
-132.9062716681623
 10
69.43124862630539
 20
-132.7202365119588
 10
69.30860322703049
 20
-132.6103379659794
 10
69.1308362999916
 20
-132.6103379659794
 10
68.90879989596725
 20
-132.6103379659794
 10
68.83473034303438
 20
-132.7732909824317
 10
68.83473034303438
 20
-132.9062716681623
 97
        0
 97
        0
 75
     2
 76
     1
 98
        0
  0
ENDBLK
  5
80
330
7D
100
AcDbEntity
  8
0
100
AcDbBlockEnd
  0
BLOCK
  5
92
330
90
100
AcDbEntity
  8
0
100
AcDbBlockBegin
  2
block 4
 70
     0
 10
0.0
 20
0.0
 30
0.0
  3
block 4
  1

  0
SPLINE
  5
94
330
90
100
AcDbEntity
  8
_U+30EC_U+30A4_U+30E4_U+30FC 1
370
     0
100
AcDbSpline
210
0.0
220
0.0
230
1.0
 70
    11
 71
     3
 72
    32
 73
    28
 74
     0
 42
0.0000000001
 43
0.0000000001
 12
1.0
 22
0.0
 32
0.0
 13
1.0
 23
0.0
 33
0.0
 40
0.0
 40
0.0
 40
0.0
 40
0.0
 40
1.0
 40
1.0
 40
1.0
 40
2.0
 40
2.0
 40
2.0
 40
3.0
 40
3.0
 40
3.0
 40
4.0
 40
4.0
 40
4.0
 40
5.0
 40
5.0
 40
5.0
 40
6.0
 40
6.0
 40
6.0
 40
7.0
 40
7.0
 40
7.0
 40
8.0
 40
8.0
 40
8.0
 40
9.0
 40
9.0
 40
9.0
 40
9.0
 10
113.7260470635824
 20
-127.6847126959434
 30
0.0
 10
113.7260470635824
 20
-128.2007879996338
 30
0.0
 10
113.1717312000057
 20
-128.2092284835727
 30
0.0
 10
112.9581352799202
 20
-128.2092284835727
 30
0.0
 10
112.727658391957
 20
-128.2092284835727
 30
0.0
 10
112.0803249502785
 20
-128.1902804584038
 30
0.0
 10
112.0803249502785
 20
-127.6466443908314
 30
0.0
 10
112.0803249502785
 20
-127.4730115783748
 30
0.0
 10
112.1499158790806
 20
-127.227720779825
 30
0.0
 10
112.4820230838587
 20
-127.189652474713
 30
0.0
 10
112.4820230838587
 20
-127.189652474713
 30
0.0
 10
112.4820230838587
 20
-127.4032483947985
 30
0.0
 10
112.4820230838587
 20
-127.4032483947985
 30
0.0
 10
112.4248344988035
 20
-127.4139281908028
 30
0.0
 10
112.2770399024863
 20
-127.4456230692671
 30
0.0
 10
112.2770399024863
 20
-127.6487114481226
 30
0.0
 10
112.2770399024863
 20
-127.9406832904975
 30
0.0
 10
112.6046684831336
 20
-127.9808186529006
 30
0.0
 10
112.8099961740544
 20
-127.9935655061961
 30
0.0
 10
112.7317925065393
 20
-127.9003756733201
 30
0.0
 10
112.672536864193
 20
-127.8326795470349
 30
0.0
 10
112.672536864193
 20
-127.6507785054137
 30
0.0
 10
112.672536864193
 20
-127.4709445210837
 30
0.0
 10
112.7803683528813
 20
-127.1684651374787
 30
0.0
 10
113.1865451105923
 20
-127.1684651374787
 30
0.0
 10
113.5059054620749
 20
-127.1684651374787
 30
0.0
 10
113.7260470635824
 20
-127.3672471469776
 30
0.0
 10
113.7260470635824
 20
-127.6847126959434
 30
0.0
  0
SPLINE
  5
95
330
90
100
AcDbEntity
  8
_U+30EC_U+30A4_U+30E4_U+30FC 1
370
     0
100
AcDbSpline
210
0.0
220
0.0
230
1.0
 70
    11
 71
     3
 72
    17
 73
    13
 74
     0
 42
0.0000000001
 43
0.0000000001
 12
1.0
 22
0.0
 32
0.0
 13
1.0
 23
0.0
 33
0.0
 40
0.0
 40
0.0
 40
0.0
 40
0.0
 40
1.0
 40
1.0
 40
1.0
 40
2.0
 40
2.0
 40
2.0
 40
3.0
 40
3.0
 40
3.0
 40
4.0
 40
4.0
 40
4.0
 40
4.0
 10
112.8671847591096
 20
-127.6676594732914
 30
0.0
 10
112.8671847591096
 20
-127.9300034944932
 30
0.0
 10
113.0787136219039
 20
-127.9680717996052
 30
0.0
 10
113.1951578493054
 20
-127.9680717996052
 30
0.0
 10
113.3705132095046
 20
-127.9680717996052
 30
0.0
 10
113.5334662259569
 20
-127.8729871642123
 30
0.0
 10
113.5334662259569
 20
-127.6888468105257
 30
0.0
 10
113.5334662259569
 20
-127.568268468542
 30
0.0
 10
113.4742105836106
 20
-127.3927408535685
 30
0.0
 10
113.1886121678834
 20
-127.3927408535685
 30
0.0
 10
112.9643364517936
 20
-127.3927408535685
 30
0.0
 10
112.8671847591096
 20
-127.5322672207211
 30
0.0
 10
112.8671847591096
 20
-127.6676594732914
 30
0.0
  0
HATCH
  5
96
330
90
100
AcDbEntity
  8
_U+30EC_U+30A4_U+30E4_U+30FC 1
 62
   179
420
  2234388
100
AcDbHatch
 10
0.0
 20
0.0
 30
0.0
210
0.0
220
0.0
230
1.0
  2
SOLID
 70
     1
 71
     0
 91
        2
 92
        1
 93
        1
 72
     4
 94
        3
 73
     0
 74
     1
 95
       32
 96
       28
 40
0.0
 40
0.0
 40
0.0
 40
0.0
 40
1.0
 40
1.0
 40
1.0
 40
2.0
 40
2.0
 40
2.0
 40
3.0
 40
3.0
 40
3.0
 40
4.0
 40
4.0
 40
4.0
 40
5.0
 40
5.0
 40
5.0
 40
6.0
 40
6.0
 40
6.0
 40
7.0
 40
7.0
 40
7.0
 40
8.0
 40
8.0
 40
8.0
 40
9.0
 40
9.0
 40
9.0
 40
9.0
 10
113.7260470635824
 20
-127.6847126959434
 10
113.7260470635824
 20
-128.2007879996338
 10
113.1717312000057
 20
-128.2092284835727
 10
112.9581352799202
 20
-128.2092284835727
 10
112.727658391957
 20
-128.2092284835727
 10
112.0803249502785
 20
-128.1902804584038
 10
112.0803249502785
 20
-127.6466443908314
 10
112.0803249502785
 20
-127.4730115783748
 10
112.1499158790806
 20
-127.227720779825
 10
112.4820230838587
 20
-127.189652474713
 10
112.4820230838587
 20
-127.189652474713
 10
112.4820230838587
 20
-127.4032483947985
 10
112.4820230838587
 20
-127.4032483947985
 10
112.4248344988035
 20
-127.4139281908028
 10
112.2770399024863
 20
-127.4456230692671
 10
112.2770399024863
 20
-127.6487114481226
 10
112.2770399024863
 20
-127.9406832904975
 10
112.6046684831336
 20
-127.9808186529006
 10
112.8099961740544
 20
-127.9935655061961
 10
112.7317925065393
 20
-127.9003756733201
 10
112.672536864193
 20
-127.8326795470349
 10
112.672536864193
 20
-127.6507785054137
 10
112.672536864193
 20
-127.4709445210837
 10
112.7803683528813
 20
-127.1684651374787
 10
113.1865451105923
 20
-127.1684651374787
 10
113.5059054620749
 20
-127.1684651374787
 10
113.7260470635824
 20
-127.3672471469776
 10
113.7260470635824
 20
-127.6847126959434
 97
        0
 97
        0
 92
        1
 93
        1
 72
     4
 94
        3
 73
     0
 74
     1
 95
       17
 96
       13
 40
0.0
 40
0.0
 40
0.0
 40
0.0
 40
1.0
 40
1.0
 40
1.0
 40
2.0
 40
2.0
 40
2.0
 40
3.0
 40
3.0
 40
3.0
 40
4.0
 40
4.0
 40
4.0
 40
4.0
 10
112.8671847591096
 20
-127.6676594732914
 10
112.8671847591096
 20
-127.9300034944932
 10
113.0787136219039
 20
-127.9680717996052
 10
113.1951578493054
 20
-127.9680717996052
 10
113.3705132095046
 20
-127.9680717996052
 10
113.5334662259569
 20
-127.8729871642123
 10
113.5334662259569
 20
-127.6888468105257
 10
113.5334662259569
 20
-127.568268468542
 10
113.4742105836106
 20
-127.3927408535685
 10
113.1886121678834
 20
-127.3927408535685
 10
112.9643364517936
 20
-127.3927408535685
 10
112.8671847591096
 20
-127.5322672207211
 10
112.8671847591096
 20
-127.6676594732914
 97
        0
 97
        0
 75
     2
 76
     1
 98
        0
  0
POLYLINE
  5
97
330
90
100
AcDbEntity
  8
_U+30EC_U+30A4_U+30E4_U+30FC 1
370
     0
100
AcDb2dPolyline
 66
     1
 10
0.0
 20
0.0
 30
0.0
  0
VERTEX
  5
98
330
97
100
AcDbEntity
  8
_U+30EC_U+30A4_U+30E4_U+30FC 1
370
     0
100
AcDbVertex
100
AcDb2dVertex
 10
113.6754041599492
 20
-126.952113141005
 30
0.0
  0
VERTEX
  5
99
330
97
100
AcDbEntity
  8
_U+30EC_U+30A4_U+30E4_U+30FC 1
370
     0
100
AcDbVertex
100
AcDb2dVertex
 10
113.4235676799775
 20
-126.952113141005
 30
0.0
  0
VERTEX
  5
9A
330
97
100
AcDbEntity
  8
_U+30EC_U+30A4_U+30E4_U+30FC 1
370
     0
100
AcDbVertex
100
AcDb2dVertex
 10
113.4235676799775
 20
-126.7002766610333
 30
0.0
  0
VERTEX
  5
9B
330
97
100
AcDbEntity
  8
_U+30EC_U+30A4_U+30E4_U+30FC 1
370
     0
100
AcDbVertex
100
AcDb2dVertex
 10
113.6754041599492
 20
-126.7002766610333
 30
0.0
  0
VERTEX
  5
9C
330
97
100
AcDbEntity
  8
_U+30EC_U+30A4_U+30E4_U+30FC 1
370
     0
100
AcDbVertex
100
AcDb2dVertex
 10
113.6754041599492
 20
-126.952113141005
 30
0.0
  0
SEQEND
  5
9D
330
97
100
AcDbEntity
  8
_U+30EC_U+30A4_U+30E4_U+30FC 1
370
     0
  0
HATCH
  5
9E
330
90
100
AcDbEntity
  8
_U+30EC_U+30A4_U+30E4_U+30FC 1
 62
   179
420
  2234388
100
AcDbHatch
 10
0.0
 20
0.0
 30
0.0
210
0.0
220
0.0
230
1.0
  2
SOLID
 70
     1
 71
     0
 91
        1
 92
        1
 93
        4
 72
     1
 10
113.6754041599492
 20
-126.952113141005
 11
113.4235676799775
 21
-126.952113141005
 72
     1
 10
113.4235676799775
 20
-126.952113141005
 11
113.4235676799775
 21
-126.7002766610333
 72
     1
 10
113.4235676799775
 20
-126.7002766610333
 11
113.6754041599492
 21
-126.7002766610333
 72
     1
 10
113.6754041599492
 20
-126.7002766610333
 11
113.6754041599492
 21
-126.952113141005
 97
        0
 75
     2
 76
     1
 98
        0
  0
SPLINE
  5
9F
330
90
100
AcDbEntity
  8
_U+30EC_U+30A4_U+30E4_U+30FC 1
370
     0
100
AcDbSpline
210
0.0
220
0.0
230
1.0
 70
    11
 71
     3
 72
    44
 73
    40
 74
     0
 42
0.0000000001
 43
0.0000000001
 12
1.0
 22
0.0
 32
0.0
 13
1.0
 23
0.0
 33
0.0
 40
0.0
 40
0.0
 40
0.0
 40
0.0
 40
1.0
 40
1.0
 40
1.0
 40
2.0
 40
2.0
 40
2.0
 40
3.0
 40
3.0
 40
3.0
 40
4.0
 40
4.0
 40
4.0
 40
5.0
 40
5.0
 40
5.0
 40
6.0
 40
6.0
 40
6.0
 40
7.0
 40
7.0
 40
7.0
 40
8.0
 40
8.0
 40
8.0
 40
9.0
 40
9.0
 40
9.0
 40
10.0
 40
10.0
 40
10.0
 40
11.0
 40
11.0
 40
11.0
 40
12.0
 40
12.0
 40
12.0
 40
13.0
 40
13.0
 40
13.0
 40
13.0
 10
113.0935275324905
 20
-125.8706976681851
 30
0.0
 10
113.252001924812
 20
-126.0885999576272
 30
0.0
 10
113.3260714777449
 20
-126.1817897905032
 30
0.0
 10
113.4700764690283
 20
-126.2303656368452
 30
0.0
 10
113.4700764690283
 20
-126.2303656368452
 30
0.0
 10
113.4700764690283
 20
-125.4517740571787
 30
0.0
 10
113.4700764690283
 20
-125.4517740571787
 30
0.0
 10
113.4700764690283
 20
-125.4517740571787
 30
0.0
 10
113.6754041599492
 20
-125.4517740571787
 30
0.0
 10
113.6754041599492
 20
-125.4517740571787
 30
0.0
 10
113.6754041599492
 20
-125.4517740571787
 30
0.0
 10
113.6754041599492
 20
-126.4799628047515
 30
0.0
 10
113.6754041599492
 20
-126.4799628047515
 30
0.0
 10
113.3178032485803
 20
-126.4482679262872
 30
0.0
 10
113.2395995810651
 20
-126.3826388572932
 30
0.0
 10
112.9412543120425
 20
-125.9976494368166
 30
0.0
 10
112.7424723025435
 20
-125.7416788422625
 30
0.0
 10
112.6746039214841
 20
-125.6760497732685
 30
0.0
 10
112.5371446116227
 20
-125.6760497732685
 30
0.0
 10
112.4186333269301
 20
-125.6760497732685
 30
0.0
 10
112.2873751889421
 20
-125.7480522689102
 30
0.0
 10
112.2873751889421
 20
-125.944767221118
 30
0.0
 10
112.2873751889421
 20
-126.2050441850286
 30
0.0
 10
112.5181965864538
 20
-126.2134846689675
 30
0.0
 10
112.6342963043067
 20
-126.2176187835498
 30
0.0
 10
112.6342963043067
 20
-126.2176187835498
 30
0.0
 10
112.6342963043067
 20
-126.4418944996395
 30
0.0
 10
112.6342963043067
 20
-126.4418944996395
 30
0.0
 10
112.5075167904495
 20
-126.4334540157007
 30
0.0
 10
112.3955511871789
 20
-126.4229464744707
 30
0.0
 10
112.2770399024863
 20
-126.3425034948901
 30
0.0
 10
112.1161539433251
 20
-126.2324326941363
 30
0.0
 10
112.0823920075697
 20
-126.0463975379328
 30
0.0
 10
112.0823920075697
 20
-125.9299533105314
 30
0.0
 10
112.0823920075697
 20
-125.6527953787431
 30
0.0
 10
112.266360106482
 20
-125.4455728853053
 30
0.0
 10
112.5392116689138
 20
-125.4455728853053
 30
0.0
 10
112.7676214995859
 20
-125.4455728853053
 30
0.0
 10
112.8671847591096
 20
-125.5618448579325
 30
0.0
 10
113.0935275324905
 20
-125.8706976681851
 30
0.0
  0
HATCH
  5
A0
330
90
100
AcDbEntity
  8
_U+30EC_U+30A4_U+30E4_U+30FC 1
 62
   179
420
  2234388
100
AcDbHatch
 10
0.0
 20
0.0
 30
0.0
210
0.0
220
0.0
230
1.0
  2
SOLID
 70
     1
 71
     0
 91
        1
 92
        1
 93
        1
 72
     4
 94
        3
 73
     0
 74
     1
 95
       44
 96
       40
 40
0.0
 40
0.0
 40
0.0
 40
0.0
 40
1.0
 40
1.0
 40
1.0
 40
2.0
 40
2.0
 40
2.0
 40
3.0
 40
3.0
 40
3.0
 40
4.0
 40
4.0
 40
4.0
 40
5.0
 40
5.0
 40
5.0
 40
6.0
 40
6.0
 40
6.0
 40
7.0
 40
7.0
 40
7.0
 40
8.0
 40
8.0
 40
8.0
 40
9.0
 40
9.0
 40
9.0
 40
10.0
 40
10.0
 40
10.0
 40
11.0
 40
11.0
 40
11.0
 40
12.0
 40
12.0
 40
12.0
 40
13.0
 40
13.0
 40
13.0
 40
13.0
 10
113.0935275324905
 20
-125.8706976681851
 10
113.252001924812
 20
-126.0885999576272
 10
113.3260714777449
 20
-126.1817897905032
 10
113.4700764690283
 20
-126.2303656368452
 10
113.4700764690283
 20
-126.2303656368452
 10
113.4700764690283
 20
-125.4517740571787
 10
113.4700764690283
 20
-125.4517740571787
 10
113.4700764690283
 20
-125.4517740571787
 10
113.6754041599492
 20
-125.4517740571787
 10
113.6754041599492
 20
-125.4517740571787
 10
113.6754041599492
 20
-125.4517740571787
 10
113.6754041599492
 20
-126.4799628047515
 10
113.6754041599492
 20
-126.4799628047515
 10
113.3178032485803
 20
-126.4482679262872
 10
113.2395995810651
 20
-126.3826388572932
 10
112.9412543120425
 20
-125.9976494368166
 10
112.7424723025435
 20
-125.7416788422625
 10
112.6746039214841
 20
-125.6760497732685
 10
112.5371446116227
 20
-125.6760497732685
 10
112.4186333269301
 20
-125.6760497732685
 10
112.2873751889421
 20
-125.7480522689102
 10
112.2873751889421
 20
-125.944767221118
 10
112.2873751889421
 20
-126.2050441850286
 10
112.5181965864538
 20
-126.2134846689675
 10
112.6342963043067
 20
-126.2176187835498
 10
112.6342963043067
 20
-126.2176187835498
 10
112.6342963043067
 20
-126.4418944996395
 10
112.6342963043067
 20
-126.4418944996395
 10
112.5075167904495
 20
-126.4334540157007
 10
112.3955511871789
 20
-126.4229464744707
 10
112.2770399024863
 20
-126.3425034948901
 10
112.1161539433251
 20
-126.2324326941363
 10
112.0823920075697
 20
-126.0463975379328
 10
112.0823920075697
 20
-125.9299533105314
 10
112.0823920075697
 20
-125.6527953787431
 10
112.266360106482
 20
-125.4455728853053
 10
112.5392116689138
 20
-125.4455728853053
 10
112.7676214995859
 20
-125.4455728853053
 10
112.8671847591096
 20
-125.5618448579325
 10
113.0935275324905
 20
-125.8706976681851
 97
        0
 97
        0
 75
     2
 76
     1
 98
        0
  0
ENDBLK
  5
93
330
90
100
AcDbEntity
  8
0
100
AcDbBlockEnd
  0
ENDSEC
  0
SECTION
  2
ENTITIES
  0
SPLINE
  5
41
330
1F
100
AcDbEntity
  8
_U+30EC_U+30A4_U+30E4_U+30FC 1
370
     0
100
AcDbSpline
210
0.0
220
0.0
230
1.0
 70
    11
 71
     3
 72
    95
 73
    91
 74
     0
 42
0.0000000001
 43
0.0000000001
 12
1.0
 22
0.0
 32
0.0
 13
1.0
 23
0.0
 33
0.0
 40
0.0
 40
0.0
 40
0.0
 40
0.0
 40
1.0
 40
1.0
 40
1.0
 40
2.0
 40
2.0
 40
2.0
 40
3.0
 40
3.0
 40
3.0
 40
4.0
 40
4.0
 40
4.0
 40
5.0
 40
5.0
 40
5.0
 40
6.0
 40
6.0
 40
6.0
 40
7.0
 40
7.0
 40
7.0
 40
8.0
 40
8.0
 40
8.0
 40
9.0
 40
9.0
 40
9.0
 40
10.0
 40
10.0
 40
10.0
 40
11.0
 40
11.0
 40
11.0
 40
12.0
 40
12.0
 40
12.0
 40
13.0
 40
13.0
 40
13.0
 40
14.0
 40
14.0
 40
14.0
 40
15.0
 40
15.0
 40
15.0
 40
16.0
 40
16.0
 40
16.0
 40
17.0
 40
17.0
 40
17.0
 40
18.0
 40
18.0
 40
18.0
 40
19.0
 40
19.0
 40
19.0
 40
20.0
 40
20.0
 40
20.0
 40
21.0
 40
21.0
 40
21.0
 40
22.0
 40
22.0
 40
22.0
 40
23.0
 40
23.0
 40
23.0
 40
24.0
 40
24.0
 40
24.0
 40
25.0
 40
25.0
 40
25.0
 40
26.0
 40
26.0
 40
26.0
 40
27.0
 40
27.0
 40
27.0
 40
28.0
 40
28.0
 40
28.0
 40
29.0
 40
29.0
 40
29.0
 40
30.0
 40
30.0
 40
30.0
 40
30.0
 10
77.43472220286354
 20
-124.486105524434
 30
0.0
 10
76.7930880408451
 20
-124.4979941355421
 30
0.0
 10
76.45357471617348
 20
-123.7889813579416
 30
0.0
 10
77.27057275088568
 20
-123.7982946912725
 30
0.0
 10
77.27057275088568
 20
-123.7982946912725
 30
0.0
 10
78.694771881218
 20
-123.7982946912725
 30
0.0
 10
78.694771881218
 20
-123.7982946912725
 30
0.0
 10
78.694771881218
 20
-123.7982946912725
 30
0.0
 10
82.48607456227158
 20
-123.7982946912725
 30
0.0
 10
82.48607456227158
 20
-123.7982946912725
 30
0.0
 10
82.48607456227158
 20
-123.7982946912725
 30
0.0
 10
83.37613287289764
 20
-123.761605802393
 30
0.0
 10
83.46517398173712
 20
-124.2704524689325
 30
0.0
 10
83.46517398173712
 20
-124.2704524689325
 30
0.0
 10
83.60487397817307
 20
-124.6900463577165
 30
0.0
 10
84.15178535310909
 20
-124.6900463577165
 30
0.0
 10
84.15178535310909
 20
-124.6900463577165
 30
0.0
 10
88.33534163526657
 20
-124.7901294132471
 30
0.0
 10
88.33534163526657
 20
-124.7901294132471
 30
0.0
 10
88.33534163526657
 20
-124.7901294132471
 30
0.0
 10
88.94582356413632
 20
-124.7264177465961
 30
0.0
 10
89.06019411677404
 20
-124.2306591356091
 30
0.0
 10
89.06019411677404
 20
-124.2306591356091
 30
0.0
 10
89.2381352233455
 20
-123.7728241357235
 30
0.0
 10
89.9502524274001
 20
-123.7855594134982
 30
0.0
 10
89.9502524274001
 20
-123.7855594134982
 30
0.0
 10
93.98599719872554
 20
-123.7364527468436
 30
0.0
 10
93.98599719872554
 20
-123.7364527468436
 30
0.0
 10
93.98599719872554
 20
-123.7364527468436
 30
0.0
 10
94.99539785424327
 20
-123.9891474690027
 30
0.0
 10
95.05949997623482
 20
-124.6120471910691
 30
0.0
 10
95.05949997623482
 20
-124.6120471910691
 30
0.0
 10
95.27582090264464
 20
-124.9172705243262
 30
0.0
 10
95.61896783833468
 20
-124.9172705243262
 30
0.0
 10
95.61896783833468
 20
-124.9172705243262
 30
0.0
 10
99.85332411919613
 20
-124.7662110799194
 30
0.0
 10
99.85332411919613
 20
-124.7662110799194
 30
0.0
 10
99.85332411919613
 20
-124.7662110799194
 30
0.0
 10
100.4765413255188
 20
-124.8824866354459
 30
0.0
 10
100.5020471582014
 20
-124.4373516355575
 30
0.0
 10
100.5020471582014
 20
-124.4373516355575
 30
0.0
 10
100.6673940984275
 20
-123.7889813579416
 30
0.0
 10
101.4556407449843
 20
-123.7889813579416
 30
0.0
 10
101.4556407449843
 20
-123.7889813579416
 30
0.0
 10
109.2508652683338
 20
-123.7889813579416
 30
0.0
 10
109.2508652683338
 20
-123.7889813579416
 30
0.0
 10
109.2508652683338
 20
-123.7889813579416
 30
0.0
 10
110.8604166389516
 20
-123.6787383024136
 30
0.0
 10
110.8383652278333
 20
-124.0535646912088
 30
0.0
 10
110.8383652278333
 20
-124.0535646912088
 30
0.0
 10
110.7501707856389
 20
-125.7869735796643
 30
0.0
 10
108.9421847206533
 20
-126.4704805239379
 30
0.0
 10
108.9421847206533
 20
-126.4704805239379
 30
0.0
 10
108.4088905675921
 20
-126.5996677461279
 30
0.0
 10
108.3324110840283
 20
-126.485297190601
 30
0.0
 10
108.3324110840283
 20
-126.485297190601
 30
0.0
 10
105.3262125906822
 20
-124.9711749687571
 30
0.0
 10
105.3262125906822
 20
-124.9711749687571
 30
0.0
 10
105.3262125906822
 20
-124.9711749687571
 30
0.0
 10
104.8080878816785
 20
-124.9360383020994
 30
0.0
 10
104.9734348219046
 20
-125.6987791352419
 30
0.0
 10
104.9734348219046
 20
-125.6987791352419
 30
0.0
 10
105.1939209273906
 20
-126.5366263572547
 30
0.0
 10
107.1562499732109
 20
-127.7713485791682
 30
0.0
 10
107.1562499732109
 20
-127.7713485791682
 30
0.0
 10
108.5811519520863
 20
-128.9574933010941
 30
0.0
 10
107.3767360842669
 20
-129.0942652455041
 30
0.0
 10
107.3767360842669
 20
-129.0942652455041
 30
0.0
 10
106.7810681091213
 20
-129.1483460788239
 30
0.0
 10
106.119962570432
 20
-129.1104577455004
 30
0.0
 10
106.119962570432
 20
-129.1104577455004
 30
0.0
 10
100.9978083080838
 20
-129.1104577455004
 30
0.0
 10
100.9978083080838
 20
-129.1104577455004
 30
0.0
 10
100.9978083080838
 20
-129.1104577455004
 30
0.0
 10
90.35711102813138
 20
-129.0718638566208
 30
0.0
 10
90.35711102813138
 20
-129.0718638566208
 30
0.0
 10
90.35711102813138
 20
-129.0718638566208
 30
0.0
 10
77.76492220278088
 20
-129.0918663566162
 30
0.0
 10
77.35756774866626
 20
-129.1163138566097
 30
0.0
 10
75.88031084190978
 20
-129.2045083010321
 30
0.0
 10
75.27515585734857
 20
-128.8413941344562
 30
0.0
 10
76.34333166343046
 20
-128.0910710790885
 30
0.0
 10
76.34333166343046
 20
-128.0910710790885
 30
0.0
 10
77.1150330326316
 20
-127.3524249681618
 30
0.0
 10
78.06312328622158
 20
-126.5145777461491
 30
0.0
 10
78.06312328622158
 20
-126.5145777461491
 30
0.0
 10
79.14350520310319
 20
-125.5885360797139
 30
0.0
 10
78.36076386929871
 20
-124.8278766354598
 30
0.0
 10
78.36076386929871
 20
-124.8278766354598
 30
0.0
 10
78.03003273151025
 20
-124.4750988577702
 30
0.0
 10
77.43472220286354
 20
-124.486105524434
 30
0.0
  0
HATCH
  5
42
330
1F
100
AcDbEntity
  8
_U+30EC_U+30A4_U+30E4_U+30FC 1
 62
   251
420
  6776935
100
AcDbHatch
 10
0.0
 20
0.0
 30
0.0
210
0.0
220
0.0
230
1.0
  2
SOLID
 70
     1
 71
     0
 91
        1
 92
        1
 93
        1
 72
     4
 94
        3
 73
     0
 74
     1
 95
       95
 96
       91
 40
0.0
 40
0.0
 40
0.0
 40
0.0
 40
1.0
 40
1.0
 40
1.0
 40
2.0
 40
2.0
 40
2.0
 40
3.0
 40
3.0
 40
3.0
 40
4.0
 40
4.0
 40
4.0
 40
5.0
 40
5.0
 40
5.0
 40
6.0
 40
6.0
 40
6.0
 40
7.0
 40
7.0
 40
7.0
 40
8.0
 40
8.0
 40
8.0
 40
9.0
 40
9.0
 40
9.0
 40
10.0
 40
10.0
 40
10.0
 40
11.0
 40
11.0
 40
11.0
 40
12.0
 40
12.0
 40
12.0
 40
13.0
 40
13.0
 40
13.0
 40
14.0
 40
14.0
 40
14.0
 40
15.0
 40
15.0
 40
15.0
 40
16.0
 40
16.0
 40
16.0
 40
17.0
 40
17.0
 40
17.0
 40
18.0
 40
18.0
 40
18.0
 40
19.0
 40
19.0
 40
19.0
 40
20.0
 40
20.0
 40
20.0
 40
21.0
 40
21.0
 40
21.0
 40
22.0
 40
22.0
 40
22.0
 40
23.0
 40
23.0
 40
23.0
 40
24.0
 40
24.0
 40
24.0
 40
25.0
 40
25.0
 40
25.0
 40
26.0
 40
26.0
 40
26.0
 40
27.0
 40
27.0
 40
27.0
 40
28.0
 40
28.0
 40
28.0
 40
29.0
 40
29.0
 40
29.0
 40
30.0
 40
30.0
 40
30.0
 40
30.0
 10
77.43472220286354
 20
-124.486105524434
 10
76.7930880408451
 20
-124.4979941355421
 10
76.45357471617348
 20
-123.7889813579416
 10
77.27057275088568
 20
-123.7982946912725
 10
77.27057275088568
 20
-123.7982946912725
 10
78.694771881218
 20
-123.7982946912725
 10
78.694771881218
 20
-123.7982946912725
 10
78.694771881218
 20
-123.7982946912725
 10
82.48607456227158
 20
-123.7982946912725
 10
82.48607456227158
 20
-123.7982946912725
 10
82.48607456227158
 20
-123.7982946912725
 10
83.37613287289764
 20
-123.761605802393
 10
83.46517398173712
 20
-124.2704524689325
 10
83.46517398173712
 20
-124.2704524689325
 10
83.60487397817307
 20
-124.6900463577165
 10
84.15178535310909
 20
-124.6900463577165
 10
84.15178535310909
 20
-124.6900463577165
 10
88.33534163526657
 20
-124.7901294132471
 10
88.33534163526657
 20
-124.7901294132471
 10
88.33534163526657
 20
-124.7901294132471
 10
88.94582356413632
 20
-124.7264177465961
 10
89.06019411677404
 20
-124.2306591356091
 10
89.06019411677404
 20
-124.2306591356091
 10
89.2381352233455
 20
-123.7728241357235
 10
89.9502524274001
 20
-123.7855594134982
 10
89.9502524274001
 20
-123.7855594134982
 10
93.98599719872554
 20
-123.7364527468436
 10
93.98599719872554
 20
-123.7364527468436
 10
93.98599719872554
 20
-123.7364527468436
 10
94.99539785424327
 20
-123.9891474690027
 10
95.05949997623482
 20
-124.6120471910691
 10
95.05949997623482
 20
-124.6120471910691
 10
95.27582090264464
 20
-124.9172705243262
 10
95.61896783833468
 20
-124.9172705243262
 10
95.61896783833468
 20
-124.9172705243262
 10
99.85332411919613
 20
-124.7662110799194
 10
99.85332411919613
 20
-124.7662110799194
 10
99.85332411919613
 20
-124.7662110799194
 10
100.4765413255188
 20
-124.8824866354459
 10
100.5020471582014
 20
-124.4373516355575
 10
100.5020471582014
 20
-124.4373516355575
 10
100.6673940984275
 20
-123.7889813579416
 10
101.4556407449843
 20
-123.7889813579416
 10
101.4556407449843
 20
-123.7889813579416
 10
109.2508652683338
 20
-123.7889813579416
 10
109.2508652683338
 20
-123.7889813579416
 10
109.2508652683338
 20
-123.7889813579416
 10
110.8604166389516
 20
-123.6787383024136
 10
110.8383652278333
 20
-124.0535646912088
 10
110.8383652278333
 20
-124.0535646912088
 10
110.7501707856389
 20
-125.7869735796643
 10
108.9421847206533
 20
-126.4704805239379
 10
108.9421847206533
 20
-126.4704805239379
 10
108.4088905675921
 20
-126.5996677461279
 10
108.3324110840283
 20
-126.485297190601
 10
108.3324110840283
 20
-126.485297190601
 10
105.3262125906822
 20
-124.9711749687571
 10
105.3262125906822
 20
-124.9711749687571
 10
105.3262125906822
 20
-124.9711749687571
 10
104.8080878816785
 20
-124.9360383020994
 10
104.9734348219046
 20
-125.6987791352419
 10
104.9734348219046
 20
-125.6987791352419
 10
105.1939209273906
 20
-126.5366263572547
 10
107.1562499732109
 20
-127.7713485791682
 10
107.1562499732109
 20
-127.7713485791682
 10
108.5811519520863
 20
-128.9574933010941
 10
107.3767360842669
 20
-129.0942652455041
 10
107.3767360842669
 20
-129.0942652455041
 10
106.7810681091213
 20
-129.1483460788239
 10
106.119962570432
 20
-129.1104577455004
 10
106.119962570432
 20
-129.1104577455004
 10
100.9978083080838
 20
-129.1104577455004
 10
100.9978083080838
 20
-129.1104577455004
 10
100.9978083080838
 20
-129.1104577455004
 10
90.35711102813138
 20
-129.0718638566208
 10
90.35711102813138
 20
-129.0718638566208
 10
90.35711102813138
 20
-129.0718638566208
 10
77.76492220278088
 20
-129.0918663566162
 10
77.35756774866626
 20
-129.1163138566097
 10
75.88031084190978
 20
-129.2045083010321
 10
75.27515585734857
 20
-128.8413941344562
 10
76.34333166343046
 20
-128.0910710790885
 10
76.34333166343046
 20
-128.0910710790885
 10
77.1150330326316
 20
-127.3524249681618
 10
78.06312328622158
 20
-126.5145777461491
 10
78.06312328622158
 20
-126.5145777461491
 10
79.14350520310319
 20
-125.5885360797139
 10
78.36076386929871
 20
-124.8278766354598
 10
78.36076386929871
 20
-124.8278766354598
 10
78.03003273151025
 20
-124.4750988577702
 10
77.43472220286354
 20
-124.486105524434
 97
        0
 97
        0
 75
     2
 76
     1
 98
        0
  0
SPLINE
  5
43
330
1F
100
AcDbEntity
  8
_U+30EC_U+30A4_U+30E4_U+30FC 1
 62
   179
420
  2234388
370
    25
100
AcDbSpline
210
0.0
220
0.0
230
1.0
 70
    11
 71
     3
 72
    20
 73
    16
 74
     0
 42
0.0000000001
 43
0.0000000001
 12
1.0
 22
0.0
 32
0.0
 13
1.0
 23
0.0
 33
0.0
 40
0.0
 40
0.0
 40
0.0
 40
0.0
 40
1.0
 40
1.0
 40
1.0
 40
2.0
 40
2.0
 40
2.0
 40
3.0
 40
3.0
 40
3.0
 40
4.0
 40
4.0
 40
4.0
 40
5.0
 40
5.0
 40
5.0
 40
5.0
 10
89.2362302233941
 20
-129.0408899677399
 30
0.0
 10
89.2362302233941
 20
-128.3961180234567
 30
0.0
 10
87.94658053407359
 20
-127.8741833013648
 30
0.0
 10
86.35562335244006
 20
-127.8741833013648
 30
0.0
 10
84.76448978192215
 20
-127.8741833013648
 30
0.0
 10
83.47484009260162
 20
-128.3961180234567
 30
0.0
 10
83.47484009260162
 20
-129.0408899677399
 30
0.0
 10
83.47484009260162
 20
-129.0408899677399
 30
0.0
 10
83.5015453696981
 20
-129.7795008008884
 30
0.0
 10
83.5015453696981
 20
-129.7795008008884
 30
0.0
 10
83.5015453696981
 20
-129.7795008008884
 30
0.0
 10
89.29895411068277
 20
-129.7574521897828
 30
0.0
 10
89.29895411068277
 20
-129.7574521897828
 30
0.0
 10
89.29895411068277
 20
-129.7574521897828
 30
0.0
 10
89.2362302233941
 20
-129.0408899677399
 30
0.0
 10
89.2362302233941
 20
-129.0408899677399
 30
0.0
  0
HATCH
  5
44
330
1F
100
AcDbEntity
  8
_U+30EC_U+30A4_U+30E4_U+30FC 1
 62
     7
420
 16711422
100
AcDbHatch
 10
0.0
 20
0.0
 30
0.0
210
0.0
220
0.0
230
1.0
  2
SOLID
 70
     1
 71
     0
 91
        1
 92
        1
 93
        1
 72
     4
 94
        3
 73
     0
 74
     1
 95
       20
 96
       16
 40
0.0
 40
0.0
 40
0.0
 40
0.0
 40
1.0
 40
1.0
 40
1.0
 40
2.0
 40
2.0
 40
2.0
 40
3.0
 40
3.0
 40
3.0
 40
4.0
 40
4.0
 40
4.0
 40
5.0
 40
5.0
 40
5.0
 40
5.0
 10
89.2362302233941
 20
-129.0408899677399
 10
89.2362302233941
 20
-128.3961180234567
 10
87.94658053407359
 20
-127.8741833013648
 10
86.35562335244006
 20
-127.8741833013648
 10
84.76448978192215
 20
-127.8741833013648
 10
83.47484009260162
 20
-128.3961180234567
 10
83.47484009260162
 20
-129.0408899677399
 10
83.47484009260162
 20
-129.0408899677399
 10
83.5015453696981
 20
-129.7795008008884
 10
83.5015453696981
 20
-129.7795008008884
 10
83.5015453696981
 20
-129.7795008008884
 10
89.29895411068277
 20
-129.7574521897828
 10
89.29895411068277
 20
-129.7574521897828
 10
89.29895411068277
 20
-129.7574521897828
 10
89.2362302233941
 20
-129.0408899677399
 10
89.2362302233941
 20
-129.0408899677399
 97
        0
 97
        0
 75
     2
 76
     1
 98
        0
  0
POLYLINE
  5
45
330
1F
100
AcDbEntity
  8
_U+30EC_U+30A4_U+30E4_U+30FC 1
 62
   179
420
  2234388
370
    25
100
AcDb2dPolyline
 66
     1
 10
0.0
 20
0.0
 30
0.0
  0
VERTEX
  5
46
330
45
100
AcDbEntity
  8
_U+30EC_U+30A4_U+30E4_U+30FC 1
 62
   179
420
  2234388
370
    25
100
AcDbVertex
100
AcDb2dVertex
 10
101.1583221969325
 20
-129.1442185788253
 30
0.0
  0
VERTEX
  5
47
330
45
100
AcDbEntity
  8
_U+30EC_U+30A4_U+30E4_U+30FC 1
 62
   179
420
  2234388
370
    25
100
AcDbVertex
100
AcDb2dVertex
 10
99.90327745125505
 20
-128.1215510790809
 30
0.0
  0
VERTEX
  5
48
330
45
100
AcDbEntity
  8
_U+30EC_U+30A4_U+30E4_U+30FC 1
 62
   179
420
  2234388
370
    25
100
AcDbVertex
100
AcDb2dVertex
 10
95.27306923604817
 20
-128.1215510790809
 30
0.0
  0
VERTEX
  5
49
330
45
100
AcDbEntity
  8
_U+30EC_U+30A4_U+30E4_U+30FC 1
 62
   179
420
  2234388
370
    25
100
AcDbVertex
100
AcDb2dVertex
 10
94.284338983495
 20
-129.0760266343976
 30
0.0
  0
VERTEX
  5
4A
330
45
100
AcDbEntity
  8
_U+30EC_U+30A4_U+30E4_U+30FC 1
 62
   179
420
  2234388
370
    25
100
AcDbVertex
100
AcDb2dVertex
 10
94.24782648442651
 20
-129.1111633010553
 30
0.0
  0
VERTEX
  5
4B
330
45
100
AcDbEntity
  8
_U+30EC_U+30A4_U+30E4_U+30FC 1
 62
   179
420
  2234388
370
    25
100
AcDbVertex
100
AcDb2dVertex
 10
94.28917203892726
 20
-129.8346399675414
 30
0.0
  0
VERTEX
  5
4C
330
45
100
AcDbEntity
  8
_U+30EC_U+30A4_U+30E4_U+30FC 1
 62
   179
420
  2234388
370
    25
100
AcDbVertex
100
AcDb2dVertex
 10
101.1311204754857
 20
-129.8621919119792
 30
0.0
  0
VERTEX
  5
4D
330
45
100
AcDbEntity
  8
_U+30EC_U+30A4_U+30E4_U+30FC 1
 62
   179
420
  2234388
370
    25
100
AcDbVertex
100
AcDb2dVertex
 10
101.1531690860343
 20
-129.1600583010432
 30
0.0
  0
SEQEND
  5
4F
330
45
100
AcDbEntity
  8
_U+30EC_U+30A4_U+30E4_U+30FC 1
 62
   179
420
  2234388
370
    25
  0
HATCH
  5
4E
330
1F
100
AcDbEntity
  8
_U+30EC_U+30A4_U+30E4_U+30FC 1
 62
     7
420
 16711422
100
AcDbHatch
 10
0.0
 20
0.0
 30
0.0
210
0.0
220
0.0
230
1.0
  2
SOLID
 70
     1
 71
     0
 91
        1
 92
        1
 93
        8
 72
     1
 10
101.1583221969325
 20
-129.1442185788253
 11
99.90327745125505
 21
-128.1215510790809
 72
     1
 10
99.90327745125505
 20
-128.1215510790809
 11
95.27306923604817
 21
-128.1215510790809
 72
     1
 10
95.27306923604817
 20
-128.1215510790809
 11
94.284338983495
 21
-129.0760266343976
 72
     1
 10
94.284338983495
 20
-129.0760266343976
 11
94.24782648442651
 21
-129.1111633010553
 72
     1
 10
94.24782648442651
 20
-129.1111633010553
 11
94.28917203892725
 21
-129.8346399675414
 72
     1
 10
94.28917203892726
 20
-129.8346399675414
 11
101.1311204754857
 21
-129.8621919119792
 72
     1
 10
101.1311204754857
 20
-129.8621919119792
 11
101.1531690860343
 21
-129.1600583010432
 72
     1
 10
101.1531690860343
 20
-129.1600583010432
 11
101.1583221969325
 21
-129.1442185788253
 97
        0
 75
     2
 76
     1
 98
        0
  0
SPLINE
  5
50
330
1F
100
AcDbEntity
  8
_U+30EC_U+30A4_U+30E4_U+30FC 1
370
     0
100
AcDbSpline
210
0.0
220
0.0
230
1.0
 70
    11
 71
     3
 72
   104
 73
   100
 74
     0
 42
0.0000000001
 43
0.0000000001
 12
1.0
 22
0.0
 32
0.0
 13
1.0
 23
0.0
 33
0.0
 40
0.0
 40
0.0
 40
0.0
 40
0.0
 40
1.0
 40
1.0
 40
1.0
 40
2.0
 40
2.0
 40
2.0
 40
3.0
 40
3.0
 40
3.0
 40
4.0
 40
4.0
 40
4.0
 40
5.0
 40
5.0
 40
5.0
 40
6.0
 40
6.0
 40
6.0
 40
7.0
 40
7.0
 40
7.0
 40
8.0
 40
8.0
 40
8.0
 40
9.0
 40
9.0
 40
9.0
 40
10.0
 40
10.0
 40
10.0
 40
11.0
 40
11.0
 40
11.0
 40
12.0
 40
12.0
 40
12.0
 40
13.0
 40
13.0
 40
13.0
 40
14.0
 40
14.0
 40
14.0
 40
15.0
 40
15.0
 40
15.0
 40
16.0
 40
16.0
 40
16.0
 40
17.0
 40
17.0
 40
17.0
 40
18.0
 40
18.0
 40
18.0
 40
19.0
 40
19.0
 40
19.0
 40
20.0
 40
20.0
 40
20.0
 40
21.0
 40
21.0
 40
21.0
 40
22.0
 40
22.0
 40
22.0
 40
23.0
 40
23.0
 40
23.0
 40
24.0
 40
24.0
 40
24.0
 40
25.0
 40
25.0
 40
25.0
 40
26.0
 40
26.0
 40
26.0
 40
27.0
 40
27.0
 40
27.0
 40
28.0
 40
28.0
 40
28.0
 40
29.0
 40
29.0
 40
29.0
 40
30.0
 40
30.0
 40
30.0
 40
31.0
 40
31.0
 40
31.0
 40
32.0
 40
32.0
 40
32.0
 40
33.0
 40
33.0
 40
33.0
 40
33.0
 10
75.89202498102713
 20
-142.4908602421548
 30
0.0
 10
75.44981613067038
 20
-138.370874409852
 30
0.0
 10
74.95271697668578
 20
-132.8421763556782
 30
0.0
 10
74.8476244793669
 20
-128.8204038566839
 30
0.0
 10
74.8476244793669
 20
-128.8204038566839
 30
0.0
 10
74.8476244793669
 20
-125.8956644129705
 30
0.0
 10
74.8476244793669
 20
-125.8956644129705
 30
0.0
 10
74.8476244793669
 20
-125.5642649686089
 30
0.0
 10
75.11633530584486
 20
-125.2955541353427
 30
0.0
 10
75.44777001961147
 20
-125.2955541353427
 30
0.0
 10
75.44777001961147
 20
-125.2955541353427
 30
0.0
 10
77.4471380241589
 20
-125.2955541353427
 30
0.0
 10
77.4471380241589
 20
-125.2955541353427
 30
0.0
 10
77.5883549650006
 20
-125.2955541353427
 30
0.0
 10
77.72445662819503
 20
-125.3451546908861
 30
0.0
 10
77.83230275831986
 20
-125.435395246419
 30
0.0
 10
78.08654773006842
 20
-125.6483319130323
 30
0.0
 10
77.6202460752981
 20
-125.943218857403
 30
0.0
 10
77.10674275506533
 20
-126.2808271906521
 30
0.0
 10
77.10674275506533
 20
-126.2808271906521
 30
0.0
 10
75.19525169272042
 20
-127.3663949681584
 30
0.0
 10
75.19525169272042
 20
-127.3663949681584
 30
0.0
 10
74.64883609244893
 20
-128.0188927457732
 30
0.0
 10
74.7349825377962
 20
-128.990583856641
 30
0.0
 10
75.38748029892737
 20
-129.5362958009494
 30
0.0
 10
75.66444612519471
 20
-129.7684941342247
 30
0.0
 10
76.01447222737592
 20
-129.8952471897485
 30
0.0
 10
76.37621055148054
 20
-129.8952471897485
 30
0.0
 10
76.37621055148054
 20
-129.8952471897485
 30
0.0
 10
77.37616109176702
 20
-129.8952471897485
 30
0.0
 10
77.37616109176702
 20
-129.8952471897485
 30
0.0
 10
77.37616109176702
 20
-129.8952471897485
 30
0.0
 10
108.2976244593196
 20
-129.8952471897485
 30
0.0
 10
108.2976244593196
 20
-129.8952471897485
 30
0.0
 10
108.2976244593196
 20
-129.8952471897485
 30
0.0
 10
108.3461694173578
 20
-129.895952745304
 30
0.0
 10
108.3461694173578
 20
-129.895952745304
 30
0.0
 10
109.206062491699
 20
-129.895952745304
 30
0.0
 10
109.9026927517043
 20
-129.3991710787616
 30
0.0
 10
109.9026927517043
 20
-128.539275245643
 30
0.0
 10
109.9026927517043
 20
-127.9594496902322
 30
0.0
 10
109.5808916392713
 20
-127.4278841348099
 30
0.0
 10
109.067599972733
 20
-127.1591733015437
 30
0.0
 10
109.067599972733
 20
-127.1591733015437
 30
0.0
 10
105.7892360846638
 20
-125.4223071908666
 30
0.0
 10
105.7892360846638
 20
-125.4223071908666
 30
0.0
 10
105.7892360846638
 20
-125.4223071908666
 30
0.0
 10
105.4185345327713
 20
-126.1313199684671
 30
0.0
 10
105.4185345327713
 20
-126.1313199684671
 30
0.0
 10
105.4185345327713
 20
-126.1313199684671
 30
0.0
 10
108.6968983380222
 20
-127.8681508013663
 30
0.0
 10
108.6968983380222
 20
-127.8681508013663
 30
0.0
 10
108.946312220548
 20
-127.9987491346671
 30
0.0
 10
109.102733883224
 20
-128.2574763568247
 30
0.0
 10
109.102733883224
 20
-128.539275245643
 30
0.0
 10
109.102733883224
 20
-128.9571758010939
 30
0.0
 10
108.7644200029662
 20
-129.0959938566148
 30
0.0
 10
108.3461694173578
 20
-129.0959938566148
 30
0.0
 10
108.3461694173578
 20
-129.0959938566148
 30
0.0
 10
107.297499484835
 20
-129.0953235788374
 30
0.0
 10
107.297499484835
 20
-129.0953235788374
 30
0.0
 10
107.297499484835
 20
-129.0953235788374
 30
0.0
 10
101.797729347368
 20
-129.0953235788374
 30
0.0
 10
101.797729347368
 20
-129.0953235788374
 30
0.0
 10
101.797729347368
 20
-129.0953235788374
 30
0.0
 10
76.37621055148054
 20
-129.0953235788374
 30
0.0
 10
76.37621055148054
 20
-129.0953235788374
 30
0.0
 10
76.2022205559194
 20
-129.0953235788374
 30
0.0
 10
76.03412194909683
 20
-129.0346810788522
 30
0.0
 10
75.90080723027575
 20
-128.9230621899913
 30
0.0
 10
75.58729362716304
 20
-128.6603485789461
 30
0.0
 10
75.54594998111342
 20
-128.1932002457296
 30
0.0
 10
75.80845001040976
 20
-127.8797219124745
 30
0.0
 10
75.80845001040976
 20
-127.8797219124745
 30
0.0
 10
77.72032912830032
 20
-126.7941541349682
 30
0.0
 10
77.72032912830032
 20
-126.7941541349682
 30
0.0
 10
78.56265660681076
 20
-126.1389046906876
 30
0.0
 10
78.93885881943527
 20
-125.318273024226
 30
0.0
 10
78.34594720263561
 20
-124.8221969132388
 30
0.0
 10
78.09409717432027
 20
-124.6113416355139
 30
0.0
 10
77.77578579355217
 20
-124.4955952466538
 30
0.0
 10
77.4471380241589
 20
-124.4955952466538
 30
0.0
 10
77.4471380241589
 20
-124.4955952466538
 30
0.0
 10
75.44777001961147
 20
-124.4955952466538
 30
0.0
 10
75.44777001961147
 20
-124.4955952466538
 30
0.0
 10
74.61955553690082
 20
-124.4955952466538
 30
0.0
 10
73.94775894676883
 20
-125.1673899687081
 30
0.0
 10
73.94775894676883
 20
-125.9955710796122
 30
0.0
 10
73.94775894676883
 20
-125.9955710796122
 30
0.0
 10
73.94775894676883
 20
-126.6107096905695
 30
0.0
 10
73.94775894676883
 20
-126.6107096905695
 30
0.0
 10
73.94775894676883
 20
-126.6107096905695
 30
0.0
 10
74.10693227604132
 20
-130.6717816339987
 30
0.0
 10
74.10693227604132
 20
-130.6717816339987
 30
0.0
 10
74.23576671719891
 20
-134.0631402442623
 30
0.0
 10
74.71205198282564
 20
-138.972748576368
 30
0.0
 10
75.08723113992069
 20
-142.4908602421548
 30
0.0
 10
75.08723113992069
 20
-142.4908602421548
 30
0.0
 10
75.89202498102713
 20
-142.4908602421548
 30
0.0
 10
75.89202498102713
 20
-142.4908602421548
 30
0.0
  0
POLYLINE
  5
51
330
1F
100
AcDbEntity
  8
_U+30EC_U+30A4_U+30E4_U+30FC 1
370
     0
100
AcDb2dPolyline
 66
     1
 10
0.0
 20
0.0
 30
0.0
  0
VERTEX
  5
52
330
51
100
AcDbEntity
  8
_U+30EC_U+30A4_U+30E4_U+30FC 1
370
     0
100
AcDbVertex
100
AcDb2dVertex
 10
108.2976244593196
 20
-129.8952471897485
 30
0.0
  0
VERTEX
  5
A7
330
51
100
AcDbEntity
  8
0
100
AcDbVertex
100
AcDb2dVertex
 10
108.2976244593196
 20
-129.8952471897485
 30
0.0
  0
SEQEND
  5
53
330
51
100
AcDbEntity
  8
_U+30EC_U+30A4_U+30E4_U+30FC 1
370
     0
  0
POLYLINE
  5
54
330
1F
100
AcDbEntity
  8
_U+30EC_U+30A4_U+30E4_U+30FC 1
 62
   179
420
  2234388
370
    25
100
AcDb2dPolyline
 66
     1
 10
0.0
 20
0.0
 30
0.0
  0
VERTEX
  5
55
330
54
100
AcDbEntity
  8
_U+30EC_U+30A4_U+30E4_U+30FC 1
 62
   179
420
  2234388
370
    25
100
AcDbVertex
100
AcDb2dVertex
 10
109.0475947179641
 20
-128.3451416345804
 30
0.0
  0
VERTEX
  5
A8
330
54
100
AcDbEntity
  8
0
100
AcDbVertex
100
AcDb2dVertex
 10
109.0475947179641
 20
-128.3451416345804
 30
0.0
  0
SEQEND
  5
56
330
54
100
AcDbEntity
  8
_U+30EC_U+30A4_U+30E4_U+30FC 1
 62
   179
420
  2234388
370
    25
  0
SPLINE
  5
57
330
1F
100
AcDbEntity
  8
_U+30EC_U+30A4_U+30E4_U+30FC 1
 62
   179
420
  2234388
370
    25
100
AcDbSpline
210
0.0
220
0.0
230
1.0
 70
    11
 71
     3
 72
   104
 73
   100
 74
     0
 42
0.0000000001
 43
0.0000000001
 12
1.0
 22
0.0
 32
0.0
 13
1.0
 23
0.0
 33
0.0
 40
0.0
 40
0.0
 40
0.0
 40
0.0
 40
1.0
 40
1.0
 40
1.0
 40
2.0
 40
2.0
 40
2.0
 40
3.0
 40
3.0
 40
3.0
 40
4.0
 40
4.0
 40
4.0
 40
5.0
 40
5.0
 40
5.0
 40
6.0
 40
6.0
 40
6.0
 40
7.0
 40
7.0
 40
7.0
 40
8.0
 40
8.0
 40
8.0
 40
9.0
 40
9.0
 40
9.0
 40
10.0
 40
10.0
 40
10.0
 40
11.0
 40
11.0
 40
11.0
 40
12.0
 40
12.0
 40
12.0
 40
13.0
 40
13.0
 40
13.0
 40
14.0
 40
14.0
 40
14.0
 40
15.0
 40
15.0
 40
15.0
 40
16.0
 40
16.0
 40
16.0
 40
17.0
 40
17.0
 40
17.0
 40
18.0
 40
18.0
 40
18.0
 40
19.0
 40
19.0
 40
19.0
 40
20.0
 40
20.0
 40
20.0
 40
21.0
 40
21.0
 40
21.0
 40
22.0
 40
22.0
 40
22.0
 40
23.0
 40
23.0
 40
23.0
 40
24.0
 40
24.0
 40
24.0
 40
25.0
 40
25.0
 40
25.0
 40
26.0
 40
26.0
 40
26.0
 40
27.0
 40
27.0
 40
27.0
 40
28.0
 40
28.0
 40
28.0
 40
29.0
 40
29.0
 40
29.0
 40
30.0
 40
30.0
 40
30.0
 40
31.0
 40
31.0
 40
31.0
 40
32.0
 40
32.0
 40
32.0
 40
33.0
 40
33.0
 40
33.0
 40
33.0
 10
75.89202498102713
 20
-142.4908602421548
 30
0.0
 10
75.44981613067038
 20
-138.370874409852
 30
0.0
 10
74.95271697668578
 20
-132.8421763556782
 30
0.0
 10
74.8476244793669
 20
-128.8204038566839
 30
0.0
 10
74.8476244793669
 20
-128.8204038566839
 30
0.0
 10
74.8476244793669
 20
-125.8956644129705
 30
0.0
 10
74.8476244793669
 20
-125.8956644129705
 30
0.0
 10
74.8476244793669
 20
-125.5642649686089
 30
0.0
 10
75.11633530584486
 20
-125.2955541353427
 30
0.0
 10
75.44777001961147
 20
-125.2955541353427
 30
0.0
 10
75.44777001961147
 20
-125.2955541353427
 30
0.0
 10
77.4471380241589
 20
-125.2955541353427
 30
0.0
 10
77.4471380241589
 20
-125.2955541353427
 30
0.0
 10
77.5883549650006
 20
-125.2955541353427
 30
0.0
 10
77.72445662819503
 20
-125.3451546908861
 30
0.0
 10
77.83230275831986
 20
-125.435395246419
 30
0.0
 10
78.08654773006842
 20
-125.6483319130323
 30
0.0
 10
77.6202460752981
 20
-125.943218857403
 30
0.0
 10
77.10674275506533
 20
-126.2808271906521
 30
0.0
 10
77.10674275506533
 20
-126.2808271906521
 30
0.0
 10
75.19525169272042
 20
-127.3663949681584
 30
0.0
 10
75.19525169272042
 20
-127.3663949681584
 30
0.0
 10
74.64883609244893
 20
-128.0188927457732
 30
0.0
 10
74.7349825377962
 20
-128.990583856641
 30
0.0
 10
75.38748029892737
 20
-129.5362958009494
 30
0.0
 10
75.66444612519471
 20
-129.7684941342247
 30
0.0
 10
76.01447222737592
 20
-129.8952471897485
 30
0.0
 10
76.37621055148054
 20
-129.8952471897485
 30
0.0
 10
76.37621055148054
 20
-129.8952471897485
 30
0.0
 10
77.37616109176702
 20
-129.8952471897485
 30
0.0
 10
77.37616109176702
 20
-129.8952471897485
 30
0.0
 10
77.37616109176702
 20
-129.8952471897485
 30
0.0
 10
108.2976244593196
 20
-129.8952471897485
 30
0.0
 10
108.2976244593196
 20
-129.8952471897485
 30
0.0
 10
108.2976244593196
 20
-129.8952471897485
 30
0.0
 10
108.3461694173578
 20
-129.895952745304
 30
0.0
 10
108.3461694173578
 20
-129.895952745304
 30
0.0
 10
109.206062491699
 20
-129.895952745304
 30
0.0
 10
109.9026927517043
 20
-129.3991710787616
 30
0.0
 10
109.9026927517043
 20
-128.539275245643
 30
0.0
 10
109.9026927517043
 20
-127.9594496902322
 30
0.0
 10
109.5808916392713
 20
-127.4278841348099
 30
0.0
 10
109.067599972733
 20
-127.1591733015437
 30
0.0
 10
109.067599972733
 20
-127.1591733015437
 30
0.0
 10
105.7892360846638
 20
-125.4223071908666
 30
0.0
 10
105.7892360846638
 20
-125.4223071908666
 30
0.0
 10
105.7892360846638
 20
-125.4223071908666
 30
0.0
 10
105.4185345327713
 20
-126.1313199684671
 30
0.0
 10
105.4185345327713
 20
-126.1313199684671
 30
0.0
 10
105.4185345327713
 20
-126.1313199684671
 30
0.0
 10
108.6968983380222
 20
-127.8681508013663
 30
0.0
 10
108.6968983380222
 20
-127.8681508013663
 30
0.0
 10
108.946312220548
 20
-127.9987491346671
 30
0.0
 10
109.102733883224
 20
-128.2574763568247
 30
0.0
 10
109.102733883224
 20
-128.539275245643
 30
0.0
 10
109.102733883224
 20
-128.9571758010939
 30
0.0
 10
108.7644200029662
 20
-129.0959938566148
 30
0.0
 10
108.3461694173578
 20
-129.0959938566148
 30
0.0
 10
108.3461694173578
 20
-129.0959938566148
 30
0.0
 10
107.297499484835
 20
-129.0953235788374
 30
0.0
 10
107.297499484835
 20
-129.0953235788374
 30
0.0
 10
107.297499484835
 20
-129.0953235788374
 30
0.0
 10
101.797729347368
 20
-129.0953235788374
 30
0.0
 10
101.797729347368
 20
-129.0953235788374
 30
0.0
 10
101.797729347368
 20
-129.0953235788374
 30
0.0
 10
76.37621055148054
 20
-129.0953235788374
 30
0.0
 10
76.37621055148054
 20
-129.0953235788374
 30
0.0
 10
76.2022205559194
 20
-129.0953235788374
 30
0.0
 10
76.03412194909683
 20
-129.0346810788522
 30
0.0
 10
75.90080723027575
 20
-128.9230621899913
 30
0.0
 10
75.58729362716304
 20
-128.6603485789461
 30
0.0
 10
75.54594998111342
 20
-128.1932002457296
 30
0.0
 10
75.80845001040976
 20
-127.8797219124745
 30
0.0
 10
75.80845001040976
 20
-127.8797219124745
 30
0.0
 10
77.72032912830032
 20
-126.7941541349682
 30
0.0
 10
77.72032912830032
 20
-126.7941541349682
 30
0.0
 10
78.56265660681076
 20
-126.1389046906876
 30
0.0
 10
78.93885881943527
 20
-125.318273024226
 30
0.0
 10
78.34594720263561
 20
-124.8221969132388
 30
0.0
 10
78.09409717432027
 20
-124.6113416355139
 30
0.0
 10
77.77578579355217
 20
-124.4955952466538
 30
0.0
 10
77.4471380241589
 20
-124.4955952466538
 30
0.0
 10
77.4471380241589
 20
-124.4955952466538
 30
0.0
 10
75.44777001961147
 20
-124.4955952466538
 30
0.0
 10
75.44777001961147
 20
-124.4955952466538
 30
0.0
 10
74.61955553690082
 20
-124.4955952466538
 30
0.0
 10
73.94775894676883
 20
-125.1673899687081
 30
0.0
 10
73.94775894676883
 20
-125.9955710796122
 30
0.0
 10
73.94775894676883
 20
-125.9955710796122
 30
0.0
 10
73.94775894676883
 20
-126.6107096905695
 30
0.0
 10
73.94775894676883
 20
-126.6107096905695
 30
0.0
 10
73.94775894676883
 20
-126.6107096905695
 30
0.0
 10
74.10693227604132
 20
-130.6717816339987
 30
0.0
 10
74.10693227604132
 20
-130.6717816339987
 30
0.0
 10
74.23576671719891
 20
-134.0631402442623
 30
0.0
 10
74.71205198282564
 20
-138.972748576368
 30
0.0
 10
75.08723113992069
 20
-142.4908602421548
 30
0.0
 10
75.08723113992069
 20
-142.4908602421548
 30
0.0
 10
75.89202498102713
 20
-142.4908602421548
 30
0.0
 10
75.89202498102713
 20
-142.4908602421548
 30
0.0
  0
SPLINE
  5
58
330
1F
100
AcDbEntity
  8
_U+30EC_U+30A4_U+30E4_U+30FC 1
 62
   179
420
  2234388
370
     9
100
AcDbSpline
210
0.0
220
0.0
230
1.0
 70
    11
 71
     3
 72
    17
 73
    13
 74
     0
 42
0.0000000001
 43
0.0000000001
 12
1.0
 22
0.0
 32
0.0
 13
1.0
 23
0.0
 33
0.0
 40
0.0
 40
0.0
 40
0.0
 40
0.0
 40
1.0
 40
1.0
 40
1.0
 40
2.0
 40
2.0
 40
2.0
 40
3.0
 40
3.0
 40
3.0
 40
4.0
 40
4.0
 40
4.0
 40
4.0
 10
74.04766561088667
 20
-118.3953619148457
 30
0.0
 10
74.04766561088667
 20
-118.3402227481926
 30
0.0
 10
74.00289998149925
 20
-118.295455248204
 30
0.0
 10
73.94775894676883
 20
-118.295455248204
 30
0.0
 10
73.89265505928576
 20
-118.295455248204
 30
0.0
 10
73.84785228265099
 20
-118.3402227481926
 30
0.0
 10
73.84785228265099
 20
-118.3953619148457
 30
0.0
 10
73.84785228265099
 20
-118.4504658037206
 30
0.0
 10
73.89265505928576
 20
-118.4952685814873
 30
0.0
 10
73.94775894676883
 20
-118.4952685814873
 30
0.0
 10
74.00289998149925
 20
-118.4952685814873
 30
0.0
 10
74.04766561088667
 20
-118.4504658037206
 30
0.0
 10
74.04766561088667
 20
-118.3953619148457
 30
0.0
  0
SPLINE
  5
59
330
1F
100
AcDbEntity
  8
_U+30EC_U+30A4_U+30E4_U+30FC 1
 62
   179
420
  2234388
370
     9
100
AcDbSpline
210
0.0
220
0.0
230
1.0
 70
    11
 71
     3
 72
    17
 73
    13
 74
     0
 42
0.0000000001
 43
0.0000000001
 12
1.0
 22
0.0
 32
0.0
 13
1.0
 23
0.0
 33
0.0
 40
0.0
 40
0.0
 40
0.0
 40
0.0
 40
1.0
 40
1.0
 40
1.0
 40
2.0
 40
2.0
 40
2.0
 40
3.0
 40
3.0
 40
3.0
 40
4.0
 40
4.0
 40
4.0
 40
4.0
 10
110.04736691468
 20
-118.3953619148457
 30
0.0
 10
110.04736691468
 20
-118.3402227481926
 30
0.0
 10
110.0025994158221
 20
-118.295455248204
 30
0.0
 10
109.9474602505622
 20
-118.295455248204
 30
0.0
 10
109.8923563630791
 20
-118.295455248204
 30
0.0
 10
109.8475535864443
 20
-118.3402227481926
 30
0.0
 10
109.8475535864443
 20
-118.3953619148457
 30
0.0
 10
109.8475535864443
 20
-118.4504658037206
 30
0.0
 10
109.8923563630791
 20
-118.4952685814873
 30
0.0
 10
109.9474602505622
 20
-118.4952685814873
 30
0.0
 10
110.0025994158221
 20
-118.4952685814873
 30
0.0
 10
110.04736691468
 20
-118.4504658037206
 30
0.0
 10
110.04736691468
 20
-118.3953619148457
 30
0.0
  0
POLYLINE
  5
5A
330
1F
100
AcDbEntity
  8
_U+30EC_U+30A4_U+30E4_U+30FC 1
 62
   179
420
  2234388
370
     9
100
AcDb2dPolyline
 66
     1
 10
0.0
 20
0.0
 30
0.0
  0
VERTEX
  5
5B
330
5A
100
AcDbEntity
  8
_U+30EC_U+30A4_U+30E4_U+30FC 1
 62
   179
420
  2234388
370
     9
100
AcDbVertex
100
AcDb2dVertex
 10
73.94775894676883
 20
-118.3953619148457
 30
0.0
  0
VERTEX
  5
5C
330
5A
100
AcDbEntity
  8
_U+30EC_U+30A4_U+30E4_U+30FC 1
 62
   179
420
  2234388
370
     9
100
AcDbVertex
100
AcDb2dVertex
 10
109.9478130283309
 20
-118.3953619148457
 30
0.0
  0
SEQEND
  5
5D
330
5A
100
AcDbEntity
  8
_U+30EC_U+30A4_U+30E4_U+30FC 1
 62
   179
420
  2234388
370
     9
  0
POLYLINE
  5
5E
330
1F
100
AcDbEntity
  8
_U+30EC_U+30A4_U+30E4_U+30FC 1
 62
   179
420
  2234388
370
     9
100
AcDb2dPolyline
 66
     1
 10
0.0
 20
0.0
 30
0.0
  0
VERTEX
  5
5F
330
5E
100
AcDbEntity
  8
_U+30EC_U+30A4_U+30E4_U+30FC 1
 62
   179
420
  2234388
370
     9
100
AcDbVertex
100
AcDb2dVertex
 10
73.94775894676883
 20
-122.855390247064
 30
0.0
  0
VERTEX
  5
60
330
5E
100
AcDbEntity
  8
_U+30EC_U+30A4_U+30E4_U+30FC 1
 62
   179
420
  2234388
370
     9
100
AcDbVertex
100
AcDb2dVertex
 10
73.94775894676883
 20
-117.3955896928735
 30
0.0
  0
SEQEND
  5
61
330
5E
100
AcDbEntity
  8
_U+30EC_U+30A4_U+30E4_U+30FC 1
 62
   179
420
  2234388
370
     9
  0
POLYLINE
  5
62
330
1F
100
AcDbEntity
  8
_U+30EC_U+30A4_U+30E4_U+30FC 1
 62
   179
420
  2234388
370
     9
100
AcDb2dPolyline
 66
     1
 10
0.0
 20
0.0
 30
0.0
  0
VERTEX
  5
63
330
62
100
AcDbEntity
  8
_U+30EC_U+30A4_U+30E4_U+30FC 1
 62
   179
420
  2234388
370
     9
100
AcDbVertex
100
AcDb2dVertex
 10
109.9474602505622
 20
-120.3556069143556
 30
0.0
  0
VERTEX
  5
64
330
62
100
AcDbEntity
  8
_U+30EC_U+30A4_U+30E4_U+30FC 1
 62
   179
420
  2234388
370
     9
100
AcDbVertex
100
AcDb2dVertex
 10
109.9474602505622
 20
-117.3955896928735
 30
0.0
  0
SEQEND
  5
65
330
62
100
AcDbEntity
  8
_U+30EC_U+30A4_U+30E4_U+30FC 1
 62
   179
420
  2234388
370
     9
  0
INSERT
  5
67
330
1F
100
AcDbEntity
  8
_U+30EC_U+30A4_U+30E4_U+30FC 1
100
AcDbBlockReference
  2
block 2
 10
0.0
 20
0.0
 30
0.0
  0
SPLINE
  5
6F
330
1F
100
AcDbEntity
  8
_U+30EC_U+30A4_U+30E4_U+30FC 1
 62
   179
420
  2234388
370
     9
100
AcDbSpline
210
0.0
220
0.0
230
1.0
 70
    11
 71
     3
 72
    17
 73
    13
 74
     0
 42
0.0000000001
 43
0.0000000001
 12
1.0
 22
0.0
 32
0.0
 13
1.0
 23
0.0
 33
0.0
 40
0.0
 40
0.0
 40
0.0
 40
0.0
 40
1.0
 40
1.0
 40
1.0
 40
2.0
 40
2.0
 40
2.0
 40
3.0
 40
3.0
 40
3.0
 40
4.0
 40
4.0
 40
4.0
 40
4.0
 10
70.04790831582125
 20
-142.4633082977177
 30
0.0
 10
70.04790831582125
 20
-142.4082044088422
 30
0.0
 10
70.00313904740447
 20
-142.3634016310761
 30
0.0
 10
69.94799988214452
 20
-142.3634016310761
 30
0.0
 10
69.89254321689268
 20
-142.3634016310761
 30
0.0
 10
69.84777571803478
 20
-142.4082044088422
 30
0.0
 10
69.84777571803478
 20
-142.4633082977177
 30
0.0
 10
69.84777571803478
 20
-142.5184474643701
 30
0.0
 10
69.89254321689268
 20
-142.5632149643593
 30
0.0
 10
69.94799988214452
 20
-142.5632149643593
 30
0.0
 10
70.00313904740447
 20
-142.5632149643593
 30
0.0
 10
70.04790831582125
 20
-142.5184474643701
 30
0.0
 10
70.04790831582125
 20
-142.4633082977177
 30
0.0
  0
SPLINE
  5
70
330
1F
100
AcDbEntity
  8
_U+30EC_U+30A4_U+30E4_U+30FC 1
 62
   179
420
  2234388
370
     9
100
AcDbSpline
210
0.0
220
0.0
230
1.0
 70
    11
 71
     3
 72
    17
 73
    13
 74
     0
 42
0.0000000001
 43
0.0000000001
 12
1.0
 22
0.0
 32
0.0
 13
1.0
 23
0.0
 33
0.0
 40
0.0
 40
0.0
 40
0.0
 40
0.0
 40
1.0
 40
1.0
 40
1.0
 40
2.0
 40
2.0
 40
2.0
 40
3.0
 40
3.0
 40
3.0
 40
4.0
 40
4.0
 40
4.0
 40
4.0
 10
70.04790831582125
 20
-124.4871638577672
 30
0.0
 10
70.04790831582125
 20
-124.4320246911142
 30
0.0
 10
70.00313904740447
 20
-124.3872571911253
 30
0.0
 10
69.94799988214452
 20
-124.3872571911253
 30
0.0
 10
69.89254321689268
 20
-124.3872571911253
 30
0.0
 10
69.84777571803478
 20
-124.4320246911142
 30
0.0
 10
69.84777571803478
 20
-124.4871638577672
 30
0.0
 10
69.84777571803478
 20
-124.5422677466422
 30
0.0
 10
69.89254321689268
 20
-124.5870705244089
 30
0.0
 10
69.94799988214452
 20
-124.5870705244089
 30
0.0
 10
70.00313904740447
 20
-124.5870705244089
 30
0.0
 10
70.04790831582125
 20
-124.5422677466422
 30
0.0
 10
70.04790831582125
 20
-124.4871638577672
 30
0.0
  0
POLYLINE
  5
71
330
1F
100
AcDbEntity
  8
_U+30EC_U+30A4_U+30E4_U+30FC 1
 62
   179
420
  2234388
370
     9
100
AcDb2dPolyline
 66
     1
 10
0.0
 20
0.0
 30
0.0
  0
VERTEX
  5
72
330
71
100
AcDbEntity
  8
_U+30EC_U+30A4_U+30E4_U+30FC 1
 62
   179
420
  2234388
370
     9
100
AcDbVertex
100
AcDb2dVertex
 10
69.94799988214452
 20
-124.4473705244436
 30
0.0
  0
VERTEX
  5
73
330
71
100
AcDbEntity
  8
_U+30EC_U+30A4_U+30E4_U+30FC 1
 62
   179
420
  2234388
370
     9
100
AcDbVertex
100
AcDb2dVertex
 10
69.94799988214452
 20
-142.3995613532889
 30
0.0
  0
SEQEND
  5
74
330
71
100
AcDbEntity
  8
_U+30EC_U+30A4_U+30E4_U+30FC 1
 62
   179
420
  2234388
370
     9
  0
POLYLINE
  5
75
330
1F
100
AcDbEntity
  8
_U+30EC_U+30A4_U+30E4_U+30FC 1
 62
   179
420
  2234388
370
     9
100
AcDb2dPolyline
 66
     1
 10
0.0
 20
0.0
 30
0.0
  0
VERTEX
  5
76
330
75
100
AcDbEntity
  8
_U+30EC_U+30A4_U+30E4_U+30FC 1
 62
   179
420
  2234388
370
     9
100
AcDbVertex
100
AcDb2dVertex
 10
72.90769952885852
 20
-124.4871638577672
 30
0.0
  0
VERTEX
  5
77
330
75
100
AcDbEntity
  8
_U+30EC_U+30A4_U+30E4_U+30FC 1
 62
   179
420
  2234388
370
     9
100
AcDbVertex
100
AcDb2dVertex
 10
68.94755740766793
 20
-124.4871638577672
 30
0.0
  0
SEQEND
  5
78
330
75
100
AcDbEntity
  8
_U+30EC_U+30A4_U+30E4_U+30FC 1
 62
   179
420
  2234388
370
     9
  0
POLYLINE
  5
79
330
1F
100
AcDbEntity
  8
_U+30EC_U+30A4_U+30E4_U+30FC 1
 62
   179
420
  2234388
370
     9
100
AcDb2dPolyline
 66
     1
 10
0.0
 20
0.0
 30
0.0
  0
VERTEX
  5
7A
330
79
100
AcDbEntity
  8
_U+30EC_U+30A4_U+30E4_U+30FC 1
 62
   179
420
  2234388
370
     9
100
AcDbVertex
100
AcDb2dVertex
 10
72.30790676638273
 20
-142.4633082977177
 30
0.0
  0
VERTEX
  5
7B
330
79
100
AcDbEntity
  8
_U+30EC_U+30A4_U+30E4_U+30FC 1
 62
   179
420
  2234388
370
     9
100
AcDbVertex
100
AcDb2dVertex
 10
68.94755740766793
 20
-142.4633082977177
 30
0.0
  0
SEQEND
  5
7C
330
79
100
AcDbEntity
  8
_U+30EC_U+30A4_U+30E4_U+30FC 1
 62
   179
420
  2234388
370
     9
  0
INSERT
  5
7E
330
1F
100
AcDbEntity
  8
_U+30EC_U+30A4_U+30E4_U+30FC 1
100
AcDbBlockReference
  2
block 3
 10
0.0
 20
0.0
 30
0.0
  0
SPLINE
  5
87
330
1F
100
AcDbEntity
  8
_U+30EC_U+30A4_U+30E4_U+30FC 1
 62
   179
420
  2234388
370
     9
100
AcDbSpline
210
0.0
220
0.0
230
1.0
 70
    11
 71
     3
 72
    17
 73
    13
 74
     0
 42
0.0000000001
 43
0.0000000001
 12
1.0
 22
0.0
 32
0.0
 13
1.0
 23
0.0
 33
0.0
 40
0.0
 40
0.0
 40
0.0
 40
0.0
 40
1.0
 40
1.0
 40
1.0
 40
2.0
 40
2.0
 40
2.0
 40
3.0
 40
3.0
 40
3.0
 40
4.0
 40
4.0
 40
4.0
 40
4.0
 10
114.1473854211909
 20
-129.8952471897485
 30
0.0
 10
114.1473854211909
 20
-129.8401433008736
 30
0.0
 10
114.1025826445562
 20
-129.7953405231069
 30
0.0
 10
114.0474787570731
 20
-129.7953405231069
 30
0.0
 10
113.9923395918131
 20
-129.7953405231069
 30
0.0
 10
113.9475749715132
 20
-129.8401433008736
 30
0.0
 10
113.9475749715132
 20
-129.8952471897485
 30
0.0
 10
113.9475749715132
 20
-129.9503863564016
 30
0.0
 10
113.9923395918131
 20
-129.9951538563902
 30
0.0
 10
114.0474787570731
 20
-129.9951538563902
 30
0.0
 10
114.1025826445562
 20
-129.9951538563902
 30
0.0
 10
114.1473854211909
 20
-129.9503863564016
 30
0.0
 10
114.1473854211909
 20
-129.8952471897485
 30
0.0
  0
POLYLINE
  5
88
330
1F
100
AcDbEntity
  8
_U+30EC_U+30A4_U+30E4_U+30FC 1
 62
   179
420
  2234388
370
     9
100
AcDb2dPolyline
 66
     1
 10
0.0
 20
0.0
 30
0.0
  0
VERTEX
  5
89
330
88
100
AcDbEntity
  8
_U+30EC_U+30A4_U+30E4_U+30FC 1
 62
   179
420
  2234388
370
     9
100
AcDbVertex
100
AcDb2dVertex
 10
114.0474787570731
 20
-123.7553969135057
 30
0.0
  0
VERTEX
  5
8A
330
88
100
AcDbEntity
  8
_U+30EC_U+30A4_U+30E4_U+30FC 1
 62
   179
420
  2234388
370
     9
100
AcDbVertex
100
AcDb2dVertex
 10
114.0474787570731
 20
-129.8952471897485
 30
0.0
  0
SEQEND
  5
8B
330
88
100
AcDbEntity
  8
_U+30EC_U+30A4_U+30E4_U+30FC 1
 62
   179
420
  2234388
370
     9
  0
POLYLINE
  5
8C
330
1F
100
AcDbEntity
  8
_U+30EC_U+30A4_U+30E4_U+30FC 1
 62
   179
420
  2234388
370
     9
100
AcDb2dPolyline
 66
     1
 10
0.0
 20
0.0
 30
0.0
  0
VERTEX
  5
8D
330
8C
100
AcDbEntity
  8
_U+30EC_U+30A4_U+30E4_U+30FC 1
 62
   179
420
  2234388
370
     9
100
AcDbVertex
100
AcDb2dVertex
 10
110.8380124500645
 20
-129.8952471897485
 30
0.0
  0
VERTEX
  5
8E
330
8C
100
AcDbEntity
  8
_U+30EC_U+30A4_U+30E4_U+30FC 1
 62
   179
420
  2234388
370
     9
100
AcDbVertex
100
AcDb2dVertex
 10
115.0479212315497
 20
-129.8952471897485
 30
0.0
  0
SEQEND
  5
8F
330
8C
100
AcDbEntity
  8
_U+30EC_U+30A4_U+30E4_U+30FC 1
 62
   179
420
  2234388
370
     9
  0
INSERT
  5
91
330
1F
100
AcDbEntity
  8
_U+30EC_U+30A4_U+30E4_U+30FC 1
100
AcDbBlockReference
  2
block 4
 10
0.0
 20
0.0
 30
0.0
  0
POLYLINE
  5
A1
330
1F
100
AcDbEntity
  8
_U+30EC_U+30A4_U+30E4_U+30FC 1
 62
   179
420
  2234388
370
     9
100
AcDb2dPolyline
 66
     1
 10
0.0
 20
0.0
 30
0.0
  0
VERTEX
  5
A2
330
A1
100
AcDbEntity
  8
_U+30EC_U+30A4_U+30E4_U+30FC 1
 62
   179
420
  2234388
370
     9
100
AcDbVertex
100
AcDb2dVertex
 10
110.8380124500645
 20
-123.7364527468436
 30
0.0
  0
VERTEX
  5
A3
330
A1
100
AcDbEntity
  8
_U+30EC_U+30A4_U+30E4_U+30FC 1
 62
   179
420
  2234388
370
     9
100
AcDbVertex
100
AcDb2dVertex
 10
115.0479212315497
 20
-123.7364527468436
 30
0.0
  0
SEQEND
  5
A4
330
A1
100
AcDbEntity
  8
_U+30EC_U+30A4_U+30E4_U+30FC 1
 62
   179
420
  2234388
370
     9
  0
SPLINE
  5
A5
330
1F
100
AcDbEntity
  8
_U+30EC_U+30A4_U+30E4_U+30FC 1
 62
   179
420
  2234388
370
     9
100
AcDbSpline
210
0.0
220
0.0
230
1.0
 70
    11
 71
     3
 72
    17
 73
    13
 74
     0
 42
0.0000000001
 43
0.0000000001
 12
1.0
 22
0.0
 32
0.0
 13
1.0
 23
0.0
 33
0.0
 40
0.0
 40
0.0
 40
0.0
 40
0.0
 40
1.0
 40
1.0
 40
1.0
 40
2.0
 40
2.0
 40
2.0
 40
3.0
 40
3.0
 40
3.0
 40
4.0
 40
4.0
 40
4.0
 40
4.0
 10
114.1477381989597
 20
-123.7366291357325
 30
0.0
 10
114.1477381989597
 20
-123.6815252468576
 30
0.0
 10
114.1029354223249
 20
-123.6367224690908
 30
0.0
 10
114.0478315348419
 20
-123.6367224690908
 30
0.0
 10
113.9923395918131
 20
-123.6367224690908
 30
0.0
 10
113.9475749715132
 20
-123.6815252468576
 30
0.0
 10
113.9475749715132
 20
-123.7366291357325
 30
0.0
 10
113.9475749715132
 20
-123.7917683023856
 30
0.0
 10
113.9923395918131
 20
-123.8365358023741
 30
0.0
 10
114.0478315348419
 20
-123.8365358023741
 30
0.0
 10
114.1029354223249
 20
-123.8365358023741
 30
0.0
 10
114.1477381989597
 20
-123.7917683023856
 30
0.0
 10
114.1477381989597
 20
-123.7366291357325
 30
0.0
  0
SPLINE
  5
A6
330
1F
100
AcDbEntity
  8
_U+30EC_U+30A4_U+30E4_U+30FC 1
 62
     7
420
 16777215
370
    25
100
AcDbSpline
210
0.0
220
0.0
230
1.0
 70
    11
 71
     3
 72
    95
 73
    91
 74
     0
 42
0.0000000001
 43
0.0000000001
 12
1.0
 22
0.0
 32
0.0
 13
1.0
 23
0.0
 33
0.0
 40
0.0
 40
0.0
 40
0.0
 40
0.0
 40
1.0
 40
1.0
 40
1.0
 40
2.0
 40
2.0
 40
2.0
 40
3.0
 40
3.0
 40
3.0
 40
4.0
 40
4.0
 40
4.0
 40
5.0
 40
5.0
 40
5.0
 40
6.0
 40
6.0
 40
6.0
 40
7.0
 40
7.0
 40
7.0
 40
8.0
 40
8.0
 40
8.0
 40
9.0
 40
9.0
 40
9.0
 40
10.0
 40
10.0
 40
10.0
 40
11.0
 40
11.0
 40
11.0
 40
12.0
 40
12.0
 40
12.0
 40
13.0
 40
13.0
 40
13.0
 40
14.0
 40
14.0
 40
14.0
 40
15.0
 40
15.0
 40
15.0
 40
16.0
 40
16.0
 40
16.0
 40
17.0
 40
17.0
 40
17.0
 40
18.0
 40
18.0
 40
18.0
 40
19.0
 40
19.0
 40
19.0
 40
20.0
 40
20.0
 40
20.0
 40
21.0
 40
21.0
 40
21.0
 40
22.0
 40
22.0
 40
22.0
 40
23.0
 40
23.0
 40
23.0
 40
24.0
 40
24.0
 40
24.0
 40
25.0
 40
25.0
 40
25.0
 40
26.0
 40
26.0
 40
26.0
 40
27.0
 40
27.0
 40
27.0
 40
28.0
 40
28.0
 40
28.0
 40
29.0
 40
29.0
 40
29.0
 40
30.0
 40
30.0
 40
30.0
 40
30.0
 10
77.43472220286354
 20
-124.486105524434
 30
0.0
 10
76.7930880408451
 20
-124.4979941355421
 30
0.0
 10
76.45357471617348
 20
-123.7889813579416
 30
0.0
 10
77.27057275088568
 20
-123.7982946912725
 30
0.0
 10
77.27057275088568
 20
-123.7982946912725
 30
0.0
 10
78.694771881218
 20
-123.7982946912725
 30
0.0
 10
78.694771881218
 20
-123.7982946912725
 30
0.0
 10
78.694771881218
 20
-123.7982946912725
 30
0.0
 10
82.48607456227158
 20
-123.7982946912725
 30
0.0
 10
82.48607456227158
 20
-123.7982946912725
 30
0.0
 10
82.48607456227158
 20
-123.7982946912725
 30
0.0
 10
83.37613287289764
 20
-123.761605802393
 30
0.0
 10
83.46517398173712
 20
-124.2704524689325
 30
0.0
 10
83.46517398173712
 20
-124.2704524689325
 30
0.0
 10
83.60487397817307
 20
-124.6900463577165
 30
0.0
 10
84.15178535310909
 20
-124.6900463577165
 30
0.0
 10
84.15178535310909
 20
-124.6900463577165
 30
0.0
 10
88.33534163526657
 20
-124.7901294132471
 30
0.0
 10
88.33534163526657
 20
-124.7901294132471
 30
0.0
 10
88.33534163526657
 20
-124.7901294132471
 30
0.0
 10
88.94582356413632
 20
-124.7264177465961
 30
0.0
 10
89.06019411677404
 20
-124.2306591356091
 30
0.0
 10
89.06019411677404
 20
-124.2306591356091
 30
0.0
 10
89.2381352233455
 20
-123.7728241357235
 30
0.0
 10
89.9502524274001
 20
-123.7855594134982
 30
0.0
 10
89.9502524274001
 20
-123.7855594134982
 30
0.0
 10
93.98599719872554
 20
-123.7364527468436
 30
0.0
 10
93.98599719872554
 20
-123.7364527468436
 30
0.0
 10
93.98599719872554
 20
-123.7364527468436
 30
0.0
 10
94.99539785424327
 20
-123.9891474690027
 30
0.0
 10
95.05949997623482
 20
-124.6120471910691
 30
0.0
 10
95.05949997623482
 20
-124.6120471910691
 30
0.0
 10
95.27582090264464
 20
-124.9172705243262
 30
0.0
 10
95.61896783833468
 20
-124.9172705243262
 30
0.0
 10
95.61896783833468
 20
-124.9172705243262
 30
0.0
 10
99.85332411919613
 20
-124.7662110799194
 30
0.0
 10
99.85332411919613
 20
-124.7662110799194
 30
0.0
 10
99.85332411919613
 20
-124.7662110799194
 30
0.0
 10
100.4765413255188
 20
-124.8824866354459
 30
0.0
 10
100.5020471582014
 20
-124.4373516355575
 30
0.0
 10
100.5020471582014
 20
-124.4373516355575
 30
0.0
 10
100.6673940984275
 20
-123.7889813579416
 30
0.0
 10
101.4556407449843
 20
-123.7889813579416
 30
0.0
 10
101.4556407449843
 20
-123.7889813579416
 30
0.0
 10
109.2508652683338
 20
-123.7889813579416
 30
0.0
 10
109.2508652683338
 20
-123.7889813579416
 30
0.0
 10
109.2508652683338
 20
-123.7889813579416
 30
0.0
 10
110.8604166389516
 20
-123.6787383024136
 30
0.0
 10
110.8383652278333
 20
-124.0535646912088
 30
0.0
 10
110.8383652278333
 20
-124.0535646912088
 30
0.0
 10
110.7501707856389
 20
-125.7869735796643
 30
0.0
 10
108.9421847206533
 20
-126.4704805239379
 30
0.0
 10
108.9421847206533
 20
-126.4704805239379
 30
0.0
 10
108.4088905675921
 20
-126.5996677461279
 30
0.0
 10
108.3324110840283
 20
-126.485297190601
 30
0.0
 10
108.3324110840283
 20
-126.485297190601
 30
0.0
 10
105.3262125906822
 20
-124.9711749687571
 30
0.0
 10
105.3262125906822
 20
-124.9711749687571
 30
0.0
 10
105.3262125906822
 20
-124.9711749687571
 30
0.0
 10
104.8080878816785
 20
-124.9360383020994
 30
0.0
 10
104.9734348219046
 20
-125.6987791352419
 30
0.0
 10
104.9734348219046
 20
-125.6987791352419
 30
0.0
 10
105.1939209273906
 20
-126.5366263572547
 30
0.0
 10
107.1562499732109
 20
-127.7713485791682
 30
0.0
 10
107.1562499732109
 20
-127.7713485791682
 30
0.0
 10
108.5811519520863
 20
-128.9574933010941
 30
0.0
 10
107.3767360842669
 20
-129.0942652455041
 30
0.0
 10
107.3767360842669
 20
-129.0942652455041
 30
0.0
 10
106.7810681091213
 20
-129.1483460788239
 30
0.0
 10
106.119962570432
 20
-129.1104577455004
 30
0.0
 10
106.119962570432
 20
-129.1104577455004
 30
0.0
 10
100.9978083080838
 20
-129.1104577455004
 30
0.0
 10
100.9978083080838
 20
-129.1104577455004
 30
0.0
 10
100.9978083080838
 20
-129.1104577455004
 30
0.0
 10
90.35711102813138
 20
-129.0718638566208
 30
0.0
 10
90.35711102813138
 20
-129.0718638566208
 30
0.0
 10
90.35711102813138
 20
-129.0718638566208
 30
0.0
 10
77.76492220278088
 20
-129.0918663566162
 30
0.0
 10
77.35756774866626
 20
-129.1163138566097
 30
0.0
 10
75.88031084190978
 20
-129.2045083010321
 30
0.0
 10
75.27515585734857
 20
-128.8413941344562
 30
0.0
 10
76.34333166343046
 20
-128.0910710790885
 30
0.0
 10
76.34333166343046
 20
-128.0910710790885
 30
0.0
 10
77.1150330326316
 20
-127.3524249681618
 30
0.0
 10
78.06312328622158
 20
-126.5145777461491
 30
0.0
 10
78.06312328622158
 20
-126.5145777461491
 30
0.0
 10
79.14350520310319
 20
-125.5885360797139
 30
0.0
 10
78.36076386929871
 20
-124.8278766354598
 30
0.0
 10
78.36076386929871
 20
-124.8278766354598
 30
0.0
 10
78.03003273151025
 20
-124.4750988577702
 30
0.0
 10
77.43472220286354
 20
-124.486105524434
 30
0.0
  0
ENDSEC
  0
SECTION
  2
OBJECTS
  0
DICTIONARY
  5
C
330
0
100
AcDbDictionary
281
     1
  3
ACAD_GROUP
350
D
  3
ACAD_LAYOUT
350
1A
  3
ACAD_MATERIAL
350
3B
  3
ACAD_MLEADERSTYLE
350
AA
  3
ACAD_MLINESTYLE
350
17
  3
ACAD_PLOTSETTINGS
350
19
  3
ACAD_PLOTSTYLENAME
350
E
  3
ACAD_TABLESTYLE
350
A9
  3
ACAD_VISUALSTYLE
350
2A
  0
SUN
  5
3F
330
29
100
AcDbSun
 90
        1
290
     0
 63
     7
421
 16777215
 40
1.0
291
     1
 91
  2455826
 92
 54000000
292
     0
 70
     2
 71
   256
280
     1
  0
DICTIONARY
  5
D
102
{ACAD_REACTORS
330
C
102
}
330
C
100
AcDbDictionary
281
     1
  0
DICTIONARY
  5
1A
102
{ACAD_REACTORS
330
C
102
}
330
C
100
AcDbDictionary
281
     1
  3
Layout1
350
1E
  3
Layout2
350
26
  3
Model
350
22
  0
DICTIONARY
  5
3B
102
{ACAD_REACTORS
330
C
102
}
330
C
100
AcDbDictionary
281
     1
  3
ByBlock
350
3D
  3
ByLayer
350
3C
  3
Global
350
3E
  0
DICTIONARY
  5
AA
102
{ACAD_REACTORS
330
C
102
}
330
C
100
AcDbDictionary
281
     1
  0
DICTIONARY
  5
17
102
{ACAD_REACTORS
330
C
102
}
330
C
100
AcDbDictionary
281
     1
  3
Standard
350
18
  0
DICTIONARY
  5
19
102
{ACAD_REACTORS
330
C
102
}
330
C
100
AcDbDictionary
281
     1
  0
ACDBDICTIONARYWDFLT
  5
E
102
{ACAD_REACTORS
330
C
102
}
330
C
100
AcDbDictionary
281
     1
  3
Normal
350
F
100
AcDbDictionaryWithDefault
340
F
  0
DICTIONARY
  5
A9
102
{ACAD_REACTORS
330
C
102
}
330
C
100
AcDbDictionary
281
     1
  0
DICTIONARY
  5
2A
102
{ACAD_REACTORS
330
C
102
}
330
C
100
AcDbDictionary
281
     1
  3
2dWireframe
350
2F
  3
3D Hidden
350
31
  3
3dWireframe
350
30
  3
Basic
350
32
  3
Brighten
350
36
  3
ColorChange
350
3A
  3
Conceptual
350
34
  3
Dim
350
35
  3
Facepattern
350
39
  3
Flat
350
2B
  3
FlatWithEdges
350
2C
  3
Gouraud
350
2D
  3
GouraudWithEdges
350
2E
  3
Linepattern
350
38
  3
Realistic
350
33
  3
Thicken
350
37
  0
LAYOUT
  5
1E
102
{ACAD_REACTORS
330
1A
102
}
330
1A
100
AcDbPlotSettings
  1

  2
none_device
  4

  6

 40
0.0
 41
0.0
 42
0.0
 43
0.0
 44
0.0
 45
0.0
 46
0.0
 47
0.0
 48
0.0
 49
0.0
140
0.0
141
0.0
142
1.0
143
1.0
 70
   688
 72
     0
 73
     0
 74
     5
  7

 75
    16
 76
     0
 77
     2
 78
   300
147
1.0
148
0.0
149
0.0
100
AcDbLayout
  1
Layout1
 70
     1
 71
     1
 10
0.0
 20
0.0
 11
12.0
 21
9.0
 12
0.0
 22
0.0
 32
0.0
 14
1.000000000000000E+20
 24
1.000000000000000E+20
 34
1.000000000000000E+20
 15
-1.000000000000000E+20
 25
-1.000000000000000E+20
 35
-1.000000000000000E+20
146
0.0
 13
0.0
 23
0.0
 33
0.0
 16
1.0
 26
0.0
 36
0.0
 17
0.0
 27
1.0
 37
0.0
 76
     0
330
1B
  0
LAYOUT
  5
26
102
{ACAD_REACTORS
330
1A
102
}
330
1A
100
AcDbPlotSettings
  1

  2
none_device
  4

  6

 40
0.0
 41
0.0
 42
0.0
 43
0.0
 44
0.0
 45
0.0
 46
0.0
 47
0.0
 48
0.0
 49
0.0
140
0.0
141
0.0
142
1.0
143
1.0
 70
   688
 72
     0
 73
     0
 74
     5
  7

 75
    16
 76
     0
 77
     2
 78
   300
147
1.0
148
0.0
149
0.0
100
AcDbLayout
  1
Layout2
 70
     1
 71
     2
 10
0.0
 20
0.0
 11
0.0
 21
0.0
 12
0.0
 22
0.0
 32
0.0
 14
0.0
 24
0.0
 34
0.0
 15
0.0
 25
0.0
 35
0.0
146
0.0
 13
0.0
 23
0.0
 33
0.0
 16
1.0
 26
0.0
 36
0.0
 17
0.0
 27
1.0
 37
0.0
 76
     0
330
23
  0
LAYOUT
  5
22
102
{ACAD_REACTORS
330
1A
102
}
330
1A
100
AcDbPlotSettings
  1

  2
none_device
  4

  6

 40
0.0
 41
0.0
 42
0.0
 43
0.0
 44
0.0
 45
0.0
 46
0.0
 47
0.0
 48
0.0
 49
0.0
140
0.0
141
0.0
142
1.0
143
1.0
 70
  1712
 72
     0
 73
     0
 74
     0
  7

 75
     0
 76
     0
 77
     2
 78
   300
147
1.0
148
0.0
149
0.0
100
AcDbLayout
  1
Model
 70
     1
 71
     0
 10
0.0
 20
0.0
 11
12.0
 21
9.0
 12
0.0
 22
0.0
 32
0.0
 14
1.000000000000000E+20
 24
1.000000000000000E+20
 34
1.000000000000000E+20
 15
-1.000000000000000E+20
 25
-1.000000000000000E+20
 35
-1.000000000000000E+20
146
0.0
 13
0.0
 23
0.0
 33
0.0
 16
1.0
 26
0.0
 36
0.0
 17
0.0
 27
1.0
 37
0.0
 76
     0
330
1F
331
29
  0
MATERIAL
  5
3D
102
{ACAD_REACTORS
330
3B
102
}
330
3B
100
AcDbMaterial
  1
ByBlock
 72
     1
 94
      127
  0
MATERIAL
  5
3C
102
{ACAD_REACTORS
330
3B
102
}
330
3B
100
AcDbMaterial
  1
ByLayer
 72
     1
 94
      127
  0
MATERIAL
  5
3E
102
{ACAD_REACTORS
330
3B
102
}
330
3B
100
AcDbMaterial
  1
Global
 72
     1
 94
      127
  0
MLINESTYLE
  5
18
102
{ACAD_REACTORS
330
17
102
}
330
17
100
AcDbMlineStyle
  2
Standard
 70
     0
  3

 62
   256
 51
90.0
 52
90.0
 71
     2
 49
0.5
 62
   256
  6
BYLAYER
 49
-0.5
 62
   256
  6
BYLAYER
  0
ACDBPLACEHOLDER
  5
F
102
{ACAD_REACTORS
330
E
102
}
330
E
  0
VISUALSTYLE
  5
2F
102
{ACAD_REACTORS
330
2A
102
}
330
2A
100
AcDbVisualStyle
  2
2dWireframe
 70
     4
177
     2
291
     0
 71
     0
176
     1
 72
     2
176
     1
 73
     0
176
     1
 90
        0
176
     1
 40
-0.6
176
     1
 41
-30.0
176
     1
 62
     5
 63
     7
421
 16777215
176
     1
 74
     1
176
     1
 91
        4
176
     1
 64
     7
176
     1
 65
   257
176
     1
 75
     1
176
     1
175
     1
176
     1
 42
1.0
176
     1
 92
        0
176
     1
 66
   257
176
     1
 43
1.0
176
     1
 76
     1
176
     1
 77
     6
176
     1
 78
     2
176
     1
 67
     7
176
     1
 79
     5
176
     1
170
     0
176
     1
171
     0
176
     1
290
     0
176
     1
 93
        1
176
     1
 44
0.0
176
     1
173
     0
176
     1
  0
VISUALSTYLE
  5
31
102
{ACAD_REACTORS
330
2A
102
}
330
2A
100
AcDbVisualStyle
  2
3D Hidden
 70
     6
177
     2
291
     0
 71
     1
176
     1
 72
     2
176
     1
 73
     2
176
     1
 90
        0
176
     1
 40
-0.6
176
     1
 41
-30.0
176
     1
 62
     5
 63
     7
421
 16777215
176
     1
 74
     2
176
     1
 91
        2
176
     1
 64
     7
176
     1
 65
   257
176
     1
 75
     2
176
     1
175
     1
176
     1
 42
40.0
176
     1
 92
        0
176
     1
 66
   257
176
     1
 43
1.0
176
     1
 76
     1
176
     1
 77
     6
176
     1
 78
     2
176
     1
 67
     7
176
     1
 79
     3
176
     1
170
     0
176
     1
171
     0
176
     1
290
     0
176
     1
 93
        1
176
     1
 44
0.0
176
     1
173
     0
176
     1
  0
VISUALSTYLE
  5
30
102
{ACAD_REACTORS
330
2A
102
}
330
2A
100
AcDbVisualStyle
  2
3dWireframe
 70
     5
177
     2
291
     0
 71
     0
176
     1
 72
     2
176
     1
 73
     0
176
     1
 90
        0
176
     1
 40
-0.6
176
     1
 41
-30.0
176
     1
 62
     5
 63
     7
421
 16777215
176
     1
 74
     1
176
     1
 91
        4
176
     1
 64
     7
176
     1
 65
   257
176
     1
 75
     1
176
     1
175
     1
176
     1
 42
1.0
176
     1
 92
        0
176
     1
 66
   257
176
     1
 43
1.0
176
     1
 76
     1
176
     1
 77
     6
176
     1
 78
     2
176
     1
 67
     7
176
     1
 79
     5
176
     1
170
     0
176
     1
171
     0
176
     1
290
     0
176
     1
 93
        1
176
     1
 44
0.0
176
     1
173
     0
176
     1
  0
VISUALSTYLE
  5
32
102
{ACAD_REACTORS
330
2A
102
}
330
2A
100
AcDbVisualStyle
  2
Basic
 70
     7
177
     2
291
     1
 71
     1
176
     1
 72
     0
176
     1
 73
     1
176
     1
 90
        0
176
     1
 40
-0.6
176
     1
 41
-30.0
176
     1
 62
     5
 63
     7
421
 16777215
176
     1
 74
     0
176
     1
 91
        4
176
     1
 64
     7
176
     1
 65
   257
176
     1
 75
     1
176
     1
175
     1
176
     1
 42
1.0
176
     1
 92
        8
176
     1
 66
     7
176
     1
 43
1.0
176
     1
 76
     1
176
     1
 77
     6
176
     1
 78
     2
176
     1
 67
     7
176
     1
 79
     5
176
     1
170
     0
176
     1
171
     0
176
     1
290
     0
176
     1
 93
        1
176
     1
 44
0.0
176
     1
173
     0
176
     1
  0
VISUALSTYLE
  5
36
102
{ACAD_REACTORS
330
2A
102
}
330
2A
100
AcDbVisualStyle
  2
Brighten
 70
    12
177
     2
291
     1
 71
     2
176
     1
 72
     2
176
     1
 73
     0
176
     1
 90
        0
176
     1
 40
-0.6
176
     1
 41
-30.0
176
     1
 62
     5
 63
     7
421
 16777215
176
     1
 74
     1
176
     1
 91
        4
176
     1
 64
     7
176
     1
 65
   257
176
     1
 75
     1
176
     1
175
     1
176
     1
 42
1.0
176
     1
 92
        8
176
     1
 66
     7
176
     1
 43
1.0
176
     1
 76
     1
176
     1
 77
     6
176
     1
 78
     2
176
     1
 67
     7
176
     1
 79
     5
176
     1
170
     0
176
     1
171
     0
176
     1
290
     0
176
     1
 93
        1
176
     1
 44
50.0
176
     1
173
     0
176
     1
  0
VISUALSTYLE
  5
3A
102
{ACAD_REACTORS
330
2A
102
}
330
2A
100
AcDbVisualStyle
  2
ColorChange
 70
    16
177
     2
291
     1
 71
     2
176
     1
 72
     2
176
     1
 73
     3
176
     1
 90
        0
176
     1
 40
-0.6
176
     1
 41
-30.0
176
     1
 62
     5
 63
     8
421
  8421504
176
     1
 74
     1
176
     1
 91
        4
176
     1
 64
     7
176
     1
 65
   257
176
     1
 75
     1
176
     1
175
     1
176
     1
 42
1.0
176
     1
 92
        8
176
     1
 66
     8
424
  8421504
176
     1
 43
1.0
176
     1
 76
     1
176
     1
 77
     6
176
     1
 78
     2
176
     1
 67
     7
176
     1
 79
     5
176
     1
170
     0
176
     1
171
     0
176
     1
290
     0
176
     1
 93
        1
176
     1
 44
0.0
176
     1
173
     0
176
     1
  0
VISUALSTYLE
  5
34
102
{ACAD_REACTORS
330
2A
102
}
330
2A
100
AcDbVisualStyle
  2
Conceptual
 70
     9
177
     2
291
     0
 71
     3
176
     1
 72
     2
176
     1
 73
     0
176
     1
 90
        0
176
     1
 40
-0.6
176
     1
 41
-30.0
176
     1
 62
     5
 63
     7
421
 16777215
176
     1
 74
     2
176
     1
 91
        2
176
     1
 64
     7
176
     1
 65
   257
176
     1
 75
     1
176
     1
175
     1
176
     1
 42
40.0
176
     1
 92
        8
176
     1
 66
     7
176
     1
 43
1.0
176
     1
 76
     1
176
     1
 77
     6
176
     1
 78
     2
176
     1
 67
     7
176
     1
 79
     3
176
     1
170
     0
176
     1
171
     0
176
     1
290
     0
176
     1
 93
        1
176
     1
 44
0.0
176
     1
173
     0
176
     1
  0
VISUALSTYLE
  5
35
102
{ACAD_REACTORS
330
2A
102
}
330
2A
100
AcDbVisualStyle
  2
Dim
 70
    11
177
     2
291
     1
 71
     2
176
     1
 72
     2
176
     1
 73
     0
176
     1
 90
        0
176
     1
 40
-0.6
176
     1
 41
-30.0
176
     1
 62
     5
 63
     7
421
 16777215
176
     1
 74
     1
176
     1
 91
        4
176
     1
 64
     7
176
     1
 65
   257
176
     1
 75
     1
176
     1
175
     1
176
     1
 42
1.0
176
     1
 92
        8
176
     1
 66
     7
176
     1
 43
1.0
176
     1
 76
     1
176
     1
 77
     6
176
     1
 78
     2
176
     1
 67
     7
176
     1
 79
     5
176
     1
170
     0
176
     1
171
     0
176
     1
290
     0
176
     1
 93
        1
176
     1
 44
-50.0
176
     1
173
     0
176
     1
  0
VISUALSTYLE
  5
39
102
{ACAD_REACTORS
330
2A
102
}
330
2A
100
AcDbVisualStyle
  2
Facepattern
 70
    15
177
     2
291
     1
 71
     2
176
     1
 72
     2
176
     1
 73
     0
176
     1
 90
        0
176
     1
 40
-0.6
176
     1
 41
-30.0
176
     1
 62
     5
 63
     7
421
 16777215
176
     1
 74
     1
176
     1
 91
        4
176
     1
 64
     7
176
     1
 65
   257
176
     1
 75
     1
176
     1
175
     1
176
     1
 42
1.0
176
     1
 92
        8
176
     1
 66
     7
176
     1
 43
1.0
176
     1
 76
     1
176
     1
 77
     6
176
     1
 78
     2
176
     1
 67
     7
176
     1
 79
     5
176
     1
170
     0
176
     1
171
     0
176
     1
290
     0
176
     1
 93
        1
176
     1
 44
0.0
176
     1
173
     0
176
     1
  0
VISUALSTYLE
  5
2B
102
{ACAD_REACTORS
330
2A
102
}
330
2A
100
AcDbVisualStyle
  2
Flat
 70
     0
177
     2
291
     1
 71
     2
176
     1
 72
     1
176
     1
 73
     1
176
     1
 90
        2
176
     1
 40
-0.6
176
     1
 41
30.0
176
     1
 62
     5
 63
     7
421
 16777215
176
     1
 74
     0
176
     1
 91
        4
176
     1
 64
     7
176
     1
 65
   257
176
     1
 75
     1
176
     1
175
     1
176
     1
 42
1.0
176
     1
 92
        8
176
     1
 66
     7
176
     1
 43
1.0
176
     1
 76
     1
176
     1
 77
     6
176
     1
 78
     2
176
     1
 67
     7
176
     1
 79
     5
176
     1
170
     0
176
     1
171
     0
176
     1
290
     0
176
     1
 93
       13
176
     1
 44
0.0
176
     1
173
     0
176
     1
  0
VISUALSTYLE
  5
2C
102
{ACAD_REACTORS
330
2A
102
}
330
2A
100
AcDbVisualStyle
  2
FlatWithEdges
 70
     1
177
     2
291
     1
 71
     2
176
     1
 72
     1
176
     1
 73
     1
176
     1
 90
        2
176
     1
 40
-0.6
176
     1
 41
30.0
176
     1
 62
     5
 63
     7
421
 16777215
176
     1
 74
     1
176
     1
 91
        4
176
     1
 64
     7
176
     1
 65
   257
176
     1
 75
     1
176
     1
175
     1
176
     1
 42
1.0
176
     1
 92
        0
176
     1
 66
   257
176
     1
 43
1.0
176
     1
 76
     1
176
     1
 77
     6
176
     1
 78
     2
176
     1
 67
     7
176
     1
 79
     5
176
     1
170
     0
176
     1
171
     0
176
     1
290
     0
176
     1
 93
       13
176
     1
 44
0.0
176
     1
173
     0
176
     1
  0
VISUALSTYLE
  5
2D
102
{ACAD_REACTORS
330
2A
102
}
330
2A
100
AcDbVisualStyle
  2
Gouraud
 70
     2
177
     2
291
     1
 71
     2
176
     1
 72
     2
176
     1
 73
     1
176
     1
 90
        2
176
     1
 40
-0.6
176
     1
 41
30.0
176
     1
 62
     5
 63
     7
421
 16777215
176
     1
 74
     0
176
     1
 91
        4
176
     1
 64
     7
176
     1
 65
   257
176
     1
 75
     1
176
     1
175
     1
176
     1
 42
1.0
176
     1
 92
        0
176
     1
 66
     7
176
     1
 43
1.0
176
     1
 76
     1
176
     1
 77
     6
176
     1
 78
     2
176
     1
 67
     7
176
     1
 79
     5
176
     1
170
     0
176
     1
171
     0
176
     1
290
     0
176
     1
 93
       13
176
     1
 44
0.0
176
     1
173
     0
176
     1
  0
VISUALSTYLE
  5
2E
102
{ACAD_REACTORS
330
2A
102
}
330
2A
100
AcDbVisualStyle
  2
GouraudWithEdges
 70
     3
177
     2
291
     1
 71
     2
176
     1
 72
     2
176
     1
 73
     1
176
     1
 90
        2
176
     1
 40
-0.6
176
     1
 41
30.0
176
     1
 62
     5
 63
     7
421
 16777215
176
     1
 74
     1
176
     1
 91
        4
176
     1
 64
     7
176
     1
 65
   257
176
     1
 75
     1
176
     1
175
     1
176
     1
 42
1.0
176
     1
 92
        0
176
     1
 66
   257
176
     1
 43
1.0
176
     1
 76
     1
176
     1
 77
     6
176
     1
 78
     2
176
     1
 67
     7
176
     1
 79
     5
176
     1
170
     0
176
     1
171
     0
176
     1
290
     0
176
     1
 93
       13
176
     1
 44
0.0
176
     1
173
     0
176
     1
  0
VISUALSTYLE
  5
38
102
{ACAD_REACTORS
330
2A
102
}
330
2A
100
AcDbVisualStyle
  2
Linepattern
 70
    14
177
     2
291
     1
 71
     2
176
     1
 72
     2
176
     1
 73
     0
176
     1
 90
        0
176
     1
 40
-0.6
176
     1
 41
-30.0
176
     1
 62
     5
 63
     7
421
 16777215
176
     1
 74
     1
176
     1
 91
        4
176
     1
 64
     7
176
     1
 65
   257
176
     1
 75
     7
176
     1
175
     7
176
     1
 42
1.0
176
     1
 92
        8
176
     1
 66
     7
176
     1
 43
1.0
176
     1
 76
     1
176
     1
 77
     6
176
     1
 78
     2
176
     1
 67
     7
176
     1
 79
     5
176
     1
170
     0
176
     1
171
     0
176
     1
290
     0
176
     1
 93
        1
176
     1
 44
0.0
176
     1
173
     0
176
     1
  0
VISUALSTYLE
  5
33
102
{ACAD_REACTORS
330
2A
102
}
330
2A
100
AcDbVisualStyle
  2
Realistic
 70
     8
177
     2
291
     0
 71
     2
176
     1
 72
     2
176
     1
 73
     0
176
     1
 90
        0
176
     1
 40
-0.6
176
     1
 41
-30.0
176
     1
 62
     5
 63
     7
421
 16777215
176
     1
 74
     1
176
     1
 91
        0
176
     1
 64
     7
176
     1
 65
   257
176
     1
 75
     1
176
     1
175
     1
176
     1
 42
1.0
176
     1
 92
        8
176
     1
 66
     8
424
  7895160
176
     1
 43
1.0
176
     1
 76
     1
176
     1
 77
     6
176
     1
 78
     2
176
     1
 67
     7
176
     1
 79
     5
176
     1
170
     0
176
     1
171
     0
176
     1
290
     0
176
     1
 93
       13
176
     1
 44
0.0
176
     1
173
     0
176
     1
  0
VISUALSTYLE
  5
37
102
{ACAD_REACTORS
330
2A
102
}
330
2A
100
AcDbVisualStyle
  2
Thicken
 70
    13
177
     2
291
     1
 71
     2
176
     1
 72
     2
176
     1
 73
     0
176
     1
 90
        0
176
     1
 40
-0.6
176
     1
 41
-30.0
176
     1
 62
     5
 63
     7
421
 16777215
176
     1
 74
     1
176
     1
 91
        4
176
     1
 64
     7
176
     1
 65
   257
176
     1
 75
     1
176
     1
175
     1
176
     1
 42
1.0
176
     1
 92
       12
176
     1
 66
     7
176
     1
 43
1.0
176
     1
 76
     1
176
     1
 77
     6
176
     1
 78
     2
176
     1
 67
     7
176
     1
 79
     5
176
     1
170
     0
176
     1
171
     0
176
     1
290
     0
176
     1
 93
        1
176
     1
 44
0.0
176
     1
173
     0
176
     1
  0
ENDSEC
  0
EOF
