  0
SECTION
  2
HEADER
  9
$ACADVER
  1
AC1024
  9
$ACADMAINTVER
 70
     6
  9
$DWGCODEPAGE
  3
UNDEFINED
  9
$INSBASE
 10
0.0
 20
0.0
 30
0.0
  9
$EXTMIN
 10
1.000000000000000E+20
 20
1.000000000000000E+20
 30
1.000000000000000E+20
  9
$EXTMAX
 10
-1.000000000000000E+20
 20
-1.000000000000000E+20
 30
-1.000000000000000E+20
  9
$LIMMIN
 10
0.0
 20
0.0
  9
$LIMMAX
 10
12.0
 20
9.0
  9
$ORTHOMODE
 70
     0
  9
$REGENMODE
 70
     1
  9
$FILLMODE
 70
     1
  9
$QTEXTMODE
 70
     0
  9
$MIRRTEXT
 70
     1
  9
$LTSCALE
 40
1.0
  9
$ATTMODE
 70
     1
  9
$TEXTSIZE
 40
0.2
  9
$TRACEWID
 40
0.05
  9
$TEXTSTYLE
  7
Standard
  9
$CLAYER
  8
0
  9
$CELTYPE
  6
ByLayer
  9
$CECOLOR
 62
   256
  9
$CELTSCALE
 40
1.0
  9
$DISPSILH
 70
     0
  9
$DIMSCALE
 40
1.0
  9
$DIMASZ
 40
0.18
  9
$DIMEXO
 40
0.0625
  9
$DIMDLI
 40
0.38
  9
$DIMRND
 40
0.0
  9
$DIMDLE
 40
0.0
  9
$DIMEXE
 40
0.18
  9
$DIMTP
 40
0.0
  9
$DIMTM
 40
0.0
  9
$DIMTXT
 40
0.18
  9
$DIMCEN
 40
0.09
  9
$DIMTSZ
 40
0.0
  9
$DIMTOL
 70
     0
  9
$DIMLIM
 70
     0
  9
$DIMTIH
 70
     1
  9
$DIMTOH
 70
     1
  9
$DIMSE1
 70
     0
  9
$DIMSE2
 70
     0
  9
$DIMTAD
 70
     0
  9
$DIMZIN
 70
     0
  9
$DIMBLK
  1

  9
$DIMASO
 70
     1
  9
$DIMSHO
 70
     1
  9
$DIMPOST
  1

  9
$DIMAPOST
  1

  9
$DIMALT
 70
     0
  9
$DIMALTD
 70
     2
  9
$DIMALTF
 40
25.4
  9
$DIMLFAC
 40
1.0
  9
$DIMTOFL
 70
     0
  9
$DIMTVP
 40
0.0
  9
$DIMTIX
 70
     0
  9
$DIMSOXD
 70
     0
  9
$DIMSAH
 70
     0
  9
$DIMBLK1
  1

  9
$DIMBLK2
  1

  9
$DIMSTYLE
  2
Standard
  9
$DIMCLRD
 70
     0
  9
$DIMCLRE
 70
     0
  9
$DIMCLRT
 70
     0
  9
$DIMTFAC
 40
1.0
  9
$DIMGAP
 40
0.09
  9
$DIMJUST
 70
     0
  9
$DIMSD1
 70
     0
  9
$DIMSD2
 70
     0
  9
$DIMTOLJ
 70
     1
  9
$DIMTZIN
 70
     0
  9
$DIMALTZ
 70
     0
  9
$DIMALTTZ
 70
     0
  9
$DIMUPT
 70
     0
  9
$DIMDEC
 70
     4
  9
$DIMTDEC
 70
     4
  9
$DIMALTU
 70
     2
  9
$DIMALTTD
 70
     2
  9
$DIMTXSTY
  7
Standard
  9
$DIMAUNIT
 70
     0
  9
$DIMADEC
 70
     0
  9
$DIMALTRND
 40
0.0
  9
$DIMAZIN
 70
     0
  9
$DIMDSEP
 70
    46
  9
$DIMATFIT
 70
     3
  9
$DIMFRAC
 70
     0
  9
$DIMLDRBLK
  1

  9
$DIMLUNIT
 70
     2
  9
$DIMLWD
 70
    -2
  9
$DIMLWE
 70
    -2
  9
$DIMTMOVE
 70
     0
  9
$DIMFXL
 40
1.0
  9
$DIMFXLON
 70
     0
  9
$DIMJOGANG
 40
0.7853981633974483
  9
$DIMTFILL
 70
     0
  9
$DIMTFILLCLR
 70
     0
  9
$DIMARCSYM
 70
     0
  9
$DIMLTYPE
  6

  9
$DIMLTEX1
  6

  9
$DIMLTEX2
  6

  9
$DIMTXTDIRECTION
 70
     0
  9
$LUNITS
 70
     2
  9
$LUPREC
 70
     4
  9
$SKETCHINC
 40
0.1
  9
$FILLETRAD
 40
0.5
  9
$AUNITS
 70
     0
  9
$AUPREC
 70
     0
  9
$MENU
  1
.
  9
$ELEVATION
 40
0.0
  9
$PELEVATION
 40
0.0
  9
$THICKNESS
 40
0.0
  9
$LIMCHECK
 70
     0
  9
$CHAMFERA
 40
0.5
  9
$CHAMFERB
 40
0.5
  9
$CHAMFERC
 40
1.0
  9
$CHAMFERD
 40
0.0
  9
$SKPOLY
 70
     0
  9
$TDCREATE
 40
2457917.6317361
  9
$TDUCREATE
 40
2457917.256736111
  9
$TDUPDATE
 40
2457917.6317361
  9
$TDUUPDATE
 40
2457917.256736111
  9
$TDINDWG
 40
0.0000000116
  9
$TDUSRTIMER
 40
0.0000000116
  9
$USRTIMER
 70
     1
  9
$ANGBASE
 50
0.0
  9
$ANGDIR
 70
     0
  9
$PDMODE
 70
     0
  9
$PDSIZE
 40
0.0
  9
$PLINEWID
 40
0.0
  9
$SPLFRAME
 70
     0
  9
$SPLINETYPE
 70
     6
  9
$SPLINESEGS
 70
     8
  9
$HANDSEED
  5
AB
  9
$SURFTAB1
 70
     6
  9
$SURFTAB2
 70
     6
  9
$SURFTYPE
 70
     6
  9
$SURFU
 70
     6
  9
$SURFV
 70
     6
  9
$UCSBASE
  2

  9
$UCSNAME
  2

  9
$UCSORG
 10
0.0
 20
0.0
 30
0.0
  9
$UCSXDIR
 10
1.0
 20
0.0
 30
0.0
  9
$UCSYDIR
 10
0.0
 20
1.0
 30
0.0
  9
$UCSORTHOREF
  2

  9
$UCSORTHOVIEW
 70
     0
  9
$UCSORGTOP
 10
0.0
 20
0.0
 30
0.0
  9
$UCSORGBOTTOM
 10
0.0
 20
0.0
 30
0.0
  9
$UCSORGLEFT
 10
0.0
 20
0.0
 30
0.0
  9
$UCSORGRIGHT
 10
0.0
 20
0.0
 30
0.0
  9
$UCSORGFRONT
 10
0.0
 20
0.0
 30
0.0
  9
$UCSORGBACK
 10
0.0
 20
0.0
 30
0.0
  9
$PUCSBASE
  2

  9
$PUCSNAME
  2

  9
$PUCSORG
 10
0.0
 20
0.0
 30
0.0
  9
$PUCSXDIR
 10
1.0
 20
0.0
 30
0.0
  9
$PUCSYDIR
 10
0.0
 20
1.0
 30
0.0
  9
$PUCSORTHOREF
  2

  9
$PUCSORTHOVIEW
 70
     0
  9
$PUCSORGTOP
 10
0.0
 20
0.0
 30
0.0
  9
$PUCSORGBOTTOM
 10
0.0
 20
0.0
 30
0.0
  9
$PUCSORGLEFT
 10
0.0
 20
0.0
 30
0.0
  9
$PUCSORGRIGHT
 10
0.0
 20
0.0
 30
0.0
  9
$PUCSORGFRONT
 10
0.0
 20
0.0
 30
0.0
  9
$PUCSORGBACK
 10
0.0
 20
0.0
 30
0.0
  9
$USERI1
 70
     0
  9
$USERI2
 70
     0
  9
$USERI3
 70
     0
  9
$USERI4
 70
     0
  9
$USERI5
 70
     0
  9
$USERR1
 40
0.0
  9
$USERR2
 40
0.0
  9
$USERR3
 40
0.0
  9
$USERR4
 40
0.0
  9
$USERR5
 40
0.0
  9
$WORLDVIEW
 70
     1
  9
$SHADEDGE
 70
     3
  9
$SHADEDIF
 70
    70
  9
$TILEMODE
 70
     1
  9
$MAXACTVP
 70
    64
  9
$PINSBASE
 10
0.0
 20
0.0
 30
0.0
  9
$PLIMCHECK
 70
     0
  9
$PEXTMIN
 10
1.000000000000000E+20
 20
1.000000000000000E+20
 30
1.000000000000000E+20
  9
$PEXTMAX
 10
-1.000000000000000E+20
 20
-1.000000000000000E+20
 30
-1.000000000000000E+20
  9
$PLIMMIN
 10
0.0
 20
0.0
  9
$PLIMMAX
 10
12.0
 20
9.0
  9
$UNITMODE
 70
     0
  9
$VISRETAIN
 70
     1
  9
$PLINEGEN
 70
     0
  9
$PSLTSCALE
 70
     1
  9
$TREEDEPTH
 70
  3020
  9
$CMLSTYLE
  2
Standard
  9
$CMLJUST
 70
     0
  9
$CMLSCALE
 40
1.0
  9
$PROXYGRAPHICS
 70
     1
  9
$MEASUREMENT
 70
     0
  9
$CELWEIGHT
370
    -1
  9
$ENDCAPS
280
     0
  9
$JOINSTYLE
280
     0
  9
$LWDISPLAY
290
     1
  9
$INSUNITS
 70
     1
  9
$HYPERLINKBASE
  1

  9
$STYLESHEET
  1

  9
$XEDIT
290
     1
  9
$CEPSNTYPE
380
     0
  9
$PSTYLEMODE
290
     1
  9
$FINGERPRINTGUID
  2
{2EB826EB-017E-8F25-F73B-8D3D43EC1844}
  9
$VERSIONGUID
  2
{FAEB1C32-E019-11D5-929B-00C0DF256EC4}
  9
$EXTNAMES
290
     1
  9
$PSVPSCALE
 40
0.0
  9
$OLESTARTUP
290
     0
  9
$SORTENTS
280
   127
  9
$INDEXCTL
280
     0
  9
$HIDETEXT
280
     1
  9
$XCLIPFRAME
280
     2
  9
$HALOGAP
280
     0
  9
$OBSCOLOR
 70
   257
  9
$OBSLTYPE
280
     0
  9
$INTERSECTIONDISPLAY
280
     0
  9
$INTERSECTIONCOLOR
 70
   257
  9
$DIMASSOC
280
     2
  9
$PROJECTNAME
  1

  9
$CAMERADISPLAY
290
     0
  9
$LENSLENGTH
 40
50.0
  9
$CAMERAHEIGHT
 40
0.0
  9
$STEPSPERSEC
 40
2.0
  9
$STEPSIZE
 40
6.0
  9
$3DDWFPREC
 40
2.0
  9
$PSOLWIDTH
 40
0.25
  9
$PSOLHEIGHT
 40
4.0
  9
$LOFTANG1
 40
1.570796326794897
  9
$LOFTANG2
 40
1.570796326794897
  9
$LOFTMAG1
 40
0.0
  9
$LOFTMAG2
 40
0.0
  9
$LOFTPARAM
 70
     7
  9
$LOFTNORMALS
280
     1
  9
$LATITUDE
 40
37.795
  9
$LONGITUDE
 40
-122.394
  9
$NORTHDIRECTION
 40
0.0
  9
$TIMEZONE
 70
 -8000
  9
$LIGHTGLYPHDISPLAY
280
     1
  9
$TILEMODELIGHTSYNCH
280
     1
  9
$CMATERIAL
347
3C
  9
$SOLIDHIST
280
     1
  9
$SHOWHIST
280
     1
  9
$DWFFRAME
280
     2
  9
$DGNFRAME
280
     2
  9
$REALWORLDSCALE
290
     1
  9
$INTERFERECOLOR
 62
   256
  9
$CSHADOW
280
     0
  9
$SHADOWPLANELOCATION
 40
0.0
  0
ENDSEC
  0
SECTION
  2
CLASSES
  0
CLASS
  1
ACDBDICTIONARYWDFLT
  2
AcDbDictionaryWithDefault
  3
ObjectDBX Classes
 90
        0
 91
        4
280
     0
281
     0
  0
CLASS
  1
VISUALSTYLE
  2
AcDbVisualStyle
  3
ObjectDBX Classes
 90
     4095
 91
        4
280
     0
281
     0
  0
CLASS
  1
MATERIAL
  2
AcDbMaterial
  3
ObjectDBX Classes
 90
     1153
 91
        4
280
     0
281
     0
  0
CLASS
  1
SUN
  2
AcDbSun
  3
SCENEOE
 90
     1024
 91
        4
280
     0
281
     0
  0
ENDSEC
  0
SECTION
  2
TABLES
  0
TABLE
  2
VPORT
  5
8
330
0
100
AcDbSymbolTable
 70
     1
  0
VPORT
  5
29
330
8
100
AcDbSymbolTableRecord
100
AcDbViewportTableRecord
  2
*Active
 70
     0
 10
0.0
 20
0.0
 11
1.0
 21
1.0
 12
0.0
 22
0.0
 13
0.0
 23
0.0
 14
0.5
 24
0.5
 15
0.5
 25
0.5
 16
0.0
 26
0.0
 36
1.0
 17
91.00082462281999
 27
-128.4993055234307
 37
0.0
 40
256.9986110468615
 41
0.7081814508812795
 42
50.0
 43
0.0
 44
0.0
 50
0.0
 51
0.0
 71
     0
 72
   100
 73
     1
 74
     3
 75
     0
 76
     0
 77
     0
 78
     0
281
     0
 65
     1
110
0.0
120
0.0
130
0.0
111
1.0
121
0.0
131
0.0
112
0.0
122
1.0
132
0.0
 79
     0
146
0.0
 60
     3
 61
     5
292
     1
282
     1
141
0.0
142
0.0
 63
   250
361
3F
  0
ENDTAB
  0
TABLE
  2
LTYPE
  5
5
330
0
100
AcDbSymbolTable
 70
     1
  0
LTYPE
  5
14
330
5
100
AcDbSymbolTableRecord
100
AcDbLinetypeTableRecord
  2
ByBlock
 70
     0
  3

 72
    65
 73
     0
 40
0.0
  0
LTYPE
  5
15
330
5
100
AcDbSymbolTableRecord
100
AcDbLinetypeTableRecord
  2
ByLayer
 70
     0
  3

 72
    65
 73
     0
 40
0.0
  0
LTYPE
  5
16
330
5
100
AcDbSymbolTableRecord
100
AcDbLinetypeTableRecord
  2
Continuous
 70
     0
  3
Solid line
 72
    65
 73
     0
 40
0.0
  0
ENDTAB
  0
TABLE
  2
LAYER
  5
2
330
0
100
AcDbSymbolTable
 70
     2
  0
LAYER
  5
10
330
2
100
AcDbSymbolTableRecord
100
AcDbLayerTableRecord
  2
0
 70
     0
 62
     7
  6
Continuous
370
    -3
390
F
347
3E
  0
LAYER
  5
40
330
2
100
AcDbSymbolTableRecord
100
AcDbLayerTableRecord
  2
_U+30EC_U+30A4_U+30E4_U+30FC 1
 70
     0
 62
     7
  6
Continuous
370
    -3
390
F
347
3E
  0
ENDTAB
  0
TABLE
  2
STYLE
  5
3
330
0
100
AcDbSymbolTable
 70
     1
  0
STYLE
  5
11
330
3
100
AcDbSymbolTableRecord
100
AcDbTextStyleTableRecord
  2
Standard
 70
     0
 40
0.0
 41
1.0
 50
0.0
 71
     0
 42
0.2
  3
txt
  4

  0
ENDTAB
  0
TABLE
  2
VIEW
  5
6
330
0
100
AcDbSymbolTable
 70
     0
  0
ENDTAB
  0
TABLE
  2
UCS
  5
7
330
0
100
AcDbSymbolTable
 70
     0
  0
ENDTAB
  0
TABLE
  2
APPID
  5
9
330
0
100
AcDbSymbolTable
 70
     1
  0
APPID
  5
12
330
9
100
AcDbSymbolTableRecord
100
AcDbRegAppTableRecord
  2
ACAD
 70
     0
  0
ENDTAB
  0
TABLE
  2
DIMSTYLE
  5
A
330
0
100
AcDbSymbolTable
 70
     1
100
AcDbDimStyleTable
  0
DIMSTYLE
105
27
330
A
100
AcDbSymbolTableRecord
100
AcDbDimStyleTableRecord
  2
Standard
 70
     0
178
     0
340
11
  0
ENDTAB
  0
TABLE
  2
BLOCK_RECORD
  5
1
330
0
100
AcDbSymbolTable
 70
     4
  0
BLOCK_RECORD
  5
1F
330
1
100
AcDbSymbolTableRecord
100
AcDbBlockTableRecord
  2
*Model_Space
340
22
 70
     0
280
     1
281
     0
  0
BLOCK_RECORD
  5
1B
330
1
100
AcDbSymbolTableRecord
100
AcDbBlockTableRecord
  2
*Paper_Space
340
1E
 70
     0
280
     1
281
     0
  0
BLOCK_RECORD
  5
23
330
1
100
AcDbSymbolTableRecord
100
AcDbBlockTableRecord
  2
*Paper_Space0
340
26
 70
     0
280
     1
281
     0
  0
BLOCK_RECORD
  5
68
330
1
100
AcDbSymbolTableRecord
100
AcDbBlockTableRecord
  2
block 2
340
0
102
{BLKREFS
331
69
102
}
 70
     0
280
     1
281
     0
  0
BLOCK_RECORD
  5
7D
330
1
100
AcDbSymbolTableRecord
100
AcDbBlockTableRecord
  2
block 3
340
0
102
{BLKREFS
331
7E
102
}
 70
     0
280
     1
281
     0
  0
BLOCK_RECORD
  5
89
330
1
100
AcDbSymbolTableRecord
100
AcDbBlockTableRecord
  2
block 4
340
0
102
{BLKREFS
331
8A
102
}
 70
     0
280
     1
281
     0
  0
ENDTAB
  0
ENDSEC
  0
SECTION
  2
BLOCKS
  0
BLOCK
  5
20
330
1F
100
AcDbEntity
  8
0
100
AcDbBlockBegin
  2
*Model_Space
 70
     0
 10
0.0
 20
0.0
 30
0.0
  3
*Model_Space
  1

  0
ENDBLK
  5
21
330
1F
100
AcDbEntity
  8
0
100
AcDbBlockEnd
  0
BLOCK
  5
1C
330
1B
100
AcDbEntity
 67
     1
  8
0
100
AcDbBlockBegin
  2
*Paper_Space
 70
     0
 10
0.0
 20
0.0
 30
0.0
  3
*Paper_Space
  1

  0
ENDBLK
  5
1D
330
1B
100
AcDbEntity
 67
     1
  8
0
100
AcDbBlockEnd
  0
BLOCK
  5
24
330
23
100
AcDbEntity
  8
0
100
AcDbBlockBegin
  2
*Paper_Space0
 70
     0
 10
0.0
 20
0.0
 30
0.0
  3
*Paper_Space0
  1

  0
ENDBLK
  5
25
330
23
100
AcDbEntity
  8
0
100
AcDbBlockEnd
  0
BLOCK
  5
6A
330
68
100
AcDbEntity
  8
0
100
AcDbBlockBegin
  2
block 2
 70
     0
 10
0.0
 20
0.0
 30
0.0
  3
block 2
  1

  0
SPLINE
  5
6C
330
68
100
AcDbEntity
  8
_U+30EC_U+30A4_U+30E4_U+30FC 1
370
     0
100
AcDbSpline
210
0.0
220
0.0
230
1.0
 70
    11
 71
     3
 72
    62
 73
    58
 74
     0
 42
0.0000000001
 43
0.0000000001
 12
1.0
 22
0.0
 32
0.0
 13
1.0
 23
0.0
 33
0.0
 40
0.0
 40
0.0
 40
0.0
 40
0.0
 40
1.0
 40
1.0
 40
1.0
 40
2.0
 40
2.0
 40
2.0
 40
3.0
 40
3.0
 40
3.0
 40
4.0
 40
4.0
 40
4.0
 40
5.0
 40
5.0
 40
5.0
 40
6.0
 40
6.0
 40
6.0
 40
7.0
 40
7.0
 40
7.0
 40
8.0
 40
8.0
 40
8.0
 40
9.0
 40
9.0
 40
9.0
 40
10.0
 40
10.0
 40
10.0
 40
11.0
 40
11.0
 40
11.0
 40
12.0
 40
12.0
 40
12.0
 40
13.0
 40
13.0
 40
13.0
 40
14.0
 40
14.0
 40
14.0
 40
15.0
 40
15.0
 40
15.0
 40
16.0
 40
16.0
 40
16.0
 40
17.0
 40
17.0
 40
17.0
 40
18.0
 40
18.0
 40
18.0
 40
19.0
 40
19.0
 40
19.0
 40
19.0
 10
90.42135414406133
 20
-118.1641913224555
 30
0.0
 10
90.32609725389418
 20
-118.1641913224555
 30
0.0
 10
90.10819496445212
 20
-118.1430039852212
 30
0.0
 10
89.98348250788608
 20
-117.9567965742434
 30
0.0
 10
89.90941295495321
 20
-117.8446587161986
 30
0.0
 10
89.90510658559664
 20
-117.7452677114491
 30
0.0
 10
89.90097247101434
 20
-117.6606906172862
 30
0.0
 10
89.90097247101434
 20
-117.6606906172862
 30
0.0
 10
90.12094181774755
 20
-117.6606906172862
 30
0.0
 10
90.12094181774755
 20
-117.6606906172862
 30
0.0
 10
90.12300887503869
 20
-117.7347601702191
 30
0.0
 10
90.13368867104298
 20
-117.9695434275389
 30
0.0
 10
90.41704777470477
 20
-117.9695434275389
 30
0.0
 10
90.5546793393405
 20
-117.9695434275389
 30
0.0
 10
90.70695255978855
 20
-117.8997802439626
 30
0.0
 10
90.70695255978855
 20
-117.6711981585162
 30
0.0
 10
90.70695255978855
 20
-117.554926185889
 30
0.0
 10
90.66888425467653
 20
-117.5061780847728
 30
0.0
 10
90.63718937621223
 20
-117.4744832063085
 30
0.0
 10
90.56311982327937
 20
-117.4004136533756
 30
0.0
 10
90.44667559587792
 20
-117.3878390548544
 30
0.0
 10
90.39172632288819
 20
-117.3878390548544
 30
0.0
 10
90.37277829771931
 20
-117.3878390548544
 30
0.0
 10
90.33677704989844
 20
-117.3899061121456
 30
0.0
 10
90.30921628601645
 20
-117.3940402267279
 30
0.0
 10
90.30921628601645
 20
-117.3940402267279
 30
0.0
 10
90.30921628601645
 20
-117.1993923318113
 30
0.0
 10
90.30921628601645
 20
-117.1993923318113
 30
0.0
 10
90.34728459112846
 20
-117.205765758459
 30
0.0
 10
90.38965926559703
 20
-117.2080050705244
 30
0.0
 10
90.39603269224475
 20
-117.2080050705244
 30
0.0
 10
90.46148950646449
 20
-117.2080050705244
 30
0.0
 10
90.66044377073767
 20
-117.1868177332901
 30
0.0
 10
90.66044377073767
 20
-116.9497951639049
 30
0.0
 10
90.66044377073767
 20
-116.7722004916403
 30
0.0
 10
90.52918563274966
 20
-116.7170789638763
 30
0.0
 10
90.41928708677018
 20
-116.7170789638763
 30
0.0
 10
90.15487600827726
 20
-116.7170789638763
 30
0.0
 10
90.14626326956413
 20
-116.9497951639049
 30
0.0
 10
90.14212915498183
 20
-117.0217976595466
 30
0.0
 10
90.14212915498183
 20
-117.0217976595466
 30
0.0
 10
89.93904077612636
 20
-117.0217976595466
 30
0.0
 10
89.93904077612636
 20
-117.0217976595466
 30
0.0
 10
89.94748126006522
 20
-116.8969129482063
 30
0.0
 10
89.97504202394721
 20
-116.5203640116685
 30
0.0
 10
90.43186168529134
 20
-116.5203640116685
 30
0.0
 10
90.6561374013811
 20
-116.5203640116685
 30
0.0
 10
90.89729408534859
 20
-116.6473157803
 30
0.0
 10
90.89729408534859
 20
-116.9434217372572
 30
0.0
 10
90.89729408534859
 20
-117.129629148235
 30
0.0
 10
90.8022094499557
 20
-117.2121391851067
 30
0.0
 10
90.70264619043198
 20
-117.2734618847441
 30
0.0
 10
90.76414114484369
 20
-117.3010226486261
 30
0.0
 10
90.94604218646488
 20
-117.3814656282067
 30
0.0
 10
90.94604218646488
 20
-117.6586235599951
 30
0.0
 10
90.94604218646488
 20
-117.9971041914209
 30
0.0
 10
90.69851207584968
 20
-118.1641913224555
 30
0.0
 10
90.42135414406133
 20
-118.1641913224555
 30
0.0
  0
HATCH
  5
6D
330
68
100
AcDbEntity
  8
_U+30EC_U+30A4_U+30E4_U+30FC 1
 62
   179
420
  2234388
100
AcDbHatch
 10
0.0
 20
0.0
 30
0.0
210
0.0
220
0.0
230
1.0
  2
SOLID
 70
     1
 71
     0
 91
        1
 92
        1
 93
        1
 72
     4
 94
        3
 73
     0
 74
     1
 95
       62
 96
       58
 40
0.0
 40
0.0
 40
0.0
 40
0.0
 40
1.0
 40
1.0
 40
1.0
 40
2.0
 40
2.0
 40
2.0
 40
3.0
 40
3.0
 40
3.0
 40
4.0
 40
4.0
 40
4.0
 40
5.0
 40
5.0
 40
5.0
 40
6.0
 40
6.0
 40
6.0
 40
7.0
 40
7.0
 40
7.0
 40
8.0
 40
8.0
 40
8.0
 40
9.0
 40
9.0
 40
9.0
 40
10.0
 40
10.0
 40
10.0
 40
11.0
 40
11.0
 40
11.0
 40
12.0
 40
12.0
 40
12.0
 40
13.0
 40
13.0
 40
13.0
 40
14.0
 40
14.0
 40
14.0
 40
15.0
 40
15.0
 40
15.0
 40
16.0
 40
16.0
 40
16.0
 40
17.0
 40
17.0
 40
17.0
 40
18.0
 40
18.0
 40
18.0
 40
19.0
 40
19.0
 40
19.0
 40
19.0
 10
90.42135414406133
 20
-118.1641913224555
 10
90.32609725389418
 20
-118.1641913224555
 10
90.10819496445212
 20
-118.1430039852212
 10
89.98348250788608
 20
-117.9567965742434
 10
89.90941295495321
 20
-117.8446587161986
 10
89.90510658559664
 20
-117.7452677114491
 10
89.90097247101434
 20
-117.6606906172862
 10
89.90097247101434
 20
-117.6606906172862
 10
90.12094181774755
 20
-117.6606906172862
 10
90.12094181774755
 20
-117.6606906172862
 10
90.12300887503869
 20
-117.7347601702191
 10
90.13368867104298
 20
-117.9695434275389
 10
90.41704777470477
 20
-117.9695434275389
 10
90.5546793393405
 20
-117.9695434275389
 10
90.70695255978855
 20
-117.8997802439626
 10
90.70695255978855
 20
-117.6711981585162
 10
90.70695255978855
 20
-117.554926185889
 10
90.66888425467653
 20
-117.5061780847728
 10
90.63718937621223
 20
-117.4744832063085
 10
90.56311982327937
 20
-117.4004136533756
 10
90.44667559587792
 20
-117.3878390548544
 10
90.39172632288819
 20
-117.3878390548544
 10
90.37277829771931
 20
-117.3878390548544
 10
90.33677704989844
 20
-117.3899061121456
 10
90.30921628601645
 20
-117.3940402267279
 10
90.30921628601645
 20
-117.3940402267279
 10
90.30921628601645
 20
-117.1993923318113
 10
90.30921628601645
 20
-117.1993923318113
 10
90.34728459112846
 20
-117.205765758459
 10
90.38965926559703
 20
-117.2080050705244
 10
90.39603269224475
 20
-117.2080050705244
 10
90.46148950646449
 20
-117.2080050705244
 10
90.66044377073767
 20
-117.1868177332901
 10
90.66044377073767
 20
-116.9497951639049
 10
90.66044377073767
 20
-116.7722004916403
 10
90.52918563274966
 20
-116.7170789638763
 10
90.41928708677018
 20
-116.7170789638763
 10
90.15487600827726
 20
-116.7170789638763
 10
90.14626326956413
 20
-116.9497951639049
 10
90.14212915498183
 20
-117.0217976595466
 10
90.14212915498183
 20
-117.0217976595466
 10
89.93904077612636
 20
-117.0217976595466
 10
89.93904077612636
 20
-117.0217976595466
 10
89.94748126006522
 20
-116.8969129482063
 10
89.97504202394721
 20
-116.5203640116685
 10
90.43186168529134
 20
-116.5203640116685
 10
90.6561374013811
 20
-116.5203640116685
 10
90.89729408534859
 20
-116.6473157803
 10
90.89729408534859
 20
-116.9434217372572
 10
90.89729408534859
 20
-117.129629148235
 10
90.8022094499557
 20
-117.2121391851067
 10
90.70264619043198
 20
-117.2734618847441
 10
90.76414114484369
 20
-117.3010226486261
 10
90.94604218646488
 20
-117.3814656282067
 10
90.94604218646488
 20
-117.6586235599951
 10
90.94604218646488
 20
-117.9971041914209
 10
90.69851207584968
 20
-118.1641913224555
 10
90.42135414406133
 20
-118.1641913224555
 97
        0
 97
        0
 75
     2
 76
     1
 98
        0
  0
SPLINE
  5
6E
330
68
100
AcDbEntity
  8
_U+30EC_U+30A4_U+30E4_U+30FC 1
370
     0
100
AcDbSpline
210
0.0
220
0.0
230
1.0
 70
    11
 71
     3
 72
    32
 73
    28
 74
     0
 42
0.0000000001
 43
0.0000000001
 12
1.0
 22
0.0
 32
0.0
 13
1.0
 23
0.0
 33
0.0
 40
0.0
 40
0.0
 40
0.0
 40
0.0
 40
1.0
 40
1.0
 40
1.0
 40
2.0
 40
2.0
 40
2.0
 40
3.0
 40
3.0
 40
3.0
 40
4.0
 40
4.0
 40
4.0
 40
5.0
 40
5.0
 40
5.0
 40
6.0
 40
6.0
 40
6.0
 40
7.0
 40
7.0
 40
7.0
 40
8.0
 40
8.0
 40
8.0
 40
9.0
 40
9.0
 40
9.0
 40
9.0
 10
91.6109456151181
 20
-118.1641913224555
 30
0.0
 10
91.09469805665341
 20
-118.1641913224555
 30
0.0
 10
91.08625757271454
 20
-117.6098754588788
 30
0.0
 10
91.08625757271454
 20
-117.3962795387933
 30
0.0
 10
91.08625757271454
 20
-117.1656303960558
 30
0.0
 10
91.10537785265768
 20
-116.5182969543774
 30
0.0
 10
91.64884166545585
 20
-116.5182969543774
 30
0.0
 10
91.82247447791244
 20
-116.5182969543774
 30
0.0
 10
92.06776527646223
 20
-116.5880601379537
 30
0.0
 10
92.1060058363485
 20
-116.9201673427318
 30
0.0
 10
92.1060058363485
 20
-116.9201673427318
 30
0.0
 10
91.8920654067145
 20
-116.9201673427318
 30
0.0
 10
91.8920654067145
 20
-116.9201673427318
 30
0.0
 10
91.88173012025874
 20
-116.8631510124509
 30
0.0
 10
91.85003524179444
 20
-116.7150119065851
 30
0.0
 10
91.6467746081647
 20
-116.7150119065851
 30
0.0
 10
91.35497502056404
 20
-116.7150119065851
 30
0.0
 10
91.31466740338662
 20
-117.0429849967809
 30
0.0
 10
91.30209280486545
 20
-117.2481404329276
 30
0.0
 10
91.39493812819293
 20
-117.1699367654124
 30
0.0
 10
91.46280650925236
 20
-117.1106811230661
 30
0.0
 10
91.64470755087355
 20
-117.1106811230661
 30
0.0
 10
91.8245415352036
 20
-117.1106811230661
 30
0.0
 10
92.12702091880853
 20
-117.2185126117544
 30
0.0
 10
92.12702091880853
 20
-117.6246893694654
 30
0.0
 10
92.12702091880853
 20
-117.9442219757223
 30
0.0
 10
91.92823890930961
 20
-118.1641913224555
 30
0.0
 10
91.6109456151181
 20
-118.1641913224555
 30
0.0
  0
SPLINE
  5
6F
330
68
100
AcDbEntity
  8
_U+30EC_U+30A4_U+30E4_U+30FC 1
370
     0
100
AcDbSpline
210
0.0
220
0.0
230
1.0
 70
    11
 71
     3
 72
    17
 73
    13
 74
     0
 42
0.0000000001
 43
0.0000000001
 12
1.0
 22
0.0
 32
0.0
 13
1.0
 23
0.0
 33
0.0
 40
0.0
 40
0.0
 40
0.0
 40
0.0
 40
1.0
 40
1.0
 40
1.0
 40
2.0
 40
2.0
 40
2.0
 40
3.0
 40
3.0
 40
3.0
 40
4.0
 40
4.0
 40
4.0
 40
4.0
 10
91.62782658299582
 20
-117.3053290179827
 30
0.0
 10
91.36548256179405
 20
-117.3053290179827
 30
0.0
 10
91.32741425668203
 20
-117.516857880777
 30
0.0
 10
91.32741425668203
 20
-117.6331298534042
 30
0.0
 10
91.32741425668203
 20
-117.808829723152
 30
0.0
 10
91.42249889207494
 20
-117.97161048483
 30
0.0
 10
91.60646699098727
 20
-117.97161048483
 30
0.0
 10
91.72704533297102
 20
-117.97161048483
 30
0.0
 10
91.90274520271876
 20
-117.9123548424837
 30
0.0
 10
91.90274520271876
 20
-117.6267564267565
 30
0.0
 10
91.90274520271876
 20
-117.402652965441
 30
0.0
 10
91.76321883556615
 20
-117.3053290179827
 30
0.0
 10
91.62782658299582
 20
-117.3053290179827
 30
0.0
  0
HATCH
  5
70
330
68
100
AcDbEntity
  8
_U+30EC_U+30A4_U+30E4_U+30FC 1
 62
   179
420
  2234388
100
AcDbHatch
 10
0.0
 20
0.0
 30
0.0
210
0.0
220
0.0
230
1.0
  2
SOLID
 70
     1
 71
     0
 91
        2
 92
        1
 93
        1
 72
     4
 94
        3
 73
     0
 74
     1
 95
       32
 96
       28
 40
0.0
 40
0.0
 40
0.0
 40
0.0
 40
1.0
 40
1.0
 40
1.0
 40
2.0
 40
2.0
 40
2.0
 40
3.0
 40
3.0
 40
3.0
 40
4.0
 40
4.0
 40
4.0
 40
5.0
 40
5.0
 40
5.0
 40
6.0
 40
6.0
 40
6.0
 40
7.0
 40
7.0
 40
7.0
 40
8.0
 40
8.0
 40
8.0
 40
9.0
 40
9.0
 40
9.0
 40
9.0
 10
91.6109456151181
 20
-118.1641913224555
 10
91.09469805665341
 20
-118.1641913224555
 10
91.08625757271454
 20
-117.6098754588788
 10
91.08625757271454
 20
-117.3962795387933
 10
91.08625757271454
 20
-117.1656303960558
 10
91.10537785265768
 20
-116.5182969543774
 10
91.64884166545585
 20
-116.5182969543774
 10
91.82247447791244
 20
-116.5182969543774
 10
92.06776527646223
 20
-116.5880601379537
 10
92.1060058363485
 20
-116.9201673427318
 10
92.1060058363485
 20
-116.9201673427318
 10
91.8920654067145
 20
-116.9201673427318
 10
91.8920654067145
 20
-116.9201673427318
 10
91.88173012025874
 20
-116.8631510124509
 10
91.85003524179444
 20
-116.7150119065851
 10
91.6467746081647
 20
-116.7150119065851
 10
91.35497502056404
 20
-116.7150119065851
 10
91.31466740338662
 20
-117.0429849967809
 10
91.30209280486545
 20
-117.2481404329276
 10
91.39493812819293
 20
-117.1699367654124
 10
91.46280650925236
 20
-117.1106811230661
 10
91.64470755087355
 20
-117.1106811230661
 10
91.8245415352036
 20
-117.1106811230661
 10
92.12702091880853
 20
-117.2185126117544
 10
92.12702091880853
 20
-117.6246893694654
 10
92.12702091880853
 20
-117.9442219757223
 10
91.92823890930961
 20
-118.1641913224555
 10
91.6109456151181
 20
-118.1641913224555
 97
        0
 97
        0
 92
        1
 93
        1
 72
     4
 94
        3
 73
     0
 74
     1
 95
       17
 96
       13
 40
0.0
 40
0.0
 40
0.0
 40
0.0
 40
1.0
 40
1.0
 40
1.0
 40
2.0
 40
2.0
 40
2.0
 40
3.0
 40
3.0
 40
3.0
 40
4.0
 40
4.0
 40
4.0
 40
4.0
 10
91.62782658299582
 20
-117.3053290179827
 10
91.36548256179405
 20
-117.3053290179827
 10
91.32741425668203
 20
-117.516857880777
 10
91.32741425668203
 20
-117.6331298534042
 10
91.32741425668203
 20
-117.808829723152
 10
91.42249889207494
 20
-117.97161048483
 10
91.60646699098727
 20
-117.97161048483
 10
91.72704533297102
 20
-117.97161048483
 10
91.90274520271876
 20
-117.9123548424837
 10
91.90274520271876
 20
-117.6267564267565
 10
91.90274520271876
 20
-117.402652965441
 10
91.76321883556615
 20
-117.3053290179827
 10
91.62782658299582
 20
-117.3053290179827
 97
        0
 97
        0
 75
     2
 76
     1
 98
        0
  0
ENDBLK
  5
6B
330
68
100
AcDbEntity
  8
0
100
AcDbBlockEnd
  0
BLOCK
  5
7F
330
7D
100
AcDbEntity
  8
0
100
AcDbBlockBegin
  2
block 3
 70
     0
 10
0.0
 20
0.0
 30
0.0
  3
block 3
  1

  0
SPLINE
  5
81
330
7D
100
AcDbEntity
  8
_U+30EC_U+30A4_U+30E4_U+30FC 1
370
     0
100
AcDbSpline
210
0.0
220
0.0
230
1.0
 70
    11
 71
     3
 72
    26
 73
    22
 74
     0
 42
0.0000000001
 43
0.0000000001
 12
1.0
 22
0.0
 32
0.0
 13
1.0
 23
0.0
 33
0.0
 40
0.0
 40
0.0
 40
0.0
 40
0.0
 40
1.0
 40
1.0
 40
1.0
 40
2.0
 40
2.0
 40
2.0
 40
3.0
 40
3.0
 40
3.0
 40
4.0
 40
4.0
 40
4.0
 40
5.0
 40
5.0
 40
5.0
 40
6.0
 40
6.0
 40
6.0
 40
7.0
 40
7.0
 40
7.0
 40
7.0
 10
71.3420708371992
 20
-133.9814859691088
 30
0.0
 10
71.3420708371992
 20
-133.9814859691088
 30
0.0
 10
70.23791773417663
 20
-133.9814859691088
 30
0.0
 10
70.23791773417663
 20
-133.9814859691088
 30
0.0
 10
70.23791773417663
 20
-133.9814859691088
 30
0.0
 10
70.23791773417663
 20
-134.3115261165957
 30
0.0
 10
70.23791773417663
 20
-134.3115261165957
 30
0.0
 10
70.23791773417663
 20
-134.3115261165957
 30
0.0
 10
70.0897786283109
 20
-134.3115261165957
 30
0.0
 10
70.0897786283109
 20
-134.3115261165957
 30
0.0
 10
70.07496471772431
 20
-133.9794189118176
 30
0.0
 10
69.91201170127201
 20
-133.9329101227668
 30
0.0
 10
69.7976345311617
 20
-133.9032823015936
 30
0.0
 10
69.7976345311617
 20
-133.9032823015936
 30
0.0
 10
69.7976345311617
 20
-133.757210253019
 30
0.0
 10
69.7976345311617
 20
-133.757210253019
 30
0.0
 10
69.7976345311617
 20
-133.757210253019
 30
0.0
 10
71.3420708371992
 20
-133.757210253019
 30
0.0
 10
71.3420708371992
 20
-133.757210253019
 30
0.0
 10
71.3420708371992
 20
-133.757210253019
 30
0.0
 10
71.3420708371992
 20
-133.9814859691088
 30
0.0
 10
71.3420708371992
 20
-133.9814859691088
 30
0.0
  0
HATCH
  5
82
330
7D
100
AcDbEntity
  8
_U+30EC_U+30A4_U+30E4_U+30FC 1
 62
   179
420
  2234388
100
AcDbHatch
 10
0.0
 20
0.0
 30
0.0
210
0.0
220
0.0
230
1.0
  2
SOLID
 70
     1
 71
     0
 91
        1
 92
        1
 93
        1
 72
     4
 94
        3
 73
     0
 74
     1
 95
       26
 96
       22
 40
0.0
 40
0.0
 40
0.0
 40
0.0
 40
1.0
 40
1.0
 40
1.0
 40
2.0
 40
2.0
 40
2.0
 40
3.0
 40
3.0
 40
3.0
 40
4.0
 40
4.0
 40
4.0
 40
5.0
 40
5.0
 40
5.0
 40
6.0
 40
6.0
 40
6.0
 40
7.0
 40
7.0
 40
7.0
 40
7.0
 10
71.3420708371992
 20
-133.9814859691088
 10
71.3420708371992
 20
-133.9814859691088
 10
70.23791773417663
 20
-133.9814859691088
 10
70.23791773417663
 20
-133.9814859691088
 10
70.23791773417663
 20
-133.9814859691088
 10
70.23791773417663
 20
-134.3115261165957
 10
70.23791773417663
 20
-134.3115261165957
 10
70.23791773417663
 20
-134.3115261165957
 10
70.0897786283109
 20
-134.3115261165957
 10
70.0897786283109
 20
-134.3115261165957
 10
70.07496471772431
 20
-133.9794189118176
 10
69.91201170127201
 20
-133.9329101227668
 10
69.7976345311617
 20
-133.9032823015936
 10
69.7976345311617
 20
-133.9032823015936
 10
69.7976345311617
 20
-133.757210253019
 10
69.7976345311617
 20
-133.757210253019
 10
69.7976345311617
 20
-133.757210253019
 10
71.3420708371992
 20
-133.757210253019
 10
71.3420708371992
 20
-133.757210253019
 10
71.3420708371992
 20
-133.757210253019
 10
71.3420708371992
 20
-133.9814859691088
 10
71.3420708371992
 20
-133.9814859691088
 97
        0
 97
        0
 75
     2
 76
     1
 98
        0
  0
SPLINE
  5
83
330
7D
100
AcDbEntity
  8
_U+30EC_U+30A4_U+30E4_U+30FC 1
370
     0
100
AcDbSpline
210
0.0
220
0.0
230
1.0
 70
    11
 71
     3
 72
    29
 73
    25
 74
     0
 42
0.0000000001
 43
0.0000000001
 12
1.0
 22
0.0
 32
0.0
 13
1.0
 23
0.0
 33
0.0
 40
0.0
 40
0.0
 40
0.0
 40
0.0
 40
1.0
 40
1.0
 40
1.0
 40
2.0
 40
2.0
 40
2.0
 40
3.0
 40
3.0
 40
3.0
 40
4.0
 40
4.0
 40
4.0
 40
5.0
 40
5.0
 40
5.0
 40
6.0
 40
6.0
 40
6.0
 40
7.0
 40
7.0
 40
7.0
 40
8.0
 40
8.0
 40
8.0
 40
8.0
 10
71.39271374083238
 20
-132.7560655050054
 30
0.0
 10
71.39271374083238
 20
-133.0227158955638
 30
0.0
 10
71.25525443097091
 20
-133.2762749232782
 30
0.0
 10
70.9062662583151
 20
-133.2762749232782
 30
0.0
 10
70.65029566376104
 20
-133.2762749232782
 30
0.0
 10
70.55521102836815
 20
-133.1346814988344
 30
0.0
 10
70.49388832873069
 20
-133.0289170674372
 30
0.0
 10
70.4346326863844
 20
-133.1536295240033
 30
0.0
 10
70.3202555162741
 20
-133.2297661342273
 30
0.0
 10
70.15936955711294
 20
-133.2297661342273
 30
0.0
 10
69.88445093739
 20
-133.2297661342273
 30
0.0
 10
69.74905868481969
 20
-133.0309841247284
 30
0.0
 10
69.74905868481969
 20
-132.7560655050054
 30
0.0
 10
69.74905868481969
 20
-132.4725341465694
 30
0.0
 10
69.89306367610313
 20
-132.2820203662351
 30
0.0
 10
70.15936955711294
 20
-132.2820203662351
 30
0.0
 10
70.3202555162741
 20
-132.2820203662351
 30
0.0
 10
70.4346326863844
 20
-132.3605685432987
 30
0.0
 10
70.49388832873069
 20
-132.4852809998648
 30
0.0
 10
70.54453123236387
 20
-132.3963975363453
 30
0.0
 10
70.63961586775676
 20
-132.2375786344753
 30
0.0
 10
70.9021321437328
 20
-132.2375786344753
 30
0.0
 10
71.27661402297946
 20
-132.2375786344753
 30
0.0
 10
71.39271374083238
 20
-132.5169758783291
 30
0.0
 10
71.39271374083238
 20
-132.7560655050054
 30
0.0
  0
SPLINE
  5
84
330
7D
100
AcDbEntity
  8
_U+30EC_U+30A4_U+30E4_U+30FC 1
370
     0
100
AcDbSpline
210
0.0
220
0.0
230
1.0
 70
    11
 71
     3
 72
    17
 73
    13
 74
     0
 42
0.0000000001
 43
0.0000000001
 12
1.0
 22
0.0
 32
0.0
 13
1.0
 23
0.0
 33
0.0
 40
0.0
 40
0.0
 40
0.0
 40
0.0
 40
1.0
 40
1.0
 40
1.0
 40
2.0
 40
2.0
 40
2.0
 40
3.0
 40
3.0
 40
3.0
 40
4.0
 40
4.0
 40
4.0
 40
4.0
 10
69.94163952244514
 20
-132.7560655050054
 30
0.0
 10
69.94163952244514
 20
-132.9210855787489
 30
0.0
 10
70.03672415783804
 20
-133.0054904181375
 30
0.0
 10
70.17211641040836
 20
-133.0054904181375
 30
0.0
 10
70.29476180968325
 20
-133.0054904181375
 30
0.0
 10
70.41327309437585
 20
-132.9338324320443
 30
0.0
 10
70.41327309437585
 20
-132.7560655050054
 30
0.0
 10
70.41327309437585
 20
-132.5782985779665
 30
0.0
 10
70.29476180968325
 20
-132.5062960823248
 30
0.0
 10
70.17211641040836
 20
-132.5062960823248
 30
0.0
 10
70.03672415783804
 20
-132.5062960823248
 30
0.0
 10
69.94163952244514
 20
-132.5931124885531
 30
0.0
 10
69.94163952244514
 20
-132.7560655050054
 30
0.0
  0
SPLINE
  5
85
330
7D
100
AcDbEntity
  8
_U+30EC_U+30A4_U+30E4_U+30FC 1
370
     0
100
AcDbSpline
210
0.0
220
0.0
230
1.0
 70
    11
 71
     3
 72
    17
 73
    13
 74
     0
 42
0.0000000001
 43
0.0000000001
 12
1.0
 22
0.0
 32
0.0
 13
1.0
 23
0.0
 33
0.0
 40
0.0
 40
0.0
 40
0.0
 40
0.0
 40
1.0
 40
1.0
 40
1.0
 40
2.0
 40
2.0
 40
2.0
 40
3.0
 40
3.0
 40
3.0
 40
4.0
 40
4.0
 40
4.0
 40
4.0
 10
70.60171981741902
 20
-132.7560655050054
 30
0.0
 10
70.60171981741902
 20
-132.8997259867403
 30
0.0
 10
70.68853622364732
 20
-133.0523437167369
 30
0.0
 10
70.89145234772853
 20
-133.0523437167369
 30
0.0
 10
71.09678003864941
 20
-133.0523437167369
 30
0.0
 10
71.19806584591576
 20
-132.9252196933312
 30
0.0
 10
71.19806584591576
 20
-132.7560655050054
 30
0.0
 10
71.19806584591576
 20
-132.5700303488019
 30
0.0
 10
71.07542044664088
 20
-132.459787293274
 30
0.0
 10
70.89765351960197
 20
-132.459787293274
 30
0.0
 10
70.6757893703519
 20
-132.459787293274
 30
0.0
 10
70.60171981741902
 20
-132.6227403097263
 30
0.0
 10
70.60171981741902
 20
-132.7560655050054
 30
0.0
  0
HATCH
  5
86
330
7D
100
AcDbEntity
  8
_U+30EC_U+30A4_U+30E4_U+30FC 1
 62
   179
420
  2234388
100
AcDbHatch
 10
0.0
 20
0.0
 30
0.0
210
0.0
220
0.0
230
1.0
  2
SOLID
 70
     1
 71
     0
 91
        3
 92
        1
 93
        1
 72
     4
 94
        3
 73
     0
 74
     1
 95
       29
 96
       25
 40
0.0
 40
0.0
 40
0.0
 40
0.0
 40
1.0
 40
1.0
 40
1.0
 40
2.0
 40
2.0
 40
2.0
 40
3.0
 40
3.0
 40
3.0
 40
4.0
 40
4.0
 40
4.0
 40
5.0
 40
5.0
 40
5.0
 40
6.0
 40
6.0
 40
6.0
 40
7.0
 40
7.0
 40
7.0
 40
8.0
 40
8.0
 40
8.0
 40
8.0
 10
71.39271374083238
 20
-132.7560655050054
 10
71.39271374083238
 20
-133.0227158955638
 10
71.25525443097091
 20
-133.2762749232782
 10
70.9062662583151
 20
-133.2762749232782
 10
70.65029566376104
 20
-133.2762749232782
 10
70.55521102836815
 20
-133.1346814988344
 10
70.49388832873069
 20
-133.0289170674372
 10
70.4346326863844
 20
-133.1536295240033
 10
70.3202555162741
 20
-133.2297661342273
 10
70.15936955711294
 20
-133.2297661342273
 10
69.88445093739
 20
-133.2297661342273
 10
69.74905868481969
 20
-133.0309841247284
 10
69.74905868481969
 20
-132.7560655050054
 10
69.74905868481969
 20
-132.4725341465694
 10
69.89306367610313
 20
-132.2820203662351
 10
70.15936955711294
 20
-132.2820203662351
 10
70.3202555162741
 20
-132.2820203662351
 10
70.4346326863844
 20
-132.3605685432987
 10
70.49388832873069
 20
-132.4852809998648
 10
70.54453123236387
 20
-132.3963975363453
 10
70.63961586775676
 20
-132.2375786344753
 10
70.9021321437328
 20
-132.2375786344753
 10
71.27661402297946
 20
-132.2375786344753
 10
71.39271374083238
 20
-132.5169758783291
 10
71.39271374083238
 20
-132.7560655050054
 97
        0
 97
        0
 92
        1
 93
        1
 72
     4
 94
        3
 73
     0
 74
     1
 95
       17
 96
       13
 40
0.0
 40
0.0
 40
0.0
 40
0.0
 40
1.0
 40
1.0
 40
1.0
 40
2.0
 40
2.0
 40
2.0
 40
3.0
 40
3.0
 40
3.0
 40
4.0
 40
4.0
 40
4.0
 40
4.0
 10
69.94163952244514
 20
-132.7560655050054
 10
69.94163952244514
 20
-132.9210855787489
 10
70.03672415783804
 20
-133.0054904181375
 10
70.17211641040836
 20
-133.0054904181375
 10
70.29476180968325
 20
-133.0054904181375
 10
70.41327309437585
 20
-132.9338324320443
 10
70.41327309437585
 20
-132.7560655050054
 10
70.41327309437585
 20
-132.5782985779665
 10
70.29476180968325
 20
-132.5062960823248
 10
70.17211641040836
 20
-132.5062960823248
 10
70.03672415783804
 20
-132.5062960823248
 10
69.94163952244514
 20
-132.5931124885531
 10
69.94163952244514
 20
-132.7560655050054
 97
        0
 97
        0
 92
        1
 93
        1
 72
     4
 94
        3
 73
     0
 74
     1
 95
       17
 96
       13
 40
0.0
 40
0.0
 40
0.0
 40
0.0
 40
1.0
 40
1.0
 40
1.0
 40
2.0
 40
2.0
 40
2.0
 40
3.0
 40
3.0
 40
3.0
 40
4.0
 40
4.0
 40
4.0
 40
4.0
 10
70.60171981741902
 20
-132.7560655050054
 10
70.60171981741902
 20
-132.8997259867403
 10
70.68853622364732
 20
-133.0523437167369
 10
70.89145234772853
 20
-133.0523437167369
 10
71.09678003864941
 20
-133.0523437167369
 10
71.19806584591576
 20
-132.9252196933312
 10
71.19806584591576
 20
-132.7560655050054
 10
71.19806584591576
 20
-132.5700303488019
 10
71.07542044664088
 20
-132.459787293274
 10
70.89765351960197
 20
-132.459787293274
 10
70.6757893703519
 20
-132.459787293274
 10
70.60171981741902
 20
-132.6227403097263
 10
70.60171981741902
 20
-132.7560655050054
 97
        0
 97
        0
 75
     2
 76
     1
 98
        0
  0
ENDBLK
  5
80
330
7D
100
AcDbEntity
  8
0
100
AcDbBlockEnd
  0
BLOCK
  5
8B
330
89
100
AcDbEntity
  8
0
100
AcDbBlockBegin
  2
block 4
 70
     0
 10
0.0
 20
0.0
 30
0.0
  3
block 4
  1

  0
SPLINE
  5
8D
330
89
100
AcDbEntity
  8
_U+30EC_U+30A4_U+30E4_U+30FC 1
370
     0
100
AcDbSpline
210
0.0
220
0.0
230
1.0
 70
    11
 71
     3
 72
    32
 73
    28
 74
     0
 42
0.0000000001
 43
0.0000000001
 12
1.0
 22
0.0
 32
0.0
 13
1.0
 23
0.0
 33
0.0
 40
0.0
 40
0.0
 40
0.0
 40
0.0
 40
1.0
 40
1.0
 40
1.0
 40
2.0
 40
2.0
 40
2.0
 40
3.0
 40
3.0
 40
3.0
 40
4.0
 40
4.0
 40
4.0
 40
5.0
 40
5.0
 40
5.0
 40
6.0
 40
6.0
 40
6.0
 40
7.0
 40
7.0
 40
7.0
 40
8.0
 40
8.0
 40
8.0
 40
9.0
 40
9.0
 40
9.0
 40
9.0
 10
112.0234808747719
 20
-127.0881944126724
 30
0.0
 10
112.0234808747719
 20
-127.6042697163628
 30
0.0
 10
111.4695095207437
 20
-127.6125379455274
 30
0.0
 10
111.2555690911097
 20
-127.6125379455274
 30
0.0
 10
111.0250922031465
 20
-127.6125379455274
 30
0.0
 10
110.3777587614681
 20
-127.5935899203586
 30
0.0
 10
110.3777587614681
 20
-127.0499538527861
 30
0.0
 10
110.3777587614681
 20
-126.8766655498781
 30
0.0
 10
110.4476941998186
 20
-126.6310302417798
 30
0.0
 10
110.7798014045967
 20
-126.593134191442
 30
0.0
 10
110.7798014045967
 20
-126.593134191442
 30
0.0
 10
110.7798014045967
 20
-126.8067301115275
 30
0.0
 10
110.7798014045967
 20
-126.8067301115275
 30
0.0
 10
110.7226128195416
 20
-126.8174099075318
 30
0.0
 10
110.5744737136758
 20
-126.8491047859961
 30
0.0
 10
110.5744737136758
 20
-127.0520209100773
 30
0.0
 10
110.5744737136758
 20
-127.3441650072265
 30
0.0
 10
110.9024468038716
 20
-127.3841281148554
 30
0.0
 10
111.107429985244
 20
-127.3968749681508
 30
0.0
 10
111.0292263177288
 20
-127.303857390049
 30
0.0
 10
110.9699706753825
 20
-127.2359890089896
 30
0.0
 10
110.9699706753825
 20
-127.0540879673684
 30
0.0
 10
110.9699706753825
 20
-126.8742539830384
 30
0.0
 10
111.0781466736194
 20
-126.5717745994335
 30
0.0
 10
111.4843234313303
 20
-126.5717745994335
 30
0.0
 10
111.803683782813
 20
-126.5717745994335
 30
0.0
 10
112.0234808747719
 20
-126.7709011184809
 30
0.0
 10
112.0234808747719
 20
-127.0881944126724
 30
0.0
  0
SPLINE
  5
8E
330
89
100
AcDbEntity
  8
_U+30EC_U+30A4_U+30E4_U+30FC 1
370
     0
100
AcDbSpline
210
0.0
220
0.0
230
1.0
 70
    11
 71
     3
 72
    17
 73
    13
 74
     0
 42
0.0000000001
 43
0.0000000001
 12
1.0
 22
0.0
 32
0.0
 13
1.0
 23
0.0
 33
0.0
 40
0.0
 40
0.0
 40
0.0
 40
0.0
 40
1.0
 40
1.0
 40
1.0
 40
2.0
 40
2.0
 40
2.0
 40
3.0
 40
3.0
 40
3.0
 40
4.0
 40
4.0
 40
4.0
 40
4.0
 10
111.1646185702991
 20
-127.0709689352462
 30
0.0
 10
111.1646185702991
 20
-127.3334852112222
 30
0.0
 10
111.3761474330935
 20
-127.3713812615599
 30
0.0
 10
111.4925916604949
 20
-127.3713812615599
 30
0.0
 10
111.6682915302427
 20
-127.3713812615599
 30
0.0
 10
111.831244546695
 20
-127.276296626167
 30
0.0
 10
111.831244546695
 20
-127.0923285272547
 30
0.0
 10
111.831244546695
 20
-126.971750185271
 30
0.0
 10
111.7719889043487
 20
-126.7960503155232
 30
0.0
 10
111.4863904886215
 20
-126.7960503155232
 30
0.0
 10
111.2621147725317
 20
-126.7960503155232
 30
0.0
 10
111.1646185702991
 20
-126.9359211922244
 30
0.0
 10
111.1646185702991
 20
-127.0709689352462
 30
0.0
  0
HATCH
  5
8F
330
89
100
AcDbEntity
  8
_U+30EC_U+30A4_U+30E4_U+30FC 1
 62
   179
420
  2234388
100
AcDbHatch
 10
0.0
 20
0.0
 30
0.0
210
0.0
220
0.0
230
1.0
  2
SOLID
 70
     1
 71
     0
 91
        2
 92
        1
 93
        1
 72
     4
 94
        3
 73
     0
 74
     1
 95
       32
 96
       28
 40
0.0
 40
0.0
 40
0.0
 40
0.0
 40
1.0
 40
1.0
 40
1.0
 40
2.0
 40
2.0
 40
2.0
 40
3.0
 40
3.0
 40
3.0
 40
4.0
 40
4.0
 40
4.0
 40
5.0
 40
5.0
 40
5.0
 40
6.0
 40
6.0
 40
6.0
 40
7.0
 40
7.0
 40
7.0
 40
8.0
 40
8.0
 40
8.0
 40
9.0
 40
9.0
 40
9.0
 40
9.0
 10
112.0234808747719
 20
-127.0881944126724
 10
112.0234808747719
 20
-127.6042697163628
 10
111.4695095207437
 20
-127.6125379455274
 10
111.2555690911097
 20
-127.6125379455274
 10
111.0250922031465
 20
-127.6125379455274
 10
110.3777587614681
 20
-127.5935899203586
 10
110.3777587614681
 20
-127.0499538527861
 10
110.3777587614681
 20
-126.8766655498781
 10
110.4476941998186
 20
-126.6310302417798
 10
110.7798014045967
 20
-126.593134191442
 10
110.7798014045967
 20
-126.593134191442
 10
110.7798014045967
 20
-126.8067301115275
 10
110.7798014045967
 20
-126.8067301115275
 10
110.7226128195416
 20
-126.8174099075318
 10
110.5744737136758
 20
-126.8491047859961
 10
110.5744737136758
 20
-127.0520209100773
 10
110.5744737136758
 20
-127.3441650072265
 10
110.9024468038716
 20
-127.3841281148554
 10
111.107429985244
 20
-127.3968749681508
 10
111.0292263177288
 20
-127.303857390049
 10
110.9699706753825
 20
-127.2359890089896
 10
110.9699706753825
 20
-127.0540879673684
 10
110.9699706753825
 20
-126.8742539830384
 10
111.0781466736194
 20
-126.5717745994335
 10
111.4843234313303
 20
-126.5717745994335
 10
111.803683782813
 20
-126.5717745994335
 10
112.0234808747719
 20
-126.7709011184809
 10
112.0234808747719
 20
-127.0881944126724
 97
        0
 97
        0
 92
        1
 93
        1
 72
     4
 94
        3
 73
     0
 74
     1
 95
       17
 96
       13
 40
0.0
 40
0.0
 40
0.0
 40
0.0
 40
1.0
 40
1.0
 40
1.0
 40
2.0
 40
2.0
 40
2.0
 40
3.0
 40
3.0
 40
3.0
 40
4.0
 40
4.0
 40
4.0
 40
4.0
 10
111.1646185702991
 20
-127.0709689352462
 10
111.1646185702991
 20
-127.3334852112222
 10
111.3761474330935
 20
-127.3713812615599
 10
111.4925916604949
 20
-127.3713812615599
 10
111.6682915302427
 20
-127.3713812615599
 10
111.831244546695
 20
-127.276296626167
 10
111.831244546695
 20
-127.0923285272547
 10
111.831244546695
 20
-126.971750185271
 10
111.7719889043487
 20
-126.7960503155232
 10
111.4863904886215
 20
-126.7960503155232
 10
111.2621147725317
 20
-126.7960503155232
 10
111.1646185702991
 20
-126.9359211922244
 10
111.1646185702991
 20
-127.0709689352462
 97
        0
 97
        0
 75
     2
 76
     1
 98
        0
  0
POLYLINE
  5
90
330
89
100
AcDbEntity
  8
_U+30EC_U+30A4_U+30E4_U+30FC 1
370
     0
100
AcDb2dPolyline
 66
     1
 10
0.0
 20
0.0
 30
0.0
  0
VERTEX
  5
91
330
90
100
AcDbEntity
  8
_U+30EC_U+30A4_U+30E4_U+30FC 1
370
     0
100
AcDbVertex
100
AcDb2dVertex
 10
111.9728379711387
 20
-126.3554226029598
 30
0.0
  0
VERTEX
  5
92
330
90
100
AcDbEntity
  8
_U+30EC_U+30A4_U+30E4_U+30FC 1
370
     0
100
AcDbVertex
100
AcDb2dVertex
 10
111.721001491167
 20
-126.3554226029598
 30
0.0
  0
VERTEX
  5
93
330
90
100
AcDbEntity
  8
_U+30EC_U+30A4_U+30E4_U+30FC 1
370
     0
100
AcDbVertex
100
AcDb2dVertex
 10
111.721001491167
 20
-126.103586122988
 30
0.0
  0
VERTEX
  5
94
330
90
100
AcDbEntity
  8
_U+30EC_U+30A4_U+30E4_U+30FC 1
370
     0
100
AcDbVertex
100
AcDb2dVertex
 10
111.9728379711387
 20
-126.103586122988
 30
0.0
  0
VERTEX
  5
95
330
90
100
AcDbEntity
  8
_U+30EC_U+30A4_U+30E4_U+30FC 1
370
     0
100
AcDbVertex
100
AcDb2dVertex
 10
111.9728379711387
 20
-126.3554226029598
 30
0.0
  0
SEQEND
  5
96
330
90
100
AcDbEntity
  8
_U+30EC_U+30A4_U+30E4_U+30FC 1
370
     0
  0
HATCH
  5
97
330
89
100
AcDbEntity
  8
_U+30EC_U+30A4_U+30E4_U+30FC 1
 62
   179
420
  2234388
100
AcDbHatch
 10
0.0
 20
0.0
 30
0.0
210
0.0
220
0.0
230
1.0
  2
SOLID
 70
     1
 71
     0
 91
        1
 92
        1
 93
        4
 72
     1
 10
111.9728379711387
 20
-126.3554226029598
 11
111.721001491167
 21
-126.3554226029598
 72
     1
 10
111.721001491167
 20
-126.3554226029598
 11
111.721001491167
 21
-126.103586122988
 72
     1
 10
111.721001491167
 20
-126.103586122988
 11
111.9728379711387
 21
-126.103586122988
 72
     1
 10
111.9728379711387
 20
-126.103586122988
 11
111.9728379711387
 21
-126.3554226029598
 97
        0
 75
     2
 76
     1
 98
        0
  0
SPLINE
  5
98
330
89
100
AcDbEntity
  8
_U+30EC_U+30A4_U+30E4_U+30FC 1
370
     0
100
AcDbSpline
210
0.0
220
0.0
230
1.0
 70
    11
 71
     3
 72
    32
 73
    28
 74
     0
 42
0.0000000001
 43
0.0000000001
 12
1.0
 22
0.0
 32
0.0
 13
1.0
 23
0.0
 33
0.0
 40
0.0
 40
0.0
 40
0.0
 40
0.0
 40
1.0
 40
1.0
 40
1.0
 40
2.0
 40
2.0
 40
2.0
 40
3.0
 40
3.0
 40
3.0
 40
4.0
 40
4.0
 40
4.0
 40
5.0
 40
5.0
 40
5.0
 40
6.0
 40
6.0
 40
6.0
 40
7.0
 40
7.0
 40
7.0
 40
8.0
 40
8.0
 40
8.0
 40
9.0
 40
9.0
 40
9.0
 40
9.0
 10
112.0234808747719
 20
-125.3632351032078
 30
0.0
 10
112.0234808747719
 20
-125.8793104068982
 30
0.0
 10
111.4695095207437
 20
-125.8879231456114
 30
0.0
 10
111.2555690911097
 20
-125.8879231456114
 30
0.0
 10
111.0250922031465
 20
-125.8879231456114
 30
0.0
 10
110.3777587614681
 20
-125.868630610894
 30
0.0
 10
110.3777587614681
 20
-125.3249945433215
 30
0.0
 10
110.3777587614681
 20
-125.1517062404135
 30
0.0
 10
110.4476941998186
 20
-124.9060709323152
 30
0.0
 10
110.7798014045967
 20
-124.8681748819774
 30
0.0
 10
110.7798014045967
 20
-124.8681748819774
 30
0.0
 10
110.7798014045967
 20
-125.0817708020629
 30
0.0
 10
110.7798014045967
 20
-125.0817708020629
 30
0.0
 10
110.7226128195416
 20
-125.0924505980672
 30
0.0
 10
110.5744737136758
 20
-125.1241454765315
 30
0.0
 10
110.5744737136758
 20
-125.3270616006127
 30
0.0
 10
110.5744737136758
 20
-125.6192056977619
 30
0.0
 10
110.9024468038716
 20
-125.6591688053908
 30
0.0
 10
111.107429985244
 20
-125.6719156586862
 30
0.0
 10
111.0292263177288
 20
-125.5788980805845
 30
0.0
 10
110.9699706753825
 20
-125.511029699525
 30
0.0
 10
110.9699706753825
 20
-125.3291286579038
 30
0.0
 10
110.9699706753825
 20
-125.1492946735738
 30
0.0
 10
111.0781466736194
 20
-124.8468152899689
 30
0.0
 10
111.4843234313303
 20
-124.8468152899689
 30
0.0
 10
111.803683782813
 20
-124.8468152899689
 30
0.0
 10
112.0234808747719
 20
-125.0459418090163
 30
0.0
 10
112.0234808747719
 20
-125.3632351032078
 30
0.0
  0
SPLINE
  5
99
330
89
100
AcDbEntity
  8
_U+30EC_U+30A4_U+30E4_U+30FC 1
370
     0
100
AcDbSpline
210
0.0
220
0.0
230
1.0
 70
    11
 71
     3
 72
    17
 73
    13
 74
     0
 42
0.0000000001
 43
0.0000000001
 12
1.0
 22
0.0
 32
0.0
 13
1.0
 23
0.0
 33
0.0
 40
0.0
 40
0.0
 40
0.0
 40
0.0
 40
1.0
 40
1.0
 40
1.0
 40
2.0
 40
2.0
 40
2.0
 40
3.0
 40
3.0
 40
3.0
 40
4.0
 40
4.0
 40
4.0
 40
4.0
 10
111.1646185702991
 20
-125.3463541353301
 30
0.0
 10
111.1646185702991
 20
-125.6085259017576
 30
0.0
 10
111.3761474330935
 20
-125.6464219520953
 30
0.0
 10
111.4925916604949
 20
-125.6464219520953
 30
0.0
 10
111.6682915302427
 20
-125.6464219520953
 30
0.0
 10
111.831244546695
 20
-125.5513373167024
 30
0.0
 10
111.831244546695
 20
-125.3673692177901
 30
0.0
 10
111.831244546695
 20
-125.2467908758064
 30
0.0
 10
111.7719889043487
 20
-125.0710910060586
 30
0.0
 10
111.4863904886215
 20
-125.0710910060586
 30
0.0
 10
111.2621147725317
 20
-125.0710910060586
 30
0.0
 10
111.1646185702991
 20
-125.2106173732112
 30
0.0
 10
111.1646185702991
 20
-125.3463541353301
 30
0.0
  0
HATCH
  5
9A
330
89
100
AcDbEntity
  8
_U+30EC_U+30A4_U+30E4_U+30FC 1
 62
   179
420
  2234388
100
AcDbHatch
 10
0.0
 20
0.0
 30
0.0
210
0.0
220
0.0
230
1.0
  2
SOLID
 70
     1
 71
     0
 91
        2
 92
        1
 93
        1
 72
     4
 94
        3
 73
     0
 74
     1
 95
       32
 96
       28
 40
0.0
 40
0.0
 40
0.0
 40
0.0
 40
1.0
 40
1.0
 40
1.0
 40
2.0
 40
2.0
 40
2.0
 40
3.0
 40
3.0
 40
3.0
 40
4.0
 40
4.0
 40
4.0
 40
5.0
 40
5.0
 40
5.0
 40
6.0
 40
6.0
 40
6.0
 40
7.0
 40
7.0
 40
7.0
 40
8.0
 40
8.0
 40
8.0
 40
9.0
 40
9.0
 40
9.0
 40
9.0
 10
112.0234808747719
 20
-125.3632351032078
 10
112.0234808747719
 20
-125.8793104068982
 10
111.4695095207437
 20
-125.8879231456114
 10
111.2555690911097
 20
-125.8879231456114
 10
111.0250922031465
 20
-125.8879231456114
 10
110.3777587614681
 20
-125.868630610894
 10
110.3777587614681
 20
-125.3249945433215
 10
110.3777587614681
 20
-125.1517062404135
 10
110.4476941998186
 20
-124.9060709323152
 10
110.7798014045967
 20
-124.8681748819774
 10
110.7798014045967
 20
-124.8681748819774
 10
110.7798014045967
 20
-125.0817708020629
 10
110.7798014045967
 20
-125.0817708020629
 10
110.7226128195416
 20
-125.0924505980672
 10
110.5744737136758
 20
-125.1241454765315
 10
110.5744737136758
 20
-125.3270616006127
 10
110.5744737136758
 20
-125.6192056977619
 10
110.9024468038716
 20
-125.6591688053908
 10
111.107429985244
 20
-125.6719156586862
 10
111.0292263177288
 20
-125.5788980805845
 10
110.9699706753825
 20
-125.511029699525
 10
110.9699706753825
 20
-125.3291286579038
 10
110.9699706753825
 20
-125.1492946735738
 10
111.0781466736194
 20
-124.8468152899689
 10
111.4843234313303
 20
-124.8468152899689
 10
111.803683782813
 20
-124.8468152899689
 10
112.0234808747719
 20
-125.0459418090163
 10
112.0234808747719
 20
-125.3632351032078
 97
        0
 97
        0
 92
        1
 93
        1
 72
     4
 94
        3
 73
     0
 74
     1
 95
       17
 96
       13
 40
0.0
 40
0.0
 40
0.0
 40
0.0
 40
1.0
 40
1.0
 40
1.0
 40
2.0
 40
2.0
 40
2.0
 40
3.0
 40
3.0
 40
3.0
 40
4.0
 40
4.0
 40
4.0
 40
4.0
 10
111.1646185702991
 20
-125.3463541353301
 10
111.1646185702991
 20
-125.6085259017576
 10
111.3761474330935
 20
-125.6464219520953
 10
111.4925916604949
 20
-125.6464219520953
 10
111.6682915302427
 20
-125.6464219520953
 10
111.831244546695
 20
-125.5513373167024
 10
111.831244546695
 20
-125.3673692177901
 10
111.831244546695
 20
-125.2467908758064
 10
111.7719889043487
 20
-125.0710910060586
 10
111.4863904886215
 20
-125.0710910060586
 10
111.2621147725317
 20
-125.0710910060586
 10
111.1646185702991
 20
-125.2106173732112
 10
111.1646185702991
 20
-125.3463541353301
 97
        0
 97
        0
 75
     2
 76
     1
 98
        0
  0
ENDBLK
  5
8C
330
89
100
AcDbEntity
  8
0
100
AcDbBlockEnd
  0
ENDSEC
  0
SECTION
  2
ENTITIES
  0
SPLINE
  5
41
330
1F
100
AcDbEntity
  8
_U+30EC_U+30A4_U+30E4_U+30FC 1
 62
     7
420
 16777215
370
    25
100
AcDbSpline
210
0.0
220
0.0
230
1.0
 70
    11
 71
     3
 72
    95
 73
    91
 74
     0
 42
0.0000000001
 43
0.0000000001
 12
1.0
 22
0.0
 32
0.0
 13
1.0
 23
0.0
 33
0.0
 40
0.0
 40
0.0
 40
0.0
 40
0.0
 40
1.0
 40
1.0
 40
1.0
 40
2.0
 40
2.0
 40
2.0
 40
3.0
 40
3.0
 40
3.0
 40
4.0
 40
4.0
 40
4.0
 40
5.0
 40
5.0
 40
5.0
 40
6.0
 40
6.0
 40
6.0
 40
7.0
 40
7.0
 40
7.0
 40
8.0
 40
8.0
 40
8.0
 40
9.0
 40
9.0
 40
9.0
 40
10.0
 40
10.0
 40
10.0
 40
11.0
 40
11.0
 40
11.0
 40
12.0
 40
12.0
 40
12.0
 40
13.0
 40
13.0
 40
13.0
 40
14.0
 40
14.0
 40
14.0
 40
15.0
 40
15.0
 40
15.0
 40
16.0
 40
16.0
 40
16.0
 40
17.0
 40
17.0
 40
17.0
 40
18.0
 40
18.0
 40
18.0
 40
19.0
 40
19.0
 40
19.0
 40
20.0
 40
20.0
 40
20.0
 40
21.0
 40
21.0
 40
21.0
 40
22.0
 40
22.0
 40
22.0
 40
23.0
 40
23.0
 40
23.0
 40
24.0
 40
24.0
 40
24.0
 40
25.0
 40
25.0
 40
25.0
 40
26.0
 40
26.0
 40
26.0
 40
27.0
 40
27.0
 40
27.0
 40
28.0
 40
28.0
 40
28.0
 40
29.0
 40
29.0
 40
29.0
 40
30.0
 40
30.0
 40
30.0
 40
30.0
 10
76.42891555013593
 20
-124.1801766356217
 30
0.0
 10
76.42891555013593
 20
-124.1801766356217
 30
0.0
 10
75.19556919271231
 20
-123.5442241357806
 30
0.0
 10
76.46715666027141
 20
-123.0484655247936
 30
0.0
 10
76.46715666027141
 20
-123.0484655247936
 30
0.0
 10
77.89135579060374
 20
-123.0484655247936
 30
0.0
 10
77.89135579060374
 20
-123.0484655247936
 30
0.0
 10
77.89135579060374
 20
-123.0484655247936
 30
0.0
 10
81.0830773758428
 20
-123.0484655247936
 30
0.0
 10
81.0830773758428
 20
-123.0484655247936
 30
0.0
 10
81.0830773758428
 20
-123.0484655247936
 30
0.0
 10
81.97310040869198
 20
-123.1118596914443
 30
0.0
 10
82.06217679530835
 20
-123.6207063579837
 30
0.0
 10
82.06217679530835
 20
-123.6207063579837
 30
0.0
 10
82.2018767917443
 20
-124.0403355245453
 30
0.0
 10
82.74878816668031
 20
-124.0403355245453
 30
0.0
 10
82.74878816668031
 20
-124.0403355245453
 30
0.0
 10
86.9323444488378
 20
-124.0403355245453
 30
0.0
 10
86.9323444488378
 20
-124.0403355245453
 30
0.0
 10
86.9323444488378
 20
-124.0403355245453
 30
0.0
 10
87.54279109993067
 20
-123.9765885801169
 30
0.0
 10
87.65719693034526
 20
-123.4808299691299
 30
0.0
 10
87.65719693034526
 20
-123.4808299691299
 30
0.0
 10
87.83510275913984
 20
-123.0863891358949
 30
0.0
 10
88.54722220008541
 20
-123.0991244136696
 30
0.0
 10
88.54722220008541
 20
-123.0991244136696
 30
0.0
 10
92.47670569627824
 20
-123.124594969219
 30
0.0
 10
92.47670569627824
 20
-123.124594969219
 30
0.0
 10
92.47670569627824
 20
-123.124594969219
 30
0.0
 10
93.4936934481105
 20
-123.2393183025234
 30
0.0
 10
93.55708761315985
 20
-123.8622180245899
 30
0.0
 10
93.55708761315985
 20
-123.8622180245899
 30
0.0
 10
93.77344621875119
 20
-124.167441357847
 30
0.0
 10
94.11691065443313
 20
-124.167441357847
 30
0.0
 10
94.11691065443313
 20
-124.167441357847
 30
0.0
 10
98.35126941985637
 20
-124.116464968971
 30
0.0
 10
98.35126941985637
 20
-124.116464968971
 30
0.0
 10
98.35126941985637
 20
-124.116464968971
 30
0.0
 10
98.97413136384843
 20
-124.116464968971
 30
0.0
 10
98.99963719653105
 20
-123.6713652468601
 30
0.0
 10
98.99963719653105
 20
-123.6713652468601
 30
0.0
 10
99.16533691452592
 20
-123.0229949692442
 30
0.0
 10
99.95358608612291
 20
-123.0229949692442
 30
0.0
 10
99.95358608612291
 20
-123.0229949692442
 30
0.0
 10
107.7481025288947
 20
-123.1118596914443
 30
0.0
 10
107.7481025288947
 20
-123.1118596914443
 30
0.0
 10
107.7481025288947
 20
-123.1118596914443
 30
0.0
 10
108.4095608453528
 20
-123.0229949692442
 30
0.0
 10
108.4095608453528
 20
-123.5569594135553
 30
0.0
 10
108.4095608453528
 20
-123.5569594135553
 30
0.0
 10
108.1932375175383
 20
-126.4818752461572
 30
0.0
 10
107.3922203157518
 20
-126.6344869127857
 30
0.0
 10
107.3922203157518
 20
-126.6344869127857
 30
0.0
 10
106.8837264398356
 20
-126.3798871906271
 30
0.0
 10
106.8075969973334
 20
-126.2655166351002
 30
0.0
 10
106.8075969973334
 20
-126.2655166351002
 30
0.0
 10
102.3565293331118
 20
-124.498170524431
 30
0.0
 10
102.3565293331118
 20
-124.498170524431
 30
0.0
 10
102.3565293331118
 20
-124.498170524431
 30
0.0
 10
101.987911842516
 20
-124.6253116355105
 30
0.0
 10
102.153294060519
 20
-125.388052468653
 30
0.0
 10
102.153294060519
 20
-125.388052468653
 30
0.0
 10
102.496408307709
 20
-126.8122516349637
 30
0.0
 10
104.2258634520878
 20
-127.2573513570747
 30
0.0
 10
104.2258634520878
 20
-127.2573513570747
 30
0.0
 10
105.1925450940924
 20
-127.1433335793252
 30
0.0
 10
105.0271628760894
 20
-127.906074412468
 30
0.0
 10
105.0271628760894
 20
-127.906074412468
 30
0.0
 10
104.7980689930452
 20
-128.1985624679504
 30
0.0
 10
104.1369634543558
 20
-128.1603213568488
 30
0.0
 10
104.1369634543558
 20
-128.1603213568488
 30
0.0
 10
99.49574857276309
 20
-128.1603213568488
 30
0.0
 10
99.49574857276309
 20
-128.1603213568488
 30
0.0
 10
99.49574857276309
 20
-128.1603213568488
 30
0.0
 10
88.95407856392572
 20
-128.1220802457472
 30
0.0
 10
88.95407856392572
 20
-128.1220802457472
 30
0.0
 10
88.95407856392572
 20
-128.1220802457472
 30
0.0
 10
76.58138610180163
 20
-128.1730566346235
 30
0.0
 10
76.58138610180163
 20
-128.1730566346235
 30
0.0
 10
76.58138610180163
 20
-128.1730566346235
 30
0.0
 10
75.61484557090458
 20
-127.6135863569856
 30
0.0
 10
76.6829860992096
 20
-126.8632280238397
 30
0.0
 10
76.6829860992096
 20
-126.8632280238397
 30
0.0
 10
78.22159105995651
 20
-126.3926224684018
 30
0.0
 10
78.22159105995651
 20
-125.2481760797991
 30
0.0
 10
78.22159105995651
 20
-125.2481760797991
 30
0.0
 10
77.86553245792922
 20
-124.1292002467454
 30
0.0
 10
77.31879747187759
 20
-124.0909591356438
 30
0.0
 10
77.31879747187759
 20
-124.0909591356438
 30
0.0
 10
76.42891555013593
 20
-124.1801766356217
 30
0.0
 10
76.42891555013593
 20
-124.1801766356217
 30
0.0
  0
HATCH
  5
42
330
1F
100
AcDbEntity
  8
_U+30EC_U+30A4_U+30E4_U+30FC 1
 62
    27
420
  6572606
100
AcDbHatch
 10
0.0
 20
0.0
 30
0.0
210
0.0
220
0.0
230
1.0
  2
SOLID
 70
     1
 71
     0
 91
        1
 92
        1
 93
        1
 72
     4
 94
        3
 73
     0
 74
     1
 95
       95
 96
       91
 40
0.0
 40
0.0
 40
0.0
 40
0.0
 40
1.0
 40
1.0
 40
1.0
 40
2.0
 40
2.0
 40
2.0
 40
3.0
 40
3.0
 40
3.0
 40
4.0
 40
4.0
 40
4.0
 40
5.0
 40
5.0
 40
5.0
 40
6.0
 40
6.0
 40
6.0
 40
7.0
 40
7.0
 40
7.0
 40
8.0
 40
8.0
 40
8.0
 40
9.0
 40
9.0
 40
9.0
 40
10.0
 40
10.0
 40
10.0
 40
11.0
 40
11.0
 40
11.0
 40
12.0
 40
12.0
 40
12.0
 40
13.0
 40
13.0
 40
13.0
 40
14.0
 40
14.0
 40
14.0
 40
15.0
 40
15.0
 40
15.0
 40
16.0
 40
16.0
 40
16.0
 40
17.0
 40
17.0
 40
17.0
 40
18.0
 40
18.0
 40
18.0
 40
19.0
 40
19.0
 40
19.0
 40
20.0
 40
20.0
 40
20.0
 40
21.0
 40
21.0
 40
21.0
 40
22.0
 40
22.0
 40
22.0
 40
23.0
 40
23.0
 40
23.0
 40
24.0
 40
24.0
 40
24.0
 40
25.0
 40
25.0
 40
25.0
 40
26.0
 40
26.0
 40
26.0
 40
27.0
 40
27.0
 40
27.0
 40
28.0
 40
28.0
 40
28.0
 40
29.0
 40
29.0
 40
29.0
 40
30.0
 40
30.0
 40
30.0
 40
30.0
 10
76.42891555013593
 20
-124.1801766356217
 10
76.42891555013593
 20
-124.1801766356217
 10
75.19556919271231
 20
-123.5442241357806
 10
76.46715666027141
 20
-123.0484655247936
 10
76.46715666027141
 20
-123.0484655247936
 10
77.89135579060374
 20
-123.0484655247936
 10
77.89135579060374
 20
-123.0484655247936
 10
77.89135579060374
 20
-123.0484655247936
 10
81.0830773758428
 20
-123.0484655247936
 10
81.0830773758428
 20
-123.0484655247936
 10
81.0830773758428
 20
-123.0484655247936
 10
81.97310040869198
 20
-123.1118596914443
 10
82.06217679530835
 20
-123.6207063579837
 10
82.06217679530835
 20
-123.6207063579837
 10
82.2018767917443
 20
-124.0403355245453
 10
82.74878816668031
 20
-124.0403355245453
 10
82.74878816668031
 20
-124.0403355245453
 10
86.9323444488378
 20
-124.0403355245453
 10
86.9323444488378
 20
-124.0403355245453
 10
86.9323444488378
 20
-124.0403355245453
 10
87.54279109993067
 20
-123.9765885801169
 10
87.65719693034526
 20
-123.4808299691299
 10
87.65719693034526
 20
-123.4808299691299
 10
87.83510275913984
 20
-123.0863891358949
 10
88.54722220008541
 20
-123.0991244136696
 10
88.54722220008541
 20
-123.0991244136696
 10
92.47670569627824
 20
-123.124594969219
 10
92.47670569627824
 20
-123.124594969219
 10
92.47670569627824
 20
-123.124594969219
 10
93.4936934481105
 20
-123.2393183025234
 10
93.55708761315985
 20
-123.8622180245899
 10
93.55708761315985
 20
-123.8622180245899
 10
93.77344621875119
 20
-124.167441357847
 10
94.11691065443313
 20
-124.167441357847
 10
94.11691065443313
 20
-124.167441357847
 10
98.35126941985637
 20
-124.116464968971
 10
98.35126941985637
 20
-124.116464968971
 10
98.35126941985637
 20
-124.116464968971
 10
98.97413136384843
 20
-124.116464968971
 10
98.99963719653105
 20
-123.6713652468601
 10
98.99963719653105
 20
-123.6713652468601
 10
99.16533691452592
 20
-123.0229949692442
 10
99.95358608612291
 20
-123.0229949692442
 10
99.95358608612291
 20
-123.0229949692442
 10
107.7481025288947
 20
-123.1118596914443
 10
107.7481025288947
 20
-123.1118596914443
 10
107.7481025288947
 20
-123.1118596914443
 10
108.4095608453528
 20
-123.0229949692442
 10
108.4095608453528
 20
-123.5569594135553
 10
108.4095608453528
 20
-123.5569594135553
 10
108.1932375175383
 20
-126.4818752461572
 10
107.3922203157518
 20
-126.6344869127857
 10
107.3922203157518
 20
-126.6344869127857
 10
106.8837264398356
 20
-126.3798871906271
 10
106.8075969973334
 20
-126.2655166351002
 10
106.8075969973334
 20
-126.2655166351002
 10
102.3565293331118
 20
-124.498170524431
 10
102.3565293331118
 20
-124.498170524431
 10
102.3565293331118
 20
-124.498170524431
 10
101.987911842516
 20
-124.6253116355105
 10
102.153294060519
 20
-125.388052468653
 10
102.153294060519
 20
-125.388052468653
 10
102.496408307709
 20
-126.8122516349637
 10
104.2258634520878
 20
-127.2573513570747
 10
104.2258634520878
 20
-127.2573513570747
 10
105.1925450940924
 20
-127.1433335793252
 10
105.0271628760894
 20
-127.906074412468
 10
105.0271628760894
 20
-127.906074412468
 10
104.7980689930452
 20
-128.1985624679504
 10
104.1369634543558
 20
-128.1603213568488
 10
104.1369634543558
 20
-128.1603213568488
 10
99.49574857276309
 20
-128.1603213568488
 10
99.49574857276309
 20
-128.1603213568488
 10
99.49574857276309
 20
-128.1603213568488
 10
88.95407856392572
 20
-128.1220802457472
 10
88.95407856392572
 20
-128.1220802457472
 10
88.95407856392572
 20
-128.1220802457472
 10
76.58138610180163
 20
-128.1730566346235
 10
76.58138610180163
 20
-128.1730566346235
 10
76.58138610180163
 20
-128.1730566346235
 10
75.61484557090458
 20
-127.6135863569856
 10
76.6829860992096
 20
-126.8632280238397
 10
76.6829860992096
 20
-126.8632280238397
 10
78.22159105995651
 20
-126.3926224684018
 10
78.22159105995651
 20
-125.2481760797991
 10
78.22159105995651
 20
-125.2481760797991
 10
77.86553245792922
 20
-124.1292002467454
 10
77.31879747187759
 20
-124.0909591356438
 10
77.31879747187759
 20
-124.0909591356438
 10
76.42891555013593
 20
-124.1801766356217
 10
76.42891555013593
 20
-124.1801766356217
 97
        0
 97
        0
 75
     2
 76
     1
 98
        0
  0
SPLINE
  5
43
330
1F
100
AcDbEntity
  8
_U+30EC_U+30A4_U+30E4_U+30FC 1
 62
   179
420
  2234388
370
    25
100
AcDbSpline
210
0.0
220
0.0
230
1.0
 70
    11
 71
     3
 72
    20
 73
    16
 74
     0
 42
0.0000000001
 43
0.0000000001
 12
1.0
 22
0.0
 32
0.0
 13
1.0
 23
0.0
 33
0.0
 40
0.0
 40
0.0
 40
0.0
 40
0.0
 40
1.0
 40
1.0
 40
1.0
 40
2.0
 40
2.0
 40
2.0
 40
3.0
 40
3.0
 40
3.0
 40
4.0
 40
4.0
 40
4.0
 40
5.0
 40
5.0
 40
5.0
 40
5.0
 10
87.83323303696532
 20
-128.0907183013107
 30
0.0
 10
87.83323303696532
 20
-127.4461227459164
 30
0.0
 10
86.54354806986792
 20
-126.9242233016024
 30
0.0
 10
84.9525908882344
 20
-126.9242233016024
 30
0.0
 10
83.36149259549336
 20
-126.9242233016024
 30
0.0
 10
82.07180762839597
 20
-127.4461227459164
 30
0.0
 10
82.07180762839597
 20
-128.0907183013107
 30
0.0
 10
82.07180762839597
 20
-128.0907183013107
 30
0.0
 10
82.09851290549244
 20
-128.8293291344592
 30
0.0
 10
82.09851290549244
 20
-128.8293291344592
 30
0.0
 10
82.09851290549244
 20
-128.8293291344592
 30
0.0
 10
87.8959216464771
 20
-128.8072805233536
 30
0.0
 10
87.8959216464771
 20
-128.8072805233536
 30
0.0
 10
87.8959216464771
 20
-128.8072805233536
 30
0.0
 10
87.83323303696532
 20
-128.0907183013107
 30
0.0
 10
87.83323303696532
 20
-128.0907183013107
 30
0.0
  0
HATCH
  5
44
330
1F
100
AcDbEntity
  8
_U+30EC_U+30A4_U+30E4_U+30FC 1
 62
     7
420
 16711422
100
AcDbHatch
 10
0.0
 20
0.0
 30
0.0
210
0.0
220
0.0
230
1.0
  2
SOLID
 70
     1
 71
     0
 91
        1
 92
        1
 93
        1
 72
     4
 94
        3
 73
     0
 74
     1
 95
       20
 96
       16
 40
0.0
 40
0.0
 40
0.0
 40
0.0
 40
1.0
 40
1.0
 40
1.0
 40
2.0
 40
2.0
 40
2.0
 40
3.0
 40
3.0
 40
3.0
 40
4.0
 40
4.0
 40
4.0
 40
5.0
 40
5.0
 40
5.0
 40
5.0
 10
87.83323303696532
 20
-128.0907183013107
 10
87.83323303696532
 20
-127.4461227459164
 10
86.54354806986792
 20
-126.9242233016024
 10
84.9525908882344
 20
-126.9242233016024
 10
83.36149259549336
 20
-126.9242233016024
 10
82.07180762839597
 20
-127.4461227459164
 10
82.07180762839597
 20
-128.0907183013107
 10
82.07180762839597
 20
-128.0907183013107
 10
82.09851290549244
 20
-128.8293291344592
 10
82.09851290549244
 20
-128.8293291344592
 10
82.09851290549244
 20
-128.8293291344592
 10
87.8959216464771
 20
-128.8072805233536
 10
87.8959216464771
 20
-128.8072805233536
 10
87.8959216464771
 20
-128.8072805233536
 10
87.83323303696532
 20
-128.0907183013107
 10
87.83323303696532
 20
-128.0907183013107
 97
        0
 97
        0
 75
     2
 76
     1
 98
        0
  0
POLYLINE
  5
45
330
1F
100
AcDbEntity
  8
_U+30EC_U+30A4_U+30E4_U+30FC 1
 62
   179
420
  2234388
370
    25
100
AcDb2dPolyline
 66
     1
 10
0.0
 20
0.0
 30
0.0
  0
VERTEX
  5
46
330
45
100
AcDbEntity
  8
_U+30EC_U+30A4_U+30E4_U+30FC 1
 62
   179
420
  2234388
370
    25
100
AcDbVertex
100
AcDb2dVertex
 10
99.65626245755693
 20
-128.1943996901736
 30
0.0
  0
VERTEX
  5
47
330
45
100
AcDbEntity
  8
_U+30EC_U+30A4_U+30E4_U+30FC 1
 62
   179
420
  2234388
370
    25
100
AcDbVertex
100
AcDb2dVertex
 10
98.40122026735351
 20
-127.1715558015406
 30
0.0
  0
VERTEX
  5
48
330
45
100
AcDbEntity
  8
_U+30EC_U+30A4_U+30E4_U+30FC 1
 62
   179
420
  2234388
370
    25
100
AcDbVertex
100
AcDb2dVertex
 10
93.77101205214662
 20
-127.1715558015406
 30
0.0
  0
VERTEX
  5
49
330
45
100
AcDbEntity
  8
_U+30EC_U+30A4_U+30E4_U+30FC 1
 62
   179
420
  2234388
370
    25
100
AcDbVertex
100
AcDb2dVertex
 10
92.78263457736223
 20
-128.1262077457462
 30
0.0
  0
VERTEX
  5
4A
330
45
100
AcDbEntity
  8
_U+30EC_U+30A4_U+30E4_U+30FC 1
 62
   179
420
  2234388
370
    25
100
AcDbVertex
100
AcDb2dVertex
 10
92.74608680051686
 20
-128.1613444124042
 30
0.0
  0
VERTEX
  5
4B
330
45
100
AcDbEntity
  8
_U+30EC_U+30A4_U+30E4_U+30FC 1
 62
   179
420
  2234388
370
    25
100
AcDbVertex
100
AcDb2dVertex
 10
92.78676207725694
 20
-128.8844683011123
 30
0.0
  0
VERTEX
  5
4C
330
45
100
AcDbEntity
  8
_U+30EC_U+30A4_U+30E4_U+30FC 1
 62
   179
420
  2234388
370
    25
100
AcDbVertex
100
AcDb2dVertex
 10
99.62871051381539
 20
-128.9120202455501
 30
0.0
  0
VERTEX
  5
4D
330
45
100
AcDbEntity
  8
_U+30EC_U+30A4_U+30E4_U+30FC 1
 62
   179
420
  2234388
370
    25
100
AcDbVertex
100
AcDb2dVertex
 10
99.650759124364
 20
-128.2102746901696
 30
0.0
  0
SEQEND
  5
4F
330
45
100
AcDbEntity
  8
_U+30EC_U+30A4_U+30E4_U+30FC 1
 62
   179
420
  2234388
370
    25
  0
HATCH
  5
4E
330
1F
100
AcDbEntity
  8
_U+30EC_U+30A4_U+30E4_U+30FC 1
 62
     7
420
 16711422
100
AcDbHatch
 10
0.0
 20
0.0
 30
0.0
210
0.0
220
0.0
230
1.0
  2
SOLID
 70
     1
 71
     0
 91
        1
 92
        1
 93
        8
 72
     1
 10
99.65626245755693
 20
-128.1943996901736
 11
98.40122026735351
 21
-127.1715558015406
 72
     1
 10
98.40122026735351
 20
-127.1715558015406
 11
93.77101205214663
 21
-127.1715558015406
 72
     1
 10
93.77101205214662
 20
-127.1715558015406
 11
92.78263457736223
 21
-128.1262077457462
 72
     1
 10
92.78263457736223
 20
-128.1262077457462
 11
92.74608680051686
 21
-128.1613444124042
 72
     1
 10
92.74608680051686
 20
-128.1613444124042
 11
92.78676207725692
 21
-128.8844683011123
 72
     1
 10
92.78676207725694
 20
-128.8844683011123
 11
99.6287105138154
 21
-128.9120202455501
 72
     1
 10
99.62871051381539
 20
-128.9120202455501
 11
99.650759124364
 21
-128.2102746901696
 72
     1
 10
99.650759124364
 20
-128.2102746901696
 11
99.65626245755693
 21
-128.1943996901736
 97
        0
 75
     2
 76
     1
 98
        0
  0
POLYLINE
  5
50
330
1F
100
AcDbEntity
  8
_U+30EC_U+30A4_U+30E4_U+30FC 1
370
     0
100
AcDb2dPolyline
 66
     1
 10
0.0
 20
0.0
 30
0.0
  0
VERTEX
  5
51
330
50
100
AcDbEntity
  8
_U+30EC_U+30A4_U+30E4_U+30FC 1
370
     0
100
AcDbVertex
100
AcDb2dVertex
 10
93.0851062363122
 20
-128.3373805234713
 30
0.0
  0
VERTEX
  5
52
330
50
100
AcDbEntity
  8
_U+30EC_U+30A4_U+30E4_U+30FC 1
370
     0
100
AcDbVertex
100
AcDb2dVertex
 10
92.9524617952518
 20
-128.3373805234713
 30
0.0
  0
VERTEX
  5
53
330
50
100
AcDbEntity
  8
_U+30EC_U+30A4_U+30E4_U+30FC 1
370
     0
100
AcDbVertex
100
AcDb2dVertex
 10
92.9524617952518
 20
-128.1771841346225
 30
0.0
  0
VERTEX
  5
54
330
50
100
AcDbEntity
  8
_U+30EC_U+30A4_U+30E4_U+30FC 1
370
     0
100
AcDbVertex
100
AcDb2dVertex
 10
93.0851062363122
 20
-128.1771841346225
 30
0.0
  0
VERTEX
  5
55
330
50
100
AcDbEntity
  8
_U+30EC_U+30A4_U+30E4_U+30FC 1
370
     0
100
AcDbVertex
100
AcDb2dVertex
 10
93.0851062363122
 20
-128.3373805234713
 30
0.0
  0
SEQEND
  5
57
330
50
100
AcDbEntity
  8
_U+30EC_U+30A4_U+30E4_U+30FC 1
370
     0
  0
HATCH
  5
56
330
1F
100
AcDbEntity
  8
_U+30EC_U+30A4_U+30E4_U+30FC 1
 62
     7
420
 16711422
100
AcDbHatch
 10
0.0
 20
0.0
 30
0.0
210
0.0
220
0.0
230
1.0
  2
SOLID
 70
     1
 71
     0
 91
        1
 92
        1
 93
        4
 72
     1
 10
93.0851062363122
 20
-128.3373805234713
 11
92.9524617952518
 21
-128.3373805234713
 72
     1
 10
92.9524617952518
 20
-128.3373805234713
 11
92.9524617952518
 21
-128.1771841346225
 72
     1
 10
92.9524617952518
 20
-128.1771841346225
 11
93.0851062363122
 21
-128.1771841346225
 72
     1
 10
93.0851062363122
 20
-128.1771841346225
 11
93.0851062363122
 21
-128.3373805234713
 97
        0
 75
     2
 76
     1
 98
        0
  0
SPLINE
  5
58
330
1F
100
AcDbEntity
  8
_U+30EC_U+30A4_U+30E4_U+30FC 1
 62
   179
420
  2234388
370
     9
100
AcDbSpline
210
0.0
220
0.0
230
1.0
 70
    11
 71
     3
 72
    17
 73
    13
 74
     0
 42
0.0000000001
 43
0.0000000001
 12
1.0
 22
0.0
 32
0.0
 13
1.0
 23
0.0
 33
0.0
 40
0.0
 40
0.0
 40
0.0
 40
0.0
 40
1.0
 40
1.0
 40
1.0
 40
2.0
 40
2.0
 40
2.0
 40
3.0
 40
3.0
 40
3.0
 40
4.0
 40
4.0
 40
4.0
 40
4.0
 10
108.6183347289154
 20
-118.7589699703104
 30
0.0
 10
108.6183347289154
 20
-118.7038660814352
 30
0.0
 10
108.5735672300575
 20
-118.6590633036685
 30
0.0
 10
108.5184280647976
 20
-118.6590633036685
 30
0.0
 10
108.4633241773145
 20
-118.6590633036685
 30
0.0
 10
108.4185214006798
 20
-118.7038660814352
 30
0.0
 10
108.4185214006798
 20
-118.7589699703104
 30
0.0
 10
108.4185214006798
 20
-118.8144619147409
 30
0.0
 10
108.4633241773145
 20
-118.8592294147298
 30
0.0
 10
108.5184280647976
 20
-118.8592294147298
 30
0.0
 10
108.5735672300575
 20
-118.8592294147298
 30
0.0
 10
108.6183347289154
 20
-118.8144619147409
 30
0.0
 10
108.6183347289154
 20
-118.7589699703104
 30
0.0
  0
SPLINE
  5
59
330
1F
100
AcDbEntity
  8
_U+30EC_U+30A4_U+30E4_U+30FC 1
 62
   179
420
  2234388
370
     9
100
AcDbSpline
210
0.0
220
0.0
230
1.0
 70
    11
 71
     3
 72
    17
 73
    13
 74
     0
 42
0.0000000001
 43
0.0000000001
 12
1.0
 22
0.0
 32
0.0
 13
1.0
 23
0.0
 33
0.0
 40
0.0
 40
0.0
 40
0.0
 40
0.0
 40
1.0
 40
1.0
 40
1.0
 40
2.0
 40
2.0
 40
2.0
 40
3.0
 40
3.0
 40
3.0
 40
4.0
 40
4.0
 40
4.0
 40
4.0
 10
73.61893478849117
 20
-118.7589699703104
 30
0.0
 10
73.61893478849117
 20
-118.7038660814352
 30
0.0
 10
73.5741320118564
 20
-118.6590633036685
 30
0.0
 10
73.51867534660455
 20
-118.6590633036685
 30
0.0
 10
73.46357145912148
 20
-118.6590633036685
 30
0.0
 10
73.41876868248671
 20
-118.7038660814352
 30
0.0
 10
73.41876868248671
 20
-118.7589699703104
 30
0.0
 10
73.41876868248671
 20
-118.8144619147409
 30
0.0
 10
73.46357145912148
 20
-118.8592294147298
 30
0.0
 10
73.51867534660455
 20
-118.8592294147298
 30
0.0
 10
73.5741320118564
 20
-118.8592294147298
 30
0.0
 10
73.61893478849117
 20
-118.8144619147409
 30
0.0
 10
73.61893478849117
 20
-118.7589699703104
 30
0.0
  0
SPLINE
  5
5A
330
1F
100
AcDbEntity
  8
_U+30EC_U+30A4_U+30E4_U+30FC 1
 62
   179
420
  2234388
370
     9
100
AcDbSpline
210
0.0
220
0.0
230
1.0
 70
    11
 71
     3
 72
    17
 73
    13
 74
     0
 42
0.0000000001
 43
0.0000000001
 12
1.0
 22
0.0
 32
0.0
 13
1.0
 23
0.0
 33
0.0
 40
0.0
 40
0.0
 40
0.0
 40
0.0
 40
1.0
 40
1.0
 40
1.0
 40
2.0
 40
2.0
 40
2.0
 40
3.0
 40
3.0
 40
3.0
 40
4.0
 40
4.0
 40
4.0
 40
4.0
 10
72.08826732754174
 20
-124.343477468914
 30
0.0
 10
72.08826732754174
 20
-124.2883735800391
 30
0.0
 10
72.04349982868386
 20
-124.2435708022724
 30
0.0
 10
71.98800788565514
 20
-124.2435708022724
 30
0.0
 10
71.93290399817207
 20
-124.2435708022724
 30
0.0
 10
71.8881012215373
 20
-124.2883735800391
 30
0.0
 10
71.8881012215373
 20
-124.343477468914
 30
0.0
 10
71.8881012215373
 20
-124.3986166355671
 30
0.0
 10
71.93290399817207
 20
-124.443384135556
 30
0.0
 10
71.98800788565514
 20
-124.443384135556
 30
0.0
 10
72.04349982868386
 20
-124.443384135556
 30
0.0
 10
72.08826732754174
 20
-124.3986166355671
 30
0.0
 10
72.08826732754174
 20
-124.343477468914
 30
0.0
  0
SPLINE
  5
5B
330
1F
100
AcDbEntity
  8
_U+30EC_U+30A4_U+30E4_U+30FC 1
 62
   179
420
  2234388
370
     9
100
AcDbSpline
210
0.0
220
0.0
230
1.0
 70
    11
 71
     3
 72
    17
 73
    13
 74
     0
 42
0.0000000001
 43
0.0000000001
 12
1.0
 22
0.0
 32
0.0
 13
1.0
 23
0.0
 33
0.0
 40
0.0
 40
0.0
 40
0.0
 40
0.0
 40
1.0
 40
1.0
 40
1.0
 40
2.0
 40
2.0
 40
2.0
 40
3.0
 40
3.0
 40
3.0
 40
4.0
 40
4.0
 40
4.0
 40
4.0
 10
72.08826732754174
 20
-142.3434344088589
 30
0.0
 10
72.08826732754174
 20
-142.2882952422058
 30
0.0
 10
72.04349982868386
 20
-142.2435277422166
 30
0.0
 10
71.98800788565514
 20
-142.2435277422166
 30
0.0
 10
71.93290399817207
 20
-142.2435277422166
 30
0.0
 10
71.8881012215373
 20
-142.2882952422058
 30
0.0
 10
71.8881012215373
 20
-142.3434344088589
 30
0.0
 10
71.8881012215373
 20
-142.3985382977338
 30
0.0
 10
71.93290399817207
 20
-142.4433410755005
 30
0.0
 10
71.98800788565514
 20
-142.4433410755005
 30
0.0
 10
72.04349982868386
 20
-142.4433410755005
 30
0.0
 10
72.08826732754174
 20
-142.3985382977338
 30
0.0
 10
72.08826732754174
 20
-142.3434344088589
 30
0.0
  0
POLYLINE
  5
5C
330
1F
100
AcDbEntity
  8
_U+30EC_U+30A4_U+30E4_U+30FC 1
 62
   179
420
  2234388
370
     9
100
AcDb2dPolyline
 66
     1
 10
0.0
 20
0.0
 30
0.0
  0
VERTEX
  5
5D
330
5C
100
AcDbEntity
  8
_U+30EC_U+30A4_U+30E4_U+30FC 1
 62
   179
420
  2234388
370
     9
100
AcDbVertex
100
AcDb2dVertex
 10
73.51867534660455
 20
-118.7589699703104
 30
0.0
  0
VERTEX
  5
5E
330
5C
100
AcDbEntity
  8
_U+30EC_U+30A4_U+30E4_U+30FC 1
 62
   179
420
  2234388
370
     9
100
AcDbVertex
100
AcDb2dVertex
 10
108.5184280647976
 20
-118.7589699703104
 30
0.0
  0
SEQEND
  5
5F
330
5C
100
AcDbEntity
  8
_U+30EC_U+30A4_U+30E4_U+30FC 1
 62
   179
420
  2234388
370
     9
  0
POLYLINE
  5
60
330
1F
100
AcDbEntity
  8
_U+30EC_U+30A4_U+30E4_U+30FC 1
 62
   179
420
  2234388
370
     9
100
AcDb2dPolyline
 66
     1
 10
0.0
 20
0.0
 30
0.0
  0
VERTEX
  5
61
330
60
100
AcDbEntity
  8
_U+30EC_U+30A4_U+30E4_U+30FC 1
 62
   179
420
  2234388
370
     9
100
AcDbVertex
100
AcDb2dVertex
 10
73.51867534660455
 20
-123.4808299691299
 30
0.0
  0
VERTEX
  5
62
330
60
100
AcDbEntity
  8
_U+30EC_U+30A4_U+30E4_U+30FC 1
 62
   179
420
  2234388
370
     9
100
AcDbVertex
100
AcDb2dVertex
 10
73.51867534660455
 20
-117.7588802483379
 30
0.0
  0
SEQEND
  5
63
330
60
100
AcDbEntity
  8
_U+30EC_U+30A4_U+30E4_U+30FC 1
 62
   179
420
  2234388
370
     9
  0
POLYLINE
  5
64
330
1F
100
AcDbEntity
  8
_U+30EC_U+30A4_U+30E4_U+30FC 1
 62
   179
420
  2234388
370
     9
100
AcDb2dPolyline
 66
     1
 10
0.0
 20
0.0
 30
0.0
  0
VERTEX
  5
65
330
64
100
AcDbEntity
  8
_U+30EC_U+30A4_U+30E4_U+30FC 1
 62
   179
420
  2234388
370
     9
100
AcDbVertex
100
AcDb2dVertex
 10
108.5184280647976
 20
-122.1193194139146
 30
0.0
  0
VERTEX
  5
66
330
64
100
AcDbEntity
  8
_U+30EC_U+30A4_U+30E4_U+30FC 1
 62
   179
420
  2234388
370
     9
100
AcDbVertex
100
AcDb2dVertex
 10
108.5184280647976
 20
-117.7588802483379
 30
0.0
  0
SEQEND
  5
67
330
64
100
AcDbEntity
  8
_U+30EC_U+30A4_U+30E4_U+30FC 1
 62
   179
420
  2234388
370
     9
  0
INSERT
  5
69
330
1F
100
AcDbEntity
  8
_U+30EC_U+30A4_U+30E4_U+30FC 1
100
AcDbBlockReference
  2
block 2
 10
0.0
 20
0.0
 30
0.0
  0
POLYLINE
  5
71
330
1F
100
AcDbEntity
  8
_U+30EC_U+30A4_U+30E4_U+30FC 1
 62
   179
420
  2234388
370
     9
100
AcDb2dPolyline
 66
     1
 10
0.0
 20
0.0
 30
0.0
  0
VERTEX
  5
72
330
71
100
AcDbEntity
  8
_U+30EC_U+30A4_U+30E4_U+30FC 1
 62
   179
420
  2234388
370
     9
100
AcDbVertex
100
AcDb2dVertex
 10
71.98800788565514
 20
-124.343477468914
 30
0.0
  0
VERTEX
  5
73
330
71
100
AcDbEntity
  8
_U+30EC_U+30A4_U+30E4_U+30FC 1
 62
   179
420
  2234388
370
     9
100
AcDbVertex
100
AcDb2dVertex
 10
71.98800788565514
 20
-142.3434344088589
 30
0.0
  0
SEQEND
  5
74
330
71
100
AcDbEntity
  8
_U+30EC_U+30A4_U+30E4_U+30FC 1
 62
   179
420
  2234388
370
     9
  0
POLYLINE
  5
75
330
1F
100
AcDbEntity
  8
_U+30EC_U+30A4_U+30E4_U+30FC 1
 62
   179
420
  2234388
370
     9
100
AcDb2dPolyline
 66
     1
 10
0.0
 20
0.0
 30
0.0
  0
VERTEX
  5
76
330
75
100
AcDbEntity
  8
_U+30EC_U+30A4_U+30E4_U+30FC 1
 62
   179
420
  2234388
370
     9
100
AcDbVertex
100
AcDb2dVertex
 10
73.44769645952648
 20
-124.343477468914
 30
0.0
  0
VERTEX
  5
77
330
75
100
AcDbEntity
  8
_U+30EC_U+30A4_U+30E4_U+30FC 1
 62
   179
420
  2234388
370
     9
100
AcDbVertex
100
AcDb2dVertex
 10
70.9882709667161
 20
-124.343477468914
 30
0.0
  0
SEQEND
  5
78
330
75
100
AcDbEntity
  8
_U+30EC_U+30A4_U+30E4_U+30FC 1
 62
   179
420
  2234388
370
     9
  0
POLYLINE
  5
79
330
1F
100
AcDbEntity
  8
_U+30EC_U+30A4_U+30E4_U+30FC 1
 62
   179
420
  2234388
370
     9
100
AcDb2dPolyline
 66
     1
 10
0.0
 20
0.0
 30
0.0
  0
VERTEX
  5
7A
330
79
100
AcDbEntity
  8
_U+30EC_U+30A4_U+30E4_U+30FC 1
 62
   179
420
  2234388
370
     9
100
AcDbVertex
100
AcDb2dVertex
 10
73.27130757513766
 20
-142.3434344088589
 30
0.0
  0
VERTEX
  5
7B
330
79
100
AcDbEntity
  8
_U+30EC_U+30A4_U+30E4_U+30FC 1
 62
   179
420
  2234388
370
     9
100
AcDbVertex
100
AcDb2dVertex
 10
70.9882709667161
 20
-142.3434344088589
 30
0.0
  0
SEQEND
  5
7C
330
79
100
AcDbEntity
  8
_U+30EC_U+30A4_U+30E4_U+30FC 1
 62
   179
420
  2234388
370
     9
  0
INSERT
  5
7E
330
1F
100
AcDbEntity
  8
_U+30EC_U+30A4_U+30E4_U+30FC 1
100
AcDbBlockReference
  2
block 3
 10
0.0
 20
0.0
 30
0.0
  0
SPLINE
  5
87
330
1F
100
AcDbEntity
  8
_U+30EC_U+30A4_U+30E4_U+30FC 1
 62
   179
420
  2234388
370
     9
100
AcDbSpline
210
0.0
220
0.0
230
1.0
 70
    11
 71
     3
 72
    17
 73
    13
 74
     0
 42
0.0000000001
 43
0.0000000001
 12
1.0
 22
0.0
 32
0.0
 13
1.0
 23
0.0
 33
0.0
 40
0.0
 40
0.0
 40
0.0
 40
0.0
 40
1.0
 40
1.0
 40
1.0
 40
2.0
 40
2.0
 40
2.0
 40
3.0
 40
3.0
 40
3.0
 40
4.0
 40
4.0
 40
4.0
 40
4.0
 10
112.3665985221781
 20
-129.7963988564395
 30
0.0
 10
112.3665985221781
 20
-129.7409069120093
 30
0.0
 10
112.3218310233202
 20
-129.6964921897979
 30
0.0
 10
112.2666918580603
 20
-129.6964921897979
 30
0.0
 10
112.2108824150397
 20
-129.6964921897979
 30
0.0
 10
112.1661149161818
 20
-129.7409069120093
 30
0.0
 10
112.1661149161818
 20
-129.7963988564395
 30
0.0
 10
112.1661149161818
 20
-129.8518555230929
 30
0.0
 10
112.2108824150397
 20
-129.8966230230814
 30
0.0
 10
112.2666918580603
 20
-129.8966230230814
 30
0.0
 10
112.3218310233202
 20
-129.8966230230814
 30
0.0
 10
112.3665985221781
 20
-129.8518555230929
 30
0.0
 10
112.3665985221781
 20
-129.7963988564395
 30
0.0
  0
SPLINE
  5
88
330
1F
100
AcDbEntity
  8
_U+30EC_U+30A4_U+30E4_U+30FC 1
 62
   179
420
  2234388
370
     9
100
AcDbSpline
210
0.0
220
0.0
230
1.0
 70
    11
 71
     3
 72
    17
 73
    13
 74
     0
 42
0.0000000001
 43
0.0000000001
 12
1.0
 22
0.0
 32
0.0
 13
1.0
 23
0.0
 33
0.0
 40
0.0
 40
0.0
 40
0.0
 40
0.0
 40
1.0
 40
1.0
 40
1.0
 40
2.0
 40
2.0
 40
2.0
 40
3.0
 40
3.0
 40
3.0
 40
4.0
 40
4.0
 40
4.0
 40
4.0
 10
112.3665985221781
 20
-122.6626324693344
 30
0.0
 10
112.3665985221781
 20
-122.6074933026816
 30
0.0
 10
112.3218310233202
 20
-122.5627258026928
 30
0.0
 10
112.2666918580603
 20
-122.5627258026928
 30
0.0
 10
112.2108824150397
 20
-122.5627258026928
 30
0.0
 10
112.1661149161818
 20
-122.6074933026816
 30
0.0
 10
112.1661149161818
 20
-122.6626324693344
 30
0.0
 10
112.1661149161818
 20
-122.7184419137648
 30
0.0
 10
112.2108824150397
 20
-122.7632094137537
 30
0.0
 10
112.2666918580603
 20
-122.7632094137537
 30
0.0
 10
112.3218310233202
 20
-122.7632094137537
 30
0.0
 10
112.3665985221781
 20
-122.7184419137648
 30
0.0
 10
112.3665985221781
 20
-122.6626324693344
 30
0.0
  0
INSERT
  5
8A
330
1F
100
AcDbEntity
  8
_U+30EC_U+30A4_U+30E4_U+30FC 1
100
AcDbBlockReference
  2
block 4
 10
0.0
 20
0.0
 30
0.0
  0
POLYLINE
  5
9B
330
1F
100
AcDbEntity
  8
_U+30EC_U+30A4_U+30E4_U+30FC 1
 62
   179
420
  2234388
370
     9
100
AcDb2dPolyline
 66
     1
 10
0.0
 20
0.0
 30
0.0
  0
VERTEX
  5
9C
330
9B
100
AcDbEntity
  8
_U+30EC_U+30A4_U+30E4_U+30FC 1
 62
   179
420
  2234388
370
     9
100
AcDbVertex
100
AcDb2dVertex
 10
112.2663743580684
 20
-129.7963988564395
 30
0.0
  0
VERTEX
  5
9D
330
9B
100
AcDbEntity
  8
_U+30EC_U+30A4_U+30E4_U+30FC 1
 62
   179
420
  2234388
370
     9
100
AcDbVertex
100
AcDb2dVertex
 10
112.2663743580684
 20
-122.7260266359851
 30
0.0
  0
SEQEND
  5
9E
330
9B
100
AcDbEntity
  8
_U+30EC_U+30A4_U+30E4_U+30FC 1
 62
   179
420
  2234388
370
     9
  0
POLYLINE
  5
9F
330
1F
100
AcDbEntity
  8
_U+30EC_U+30A4_U+30E4_U+30FC 1
 62
   179
420
  2234388
370
     9
100
AcDb2dPolyline
 66
     1
 10
0.0
 20
0.0
 30
0.0
  0
VERTEX
  5
A0
330
9F
100
AcDbEntity
  8
_U+30EC_U+30A4_U+30E4_U+30FC 1
 62
   179
420
  2234388
370
     9
100
AcDbVertex
100
AcDb2dVertex
 10
108.9900566638764
 20
-129.7963988564395
 30
0.0
  0
VERTEX
  5
A1
330
9F
100
AcDbEntity
  8
_U+30EC_U+30A4_U+30E4_U+30FC 1
 62
   179
420
  2234388
370
     9
100
AcDbVertex
100
AcDb2dVertex
 10
113.2661112770074
 20
-129.7963988564395
 30
0.0
  0
SEQEND
  5
A2
330
9F
100
AcDbEntity
  8
_U+30EC_U+30A4_U+30E4_U+30FC 1
 62
   179
420
  2234388
370
     9
  0
POLYLINE
  5
A3
330
1F
100
AcDbEntity
  8
_U+30EC_U+30A4_U+30E4_U+30FC 1
 62
   179
420
  2234388
370
     9
100
AcDb2dPolyline
 66
     1
 10
0.0
 20
0.0
 30
0.0
  0
VERTEX
  5
A4
330
A3
100
AcDbEntity
  8
_U+30EC_U+30A4_U+30E4_U+30FC 1
 62
   179
420
  2234388
370
     9
100
AcDbVertex
100
AcDb2dVertex
 10
109.1309913825031
 20
-122.6629852471122
 30
0.0
  0
VERTEX
  5
A5
330
A3
100
AcDbEntity
  8
_U+30EC_U+30A4_U+30E4_U+30FC 1
 62
   179
420
  2234388
370
     9
100
AcDbVertex
100
AcDb2dVertex
 10
113.2661112770074
 20
-122.6629852471122
 30
0.0
  0
SEQEND
  5
A6
330
A3
100
AcDbEntity
  8
_U+30EC_U+30A4_U+30E4_U+30FC 1
 62
   179
420
  2234388
370
     9
  0
SPLINE
  5
A7
330
1F
100
AcDbEntity
  8
_U+30EC_U+30A4_U+30E4_U+30FC 1
 62
     7
420
 16777215
370
    25
100
AcDbSpline
210
0.0
220
0.0
230
1.0
 70
    11
 71
     3
 72
   185
 73
   181
 74
     0
 42
0.0000000001
 43
0.0000000001
 12
1.0
 22
0.0
 32
0.0
 13
1.0
 23
0.0
 33
0.0
 40
0.0
 40
0.0
 40
0.0
 40
0.0
 40
1.0
 40
1.0
 40
1.0
 40
2.0
 40
2.0
 40
2.0
 40
3.0
 40
3.0
 40
3.0
 40
4.0
 40
4.0
 40
4.0
 40
5.0
 40
5.0
 40
5.0
 40
6.0
 40
6.0
 40
6.0
 40
7.0
 40
7.0
 40
7.0
 40
8.0
 40
8.0
 40
8.0
 40
9.0
 40
9.0
 40
9.0
 40
10.0
 40
10.0
 40
10.0
 40
11.0
 40
11.0
 40
11.0
 40
12.0
 40
12.0
 40
12.0
 40
13.0
 40
13.0
 40
13.0
 40
14.0
 40
14.0
 40
14.0
 40
15.0
 40
15.0
 40
15.0
 40
16.0
 40
16.0
 40
16.0
 40
17.0
 40
17.0
 40
17.0
 40
18.0
 40
18.0
 40
18.0
 40
19.0
 40
19.0
 40
19.0
 40
20.0
 40
20.0
 40
20.0
 40
21.0
 40
21.0
 40
21.0
 40
22.0
 40
22.0
 40
22.0
 40
23.0
 40
23.0
 40
23.0
 40
24.0
 40
24.0
 40
24.0
 40
25.0
 40
25.0
 40
25.0
 40
26.0
 40
26.0
 40
26.0
 40
27.0
 40
27.0
 40
27.0
 40
28.0
 40
28.0
 40
28.0
 40
29.0
 40
29.0
 40
29.0
 40
30.0
 40
30.0
 40
30.0
 40
31.0
 40
31.0
 40
31.0
 40
32.0
 40
32.0
 40
32.0
 40
33.0
 40
33.0
 40
33.0
 40
34.0
 40
34.0
 40
34.0
 40
35.0
 40
35.0
 40
35.0
 40
36.0
 40
36.0
 40
36.0
 40
37.0
 40
37.0
 40
37.0
 40
38.0
 40
38.0
 40
38.0
 40
39.0
 40
39.0
 40
39.0
 40
40.0
 40
40.0
 40
40.0
 40
41.0
 40
41.0
 40
41.0
 40
42.0
 40
42.0
 40
42.0
 40
43.0
 40
43.0
 40
43.0
 40
44.0
 40
44.0
 40
44.0
 40
45.0
 40
45.0
 40
45.0
 40
46.0
 40
46.0
 40
46.0
 40
47.0
 40
47.0
 40
47.0
 40
48.0
 40
48.0
 40
48.0
 40
49.0
 40
49.0
 40
49.0
 40
50.0
 40
50.0
 40
50.0
 40
51.0
 40
51.0
 40
51.0
 40
52.0
 40
52.0
 40
52.0
 40
53.0
 40
53.0
 40
53.0
 40
54.0
 40
54.0
 40
54.0
 40
55.0
 40
55.0
 40
55.0
 40
56.0
 40
56.0
 40
56.0
 40
57.0
 40
57.0
 40
57.0
 40
58.0
 40
58.0
 40
58.0
 40
59.0
 40
59.0
 40
59.0
 40
60.0
 40
60.0
 40
60.0
 40
60.0
 10
73.93932755809504
 20
-126.0167730240515
 30
0.0
 10
73.93932755809504
 20
-126.0167730240515
 30
0.0
 10
73.88041367070917
 20
-124.4134333022299
 30
0.0
 10
75.29152474581984
 20
-124.2528841356036
 30
0.0
 10
75.29152474581984
 20
-124.2528841356036
 30
0.0
 10
76.82011081793347
 20
-124.2528841356036
 30
0.0
 10
76.82011081793347
 20
-124.2528841356036
 30
0.0
 10
76.82011081793347
 20
-124.2528841356036
 30
0.0
 10
77.87844412426648
 20
-124.1243671911912
 30
0.0
 10
77.87844412426648
 20
-124.7978905243562
 30
0.0
 10
77.87844412426648
 20
-124.7978905243562
 30
0.0
 10
77.87844412426648
 20
-125.6639952463619
 30
0.0
 10
77.87844412426648
 20
-125.6639952463619
 30
0.0
 10
77.87844412426648
 20
-125.6639952463619
 30
0.0
 10
75.84997195379489
 20
-125.6639952463619
 30
0.0
 10
75.84997195379489
 20
-125.6639952463619
 30
0.0
 10
75.84997195379489
 20
-125.6639952463619
 30
0.0
 10
75.26224419101129
 20
-125.9209938574085
 30
0.0
 10
75.29152474581984
 20
-126.5621321905816
 30
0.0
 10
75.29152474581984
 20
-126.5621321905816
 30
0.0
 10
75.29152474581984
 20
-128.1654719124032
 30
0.0
 10
75.29152474581984
 20
-128.1654719124032
 30
0.0
 10
75.29152474581984
 20
-128.1654719124032
 30
0.0
 10
94.89997146778892
 20
-128.1014074679745
 30
0.0
 10
94.89997146778892
 20
-128.1014074679745
 30
0.0
 10
94.89997146778892
 20
-128.1014074679745
 30
0.0
 10
95.340943678761
 20
-128.4865702456561
 30
0.0
 10
95.340943678761
 20
-128.4865702456561
 30
0.0
 10
95.340943678761
 20
-128.4865702456561
 30
0.0
 10
95.54696589572715
 20
-128.133439690189
 30
0.0
 10
95.54696589572715
 20
-128.133439690189
 30
0.0
 10
95.54696589572715
 20
-128.133439690189
 30
0.0
 10
104.5427989995577
 20
-128.133439690189
 30
0.0
 10
104.5427989995577
 20
-128.133439690189
 30
0.0
 10
104.5427989995577
 20
-128.133439690189
 30
0.0
 10
105.2190739823045
 20
-128.1978569123949
 30
0.0
 10
105.1601600949186
 20
-127.2676877459607
 30
0.0
 10
105.1601600949186
 20
-127.2676877459607
 30
0.0
 10
102.6907157134749
 20
-125.535831079727
 30
0.0
 10
102.6907157134749
 20
-125.535831079727
 30
0.0
 10
102.6907157134749
 20
-125.535831079727
 30
0.0
 10
101.9265990663025
 20
-125.150315524268
 30
0.0
 10
102.2497435025028
 20
-124.5092124688728
 30
0.0
 10
102.2497435025028
 20
-124.5092124688728
 30
0.0
 10
104.3598484486696
 20
-125.2140624686965
 30
0.0
 10
104.9772095440305
 20
-125.6953571907984
 30
0.0
 10
104.9772095440305
 20
-125.6953571907984
 30
0.0
 10
106.5123572826434
 20
-126.6902963572162
 30
0.0
 10
106.5123572826434
 20
-126.6902963572162
 30
0.0
 10
106.5123572826434
 20
-126.6902963572162
 30
0.0
 10
106.1006656264798
 20
-129.4484188565266
 30
0.0
 10
106.1006656264798
 20
-129.4484188565266
 30
0.0
 10
106.1006656264798
 20
-129.4484188565266
 30
0.0
 10
103.6019406902276
 20
-129.4484188565266
 30
0.0
 10
103.6019406902276
 20
-129.4484188565266
 30
0.0
 10
103.6019406902276
 20
-129.4484188565266
 30
0.0
 10
103.24916292145
 20
-129.0632560788451
 30
0.0
 10
103.24916292145
 20
-129.0632560788451
 30
0.0
 10
103.24916292145
 20
-129.0632560788451
 30
0.0
 10
103.0138601496753
 20
-129.3199371898921
 30
0.0
 10
103.0138601496753
 20
-129.3199371898921
 30
0.0
 10
103.0138601496753
 20
-129.3199371898921
 30
0.0
 10
101.2499713057869
 20
-129.3199371898921
 30
0.0
 10
101.2499713057869
 20
-129.3199371898921
 30
0.0
 10
101.2499713057869
 20
-129.3199371898921
 30
0.0
 10
100.9561074243951
 20
-128.9995444121944
 30
0.0
 10
100.9561074243951
 20
-128.9995444121944
 30
0.0
 10
100.9561074243951
 20
-128.9995444121944
 30
0.0
 10
100.6767074315232
 20
-129.3040974676742
 30
0.0
 10
100.6767074315232
 20
-129.3040974676742
 30
0.0
 10
100.6767074315232
 20
-129.3040974676742
 30
0.0
 10
98.86872136653767
 20
-129.3040974676742
 30
0.0
 10
98.86872136653767
 20
-129.3040974676742
 30
0.0
 10
98.86872136653767
 20
-129.3040974676742
 30
0.0
 10
98.59690609569448
 20
-129.0077994121924
 30
0.0
 10
98.59690609569448
 20
-129.0077994121924
 30
0.0
 10
98.59690609569448
 20
-129.0077994121924
 30
0.0
 10
98.32509082485129
 20
-129.3040974676742
 30
0.0
 10
98.32509082485129
 20
-129.3040974676742
 30
0.0
 10
98.32509082485129
 20
-129.3040974676742
 30
0.0
 10
96.66386031167725
 20
-129.3040974676742
 30
0.0
 10
96.66386031167725
 20
-129.3040974676742
 30
0.0
 10
96.66386031167725
 20
-129.3040974676742
 30
0.0
 10
96.31831448715953
 20
-128.9271896899906
 30
0.0
 10
96.31831448715953
 20
-128.9271896899906
 30
0.0
 10
96.31831448715953
 20
-128.9271896899906
 30
0.0
 10
95.85529366563884
 20
-129.4322263565309
 30
0.0
 10
95.85529366563884
 20
-129.4322263565309
 30
0.0
 10
95.85529366563884
 20
-129.4322263565309
 30
0.0
 10
94.31224370500532
 20
-129.4322263565309
 30
0.0
 10
94.31224370500532
 20
-129.4322263565309
 30
0.0
 10
94.31224370500532
 20
-129.4322263565309
 30
0.0
 10
93.95223399196772
 20
-129.0391613566292
 30
0.0
 10
93.95223399196772
 20
-129.0391613566292
 30
0.0
 10
93.95223399196772
 20
-129.0391613566292
 30
0.0
 10
93.6063353896812
 20
-129.4167394120902
 30
0.0
 10
93.6063353896812
 20
-129.4167394120902
 30
0.0
 10
93.6063353896812
 20
-129.4167394120902
 30
0.0
 10
91.96027432056461
 20
-129.4167394120902
 30
0.0
 10
91.96027432056461
 20
-129.4167394120902
 30
0.0
 10
91.96027432056461
 20
-129.4167394120902
 30
0.0
 10
91.63677710659549
 20
-129.0636088566228
 30
0.0
 10
91.63677710659549
 20
-129.0636088566228
 30
0.0
 10
91.63677710659549
 20
-129.0636088566228
 30
0.0
 10
91.37254655778102
 20
-129.3519694121063
 30
0.0
 10
91.37254655778102
 20
-129.3519694121063
 30
0.0
 10
91.37254655778102
 20
-129.3519694121063
 30
0.0
 10
89.69649937831832
 20
-129.3519694121063
 30
0.0
 10
89.69649937831832
 20
-129.3519694121063
 30
0.0
 10
89.69649937831832
 20
-129.3519694121063
 30
0.0
 10
89.32925772102077
 20
-128.9513196899846
 30
0.0
 10
89.32925772102077
 20
-128.9513196899846
 30
0.0
 10
89.32925772102077
 20
-128.9513196899846
 30
0.0
 10
88.94719939743456
 20
-129.3685146898803
 30
0.0
 10
88.94719939743456
 20
-129.3685146898803
 30
0.0
 10
88.94719939743456
 20
-129.3685146898803
 30
0.0
 10
87.3448827716464
 20
-129.3685146898803
 30
0.0
 10
87.3448827716464
 20
-129.3685146898803
 30
0.0
 10
87.3448827716464
 20
-129.3685146898803
 30
0.0
 10
86.96970361455135
 20
-128.9595746899825
 30
0.0
 10
86.96970361455135
 20
-128.9595746899825
 30
0.0
 10
86.96970361455135
 20
-128.9595746899825
 30
0.0
 10
86.6686077888996
 20
-129.2879049676779
 30
0.0
 10
86.6686077888996
 20
-129.2879049676779
 30
0.0
 10
86.6686077888996
 20
-129.2879049676779
 30
0.0
 10
84.87543839020273
 20
-129.2879049676779
 30
0.0
 10
84.87543839020273
 20
-129.2879049676779
 30
0.0
 10
84.87543839020273
 20
-129.2879049676779
 30
0.0
 10
84.58157450881093
 20
-128.9671594122025
 30
0.0
 10
84.58157450881093
 20
-128.9671594122025
 30
0.0
 10
84.58157450881093
 20
-128.9671594122025
 30
0.0
 10
84.28735784965035
 20
-129.2879049676779
 30
0.0
 10
84.28735784965035
 20
-129.2879049676779
 30
0.0
 10
84.28735784965035
 20
-129.2879049676779
 30
0.0
 10
82.7291384449594
 20
-129.2879049676779
 30
0.0
 10
82.7291384449594
 20
-129.2879049676779
 30
0.0
 10
82.7291384449594
 20
-129.2879049676779
 30
0.0
 10
82.4352745635676
 20
-128.9671594122025
 30
0.0
 10
82.4352745635676
 20
-128.9671594122025
 30
0.0
 10
82.4352745635676
 20
-128.9671594122025
 30
0.0
 10
82.11177734959848
 20
-129.3199371898921
 30
0.0
 10
82.11177734959848
 20
-129.3199371898921
 30
0.0
 10
82.11177734959848
 20
-129.3199371898921
 30
0.0
 10
80.37752183828746
 20
-129.3199371898921
 30
0.0
 10
80.37752183828746
 20
-129.3199371898921
 30
0.0
 10
80.37752183828746
 20
-129.3199371898921
 30
0.0
 10
80.03956073579846
 20
-128.9513196899846
 30
0.0
 10
80.03956073579846
 20
-128.9513196899846
 30
0.0
 10
80.03956073579846
 20
-128.9513196899846
 30
0.0
 10
79.76016074292656
 20
-129.2561902454639
 30
0.0
 10
79.76016074292656
 20
-129.2561902454639
 30
0.0
 10
79.76016074292656
 20
-129.2561902454639
 30
0.0
 10
78.11374689604118
 20
-129.2561902454639
 30
0.0
 10
78.11374689604118
 20
-129.2561902454639
 30
0.0
 10
78.11374689604118
 20
-129.2561902454639
 30
0.0
 10
77.7168719061663
 20
-128.8231555233496
 30
0.0
 10
77.7168719061663
 20
-128.8231555233496
 30
0.0
 10
77.7168719061663
 20
-128.8231555233496
 30
0.0
 10
77.26143580667434
 20
-129.3202546898923
 30
0.0
 10
77.26143580667434
 20
-129.3202546898923
 30
0.0
 10
77.26143580667434
 20
-129.3202546898923
 30
0.0
 10
75.05622197404514
 20
-129.3202546898923
 30
0.0
 10
75.05622197404514
 20
-129.3202546898923
 30
0.0
 10
75.05622197404514
 20
-129.3202546898923
 30
0.0
 10
74.82091920227043
 20
-133.1367458000493
 30
0.0
 10
75.58538862721164
 20
-137.1774977434833
 30
0.0
 10
75.58538862721164
 20
-137.1774977434833
 30
0.0
 10
76.29094416476697
 20
-140.8978569092202
 30
0.0
 10
76.29094416476697
 20
-140.8978569092202
 30
0.0
 10
76.29094416476697
 20
-140.8978569092202
 30
0.0
 10
76.70298859869929
 20
-142.2449035755501
 30
0.0
 10
76.14418861295546
 20
-142.4371321866128
 30
0.0
 10
76.14418861295546
 20
-142.4371321866128
 30
0.0
 10
75.23296363620275
 20
-142.5659666310251
 30
0.0
 10
75.08585530662246
 20
-141.0904382980606
 30
0.0
 10
75.08585530662246
 20
-141.0904382980606
 30
0.0
 10
73.85113311590062
 20
-133.8740160776425
 30
0.0
 10
73.9686081129036
 20
-131.6291852448707
 30
0.0
 10
73.9686081129036
 20
-131.6291852448707
 30
0.0
 10
73.93932755809504
 20
-126.0167730240515
 30
0.0
 10
73.93932755809504
 20
-126.0167730240515
 30
0.0
  0
HATCH
  5
A8
330
1F
100
AcDbEntity
  8
_U+30EC_U+30A4_U+30E4_U+30FC 1
 62
   253
420
 11711154
100
AcDbHatch
 10
0.0
 20
0.0
 30
0.0
210
0.0
220
0.0
230
1.0
  2
SOLID
 70
     1
 71
     0
 91
        1
 92
        1
 93
        1
 72
     4
 94
        3
 73
     0
 74
     1
 95
      185
 96
      181
 40
0.0
 40
0.0
 40
0.0
 40
0.0
 40
1.0
 40
1.0
 40
1.0
 40
2.0
 40
2.0
 40
2.0
 40
3.0
 40
3.0
 40
3.0
 40
4.0
 40
4.0
 40
4.0
 40
5.0
 40
5.0
 40
5.0
 40
6.0
 40
6.0
 40
6.0
 40
7.0
 40
7.0
 40
7.0
 40
8.0
 40
8.0
 40
8.0
 40
9.0
 40
9.0
 40
9.0
 40
10.0
 40
10.0
 40
10.0
 40
11.0
 40
11.0
 40
11.0
 40
12.0
 40
12.0
 40
12.0
 40
13.0
 40
13.0
 40
13.0
 40
14.0
 40
14.0
 40
14.0
 40
15.0
 40
15.0
 40
15.0
 40
16.0
 40
16.0
 40
16.0
 40
17.0
 40
17.0
 40
17.0
 40
18.0
 40
18.0
 40
18.0
 40
19.0
 40
19.0
 40
19.0
 40
20.0
 40
20.0
 40
20.0
 40
21.0
 40
21.0
 40
21.0
 40
22.0
 40
22.0
 40
22.0
 40
23.0
 40
23.0
 40
23.0
 40
24.0
 40
24.0
 40
24.0
 40
25.0
 40
25.0
 40
25.0
 40
26.0
 40
26.0
 40
26.0
 40
27.0
 40
27.0
 40
27.0
 40
28.0
 40
28.0
 40
28.0
 40
29.0
 40
29.0
 40
29.0
 40
30.0
 40
30.0
 40
30.0
 40
31.0
 40
31.0
 40
31.0
 40
32.0
 40
32.0
 40
32.0
 40
33.0
 40
33.0
 40
33.0
 40
34.0
 40
34.0
 40
34.0
 40
35.0
 40
35.0
 40
35.0
 40
36.0
 40
36.0
 40
36.0
 40
37.0
 40
37.0
 40
37.0
 40
38.0
 40
38.0
 40
38.0
 40
39.0
 40
39.0
 40
39.0
 40
40.0
 40
40.0
 40
40.0
 40
41.0
 40
41.0
 40
41.0
 40
42.0
 40
42.0
 40
42.0
 40
43.0
 40
43.0
 40
43.0
 40
44.0
 40
44.0
 40
44.0
 40
45.0
 40
45.0
 40
45.0
 40
46.0
 40
46.0
 40
46.0
 40
47.0
 40
47.0
 40
47.0
 40
48.0
 40
48.0
 40
48.0
 40
49.0
 40
49.0
 40
49.0
 40
50.0
 40
50.0
 40
50.0
 40
51.0
 40
51.0
 40
51.0
 40
52.0
 40
52.0
 40
52.0
 40
53.0
 40
53.0
 40
53.0
 40
54.0
 40
54.0
 40
54.0
 40
55.0
 40
55.0
 40
55.0
 40
56.0
 40
56.0
 40
56.0
 40
57.0
 40
57.0
 40
57.0
 40
58.0
 40
58.0
 40
58.0
 40
59.0
 40
59.0
 40
59.0
 40
60.0
 40
60.0
 40
60.0
 40
60.0
 10
73.93932755809504
 20
-126.0167730240515
 10
73.93932755809504
 20
-126.0167730240515
 10
73.88041367070917
 20
-124.4134333022299
 10
75.29152474581984
 20
-124.2528841356036
 10
75.29152474581984
 20
-124.2528841356036
 10
76.82011081793347
 20
-124.2528841356036
 10
76.82011081793347
 20
-124.2528841356036
 10
76.82011081793347
 20
-124.2528841356036
 10
77.87844412426648
 20
-124.1243671911912
 10
77.87844412426648
 20
-124.7978905243562
 10
77.87844412426648
 20
-124.7978905243562
 10
77.87844412426648
 20
-125.6639952463619
 10
77.87844412426648
 20
-125.6639952463619
 10
77.87844412426648
 20
-125.6639952463619
 10
75.84997195379489
 20
-125.6639952463619
 10
75.84997195379489
 20
-125.6639952463619
 10
75.84997195379489
 20
-125.6639952463619
 10
75.26224419101129
 20
-125.9209938574085
 10
75.29152474581984
 20
-126.5621321905816
 10
75.29152474581984
 20
-126.5621321905816
 10
75.29152474581984
 20
-128.1654719124032
 10
75.29152474581984
 20
-128.1654719124032
 10
75.29152474581984
 20
-128.1654719124032
 10
94.89997146778892
 20
-128.1014074679745
 10
94.89997146778892
 20
-128.1014074679745
 10
94.89997146778892
 20
-128.1014074679745
 10
95.340943678761
 20
-128.4865702456561
 10
95.340943678761
 20
-128.4865702456561
 10
95.340943678761
 20
-128.4865702456561
 10
95.54696589572715
 20
-128.133439690189
 10
95.54696589572715
 20
-128.133439690189
 10
95.54696589572715
 20
-128.133439690189
 10
104.5427989995577
 20
-128.133439690189
 10
104.5427989995577
 20
-128.133439690189
 10
104.5427989995577
 20
-128.133439690189
 10
105.2190739823045
 20
-128.1978569123949
 10
105.1601600949186
 20
-127.2676877459607
 10
105.1601600949186
 20
-127.2676877459607
 10
102.6907157134749
 20
-125.535831079727
 10
102.6907157134749
 20
-125.535831079727
 10
102.6907157134749
 20
-125.535831079727
 10
101.9265990663025
 20
-125.150315524268
 10
102.2497435025028
 20
-124.5092124688728
 10
102.2497435025028
 20
-124.5092124688728
 10
104.3598484486696
 20
-125.2140624686965
 10
104.9772095440305
 20
-125.6953571907984
 10
104.9772095440305
 20
-125.6953571907984
 10
106.5123572826434
 20
-126.6902963572162
 10
106.5123572826434
 20
-126.6902963572162
 10
106.5123572826434
 20
-126.6902963572162
 10
106.1006656264798
 20
-129.4484188565266
 10
106.1006656264798
 20
-129.4484188565266
 10
106.1006656264798
 20
-129.4484188565266
 10
103.6019406902276
 20
-129.4484188565266
 10
103.6019406902276
 20
-129.4484188565266
 10
103.6019406902276
 20
-129.4484188565266
 10
103.24916292145
 20
-129.0632560788451
 10
103.24916292145
 20
-129.0632560788451
 10
103.24916292145
 20
-129.0632560788451
 10
103.0138601496753
 20
-129.3199371898921
 10
103.0138601496753
 20
-129.3199371898921
 10
103.0138601496753
 20
-129.3199371898921
 10
101.2499713057869
 20
-129.3199371898921
 10
101.2499713057869
 20
-129.3199371898921
 10
101.2499713057869
 20
-129.3199371898921
 10
100.9561074243951
 20
-128.9995444121944
 10
100.9561074243951
 20
-128.9995444121944
 10
100.9561074243951
 20
-128.9995444121944
 10
100.6767074315232
 20
-129.3040974676742
 10
100.6767074315232
 20
-129.3040974676742
 10
100.6767074315232
 20
-129.3040974676742
 10
98.86872136653767
 20
-129.3040974676742
 10
98.86872136653767
 20
-129.3040974676742
 10
98.86872136653767
 20
-129.3040974676742
 10
98.59690609569448
 20
-129.0077994121924
 10
98.59690609569448
 20
-129.0077994121924
 10
98.59690609569448
 20
-129.0077994121924
 10
98.32509082485129
 20
-129.3040974676742
 10
98.32509082485129
 20
-129.3040974676742
 10
98.32509082485129
 20
-129.3040974676742
 10
96.66386031167725
 20
-129.3040974676742
 10
96.66386031167725
 20
-129.3040974676742
 10
96.66386031167725
 20
-129.3040974676742
 10
96.31831448715953
 20
-128.9271896899906
 10
96.31831448715953
 20
-128.9271896899906
 10
96.31831448715953
 20
-128.9271896899906
 10
95.85529366563884
 20
-129.4322263565309
 10
95.85529366563884
 20
-129.4322263565309
 10
95.85529366563884
 20
-129.4322263565309
 10
94.31224370500532
 20
-129.4322263565309
 10
94.31224370500532
 20
-129.4322263565309
 10
94.31224370500532
 20
-129.4322263565309
 10
93.95223399196772
 20
-129.0391613566292
 10
93.95223399196772
 20
-129.0391613566292
 10
93.95223399196772
 20
-129.0391613566292
 10
93.6063353896812
 20
-129.4167394120902
 10
93.6063353896812
 20
-129.4167394120902
 10
93.6063353896812
 20
-129.4167394120902
 10
91.96027432056461
 20
-129.4167394120902
 10
91.96027432056461
 20
-129.4167394120902
 10
91.96027432056461
 20
-129.4167394120902
 10
91.63677710659549
 20
-129.0636088566228
 10
91.63677710659549
 20
-129.0636088566228
 10
91.63677710659549
 20
-129.0636088566228
 10
91.37254655778102
 20
-129.3519694121063
 10
91.37254655778102
 20
-129.3519694121063
 10
91.37254655778102
 20
-129.3519694121063
 10
89.69649937831832
 20
-129.3519694121063
 10
89.69649937831832
 20
-129.3519694121063
 10
89.69649937831832
 20
-129.3519694121063
 10
89.32925772102077
 20
-128.9513196899846
 10
89.32925772102077
 20
-128.9513196899846
 10
89.32925772102077
 20
-128.9513196899846
 10
88.94719939743456
 20
-129.3685146898803
 10
88.94719939743456
 20
-129.3685146898803
 10
88.94719939743456
 20
-129.3685146898803
 10
87.3448827716464
 20
-129.3685146898803
 10
87.3448827716464
 20
-129.3685146898803
 10
87.3448827716464
 20
-129.3685146898803
 10
86.96970361455135
 20
-128.9595746899825
 10
86.96970361455135
 20
-128.9595746899825
 10
86.96970361455135
 20
-128.9595746899825
 10
86.6686077888996
 20
-129.2879049676779
 10
86.6686077888996
 20
-129.2879049676779
 10
86.6686077888996
 20
-129.2879049676779
 10
84.87543839020273
 20
-129.2879049676779
 10
84.87543839020273
 20
-129.2879049676779
 10
84.87543839020273
 20
-129.2879049676779
 10
84.58157450881093
 20
-128.9671594122025
 10
84.58157450881093
 20
-128.9671594122025
 10
84.58157450881093
 20
-128.9671594122025
 10
84.28735784965035
 20
-129.2879049676779
 10
84.28735784965035
 20
-129.2879049676779
 10
84.28735784965035
 20
-129.2879049676779
 10
82.7291384449594
 20
-129.2879049676779
 10
82.7291384449594
 20
-129.2879049676779
 10
82.7291384449594
 20
-129.2879049676779
 10
82.4352745635676
 20
-128.9671594122025
 10
82.4352745635676
 20
-128.9671594122025
 10
82.4352745635676
 20
-128.9671594122025
 10
82.11177734959848
 20
-129.3199371898921
 10
82.11177734959848
 20
-129.3199371898921
 10
82.11177734959848
 20
-129.3199371898921
 10
80.37752183828746
 20
-129.3199371898921
 10
80.37752183828746
 20
-129.3199371898921
 10
80.37752183828746
 20
-129.3199371898921
 10
80.03956073579846
 20
-128.9513196899846
 10
80.03956073579846
 20
-128.9513196899846
 10
80.03956073579846
 20
-128.9513196899846
 10
79.76016074292656
 20
-129.2561902454639
 10
79.76016074292656
 20
-129.2561902454639
 10
79.76016074292656
 20
-129.2561902454639
 10
78.11374689604118
 20
-129.2561902454639
 10
78.11374689604118
 20
-129.2561902454639
 10
78.11374689604118
 20
-129.2561902454639
 10
77.7168719061663
 20
-128.8231555233496
 10
77.7168719061663
 20
-128.8231555233496
 10
77.7168719061663
 20
-128.8231555233496
 10
77.26143580667434
 20
-129.3202546898923
 10
77.26143580667434
 20
-129.3202546898923
 10
77.26143580667434
 20
-129.3202546898923
 10
75.05622197404514
 20
-129.3202546898923
 10
75.05622197404514
 20
-129.3202546898923
 10
75.05622197404514
 20
-129.3202546898923
 10
74.82091920227043
 20
-133.1367458000493
 10
75.58538862721164
 20
-137.1774977434833
 10
75.58538862721164
 20
-137.1774977434833
 10
76.29094416476697
 20
-140.8978569092202
 10
76.29094416476697
 20
-140.8978569092202
 10
76.29094416476697
 20
-140.8978569092202
 10
76.70298859869929
 20
-142.2449035755501
 10
76.14418861295546
 20
-142.4371321866128
 10
76.14418861295546
 20
-142.4371321866128
 10
75.23296363620275
 20
-142.5659666310251
 10
75.08585530662246
 20
-141.0904382980606
 10
75.08585530662246
 20
-141.0904382980606
 10
73.85113311590062
 20
-133.8740160776425
 10
73.9686081129036
 20
-131.6291852448707
 10
73.9686081129036
 20
-131.6291852448707
 10
73.93932755809504
 20
-126.0167730240515
 10
73.93932755809504
 20
-126.0167730240515
 97
        0
 97
        0
 75
     2
 76
     1
 98
        0
  0
ENDSEC
  0
SECTION
  2
OBJECTS
  0
DICTIONARY
  5
C
330
0
100
AcDbDictionary
281
     1
  3
ACAD_GROUP
350
D
  3
ACAD_LAYOUT
350
1A
  3
ACAD_MATERIAL
350
3B
  3
ACAD_MLEADERSTYLE
350
AA
  3
ACAD_MLINESTYLE
350
17
  3
ACAD_PLOTSETTINGS
350
19
  3
ACAD_PLOTSTYLENAME
350
E
  3
ACAD_TABLESTYLE
350
A9
  3
ACAD_VISUALSTYLE
350
2A
  0
SUN
  5
3F
330
29
100
AcDbSun
 90
        1
290
     0
 63
     7
421
 16777215
 40
1.0
291
     1
 91
  2455826
 92
 54000000
292
     0
 70
     2
 71
   256
280
     1
  0
DICTIONARY
  5
D
102
{ACAD_REACTORS
330
C
102
}
330
C
100
AcDbDictionary
281
     1
  0
DICTIONARY
  5
1A
102
{ACAD_REACTORS
330
C
102
}
330
C
100
AcDbDictionary
281
     1
  3
Layout1
350
1E
  3
Layout2
350
26
  3
Model
350
22
  0
DICTIONARY
  5
3B
102
{ACAD_REACTORS
330
C
102
}
330
C
100
AcDbDictionary
281
     1
  3
ByBlock
350
3D
  3
ByLayer
350
3C
  3
Global
350
3E
  0
DICTIONARY
  5
AA
102
{ACAD_REACTORS
330
C
102
}
330
C
100
AcDbDictionary
281
     1
  0
DICTIONARY
  5
17
102
{ACAD_REACTORS
330
C
102
}
330
C
100
AcDbDictionary
281
     1
  3
Standard
350
18
  0
DICTIONARY
  5
19
102
{ACAD_REACTORS
330
C
102
}
330
C
100
AcDbDictionary
281
     1
  0
ACDBDICTIONARYWDFLT
  5
E
102
{ACAD_REACTORS
330
C
102
}
330
C
100
AcDbDictionary
281
     1
  3
Normal
350
F
100
AcDbDictionaryWithDefault
340
F
  0
DICTIONARY
  5
A9
102
{ACAD_REACTORS
330
C
102
}
330
C
100
AcDbDictionary
281
     1
  0
DICTIONARY
  5
2A
102
{ACAD_REACTORS
330
C
102
}
330
C
100
AcDbDictionary
281
     1
  3
2dWireframe
350
2F
  3
3D Hidden
350
31
  3
3dWireframe
350
30
  3
Basic
350
32
  3
Brighten
350
36
  3
ColorChange
350
3A
  3
Conceptual
350
34
  3
Dim
350
35
  3
Facepattern
350
39
  3
Flat
350
2B
  3
FlatWithEdges
350
2C
  3
Gouraud
350
2D
  3
GouraudWithEdges
350
2E
  3
Linepattern
350
38
  3
Realistic
350
33
  3
Thicken
350
37
  0
LAYOUT
  5
1E
102
{ACAD_REACTORS
330
1A
102
}
330
1A
100
AcDbPlotSettings
  1

  2
none_device
  4

  6

 40
0.0
 41
0.0
 42
0.0
 43
0.0
 44
0.0
 45
0.0
 46
0.0
 47
0.0
 48
0.0
 49
0.0
140
0.0
141
0.0
142
1.0
143
1.0
 70
   688
 72
     0
 73
     0
 74
     5
  7

 75
    16
 76
     0
 77
     2
 78
   300
147
1.0
148
0.0
149
0.0
100
AcDbLayout
  1
Layout1
 70
     1
 71
     1
 10
0.0
 20
0.0
 11
12.0
 21
9.0
 12
0.0
 22
0.0
 32
0.0
 14
1.000000000000000E+20
 24
1.000000000000000E+20
 34
1.000000000000000E+20
 15
-1.000000000000000E+20
 25
-1.000000000000000E+20
 35
-1.000000000000000E+20
146
0.0
 13
0.0
 23
0.0
 33
0.0
 16
1.0
 26
0.0
 36
0.0
 17
0.0
 27
1.0
 37
0.0
 76
     0
330
1B
  0
LAYOUT
  5
26
102
{ACAD_REACTORS
330
1A
102
}
330
1A
100
AcDbPlotSettings
  1

  2
none_device
  4

  6

 40
0.0
 41
0.0
 42
0.0
 43
0.0
 44
0.0
 45
0.0
 46
0.0
 47
0.0
 48
0.0
 49
0.0
140
0.0
141
0.0
142
1.0
143
1.0
 70
   688
 72
     0
 73
     0
 74
     5
  7

 75
    16
 76
     0
 77
     2
 78
   300
147
1.0
148
0.0
149
0.0
100
AcDbLayout
  1
Layout2
 70
     1
 71
     2
 10
0.0
 20
0.0
 11
0.0
 21
0.0
 12
0.0
 22
0.0
 32
0.0
 14
0.0
 24
0.0
 34
0.0
 15
0.0
 25
0.0
 35
0.0
146
0.0
 13
0.0
 23
0.0
 33
0.0
 16
1.0
 26
0.0
 36
0.0
 17
0.0
 27
1.0
 37
0.0
 76
     0
330
23
  0
LAYOUT
  5
22
102
{ACAD_REACTORS
330
1A
102
}
330
1A
100
AcDbPlotSettings
  1

  2
none_device
  4

  6

 40
0.0
 41
0.0
 42
0.0
 43
0.0
 44
0.0
 45
0.0
 46
0.0
 47
0.0
 48
0.0
 49
0.0
140
0.0
141
0.0
142
1.0
143
1.0
 70
  1712
 72
     0
 73
     0
 74
     0
  7

 75
     0
 76
     0
 77
     2
 78
   300
147
1.0
148
0.0
149
0.0
100
AcDbLayout
  1
Model
 70
     1
 71
     0
 10
0.0
 20
0.0
 11
12.0
 21
9.0
 12
0.0
 22
0.0
 32
0.0
 14
1.000000000000000E+20
 24
1.000000000000000E+20
 34
1.000000000000000E+20
 15
-1.000000000000000E+20
 25
-1.000000000000000E+20
 35
-1.000000000000000E+20
146
0.0
 13
0.0
 23
0.0
 33
0.0
 16
1.0
 26
0.0
 36
0.0
 17
0.0
 27
1.0
 37
0.0
 76
     0
330
1F
331
29
  0
MATERIAL
  5
3D
102
{ACAD_REACTORS
330
3B
102
}
330
3B
100
AcDbMaterial
  1
ByBlock
 72
     1
 94
      127
  0
MATERIAL
  5
3C
102
{ACAD_REACTORS
330
3B
102
}
330
3B
100
AcDbMaterial
  1
ByLayer
 72
     1
 94
      127
  0
MATERIAL
  5
3E
102
{ACAD_REACTORS
330
3B
102
}
330
3B
100
AcDbMaterial
  1
Global
 72
     1
 94
      127
  0
MLINESTYLE
  5
18
102
{ACAD_REACTORS
330
17
102
}
330
17
100
AcDbMlineStyle
  2
Standard
 70
     0
  3

 62
   256
 51
90.0
 52
90.0
 71
     2
 49
0.5
 62
   256
  6
BYLAYER
 49
-0.5
 62
   256
  6
BYLAYER
  0
ACDBPLACEHOLDER
  5
F
102
{ACAD_REACTORS
330
E
102
}
330
E
  0
VISUALSTYLE
  5
2F
102
{ACAD_REACTORS
330
2A
102
}
330
2A
100
AcDbVisualStyle
  2
2dWireframe
 70
     4
177
     2
291
     0
 71
     0
176
     1
 72
     2
176
     1
 73
     0
176
     1
 90
        0
176
     1
 40
-0.6
176
     1
 41
-30.0
176
     1
 62
     5
 63
     7
421
 16777215
176
     1
 74
     1
176
     1
 91
        4
176
     1
 64
     7
176
     1
 65
   257
176
     1
 75
     1
176
     1
175
     1
176
     1
 42
1.0
176
     1
 92
        0
176
     1
 66
   257
176
     1
 43
1.0
176
     1
 76
     1
176
     1
 77
     6
176
     1
 78
     2
176
     1
 67
     7
176
     1
 79
     5
176
     1
170
     0
176
     1
171
     0
176
     1
290
     0
176
     1
 93
        1
176
     1
 44
0.0
176
     1
173
     0
176
     1
  0
VISUALSTYLE
  5
31
102
{ACAD_REACTORS
330
2A
102
}
330
2A
100
AcDbVisualStyle
  2
3D Hidden
 70
     6
177
     2
291
     0
 71
     1
176
     1
 72
     2
176
     1
 73
     2
176
     1
 90
        0
176
     1
 40
-0.6
176
     1
 41
-30.0
176
     1
 62
     5
 63
     7
421
 16777215
176
     1
 74
     2
176
     1
 91
        2
176
     1
 64
     7
176
     1
 65
   257
176
     1
 75
     2
176
     1
175
     1
176
     1
 42
40.0
176
     1
 92
        0
176
     1
 66
   257
176
     1
 43
1.0
176
     1
 76
     1
176
     1
 77
     6
176
     1
 78
     2
176
     1
 67
     7
176
     1
 79
     3
176
     1
170
     0
176
     1
171
     0
176
     1
290
     0
176
     1
 93
        1
176
     1
 44
0.0
176
     1
173
     0
176
     1
  0
VISUALSTYLE
  5
30
102
{ACAD_REACTORS
330
2A
102
}
330
2A
100
AcDbVisualStyle
  2
3dWireframe
 70
     5
177
     2
291
     0
 71
     0
176
     1
 72
     2
176
     1
 73
     0
176
     1
 90
        0
176
     1
 40
-0.6
176
     1
 41
-30.0
176
     1
 62
     5
 63
     7
421
 16777215
176
     1
 74
     1
176
     1
 91
        4
176
     1
 64
     7
176
     1
 65
   257
176
     1
 75
     1
176
     1
175
     1
176
     1
 42
1.0
176
     1
 92
        0
176
     1
 66
   257
176
     1
 43
1.0
176
     1
 76
     1
176
     1
 77
     6
176
     1
 78
     2
176
     1
 67
     7
176
     1
 79
     5
176
     1
170
     0
176
     1
171
     0
176
     1
290
     0
176
     1
 93
        1
176
     1
 44
0.0
176
     1
173
     0
176
     1
  0
VISUALSTYLE
  5
32
102
{ACAD_REACTORS
330
2A
102
}
330
2A
100
AcDbVisualStyle
  2
Basic
 70
     7
177
     2
291
     1
 71
     1
176
     1
 72
     0
176
     1
 73
     1
176
     1
 90
        0
176
     1
 40
-0.6
176
     1
 41
-30.0
176
     1
 62
     5
 63
     7
421
 16777215
176
     1
 74
     0
176
     1
 91
        4
176
     1
 64
     7
176
     1
 65
   257
176
     1
 75
     1
176
     1
175
     1
176
     1
 42
1.0
176
     1
 92
        8
176
     1
 66
     7
176
     1
 43
1.0
176
     1
 76
     1
176
     1
 77
     6
176
     1
 78
     2
176
     1
 67
     7
176
     1
 79
     5
176
     1
170
     0
176
     1
171
     0
176
     1
290
     0
176
     1
 93
        1
176
     1
 44
0.0
176
     1
173
     0
176
     1
  0
VISUALSTYLE
  5
36
102
{ACAD_REACTORS
330
2A
102
}
330
2A
100
AcDbVisualStyle
  2
Brighten
 70
    12
177
     2
291
     1
 71
     2
176
     1
 72
     2
176
     1
 73
     0
176
     1
 90
        0
176
     1
 40
-0.6
176
     1
 41
-30.0
176
     1
 62
     5
 63
     7
421
 16777215
176
     1
 74
     1
176
     1
 91
        4
176
     1
 64
     7
176
     1
 65
   257
176
     1
 75
     1
176
     1
175
     1
176
     1
 42
1.0
176
     1
 92
        8
176
     1
 66
     7
176
     1
 43
1.0
176
     1
 76
     1
176
     1
 77
     6
176
     1
 78
     2
176
     1
 67
     7
176
     1
 79
     5
176
     1
170
     0
176
     1
171
     0
176
     1
290
     0
176
     1
 93
        1
176
     1
 44
50.0
176
     1
173
     0
176
     1
  0
VISUALSTYLE
  5
3A
102
{ACAD_REACTORS
330
2A
102
}
330
2A
100
AcDbVisualStyle
  2
ColorChange
 70
    16
177
     2
291
     1
 71
     2
176
     1
 72
     2
176
     1
 73
     3
176
     1
 90
        0
176
     1
 40
-0.6
176
     1
 41
-30.0
176
     1
 62
     5
 63
     8
421
  8421504
176
     1
 74
     1
176
     1
 91
        4
176
     1
 64
     7
176
     1
 65
   257
176
     1
 75
     1
176
     1
175
     1
176
     1
 42
1.0
176
     1
 92
        8
176
     1
 66
     8
424
  8421504
176
     1
 43
1.0
176
     1
 76
     1
176
     1
 77
     6
176
     1
 78
     2
176
     1
 67
     7
176
     1
 79
     5
176
     1
170
     0
176
     1
171
     0
176
     1
290
     0
176
     1
 93
        1
176
     1
 44
0.0
176
     1
173
     0
176
     1
  0
VISUALSTYLE
  5
34
102
{ACAD_REACTORS
330
2A
102
}
330
2A
100
AcDbVisualStyle
  2
Conceptual
 70
     9
177
     2
291
     0
 71
     3
176
     1
 72
     2
176
     1
 73
     0
176
     1
 90
        0
176
     1
 40
-0.6
176
     1
 41
-30.0
176
     1
 62
     5
 63
     7
421
 16777215
176
     1
 74
     2
176
     1
 91
        2
176
     1
 64
     7
176
     1
 65
   257
176
     1
 75
     1
176
     1
175
     1
176
     1
 42
40.0
176
     1
 92
        8
176
     1
 66
     7
176
     1
 43
1.0
176
     1
 76
     1
176
     1
 77
     6
176
     1
 78
     2
176
     1
 67
     7
176
     1
 79
     3
176
     1
170
     0
176
     1
171
     0
176
     1
290
     0
176
     1
 93
        1
176
     1
 44
0.0
176
     1
173
     0
176
     1
  0
VISUALSTYLE
  5
35
102
{ACAD_REACTORS
330
2A
102
}
330
2A
100
AcDbVisualStyle
  2
Dim
 70
    11
177
     2
291
     1
 71
     2
176
     1
 72
     2
176
     1
 73
     0
176
     1
 90
        0
176
     1
 40
-0.6
176
     1
 41
-30.0
176
     1
 62
     5
 63
     7
421
 16777215
176
     1
 74
     1
176
     1
 91
        4
176
     1
 64
     7
176
     1
 65
   257
176
     1
 75
     1
176
     1
175
     1
176
     1
 42
1.0
176
     1
 92
        8
176
     1
 66
     7
176
     1
 43
1.0
176
     1
 76
     1
176
     1
 77
     6
176
     1
 78
     2
176
     1
 67
     7
176
     1
 79
     5
176
     1
170
     0
176
     1
171
     0
176
     1
290
     0
176
     1
 93
        1
176
     1
 44
-50.0
176
     1
173
     0
176
     1
  0
VISUALSTYLE
  5
39
102
{ACAD_REACTORS
330
2A
102
}
330
2A
100
AcDbVisualStyle
  2
Facepattern
 70
    15
177
     2
291
     1
 71
     2
176
     1
 72
     2
176
     1
 73
     0
176
     1
 90
        0
176
     1
 40
-0.6
176
     1
 41
-30.0
176
     1
 62
     5
 63
     7
421
 16777215
176
     1
 74
     1
176
     1
 91
        4
176
     1
 64
     7
176
     1
 65
   257
176
     1
 75
     1
176
     1
175
     1
176
     1
 42
1.0
176
     1
 92
        8
176
     1
 66
     7
176
     1
 43
1.0
176
     1
 76
     1
176
     1
 77
     6
176
     1
 78
     2
176
     1
 67
     7
176
     1
 79
     5
176
     1
170
     0
176
     1
171
     0
176
     1
290
     0
176
     1
 93
        1
176
     1
 44
0.0
176
     1
173
     0
176
     1
  0
VISUALSTYLE
  5
2B
102
{ACAD_REACTORS
330
2A
102
}
330
2A
100
AcDbVisualStyle
  2
Flat
 70
     0
177
     2
291
     1
 71
     2
176
     1
 72
     1
176
     1
 73
     1
176
     1
 90
        2
176
     1
 40
-0.6
176
     1
 41
30.0
176
     1
 62
     5
 63
     7
421
 16777215
176
     1
 74
     0
176
     1
 91
        4
176
     1
 64
     7
176
     1
 65
   257
176
     1
 75
     1
176
     1
175
     1
176
     1
 42
1.0
176
     1
 92
        8
176
     1
 66
     7
176
     1
 43
1.0
176
     1
 76
     1
176
     1
 77
     6
176
     1
 78
     2
176
     1
 67
     7
176
     1
 79
     5
176
     1
170
     0
176
     1
171
     0
176
     1
290
     0
176
     1
 93
       13
176
     1
 44
0.0
176
     1
173
     0
176
     1
  0
VISUALSTYLE
  5
2C
102
{ACAD_REACTORS
330
2A
102
}
330
2A
100
AcDbVisualStyle
  2
FlatWithEdges
 70
     1
177
     2
291
     1
 71
     2
176
     1
 72
     1
176
     1
 73
     1
176
     1
 90
        2
176
     1
 40
-0.6
176
     1
 41
30.0
176
     1
 62
     5
 63
     7
421
 16777215
176
     1
 74
     1
176
     1
 91
        4
176
     1
 64
     7
176
     1
 65
   257
176
     1
 75
     1
176
     1
175
     1
176
     1
 42
1.0
176
     1
 92
        0
176
     1
 66
   257
176
     1
 43
1.0
176
     1
 76
     1
176
     1
 77
     6
176
     1
 78
     2
176
     1
 67
     7
176
     1
 79
     5
176
     1
170
     0
176
     1
171
     0
176
     1
290
     0
176
     1
 93
       13
176
     1
 44
0.0
176
     1
173
     0
176
     1
  0
VISUALSTYLE
  5
2D
102
{ACAD_REACTORS
330
2A
102
}
330
2A
100
AcDbVisualStyle
  2
Gouraud
 70
     2
177
     2
291
     1
 71
     2
176
     1
 72
     2
176
     1
 73
     1
176
     1
 90
        2
176
     1
 40
-0.6
176
     1
 41
30.0
176
     1
 62
     5
 63
     7
421
 16777215
176
     1
 74
     0
176
     1
 91
        4
176
     1
 64
     7
176
     1
 65
   257
176
     1
 75
     1
176
     1
175
     1
176
     1
 42
1.0
176
     1
 92
        0
176
     1
 66
     7
176
     1
 43
1.0
176
     1
 76
     1
176
     1
 77
     6
176
     1
 78
     2
176
     1
 67
     7
176
     1
 79
     5
176
     1
170
     0
176
     1
171
     0
176
     1
290
     0
176
     1
 93
       13
176
     1
 44
0.0
176
     1
173
     0
176
     1
  0
VISUALSTYLE
  5
2E
102
{ACAD_REACTORS
330
2A
102
}
330
2A
100
AcDbVisualStyle
  2
GouraudWithEdges
 70
     3
177
     2
291
     1
 71
     2
176
     1
 72
     2
176
     1
 73
     1
176
     1
 90
        2
176
     1
 40
-0.6
176
     1
 41
30.0
176
     1
 62
     5
 63
     7
421
 16777215
176
     1
 74
     1
176
     1
 91
        4
176
     1
 64
     7
176
     1
 65
   257
176
     1
 75
     1
176
     1
175
     1
176
     1
 42
1.0
176
     1
 92
        0
176
     1
 66
   257
176
     1
 43
1.0
176
     1
 76
     1
176
     1
 77
     6
176
     1
 78
     2
176
     1
 67
     7
176
     1
 79
     5
176
     1
170
     0
176
     1
171
     0
176
     1
290
     0
176
     1
 93
       13
176
     1
 44
0.0
176
     1
173
     0
176
     1
  0
VISUALSTYLE
  5
38
102
{ACAD_REACTORS
330
2A
102
}
330
2A
100
AcDbVisualStyle
  2
Linepattern
 70
    14
177
     2
291
     1
 71
     2
176
     1
 72
     2
176
     1
 73
     0
176
     1
 90
        0
176
     1
 40
-0.6
176
     1
 41
-30.0
176
     1
 62
     5
 63
     7
421
 16777215
176
     1
 74
     1
176
     1
 91
        4
176
     1
 64
     7
176
     1
 65
   257
176
     1
 75
     7
176
     1
175
     7
176
     1
 42
1.0
176
     1
 92
        8
176
     1
 66
     7
176
     1
 43
1.0
176
     1
 76
     1
176
     1
 77
     6
176
     1
 78
     2
176
     1
 67
     7
176
     1
 79
     5
176
     1
170
     0
176
     1
171
     0
176
     1
290
     0
176
     1
 93
        1
176
     1
 44
0.0
176
     1
173
     0
176
     1
  0
VISUALSTYLE
  5
33
102
{ACAD_REACTORS
330
2A
102
}
330
2A
100
AcDbVisualStyle
  2
Realistic
 70
     8
177
     2
291
     0
 71
     2
176
     1
 72
     2
176
     1
 73
     0
176
     1
 90
        0
176
     1
 40
-0.6
176
     1
 41
-30.0
176
     1
 62
     5
 63
     7
421
 16777215
176
     1
 74
     1
176
     1
 91
        0
176
     1
 64
     7
176
     1
 65
   257
176
     1
 75
     1
176
     1
175
     1
176
     1
 42
1.0
176
     1
 92
        8
176
     1
 66
     8
424
  7895160
176
     1
 43
1.0
176
     1
 76
     1
176
     1
 77
     6
176
     1
 78
     2
176
     1
 67
     7
176
     1
 79
     5
176
     1
170
     0
176
     1
171
     0
176
     1
290
     0
176
     1
 93
       13
176
     1
 44
0.0
176
     1
173
     0
176
     1
  0
VISUALSTYLE
  5
37
102
{ACAD_REACTORS
330
2A
102
}
330
2A
100
AcDbVisualStyle
  2
Thicken
 70
    13
177
     2
291
     1
 71
     2
176
     1
 72
     2
176
     1
 73
     0
176
     1
 90
        0
176
     1
 40
-0.6
176
     1
 41
-30.0
176
     1
 62
     5
 63
     7
421
 16777215
176
     1
 74
     1
176
     1
 91
        4
176
     1
 64
     7
176
     1
 65
   257
176
     1
 75
     1
176
     1
175
     1
176
     1
 42
1.0
176
     1
 92
       12
176
     1
 66
     7
176
     1
 43
1.0
176
     1
 76
     1
176
     1
 77
     6
176
     1
 78
     2
176
     1
 67
     7
176
     1
 79
     5
176
     1
170
     0
176
     1
171
     0
176
     1
290
     0
176
     1
 93
        1
176
     1
 44
0.0
176
     1
173
     0
176
     1
  0
ENDSEC
  0
EOF
