  0
SECTION
  2
HEADER
  9
$ACADVER
  1
AC1024
  9
$ACADMAINTVER
 70
     6
  9
$DWGCODEPAGE
  3
UNDEFINED
  9
$INSBASE
 10
0.0
 20
0.0
 30
0.0
  9
$EXTMIN
 10
1.000000000000000E+20
 20
1.000000000000000E+20
 30
1.000000000000000E+20
  9
$EXTMAX
 10
-1.000000000000000E+20
 20
-1.000000000000000E+20
 30
-1.000000000000000E+20
  9
$LIMMIN
 10
0.0
 20
0.0
  9
$LIMMAX
 10
12.0
 20
9.0
  9
$ORTHOMODE
 70
     0
  9
$REGENMODE
 70
     1
  9
$FILLMODE
 70
     1
  9
$QTEXTMODE
 70
     0
  9
$MIRRTEXT
 70
     1
  9
$LTSCALE
 40
1.0
  9
$ATTMODE
 70
     1
  9
$TEXTSIZE
 40
0.2
  9
$TRACEWID
 40
0.05
  9
$TEXTSTYLE
  7
Standard
  9
$CLAYER
  8
0
  9
$CELTYPE
  6
ByLayer
  9
$CECOLOR
 62
   256
  9
$CELTSCALE
 40
1.0
  9
$DISPSILH
 70
     0
  9
$DIMSCALE
 40
1.0
  9
$DIMASZ
 40
0.18
  9
$DIMEXO
 40
0.0625
  9
$DIMDLI
 40
0.38
  9
$DIMRND
 40
0.0
  9
$DIMDLE
 40
0.0
  9
$DIMEXE
 40
0.18
  9
$DIMTP
 40
0.0
  9
$DIMTM
 40
0.0
  9
$DIMTXT
 40
0.18
  9
$DIMCEN
 40
0.09
  9
$DIMTSZ
 40
0.0
  9
$DIMTOL
 70
     0
  9
$DIMLIM
 70
     0
  9
$DIMTIH
 70
     1
  9
$DIMTOH
 70
     1
  9
$DIMSE1
 70
     0
  9
$DIMSE2
 70
     0
  9
$DIMTAD
 70
     0
  9
$DIMZIN
 70
     0
  9
$DIMBLK
  1

  9
$DIMASO
 70
     1
  9
$DIMSHO
 70
     1
  9
$DIMPOST
  1

  9
$DIMAPOST
  1

  9
$DIMALT
 70
     0
  9
$DIMALTD
 70
     2
  9
$DIMALTF
 40
25.4
  9
$DIMLFAC
 40
1.0
  9
$DIMTOFL
 70
     0
  9
$DIMTVP
 40
0.0
  9
$DIMTIX
 70
     0
  9
$DIMSOXD
 70
     0
  9
$DIMSAH
 70
     0
  9
$DIMBLK1
  1

  9
$DIMBLK2
  1

  9
$DIMSTYLE
  2
Standard
  9
$DIMCLRD
 70
     0
  9
$DIMCLRE
 70
     0
  9
$DIMCLRT
 70
     0
  9
$DIMTFAC
 40
1.0
  9
$DIMGAP
 40
0.09
  9
$DIMJUST
 70
     0
  9
$DIMSD1
 70
     0
  9
$DIMSD2
 70
     0
  9
$DIMTOLJ
 70
     1
  9
$DIMTZIN
 70
     0
  9
$DIMALTZ
 70
     0
  9
$DIMALTTZ
 70
     0
  9
$DIMUPT
 70
     0
  9
$DIMDEC
 70
     4
  9
$DIMTDEC
 70
     4
  9
$DIMALTU
 70
     2
  9
$DIMALTTD
 70
     2
  9
$DIMTXSTY
  7
Standard
  9
$DIMAUNIT
 70
     0
  9
$DIMADEC
 70
     0
  9
$DIMALTRND
 40
0.0
  9
$DIMAZIN
 70
     0
  9
$DIMDSEP
 70
    46
  9
$DIMATFIT
 70
     3
  9
$DIMFRAC
 70
     0
  9
$DIMLDRBLK
  1

  9
$DIMLUNIT
 70
     2
  9
$DIMLWD
 70
    -2
  9
$DIMLWE
 70
    -2
  9
$DIMTMOVE
 70
     0
  9
$DIMFXL
 40
1.0
  9
$DIMFXLON
 70
     0
  9
$DIMJOGANG
 40
0.7853981633974483
  9
$DIMTFILL
 70
     0
  9
$DIMTFILLCLR
 70
     0
  9
$DIMARCSYM
 70
     0
  9
$DIMLTYPE
  6

  9
$DIMLTEX1
  6

  9
$DIMLTEX2
  6

  9
$DIMTXTDIRECTION
 70
     0
  9
$LUNITS
 70
     2
  9
$LUPREC
 70
     4
  9
$SKETCHINC
 40
0.1
  9
$FILLETRAD
 40
0.5
  9
$AUNITS
 70
     0
  9
$AUPREC
 70
     0
  9
$MENU
  1
.
  9
$ELEVATION
 40
0.0
  9
$PELEVATION
 40
0.0
  9
$THICKNESS
 40
0.0
  9
$LIMCHECK
 70
     0
  9
$CHAMFERA
 40
0.5
  9
$CHAMFERB
 40
0.5
  9
$CHAMFERC
 40
1.0
  9
$CHAMFERD
 40
0.0
  9
$SKPOLY
 70
     0
  9
$TDCREATE
 40
2457917.631701377
  9
$TDUCREATE
 40
2457917.256701389
  9
$TDUPDATE
 40
2457917.631701377
  9
$TDUUPDATE
 40
2457917.256701389
  9
$TDINDWG
 40
0.0000000116
  9
$TDUSRTIMER
 40
0.0000000116
  9
$USRTIMER
 70
     1
  9
$ANGBASE
 50
0.0
  9
$ANGDIR
 70
     0
  9
$PDMODE
 70
     0
  9
$PDSIZE
 40
0.0
  9
$PLINEWID
 40
0.0
  9
$SPLFRAME
 70
     0
  9
$SPLINETYPE
 70
     6
  9
$SPLINESEGS
 70
     8
  9
$HANDSEED
  5
A4
  9
$SURFTAB1
 70
     6
  9
$SURFTAB2
 70
     6
  9
$SURFTYPE
 70
     6
  9
$SURFU
 70
     6
  9
$SURFV
 70
     6
  9
$UCSBASE
  2

  9
$UCSNAME
  2

  9
$UCSORG
 10
0.0
 20
0.0
 30
0.0
  9
$UCSXDIR
 10
1.0
 20
0.0
 30
0.0
  9
$UCSYDIR
 10
0.0
 20
1.0
 30
0.0
  9
$UCSORTHOREF
  2

  9
$UCSORTHOVIEW
 70
     0
  9
$UCSORGTOP
 10
0.0
 20
0.0
 30
0.0
  9
$UCSORGBOTTOM
 10
0.0
 20
0.0
 30
0.0
  9
$UCSORGLEFT
 10
0.0
 20
0.0
 30
0.0
  9
$UCSORGRIGHT
 10
0.0
 20
0.0
 30
0.0
  9
$UCSORGFRONT
 10
0.0
 20
0.0
 30
0.0
  9
$UCSORGBACK
 10
0.0
 20
0.0
 30
0.0
  9
$PUCSBASE
  2

  9
$PUCSNAME
  2

  9
$PUCSORG
 10
0.0
 20
0.0
 30
0.0
  9
$PUCSXDIR
 10
1.0
 20
0.0
 30
0.0
  9
$PUCSYDIR
 10
0.0
 20
1.0
 30
0.0
  9
$PUCSORTHOREF
  2

  9
$PUCSORTHOVIEW
 70
     0
  9
$PUCSORGTOP
 10
0.0
 20
0.0
 30
0.0
  9
$PUCSORGBOTTOM
 10
0.0
 20
0.0
 30
0.0
  9
$PUCSORGLEFT
 10
0.0
 20
0.0
 30
0.0
  9
$PUCSORGRIGHT
 10
0.0
 20
0.0
 30
0.0
  9
$PUCSORGFRONT
 10
0.0
 20
0.0
 30
0.0
  9
$PUCSORGBACK
 10
0.0
 20
0.0
 30
0.0
  9
$USERI1
 70
     0
  9
$USERI2
 70
     0
  9
$USERI3
 70
     0
  9
$USERI4
 70
     0
  9
$USERI5
 70
     0
  9
$USERR1
 40
0.0
  9
$USERR2
 40
0.0
  9
$USERR3
 40
0.0
  9
$USERR4
 40
0.0
  9
$USERR5
 40
0.0
  9
$WORLDVIEW
 70
     1
  9
$SHADEDGE
 70
     3
  9
$SHADEDIF
 70
    70
  9
$TILEMODE
 70
     1
  9
$MAXACTVP
 70
    64
  9
$PINSBASE
 10
0.0
 20
0.0
 30
0.0
  9
$PLIMCHECK
 70
     0
  9
$PEXTMIN
 10
1.000000000000000E+20
 20
1.000000000000000E+20
 30
1.000000000000000E+20
  9
$PEXTMAX
 10
-1.000000000000000E+20
 20
-1.000000000000000E+20
 30
-1.000000000000000E+20
  9
$PLIMMIN
 10
0.0
 20
0.0
  9
$PLIMMAX
 10
12.0
 20
9.0
  9
$UNITMODE
 70
     0
  9
$VISRETAIN
 70
     1
  9
$PLINEGEN
 70
     0
  9
$PSLTSCALE
 70
     1
  9
$TREEDEPTH
 70
  3020
  9
$CMLSTYLE
  2
Standard
  9
$CMLJUST
 70
     0
  9
$CMLSCALE
 40
1.0
  9
$PROXYGRAPHICS
 70
     1
  9
$MEASUREMENT
 70
     0
  9
$CELWEIGHT
370
    -1
  9
$ENDCAPS
280
     0
  9
$JOINSTYLE
280
     0
  9
$LWDISPLAY
290
     1
  9
$INSUNITS
 70
     1
  9
$HYPERLINKBASE
  1

  9
$STYLESHEET
  1

  9
$XEDIT
290
     1
  9
$CEPSNTYPE
380
     0
  9
$PSTYLEMODE
290
     1
  9
$FINGERPRINTGUID
  2
{B38541E3-F41E-E7F9-30C5-515262E3EAC8}
  9
$VERSIONGUID
  2
{FAEB1C32-E019-11D5-929B-00C0DF256EC4}
  9
$EXTNAMES
290
     1
  9
$PSVPSCALE
 40
0.0
  9
$OLESTARTUP
290
     0
  9
$SORTENTS
280
   127
  9
$INDEXCTL
280
     0
  9
$HIDETEXT
280
     1
  9
$XCLIPFRAME
280
     2
  9
$HALOGAP
280
     0
  9
$OBSCOLOR
 70
   257
  9
$OBSLTYPE
280
     0
  9
$INTERSECTIONDISPLAY
280
     0
  9
$INTERSECTIONCOLOR
 70
   257
  9
$DIMASSOC
280
     2
  9
$PROJECTNAME
  1

  9
$CAMERADISPLAY
290
     0
  9
$LENSLENGTH
 40
50.0
  9
$CAMERAHEIGHT
 40
0.0
  9
$STEPSPERSEC
 40
2.0
  9
$STEPSIZE
 40
6.0
  9
$3DDWFPREC
 40
2.0
  9
$PSOLWIDTH
 40
0.25
  9
$PSOLHEIGHT
 40
4.0
  9
$LOFTANG1
 40
1.570796326794897
  9
$LOFTANG2
 40
1.570796326794897
  9
$LOFTMAG1
 40
0.0
  9
$LOFTMAG2
 40
0.0
  9
$LOFTPARAM
 70
     7
  9
$LOFTNORMALS
280
     1
  9
$LATITUDE
 40
37.795
  9
$LONGITUDE
 40
-122.394
  9
$NORTHDIRECTION
 40
0.0
  9
$TIMEZONE
 70
 -8000
  9
$LIGHTGLYPHDISPLAY
280
     1
  9
$TILEMODELIGHTSYNCH
280
     1
  9
$CMATERIAL
347
3C
  9
$SOLIDHIST
280
     1
  9
$SHOWHIST
280
     1
  9
$DWFFRAME
280
     2
  9
$DGNFRAME
280
     2
  9
$REALWORLDSCALE
290
     1
  9
$INTERFERECOLOR
 62
   256
  9
$CSHADOW
280
     0
  9
$SHADOWPLANELOCATION
 40
0.0
  0
ENDSEC
  0
SECTION
  2
CLASSES
  0
CLASS
  1
ACDBDICTIONARYWDFLT
  2
AcDbDictionaryWithDefault
  3
ObjectDBX Classes
 90
        0
 91
        4
280
     0
281
     0
  0
CLASS
  1
VISUALSTYLE
  2
AcDbVisualStyle
  3
ObjectDBX Classes
 90
     4095
 91
        4
280
     0
281
     0
  0
CLASS
  1
MATERIAL
  2
AcDbMaterial
  3
ObjectDBX Classes
 90
     1153
 91
        4
280
     0
281
     0
  0
CLASS
  1
SUN
  2
AcDbSun
  3
SCENEOE
 90
     1024
 91
        4
280
     0
281
     0
  0
ENDSEC
  0
SECTION
  2
TABLES
  0
TABLE
  2
VPORT
  5
8
330
0
100
AcDbSymbolTable
 70
     1
  0
VPORT
  5
29
330
8
100
AcDbSymbolTableRecord
100
AcDbViewportTableRecord
  2
*Active
 70
     0
 10
0.0
 20
0.0
 11
1.0
 21
1.0
 12
0.0
 22
0.0
 13
0.0
 23
0.0
 14
0.5
 24
0.5
 15
0.5
 25
0.5
 16
0.0
 26
0.0
 36
1.0
 17
91.00082462281999
 27
-128.4993055234307
 37
0.0
 40
256.9986110468615
 41
0.7081814508812795
 42
50.0
 43
0.0
 44
0.0
 50
0.0
 51
0.0
 71
     0
 72
   100
 73
     1
 74
     3
 75
     0
 76
     0
 77
     0
 78
     0
281
     0
 65
     1
110
0.0
120
0.0
130
0.0
111
1.0
121
0.0
131
0.0
112
0.0
122
1.0
132
0.0
 79
     0
146
0.0
 60
     3
 61
     5
292
     1
282
     1
141
0.0
142
0.0
 63
   250
361
3F
  0
ENDTAB
  0
TABLE
  2
LTYPE
  5
5
330
0
100
AcDbSymbolTable
 70
     1
  0
LTYPE
  5
14
330
5
100
AcDbSymbolTableRecord
100
AcDbLinetypeTableRecord
  2
ByBlock
 70
     0
  3

 72
    65
 73
     0
 40
0.0
  0
LTYPE
  5
15
330
5
100
AcDbSymbolTableRecord
100
AcDbLinetypeTableRecord
  2
ByLayer
 70
     0
  3

 72
    65
 73
     0
 40
0.0
  0
LTYPE
  5
16
330
5
100
AcDbSymbolTableRecord
100
AcDbLinetypeTableRecord
  2
Continuous
 70
     0
  3
Solid line
 72
    65
 73
     0
 40
0.0
  0
ENDTAB
  0
TABLE
  2
LAYER
  5
2
330
0
100
AcDbSymbolTable
 70
     2
  0
LAYER
  5
10
330
2
100
AcDbSymbolTableRecord
100
AcDbLayerTableRecord
  2
0
 70
     0
 62
     7
  6
Continuous
370
    -3
390
F
347
3E
  0
LAYER
  5
40
330
2
100
AcDbSymbolTableRecord
100
AcDbLayerTableRecord
  2
_U+30EC_U+30A4_U+30E4_U+30FC 1
 70
     0
 62
     7
  6
Continuous
370
    -3
390
F
347
3E
  0
ENDTAB
  0
TABLE
  2
STYLE
  5
3
330
0
100
AcDbSymbolTable
 70
     1
  0
STYLE
  5
11
330
3
100
AcDbSymbolTableRecord
100
AcDbTextStyleTableRecord
  2
Standard
 70
     0
 40
0.0
 41
1.0
 50
0.0
 71
     0
 42
0.2
  3
txt
  4

  0
ENDTAB
  0
TABLE
  2
VIEW
  5
6
330
0
100
AcDbSymbolTable
 70
     0
  0
ENDTAB
  0
TABLE
  2
UCS
  5
7
330
0
100
AcDbSymbolTable
 70
     0
  0
ENDTAB
  0
TABLE
  2
APPID
  5
9
330
0
100
AcDbSymbolTable
 70
     1
  0
APPID
  5
12
330
9
100
AcDbSymbolTableRecord
100
AcDbRegAppTableRecord
  2
ACAD
 70
     0
  0
ENDTAB
  0
TABLE
  2
DIMSTYLE
  5
A
330
0
100
AcDbSymbolTable
 70
     1
100
AcDbDimStyleTable
  0
DIMSTYLE
105
27
330
A
100
AcDbSymbolTableRecord
100
AcDbDimStyleTableRecord
  2
Standard
 70
     0
178
     0
340
11
  0
ENDTAB
  0
TABLE
  2
BLOCK_RECORD
  5
1
330
0
100
AcDbSymbolTable
 70
     4
  0
BLOCK_RECORD
  5
1F
330
1
100
AcDbSymbolTableRecord
100
AcDbBlockTableRecord
  2
*Model_Space
340
22
 70
     0
280
     1
281
     0
  0
BLOCK_RECORD
  5
1B
330
1
100
AcDbSymbolTableRecord
100
AcDbBlockTableRecord
  2
*Paper_Space
340
1E
 70
     0
280
     1
281
     0
  0
BLOCK_RECORD
  5
23
330
1
100
AcDbSymbolTableRecord
100
AcDbBlockTableRecord
  2
*Paper_Space0
340
26
 70
     0
280
     1
281
     0
  0
BLOCK_RECORD
  5
60
330
1
100
AcDbSymbolTableRecord
100
AcDbBlockTableRecord
  2
block 2
340
0
102
{BLKREFS
331
61
102
}
 70
     0
280
     1
281
     0
  0
BLOCK_RECORD
  5
86
330
1
100
AcDbSymbolTableRecord
100
AcDbBlockTableRecord
  2
block 3
340
0
102
{BLKREFS
331
87
102
}
 70
     0
280
     1
281
     0
  0
BLOCK_RECORD
  5
8E
330
1
100
AcDbSymbolTableRecord
100
AcDbBlockTableRecord
  2
block 4
340
0
102
{BLKREFS
331
8F
102
}
 70
     0
280
     1
281
     0
  0
ENDTAB
  0
ENDSEC
  0
SECTION
  2
BLOCKS
  0
BLOCK
  5
20
330
1F
100
AcDbEntity
  8
0
100
AcDbBlockBegin
  2
*Model_Space
 70
     0
 10
0.0
 20
0.0
 30
0.0
  3
*Model_Space
  1

  0
ENDBLK
  5
21
330
1F
100
AcDbEntity
  8
0
100
AcDbBlockEnd
  0
BLOCK
  5
1C
330
1B
100
AcDbEntity
 67
     1
  8
0
100
AcDbBlockBegin
  2
*Paper_Space
 70
     0
 10
0.0
 20
0.0
 30
0.0
  3
*Paper_Space
  1

  0
ENDBLK
  5
1D
330
1B
100
AcDbEntity
 67
     1
  8
0
100
AcDbBlockEnd
  0
BLOCK
  5
24
330
23
100
AcDbEntity
  8
0
100
AcDbBlockBegin
  2
*Paper_Space0
 70
     0
 10
0.0
 20
0.0
 30
0.0
  3
*Paper_Space0
  1

  0
ENDBLK
  5
25
330
23
100
AcDbEntity
  8
0
100
AcDbBlockEnd
  0
BLOCK
  5
62
330
60
100
AcDbEntity
  8
0
100
AcDbBlockBegin
  2
block 2
 70
     0
 10
0.0
 20
0.0
 30
0.0
  3
block 2
  1

  0
SPLINE
  5
64
330
60
100
AcDbEntity
  8
_U+30EC_U+30A4_U+30E4_U+30FC 1
370
     0
100
AcDbSpline
210
0.0
220
0.0
230
1.0
 70
    11
 71
     3
 72
    62
 73
    58
 74
     0
 42
0.0000000001
 43
0.0000000001
 12
1.0
 22
0.0
 32
0.0
 13
1.0
 23
0.0
 33
0.0
 40
0.0
 40
0.0
 40
0.0
 40
0.0
 40
1.0
 40
1.0
 40
1.0
 40
2.0
 40
2.0
 40
2.0
 40
3.0
 40
3.0
 40
3.0
 40
4.0
 40
4.0
 40
4.0
 40
5.0
 40
5.0
 40
5.0
 40
6.0
 40
6.0
 40
6.0
 40
7.0
 40
7.0
 40
7.0
 40
8.0
 40
8.0
 40
8.0
 40
9.0
 40
9.0
 40
9.0
 40
10.0
 40
10.0
 40
10.0
 40
11.0
 40
11.0
 40
11.0
 40
12.0
 40
12.0
 40
12.0
 40
13.0
 40
13.0
 40
13.0
 40
14.0
 40
14.0
 40
14.0
 40
15.0
 40
15.0
 40
15.0
 40
16.0
 40
16.0
 40
16.0
 40
17.0
 40
17.0
 40
17.0
 40
18.0
 40
18.0
 40
18.0
 40
19.0
 40
19.0
 40
19.0
 40
19.0
 10
114.871541312428
 20
-122.9482231680477
 30
0.0
 10
114.871541312428
 20
-123.0436523129891
 30
0.0
 10
114.8505262299679
 20
-123.2613823476569
 30
0.0
 10
114.6644910737644
 20
-123.3864393137714
 30
0.0
 10
114.5521809609453
 20
-123.4605088667043
 30
0.0
 10
114.4529622109701
 20
-123.4646429812866
 30
0.0
 10
114.3682128620329
 20
-123.4687770958689
 30
0.0
 10
114.3682128620329
 20
-123.4687770958689
 30
0.0
 10
114.3682128620329
 20
-123.2486354943615
 30
0.0
 10
114.3682128620329
 20
-123.2486354943615
 30
0.0
 10
114.4422824149658
 20
-123.2465684370703
 30
0.0
 10
114.6768934175113
 20
-123.2362331506146
 30
0.0
 10
114.6768934175113
 20
-122.9527017921785
 30
0.0
 10
114.6768934175113
 20
-122.815242482317
 30
0.0
 10
114.6073024887093
 20
-122.6626247523205
 30
0.0
 10
114.3788926580372
 20
-122.6626247523205
 30
0.0
 10
114.2624484306358
 20
-122.6626247523205
 30
0.0
 10
114.2138725842938
 20
-122.7008653122067
 30
0.0
 10
114.1821777058295
 20
-122.732560190671
 30
0.0
 10
114.1081081528966
 20
-122.8066297436039
 30
0.0
 10
114.0953612996012
 20
-122.9230739710054
 30
0.0
 10
114.0953612996012
 20
-122.9778509892208
 30
0.0
 10
114.0953612996012
 20
-122.9971435239382
 30
0.0
 10
114.0974283568923
 20
-123.0329725169848
 30
0.0
 10
114.1015624714746
 20
-123.0605332808668
 30
0.0
 10
114.1015624714746
 20
-123.0605332808668
 30
0.0
 10
113.906914576558
 20
-123.0605332808668
 30
0.0
 10
113.906914576558
 20
-123.0605332808668
 30
0.0
 10
113.91346025798
 20
-123.0222927209805
 30
0.0
 10
113.9155273152711
 20
-122.9802625560605
 30
0.0
 10
113.9155273152711
 20
-122.9737168746385
 30
0.0
 10
113.9155273152711
 20
-122.9082600604188
 30
0.0
 10
113.8941677232626
 20
-122.7094780509199
 30
0.0
 10
113.6574896634259
 20
-122.7094780509199
 30
0.0
 10
113.479722736387
 20
-122.7094780509199
 30
0.0
 10
113.424601208623
 20
-122.8403916793594
 30
0.0
 10
113.424601208623
 20
-122.9506347348873
 30
0.0
 10
113.424601208623
 20
-123.214873558606
 30
0.0
 10
113.6574896634259
 20
-123.2234862973191
 30
0.0
 10
113.7291476495191
 20
-123.2276204119014
 30
0.0
 10
113.7291476495191
 20
-123.2276204119014
 30
0.0
 10
113.7291476495191
 20
-123.4308810455312
 30
0.0
 10
113.7291476495191
 20
-123.4308810455312
 30
0.0
 10
113.6044351929531
 20
-123.4222683068181
 30
0.0
 10
113.2278862564153
 20
-123.394707542936
 30
0.0
 10
113.2278862564153
 20
-122.9378878815919
 30
0.0
 10
113.2278862564153
 20
-122.7136121655022
 30
0.0
 10
113.355010279821
 20
-122.4724554815347
 30
0.0
 10
113.6509439820039
 20
-122.4724554815347
 30
0.0
 10
113.837323647756
 20
-122.4724554815347
 30
0.0
 10
113.9196614298534
 20
-122.5675401169276
 30
0.0
 10
113.9809841294909
 20
-122.6671033764513
 30
0.0
 10
114.0085448933729
 20
-122.6057806768138
 30
0.0
 10
114.0888156181792
 20
-122.4238796351926
 30
0.0
 10
114.3661458047418
 20
-122.4238796351926
 30
0.0
 10
114.7044541813933
 20
-122.4238796351926
 30
0.0
 10
114.871541312428
 20
-122.6712374910336
 30
0.0
 10
114.871541312428
 20
-122.9482231680477
 30
0.0
  0
HATCH
  5
65
330
60
100
AcDbEntity
  8
_U+30EC_U+30A4_U+30E4_U+30FC 1
 62
   179
420
  2234388
100
AcDbHatch
 10
0.0
 20
0.0
 30
0.0
210
0.0
220
0.0
230
1.0
  2
SOLID
 70
     1
 71
     0
 91
        1
 92
        1
 93
        1
 72
     4
 94
        3
 73
     0
 74
     1
 95
       62
 96
       58
 40
0.0
 40
0.0
 40
0.0
 40
0.0
 40
1.0
 40
1.0
 40
1.0
 40
2.0
 40
2.0
 40
2.0
 40
3.0
 40
3.0
 40
3.0
 40
4.0
 40
4.0
 40
4.0
 40
5.0
 40
5.0
 40
5.0
 40
6.0
 40
6.0
 40
6.0
 40
7.0
 40
7.0
 40
7.0
 40
8.0
 40
8.0
 40
8.0
 40
9.0
 40
9.0
 40
9.0
 40
10.0
 40
10.0
 40
10.0
 40
11.0
 40
11.0
 40
11.0
 40
12.0
 40
12.0
 40
12.0
 40
13.0
 40
13.0
 40
13.0
 40
14.0
 40
14.0
 40
14.0
 40
15.0
 40
15.0
 40
15.0
 40
16.0
 40
16.0
 40
16.0
 40
17.0
 40
17.0
 40
17.0
 40
18.0
 40
18.0
 40
18.0
 40
19.0
 40
19.0
 40
19.0
 40
19.0
 10
114.871541312428
 20
-122.9482231680477
 10
114.871541312428
 20
-123.0436523129891
 10
114.8505262299679
 20
-123.2613823476569
 10
114.6644910737644
 20
-123.3864393137714
 10
114.5521809609453
 20
-123.4605088667043
 10
114.4529622109701
 20
-123.4646429812866
 10
114.3682128620329
 20
-123.4687770958689
 10
114.3682128620329
 20
-123.4687770958689
 10
114.3682128620329
 20
-123.2486354943615
 10
114.3682128620329
 20
-123.2486354943615
 10
114.4422824149658
 20
-123.2465684370703
 10
114.6768934175113
 20
-123.2362331506146
 10
114.6768934175113
 20
-122.9527017921785
 10
114.6768934175113
 20
-122.815242482317
 10
114.6073024887093
 20
-122.6626247523205
 10
114.3788926580372
 20
-122.6626247523205
 10
114.2624484306358
 20
-122.6626247523205
 10
114.2138725842938
 20
-122.7008653122067
 10
114.1821777058295
 20
-122.732560190671
 10
114.1081081528966
 20
-122.8066297436039
 10
114.0953612996012
 20
-122.9230739710054
 10
114.0953612996012
 20
-122.9778509892208
 10
114.0953612996012
 20
-122.9971435239382
 10
114.0974283568923
 20
-123.0329725169848
 10
114.1015624714746
 20
-123.0605332808668
 10
114.1015624714746
 20
-123.0605332808668
 10
113.906914576558
 20
-123.0605332808668
 10
113.906914576558
 20
-123.0605332808668
 10
113.91346025798
 20
-123.0222927209805
 10
113.9155273152711
 20
-122.9802625560605
 10
113.9155273152711
 20
-122.9737168746385
 10
113.9155273152711
 20
-122.9082600604188
 10
113.8941677232626
 20
-122.7094780509199
 10
113.6574896634259
 20
-122.7094780509199
 10
113.479722736387
 20
-122.7094780509199
 10
113.424601208623
 20
-122.8403916793594
 10
113.424601208623
 20
-122.9506347348873
 10
113.424601208623
 20
-123.214873558606
 10
113.6574896634259
 20
-123.2234862973191
 10
113.7291476495191
 20
-123.2276204119014
 10
113.7291476495191
 20
-123.2276204119014
 10
113.7291476495191
 20
-123.4308810455312
 10
113.7291476495191
 20
-123.4308810455312
 10
113.6044351929531
 20
-123.4222683068181
 10
113.2278862564153
 20
-123.394707542936
 10
113.2278862564153
 20
-122.9378878815919
 10
113.2278862564153
 20
-122.7136121655022
 10
113.355010279821
 20
-122.4724554815347
 10
113.6509439820039
 20
-122.4724554815347
 10
113.837323647756
 20
-122.4724554815347
 10
113.9196614298534
 20
-122.5675401169276
 10
113.9809841294909
 20
-122.6671033764513
 10
114.0085448933729
 20
-122.6057806768138
 10
114.0888156181792
 20
-122.4238796351926
 10
114.3661458047418
 20
-122.4238796351926
 10
114.7044541813933
 20
-122.4238796351926
 10
114.871541312428
 20
-122.6712374910336
 10
114.871541312428
 20
-122.9482231680477
 97
        0
 97
        0
 75
     2
 76
     1
 98
        0
  0
ENDBLK
  5
63
330
60
100
AcDbEntity
  8
0
100
AcDbBlockEnd
  0
BLOCK
  5
88
330
86
100
AcDbEntity
  8
0
100
AcDbBlockBegin
  2
block 3
 70
     0
 10
0.0
 20
0.0
 30
0.0
  3
block 3
  1

  0
SPLINE
  5
8A
330
86
100
AcDbEntity
  8
_U+30EC_U+30A4_U+30E4_U+30FC 1
370
     0
100
AcDbSpline
210
0.0
220
0.0
230
1.0
 70
    11
 71
     3
 72
    26
 73
    22
 74
     0
 42
0.0000000001
 43
0.0000000001
 12
1.0
 22
0.0
 32
0.0
 13
1.0
 23
0.0
 33
0.0
 40
0.0
 40
0.0
 40
0.0
 40
0.0
 40
1.0
 40
1.0
 40
1.0
 40
2.0
 40
2.0
 40
2.0
 40
3.0
 40
3.0
 40
3.0
 40
4.0
 40
4.0
 40
4.0
 40
5.0
 40
5.0
 40
5.0
 40
6.0
 40
6.0
 40
6.0
 40
7.0
 40
7.0
 40
7.0
 40
7.0
 10
68.12194008713618
 20
-129.6627142687996
 30
0.0
 10
68.12194008713618
 20
-129.6627142687996
 30
0.0
 10
67.01778698411361
 20
-129.6627142687996
 30
0.0
 10
67.01778698411361
 20
-129.6627142687996
 30
0.0
 10
67.01778698411361
 20
-129.6627142687996
 30
0.0
 10
67.01778698411361
 20
-129.9927544162865
 30
0.0
 10
67.01778698411361
 20
-129.9927544162865
 30
0.0
 10
67.01778698411361
 20
-129.9927544162865
 30
0.0
 10
66.86964787824787
 20
-129.9927544162865
 30
0.0
 10
66.86964787824787
 20
-129.9927544162865
 30
0.0
 10
66.85483396766129
 20
-129.6606472115085
 30
0.0
 10
66.69188095120897
 20
-129.6141384224576
 30
0.0
 10
66.57750378109868
 20
-129.5845106012844
 30
0.0
 10
66.57750378109868
 20
-129.5845106012844
 30
0.0
 10
66.57750378109868
 20
-129.4384385527098
 30
0.0
 10
66.57750378109868
 20
-129.4384385527098
 30
0.0
 10
66.57750378109868
 20
-129.4384385527098
 30
0.0
 10
68.12194008713618
 20
-129.4384385527098
 30
0.0
 10
68.12194008713618
 20
-129.4384385527098
 30
0.0
 10
68.12194008713618
 20
-129.4384385527098
 30
0.0
 10
68.12194008713618
 20
-129.6627142687996
 30
0.0
 10
68.12194008713618
 20
-129.6627142687996
 30
0.0
  0
HATCH
  5
8B
330
86
100
AcDbEntity
  8
_U+30EC_U+30A4_U+30E4_U+30FC 1
 62
   179
420
  2234388
100
AcDbHatch
 10
0.0
 20
0.0
 30
0.0
210
0.0
220
0.0
230
1.0
  2
SOLID
 70
     1
 71
     0
 91
        1
 92
        1
 93
        1
 72
     4
 94
        3
 73
     0
 74
     1
 95
       26
 96
       22
 40
0.0
 40
0.0
 40
0.0
 40
0.0
 40
1.0
 40
1.0
 40
1.0
 40
2.0
 40
2.0
 40
2.0
 40
3.0
 40
3.0
 40
3.0
 40
4.0
 40
4.0
 40
4.0
 40
5.0
 40
5.0
 40
5.0
 40
6.0
 40
6.0
 40
6.0
 40
7.0
 40
7.0
 40
7.0
 40
7.0
 10
68.12194008713618
 20
-129.6627142687996
 10
68.12194008713618
 20
-129.6627142687996
 10
67.01778698411361
 20
-129.6627142687996
 10
67.01778698411361
 20
-129.6627142687996
 10
67.01778698411361
 20
-129.6627142687996
 10
67.01778698411361
 20
-129.9927544162865
 10
67.01778698411361
 20
-129.9927544162865
 10
67.01778698411361
 20
-129.9927544162865
 10
66.86964787824787
 20
-129.9927544162865
 10
66.86964787824787
 20
-129.9927544162865
 10
66.85483396766129
 20
-129.6606472115085
 10
66.69188095120897
 20
-129.6141384224576
 10
66.57750378109868
 20
-129.5845106012844
 10
66.57750378109868
 20
-129.5845106012844
 10
66.57750378109868
 20
-129.4384385527098
 10
66.57750378109868
 20
-129.4384385527098
 10
66.57750378109868
 20
-129.4384385527098
 10
68.12194008713618
 20
-129.4384385527098
 10
68.12194008713618
 20
-129.4384385527098
 10
68.12194008713618
 20
-129.4384385527098
 10
68.12194008713618
 20
-129.6627142687996
 10
68.12194008713618
 20
-129.6627142687996
 97
        0
 97
        0
 75
     2
 76
     1
 98
        0
  0
SPLINE
  5
8C
330
86
100
AcDbEntity
  8
_U+30EC_U+30A4_U+30E4_U+30FC 1
370
     0
100
AcDbSpline
210
0.0
220
0.0
230
1.0
 70
    11
 71
     3
 72
    53
 73
    49
 74
     0
 42
0.0000000001
 43
0.0000000001
 12
1.0
 22
0.0
 32
0.0
 13
1.0
 23
0.0
 33
0.0
 40
0.0
 40
0.0
 40
0.0
 40
0.0
 40
1.0
 40
1.0
 40
1.0
 40
2.0
 40
2.0
 40
2.0
 40
3.0
 40
3.0
 40
3.0
 40
4.0
 40
4.0
 40
4.0
 40
5.0
 40
5.0
 40
5.0
 40
6.0
 40
6.0
 40
6.0
 40
7.0
 40
7.0
 40
7.0
 40
8.0
 40
8.0
 40
8.0
 40
9.0
 40
9.0
 40
9.0
 40
10.0
 40
10.0
 40
10.0
 40
11.0
 40
11.0
 40
11.0
 40
12.0
 40
12.0
 40
12.0
 40
13.0
 40
13.0
 40
13.0
 40
14.0
 40
14.0
 40
14.0
 40
15.0
 40
15.0
 40
15.0
 40
16.0
 40
16.0
 40
16.0
 40
16.0
 10
68.17258299076936
 20
-128.4562418298651
 30
0.0
 10
68.17258299076936
 20
-128.5344454973803
 30
0.0
 10
68.15570202289163
 20
-128.6360758141952
 30
0.0
 10
68.09231226596303
 20
-128.73770613101
 30
0.0
 10
67.98241371998357
 20
-128.9109944339181
 30
0.0
 10
67.85115558199554
 20
-128.9323540259266
 30
0.0
 10
67.74332409330722
 20
-128.9513020510955
 30
0.0
 10
67.74332409330722
 20
-128.9513020510955
 30
0.0
 10
67.74332409330722
 20
-128.7290933922969
 30
0.0
 10
67.74332409330722
 20
-128.7290933922969
 30
0.0
 10
67.94210610280615
 20
-128.6743163740814
 30
0.0
 10
67.97173392397929
 20
-128.5471923506757
 30
0.0
 10
67.97173392397929
 20
-128.454174772574
 30
0.0
 10
67.97173392397929
 20
-128.3146484054213
 30
0.0
 10
67.87217066445557
 20
-128.1623751849733
 30
0.0
 10
67.6396267192012
 20
-128.1623751849733
 30
0.0
 10
67.38365612464715
 20
-128.1623751849733
 30
0.0
 10
67.31372068629658
 20
-128.3422091693033
 30
0.0
 10
67.31372068629658
 20
-128.4627875112871
 30
0.0
 10
67.31372068629658
 20
-128.4944823897514
 30
0.0
 10
67.31372068629658
 20
-128.6360758141952
 30
0.0
 10
67.44291176699345
 20
-128.7249592777146
 30
0.0
 10
67.44291176699345
 20
-128.7249592777146
 30
0.0
 10
67.42396374182456
 20
-128.9006591474623
 30
0.0
 10
67.42396374182456
 20
-128.9006591474623
 30
0.0
 10
67.42396374182456
 20
-128.9006591474623
 30
0.0
 10
66.57750378109868
 20
-128.7800808054786
 30
0.0
 10
66.57750378109868
 20
-128.7800808054786
 30
0.0
 10
66.57750378109868
 20
-128.7800808054786
 30
0.0
 10
66.57750378109868
 20
-128.0014892258121
 30
0.0
 10
66.57750378109868
 20
-128.0014892258121
 30
0.0
 10
66.57750378109868
 20
-128.0014892258121
 30
0.0
 10
66.7721516760153
 20
-128.0014892258121
 30
0.0
 10
66.7721516760153
 20
-128.0014892258121
 30
0.0
 10
66.7721516760153
 20
-128.0014892258121
 30
0.0
 10
66.7721516760153
 20
-128.6171277890263
 30
0.0
 10
66.7721516760153
 20
-128.6171277890263
 30
0.0
 10
66.7721516760153
 20
-128.6171277890263
 30
0.0
 10
67.19520940160398
 20
-128.682584603246
 30
0.0
 10
67.19520940160398
 20
-128.682584603246
 30
0.0
 10
67.16144746584852
 20
-128.6212619036086
 30
0.0
 10
67.1211398486711
 20
-128.5389241215111
 30
0.0
 10
67.1211398486711
 20
-128.4204128368185
 30
0.0
 10
67.1211398486711
 20
-128.1665092995556
 30
0.0
 10
67.30751951442312
 20
-127.9294867301704
 30
0.0
 10
67.62067869403234
 20
-127.9294867301704
 30
0.0
 10
67.93797198822385
 20
-127.9294867301704
 30
0.0
 10
68.17258299076936
 20
-128.1537624462602
 30
0.0
 10
68.17258299076936
 20
-128.4562418298651
 30
0.0
  0
HATCH
  5
8D
330
86
100
AcDbEntity
  8
_U+30EC_U+30A4_U+30E4_U+30FC 1
 62
   179
420
  2234388
100
AcDbHatch
 10
0.0
 20
0.0
 30
0.0
210
0.0
220
0.0
230
1.0
  2
SOLID
 70
     1
 71
     0
 91
        1
 92
        1
 93
        1
 72
     4
 94
        3
 73
     0
 74
     1
 95
       53
 96
       49
 40
0.0
 40
0.0
 40
0.0
 40
0.0
 40
1.0
 40
1.0
 40
1.0
 40
2.0
 40
2.0
 40
2.0
 40
3.0
 40
3.0
 40
3.0
 40
4.0
 40
4.0
 40
4.0
 40
5.0
 40
5.0
 40
5.0
 40
6.0
 40
6.0
 40
6.0
 40
7.0
 40
7.0
 40
7.0
 40
8.0
 40
8.0
 40
8.0
 40
9.0
 40
9.0
 40
9.0
 40
10.0
 40
10.0
 40
10.0
 40
11.0
 40
11.0
 40
11.0
 40
12.0
 40
12.0
 40
12.0
 40
13.0
 40
13.0
 40
13.0
 40
14.0
 40
14.0
 40
14.0
 40
15.0
 40
15.0
 40
15.0
 40
16.0
 40
16.0
 40
16.0
 40
16.0
 10
68.17258299076936
 20
-128.4562418298651
 10
68.17258299076936
 20
-128.5344454973803
 10
68.15570202289163
 20
-128.6360758141952
 10
68.09231226596303
 20
-128.73770613101
 10
67.98241371998357
 20
-128.9109944339181
 10
67.85115558199554
 20
-128.9323540259266
 10
67.74332409330722
 20
-128.9513020510955
 10
67.74332409330722
 20
-128.9513020510955
 10
67.74332409330722
 20
-128.7290933922969
 10
67.74332409330722
 20
-128.7290933922969
 10
67.94210610280615
 20
-128.6743163740814
 10
67.97173392397929
 20
-128.5471923506757
 10
67.97173392397929
 20
-128.454174772574
 10
67.97173392397929
 20
-128.3146484054213
 10
67.87217066445557
 20
-128.1623751849733
 10
67.6396267192012
 20
-128.1623751849733
 10
67.38365612464715
 20
-128.1623751849733
 10
67.31372068629658
 20
-128.3422091693033
 10
67.31372068629658
 20
-128.4627875112871
 10
67.31372068629658
 20
-128.4944823897514
 10
67.31372068629658
 20
-128.6360758141952
 10
67.44291176699345
 20
-128.7249592777146
 10
67.44291176699345
 20
-128.7249592777146
 10
67.42396374182456
 20
-128.9006591474623
 10
67.42396374182456
 20
-128.9006591474623
 10
67.42396374182456
 20
-128.9006591474623
 10
66.57750378109868
 20
-128.7800808054786
 10
66.57750378109868
 20
-128.7800808054786
 10
66.57750378109868
 20
-128.7800808054786
 10
66.57750378109868
 20
-128.0014892258121
 10
66.57750378109868
 20
-128.0014892258121
 10
66.57750378109868
 20
-128.0014892258121
 10
66.7721516760153
 20
-128.0014892258121
 10
66.7721516760153
 20
-128.0014892258121
 10
66.7721516760153
 20
-128.0014892258121
 10
66.7721516760153
 20
-128.6171277890263
 10
66.7721516760153
 20
-128.6171277890263
 10
66.7721516760153
 20
-128.6171277890263
 10
67.19520940160398
 20
-128.682584603246
 10
67.19520940160398
 20
-128.682584603246
 10
67.16144746584852
 20
-128.6212619036086
 10
67.1211398486711
 20
-128.5389241215111
 10
67.1211398486711
 20
-128.4204128368185
 10
67.1211398486711
 20
-128.1665092995556
 10
67.30751951442312
 20
-127.9294867301704
 10
67.62067869403234
 20
-127.9294867301704
 10
67.93797198822385
 20
-127.9294867301704
 10
68.17258299076936
 20
-128.1537624462602
 10
68.17258299076936
 20
-128.4562418298651
 97
        0
 97
        0
 75
     2
 76
     1
 98
        0
  0
ENDBLK
  5
89
330
86
100
AcDbEntity
  8
0
100
AcDbBlockEnd
  0
BLOCK
  5
90
330
8E
100
AcDbEntity
  8
0
100
AcDbBlockBegin
  2
block 4
 70
     0
 10
0.0
 20
0.0
 30
0.0
  3
block 4
  1

  0
SPLINE
  5
92
330
8E
100
AcDbEntity
  8
_U+30EC_U+30A4_U+30E4_U+30FC 1
370
     0
100
AcDbSpline
210
0.0
220
0.0
230
1.0
 70
    11
 71
     3
 72
    29
 73
    25
 74
     0
 42
0.0000000001
 43
0.0000000001
 12
1.0
 22
0.0
 32
0.0
 13
1.0
 23
0.0
 33
0.0
 40
0.0
 40
0.0
 40
0.0
 40
0.0
 40
1.0
 40
1.0
 40
1.0
 40
2.0
 40
2.0
 40
2.0
 40
3.0
 40
3.0
 40
3.0
 40
4.0
 40
4.0
 40
4.0
 40
5.0
 40
5.0
 40
5.0
 40
6.0
 40
6.0
 40
6.0
 40
7.0
 40
7.0
 40
7.0
 40
8.0
 40
8.0
 40
8.0
 40
8.0
 10
77.21371932748477
 20
-137.4028102955104
 30
0.0
 10
77.18030190127784
 20
-137.6363877694104
 30
0.0
 10
77.0225165280534
 20
-137.7104573223432
 30
0.0
 10
76.91261798207393
 20
-137.7486978822295
 30
0.0
 10
76.76068927117441
 20
-137.8010633336053
 30
0.0
 10
76.6115166366631
 20
-137.8038194099935
 30
0.0
 10
76.46199949260325
 20
-137.6632595141953
 30
0.0
 10
76.30042451434504
 20
-137.5130533510384
 30
0.0
 10
76.20499536940362
 20
-137.2956678259191
 30
0.0
 10
76.15159638938225
 20
-137.1416720577285
 30
0.0
 10
76.10439858123432
 20
-137.0055907860611
 30
0.0
 10
76.037908238369
 20
-136.7620225352539
 30
0.0
 10
76.07304821231855
 20
-136.5398138764553
 30
0.0
 10
76.10853269581662
 20
-136.3124375744288
 30
0.0
 10
76.25288219664859
 20
-136.2376790023989
 30
0.0
 10
76.37449406727791
 20
-136.1956488374789
 30
0.0
 10
76.5247002304348
 20
-136.1436278956516
 30
0.0
 10
76.6749063935917
 20
-136.1388047619722
 30
0.0
 10
76.82442353765154
 20
-136.2793646577704
 30
0.0
 10
76.98151989177893
 20
-136.4288818018303
 30
0.0
 10
77.07832707491445
 20
-136.6373100786879
 30
0.0
 10
77.13517115042107
 20
-136.8012966237858
 30
0.0
 10
77.19098169728213
 20
-136.9632161115925
 30
0.0
 10
77.24679224414317
 20
-137.1878363372308
 30
0.0
 10
77.21371932748477
 20
-137.4028102955104
 30
0.0
  0
SPLINE
  5
93
330
8E
100
AcDbEntity
  8
_U+30EC_U+30A4_U+30E4_U+30FC 1
370
     0
100
AcDbSpline
210
0.0
220
0.0
230
1.0
 70
    11
 71
     3
 72
    17
 73
    13
 74
     0
 42
0.0000000001
 43
0.0000000001
 12
1.0
 22
0.0
 32
0.0
 13
1.0
 23
0.0
 33
0.0
 40
0.0
 40
0.0
 40
0.0
 40
0.0
 40
1.0
 40
1.0
 40
1.0
 40
2.0
 40
2.0
 40
2.0
 40
3.0
 40
3.0
 40
3.0
 40
4.0
 40
4.0
 40
4.0
 40
4.0
 10
76.43753931465798
 20
-136.3775498791001
 30
0.0
 10
76.2018947834669
 20
-136.4591986421005
 30
0.0
 10
76.25047062980892
 20
-136.742385490988
 30
0.0
 10
76.36346976172511
 20
-137.0682915238927
 30
0.0
 10
76.4682006644767
 20
-137.3700818884005
 30
0.0
 10
76.6032484074985
 20
-137.6501681513514
 30
0.0
 10
76.84853920604829
 20
-137.5650742928657
 30
0.0
 10
77.08280569904528
 20
-137.4841145489623
 30
0.0
 10
77.03664141954293
 20
-137.2023057382689
 30
0.0
 10
76.92329777807821
 20
-136.8743326480731
 30
0.0
 10
76.81891138487514
 20
-136.5725422835652
 30
0.0
 10
76.68179658456219
 20
-136.2931450397114
 30
0.0
 10
76.43753931465798
 20
-136.3775498791001
 30
0.0
  0
HATCH
  5
94
330
8E
100
AcDbEntity
  8
_U+30EC_U+30A4_U+30E4_U+30FC 1
 62
   179
420
  2234388
100
AcDbHatch
 10
0.0
 20
0.0
 30
0.0
210
0.0
220
0.0
230
1.0
  2
SOLID
 70
     1
 71
     0
 91
        2
 92
        1
 93
        1
 72
     4
 94
        3
 73
     0
 74
     1
 95
       29
 96
       25
 40
0.0
 40
0.0
 40
0.0
 40
0.0
 40
1.0
 40
1.0
 40
1.0
 40
2.0
 40
2.0
 40
2.0
 40
3.0
 40
3.0
 40
3.0
 40
4.0
 40
4.0
 40
4.0
 40
5.0
 40
5.0
 40
5.0
 40
6.0
 40
6.0
 40
6.0
 40
7.0
 40
7.0
 40
7.0
 40
8.0
 40
8.0
 40
8.0
 40
8.0
 10
77.21371932748477
 20
-137.4028102955104
 10
77.18030190127784
 20
-137.6363877694104
 10
77.0225165280534
 20
-137.7104573223432
 10
76.91261798207393
 20
-137.7486978822295
 10
76.76068927117441
 20
-137.8010633336053
 10
76.6115166366631
 20
-137.8038194099935
 10
76.46199949260325
 20
-137.6632595141953
 10
76.30042451434504
 20
-137.5130533510384
 10
76.20499536940362
 20
-137.2956678259191
 10
76.15159638938225
 20
-137.1416720577285
 10
76.10439858123432
 20
-137.0055907860611
 10
76.037908238369
 20
-136.7620225352539
 10
76.07304821231855
 20
-136.5398138764553
 10
76.10853269581662
 20
-136.3124375744288
 10
76.25288219664859
 20
-136.2376790023989
 10
76.37449406727791
 20
-136.1956488374789
 10
76.5247002304348
 20
-136.1436278956516
 10
76.6749063935917
 20
-136.1388047619722
 10
76.82442353765154
 20
-136.2793646577704
 10
76.98151989177893
 20
-136.4288818018303
 10
77.07832707491445
 20
-136.6373100786879
 10
77.13517115042107
 20
-136.8012966237858
 10
77.19098169728213
 20
-136.9632161115925
 10
77.24679224414317
 20
-137.1878363372308
 10
77.21371932748477
 20
-137.4028102955104
 97
        0
 97
        0
 92
        1
 93
        1
 72
     4
 94
        3
 73
     0
 74
     1
 95
       17
 96
       13
 40
0.0
 40
0.0
 40
0.0
 40
0.0
 40
1.0
 40
1.0
 40
1.0
 40
2.0
 40
2.0
 40
2.0
 40
3.0
 40
3.0
 40
3.0
 40
4.0
 40
4.0
 40
4.0
 40
4.0
 10
76.43753931465798
 20
-136.3775498791001
 10
76.2018947834669
 20
-136.4591986421005
 10
76.25047062980892
 20
-136.742385490988
 10
76.36346976172511
 20
-137.0682915238927
 10
76.4682006644767
 20
-137.3700818884005
 10
76.6032484074985
 20
-137.6501681513514
 10
76.84853920604829
 20
-137.5650742928657
 10
77.08280569904528
 20
-137.4841145489623
 10
77.03664141954293
 20
-137.2023057382689
 10
76.92329777807821
 20
-136.8743326480731
 10
76.81891138487514
 20
-136.5725422835652
 10
76.68179658456219
 20
-136.2931450397114
 10
76.43753931465798
 20
-136.3775498791001
 97
        0
 97
        0
 75
     2
 76
     1
 98
        0
  0
POLYLINE
  5
95
330
8E
100
AcDbEntity
  8
_U+30EC_U+30A4_U+30E4_U+30FC 1
370
     0
100
AcDb2dPolyline
 66
     1
 10
0.0
 20
0.0
 30
0.0
  0
VERTEX
  5
96
330
95
100
AcDbEntity
  8
_U+30EC_U+30A4_U+30E4_U+30FC 1
370
     0
100
AcDbVertex
100
AcDb2dVertex
 10
77.59233532131373
 20
-137.4599988805656
 30
0.0
  0
VERTEX
  5
97
330
95
100
AcDbEntity
  8
_U+30EC_U+30A4_U+30E4_U+30FC 1
370
     0
100
AcDbVertex
100
AcDb2dVertex
 10
77.50999753921626
 20
-137.2219427825348
 30
0.0
  0
VERTEX
  5
98
330
95
100
AcDbEntity
  8
_U+30EC_U+30A4_U+30E4_U+30FC 1
370
     0
100
AcDbVertex
100
AcDb2dVertex
 10
77.7477091276985
 20
-137.1396050004373
 30
0.0
  0
VERTEX
  5
99
330
95
100
AcDbEntity
  8
_U+30EC_U+30A4_U+30E4_U+30FC 1
370
     0
100
AcDbVertex
100
AcDb2dVertex
 10
77.83004690979597
 20
-137.3776610984681
 30
0.0
  0
VERTEX
  5
9A
330
95
100
AcDbEntity
  8
_U+30EC_U+30A4_U+30E4_U+30FC 1
370
     0
100
AcDbVertex
100
AcDb2dVertex
 10
77.59233532131373
 20
-137.4599988805656
 30
0.0
  0
SEQEND
  5
9B
330
95
100
AcDbEntity
  8
_U+30EC_U+30A4_U+30E4_U+30FC 1
370
     0
  0
HATCH
  5
9C
330
8E
100
AcDbEntity
  8
_U+30EC_U+30A4_U+30E4_U+30FC 1
 62
   179
420
  2234388
100
AcDbHatch
 10
0.0
 20
0.0
 30
0.0
210
0.0
220
0.0
230
1.0
  2
SOLID
 70
     1
 71
     0
 91
        1
 92
        1
 93
        4
 72
     1
 10
77.59233532131373
 20
-137.4599988805656
 11
77.50999753921626
 21
-137.2219427825348
 72
     1
 10
77.50999753921626
 20
-137.2219427825348
 11
77.7477091276985
 21
-137.1396050004373
 72
     1
 10
77.7477091276985
 20
-137.1396050004373
 11
77.83004690979597
 21
-137.3776610984681
 72
     1
 10
77.83004690979597
 20
-137.3776610984681
 11
77.59233532131373
 21
-137.4599988805656
 97
        0
 75
     2
 76
     1
 98
        0
  0
SPLINE
  5
9D
330
8E
100
AcDbEntity
  8
_U+30EC_U+30A4_U+30E4_U+30FC 1
370
     0
100
AcDbSpline
210
0.0
220
0.0
230
1.0
 70
    11
 71
     3
 72
    29
 73
    25
 74
     0
 42
0.0000000001
 43
0.0000000001
 12
1.0
 22
0.0
 32
0.0
 13
1.0
 23
0.0
 33
0.0
 40
0.0
 40
0.0
 40
0.0
 40
0.0
 40
1.0
 40
1.0
 40
1.0
 40
2.0
 40
2.0
 40
2.0
 40
3.0
 40
3.0
 40
3.0
 40
4.0
 40
4.0
 40
4.0
 40
5.0
 40
5.0
 40
5.0
 40
6.0
 40
6.0
 40
6.0
 40
7.0
 40
7.0
 40
7.0
 40
8.0
 40
8.0
 40
8.0
 40
8.0
 10
78.54283716569415
 20
-137.1843912417456
 30
0.0
 10
78.29065617617387
 20
-137.2712076479739
 30
0.0
 10
78.00609128909223
 20
-137.224698858923
 30
0.0
 10
77.89171411898194
 20
-136.8950032209846
 30
0.0
 10
77.80799829869036
 20
-136.6531575179201
 30
0.0
 10
77.91100665369933
 20
-136.5167317367041
 30
0.0
 10
77.9905883594086
 20
-136.4244031776995
 30
0.0
 10
77.85312904954714
 20
-136.4092447575644
 30
0.0
 10
77.74391952266471
 20
-136.3258734468213
 30
0.0
 10
77.6912095617404
 20
-136.1742892454703
 30
0.0
 10
77.6016370791239
 20
-135.9138400267854
 30
0.0
 10
77.74495305131029
 20
-135.7209146796114
 30
0.0
 10
78.00471325089813
 20
-135.631342196995
 30
0.0
 10
78.27274167965057
 20
-135.5383246188932
 30
0.0
 10
78.49977347212854
 20
-135.6120496622775
 30
0.0
 10
78.58693438790536
 20
-135.8638861422493
 30
0.0
 10
78.63964434882968
 20
-136.0158148531488
 30
0.0
 10
78.60312633668603
 20
-136.149829067525
 30
0.0
 10
78.50459660580788
 20
-136.246291741112
 30
0.0
 10
78.60484888442865
 20
-136.2652397662809
 30
0.0
 10
78.7860609069528
 20
-136.3031358166187
 30
0.0
 10
78.87218829408404
 20
-136.5511826915566
 30
0.0
 10
78.99448918381042
 20
-136.9049939978918
 30
0.0
 10
78.76883542952655
 20
-137.1058430646819
 30
0.0
 10
78.54283716569415
 20
-137.1843912417456
 30
0.0
  0
SPLINE
  5
9E
330
8E
100
AcDbEntity
  8
_U+30EC_U+30A4_U+30E4_U+30FC 1
370
     0
100
AcDbSpline
210
0.0
220
0.0
230
1.0
 70
    11
 71
     3
 72
    17
 73
    13
 74
     0
 42
0.0000000001
 43
0.0000000001
 12
1.0
 22
0.0
 32
0.0
 13
1.0
 23
0.0
 33
0.0
 40
0.0
 40
0.0
 40
0.0
 40
0.0
 40
1.0
 40
1.0
 40
1.0
 40
2.0
 40
2.0
 40
2.0
 40
3.0
 40
3.0
 40
3.0
 40
4.0
 40
4.0
 40
4.0
 40
4.0
 10
78.06775849827821
 20
-135.8132432386161
 30
0.0
 10
77.91204018234491
 20
-135.866986728186
 30
0.0
 10
77.86311982645437
 20
-135.9848089937816
 30
0.0
 10
77.90756155821408
 20
-136.1122775267358
 30
0.0
 10
77.94752466584298
 20
-136.2287217541373
 30
0.0
 10
78.05432262588573
 20
-136.3169161985597
 30
0.0
 10
78.22209877601739
 20
-136.2590385944075
 30
0.0
 10
78.39021943569759
 20
-136.2008164807067
 30
0.0
 10
78.41950274732221
 20
-136.0650797185879
 30
0.0
 10
78.3791951301448
 20
-135.948980000735
 30
0.0
 10
78.33475339838506
 20
-135.8211669582322
 30
0.0
 10
78.22175426646886
 20
-135.7598442585948
 30
0.0
 10
78.06775849827821
 20
-135.8132432386161
 30
0.0
  0
SPLINE
  5
9F
330
8E
100
AcDbEntity
  8
_U+30EC_U+30A4_U+30E4_U+30FC 1
370
     0
100
AcDbSpline
210
0.0
220
0.0
230
1.0
 70
    11
 71
     3
 72
    17
 73
    13
 74
     0
 42
0.0000000001
 43
0.0000000001
 12
1.0
 22
0.0
 32
0.0
 13
1.0
 23
0.0
 33
0.0
 40
0.0
 40
0.0
 40
0.0
 40
0.0
 40
1.0
 40
1.0
 40
1.0
 40
2.0
 40
2.0
 40
2.0
 40
3.0
 40
3.0
 40
3.0
 40
4.0
 40
4.0
 40
4.0
 40
4.0
 10
78.28376598520337
 20
-136.4368055214464
 30
0.0
 10
78.14802922308452
 20
-136.4840033295943
 30
0.0
 10
78.03261852432865
 20
-136.6159504866793
 30
0.0
 10
78.09876435764545
 20
-136.8078423052078
 30
0.0
 10
78.16594371960782
 20
-137.0018011810273
 30
0.0
 10
78.31890595915291
 20
-137.0558891801458
 30
0.0
 10
78.47875838966851
 20
-137.0004231428332
 30
0.0
 10
78.6551472785133
 20
-136.9397894622929
 30
0.0
 10
78.71888154499042
 20
-136.7875162418448
 30
0.0
 10
78.6606594312897
 20
-136.6197400917131
 30
0.0
 10
78.58831242609945
 20
-136.4099337766614
 30
0.0
 10
78.40985647996351
 20
-136.3933973183322
 30
0.0
 10
78.28376598520337
 20
-136.4368055214464
 30
0.0
  0
HATCH
  5
A0
330
8E
100
AcDbEntity
  8
_U+30EC_U+30A4_U+30E4_U+30FC 1
 62
   179
420
  2234388
100
AcDbHatch
 10
0.0
 20
0.0
 30
0.0
210
0.0
220
0.0
230
1.0
  2
SOLID
 70
     1
 71
     0
 91
        3
 92
        1
 93
        1
 72
     4
 94
        3
 73
     0
 74
     1
 95
       29
 96
       25
 40
0.0
 40
0.0
 40
0.0
 40
0.0
 40
1.0
 40
1.0
 40
1.0
 40
2.0
 40
2.0
 40
2.0
 40
3.0
 40
3.0
 40
3.0
 40
4.0
 40
4.0
 40
4.0
 40
5.0
 40
5.0
 40
5.0
 40
6.0
 40
6.0
 40
6.0
 40
7.0
 40
7.0
 40
7.0
 40
8.0
 40
8.0
 40
8.0
 40
8.0
 10
78.54283716569415
 20
-137.1843912417456
 10
78.29065617617387
 20
-137.2712076479739
 10
78.00609128909223
 20
-137.224698858923
 10
77.89171411898194
 20
-136.8950032209846
 10
77.80799829869036
 20
-136.6531575179201
 10
77.91100665369933
 20
-136.5167317367041
 10
77.9905883594086
 20
-136.4244031776995
 10
77.85312904954714
 20
-136.4092447575644
 10
77.74391952266471
 20
-136.3258734468213
 10
77.6912095617404
 20
-136.1742892454703
 10
77.6016370791239
 20
-135.9138400267854
 10
77.74495305131029
 20
-135.7209146796114
 10
78.00471325089813
 20
-135.631342196995
 10
78.27274167965057
 20
-135.5383246188932
 10
78.49977347212854
 20
-135.6120496622775
 10
78.58693438790536
 20
-135.8638861422493
 10
78.63964434882968
 20
-136.0158148531488
 10
78.60312633668603
 20
-136.149829067525
 10
78.50459660580788
 20
-136.246291741112
 10
78.60484888442865
 20
-136.2652397662809
 10
78.7860609069528
 20
-136.3031358166187
 10
78.87218829408404
 20
-136.5511826915566
 10
78.99448918381042
 20
-136.9049939978918
 10
78.76883542952655
 20
-137.1058430646819
 10
78.54283716569415
 20
-137.1843912417456
 97
        0
 97
        0
 92
        1
 93
        1
 72
     4
 94
        3
 73
     0
 74
     1
 95
       17
 96
       13
 40
0.0
 40
0.0
 40
0.0
 40
0.0
 40
1.0
 40
1.0
 40
1.0
 40
2.0
 40
2.0
 40
2.0
 40
3.0
 40
3.0
 40
3.0
 40
4.0
 40
4.0
 40
4.0
 40
4.0
 10
78.06775849827821
 20
-135.8132432386161
 10
77.91204018234491
 20
-135.866986728186
 10
77.86311982645437
 20
-135.9848089937816
 10
77.90756155821408
 20
-136.1122775267358
 10
77.94752466584298
 20
-136.2287217541373
 10
78.05432262588573
 20
-136.3169161985597
 10
78.22209877601739
 20
-136.2590385944075
 10
78.39021943569759
 20
-136.2008164807067
 10
78.41950274732221
 20
-136.0650797185879
 10
78.3791951301448
 20
-135.948980000735
 10
78.33475339838506
 20
-135.8211669582322
 10
78.22175426646886
 20
-135.7598442585948
 10
78.06775849827821
 20
-135.8132432386161
 97
        0
 97
        0
 92
        1
 93
        1
 72
     4
 94
        3
 73
     0
 74
     1
 95
       17
 96
       13
 40
0.0
 40
0.0
 40
0.0
 40
0.0
 40
1.0
 40
1.0
 40
1.0
 40
2.0
 40
2.0
 40
2.0
 40
3.0
 40
3.0
 40
3.0
 40
4.0
 40
4.0
 40
4.0
 40
4.0
 10
78.28376598520337
 20
-136.4368055214464
 10
78.14802922308452
 20
-136.4840033295943
 10
78.03261852432865
 20
-136.6159504866793
 10
78.09876435764545
 20
-136.8078423052078
 10
78.16594371960782
 20
-137.0018011810273
 10
78.31890595915291
 20
-137.0558891801458
 10
78.47875838966851
 20
-137.0004231428332
 10
78.6551472785133
 20
-136.9397894622929
 10
78.71888154499042
 20
-136.7875162418448
 10
78.6606594312897
 20
-136.6197400917131
 10
78.58831242609945
 20
-136.4099337766614
 10
78.40985647996351
 20
-136.3933973183322
 10
78.28376598520337
 20
-136.4368055214464
 97
        0
 97
        0
 75
     2
 76
     1
 98
        0
  0
ENDBLK
  5
91
330
8E
100
AcDbEntity
  8
0
100
AcDbBlockEnd
  0
ENDSEC
  0
SECTION
  2
ENTITIES
  0
SPLINE
  5
41
330
1F
100
AcDbEntity
  8
_U+30EC_U+30A4_U+30E4_U+30FC 1
370
     0
100
AcDbSpline
210
0.0
220
0.0
230
1.0
 70
    11
 71
     3
 72
   143
 73
   139
 74
     0
 42
0.0000000001
 43
0.0000000001
 12
1.0
 22
0.0
 32
0.0
 13
1.0
 23
0.0
 33
0.0
 40
0.0
 40
0.0
 40
0.0
 40
0.0
 40
1.0
 40
1.0
 40
1.0
 40
2.0
 40
2.0
 40
2.0
 40
3.0
 40
3.0
 40
3.0
 40
4.0
 40
4.0
 40
4.0
 40
5.0
 40
5.0
 40
5.0
 40
6.0
 40
6.0
 40
6.0
 40
7.0
 40
7.0
 40
7.0
 40
8.0
 40
8.0
 40
8.0
 40
9.0
 40
9.0
 40
9.0
 40
10.0
 40
10.0
 40
10.0
 40
11.0
 40
11.0
 40
11.0
 40
12.0
 40
12.0
 40
12.0
 40
13.0
 40
13.0
 40
13.0
 40
14.0
 40
14.0
 40
14.0
 40
15.0
 40
15.0
 40
15.0
 40
16.0
 40
16.0
 40
16.0
 40
17.0
 40
17.0
 40
17.0
 40
18.0
 40
18.0
 40
18.0
 40
19.0
 40
19.0
 40
19.0
 40
20.0
 40
20.0
 40
20.0
 40
21.0
 40
21.0
 40
21.0
 40
22.0
 40
22.0
 40
22.0
 40
23.0
 40
23.0
 40
23.0
 40
24.0
 40
24.0
 40
24.0
 40
25.0
 40
25.0
 40
25.0
 40
26.0
 40
26.0
 40
26.0
 40
27.0
 40
27.0
 40
27.0
 40
28.0
 40
28.0
 40
28.0
 40
29.0
 40
29.0
 40
29.0
 40
30.0
 40
30.0
 40
30.0
 40
31.0
 40
31.0
 40
31.0
 40
32.0
 40
32.0
 40
32.0
 40
33.0
 40
33.0
 40
33.0
 40
34.0
 40
34.0
 40
34.0
 40
35.0
 40
35.0
 40
35.0
 40
36.0
 40
36.0
 40
36.0
 40
37.0
 40
37.0
 40
37.0
 40
38.0
 40
38.0
 40
38.0
 40
39.0
 40
39.0
 40
39.0
 40
40.0
 40
40.0
 40
40.0
 40
41.0
 40
41.0
 40
41.0
 40
42.0
 40
42.0
 40
42.0
 40
43.0
 40
43.0
 40
43.0
 40
44.0
 40
44.0
 40
44.0
 40
45.0
 40
45.0
 40
45.0
 40
46.0
 40
46.0
 40
46.0
 40
46.0
 10
73.64288839899118
 20
-136.4281977436706
 30
0.0
 10
73.64288839899118
 20
-136.4281977436706
 30
0.0
 10
74.3429053255767
 20
-135.8284049660431
 30
0.0
 10
74.3429053255767
 20
-135.8284049660431
 30
0.0
 10
74.3429053255767
 20
-135.8284049660431
 30
0.0
 10
74.33567338131675
 20
-135.8321796882639
 30
0.0
 10
74.33567338131675
 20
-135.8321796882639
 30
0.0
 10
73.25426840890569
 20
-131.1072505227785
 30
0.0
 10
73.1536561892503
 20
-128.2123208012802
 30
0.0
 10
74.04113922216428
 20
-123.447069135805
 30
0.0
 10
74.23044164810919
 20
-122.6193819137898
 30
0.0
 10
74.37737171358627
 20
-122.3859841360702
 30
0.0
 10
75.22435585864457
 20
-122.3859841360702
 30
0.0
 10
75.22435585864457
 20
-122.3859841360702
 30
0.0
 10
75.22986109230365
 20
-122.3842555249596
 30
0.0
 10
75.22986109230365
 20
-122.3842555249596
 30
0.0
 10
75.46516387002274
 20
-122.3842555249596
 30
0.0
 10
76.11180553652761
 20
-122.3842555249596
 30
0.0
 10
76.11180553652761
 20
-122.3842555249596
 30
0.0
 10
76.49403832625228
 20
-122.3842555249596
 30
0.0
 10
76.99374998075156
 20
-122.5604680249155
 30
0.0
 10
77.17013886959636
 20
-123.4424124691394
 30
0.0
 10
77.25748469566403
 20
-123.8787280245858
 30
0.0
 10
78.14027775824272
 20
-124.4420083022228
 30
0.0
 10
78.69819382557515
 20
-124.4556255244415
 30
0.0
 10
79.13902492543971
 20
-124.4663146911057
 30
0.0
 10
80.88100831311317
 20
-124.4556255244415
 30
0.0
 10
80.88100831311317
 20
-124.4556255244415
 30
0.0
 10
81.68287220180164
 20
-124.4556255244415
 30
0.0
 10
82.46180553494011
 20
-124.3243569133634
 30
0.0
 10
83.43194442358646
 20
-123.5013263580137
 30
0.0
 10
84.6947456170348
 20
-122.0823130250349
 30
0.0
 10
85.63680553414636
 20
-122.2666041361002
 30
0.0
 10
86.3711102964894
 20
-123.3678352469358
 30
0.0
 10
86.85067639536577
 20
-124.0870080245337
 30
0.0
 10
87.40739720037045
 20
-124.4482171911101
 30
0.0
 10
87.78222137160007
 20
-124.4482171911101
 30
0.0
 10
87.78222137160007
 20
-124.4482171911101
 30
0.0
 10
87.89246664469364
 20
-124.4482171911101
 30
0.0
 10
87.89246664469364
 20
-124.4482171911101
 30
0.0
 10
88.33343886680562
 20
-124.4482171911101
 30
0.0
 10
90.86902684840466
 20
-124.4482171911101
 30
0.0
 10
90.86902684840466
 20
-124.4482171911101
 30
0.0
 10
90.86902684840466
 20
-124.4482171911101
 30
0.0
 10
91.56064997710965
 20
-124.4556255244415
 30
0.0
 10
91.56064997710965
 20
-124.4556255244415
 30
0.0
 10
92.16319442140365
 20
-124.4273680244489
 30
0.0
 10
92.5748860879672
 20
-124.3832708022377
 30
0.0
 10
93.42754997664338
 20
-123.4425888580283
 30
0.0
 10
94.51481108748214
 20
-121.9138263584106
 30
0.0
 10
95.66098608719618
 20
-122.2507644138816
 30
0.0
 10
96.44887753938414
 20
-123.3678352469358
 30
0.0
 10
96.94738780444386
 20
-124.0742374689815
 30
0.0
 10
97.48516223516853
 20
-124.4482171911101
 30
0.0
 10
97.85998861449481
 20
-124.4482171911101
 30
0.0
 10
97.85998861449481
 20
-124.4482171911101
 30
0.0
 10
97.97023166723783
 20
-124.4482171911101
 30
0.0
 10
97.97023166723783
 20
-124.4482171911101
 30
0.0
 10
98.41120387820992
 20
-124.4482171911101
 30
0.0
 10
100.9467940912994
 20
-124.4482171911101
 30
0.0
 10
100.9467940912994
 20
-124.4482171911101
 30
0.0
 10
100.9467940912994
 20
-124.4482171911101
 30
0.0
 10
101.3354166413328
 20
-124.4640569133284
 30
0.0
 10
101.3354166413328
 20
-124.4640569133284
 30
0.0
 10
102.481944418824
 20
-124.3541666355781
 30
0.0
 10
102.9229166409359
 20
-124.045133302322
 30
0.0
 10
103.6725694185263
 20
-123.4277721913652
 30
0.0
 10
104.5765598320297
 20
-122.4355846916133
 30
0.0
 10
105.32137953525
 20
-122.3000121916473
 30
0.0
 10
107.0053642145102
 20
-122.6090455249034
 30
0.0
 10
108.2007869617902
 20
-122.8285085804039
 30
0.0
 10
109.5037363729936
 20
-124.092334968977
 30
0.0
 10
109.8592658083677
 20
-124.3858460800146
 30
0.0
 10
109.8592658083677
 20
-124.3858460800146
 30
0.0
 10
110.5541321795291
 20
-123.5826416357711
 30
0.0
 10
110.5541321795291
 20
-123.5826416357711
 30
0.0
 10
110.1834685778744
 20
-123.2891305247332
 30
0.0
 10
108.6255694172884
 20
-122.0011741361664
 30
0.0
 10
107.4377286479241
 20
-121.7443519140084
 30
0.0
 10
106.2946228437538
 20
-121.4971605251812
 30
0.0
 10
104.7309027515951
 20
-121.1112921919444
 30
0.0
 10
103.5340662475148
 20
-122.2078666361148
 30
0.0
 10
102.6583333076688
 20
-122.9647513581476
 30
0.0
 10
102.3213926673416
 20
-123.4277721913652
 30
0.0
 10
101.571739908689
 20
-123.5013263580137
 30
0.0
 10
101.571739908689
 20
-123.5013263580137
 30
0.0
 10
101.4473857451949
 20
-123.493918024682
 30
0.0
 10
101.4473857451949
 20
-123.493918024682
 30
0.0
 10
101.4473857451949
 20
-123.493918024682
 30
0.0
 10
98.91179553210542
 20
-123.493918024682
 30
0.0
 10
98.47082332113334
 20
-123.493918024682
 30
0.0
 10
98.47082332113334
 20
-123.493918024682
 30
0.0
 10
98.36058026839032
 20
-123.493918024682
 30
0.0
 10
98.36058026839032
 20
-123.493918024682
 30
0.0
 10
97.80763886443698
 20
-123.5306069135618
 30
0.0
 10
97.50583501241891
 20
-123.0751708025645
 30
0.0
 10
96.94946919327965
 20
-122.4135360805077
 30
0.0
 10
95.98518886489286
 20
-121.2670083030165
 30
0.0
 10
94.54617064348179
 20
-121.0024249697493
 30
0.0
 10
93.42169150550298
 20
-122.2078666361148
 30
0.0
 10
92.56902763836736
 20
-123.1485485803241
 30
0.0
 10
92.20901792532975
 20
-123.4277721913652
 30
0.0
 10
91.4593651666772
 20
-123.5013263580137
 30
0.0
 10
91.4593651666772
 20
-123.5013263580137
 30
0.0
 10
91.36944442160208
 20
-123.493918024682
 30
0.0
 10
91.36944442160208
 20
-123.493918024682
 30
0.0
 10
91.36944442160208
 20
-123.493918024682
 30
0.0
 10
88.8338519003263
 20
-123.493918024682
 30
0.0
 10
88.39287968935422
 20
-123.493918024682
 30
0.0
 10
88.39287968935422
 20
-123.493918024682
 30
0.0
 10
88.28263886681823
 20
-123.493918024682
 30
0.0
 10
88.28263886681823
 20
-123.493918024682
 30
0.0
 10
87.90781025728492
 20
-123.493918024682
 30
0.0
 10
87.34696416048219
 20
-123.1354605247717
 30
0.0
 10
86.8715277560599
 20
-122.4135360805077
 30
0.0
 10
86.07777775625834
 20
-121.2082708030314
 30
0.0
 10
84.37262423636392
 20
-121.1493569141571
 30
0.0
 10
83.34374997916407
 20
-122.2078666361148
 30
0.0
 10
82.49126039547262
 20
-123.1485485803241
 30
0.0
 10
82.13107429355063
 20
-123.4277721913652
 30
0.0
 10
81.38142153489808
 20
-123.5013263580137
 30
0.0
 10
81.38142153489808
 20
-123.5013263580137
 30
0.0
 10
79.63958331342344
 20
-123.5013263580137
 30
0.0
 10
79.19861109131146
 20
-123.5013263580137
 30
0.0
 10
78.75763886919948
 20
-123.5013263580137
 30
0.0
 10
78.00798609160911
 20
-123.3175291358372
 30
0.0
 10
77.81695495916853
 20
-122.5899249693525
 30
0.0
 10
77.5444360917249
 20
-121.5520880251675
 30
0.0
 10
76.4645833142172
 20
-121.4299563585314
 30
0.0
 10
76.2589138698243
 20
-121.4299563585314
 30
0.0
 10
76.2589138698243
 20
-121.4299563585314
 30
0.0
 10
75.08292725114161
 20
-121.4299563585314
 30
0.0
 10
74.8476244793669
 20
-121.4299563585314
 30
0.0
 10
74.13413331479988
 20
-121.4299563585314
 30
0.0
 10
73.5198747910184
 20
-121.9319238584058
 30
0.0
 10
73.37759951687036
 20
-122.6309177471201
 30
0.0
 10
72.31549148841144
 20
-127.8540396902587
 30
0.0
 10
72.40608481943354
 20
-131.2440224671891
 30
0.0
 10
73.64288839899118
 20
-136.4281977436706
 30
0.0
  0
POLYLINE
  5
42
330
1F
100
AcDbEntity
  8
_U+30EC_U+30A4_U+30E4_U+30FC 1
 62
   179
420
  2234388
370
    25
100
AcDb2dPolyline
 66
     1
 10
0.0
 20
0.0
 30
0.0
  0
VERTEX
  5
43
330
42
100
AcDbEntity
  8
_U+30EC_U+30A4_U+30E4_U+30FC 1
 62
   179
420
  2234388
370
    25
100
AcDbVertex
100
AcDb2dVertex
 10
74.8476244793669
 20
-121.4299563585314
 30
0.0
  0
VERTEX
  5
A1
330
42
100
AcDbEntity
  8
0
100
AcDbVertex
100
AcDb2dVertex
 10
74.8476244793669
 20
-121.4299563585314
 30
0.0
  0
SEQEND
  5
44
330
42
100
AcDbEntity
  8
_U+30EC_U+30A4_U+30E4_U+30FC 1
 62
   179
420
  2234388
370
    25
  0
SPLINE
  5
45
330
1F
100
AcDbEntity
  8
_U+30EC_U+30A4_U+30E4_U+30FC 1
 62
   179
420
  2234388
370
    25
100
AcDbSpline
210
0.0
220
0.0
230
1.0
 70
    11
 71
     3
 72
   143
 73
   139
 74
     0
 42
0.0000000001
 43
0.0000000001
 12
1.0
 22
0.0
 32
0.0
 13
1.0
 23
0.0
 33
0.0
 40
0.0
 40
0.0
 40
0.0
 40
0.0
 40
1.0
 40
1.0
 40
1.0
 40
2.0
 40
2.0
 40
2.0
 40
3.0
 40
3.0
 40
3.0
 40
4.0
 40
4.0
 40
4.0
 40
5.0
 40
5.0
 40
5.0
 40
6.0
 40
6.0
 40
6.0
 40
7.0
 40
7.0
 40
7.0
 40
8.0
 40
8.0
 40
8.0
 40
9.0
 40
9.0
 40
9.0
 40
10.0
 40
10.0
 40
10.0
 40
11.0
 40
11.0
 40
11.0
 40
12.0
 40
12.0
 40
12.0
 40
13.0
 40
13.0
 40
13.0
 40
14.0
 40
14.0
 40
14.0
 40
15.0
 40
15.0
 40
15.0
 40
16.0
 40
16.0
 40
16.0
 40
17.0
 40
17.0
 40
17.0
 40
18.0
 40
18.0
 40
18.0
 40
19.0
 40
19.0
 40
19.0
 40
20.0
 40
20.0
 40
20.0
 40
21.0
 40
21.0
 40
21.0
 40
22.0
 40
22.0
 40
22.0
 40
23.0
 40
23.0
 40
23.0
 40
24.0
 40
24.0
 40
24.0
 40
25.0
 40
25.0
 40
25.0
 40
26.0
 40
26.0
 40
26.0
 40
27.0
 40
27.0
 40
27.0
 40
28.0
 40
28.0
 40
28.0
 40
29.0
 40
29.0
 40
29.0
 40
30.0
 40
30.0
 40
30.0
 40
31.0
 40
31.0
 40
31.0
 40
32.0
 40
32.0
 40
32.0
 40
33.0
 40
33.0
 40
33.0
 40
34.0
 40
34.0
 40
34.0
 40
35.0
 40
35.0
 40
35.0
 40
36.0
 40
36.0
 40
36.0
 40
37.0
 40
37.0
 40
37.0
 40
38.0
 40
38.0
 40
38.0
 40
39.0
 40
39.0
 40
39.0
 40
40.0
 40
40.0
 40
40.0
 40
41.0
 40
41.0
 40
41.0
 40
42.0
 40
42.0
 40
42.0
 40
43.0
 40
43.0
 40
43.0
 40
44.0
 40
44.0
 40
44.0
 40
45.0
 40
45.0
 40
45.0
 40
46.0
 40
46.0
 40
46.0
 40
46.0
 10
73.64288839899118
 20
-136.4281977436706
 30
0.0
 10
73.64288839899118
 20
-136.4281977436706
 30
0.0
 10
74.3429053255767
 20
-135.8284049660431
 30
0.0
 10
74.3429053255767
 20
-135.8284049660431
 30
0.0
 10
74.3429053255767
 20
-135.8284049660431
 30
0.0
 10
74.33567338131675
 20
-135.8321796882639
 30
0.0
 10
74.33567338131675
 20
-135.8321796882639
 30
0.0
 10
73.25426840890569
 20
-131.1072505227785
 30
0.0
 10
73.1536561892503
 20
-128.2123208012802
 30
0.0
 10
74.04113922216428
 20
-123.447069135805
 30
0.0
 10
74.23044164810919
 20
-122.6193819137898
 30
0.0
 10
74.37737171358627
 20
-122.3859841360702
 30
0.0
 10
75.22435585864457
 20
-122.3859841360702
 30
0.0
 10
75.22435585864457
 20
-122.3859841360702
 30
0.0
 10
75.22986109230365
 20
-122.3842555249596
 30
0.0
 10
75.22986109230365
 20
-122.3842555249596
 30
0.0
 10
75.46516387002274
 20
-122.3842555249596
 30
0.0
 10
76.11180553652761
 20
-122.3842555249596
 30
0.0
 10
76.11180553652761
 20
-122.3842555249596
 30
0.0
 10
76.49403832625228
 20
-122.3842555249596
 30
0.0
 10
76.99374998075156
 20
-122.5604680249155
 30
0.0
 10
77.17013886959636
 20
-123.4424124691394
 30
0.0
 10
77.25748469566403
 20
-123.8787280245858
 30
0.0
 10
78.14027775824272
 20
-124.4420083022228
 30
0.0
 10
78.69819382557515
 20
-124.4556255244415
 30
0.0
 10
79.13902492543971
 20
-124.4663146911057
 30
0.0
 10
80.88100831311317
 20
-124.4556255244415
 30
0.0
 10
80.88100831311317
 20
-124.4556255244415
 30
0.0
 10
81.68287220180164
 20
-124.4556255244415
 30
0.0
 10
82.46180553494011
 20
-124.3243569133634
 30
0.0
 10
83.43194442358646
 20
-123.5013263580137
 30
0.0
 10
84.6947456170348
 20
-122.0823130250349
 30
0.0
 10
85.63680553414636
 20
-122.2666041361002
 30
0.0
 10
86.3711102964894
 20
-123.3678352469358
 30
0.0
 10
86.85067639536577
 20
-124.0870080245337
 30
0.0
 10
87.40739720037045
 20
-124.4482171911101
 30
0.0
 10
87.78222137160007
 20
-124.4482171911101
 30
0.0
 10
87.78222137160007
 20
-124.4482171911101
 30
0.0
 10
87.89246664469364
 20
-124.4482171911101
 30
0.0
 10
87.89246664469364
 20
-124.4482171911101
 30
0.0
 10
88.33343886680562
 20
-124.4482171911101
 30
0.0
 10
90.86902684840466
 20
-124.4482171911101
 30
0.0
 10
90.86902684840466
 20
-124.4482171911101
 30
0.0
 10
90.86902684840466
 20
-124.4482171911101
 30
0.0
 10
91.56064997710965
 20
-124.4556255244415
 30
0.0
 10
91.56064997710965
 20
-124.4556255244415
 30
0.0
 10
92.16319442140365
 20
-124.4273680244489
 30
0.0
 10
92.5748860879672
 20
-124.3832708022377
 30
0.0
 10
93.42754997664338
 20
-123.4425888580283
 30
0.0
 10
94.51481108748214
 20
-121.9138263584106
 30
0.0
 10
95.66098608719618
 20
-122.2507644138816
 30
0.0
 10
96.44887753938414
 20
-123.3678352469358
 30
0.0
 10
96.94738780444386
 20
-124.0742374689815
 30
0.0
 10
97.48516223516853
 20
-124.4482171911101
 30
0.0
 10
97.85998861449481
 20
-124.4482171911101
 30
0.0
 10
97.85998861449481
 20
-124.4482171911101
 30
0.0
 10
97.97023166723783
 20
-124.4482171911101
 30
0.0
 10
97.97023166723783
 20
-124.4482171911101
 30
0.0
 10
98.41120387820992
 20
-124.4482171911101
 30
0.0
 10
100.9467940912994
 20
-124.4482171911101
 30
0.0
 10
100.9467940912994
 20
-124.4482171911101
 30
0.0
 10
100.9467940912994
 20
-124.4482171911101
 30
0.0
 10
101.3354166413328
 20
-124.4640569133284
 30
0.0
 10
101.3354166413328
 20
-124.4640569133284
 30
0.0
 10
102.481944418824
 20
-124.3541666355781
 30
0.0
 10
102.9229166409359
 20
-124.045133302322
 30
0.0
 10
103.6725694185263
 20
-123.4277721913652
 30
0.0
 10
104.5765598320297
 20
-122.4355846916133
 30
0.0
 10
105.3964859222227
 20
-122.0238930250497
 30
0.0
 10
107.0053642145102
 20
-122.6090455249034
 30
0.0
 10
108.1946133508366
 20
-123.0415863581286
 30
0.0
 10
109.5037363729936
 20
-124.092334968977
 30
0.0
 10
109.8592658083677
 20
-124.3858460800146
 30
0.0
 10
109.8592658083677
 20
-124.3858460800146
 30
0.0
 10
110.5541321795291
 20
-123.5826416357711
 30
0.0
 10
110.5541321795291
 20
-123.5826416357711
 30
0.0
 10
110.1834685778744
 20
-123.2891305247332
 30
0.0
 10
108.5549405638661
 20
-122.2126996916689
 30
0.0
 10
107.4377286479241
 20
-121.7443519140084
 30
0.0
 10
106.3590400643326
 20
-121.292161358566
 30
0.0
 10
104.7309027515951
 20
-121.1112921919444
 30
0.0
 10
103.5340662475148
 20
-122.2078666361148
 30
0.0
 10
102.6583333076688
 20
-122.9647513581476
 30
0.0
 10
102.3213926673416
 20
-123.4277721913652
 30
0.0
 10
101.571739908689
 20
-123.5013263580137
 30
0.0
 10
101.571739908689
 20
-123.5013263580137
 30
0.0
 10
101.4473857451949
 20
-123.493918024682
 30
0.0
 10
101.4473857451949
 20
-123.493918024682
 30
0.0
 10
101.4473857451949
 20
-123.493918024682
 30
0.0
 10
98.91179553210542
 20
-123.493918024682
 30
0.0
 10
98.47082332113334
 20
-123.493918024682
 30
0.0
 10
98.47082332113334
 20
-123.493918024682
 30
0.0
 10
98.36058026839032
 20
-123.493918024682
 30
0.0
 10
98.36058026839032
 20
-123.493918024682
 30
0.0
 10
97.80763886443698
 20
-123.5306069135618
 30
0.0
 10
97.50583501241891
 20
-123.0751708025645
 30
0.0
 10
96.94946919327965
 20
-122.4135360805077
 30
0.0
 10
95.98518886489286
 20
-121.2670083030165
 30
0.0
 10
94.54617064348179
 20
-121.0024249697493
 30
0.0
 10
93.42169150550298
 20
-122.2078666361148
 30
0.0
 10
92.56902763836736
 20
-123.1485485803241
 30
0.0
 10
92.20901792532975
 20
-123.4277721913652
 30
0.0
 10
91.4593651666772
 20
-123.5013263580137
 30
0.0
 10
91.4593651666772
 20
-123.5013263580137
 30
0.0
 10
91.36944442160208
 20
-123.493918024682
 30
0.0
 10
91.36944442160208
 20
-123.493918024682
 30
0.0
 10
91.36944442160208
 20
-123.493918024682
 30
0.0
 10
88.8338519003263
 20
-123.493918024682
 30
0.0
 10
88.39287968935422
 20
-123.493918024682
 30
0.0
 10
88.39287968935422
 20
-123.493918024682
 30
0.0
 10
88.28263886681823
 20
-123.493918024682
 30
0.0
 10
88.28263886681823
 20
-123.493918024682
 30
0.0
 10
87.90781025728492
 20
-123.493918024682
 30
0.0
 10
87.34696416048219
 20
-123.1354605247717
 30
0.0
 10
86.8715277560599
 20
-122.4135360805077
 30
0.0
 10
86.07777775625834
 20
-121.2082708030314
 30
0.0
 10
84.37262423636392
 20
-121.1493569141571
 30
0.0
 10
83.34374997916407
 20
-122.2078666361148
 30
0.0
 10
82.49126039547262
 20
-123.1485485803241
 30
0.0
 10
82.13107429355063
 20
-123.4277721913652
 30
0.0
 10
81.38142153489808
 20
-123.5013263580137
 30
0.0
 10
81.38142153489808
 20
-123.5013263580137
 30
0.0
 10
79.63958331342344
 20
-123.5013263580137
 30
0.0
 10
79.19861109131146
 20
-123.5013263580137
 30
0.0
 10
78.75763886919948
 20
-123.5013263580137
 30
0.0
 10
78.00798609160911
 20
-123.3175291358372
 30
0.0
 10
77.81695495916853
 20
-122.5899249693525
 30
0.0
 10
77.5444360917249
 20
-121.5520880251675
 30
0.0
 10
76.4645833142172
 20
-121.4299563585314
 30
0.0
 10
76.2589138698243
 20
-121.4299563585314
 30
0.0
 10
76.2589138698243
 20
-121.4299563585314
 30
0.0
 10
75.08292725114161
 20
-121.4299563585314
 30
0.0
 10
74.8476244793669
 20
-121.4299563585314
 30
0.0
 10
74.13413331479988
 20
-121.4299563585314
 30
0.0
 10
73.5198747910184
 20
-121.9319238584058
 30
0.0
 10
73.37759951687036
 20
-122.6309177471201
 30
0.0
 10
72.31549148841144
 20
-127.8540396902587
 30
0.0
 10
72.40608481943354
 20
-131.2440224671891
 30
0.0
 10
73.64288839899118
 20
-136.4281977436706
 30
0.0
  0
POLYLINE
  5
46
330
1F
100
AcDbEntity
  8
_U+30EC_U+30A4_U+30E4_U+30FC 1
 62
   179
420
  2234388
370
     9
100
AcDb2dPolyline
 66
     1
 10
0.0
 20
0.0
 30
0.0
  0
VERTEX
  5
47
330
46
100
AcDbEntity
  8
_U+30EC_U+30A4_U+30E4_U+30FC 1
 62
   179
420
  2234388
370
     9
100
AcDbVertex
100
AcDb2dVertex
 10
72.71839897813241
 20
-127.6492169125321
 30
0.0
  0
VERTEX
  5
48
330
46
100
AcDbEntity
  8
_U+30EC_U+30A4_U+30E4_U+30FC 1
 62
   179
420
  2234388
370
     9
100
AcDbVertex
100
AcDb2dVertex
 10
72.71839897813241
 20
-116.4495808042211
 30
0.0
  0
SEQEND
  5
49
330
46
100
AcDbEntity
  8
_U+30EC_U+30A4_U+30E4_U+30FC 1
 62
   179
420
  2234388
370
     9
  0
POLYLINE
  5
4A
330
1F
100
AcDbEntity
  8
_U+30EC_U+30A4_U+30E4_U+30FC 1
 62
   179
420
  2234388
370
     9
100
AcDb2dPolyline
 66
     1
 10
0.0
 20
0.0
 30
0.0
  0
VERTEX
  5
4B
330
4A
100
AcDbEntity
  8
_U+30EC_U+30A4_U+30E4_U+30FC 1
 62
   179
420
  2234388
370
     9
100
AcDbVertex
100
AcDb2dVertex
 10
110.7181385642339
 20
-120.7094430253781
 30
0.0
  0
VERTEX
  5
4C
330
4A
100
AcDbEntity
  8
_U+30EC_U+30A4_U+30E4_U+30FC 1
 62
   179
420
  2234388
370
     9
100
AcDbVertex
100
AcDb2dVertex
 10
110.7181385642339
 20
-116.4495808042211
 30
0.0
  0
SEQEND
  5
4D
330
4A
100
AcDbEntity
  8
_U+30EC_U+30A4_U+30E4_U+30FC 1
 62
   179
420
  2234388
370
     9
  0
SPLINE
  5
4E
330
1F
100
AcDbEntity
  8
_U+30EC_U+30A4_U+30E4_U+30FC 1
 62
   179
420
  2234388
370
     9
100
AcDbSpline
210
0.0
220
0.0
230
1.0
 70
    11
 71
     3
 72
    17
 73
    13
 74
     0
 42
0.0000000001
 43
0.0000000001
 12
1.0
 22
0.0
 32
0.0
 13
1.0
 23
0.0
 33
0.0
 40
0.0
 40
0.0
 40
0.0
 40
0.0
 40
1.0
 40
1.0
 40
1.0
 40
2.0
 40
2.0
 40
2.0
 40
3.0
 40
3.0
 40
3.0
 40
4.0
 40
4.0
 40
4.0
 40
4.0
 10
115.5175037195696
 20
-124.4399621911122
 30
0.0
 10
115.5175037195696
 20
-124.3848230244594
 30
0.0
 10
115.4727009429349
 20
-124.3400555244706
 30
0.0
 10
115.4175999711455
 20
-124.3400555244706
 30
0.0
 10
115.3624578901918
 20
-124.3400555244706
 30
0.0
 10
115.317690391334
 20
-124.3848230244594
 30
0.0
 10
115.317690391334
 20
-124.4399621911122
 30
0.0
 10
115.317690391334
 20
-124.4950660799874
 30
0.0
 10
115.3624578901918
 20
-124.5398688577538
 30
0.0
 10
115.4175999711455
 20
-124.5398688577538
 30
0.0
 10
115.4727009429349
 20
-124.5398688577538
 30
0.0
 10
115.5175037195696
 20
-124.4950660799874
 30
0.0
 10
115.5175037195696
 20
-124.4399621911122
 30
0.0
  0
SPLINE
  5
4F
330
1F
100
AcDbEntity
  8
_U+30EC_U+30A4_U+30E4_U+30FC 1
 62
   179
420
  2234388
370
     9
100
AcDbSpline
210
0.0
220
0.0
230
1.0
 70
    11
 71
     3
 72
    17
 73
    13
 74
     0
 42
0.0000000001
 43
0.0000000001
 12
1.0
 22
0.0
 32
0.0
 13
1.0
 23
0.0
 33
0.0
 40
0.0
 40
0.0
 40
0.0
 40
0.0
 40
1.0
 40
1.0
 40
1.0
 40
2.0
 40
2.0
 40
2.0
 40
3.0
 40
3.0
 40
3.0
 40
4.0
 40
4.0
 40
4.0
 40
4.0
 10
115.5175037195696
 20
-121.4399752474178
 30
0.0
 10
115.5175037195696
 20
-121.3848360807648
 30
0.0
 10
115.4727009429349
 20
-121.3400685807762
 30
0.0
 10
115.4175999711455
 20
-121.3400685807762
 30
0.0
 10
115.3624578901918
 20
-121.3400685807762
 30
0.0
 10
115.317690391334
 20
-121.3848360807648
 30
0.0
 10
115.317690391334
 20
-121.4399752474178
 30
0.0
 10
115.317690391334
 20
-121.4950791362928
 30
0.0
 10
115.3624578901918
 20
-121.5398819140595
 30
0.0
 10
115.4175999711455
 20
-121.5398819140595
 30
0.0
 10
115.4727009429349
 20
-121.5398819140595
 30
0.0
 10
115.5175037195696
 20
-121.4950791362928
 30
0.0
 10
115.5175037195696
 20
-121.4399752474178
 30
0.0
  0
POLYLINE
  5
50
330
1F
100
AcDbEntity
  8
_U+30EC_U+30A4_U+30E4_U+30FC 1
 62
   179
420
  2234388
370
     9
100
AcDb2dPolyline
 66
     1
 10
0.0
 20
0.0
 30
0.0
  0
VERTEX
  5
51
330
50
100
AcDbEntity
  8
_U+30EC_U+30A4_U+30E4_U+30FC 1
 62
   179
420
  2234388
370
     9
100
AcDbVertex
100
AcDb2dVertex
 10
115.4175999711455
 20
-124.0494371912098
 30
0.0
  0
VERTEX
  5
52
330
50
100
AcDbEntity
  8
_U+30EC_U+30A4_U+30E4_U+30FC 1
 62
   179
420
  2234388
370
     9
100
AcDbVertex
100
AcDb2dVertex
 10
115.4175999711455
 20
-125.4423096908616
 30
0.0
  0
SEQEND
  5
53
330
50
100
AcDbEntity
  8
_U+30EC_U+30A4_U+30E4_U+30FC 1
 62
   179
420
  2234388
370
     9
  0
POLYLINE
  5
54
330
1F
100
AcDbEntity
  8
_U+30EC_U+30A4_U+30E4_U+30FC 1
 62
   179
420
  2234388
370
     9
100
AcDb2dPolyline
 66
     1
 10
0.0
 20
0.0
 30
0.0
  0
VERTEX
  5
55
330
54
100
AcDbEntity
  8
_U+30EC_U+30A4_U+30E4_U+30FC 1
 62
   179
420
  2234388
370
     9
100
AcDbVertex
100
AcDb2dVertex
 10
115.4175999711455
 20
-124.0494371912098
 30
0.0
  0
VERTEX
  5
56
330
54
100
AcDbEntity
  8
_U+30EC_U+30A4_U+30E4_U+30FC 1
 62
   179
420
  2234388
370
     9
100
AcDbVertex
100
AcDb2dVertex
 10
115.4175999711455
 20
-120.5495641365292
 30
0.0
  0
SEQEND
  5
57
330
54
100
AcDbEntity
  8
_U+30EC_U+30A4_U+30E4_U+30FC 1
 62
   179
420
  2234388
370
     9
  0
POLYLINE
  5
58
330
1F
100
AcDbEntity
  8
_U+30EC_U+30A4_U+30E4_U+30FC 1
 62
   179
420
  2234388
370
     9
100
AcDb2dPolyline
 66
     1
 10
0.0
 20
0.0
 30
0.0
  0
VERTEX
  5
59
330
58
100
AcDbEntity
  8
_U+30EC_U+30A4_U+30E4_U+30FC 1
 62
   179
420
  2234388
370
     9
100
AcDbVertex
100
AcDb2dVertex
 10
112.4003593546501
 20
-124.4401385800011
 30
0.0
  0
VERTEX
  5
5A
330
58
100
AcDbEntity
  8
_U+30EC_U+30A4_U+30E4_U+30FC 1
 62
   179
420
  2234388
370
     9
100
AcDbVertex
100
AcDb2dVertex
 10
116.417372193118
 20
-124.4401385800011
 30
0.0
  0
SEQEND
  5
5B
330
58
100
AcDbEntity
  8
_U+30EC_U+30A4_U+30E4_U+30FC 1
 62
   179
420
  2234388
370
     9
  0
POLYLINE
  5
5C
330
1F
100
AcDbEntity
  8
_U+30EC_U+30A4_U+30E4_U+30FC 1
 62
   179
420
  2234388
370
     9
100
AcDb2dPolyline
 66
     1
 10
0.0
 20
0.0
 30
0.0
  0
VERTEX
  5
5D
330
5C
100
AcDbEntity
  8
_U+30EC_U+30A4_U+30E4_U+30FC 1
 62
   179
420
  2234388
370
     9
100
AcDbVertex
100
AcDb2dVertex
 10
113.9575557038117
 20
-121.4401163585289
 30
0.0
  0
VERTEX
  5
5E
330
5C
100
AcDbEntity
  8
_U+30EC_U+30A4_U+30E4_U+30FC 1
 62
   179
420
  2234388
370
     9
100
AcDbVertex
100
AcDb2dVertex
 10
116.417372193118
 20
-121.4401163585289
 30
0.0
  0
SEQEND
  5
5F
330
5C
100
AcDbEntity
  8
_U+30EC_U+30A4_U+30E4_U+30FC 1
 62
   179
420
  2234388
370
     9
  0
INSERT
  5
61
330
1F
100
AcDbEntity
  8
_U+30EC_U+30A4_U+30E4_U+30FC 1
100
AcDbBlockReference
  2
block 2
 10
0.0
 20
0.0
 30
0.0
  0
SPLINE
  5
66
330
1F
100
AcDbEntity
  8
_U+30EC_U+30A4_U+30E4_U+30FC 1
 62
   179
420
  2234388
370
     9
100
AcDbSpline
210
0.0
220
0.0
230
1.0
 70
    11
 71
     3
 72
    17
 73
    13
 74
     0
 42
0.0000000001
 43
0.0000000001
 12
1.0
 22
0.0
 32
0.0
 13
1.0
 23
0.0
 33
0.0
 40
0.0
 40
0.0
 40
0.0
 40
0.0
 40
1.0
 40
1.0
 40
1.0
 40
2.0
 40
2.0
 40
2.0
 40
3.0
 40
3.0
 40
3.0
 40
4.0
 40
4.0
 40
4.0
 40
4.0
 10
75.28411641267552
 20
-138.9272755208239
 30
0.0
 10
75.28411641267552
 20
-138.8721363541708
 30
0.0
 10
75.23934891381762
 20
-138.8273688541823
 30
0.0
 10
75.18420974855768
 20
-138.8273688541823
 30
0.0
 10
75.1291058610746
 20
-138.8273688541823
 30
0.0
 10
75.08430308443984
 20
-138.8721363541708
 30
0.0
 10
75.08430308443984
 20
-138.9272755208239
 30
0.0
 10
75.08430308443984
 20
-138.9823794096988
 30
0.0
 10
75.1291058610746
 20
-139.0271821874656
 30
0.0
 10
75.18420974855768
 20
-139.0271821874656
 30
0.0
 10
75.23934891381762
 20
-139.0271821874656
 30
0.0
 10
75.28411641267552
 20
-138.9823794096988
 30
0.0
 10
75.28411641267552
 20
-138.9272755208239
 30
0.0
  0
SPLINE
  5
67
330
1F
100
AcDbEntity
  8
_U+30EC_U+30A4_U+30E4_U+30FC 1
 62
   179
420
  2234388
370
     9
100
AcDbSpline
210
0.0
220
0.0
230
1.0
 70
    11
 71
     3
 72
    17
 73
    13
 74
     0
 42
0.0000000001
 43
0.0000000001
 12
1.0
 22
0.0
 32
0.0
 13
1.0
 23
0.0
 33
0.0
 40
0.0
 40
0.0
 40
0.0
 40
0.0
 40
1.0
 40
1.0
 40
1.0
 40
2.0
 40
2.0
 40
2.0
 40
3.0
 40
3.0
 40
3.0
 40
4.0
 40
4.0
 40
4.0
 40
4.0
 10
74.54240115382046
 20
-139.2541946874088
 30
0.0
 10
74.54240115382046
 20
-139.1987380207562
 30
0.0
 10
74.49759837718571
 20
-139.1542880207672
 30
0.0
 10
74.44249448970263
 20
-139.1542880207672
 30
0.0
 10
74.38735532444268
 20
-139.1542880207672
 30
0.0
 10
74.3425878255848
 20
-139.1987380207562
 30
0.0
 10
74.3425878255848
 20
-139.2541946874088
 30
0.0
 10
74.3425878255848
 20
-139.3093338540613
 30
0.0
 10
74.38735532444268
 20
-139.3541013540505
 30
0.0
 10
74.44249448970263
 20
-139.3541013540505
 30
0.0
 10
74.49759837718571
 20
-139.3541013540505
 30
0.0
 10
74.54240115382046
 20
-139.3093338540613
 30
0.0
 10
74.54240115382046
 20
-139.2541946874088
 30
0.0
  0
SPLINE
  5
68
330
1F
100
AcDbEntity
  8
_U+30EC_U+30A4_U+30E4_U+30FC 1
 62
   179
420
  2234388
370
     9
100
AcDbSpline
210
0.0
220
0.0
230
1.0
 70
    11
 71
     3
 72
    17
 73
    13
 74
     0
 42
0.0000000001
 43
0.0000000001
 12
1.0
 22
0.0
 32
0.0
 13
1.0
 23
0.0
 33
0.0
 40
0.0
 40
0.0
 40
0.0
 40
0.0
 40
1.0
 40
1.0
 40
1.0
 40
2.0
 40
2.0
 40
2.0
 40
3.0
 40
3.0
 40
3.0
 40
4.0
 40
4.0
 40
4.0
 40
4.0
 10
68.81854657762594
 20
-136.4492232992211
 30
0.0
 10
68.81854657762594
 20
-136.3940841325681
 30
0.0
 10
68.77374380099118
 20
-136.3493166325795
 30
0.0
 10
68.71828887170945
 20
-136.3493166325795
 30
0.0
 10
68.66283047048748
 20
-136.3493166325795
 30
0.0
 10
68.61838047162149
 20
-136.3940841325681
 30
0.0
 10
68.61838047162149
 20
-136.4492232992211
 30
0.0
 10
68.61838047162149
 20
-136.5043271880961
 30
0.0
 10
68.66283047048748
 20
-136.5491299658628
 30
0.0
 10
68.71828887170945
 20
-136.5491299658628
 30
0.0
 10
68.77374380099118
 20
-136.5491299658628
 30
0.0
 10
68.81854657762594
 20
-136.5043271880961
 30
0.0
 10
68.81854657762594
 20
-136.4492232992211
 30
0.0
  0
SPLINE
  5
69
330
1F
100
AcDbEntity
  8
_U+30EC_U+30A4_U+30E4_U+30FC 1
 62
   179
420
  2234388
370
     9
100
AcDbSpline
210
0.0
220
0.0
230
1.0
 70
    11
 71
     3
 72
    17
 73
    13
 74
     0
 42
0.0000000001
 43
0.0000000001
 12
1.0
 22
0.0
 32
0.0
 13
1.0
 23
0.0
 33
0.0
 40
0.0
 40
0.0
 40
0.0
 40
0.0
 40
1.0
 40
1.0
 40
1.0
 40
2.0
 40
2.0
 40
2.0
 40
3.0
 40
3.0
 40
3.0
 40
4.0
 40
4.0
 40
4.0
 40
4.0
 10
68.81854657762594
 20
-121.4494296918598
 30
0.0
 10
68.81854657762594
 20
-121.3939730252071
 30
0.0
 10
68.77374380099118
 20
-121.3491702474404
 30
0.0
 10
68.71828887170945
 20
-121.3491702474404
 30
0.0
 10
68.66283047048748
 20
-121.3491702474404
 30
0.0
 10
68.61838047162149
 20
-121.3939730252071
 30
0.0
 10
68.61838047162149
 20
-121.4494296918598
 30
0.0
 10
68.61838047162149
 20
-121.5045688585129
 30
0.0
 10
68.66283047048748
 20
-121.5493363585014
 30
0.0
 10
68.71828887170945
 20
-121.5493363585014
 30
0.0
 10
68.77374380099118
 20
-121.5493363585014
 30
0.0
 10
68.81854657762594
 20
-121.5045688585129
 30
0.0
 10
68.81854657762594
 20
-121.4494296918598
 30
0.0
  0
POLYLINE
  5
6A
330
1F
100
AcDbEntity
  8
_U+30EC_U+30A4_U+30E4_U+30FC 1
 62
   179
420
  2234388
370
     9
100
AcDb2dPolyline
 66
     1
 10
0.0
 20
0.0
 30
0.0
  0
VERTEX
  5
6B
330
6A
100
AcDbEntity
  8
_U+30EC_U+30A4_U+30E4_U+30FC 1
 62
   179
420
  2234388
370
     9
100
AcDbVertex
100
AcDb2dVertex
 10
75.18420974855768
 20
-138.9272755208239
 30
0.0
  0
VERTEX
  5
6C
330
6A
100
AcDbEntity
  8
_U+30EC_U+30A4_U+30E4_U+30FC 1
 62
   179
420
  2234388
370
     9
100
AcDbVertex
100
AcDb2dVertex
 10
77.80146801511918
 20
-138.0191549654951
 30
0.0
  0
SEQEND
  5
6D
330
6A
100
AcDbEntity
  8
_U+30EC_U+30A4_U+30E4_U+30FC 1
 62
   179
420
  2234388
370
     9
  0
POLYLINE
  5
6E
330
1F
100
AcDbEntity
  8
_U+30EC_U+30A4_U+30E4_U+30FC 1
 62
   179
420
  2234388
370
     9
100
AcDb2dPolyline
 66
     1
 10
0.0
 20
0.0
 30
0.0
  0
VERTEX
  5
6F
330
6E
100
AcDbEntity
  8
_U+30EC_U+30A4_U+30E4_U+30FC 1
 62
   179
420
  2234388
370
     9
100
AcDbVertex
100
AcDb2dVertex
 10
73.4978261804698
 20
-139.5818194095493
 30
0.0
  0
VERTEX
  5
70
330
6E
100
AcDbEntity
  8
_U+30EC_U+30A4_U+30E4_U+30FC 1
 62
   179
420
  2234388
370
     9
100
AcDbVertex
100
AcDb2dVertex
 10
75.18420974855768
 20
-138.9272755208239
 30
0.0
  0
SEQEND
  5
71
330
6E
100
AcDbEntity
  8
_U+30EC_U+30A4_U+30E4_U+30FC 1
 62
   179
420
  2234388
370
     9
  0
POLYLINE
  5
72
330
1F
100
AcDbEntity
  8
_U+30EC_U+30A4_U+30E4_U+30FC 1
 62
   179
420
  2234388
370
     9
100
AcDb2dPolyline
 66
     1
 10
0.0
 20
0.0
 30
0.0
  0
VERTEX
  5
73
330
72
100
AcDbEntity
  8
_U+30EC_U+30A4_U+30E4_U+30FC 1
 62
   179
420
  2234388
370
     9
100
AcDbVertex
100
AcDb2dVertex
 10
73.85060394924746
 20
-137.547843854502
 30
0.0
  0
VERTEX
  5
74
330
72
100
AcDbEntity
  8
_U+30EC_U+30A4_U+30E4_U+30FC 1
 62
   179
420
  2234388
370
     9
100
AcDbVertex
100
AcDb2dVertex
 10
74.77047198133523
 20
-140.1988630205058
 30
0.0
  0
SEQEND
  5
75
330
72
100
AcDbEntity
  8
_U+30EC_U+30A4_U+30E4_U+30FC 1
 62
   179
420
  2234388
370
     9
  0
POLYLINE
  5
76
330
1F
100
AcDbEntity
  8
_U+30EC_U+30A4_U+30E4_U+30FC 1
 62
   179
420
  2234388
370
     9
100
AcDb2dPolyline
 66
     1
 10
0.0
 20
0.0
 30
0.0
  0
VERTEX
  5
77
330
76
100
AcDbEntity
  8
_U+30EC_U+30A4_U+30E4_U+30FC 1
 62
   179
420
  2234388
370
     9
100
AcDbVertex
100
AcDb2dVertex
 10
74.70570198298765
 20
-137.547843854502
 30
0.0
  0
VERTEX
  5
78
330
76
100
AcDbEntity
  8
_U+30EC_U+30A4_U+30E4_U+30FC 1
 62
   179
420
  2234388
370
     9
100
AcDbVertex
100
AcDb2dVertex
 10
75.51218724019027
 20
-139.8719085761434
 30
0.0
  0
SEQEND
  5
79
330
76
100
AcDbEntity
  8
_U+30EC_U+30A4_U+30E4_U+30FC 1
 62
   179
420
  2234388
370
     9
  0
POLYLINE
  5
7A
330
1F
100
AcDbEntity
  8
_U+30EC_U+30A4_U+30E4_U+30FC 1
 62
   179
420
  2234388
370
     9
100
AcDb2dPolyline
 66
     1
 10
0.0
 20
0.0
 30
0.0
  0
VERTEX
  5
7B
330
7A
100
AcDbEntity
  8
_U+30EC_U+30A4_U+30E4_U+30FC 1
 62
   179
420
  2234388
370
     9
100
AcDbVertex
100
AcDb2dVertex
 10
68.71828887170945
 20
-136.4492232992211
 30
0.0
  0
VERTEX
  5
7C
330
7A
100
AcDbEntity
  8
_U+30EC_U+30A4_U+30E4_U+30FC 1
 62
   179
420
  2234388
370
     9
100
AcDbVertex
100
AcDb2dVertex
 10
68.71828887170945
 20
-121.4494296918598
 30
0.0
  0
SEQEND
  5
7D
330
7A
100
AcDbEntity
  8
_U+30EC_U+30A4_U+30E4_U+30FC 1
 62
   179
420
  2234388
370
     9
  0
POLYLINE
  5
7E
330
1F
100
AcDbEntity
  8
_U+30EC_U+30A4_U+30E4_U+30FC 1
 62
   179
420
  2234388
370
     9
100
AcDb2dPolyline
 66
     1
 10
0.0
 20
0.0
 30
0.0
  0
VERTEX
  5
7F
330
7E
100
AcDbEntity
  8
_U+30EC_U+30A4_U+30E4_U+30FC 1
 62
   179
420
  2234388
370
     9
100
AcDbVertex
100
AcDb2dVertex
 10
71.17841818408726
 20
-136.4492232992211
 30
0.0
  0
VERTEX
  5
80
330
7E
100
AcDbEntity
  8
_U+30EC_U+30A4_U+30E4_U+30FC 1
 62
   179
420
  2234388
370
     9
100
AcDbVertex
100
AcDb2dVertex
 10
67.71816387195948
 20
-136.4492232992211
 30
0.0
  0
SEQEND
  5
81
330
7E
100
AcDbEntity
  8
_U+30EC_U+30A4_U+30E4_U+30FC 1
 62
   179
420
  2234388
370
     9
  0
POLYLINE
  5
82
330
1F
100
AcDbEntity
  8
_U+30EC_U+30A4_U+30E4_U+30FC 1
 62
   179
420
  2234388
370
     9
100
AcDb2dPolyline
 66
     1
 10
0.0
 20
0.0
 30
0.0
  0
VERTEX
  5
83
330
82
100
AcDbEntity
  8
_U+30EC_U+30A4_U+30E4_U+30FC 1
 62
   179
420
  2234388
370
     9
100
AcDbVertex
100
AcDb2dVertex
 10
72.17819038080317
 20
-121.4494296918598
 30
0.0
  0
VERTEX
  5
84
330
82
100
AcDbEntity
  8
_U+30EC_U+30A4_U+30E4_U+30FC 1
 62
   179
420
  2234388
370
     9
100
AcDbVertex
100
AcDb2dVertex
 10
67.71816387195948
 20
-121.4494296918598
 30
0.0
  0
SEQEND
  5
85
330
82
100
AcDbEntity
  8
_U+30EC_U+30A4_U+30E4_U+30FC 1
 62
   179
420
  2234388
370
     9
  0
INSERT
  5
87
330
1F
100
AcDbEntity
  8
_U+30EC_U+30A4_U+30E4_U+30FC 1
100
AcDbBlockReference
  2
block 3
 10
0.0
 20
0.0
 30
0.0
  0
INSERT
  5
8F
330
1F
100
AcDbEntity
  8
_U+30EC_U+30A4_U+30E4_U+30FC 1
100
AcDbBlockReference
  2
block 4
 10
0.0
 20
0.0
 30
0.0
  0
ENDSEC
  0
SECTION
  2
OBJECTS
  0
DICTIONARY
  5
C
330
0
100
AcDbDictionary
281
     1
  3
ACAD_GROUP
350
D
  3
ACAD_LAYOUT
350
1A
  3
ACAD_MATERIAL
350
3B
  3
ACAD_MLEADERSTYLE
350
A3
  3
ACAD_MLINESTYLE
350
17
  3
ACAD_PLOTSETTINGS
350
19
  3
ACAD_PLOTSTYLENAME
350
E
  3
ACAD_TABLESTYLE
350
A2
  3
ACAD_VISUALSTYLE
350
2A
  0
SUN
  5
3F
330
29
100
AcDbSun
 90
        1
290
     0
 63
     7
421
 16777215
 40
1.0
291
     1
 91
  2455826
 92
 54000000
292
     0
 70
     2
 71
   256
280
     1
  0
DICTIONARY
  5
D
102
{ACAD_REACTORS
330
C
102
}
330
C
100
AcDbDictionary
281
     1
  0
DICTIONARY
  5
1A
102
{ACAD_REACTORS
330
C
102
}
330
C
100
AcDbDictionary
281
     1
  3
Layout1
350
1E
  3
Layout2
350
26
  3
Model
350
22
  0
DICTIONARY
  5
3B
102
{ACAD_REACTORS
330
C
102
}
330
C
100
AcDbDictionary
281
     1
  3
ByBlock
350
3D
  3
ByLayer
350
3C
  3
Global
350
3E
  0
DICTIONARY
  5
A3
102
{ACAD_REACTORS
330
C
102
}
330
C
100
AcDbDictionary
281
     1
  0
DICTIONARY
  5
17
102
{ACAD_REACTORS
330
C
102
}
330
C
100
AcDbDictionary
281
     1
  3
Standard
350
18
  0
DICTIONARY
  5
19
102
{ACAD_REACTORS
330
C
102
}
330
C
100
AcDbDictionary
281
     1
  0
ACDBDICTIONARYWDFLT
  5
E
102
{ACAD_REACTORS
330
C
102
}
330
C
100
AcDbDictionary
281
     1
  3
Normal
350
F
100
AcDbDictionaryWithDefault
340
F
  0
DICTIONARY
  5
A2
102
{ACAD_REACTORS
330
C
102
}
330
C
100
AcDbDictionary
281
     1
  0
DICTIONARY
  5
2A
102
{ACAD_REACTORS
330
C
102
}
330
C
100
AcDbDictionary
281
     1
  3
2dWireframe
350
2F
  3
3D Hidden
350
31
  3
3dWireframe
350
30
  3
Basic
350
32
  3
Brighten
350
36
  3
ColorChange
350
3A
  3
Conceptual
350
34
  3
Dim
350
35
  3
Facepattern
350
39
  3
Flat
350
2B
  3
FlatWithEdges
350
2C
  3
Gouraud
350
2D
  3
GouraudWithEdges
350
2E
  3
Linepattern
350
38
  3
Realistic
350
33
  3
Thicken
350
37
  0
LAYOUT
  5
1E
102
{ACAD_REACTORS
330
1A
102
}
330
1A
100
AcDbPlotSettings
  1

  2
none_device
  4

  6

 40
0.0
 41
0.0
 42
0.0
 43
0.0
 44
0.0
 45
0.0
 46
0.0
 47
0.0
 48
0.0
 49
0.0
140
0.0
141
0.0
142
1.0
143
1.0
 70
   688
 72
     0
 73
     0
 74
     5
  7

 75
    16
 76
     0
 77
     2
 78
   300
147
1.0
148
0.0
149
0.0
100
AcDbLayout
  1
Layout1
 70
     1
 71
     1
 10
0.0
 20
0.0
 11
12.0
 21
9.0
 12
0.0
 22
0.0
 32
0.0
 14
1.000000000000000E+20
 24
1.000000000000000E+20
 34
1.000000000000000E+20
 15
-1.000000000000000E+20
 25
-1.000000000000000E+20
 35
-1.000000000000000E+20
146
0.0
 13
0.0
 23
0.0
 33
0.0
 16
1.0
 26
0.0
 36
0.0
 17
0.0
 27
1.0
 37
0.0
 76
     0
330
1B
  0
LAYOUT
  5
26
102
{ACAD_REACTORS
330
1A
102
}
330
1A
100
AcDbPlotSettings
  1

  2
none_device
  4

  6

 40
0.0
 41
0.0
 42
0.0
 43
0.0
 44
0.0
 45
0.0
 46
0.0
 47
0.0
 48
0.0
 49
0.0
140
0.0
141
0.0
142
1.0
143
1.0
 70
   688
 72
     0
 73
     0
 74
     5
  7

 75
    16
 76
     0
 77
     2
 78
   300
147
1.0
148
0.0
149
0.0
100
AcDbLayout
  1
Layout2
 70
     1
 71
     2
 10
0.0
 20
0.0
 11
0.0
 21
0.0
 12
0.0
 22
0.0
 32
0.0
 14
0.0
 24
0.0
 34
0.0
 15
0.0
 25
0.0
 35
0.0
146
0.0
 13
0.0
 23
0.0
 33
0.0
 16
1.0
 26
0.0
 36
0.0
 17
0.0
 27
1.0
 37
0.0
 76
     0
330
23
  0
LAYOUT
  5
22
102
{ACAD_REACTORS
330
1A
102
}
330
1A
100
AcDbPlotSettings
  1

  2
none_device
  4

  6

 40
0.0
 41
0.0
 42
0.0
 43
0.0
 44
0.0
 45
0.0
 46
0.0
 47
0.0
 48
0.0
 49
0.0
140
0.0
141
0.0
142
1.0
143
1.0
 70
  1712
 72
     0
 73
     0
 74
     0
  7

 75
     0
 76
     0
 77
     2
 78
   300
147
1.0
148
0.0
149
0.0
100
AcDbLayout
  1
Model
 70
     1
 71
     0
 10
0.0
 20
0.0
 11
12.0
 21
9.0
 12
0.0
 22
0.0
 32
0.0
 14
1.000000000000000E+20
 24
1.000000000000000E+20
 34
1.000000000000000E+20
 15
-1.000000000000000E+20
 25
-1.000000000000000E+20
 35
-1.000000000000000E+20
146
0.0
 13
0.0
 23
0.0
 33
0.0
 16
1.0
 26
0.0
 36
0.0
 17
0.0
 27
1.0
 37
0.0
 76
     0
330
1F
331
29
  0
MATERIAL
  5
3D
102
{ACAD_REACTORS
330
3B
102
}
330
3B
100
AcDbMaterial
  1
ByBlock
 72
     1
 94
      127
  0
MATERIAL
  5
3C
102
{ACAD_REACTORS
330
3B
102
}
330
3B
100
AcDbMaterial
  1
ByLayer
 72
     1
 94
      127
  0
MATERIAL
  5
3E
102
{ACAD_REACTORS
330
3B
102
}
330
3B
100
AcDbMaterial
  1
Global
 72
     1
 94
      127
  0
MLINESTYLE
  5
18
102
{ACAD_REACTORS
330
17
102
}
330
17
100
AcDbMlineStyle
  2
Standard
 70
     0
  3

 62
   256
 51
90.0
 52
90.0
 71
     2
 49
0.5
 62
   256
  6
BYLAYER
 49
-0.5
 62
   256
  6
BYLAYER
  0
ACDBPLACEHOLDER
  5
F
102
{ACAD_REACTORS
330
E
102
}
330
E
  0
VISUALSTYLE
  5
2F
102
{ACAD_REACTORS
330
2A
102
}
330
2A
100
AcDbVisualStyle
  2
2dWireframe
 70
     4
177
     2
291
     0
 71
     0
176
     1
 72
     2
176
     1
 73
     0
176
     1
 90
        0
176
     1
 40
-0.6
176
     1
 41
-30.0
176
     1
 62
     5
 63
     7
421
 16777215
176
     1
 74
     1
176
     1
 91
        4
176
     1
 64
     7
176
     1
 65
   257
176
     1
 75
     1
176
     1
175
     1
176
     1
 42
1.0
176
     1
 92
        0
176
     1
 66
   257
176
     1
 43
1.0
176
     1
 76
     1
176
     1
 77
     6
176
     1
 78
     2
176
     1
 67
     7
176
     1
 79
     5
176
     1
170
     0
176
     1
171
     0
176
     1
290
     0
176
     1
 93
        1
176
     1
 44
0.0
176
     1
173
     0
176
     1
  0
VISUALSTYLE
  5
31
102
{ACAD_REACTORS
330
2A
102
}
330
2A
100
AcDbVisualStyle
  2
3D Hidden
 70
     6
177
     2
291
     0
 71
     1
176
     1
 72
     2
176
     1
 73
     2
176
     1
 90
        0
176
     1
 40
-0.6
176
     1
 41
-30.0
176
     1
 62
     5
 63
     7
421
 16777215
176
     1
 74
     2
176
     1
 91
        2
176
     1
 64
     7
176
     1
 65
   257
176
     1
 75
     2
176
     1
175
     1
176
     1
 42
40.0
176
     1
 92
        0
176
     1
 66
   257
176
     1
 43
1.0
176
     1
 76
     1
176
     1
 77
     6
176
     1
 78
     2
176
     1
 67
     7
176
     1
 79
     3
176
     1
170
     0
176
     1
171
     0
176
     1
290
     0
176
     1
 93
        1
176
     1
 44
0.0
176
     1
173
     0
176
     1
  0
VISUALSTYLE
  5
30
102
{ACAD_REACTORS
330
2A
102
}
330
2A
100
AcDbVisualStyle
  2
3dWireframe
 70
     5
177
     2
291
     0
 71
     0
176
     1
 72
     2
176
     1
 73
     0
176
     1
 90
        0
176
     1
 40
-0.6
176
     1
 41
-30.0
176
     1
 62
     5
 63
     7
421
 16777215
176
     1
 74
     1
176
     1
 91
        4
176
     1
 64
     7
176
     1
 65
   257
176
     1
 75
     1
176
     1
175
     1
176
     1
 42
1.0
176
     1
 92
        0
176
     1
 66
   257
176
     1
 43
1.0
176
     1
 76
     1
176
     1
 77
     6
176
     1
 78
     2
176
     1
 67
     7
176
     1
 79
     5
176
     1
170
     0
176
     1
171
     0
176
     1
290
     0
176
     1
 93
        1
176
     1
 44
0.0
176
     1
173
     0
176
     1
  0
VISUALSTYLE
  5
32
102
{ACAD_REACTORS
330
2A
102
}
330
2A
100
AcDbVisualStyle
  2
Basic
 70
     7
177
     2
291
     1
 71
     1
176
     1
 72
     0
176
     1
 73
     1
176
     1
 90
        0
176
     1
 40
-0.6
176
     1
 41
-30.0
176
     1
 62
     5
 63
     7
421
 16777215
176
     1
 74
     0
176
     1
 91
        4
176
     1
 64
     7
176
     1
 65
   257
176
     1
 75
     1
176
     1
175
     1
176
     1
 42
1.0
176
     1
 92
        8
176
     1
 66
     7
176
     1
 43
1.0
176
     1
 76
     1
176
     1
 77
     6
176
     1
 78
     2
176
     1
 67
     7
176
     1
 79
     5
176
     1
170
     0
176
     1
171
     0
176
     1
290
     0
176
     1
 93
        1
176
     1
 44
0.0
176
     1
173
     0
176
     1
  0
VISUALSTYLE
  5
36
102
{ACAD_REACTORS
330
2A
102
}
330
2A
100
AcDbVisualStyle
  2
Brighten
 70
    12
177
     2
291
     1
 71
     2
176
     1
 72
     2
176
     1
 73
     0
176
     1
 90
        0
176
     1
 40
-0.6
176
     1
 41
-30.0
176
     1
 62
     5
 63
     7
421
 16777215
176
     1
 74
     1
176
     1
 91
        4
176
     1
 64
     7
176
     1
 65
   257
176
     1
 75
     1
176
     1
175
     1
176
     1
 42
1.0
176
     1
 92
        8
176
     1
 66
     7
176
     1
 43
1.0
176
     1
 76
     1
176
     1
 77
     6
176
     1
 78
     2
176
     1
 67
     7
176
     1
 79
     5
176
     1
170
     0
176
     1
171
     0
176
     1
290
     0
176
     1
 93
        1
176
     1
 44
50.0
176
     1
173
     0
176
     1
  0
VISUALSTYLE
  5
3A
102
{ACAD_REACTORS
330
2A
102
}
330
2A
100
AcDbVisualStyle
  2
ColorChange
 70
    16
177
     2
291
     1
 71
     2
176
     1
 72
     2
176
     1
 73
     3
176
     1
 90
        0
176
     1
 40
-0.6
176
     1
 41
-30.0
176
     1
 62
     5
 63
     8
421
  8421504
176
     1
 74
     1
176
     1
 91
        4
176
     1
 64
     7
176
     1
 65
   257
176
     1
 75
     1
176
     1
175
     1
176
     1
 42
1.0
176
     1
 92
        8
176
     1
 66
     8
424
  8421504
176
     1
 43
1.0
176
     1
 76
     1
176
     1
 77
     6
176
     1
 78
     2
176
     1
 67
     7
176
     1
 79
     5
176
     1
170
     0
176
     1
171
     0
176
     1
290
     0
176
     1
 93
        1
176
     1
 44
0.0
176
     1
173
     0
176
     1
  0
VISUALSTYLE
  5
34
102
{ACAD_REACTORS
330
2A
102
}
330
2A
100
AcDbVisualStyle
  2
Conceptual
 70
     9
177
     2
291
     0
 71
     3
176
     1
 72
     2
176
     1
 73
     0
176
     1
 90
        0
176
     1
 40
-0.6
176
     1
 41
-30.0
176
     1
 62
     5
 63
     7
421
 16777215
176
     1
 74
     2
176
     1
 91
        2
176
     1
 64
     7
176
     1
 65
   257
176
     1
 75
     1
176
     1
175
     1
176
     1
 42
40.0
176
     1
 92
        8
176
     1
 66
     7
176
     1
 43
1.0
176
     1
 76
     1
176
     1
 77
     6
176
     1
 78
     2
176
     1
 67
     7
176
     1
 79
     3
176
     1
170
     0
176
     1
171
     0
176
     1
290
     0
176
     1
 93
        1
176
     1
 44
0.0
176
     1
173
     0
176
     1
  0
VISUALSTYLE
  5
35
102
{ACAD_REACTORS
330
2A
102
}
330
2A
100
AcDbVisualStyle
  2
Dim
 70
    11
177
     2
291
     1
 71
     2
176
     1
 72
     2
176
     1
 73
     0
176
     1
 90
        0
176
     1
 40
-0.6
176
     1
 41
-30.0
176
     1
 62
     5
 63
     7
421
 16777215
176
     1
 74
     1
176
     1
 91
        4
176
     1
 64
     7
176
     1
 65
   257
176
     1
 75
     1
176
     1
175
     1
176
     1
 42
1.0
176
     1
 92
        8
176
     1
 66
     7
176
     1
 43
1.0
176
     1
 76
     1
176
     1
 77
     6
176
     1
 78
     2
176
     1
 67
     7
176
     1
 79
     5
176
     1
170
     0
176
     1
171
     0
176
     1
290
     0
176
     1
 93
        1
176
     1
 44
-50.0
176
     1
173
     0
176
     1
  0
VISUALSTYLE
  5
39
102
{ACAD_REACTORS
330
2A
102
}
330
2A
100
AcDbVisualStyle
  2
Facepattern
 70
    15
177
     2
291
     1
 71
     2
176
     1
 72
     2
176
     1
 73
     0
176
     1
 90
        0
176
     1
 40
-0.6
176
     1
 41
-30.0
176
     1
 62
     5
 63
     7
421
 16777215
176
     1
 74
     1
176
     1
 91
        4
176
     1
 64
     7
176
     1
 65
   257
176
     1
 75
     1
176
     1
175
     1
176
     1
 42
1.0
176
     1
 92
        8
176
     1
 66
     7
176
     1
 43
1.0
176
     1
 76
     1
176
     1
 77
     6
176
     1
 78
     2
176
     1
 67
     7
176
     1
 79
     5
176
     1
170
     0
176
     1
171
     0
176
     1
290
     0
176
     1
 93
        1
176
     1
 44
0.0
176
     1
173
     0
176
     1
  0
VISUALSTYLE
  5
2B
102
{ACAD_REACTORS
330
2A
102
}
330
2A
100
AcDbVisualStyle
  2
Flat
 70
     0
177
     2
291
     1
 71
     2
176
     1
 72
     1
176
     1
 73
     1
176
     1
 90
        2
176
     1
 40
-0.6
176
     1
 41
30.0
176
     1
 62
     5
 63
     7
421
 16777215
176
     1
 74
     0
176
     1
 91
        4
176
     1
 64
     7
176
     1
 65
   257
176
     1
 75
     1
176
     1
175
     1
176
     1
 42
1.0
176
     1
 92
        8
176
     1
 66
     7
176
     1
 43
1.0
176
     1
 76
     1
176
     1
 77
     6
176
     1
 78
     2
176
     1
 67
     7
176
     1
 79
     5
176
     1
170
     0
176
     1
171
     0
176
     1
290
     0
176
     1
 93
       13
176
     1
 44
0.0
176
     1
173
     0
176
     1
  0
VISUALSTYLE
  5
2C
102
{ACAD_REACTORS
330
2A
102
}
330
2A
100
AcDbVisualStyle
  2
FlatWithEdges
 70
     1
177
     2
291
     1
 71
     2
176
     1
 72
     1
176
     1
 73
     1
176
     1
 90
        2
176
     1
 40
-0.6
176
     1
 41
30.0
176
     1
 62
     5
 63
     7
421
 16777215
176
     1
 74
     1
176
     1
 91
        4
176
     1
 64
     7
176
     1
 65
   257
176
     1
 75
     1
176
     1
175
     1
176
     1
 42
1.0
176
     1
 92
        0
176
     1
 66
   257
176
     1
 43
1.0
176
     1
 76
     1
176
     1
 77
     6
176
     1
 78
     2
176
     1
 67
     7
176
     1
 79
     5
176
     1
170
     0
176
     1
171
     0
176
     1
290
     0
176
     1
 93
       13
176
     1
 44
0.0
176
     1
173
     0
176
     1
  0
VISUALSTYLE
  5
2D
102
{ACAD_REACTORS
330
2A
102
}
330
2A
100
AcDbVisualStyle
  2
Gouraud
 70
     2
177
     2
291
     1
 71
     2
176
     1
 72
     2
176
     1
 73
     1
176
     1
 90
        2
176
     1
 40
-0.6
176
     1
 41
30.0
176
     1
 62
     5
 63
     7
421
 16777215
176
     1
 74
     0
176
     1
 91
        4
176
     1
 64
     7
176
     1
 65
   257
176
     1
 75
     1
176
     1
175
     1
176
     1
 42
1.0
176
     1
 92
        0
176
     1
 66
     7
176
     1
 43
1.0
176
     1
 76
     1
176
     1
 77
     6
176
     1
 78
     2
176
     1
 67
     7
176
     1
 79
     5
176
     1
170
     0
176
     1
171
     0
176
     1
290
     0
176
     1
 93
       13
176
     1
 44
0.0
176
     1
173
     0
176
     1
  0
VISUALSTYLE
  5
2E
102
{ACAD_REACTORS
330
2A
102
}
330
2A
100
AcDbVisualStyle
  2
GouraudWithEdges
 70
     3
177
     2
291
     1
 71
     2
176
     1
 72
     2
176
     1
 73
     1
176
     1
 90
        2
176
     1
 40
-0.6
176
     1
 41
30.0
176
     1
 62
     5
 63
     7
421
 16777215
176
     1
 74
     1
176
     1
 91
        4
176
     1
 64
     7
176
     1
 65
   257
176
     1
 75
     1
176
     1
175
     1
176
     1
 42
1.0
176
     1
 92
        0
176
     1
 66
   257
176
     1
 43
1.0
176
     1
 76
     1
176
     1
 77
     6
176
     1
 78
     2
176
     1
 67
     7
176
     1
 79
     5
176
     1
170
     0
176
     1
171
     0
176
     1
290
     0
176
     1
 93
       13
176
     1
 44
0.0
176
     1
173
     0
176
     1
  0
VISUALSTYLE
  5
38
102
{ACAD_REACTORS
330
2A
102
}
330
2A
100
AcDbVisualStyle
  2
Linepattern
 70
    14
177
     2
291
     1
 71
     2
176
     1
 72
     2
176
     1
 73
     0
176
     1
 90
        0
176
     1
 40
-0.6
176
     1
 41
-30.0
176
     1
 62
     5
 63
     7
421
 16777215
176
     1
 74
     1
176
     1
 91
        4
176
     1
 64
     7
176
     1
 65
   257
176
     1
 75
     7
176
     1
175
     7
176
     1
 42
1.0
176
     1
 92
        8
176
     1
 66
     7
176
     1
 43
1.0
176
     1
 76
     1
176
     1
 77
     6
176
     1
 78
     2
176
     1
 67
     7
176
     1
 79
     5
176
     1
170
     0
176
     1
171
     0
176
     1
290
     0
176
     1
 93
        1
176
     1
 44
0.0
176
     1
173
     0
176
     1
  0
VISUALSTYLE
  5
33
102
{ACAD_REACTORS
330
2A
102
}
330
2A
100
AcDbVisualStyle
  2
Realistic
 70
     8
177
     2
291
     0
 71
     2
176
     1
 72
     2
176
     1
 73
     0
176
     1
 90
        0
176
     1
 40
-0.6
176
     1
 41
-30.0
176
     1
 62
     5
 63
     7
421
 16777215
176
     1
 74
     1
176
     1
 91
        0
176
     1
 64
     7
176
     1
 65
   257
176
     1
 75
     1
176
     1
175
     1
176
     1
 42
1.0
176
     1
 92
        8
176
     1
 66
     8
424
  7895160
176
     1
 43
1.0
176
     1
 76
     1
176
     1
 77
     6
176
     1
 78
     2
176
     1
 67
     7
176
     1
 79
     5
176
     1
170
     0
176
     1
171
     0
176
     1
290
     0
176
     1
 93
       13
176
     1
 44
0.0
176
     1
173
     0
176
     1
  0
VISUALSTYLE
  5
37
102
{ACAD_REACTORS
330
2A
102
}
330
2A
100
AcDbVisualStyle
  2
Thicken
 70
    13
177
     2
291
     1
 71
     2
176
     1
 72
     2
176
     1
 73
     0
176
     1
 90
        0
176
     1
 40
-0.6
176
     1
 41
-30.0
176
     1
 62
     5
 63
     7
421
 16777215
176
     1
 74
     1
176
     1
 91
        4
176
     1
 64
     7
176
     1
 65
   257
176
     1
 75
     1
176
     1
175
     1
176
     1
 42
1.0
176
     1
 92
       12
176
     1
 66
     7
176
     1
 43
1.0
176
     1
 76
     1
176
     1
 77
     6
176
     1
 78
     2
176
     1
 67
     7
176
     1
 79
     5
176
     1
170
     0
176
     1
171
     0
176
     1
290
     0
176
     1
 93
        1
176
     1
 44
0.0
176
     1
173
     0
176
     1
  0
ENDSEC
  0
EOF
