  0
SECTION
  2
HEADER
  9
$ACADVER
  1
AC1024
  9
$ACADMAINTVER
 70
     6
  9
$DWGCODEPAGE
  3
UNDEFINED
  9
$INSBASE
 10
0.0
 20
0.0
 30
0.0
  9
$EXTMIN
 10
1.000000000000000E+20
 20
1.000000000000000E+20
 30
1.000000000000000E+20
  9
$EXTMAX
 10
-1.000000000000000E+20
 20
-1.000000000000000E+20
 30
-1.000000000000000E+20
  9
$LIMMIN
 10
0.0
 20
0.0
  9
$LIMMAX
 10
12.0
 20
9.0
  9
$ORTHOMODE
 70
     0
  9
$REGENMODE
 70
     1
  9
$FILLMODE
 70
     1
  9
$QTEXTMODE
 70
     0
  9
$MIRRTEXT
 70
     1
  9
$LTSCALE
 40
1.0
  9
$ATTMODE
 70
     1
  9
$TEXTSIZE
 40
0.2
  9
$TRACEWID
 40
0.05
  9
$TEXTSTYLE
  7
Standard
  9
$CLAYER
  8
0
  9
$CELTYPE
  6
ByLayer
  9
$CECOLOR
 62
   256
  9
$CELTSCALE
 40
1.0
  9
$DISPSILH
 70
     0
  9
$DIMSCALE
 40
1.0
  9
$DIMASZ
 40
0.18
  9
$DIMEXO
 40
0.0625
  9
$DIMDLI
 40
0.38
  9
$DIMRND
 40
0.0
  9
$DIMDLE
 40
0.0
  9
$DIMEXE
 40
0.18
  9
$DIMTP
 40
0.0
  9
$DIMTM
 40
0.0
  9
$DIMTXT
 40
0.18
  9
$DIMCEN
 40
0.09
  9
$DIMTSZ
 40
0.0
  9
$DIMTOL
 70
     0
  9
$DIMLIM
 70
     0
  9
$DIMTIH
 70
     1
  9
$DIMTOH
 70
     1
  9
$DIMSE1
 70
     0
  9
$DIMSE2
 70
     0
  9
$DIMTAD
 70
     0
  9
$DIMZIN
 70
     0
  9
$DIMBLK
  1

  9
$DIMASO
 70
     1
  9
$DIMSHO
 70
     1
  9
$DIMPOST
  1

  9
$DIMAPOST
  1

  9
$DIMALT
 70
     0
  9
$DIMALTD
 70
     2
  9
$DIMALTF
 40
25.4
  9
$DIMLFAC
 40
1.0
  9
$DIMTOFL
 70
     0
  9
$DIMTVP
 40
0.0
  9
$DIMTIX
 70
     0
  9
$DIMSOXD
 70
     0
  9
$DIMSAH
 70
     0
  9
$DIMBLK1
  1

  9
$DIMBLK2
  1

  9
$DIMSTYLE
  2
Standard
  9
$DIMCLRD
 70
     0
  9
$DIMCLRE
 70
     0
  9
$DIMCLRT
 70
     0
  9
$DIMTFAC
 40
1.0
  9
$DIMGAP
 40
0.09
  9
$DIMJUST
 70
     0
  9
$DIMSD1
 70
     0
  9
$DIMSD2
 70
     0
  9
$DIMTOLJ
 70
     1
  9
$DIMTZIN
 70
     0
  9
$DIMALTZ
 70
     0
  9
$DIMALTTZ
 70
     0
  9
$DIMUPT
 70
     0
  9
$DIMDEC
 70
     4
  9
$DIMTDEC
 70
     4
  9
$DIMALTU
 70
     2
  9
$DIMALTTD
 70
     2
  9
$DIMTXSTY
  7
Standard
  9
$DIMAUNIT
 70
     0
  9
$DIMADEC
 70
     0
  9
$DIMALTRND
 40
0.0
  9
$DIMAZIN
 70
     0
  9
$DIMDSEP
 70
    46
  9
$DIMATFIT
 70
     3
  9
$DIMFRAC
 70
     0
  9
$DIMLDRBLK
  1

  9
$DIMLUNIT
 70
     2
  9
$DIMLWD
 70
    -2
  9
$DIMLWE
 70
    -2
  9
$DIMTMOVE
 70
     0
  9
$DIMFXL
 40
1.0
  9
$DIMFXLON
 70
     0
  9
$DIMJOGANG
 40
0.7853981633974483
  9
$DIMTFILL
 70
     0
  9
$DIMTFILLCLR
 70
     0
  9
$DIMARCSYM
 70
     0
  9
$DIMLTYPE
  6

  9
$DIMLTEX1
  6

  9
$DIMLTEX2
  6

  9
$DIMTXTDIRECTION
 70
     0
  9
$LUNITS
 70
     2
  9
$LUPREC
 70
     4
  9
$SKETCHINC
 40
0.1
  9
$FILLETRAD
 40
0.5
  9
$AUNITS
 70
     0
  9
$AUPREC
 70
     0
  9
$MENU
  1
.
  9
$ELEVATION
 40
0.0
  9
$PELEVATION
 40
0.0
  9
$THICKNESS
 40
0.0
  9
$LIMCHECK
 70
     0
  9
$CHAMFERA
 40
0.5
  9
$CHAMFERB
 40
0.5
  9
$CHAMFERC
 40
1.0
  9
$CHAMFERD
 40
0.0
  9
$SKPOLY
 70
     0
  9
$TDCREATE
 40
2457917.631655093
  9
$TDUCREATE
 40
2457917.256655093
  9
$TDUPDATE
 40
2457917.631655093
  9
$TDUUPDATE
 40
2457917.256655093
  9
$TDINDWG
 40
0.0000000116
  9
$TDUSRTIMER
 40
0.0000000116
  9
$USRTIMER
 70
     1
  9
$ANGBASE
 50
0.0
  9
$ANGDIR
 70
     0
  9
$PDMODE
 70
     0
  9
$PDSIZE
 40
0.0
  9
$PLINEWID
 40
0.0
  9
$SPLFRAME
 70
     0
  9
$SPLINETYPE
 70
     6
  9
$SPLINESEGS
 70
     8
  9
$HANDSEED
  5
E9
  9
$SURFTAB1
 70
     6
  9
$SURFTAB2
 70
     6
  9
$SURFTYPE
 70
     6
  9
$SURFU
 70
     6
  9
$SURFV
 70
     6
  9
$UCSBASE
  2

  9
$UCSNAME
  2

  9
$UCSORG
 10
0.0
 20
0.0
 30
0.0
  9
$UCSXDIR
 10
1.0
 20
0.0
 30
0.0
  9
$UCSYDIR
 10
0.0
 20
1.0
 30
0.0
  9
$UCSORTHOREF
  2

  9
$UCSORTHOVIEW
 70
     0
  9
$UCSORGTOP
 10
0.0
 20
0.0
 30
0.0
  9
$UCSORGBOTTOM
 10
0.0
 20
0.0
 30
0.0
  9
$UCSORGLEFT
 10
0.0
 20
0.0
 30
0.0
  9
$UCSORGRIGHT
 10
0.0
 20
0.0
 30
0.0
  9
$UCSORGFRONT
 10
0.0
 20
0.0
 30
0.0
  9
$UCSORGBACK
 10
0.0
 20
0.0
 30
0.0
  9
$PUCSBASE
  2

  9
$PUCSNAME
  2

  9
$PUCSORG
 10
0.0
 20
0.0
 30
0.0
  9
$PUCSXDIR
 10
1.0
 20
0.0
 30
0.0
  9
$PUCSYDIR
 10
0.0
 20
1.0
 30
0.0
  9
$PUCSORTHOREF
  2

  9
$PUCSORTHOVIEW
 70
     0
  9
$PUCSORGTOP
 10
0.0
 20
0.0
 30
0.0
  9
$PUCSORGBOTTOM
 10
0.0
 20
0.0
 30
0.0
  9
$PUCSORGLEFT
 10
0.0
 20
0.0
 30
0.0
  9
$PUCSORGRIGHT
 10
0.0
 20
0.0
 30
0.0
  9
$PUCSORGFRONT
 10
0.0
 20
0.0
 30
0.0
  9
$PUCSORGBACK
 10
0.0
 20
0.0
 30
0.0
  9
$USERI1
 70
     0
  9
$USERI2
 70
     0
  9
$USERI3
 70
     0
  9
$USERI4
 70
     0
  9
$USERI5
 70
     0
  9
$USERR1
 40
0.0
  9
$USERR2
 40
0.0
  9
$USERR3
 40
0.0
  9
$USERR4
 40
0.0
  9
$USERR5
 40
0.0
  9
$WORLDVIEW
 70
     1
  9
$SHADEDGE
 70
     3
  9
$SHADEDIF
 70
    70
  9
$TILEMODE
 70
     1
  9
$MAXACTVP
 70
    64
  9
$PINSBASE
 10
0.0
 20
0.0
 30
0.0
  9
$PLIMCHECK
 70
     0
  9
$PEXTMIN
 10
1.000000000000000E+20
 20
1.000000000000000E+20
 30
1.000000000000000E+20
  9
$PEXTMAX
 10
-1.000000000000000E+20
 20
-1.000000000000000E+20
 30
-1.000000000000000E+20
  9
$PLIMMIN
 10
0.0
 20
0.0
  9
$PLIMMAX
 10
12.0
 20
9.0
  9
$UNITMODE
 70
     0
  9
$VISRETAIN
 70
     1
  9
$PLINEGEN
 70
     0
  9
$PSLTSCALE
 70
     1
  9
$TREEDEPTH
 70
  3020
  9
$CMLSTYLE
  2
Standard
  9
$CMLJUST
 70
     0
  9
$CMLSCALE
 40
1.0
  9
$PROXYGRAPHICS
 70
     1
  9
$MEASUREMENT
 70
     0
  9
$CELWEIGHT
370
    -1
  9
$ENDCAPS
280
     0
  9
$JOINSTYLE
280
     0
  9
$LWDISPLAY
290
     1
  9
$INSUNITS
 70
     1
  9
$HYPERLINKBASE
  1

  9
$STYLESHEET
  1

  9
$XEDIT
290
     1
  9
$CEPSNTYPE
380
     0
  9
$PSTYLEMODE
290
     1
  9
$FINGERPRINTGUID
  2
{9007AAE4-A04A-7B3B-8313-8ABC3836519D}
  9
$VERSIONGUID
  2
{FAEB1C32-E019-11D5-929B-00C0DF256EC4}
  9
$EXTNAMES
290
     1
  9
$PSVPSCALE
 40
0.0
  9
$OLESTARTUP
290
     0
  9
$SORTENTS
280
   127
  9
$INDEXCTL
280
     0
  9
$HIDETEXT
280
     1
  9
$XCLIPFRAME
280
     2
  9
$HALOGAP
280
     0
  9
$OBSCOLOR
 70
   257
  9
$OBSLTYPE
280
     0
  9
$INTERSECTIONDISPLAY
280
     0
  9
$INTERSECTIONCOLOR
 70
   257
  9
$DIMASSOC
280
     2
  9
$PROJECTNAME
  1

  9
$CAMERADISPLAY
290
     0
  9
$LENSLENGTH
 40
50.0
  9
$CAMERAHEIGHT
 40
0.0
  9
$STEPSPERSEC
 40
2.0
  9
$STEPSIZE
 40
6.0
  9
$3DDWFPREC
 40
2.0
  9
$PSOLWIDTH
 40
0.25
  9
$PSOLHEIGHT
 40
4.0
  9
$LOFTANG1
 40
1.570796326794897
  9
$LOFTANG2
 40
1.570796326794897
  9
$LOFTMAG1
 40
0.0
  9
$LOFTMAG2
 40
0.0
  9
$LOFTPARAM
 70
     7
  9
$LOFTNORMALS
280
     1
  9
$LATITUDE
 40
37.795
  9
$LONGITUDE
 40
-122.394
  9
$NORTHDIRECTION
 40
0.0
  9
$TIMEZONE
 70
 -8000
  9
$LIGHTGLYPHDISPLAY
280
     1
  9
$TILEMODELIGHTSYNCH
280
     1
  9
$CMATERIAL
347
3C
  9
$SOLIDHIST
280
     1
  9
$SHOWHIST
280
     1
  9
$DWFFRAME
280
     2
  9
$DGNFRAME
280
     2
  9
$REALWORLDSCALE
290
     1
  9
$INTERFERECOLOR
 62
   256
  9
$CSHADOW
280
     0
  9
$SHADOWPLANELOCATION
 40
0.0
  0
ENDSEC
  0
SECTION
  2
CLASSES
  0
CLASS
  1
ACDBDICTIONARYWDFLT
  2
AcDbDictionaryWithDefault
  3
ObjectDBX Classes
 90
        0
 91
        4
280
     0
281
     0
  0
CLASS
  1
VISUALSTYLE
  2
AcDbVisualStyle
  3
ObjectDBX Classes
 90
     4095
 91
        4
280
     0
281
     0
  0
CLASS
  1
MATERIAL
  2
AcDbMaterial
  3
ObjectDBX Classes
 90
     1153
 91
        4
280
     0
281
     0
  0
CLASS
  1
SUN
  2
AcDbSun
  3
SCENEOE
 90
     1024
 91
        4
280
     0
281
     0
  0
ENDSEC
  0
SECTION
  2
TABLES
  0
TABLE
  2
VPORT
  5
8
330
0
100
AcDbSymbolTable
 70
     1
  0
VPORT
  5
29
330
8
100
AcDbSymbolTableRecord
100
AcDbViewportTableRecord
  2
*Active
 70
     0
 10
0.0
 20
0.0
 11
1.0
 21
1.0
 12
0.0
 22
0.0
 13
0.0
 23
0.0
 14
0.5
 24
0.5
 15
0.5
 25
0.5
 16
0.0
 26
0.0
 36
1.0
 17
91.00082462281999
 27
-128.4993055234307
 37
0.0
 40
256.9986110468615
 41
0.7081814508812795
 42
50.0
 43
0.0
 44
0.0
 50
0.0
 51
0.0
 71
     0
 72
   100
 73
     1
 74
     3
 75
     0
 76
     0
 77
     0
 78
     0
281
     0
 65
     1
110
0.0
120
0.0
130
0.0
111
1.0
121
0.0
131
0.0
112
0.0
122
1.0
132
0.0
 79
     0
146
0.0
 60
     3
 61
     5
292
     1
282
     1
141
0.0
142
0.0
 63
   250
361
3F
  0
ENDTAB
  0
TABLE
  2
LTYPE
  5
5
330
0
100
AcDbSymbolTable
 70
     1
  0
LTYPE
  5
14
330
5
100
AcDbSymbolTableRecord
100
AcDbLinetypeTableRecord
  2
ByBlock
 70
     0
  3

 72
    65
 73
     0
 40
0.0
  0
LTYPE
  5
15
330
5
100
AcDbSymbolTableRecord
100
AcDbLinetypeTableRecord
  2
ByLayer
 70
     0
  3

 72
    65
 73
     0
 40
0.0
  0
LTYPE
  5
16
330
5
100
AcDbSymbolTableRecord
100
AcDbLinetypeTableRecord
  2
Continuous
 70
     0
  3
Solid line
 72
    65
 73
     0
 40
0.0
  0
ENDTAB
  0
TABLE
  2
LAYER
  5
2
330
0
100
AcDbSymbolTable
 70
     2
  0
LAYER
  5
10
330
2
100
AcDbSymbolTableRecord
100
AcDbLayerTableRecord
  2
0
 70
     0
 62
     7
  6
Continuous
370
    -3
390
F
347
3E
  0
LAYER
  5
40
330
2
100
AcDbSymbolTableRecord
100
AcDbLayerTableRecord
  2
_U+30EC_U+30A4_U+30E4_U+30FC 1
 70
     0
 62
     7
  6
Continuous
370
    -3
390
F
347
3E
  0
ENDTAB
  0
TABLE
  2
STYLE
  5
3
330
0
100
AcDbSymbolTable
 70
     1
  0
STYLE
  5
11
330
3
100
AcDbSymbolTableRecord
100
AcDbTextStyleTableRecord
  2
Standard
 70
     0
 40
0.0
 41
1.0
 50
0.0
 71
     0
 42
0.2
  3
txt
  4

  0
ENDTAB
  0
TABLE
  2
VIEW
  5
6
330
0
100
AcDbSymbolTable
 70
     0
  0
ENDTAB
  0
TABLE
  2
UCS
  5
7
330
0
100
AcDbSymbolTable
 70
     0
  0
ENDTAB
  0
TABLE
  2
APPID
  5
9
330
0
100
AcDbSymbolTable
 70
     1
  0
APPID
  5
12
330
9
100
AcDbSymbolTableRecord
100
AcDbRegAppTableRecord
  2
ACAD
 70
     0
  0
ENDTAB
  0
TABLE
  2
DIMSTYLE
  5
A
330
0
100
AcDbSymbolTable
 70
     1
100
AcDbDimStyleTable
  0
DIMSTYLE
105
27
330
A
100
AcDbSymbolTableRecord
100
AcDbDimStyleTableRecord
  2
Standard
 70
     0
178
     0
340
11
  0
ENDTAB
  0
TABLE
  2
BLOCK_RECORD
  5
1
330
0
100
AcDbSymbolTable
 70
     6
  0
BLOCK_RECORD
  5
1F
330
1
100
AcDbSymbolTableRecord
100
AcDbBlockTableRecord
  2
*Model_Space
340
22
 70
     0
280
     1
281
     0
  0
BLOCK_RECORD
  5
1B
330
1
100
AcDbSymbolTableRecord
100
AcDbBlockTableRecord
  2
*Paper_Space
340
1E
 70
     0
280
     1
281
     0
  0
BLOCK_RECORD
  5
23
330
1
100
AcDbSymbolTableRecord
100
AcDbBlockTableRecord
  2
*Paper_Space0
340
26
 70
     0
280
     1
281
     0
  0
BLOCK_RECORD
  5
41
330
1
100
AcDbSymbolTableRecord
100
AcDbBlockTableRecord
  2
block 2
340
0
102
{BLKREFS
331
42
102
}
 70
     0
280
     1
281
     0
  0
BLOCK_RECORD
  5
68
330
1
100
AcDbSymbolTableRecord
100
AcDbBlockTableRecord
  2
block 3
340
0
102
{BLKREFS
331
69
102
}
 70
     0
280
     1
281
     0
  0
BLOCK_RECORD
  5
7E
330
1
100
AcDbSymbolTableRecord
100
AcDbBlockTableRecord
  2
block 4
340
0
102
{BLKREFS
331
7F
102
}
 70
     0
280
     1
281
     0
  0
BLOCK_RECORD
  5
AF
330
1
100
AcDbSymbolTableRecord
100
AcDbBlockTableRecord
  2
block 5
340
0
102
{BLKREFS
331
B0
102
}
 70
     0
280
     1
281
     0
  0
BLOCK_RECORD
  5
D1
330
1
100
AcDbSymbolTableRecord
100
AcDbBlockTableRecord
  2
block 6
340
0
102
{BLKREFS
331
D2
102
}
 70
     0
280
     1
281
     0
  0
ENDTAB
  0
ENDSEC
  0
SECTION
  2
BLOCKS
  0
BLOCK
  5
20
330
1F
100
AcDbEntity
  8
0
100
AcDbBlockBegin
  2
*Model_Space
 70
     0
 10
0.0
 20
0.0
 30
0.0
  3
*Model_Space
  1

  0
ENDBLK
  5
21
330
1F
100
AcDbEntity
  8
0
100
AcDbBlockEnd
  0
BLOCK
  5
1C
330
1B
100
AcDbEntity
 67
     1
  8
0
100
AcDbBlockBegin
  2
*Paper_Space
 70
     0
 10
0.0
 20
0.0
 30
0.0
  3
*Paper_Space
  1

  0
ENDBLK
  5
1D
330
1B
100
AcDbEntity
 67
     1
  8
0
100
AcDbBlockEnd
  0
BLOCK
  5
24
330
23
100
AcDbEntity
  8
0
100
AcDbBlockBegin
  2
*Paper_Space0
 70
     0
 10
0.0
 20
0.0
 30
0.0
  3
*Paper_Space0
  1

  0
ENDBLK
  5
25
330
23
100
AcDbEntity
  8
0
100
AcDbBlockEnd
  0
BLOCK
  5
43
330
41
100
AcDbEntity
  8
0
100
AcDbBlockBegin
  2
block 2
 70
     0
 10
0.0
 20
0.0
 30
0.0
  3
block 2
  1

  0
SPLINE
  5
45
330
41
100
AcDbEntity
  8
_U+30EC_U+30A4_U+30E4_U+30FC 1
370
     0
100
AcDbSpline
210
0.0
220
0.0
230
1.0
 70
    11
 71
     3
 72
    32
 73
    28
 74
     0
 42
0.0000000001
 43
0.0000000001
 12
1.0
 22
0.0
 32
0.0
 13
1.0
 23
0.0
 33
0.0
 40
0.0
 40
0.0
 40
0.0
 40
0.0
 40
1.0
 40
1.0
 40
1.0
 40
2.0
 40
2.0
 40
2.0
 40
3.0
 40
3.0
 40
3.0
 40
4.0
 40
4.0
 40
4.0
 40
5.0
 40
5.0
 40
5.0
 40
6.0
 40
6.0
 40
6.0
 40
7.0
 40
7.0
 40
7.0
 40
8.0
 40
8.0
 40
8.0
 40
9.0
 40
9.0
 40
9.0
 40
9.0
 10
67.44618460770442
 20
-116.7029540723868
 30
0.0
 10
67.46461586855051
 20
-116.7029540723868
 30
0.0
 10
67.53093395664158
 20
-116.7029540723868
 30
0.0
 10
67.59449596834443
 20
-116.6791829135385
 30
0.0
 10
67.59449596834443
 20
-116.6791829135385
 30
0.0
 10
67.88836261323624
 20
-116.9492783995821
 30
0.0
 10
67.88836261323624
 20
-116.9492783995821
 30
0.0
 10
67.86200763277408
 20
-116.9864854308228
 30
0.0
 10
67.85391165838375
 20
-116.9995767936668
 30
0.0
 10
67.79310572306909
 20
-117.0870822189921
 30
0.0
 10
67.44342853131623
 20
-117.5900661598386
 30
0.0
 10
67.21829154135516
 20
-117.8205430478018
 30
0.0
 10
67.08065997671942
 20
-117.9607584340515
 30
0.0
 10
66.98540308655227
 20
-117.8391465634222
 30
0.0
 10
66.905821380843
 20
-117.7623209341011
 30
0.0
 10
66.77611353582334
 20
-117.6696478655479
 30
0.0
 10
66.99591062778228
 20
-117.4656982128211
 30
0.0
 10
67.11252710995798
 20
-117.3385741894154
 30
0.0
 10
67.271346011828
 20
-117.1029296582243
 30
0.0
 10
67.271346011828
 20
-117.1029296582243
 30
0.0
 10
65.499533403764
 20
-117.1029296582243
 30
0.0
 10
65.499533403764
 20
-117.1029296582243
 30
0.0
 10
65.499533403764
 20
-117.1029296582243
 30
0.0
 10
65.499533403764
 20
-116.7029540723868
 30
0.0
 10
65.499533403764
 20
-116.7029540723868
 30
0.0
 10
65.499533403764
 20
-116.7029540723868
 30
0.0
 10
67.44618460770442
 20
-116.7029540723868
 30
0.0
 10
67.44618460770442
 20
-116.7029540723868
 30
0.0
  0
SPLINE
  5
46
330
41
100
AcDbEntity
  8
_U+30EC_U+30A4_U+30E4_U+30FC 1
370
     0
100
AcDbSpline
210
0.0
220
0.0
230
1.0
 70
    11
 71
     3
 72
    26
 73
    22
 74
     0
 42
0.0000000001
 43
0.0000000001
 12
1.0
 22
0.0
 32
0.0
 13
1.0
 23
0.0
 33
0.0
 40
0.0
 40
0.0
 40
0.0
 40
0.0
 40
1.0
 40
1.0
 40
1.0
 40
2.0
 40
2.0
 40
2.0
 40
3.0
 40
3.0
 40
3.0
 40
4.0
 40
4.0
 40
4.0
 40
5.0
 40
5.0
 40
5.0
 40
6.0
 40
6.0
 40
6.0
 40
7.0
 40
7.0
 40
7.0
 40
7.0
 10
66.8052245926737
 20
-117.2062825227818
 30
0.0
 10
66.82382810829405
 20
-117.2062825227818
 30
0.0
 10
66.8529391651444
 20
-117.2086940896214
 30
0.0
 10
66.8529391651444
 20
-117.2379774012461
 30
0.0
 10
66.8529391651444
 20
-117.2645046364825
 30
0.0
 10
66.8184882102919
 20
-117.2775959993264
 30
0.0
 10
66.8052245926737
 20
-117.2827636425543
 30
0.0
 10
66.79454479666943
 20
-117.5742187206065
 30
0.0
 10
66.74700247897297
 20
-117.8708414418865
 30
0.0
 10
66.6674207732637
 20
-118.0747910946132
 30
0.0
 10
66.56165634186654
 20
-118.347642657045
 30
0.0
 10
66.31257593828298
 20
-118.6814724095657
 30
0.0
 10
66.00268959938475
 20
-118.8588948270561
 30
0.0
 10
65.87298175436509
 20
-118.7396945232665
 30
0.0
 10
65.78823240542795
 20
-118.6759602567894
 30
0.0
 10
65.63199732517187
 20
-118.5781195450082
 30
0.0
 10
66.00268959938475
 20
-118.3662461726654
 30
0.0
 10
66.40266518522225
 20
-118.0775471710015
 30
0.0
 10
66.35495061275154
 20
-117.1797552875453
 30
0.0
 10
66.35495061275154
 20
-117.1797552875453
 30
0.0
 10
66.8052245926737
 20
-117.2062825227818
 30
0.0
 10
66.8052245926737
 20
-117.2062825227818
 30
0.0
  0
HATCH
  5
47
330
41
100
AcDbEntity
  8
_U+30EC_U+30A4_U+30E4_U+30FC 1
 62
   179
420
  2234388
100
AcDbHatch
 10
0.0
 20
0.0
 30
0.0
210
0.0
220
0.0
230
1.0
  2
SOLID
 70
     1
 71
     0
 91
        2
 92
        1
 93
        1
 72
     4
 94
        3
 73
     0
 74
     1
 95
       32
 96
       28
 40
0.0
 40
0.0
 40
0.0
 40
0.0
 40
1.0
 40
1.0
 40
1.0
 40
2.0
 40
2.0
 40
2.0
 40
3.0
 40
3.0
 40
3.0
 40
4.0
 40
4.0
 40
4.0
 40
5.0
 40
5.0
 40
5.0
 40
6.0
 40
6.0
 40
6.0
 40
7.0
 40
7.0
 40
7.0
 40
8.0
 40
8.0
 40
8.0
 40
9.0
 40
9.0
 40
9.0
 40
9.0
 10
67.44618460770442
 20
-116.7029540723868
 10
67.46461586855051
 20
-116.7029540723868
 10
67.53093395664158
 20
-116.7029540723868
 10
67.59449596834443
 20
-116.6791829135385
 10
67.59449596834443
 20
-116.6791829135385
 10
67.88836261323624
 20
-116.9492783995821
 10
67.88836261323624
 20
-116.9492783995821
 10
67.86200763277408
 20
-116.9864854308228
 10
67.85391165838375
 20
-116.9995767936668
 10
67.79310572306909
 20
-117.0870822189921
 10
67.44342853131623
 20
-117.5900661598386
 10
67.21829154135516
 20
-117.8205430478018
 10
67.08065997671942
 20
-117.9607584340515
 10
66.98540308655227
 20
-117.8391465634222
 10
66.905821380843
 20
-117.7623209341011
 10
66.77611353582334
 20
-117.6696478655479
 10
66.99591062778228
 20
-117.4656982128211
 10
67.11252710995798
 20
-117.3385741894154
 10
67.271346011828
 20
-117.1029296582243
 10
67.271346011828
 20
-117.1029296582243
 10
65.499533403764
 20
-117.1029296582243
 10
65.499533403764
 20
-117.1029296582243
 10
65.499533403764
 20
-117.1029296582243
 10
65.499533403764
 20
-116.7029540723868
 10
65.499533403764
 20
-116.7029540723868
 10
65.499533403764
 20
-116.7029540723868
 10
67.44618460770442
 20
-116.7029540723868
 10
67.44618460770442
 20
-116.7029540723868
 97
        0
 97
        0
 92
        1
 93
        1
 72
     4
 94
        3
 73
     0
 74
     1
 95
       26
 96
       22
 40
0.0
 40
0.0
 40
0.0
 40
0.0
 40
1.0
 40
1.0
 40
1.0
 40
2.0
 40
2.0
 40
2.0
 40
3.0
 40
3.0
 40
3.0
 40
4.0
 40
4.0
 40
4.0
 40
5.0
 40
5.0
 40
5.0
 40
6.0
 40
6.0
 40
6.0
 40
7.0
 40
7.0
 40
7.0
 40
7.0
 10
66.8052245926737
 20
-117.2062825227818
 10
66.82382810829405
 20
-117.2062825227818
 10
66.8529391651444
 20
-117.2086940896214
 10
66.8529391651444
 20
-117.2379774012461
 10
66.8529391651444
 20
-117.2645046364825
 10
66.8184882102919
 20
-117.2775959993264
 10
66.8052245926737
 20
-117.2827636425543
 10
66.79454479666943
 20
-117.5742187206065
 10
66.74700247897297
 20
-117.8708414418865
 10
66.6674207732637
 20
-118.0747910946132
 10
66.56165634186654
 20
-118.347642657045
 10
66.31257593828298
 20
-118.6814724095657
 10
66.00268959938475
 20
-118.8588948270561
 10
65.87298175436509
 20
-118.7396945232665
 10
65.78823240542795
 20
-118.6759602567894
 10
65.63199732517187
 20
-118.5781195450082
 10
66.00268959938475
 20
-118.3662461726654
 10
66.40266518522225
 20
-118.0775471710015
 10
66.35495061275154
 20
-117.1797552875453
 10
66.35495061275154
 20
-117.1797552875453
 10
66.8052245926737
 20
-117.2062825227818
 10
66.8052245926737
 20
-117.2062825227818
 97
        0
 97
        0
 75
     2
 76
     1
 98
        0
  0
SPLINE
  5
48
330
41
100
AcDbEntity
  8
_U+30EC_U+30A4_U+30E4_U+30FC 1
370
     0
100
AcDbSpline
210
0.0
220
0.0
230
1.0
 70
    11
 71
     3
 72
    32
 73
    28
 74
     0
 42
0.0000000001
 43
0.0000000001
 12
1.0
 22
0.0
 32
0.0
 13
1.0
 23
0.0
 33
0.0
 40
0.0
 40
0.0
 40
0.0
 40
0.0
 40
1.0
 40
1.0
 40
1.0
 40
2.0
 40
2.0
 40
2.0
 40
3.0
 40
3.0
 40
3.0
 40
4.0
 40
4.0
 40
4.0
 40
5.0
 40
5.0
 40
5.0
 40
6.0
 40
6.0
 40
6.0
 40
7.0
 40
7.0
 40
7.0
 40
8.0
 40
8.0
 40
8.0
 40
9.0
 40
9.0
 40
9.0
 40
9.0
 10
68.85109454658931
 20
-116.7188015116189
 30
0.0
 10
68.88020560343968
 20
-116.7215575880071
 30
0.0
 10
68.91190048190397
 20
-116.7215575880071
 30
0.0
 10
68.91190048190397
 20
-116.7560085428596
 30
0.0
 10
68.91190048190397
 20
-116.7877034213239
 30
0.0
 10
68.87744952705147
 20
-116.8007947841679
 30
0.0
 10
68.86694198582146
 20
-116.8063069369443
 30
0.0
 10
68.86694198582146
 20
-116.8063069369443
 30
0.0
 10
68.86694198582146
 20
-117.4522623404286
 30
0.0
 10
68.86694198582146
 20
-117.4522623404286
 30
0.0
 10
68.86694198582146
 20
-118.1488606475461
 30
0.0
 10
68.52794459007288
 20
-118.4430718019865
 30
0.0
 10
68.21013453155858
 20
-118.7155788548697
 30
0.0
 10
68.09351804938288
 20
-118.5805311118479
 30
0.0
 10
68.01686467483607
 20
-118.5329887941515
 30
0.0
 10
67.85253362018965
 20
-118.4272243627543
 30
0.0
 10
68.11470538661716
 20
-118.2549695884918
 30
0.0
 10
68.23924558840895
 20
-118.0882269670057
 30
0.0
 10
68.28162026287751
 20
-118.0193250573007
 30
0.0
 10
68.31348739611607
 20
-117.9690266632161
 30
0.0
 10
68.41132810789718
 20
-117.8153754045739
 30
0.0
 10
68.41132810789718
 20
-117.4763780088253
 30
0.0
 10
68.41132810789718
 20
-117.4763780088253
 30
0.0
 10
68.41132810789718
 20
-116.6977864291589
 30
0.0
 10
68.41132810789718
 20
-116.6977864291589
 30
0.0
 10
68.41132810789718
 20
-116.6977864291589
 30
0.0
 10
68.85109454658931
 20
-116.7188015116189
 30
0.0
 10
68.85109454658931
 20
-116.7188015116189
 30
0.0
  0
SPLINE
  5
49
330
41
100
AcDbEntity
  8
_U+30EC_U+30A4_U+30E4_U+30FC 1
370
     0
100
AcDbSpline
210
0.0
220
0.0
230
1.0
 70
    11
 71
     3
 72
    38
 73
    34
 74
     0
 42
0.0000000001
 43
0.0000000001
 12
1.0
 22
0.0
 32
0.0
 13
1.0
 23
0.0
 33
0.0
 40
0.0
 40
0.0
 40
0.0
 40
0.0
 40
1.0
 40
1.0
 40
1.0
 40
2.0
 40
2.0
 40
2.0
 40
3.0
 40
3.0
 40
3.0
 40
4.0
 40
4.0
 40
4.0
 40
5.0
 40
5.0
 40
5.0
 40
6.0
 40
6.0
 40
6.0
 40
7.0
 40
7.0
 40
7.0
 40
8.0
 40
8.0
 40
8.0
 40
9.0
 40
9.0
 40
9.0
 40
10.0
 40
10.0
 40
10.0
 40
11.0
 40
11.0
 40
11.0
 40
11.0
 10
69.52633326169828
 20
-116.6977864291589
 30
0.0
 10
69.55544431854864
 20
-116.7001979959986
 30
0.0
 10
69.57663165578293
 20
-116.7001979959986
 30
0.0
 10
69.57663165578293
 20
-116.726725231235
 30
0.0
 10
69.57663165578293
 20
-116.7504963900832
 30
0.0
 10
69.55027667532077
 20
-116.7639322624757
 30
0.0
 10
69.52633326169828
 20
-116.7742675489314
 30
0.0
 10
69.52633326169828
 20
-116.7742675489314
 30
0.0
 10
69.52633326169828
 20
-118.064111298609
 30
0.0
 10
69.52633326169828
 20
-118.064111298609
 30
0.0
 10
69.85206703982865
 20
-117.8498263594264
 30
0.0
 10
70.10907116302829
 20
-117.5159966069057
 30
0.0
 10
70.21225177281153
 20
-117.3702690678797
 30
0.0
 10
70.25996634528224
 20
-117.5211642501336
 30
0.0
 10
70.31026473936689
 20
-117.6217610383029
 30
0.0
 10
70.41620142553832
 20
-117.767488577329
 30
0.0
 10
70.26272242167043
 20
-117.9662705868279
 30
0.0
 10
69.92889266914972
 20
-118.3131917021925
 30
0.0
 10
69.67206080072435
 20
-118.5012939156872
 30
0.0
 10
69.56612411455292
 20
-118.5781195450082
 30
0.0
 10
69.46277124999543
 20
-118.6601128175572
 30
0.0
 10
69.35959064021219
 20
-118.7396945232665
 30
0.0
 10
69.35959064021219
 20
-118.7396945232665
 30
0.0
 10
69.07881535816432
 20
-118.5595160293879
 30
0.0
 10
69.07881535816432
 20
-118.5595160293879
 30
0.0
 10
69.08415525616647
 20
-118.4878580432947
 30
0.0
 10
69.08932289939433
 20
-118.4217122099779
 30
0.0
 10
69.08932289939433
 20
-118.347642657045
 30
0.0
 10
69.08932289939433
 20
-118.347642657045
 30
0.0
 10
69.08932289939433
 20
-116.6736707607621
 30
0.0
 10
69.08932289939433
 20
-116.6736707607621
 30
0.0
 10
69.08932289939433
 20
-116.6736707607621
 30
0.0
 10
69.52633326169828
 20
-116.6977864291589
 30
0.0
 10
69.52633326169828
 20
-116.6977864291589
 30
0.0
  0
HATCH
  5
4A
330
41
100
AcDbEntity
  8
_U+30EC_U+30A4_U+30E4_U+30FC 1
 62
   179
420
  2234388
100
AcDbHatch
 10
0.0
 20
0.0
 30
0.0
210
0.0
220
0.0
230
1.0
  2
SOLID
 70
     1
 71
     0
 91
        2
 92
        1
 93
        1
 72
     4
 94
        3
 73
     0
 74
     1
 95
       32
 96
       28
 40
0.0
 40
0.0
 40
0.0
 40
0.0
 40
1.0
 40
1.0
 40
1.0
 40
2.0
 40
2.0
 40
2.0
 40
3.0
 40
3.0
 40
3.0
 40
4.0
 40
4.0
 40
4.0
 40
5.0
 40
5.0
 40
5.0
 40
6.0
 40
6.0
 40
6.0
 40
7.0
 40
7.0
 40
7.0
 40
8.0
 40
8.0
 40
8.0
 40
9.0
 40
9.0
 40
9.0
 40
9.0
 10
68.85109454658931
 20
-116.7188015116189
 10
68.88020560343968
 20
-116.7215575880071
 10
68.91190048190397
 20
-116.7215575880071
 10
68.91190048190397
 20
-116.7560085428596
 10
68.91190048190397
 20
-116.7877034213239
 10
68.87744952705147
 20
-116.8007947841679
 10
68.86694198582146
 20
-116.8063069369443
 10
68.86694198582146
 20
-116.8063069369443
 10
68.86694198582146
 20
-117.4522623404286
 10
68.86694198582146
 20
-117.4522623404286
 10
68.86694198582146
 20
-118.1488606475461
 10
68.52794459007288
 20
-118.4430718019865
 10
68.21013453155858
 20
-118.7155788548697
 10
68.09351804938288
 20
-118.5805311118479
 10
68.01686467483607
 20
-118.5329887941515
 10
67.85253362018965
 20
-118.4272243627543
 10
68.11470538661716
 20
-118.2549695884918
 10
68.23924558840895
 20
-118.0882269670057
 10
68.28162026287751
 20
-118.0193250573007
 10
68.31348739611607
 20
-117.9690266632161
 10
68.41132810789718
 20
-117.8153754045739
 10
68.41132810789718
 20
-117.4763780088253
 10
68.41132810789718
 20
-117.4763780088253
 10
68.41132810789718
 20
-116.6977864291589
 10
68.41132810789718
 20
-116.6977864291589
 10
68.41132810789718
 20
-116.6977864291589
 10
68.85109454658931
 20
-116.7188015116189
 10
68.85109454658931
 20
-116.7188015116189
 97
        0
 97
        0
 92
        1
 93
        1
 72
     4
 94
        3
 73
     0
 74
     1
 95
       38
 96
       34
 40
0.0
 40
0.0
 40
0.0
 40
0.0
 40
1.0
 40
1.0
 40
1.0
 40
2.0
 40
2.0
 40
2.0
 40
3.0
 40
3.0
 40
3.0
 40
4.0
 40
4.0
 40
4.0
 40
5.0
 40
5.0
 40
5.0
 40
6.0
 40
6.0
 40
6.0
 40
7.0
 40
7.0
 40
7.0
 40
8.0
 40
8.0
 40
8.0
 40
9.0
 40
9.0
 40
9.0
 40
10.0
 40
10.0
 40
10.0
 40
11.0
 40
11.0
 40
11.0
 40
11.0
 10
69.52633326169828
 20
-116.6977864291589
 10
69.55544431854864
 20
-116.7001979959986
 10
69.57663165578293
 20
-116.7001979959986
 10
69.57663165578293
 20
-116.726725231235
 10
69.57663165578293
 20
-116.7504963900832
 10
69.55027667532077
 20
-116.7639322624757
 10
69.52633326169828
 20
-116.7742675489314
 10
69.52633326169828
 20
-116.7742675489314
 10
69.52633326169828
 20
-118.064111298609
 10
69.52633326169828
 20
-118.064111298609
 10
69.85206703982865
 20
-117.8498263594264
 10
70.10907116302829
 20
-117.5159966069057
 10
70.21225177281153
 20
-117.3702690678797
 10
70.25996634528224
 20
-117.5211642501336
 10
70.31026473936689
 20
-117.6217610383029
 10
70.41620142553832
 20
-117.767488577329
 10
70.26272242167043
 20
-117.9662705868279
 10
69.92889266914972
 20
-118.3131917021925
 10
69.67206080072435
 20
-118.5012939156872
 10
69.56612411455292
 20
-118.5781195450082
 10
69.46277124999543
 20
-118.6601128175572
 10
69.35959064021219
 20
-118.7396945232665
 10
69.35959064021219
 20
-118.7396945232665
 10
69.07881535816432
 20
-118.5595160293879
 10
69.07881535816432
 20
-118.5595160293879
 10
69.08415525616647
 20
-118.4878580432947
 10
69.08932289939433
 20
-118.4217122099779
 10
69.08932289939433
 20
-118.347642657045
 10
69.08932289939433
 20
-118.347642657045
 10
69.08932289939433
 20
-116.6736707607621
 10
69.08932289939433
 20
-116.6736707607621
 10
69.08932289939433
 20
-116.6736707607621
 10
69.52633326169828
 20
-116.6977864291589
 10
69.52633326169828
 20
-116.6977864291589
 97
        0
 97
        0
 75
     2
 76
     1
 98
        0
  0
SPLINE
  5
4B
330
41
100
AcDbEntity
  8
_U+30EC_U+30A4_U+30E4_U+30FC 1
370
     0
100
AcDbSpline
210
0.0
220
0.0
230
1.0
 70
    11
 71
     3
 72
    17
 73
    13
 74
     0
 42
0.0000000001
 43
0.0000000001
 12
1.0
 22
0.0
 32
0.0
 13
1.0
 23
0.0
 33
0.0
 40
0.0
 40
0.0
 40
0.0
 40
0.0
 40
1.0
 40
1.0
 40
1.0
 40
2.0
 40
2.0
 40
2.0
 40
3.0
 40
3.0
 40
3.0
 40
4.0
 40
4.0
 40
4.0
 40
4.0
 10
70.83994817022405
 20
-117.9927978220643
 30
0.0
 10
71.43060979117013
 20
-118.0961506866218
 30
0.0
 10
72.01317543772588
 20
-118.2601372317197
 30
0.0
 10
72.52701142935089
 20
-118.5726073922319
 30
0.0
 10
72.49256047449839
 20
-118.6680365371733
 30
0.0
 10
72.4024712275591
 20
-118.9274522272126
 30
0.0
 10
72.38403996671302
 20
-118.9860188504618
 30
0.0
 10
71.89673121032443
 20
-118.6732041804011
 30
0.0
 10
71.32725692661263
 20
-118.4957817629108
 30
0.0
 10
70.76053871928903
 20
-118.3951849747415
 30
0.0
 10
70.76053871928903
 20
-118.3951849747415
 30
0.0
 10
70.83994817022405
 20
-117.9927978220643
 30
0.0
 10
70.83994817022405
 20
-117.9927978220643
 30
0.0
  0
SPLINE
  5
4C
330
41
100
AcDbEntity
  8
_U+30EC_U+30A4_U+30E4_U+30FC 1
370
     0
100
AcDbSpline
210
0.0
220
0.0
230
1.0
 70
    11
 71
     3
 72
    17
 73
    13
 74
     0
 42
0.0000000001
 43
0.0000000001
 12
1.0
 22
0.0
 32
0.0
 13
1.0
 23
0.0
 33
0.0
 40
0.0
 40
0.0
 40
0.0
 40
0.0
 40
1.0
 40
1.0
 40
1.0
 40
2.0
 40
2.0
 40
2.0
 40
3.0
 40
3.0
 40
3.0
 40
4.0
 40
4.0
 40
4.0
 40
4.0
 10
70.87698294669048
 20
-116.5041720628878
 30
0.0
 10
71.36704777946727
 20
-116.5465467373564
 30
0.0
 10
71.84643281623978
 20
-116.6736707607621
 30
0.0
 10
72.2913668981598
 20
-116.885544133105
 30
0.0
 10
72.27276338253945
 20
-116.9623697624261
 30
0.0
 10
72.23038870807088
 20
-117.1742431347689
 30
0.0
 10
72.21712509045267
 20
-117.3227267501832
 30
0.0
 10
71.87278779670194
 20
-117.1108533778403
 30
0.0
 10
71.29280597176013
 20
-116.9651258388143
 30
0.0
 10
70.83994817022405
 20
-116.9017360818857
 30
0.0
 10
70.83994817022405
 20
-116.9017360818857
 30
0.0
 10
70.87698294669048
 20
-116.5041720628878
 30
0.0
 10
70.87698294669048
 20
-116.5041720628878
 30
0.0
  0
SPLINE
  5
4D
330
41
100
AcDbEntity
  8
_U+30EC_U+30A4_U+30E4_U+30FC 1
370
     0
100
AcDbSpline
210
0.0
220
0.0
230
1.0
 70
    11
 71
     3
 72
    17
 73
    13
 74
     0
 42
0.0000000001
 43
0.0000000001
 12
1.0
 22
0.0
 32
0.0
 13
1.0
 23
0.0
 33
0.0
 40
0.0
 40
0.0
 40
0.0
 40
0.0
 40
1.0
 40
1.0
 40
1.0
 40
2.0
 40
2.0
 40
2.0
 40
3.0
 40
3.0
 40
3.0
 40
4.0
 40
4.0
 40
4.0
 40
4.0
 10
71.03597410333477
 20
-117.2617485600943
 30
0.0
 10
71.40942245393585
 20
-117.3041232345629
 30
0.0
 10
71.96563312002942
 20
-117.4843017284414
 30
0.0
 10
72.19059785521624
 20
-117.6300292674675
 30
0.0
 10
72.17216659437015
 20
-117.7040988204004
 30
0.0
 10
72.14563935913374
 20
-117.8153754045739
 30
0.0
 10
72.11377222589518
 20
-118.051019935765
 30
0.0
 10
71.83041312223337
 20
-117.8656737986586
 30
0.0
 10
71.34052054423084
 20
-117.6827392283918
 30
0.0
 10
70.9724120916319
 20
-117.6482882735393
 30
0.0
 10
70.9724120916319
 20
-117.6482882735393
 30
0.0
 10
71.03597410333477
 20
-117.2617485600943
 30
0.0
 10
71.03597410333477
 20
-117.2617485600943
 30
0.0
  0
HATCH
  5
4E
330
41
100
AcDbEntity
  8
_U+30EC_U+30A4_U+30E4_U+30FC 1
 62
   179
420
  2234388
100
AcDbHatch
 10
0.0
 20
0.0
 30
0.0
210
0.0
220
0.0
230
1.0
  2
SOLID
 70
     1
 71
     0
 91
        3
 92
        1
 93
        1
 72
     4
 94
        3
 73
     0
 74
     1
 95
       17
 96
       13
 40
0.0
 40
0.0
 40
0.0
 40
0.0
 40
1.0
 40
1.0
 40
1.0
 40
2.0
 40
2.0
 40
2.0
 40
3.0
 40
3.0
 40
3.0
 40
4.0
 40
4.0
 40
4.0
 40
4.0
 10
70.83994817022405
 20
-117.9927978220643
 10
71.43060979117013
 20
-118.0961506866218
 10
72.01317543772588
 20
-118.2601372317197
 10
72.52701142935089
 20
-118.5726073922319
 10
72.49256047449839
 20
-118.6680365371733
 10
72.4024712275591
 20
-118.9274522272126
 10
72.38403996671302
 20
-118.9860188504618
 10
71.89673121032443
 20
-118.6732041804011
 10
71.32725692661263
 20
-118.4957817629108
 10
70.76053871928903
 20
-118.3951849747415
 10
70.76053871928903
 20
-118.3951849747415
 10
70.83994817022405
 20
-117.9927978220643
 10
70.83994817022405
 20
-117.9927978220643
 97
        0
 97
        0
 92
        1
 93
        1
 72
     4
 94
        3
 73
     0
 74
     1
 95
       17
 96
       13
 40
0.0
 40
0.0
 40
0.0
 40
0.0
 40
1.0
 40
1.0
 40
1.0
 40
2.0
 40
2.0
 40
2.0
 40
3.0
 40
3.0
 40
3.0
 40
4.0
 40
4.0
 40
4.0
 40
4.0
 10
70.87698294669048
 20
-116.5041720628878
 10
71.36704777946727
 20
-116.5465467373564
 10
71.84643281623978
 20
-116.6736707607621
 10
72.2913668981598
 20
-116.885544133105
 10
72.27276338253945
 20
-116.9623697624261
 10
72.23038870807088
 20
-117.1742431347689
 10
72.21712509045267
 20
-117.3227267501832
 10
71.87278779670194
 20
-117.1108533778403
 10
71.29280597176013
 20
-116.9651258388143
 10
70.83994817022405
 20
-116.9017360818857
 10
70.83994817022405
 20
-116.9017360818857
 10
70.87698294669048
 20
-116.5041720628878
 10
70.87698294669048
 20
-116.5041720628878
 97
        0
 97
        0
 92
        1
 93
        1
 72
     4
 94
        3
 73
     0
 74
     1
 95
       17
 96
       13
 40
0.0
 40
0.0
 40
0.0
 40
0.0
 40
1.0
 40
1.0
 40
1.0
 40
2.0
 40
2.0
 40
2.0
 40
3.0
 40
3.0
 40
3.0
 40
4.0
 40
4.0
 40
4.0
 40
4.0
 10
71.03597410333477
 20
-117.2617485600943
 10
71.40942245393585
 20
-117.3041232345629
 10
71.96563312002942
 20
-117.4843017284414
 10
72.19059785521624
 20
-117.6300292674675
 10
72.17216659437015
 20
-117.7040988204004
 10
72.14563935913374
 20
-117.8153754045739
 10
72.11377222589518
 20
-118.051019935765
 10
71.83041312223337
 20
-117.8656737986586
 10
71.34052054423084
 20
-117.6827392283918
 10
70.9724120916319
 20
-117.6482882735393
 10
70.9724120916319
 20
-117.6482882735393
 10
71.03597410333477
 20
-117.2617485600943
 10
71.03597410333477
 20
-117.2617485600943
 97
        0
 97
        0
 75
     2
 76
     1
 98
        0
  0
SPLINE
  5
4F
330
41
100
AcDbEntity
  8
_U+30EC_U+30A4_U+30E4_U+30FC 1
370
     0
100
AcDbSpline
210
0.0
220
0.0
230
1.0
 70
    11
 71
     3
 72
   200
 73
   196
 74
     0
 42
0.0000000001
 43
0.0000000001
 12
1.0
 22
0.0
 32
0.0
 13
1.0
 23
0.0
 33
0.0
 40
0.0
 40
0.0
 40
0.0
 40
0.0
 40
1.0
 40
1.0
 40
1.0
 40
2.0
 40
2.0
 40
2.0
 40
3.0
 40
3.0
 40
3.0
 40
4.0
 40
4.0
 40
4.0
 40
5.0
 40
5.0
 40
5.0
 40
6.0
 40
6.0
 40
6.0
 40
7.0
 40
7.0
 40
7.0
 40
8.0
 40
8.0
 40
8.0
 40
9.0
 40
9.0
 40
9.0
 40
10.0
 40
10.0
 40
10.0
 40
11.0
 40
11.0
 40
11.0
 40
12.0
 40
12.0
 40
12.0
 40
13.0
 40
13.0
 40
13.0
 40
14.0
 40
14.0
 40
14.0
 40
15.0
 40
15.0
 40
15.0
 40
16.0
 40
16.0
 40
16.0
 40
17.0
 40
17.0
 40
17.0
 40
18.0
 40
18.0
 40
18.0
 40
19.0
 40
19.0
 40
19.0
 40
20.0
 40
20.0
 40
20.0
 40
21.0
 40
21.0
 40
21.0
 40
22.0
 40
22.0
 40
22.0
 40
23.0
 40
23.0
 40
23.0
 40
24.0
 40
24.0
 40
24.0
 40
25.0
 40
25.0
 40
25.0
 40
26.0
 40
26.0
 40
26.0
 40
27.0
 40
27.0
 40
27.0
 40
28.0
 40
28.0
 40
28.0
 40
29.0
 40
29.0
 40
29.0
 40
30.0
 40
30.0
 40
30.0
 40
31.0
 40
31.0
 40
31.0
 40
32.0
 40
32.0
 40
32.0
 40
33.0
 40
33.0
 40
33.0
 40
34.0
 40
34.0
 40
34.0
 40
35.0
 40
35.0
 40
35.0
 40
36.0
 40
36.0
 40
36.0
 40
37.0
 40
37.0
 40
37.0
 40
38.0
 40
38.0
 40
38.0
 40
39.0
 40
39.0
 40
39.0
 40
40.0
 40
40.0
 40
40.0
 40
41.0
 40
41.0
 40
41.0
 40
42.0
 40
42.0
 40
42.0
 40
43.0
 40
43.0
 40
43.0
 40
44.0
 40
44.0
 40
44.0
 40
45.0
 40
45.0
 40
45.0
 40
46.0
 40
46.0
 40
46.0
 40
47.0
 40
47.0
 40
47.0
 40
48.0
 40
48.0
 40
48.0
 40
49.0
 40
49.0
 40
49.0
 40
50.0
 40
50.0
 40
50.0
 40
51.0
 40
51.0
 40
51.0
 40
52.0
 40
52.0
 40
52.0
 40
53.0
 40
53.0
 40
53.0
 40
54.0
 40
54.0
 40
54.0
 40
55.0
 40
55.0
 40
55.0
 40
56.0
 40
56.0
 40
56.0
 40
57.0
 40
57.0
 40
57.0
 40
58.0
 40
58.0
 40
58.0
 40
59.0
 40
59.0
 40
59.0
 40
60.0
 40
60.0
 40
60.0
 40
61.0
 40
61.0
 40
61.0
 40
62.0
 40
62.0
 40
62.0
 40
63.0
 40
63.0
 40
63.0
 40
64.0
 40
64.0
 40
64.0
 40
65.0
 40
65.0
 40
65.0
 40
65.0
 10
73.2401461947976
 20
-118.6335855823208
 30
0.0
 10
73.43875594952226
 20
-118.6149820667004
 30
0.0
 10
73.51833765523153
 20
-118.6046467802447
 30
0.0
 10
73.56863604931618
 20
-118.5967230606286
 30
0.0
 10
73.56863604931618
 20
-118.5967230606286
 30
0.0
 10
73.56863604931618
 20
-118.4878580432947
 30
0.0
 10
73.56863604931618
 20
-118.4878580432947
 30
0.0
 10
73.45477564352868
 20
-118.5357448705397
 30
0.0
 10
73.2773532260383
 20
-118.6046467802447
 30
0.0
 10
73.04429251646116
 20
-118.6549451743293
 30
0.0
 10
73.01500920483653
 20
-118.498537839299
 30
0.0
 10
72.93559975390151
 20
-118.4058647707458
 30
0.0
 10
72.86945392058472
 20
-118.339718937429
 30
0.0
 10
72.99123804598831
 20
-118.3238714981968
 30
0.0
 10
73.29320066527045
 20
-118.2814968237282
 30
0.0
 10
73.56329615131403
 20
-118.1595404435504
 30
0.0
 10
73.56329615131403
 20
-118.1595404435504
 30
0.0
 10
72.93835583028972
 20
-118.1595404435504
 30
0.0
 10
72.93835583028972
 20
-118.1595404435504
 30
0.0
 10
72.93835583028972
 20
-118.1595404435504
 30
0.0
 10
72.93835583028972
 20
-117.8577500790425
 30
0.0
 10
72.93835583028972
 20
-117.8577500790425
 30
0.0
 10
72.93835583028972
 20
-117.8577500790425
 30
0.0
 10
74.07713214293905
 20
-117.8577500790425
 30
0.0
 10
74.07713214293905
 20
-117.8577500790425
 30
0.0
 10
74.07713214293905
 20
-117.8577500790425
 30
0.0
 10
74.07713214293905
 20
-117.7912597361772
 30
0.0
 10
74.07713214293905
 20
-117.7912597361772
 30
0.0
 10
74.04009736647262
 20
-117.7940158125654
 30
0.0
 10
74.01891002923833
 20
-117.7940158125654
 30
0.0
 10
73.93674450191513
 20
-117.7940158125654
 30
0.0
 10
73.92882078229904
 20
-117.7092664636282
 30
0.0
 10
73.9129733430669
 20
-117.6351969106954
 30
0.0
 10
73.86250269420799
 20
-117.5662950009904
 30
0.0
 10
73.86250269420799
 20
-117.5662950009904
 30
0.0
 10
73.86250269420799
 20
-117.8098632517975
 30
0.0
 10
73.86250269420799
 20
-117.8098632517975
 30
0.0
 10
73.86250269420799
 20
-117.8098632517975
 30
0.0
 10
73.5235052984594
 20
-117.8098632517975
 30
0.0
 10
73.5235052984594
 20
-117.8098632517975
 30
0.0
 10
73.5235052984594
 20
-117.8098632517975
 30
0.0
 10
73.5235052984594
 20
-117.4949815244457
 30
0.0
 10
73.5235052984594
 20
-117.4949815244457
 30
0.0
 10
73.5235052984594
 20
-117.4949815244457
 30
0.0
 10
73.41498479067404
 20
-117.4949815244457
 30
0.0
 10
73.41498479067404
 20
-117.4949815244457
 30
0.0
 10
73.41498479067404
 20
-117.4949815244457
 30
0.0
 10
73.41498479067404
 20
-117.7809244497214
 30
0.0
 10
73.41498479067404
 20
-117.7809244497214
 30
0.0
 10
73.41498479067404
 20
-117.7809244497214
 30
0.0
 10
73.07064749692331
 20
-117.7809244497214
 30
0.0
 10
73.07064749692331
 20
-117.7809244497214
 30
0.0
 10
73.07064749692331
 20
-117.7809244497214
 30
0.0
 10
73.07064749692331
 20
-117.2669162033222
 30
0.0
 10
73.07064749692331
 20
-117.2669162033222
 30
0.0
 10
73.07064749692331
 20
-117.2669162033222
 30
0.0
 10
73.5235052984594
 20
-117.2669162033222
 30
0.0
 10
73.5235052984594
 20
-117.2669162033222
 30
0.0
 10
73.5235052984594
 20
-117.2669162033222
 30
0.0
 10
73.5235052984594
 20
-117.1956027267775
 30
0.0
 10
73.5235052984594
 20
-117.1956027267775
 30
0.0
 10
73.5235052984594
 20
-117.1956027267775
 30
0.0
 10
72.94093965190366
 20
-117.1956027267775
 30
0.0
 10
72.94093965190366
 20
-117.1956027267775
 30
0.0
 10
72.94093965190366
 20
-117.1956027267775
 30
0.0
 10
72.94093965190366
 20
-116.9572021191982
 30
0.0
 10
72.94093965190366
 20
-116.9572021191982
 30
0.0
 10
72.94093965190366
 20
-116.9572021191982
 30
0.0
 10
73.11302217139189
 20
-116.9572021191982
 30
0.0
 10
73.11302217139189
 20
-116.9572021191982
 30
0.0
 10
72.98865422437437
 20
-116.8883002094932
 30
0.0
 10
72.93025985589938
 20
-116.8776204134889
 30
0.0
 10
72.89064125781901
 20
-116.8696966938729
 30
0.0
 10
73.00191784199258
 20
-116.7294813076232
 30
0.0
 10
73.06272377730724
 20
-116.6182047234496
 30
0.0
 10
73.12111814578222
 20
-116.4910807000439
 30
0.0
 10
73.12111814578222
 20
-116.4910807000439
 30
0.0
 10
73.39638127505368
 20
-116.5334553745125
 30
0.0
 10
73.39638127505368
 20
-116.5334553745125
 30
0.0
 10
73.43083222990619
 20
-116.5386230177403
 30
0.0
 10
73.43875594952226
 20
-116.5572265333607
 30
0.0
 10
73.43875594952226
 20
-116.567906329365
 30
0.0
 10
73.43875594952226
 20
-116.6023572842175
 30
0.0
 10
73.40172117305582
 20
-116.6047688510571
 30
0.0
 10
73.37261011620546
 20
-116.6047688510571
 30
0.0
 10
73.36727021820333
 20
-116.6182047234496
 30
0.0
 10
73.36210257497545
 20
-116.6312960862936
 30
0.0
 10
73.35400660058511
 20
-116.6474880350742
 30
0.0
 10
73.35400660058511
 20
-116.6474880350742
 30
0.0
 10
73.5235052984594
 20
-116.6474880350742
 30
0.0
 10
73.5235052984594
 20
-116.6474880350742
 30
0.0
 10
73.5235052984594
 20
-116.6474880350742
 30
0.0
 10
73.5235052984594
 20
-116.49900441966
 30
0.0
 10
73.5235052984594
 20
-116.49900441966
 30
0.0
 10
73.5235052984594
 20
-116.49900441966
 30
0.0
 10
73.86250269420799
 20
-116.5176079352803
 30
0.0
 10
73.86250269420799
 20
-116.5176079352803
 30
0.0
 10
73.88110620982833
 20
-116.5176079352803
 30
0.0
 10
73.91814098629477
 20
-116.52001950212
 30
0.0
 10
73.91814098629477
 20
-116.5520588901328
 30
0.0
 10
73.91814098629477
 20
-116.5651502529768
 30
0.0
 10
73.88902992944442
 20
-116.5809976922089
 30
0.0
 10
73.86250269420799
 20
-116.5916774882132
 30
0.0
 10
73.86250269420799
 20
-116.5916774882132
 30
0.0
 10
73.86250269420799
 20
-116.6474880350742
 30
0.0
 10
73.86250269420799
 20
-116.6474880350742
 30
0.0
 10
73.86250269420799
 20
-116.6474880350742
 30
0.0
 10
74.33672008775262
 20
-116.6474880350742
 30
0.0
 10
74.33672008775262
 20
-116.6474880350742
 30
0.0
 10
74.33672008775262
 20
-116.6474880350742
 30
0.0
 10
74.33672008775262
 20
-116.885544133105
 30
0.0
 10
74.33672008775262
 20
-116.885544133105
 30
0.0
 10
74.33672008775262
 20
-116.885544133105
 30
0.0
 10
73.86250269420799
 20
-116.885544133105
 30
0.0
 10
73.86250269420799
 20
-116.885544133105
 30
0.0
 10
73.86250269420799
 20
-116.885544133105
 30
0.0
 10
73.86250269420799
 20
-116.9572021191982
 30
0.0
 10
73.86250269420799
 20
-116.9572021191982
 30
0.0
 10
73.86250269420799
 20
-116.9572021191982
 30
0.0
 10
74.3790947622212
 20
-116.9572021191982
 30
0.0
 10
74.3790947622212
 20
-116.9572021191982
 30
0.0
 10
74.3790947622212
 20
-116.9572021191982
 30
0.0
 10
74.3790947622212
 20
-117.1956027267775
 30
0.0
 10
74.3790947622212
 20
-117.1956027267775
 30
0.0
 10
74.3790947622212
 20
-117.1956027267775
 30
0.0
 10
73.86250269420799
 20
-117.1956027267775
 30
0.0
 10
73.86250269420799
 20
-117.1956027267775
 30
0.0
 10
73.86250269420799
 20
-117.1956027267775
 30
0.0
 10
73.86250269420799
 20
-117.2669162033222
 30
0.0
 10
73.86250269420799
 20
-117.2669162033222
 30
0.0
 10
73.86250269420799
 20
-117.2669162033222
 30
0.0
 10
74.33672008775262
 20
-117.2669162033222
 30
0.0
 10
74.33672008775262
 20
-117.2669162033222
 30
0.0
 10
74.33672008775262
 20
-117.2669162033222
 30
0.0
 10
74.33672008775262
 20
-117.6510443499275
 30
0.0
 10
74.33672008775262
 20
-117.6510443499275
 30
0.0
 10
74.33672008775262
 20
-117.6510443499275
 30
0.0
 10
74.48227537200444
 20
-117.66448022232
 30
0.0
 10
74.48227537200444
 20
-117.66448022232
 30
0.0
 10
74.50621878562693
 20
-117.6668917891597
 30
0.0
 10
74.53532984247728
 20
-117.6668917891597
 30
0.0
 10
74.53532984247728
 20
-117.698586667624
 30
0.0
 10
74.53532984247728
 20
-117.7199462596325
 30
0.0
 10
74.51948240324514
 20
-117.7306260556368
 30
0.0
 10
74.48227537200444
 20
-117.754397214485
 30
0.0
 10
74.48227537200444
 20
-117.754397214485
 30
0.0
 10
74.48227537200444
 20
-117.8577500790425
 30
0.0
 10
74.48227537200444
 20
-117.8577500790425
 30
0.0
 10
74.48227537200444
 20
-117.8577500790425
 30
0.0
 10
75.3297688613759
 20
-117.8577500790425
 30
0.0
 10
75.3297688613759
 20
-117.8577500790425
 30
0.0
 10
75.3297688613759
 20
-117.8577500790425
 30
0.0
 10
75.3297688613759
 20
-118.1595404435504
 30
0.0
 10
75.3297688613759
 20
-118.1595404435504
 30
0.0
 10
75.3297688613759
 20
-118.1595404435504
 30
0.0
 10
75.08878443218266
 20
-118.1595404435504
 30
0.0
 10
75.08878443218266
 20
-118.1595404435504
 30
0.0
 10
75.08878443218266
 20
-118.1595404435504
 30
0.0
 10
75.21332463397445
 20
-118.2415337160993
 30
0.0
 10
75.21332463397445
 20
-118.2415337160993
 30
0.0
 10
75.22383217520446
 20
-118.2494574357154
 30
0.0
 10
75.24501951243874
 20
-118.25772566488
 30
0.0
 10
75.24501951243874
 20
-118.2814968237282
 30
0.0
 10
75.24501951243874
 20
-118.3025119061883
 30
0.0
 10
75.22383217520446
 20
-118.3080240589647
 30
0.0
 10
75.1974771947423
 20
-118.3104356258043
 30
0.0
 10
75.18679739873802
 20
-118.3104356258043
 30
0.0
 10
75.17353378111981
 20
-118.3131917021925
 30
0.0
 10
75.16561006150374
 20
-118.3131917021925
 30
0.0
 10
75.12323538703517
 20
-118.3583224530493
 30
0.0
 10
75.05967337533231
 20
-118.4323920059822
 30
0.0
 10
74.98818764401338
 20
-118.498537839299
 30
0.0
 10
75.04106985971195
 20
-118.5250650745354
 30
0.0
 10
75.21056855758626
 20
-118.6098144234726
 30
0.0
 10
75.40935056708517
 20
-118.6521890979411
 30
0.0
 10
75.27413056928911
 20
-118.7634656821147
 30
0.0
 10
75.1974771947423
 20
-118.8826659859043
 30
0.0
 10
75.16561006150374
 20
-118.9698269016812
 30
0.0
 10
74.97492402639516
 20
-118.9222845839847
 30
0.0
 10
74.62007919141443
 20
-118.7317708036504
 30
0.0
 10
74.36841496621693
 20
-118.4933701960711
 30
0.0
 10
74.33396401136443
 20
-118.6256618627047
 30
0.0
 10
74.3286241133623
 20
-118.6918076960215
 30
0.0
 10
74.3286241133623
 20
-118.7634656821147
 30
0.0
 10
73.90763344506476
 20
-118.8719861899001
 30
0.0
 10
73.66389293948333
 20
-118.9116047879804
 30
0.0
 10
73.39379745343975
 20
-118.9488118192211
 30
0.0
 10
73.3779500142076
 20
-118.9911864936897
 30
0.0
 10
73.36210257497545
 20
-119.022881372154
 30
0.0
 10
73.34091523774116
 20
-119.022881372154
 30
0.0
 10
73.31163192611653
 20
-119.022881372154
 30
0.0
 10
73.30646428288867
 20
-118.9963541369176
 30
0.0
 10
73.2985405632726
 20
-118.9488118192211
 30
0.0
 10
73.2985405632726
 20
-118.9488118192211
 30
0.0
 10
73.2401461947976
 20
-118.6335855823208
 30
0.0
 10
73.2401461947976
 20
-118.6335855823208
 30
0.0
  0
SPLINE
  5
50
330
41
100
AcDbEntity
  8
_U+30EC_U+30A4_U+30E4_U+30FC 1
370
     0
100
AcDbSpline
210
0.0
220
0.0
230
1.0
 70
    11
 71
     3
 72
    17
 73
    13
 74
     0
 42
0.0000000001
 43
0.0000000001
 12
1.0
 22
0.0
 32
0.0
 13
1.0
 23
0.0
 33
0.0
 40
0.0
 40
0.0
 40
0.0
 40
0.0
 40
1.0
 40
1.0
 40
1.0
 40
2.0
 40
2.0
 40
2.0
 40
3.0
 40
3.0
 40
3.0
 40
4.0
 40
4.0
 40
4.0
 40
4.0
 10
73.5235052984594
 20
-116.9572021191982
 30
0.0
 10
73.5235052984594
 20
-116.9572021191982
 30
0.0
 10
73.5235052984594
 20
-116.885544133105
 30
0.0
 10
73.5235052984594
 20
-116.885544133105
 30
0.0
 10
73.5235052984594
 20
-116.885544133105
 30
0.0
 10
73.24290227118581
 20
-116.885544133105
 30
0.0
 10
73.24290227118581
 20
-116.885544133105
 30
0.0
 10
73.22171493395152
 20
-116.9227511643457
 30
0.0
 10
73.21103513794725
 20
-116.9385986035779
 30
0.0
 10
73.19777152032903
 20
-116.9572021191982
 30
0.0
 10
73.19777152032903
 20
-116.9572021191982
 30
0.0
 10
73.5235052984594
 20
-116.9572021191982
 30
0.0
 10
73.5235052984594
 20
-116.9572021191982
 30
0.0
  0
SPLINE
  5
51
330
41
100
AcDbEntity
  8
_U+30EC_U+30A4_U+30E4_U+30FC 1
370
     0
100
AcDbSpline
210
0.0
220
0.0
230
1.0
 70
    11
 71
     3
 72
    17
 73
    13
 74
     0
 42
0.0000000001
 43
0.0000000001
 12
1.0
 22
0.0
 32
0.0
 13
1.0
 23
0.0
 33
0.0
 40
0.0
 40
0.0
 40
0.0
 40
0.0
 40
1.0
 40
1.0
 40
1.0
 40
2.0
 40
2.0
 40
2.0
 40
3.0
 40
3.0
 40
3.0
 40
4.0
 40
4.0
 40
4.0
 40
4.0
 10
73.86250269420799
 20
-117.5635389246022
 30
0.0
 10
73.91555716468083
 20
-117.5714626442183
 30
0.0
 10
73.95259194114728
 20
-117.5742187206065
 30
0.0
 10
73.96585555876548
 20
-117.5742187206065
 30
0.0
 10
74.01098630962225
 20
-117.5742187206065
 30
0.0
 10
74.0240776724662
 20
-117.5532036381464
 30
0.0
 10
74.02149385085227
 20
-117.4949815244457
 30
0.0
 10
74.02149385085227
 20
-117.4949815244457
 30
0.0
 10
73.86250269420799
 20
-117.4949815244457
 30
0.0
 10
73.86250269420799
 20
-117.4949815244457
 30
0.0
 10
73.86250269420799
 20
-117.4949815244457
 30
0.0
 10
73.86250269420799
 20
-117.5635389246022
 30
0.0
 10
73.86250269420799
 20
-117.5635389246022
 30
0.0
  0
SPLINE
  5
52
330
41
100
AcDbEntity
  8
_U+30EC_U+30A4_U+30E4_U+30FC 1
370
     0
100
AcDbSpline
210
0.0
220
0.0
230
1.0
 70
    11
 71
     3
 72
    17
 73
    13
 74
     0
 42
0.0000000001
 43
0.0000000001
 12
1.0
 22
0.0
 32
0.0
 13
1.0
 23
0.0
 33
0.0
 40
0.0
 40
0.0
 40
0.0
 40
0.0
 40
1.0
 40
1.0
 40
1.0
 40
2.0
 40
2.0
 40
2.0
 40
3.0
 40
3.0
 40
3.0
 40
4.0
 40
4.0
 40
4.0
 40
4.0
 10
73.94208439991726
 20
-118.5409125137676
 30
0.0
 10
74.0268337488544
 20
-118.5250650745354
 30
0.0
 10
74.22010360557692
 20
-118.4878580432947
 30
0.0
 10
74.33672008775262
 20
-118.4613308080583
 30
0.0
 10
74.27040199966157
 20
-118.3979410511297
 30
0.0
 10
74.17238903310621
 20
-118.2894205433443
 30
0.0
 10
74.10365937817548
 20
-118.1833116023986
 30
0.0
 10
74.03734129008441
 20
-118.2391221492597
 30
0.0
 10
73.96051566076335
 20
-118.2866644669561
 30
0.0
 10
73.94208439991726
 20
-118.2973442629604
 30
0.0
 10
73.94208439991726
 20
-118.2973442629604
 30
0.0
 10
73.94208439991726
 20
-118.5409125137676
 30
0.0
 10
73.94208439991726
 20
-118.5409125137676
 30
0.0
  0
SPLINE
  5
53
330
41
100
AcDbEntity
  8
_U+30EC_U+30A4_U+30E4_U+30FC 1
370
     0
100
AcDbSpline
210
0.0
220
0.0
230
1.0
 70
    11
 71
     3
 72
    50
 73
    46
 74
     0
 42
0.0000000001
 43
0.0000000001
 12
1.0
 22
0.0
 32
0.0
 13
1.0
 23
0.0
 33
0.0
 40
0.0
 40
0.0
 40
0.0
 40
0.0
 40
1.0
 40
1.0
 40
1.0
 40
2.0
 40
2.0
 40
2.0
 40
3.0
 40
3.0
 40
3.0
 40
4.0
 40
4.0
 40
4.0
 40
5.0
 40
5.0
 40
5.0
 40
6.0
 40
6.0
 40
6.0
 40
7.0
 40
7.0
 40
7.0
 40
8.0
 40
8.0
 40
8.0
 40
9.0
 40
9.0
 40
9.0
 40
10.0
 40
10.0
 40
10.0
 40
11.0
 40
11.0
 40
11.0
 40
12.0
 40
12.0
 40
12.0
 40
13.0
 40
13.0
 40
13.0
 40
14.0
 40
14.0
 40
14.0
 40
15.0
 40
15.0
 40
15.0
 40
15.0
 10
74.92996553031266
 20
-116.5069281392761
 30
0.0
 10
74.92996553031266
 20
-116.5069281392761
 30
0.0
 10
75.28739418690732
 20
-116.5255316548964
 30
0.0
 10
75.28739418690732
 20
-116.5255316548964
 30
0.0
 10
75.31392142214375
 20
-116.5282877312846
 30
0.0
 10
75.34044865738016
 20
-116.5362114509007
 30
0.0
 10
75.34044865738016
 20
-116.5599826097489
 30
0.0
 10
75.34044865738016
 20
-116.5944335646014
 30
0.0
 10
75.31650524375769
 20
-116.5996012078293
 30
0.0
 10
75.29015026329552
 20
-116.6075249274453
 30
0.0
 10
75.29015026329552
 20
-116.6075249274453
 30
0.0
 10
75.29015026329552
 20
-117.4629421364329
 30
0.0
 10
75.29015026329552
 20
-117.4629421364329
 30
0.0
 10
75.29015026329552
 20
-117.7330376224765
 30
0.0
 10
75.22383217520446
 20
-117.82329912419
 30
0.0
 10
74.82919648736909
 20
-117.8046956085697
 30
0.0
 10
74.82402884414122
 20
-117.7330376224765
 30
0.0
 10
74.81610512452514
 20
-117.6245171146911
 30
0.0
 10
74.73652341881588
 20
-117.4843017284414
 30
0.0
 10
74.73652341881588
 20
-117.4843017284414
 30
0.0
 10
74.43990069753586
 20
-117.4843017284414
 30
0.0
 10
74.43990069753586
 20
-117.4843017284414
 30
0.0
 10
74.43990069753586
 20
-117.4843017284414
 30
0.0
 10
74.43990069753586
 20
-116.5916774882132
 30
0.0
 10
74.43990069753586
 20
-116.5916774882132
 30
0.0
 10
74.43990069753586
 20
-116.5916774882132
 30
0.0
 10
74.810765226523
 20
-116.6075249274453
 30
0.0
 10
74.810765226523
 20
-116.6075249274453
 30
0.0
 10
74.81868894613908
 20
-116.6075249274453
 30
0.0
 10
74.85572372260552
 20
-116.6102810038335
 30
0.0
 10
74.85572372260552
 20
-116.6392198059096
 30
0.0
 10
74.85572372260552
 20
-116.6712591939225
 30
0.0
 10
74.81334904813694
 20
-116.6815944803782
 30
0.0
 10
74.80008543051873
 20
-116.6843505567664
 30
0.0
 10
74.80008543051873
 20
-116.6843505567664
 30
0.0
 10
74.80008543051873
 20
-117.4736219324372
 30
0.0
 10
74.80008543051873
 20
-117.4736219324372
 30
0.0
 10
74.82661266575515
 20
-117.4763780088253
 30
0.0
 10
74.85038382460338
 20
-117.4843017284414
 30
0.0
 10
74.87157116183766
 20
-117.4843017284414
 30
0.0
 10
74.92720945392445
 20
-117.4843017284414
 30
0.0
 10
74.92996553031266
 20
-117.4470946972007
 30
0.0
 10
74.92996553031266
 20
-117.4102321755086
 30
0.0
 10
74.92996553031266
 20
-117.4102321755086
 30
0.0
 10
74.92996553031266
 20
-116.5069281392761
 30
0.0
 10
74.92996553031266
 20
-116.5069281392761
 30
0.0
  0
SPLINE
  5
54
330
41
100
AcDbEntity
  8
_U+30EC_U+30A4_U+30E4_U+30FC 1
370
     0
100
AcDbSpline
210
0.0
220
0.0
230
1.0
 70
    11
 71
     3
 72
    14
 73
    10
 74
     0
 42
0.0000000001
 43
0.0000000001
 12
1.0
 22
0.0
 32
0.0
 13
1.0
 23
0.0
 33
0.0
 40
0.0
 40
0.0
 40
0.0
 40
0.0
 40
1.0
 40
1.0
 40
1.0
 40
2.0
 40
2.0
 40
2.0
 40
3.0
 40
3.0
 40
3.0
 40
3.0
 10
74.52206622485907
 20
-118.1595404435504
 30
0.0
 10
74.5458373837073
 20
-118.1833116023986
 30
0.0
 10
74.61732311502622
 20
-118.2549695884918
 30
0.0
 10
74.70207246396338
 20
-118.3211154218086
 30
0.0
 10
74.75237085804802
 20
-118.270817027724
 30
0.0
 10
74.7975016089048
 20
-118.2150064808629
 30
0.0
 10
74.83987628337337
 20
-118.1595404435504
 30
0.0
 10
74.83987628337337
 20
-118.1595404435504
 30
0.0
 10
74.52206622485907
 20
-118.1595404435504
 30
0.0
 10
74.52206622485907
 20
-118.1595404435504
 30
0.0
  0
HATCH
  5
55
330
41
100
AcDbEntity
  8
_U+30EC_U+30A4_U+30E4_U+30FC 1
 62
   179
420
  2234388
100
AcDbHatch
 10
0.0
 20
0.0
 30
0.0
210
0.0
220
0.0
230
1.0
  2
SOLID
 70
     1
 71
     0
 91
        6
 92
        1
 93
        1
 72
     4
 94
        3
 73
     0
 74
     1
 95
      200
 96
      196
 40
0.0
 40
0.0
 40
0.0
 40
0.0
 40
1.0
 40
1.0
 40
1.0
 40
2.0
 40
2.0
 40
2.0
 40
3.0
 40
3.0
 40
3.0
 40
4.0
 40
4.0
 40
4.0
 40
5.0
 40
5.0
 40
5.0
 40
6.0
 40
6.0
 40
6.0
 40
7.0
 40
7.0
 40
7.0
 40
8.0
 40
8.0
 40
8.0
 40
9.0
 40
9.0
 40
9.0
 40
10.0
 40
10.0
 40
10.0
 40
11.0
 40
11.0
 40
11.0
 40
12.0
 40
12.0
 40
12.0
 40
13.0
 40
13.0
 40
13.0
 40
14.0
 40
14.0
 40
14.0
 40
15.0
 40
15.0
 40
15.0
 40
16.0
 40
16.0
 40
16.0
 40
17.0
 40
17.0
 40
17.0
 40
18.0
 40
18.0
 40
18.0
 40
19.0
 40
19.0
 40
19.0
 40
20.0
 40
20.0
 40
20.0
 40
21.0
 40
21.0
 40
21.0
 40
22.0
 40
22.0
 40
22.0
 40
23.0
 40
23.0
 40
23.0
 40
24.0
 40
24.0
 40
24.0
 40
25.0
 40
25.0
 40
25.0
 40
26.0
 40
26.0
 40
26.0
 40
27.0
 40
27.0
 40
27.0
 40
28.0
 40
28.0
 40
28.0
 40
29.0
 40
29.0
 40
29.0
 40
30.0
 40
30.0
 40
30.0
 40
31.0
 40
31.0
 40
31.0
 40
32.0
 40
32.0
 40
32.0
 40
33.0
 40
33.0
 40
33.0
 40
34.0
 40
34.0
 40
34.0
 40
35.0
 40
35.0
 40
35.0
 40
36.0
 40
36.0
 40
36.0
 40
37.0
 40
37.0
 40
37.0
 40
38.0
 40
38.0
 40
38.0
 40
39.0
 40
39.0
 40
39.0
 40
40.0
 40
40.0
 40
40.0
 40
41.0
 40
41.0
 40
41.0
 40
42.0
 40
42.0
 40
42.0
 40
43.0
 40
43.0
 40
43.0
 40
44.0
 40
44.0
 40
44.0
 40
45.0
 40
45.0
 40
45.0
 40
46.0
 40
46.0
 40
46.0
 40
47.0
 40
47.0
 40
47.0
 40
48.0
 40
48.0
 40
48.0
 40
49.0
 40
49.0
 40
49.0
 40
50.0
 40
50.0
 40
50.0
 40
51.0
 40
51.0
 40
51.0
 40
52.0
 40
52.0
 40
52.0
 40
53.0
 40
53.0
 40
53.0
 40
54.0
 40
54.0
 40
54.0
 40
55.0
 40
55.0
 40
55.0
 40
56.0
 40
56.0
 40
56.0
 40
57.0
 40
57.0
 40
57.0
 40
58.0
 40
58.0
 40
58.0
 40
59.0
 40
59.0
 40
59.0
 40
60.0
 40
60.0
 40
60.0
 40
61.0
 40
61.0
 40
61.0
 40
62.0
 40
62.0
 40
62.0
 40
63.0
 40
63.0
 40
63.0
 40
64.0
 40
64.0
 40
64.0
 40
65.0
 40
65.0
 40
65.0
 40
65.0
 10
73.2401461947976
 20
-118.6335855823208
 10
73.43875594952226
 20
-118.6149820667004
 10
73.51833765523153
 20
-118.6046467802447
 10
73.56863604931618
 20
-118.5967230606286
 10
73.56863604931618
 20
-118.5967230606286
 10
73.56863604931618
 20
-118.4878580432947
 10
73.56863604931618
 20
-118.4878580432947
 10
73.45477564352868
 20
-118.5357448705397
 10
73.2773532260383
 20
-118.6046467802447
 10
73.04429251646116
 20
-118.6549451743293
 10
73.01500920483653
 20
-118.498537839299
 10
72.93559975390151
 20
-118.4058647707458
 10
72.86945392058472
 20
-118.339718937429
 10
72.99123804598831
 20
-118.3238714981968
 10
73.29320066527045
 20
-118.2814968237282
 10
73.56329615131403
 20
-118.1595404435504
 10
73.56329615131403
 20
-118.1595404435504
 10
72.93835583028972
 20
-118.1595404435504
 10
72.93835583028972
 20
-118.1595404435504
 10
72.93835583028972
 20
-118.1595404435504
 10
72.93835583028972
 20
-117.8577500790425
 10
72.93835583028972
 20
-117.8577500790425
 10
72.93835583028972
 20
-117.8577500790425
 10
74.07713214293905
 20
-117.8577500790425
 10
74.07713214293905
 20
-117.8577500790425
 10
74.07713214293905
 20
-117.8577500790425
 10
74.07713214293905
 20
-117.7912597361772
 10
74.07713214293905
 20
-117.7912597361772
 10
74.04009736647262
 20
-117.7940158125654
 10
74.01891002923833
 20
-117.7940158125654
 10
73.93674450191513
 20
-117.7940158125654
 10
73.92882078229904
 20
-117.7092664636282
 10
73.9129733430669
 20
-117.6351969106954
 10
73.86250269420799
 20
-117.5662950009904
 10
73.86250269420799
 20
-117.5662950009904
 10
73.86250269420799
 20
-117.8098632517975
 10
73.86250269420799
 20
-117.8098632517975
 10
73.86250269420799
 20
-117.8098632517975
 10
73.5235052984594
 20
-117.8098632517975
 10
73.5235052984594
 20
-117.8098632517975
 10
73.5235052984594
 20
-117.8098632517975
 10
73.5235052984594
 20
-117.4949815244457
 10
73.5235052984594
 20
-117.4949815244457
 10
73.5235052984594
 20
-117.4949815244457
 10
73.41498479067404
 20
-117.4949815244457
 10
73.41498479067404
 20
-117.4949815244457
 10
73.41498479067404
 20
-117.4949815244457
 10
73.41498479067404
 20
-117.7809244497214
 10
73.41498479067404
 20
-117.7809244497214
 10
73.41498479067404
 20
-117.7809244497214
 10
73.07064749692331
 20
-117.7809244497214
 10
73.07064749692331
 20
-117.7809244497214
 10
73.07064749692331
 20
-117.7809244497214
 10
73.07064749692331
 20
-117.2669162033222
 10
73.07064749692331
 20
-117.2669162033222
 10
73.07064749692331
 20
-117.2669162033222
 10
73.5235052984594
 20
-117.2669162033222
 10
73.5235052984594
 20
-117.2669162033222
 10
73.5235052984594
 20
-117.2669162033222
 10
73.5235052984594
 20
-117.1956027267775
 10
73.5235052984594
 20
-117.1956027267775
 10
73.5235052984594
 20
-117.1956027267775
 10
72.94093965190366
 20
-117.1956027267775
 10
72.94093965190366
 20
-117.1956027267775
 10
72.94093965190366
 20
-117.1956027267775
 10
72.94093965190366
 20
-116.9572021191982
 10
72.94093965190366
 20
-116.9572021191982
 10
72.94093965190366
 20
-116.9572021191982
 10
73.11302217139189
 20
-116.9572021191982
 10
73.11302217139189
 20
-116.9572021191982
 10
72.98865422437437
 20
-116.8883002094932
 10
72.93025985589938
 20
-116.8776204134889
 10
72.89064125781901
 20
-116.8696966938729
 10
73.00191784199258
 20
-116.7294813076232
 10
73.06272377730724
 20
-116.6182047234496
 10
73.12111814578222
 20
-116.4910807000439
 10
73.12111814578222
 20
-116.4910807000439
 10
73.39638127505368
 20
-116.5334553745125
 10
73.39638127505368
 20
-116.5334553745125
 10
73.43083222990619
 20
-116.5386230177403
 10
73.43875594952226
 20
-116.5572265333607
 10
73.43875594952226
 20
-116.567906329365
 10
73.43875594952226
 20
-116.6023572842175
 10
73.40172117305582
 20
-116.6047688510571
 10
73.37261011620546
 20
-116.6047688510571
 10
73.36727021820333
 20
-116.6182047234496
 10
73.36210257497545
 20
-116.6312960862936
 10
73.35400660058511
 20
-116.6474880350742
 10
73.35400660058511
 20
-116.6474880350742
 10
73.5235052984594
 20
-116.6474880350742
 10
73.5235052984594
 20
-116.6474880350742
 10
73.5235052984594
 20
-116.6474880350742
 10
73.5235052984594
 20
-116.49900441966
 10
73.5235052984594
 20
-116.49900441966
 10
73.5235052984594
 20
-116.49900441966
 10
73.86250269420799
 20
-116.5176079352803
 10
73.86250269420799
 20
-116.5176079352803
 10
73.88110620982833
 20
-116.5176079352803
 10
73.91814098629477
 20
-116.52001950212
 10
73.91814098629477
 20
-116.5520588901328
 10
73.91814098629477
 20
-116.5651502529768
 10
73.88902992944442
 20
-116.5809976922089
 10
73.86250269420799
 20
-116.5916774882132
 10
73.86250269420799
 20
-116.5916774882132
 10
73.86250269420799
 20
-116.6474880350742
 10
73.86250269420799
 20
-116.6474880350742
 10
73.86250269420799
 20
-116.6474880350742
 10
74.33672008775262
 20
-116.6474880350742
 10
74.33672008775262
 20
-116.6474880350742
 10
74.33672008775262
 20
-116.6474880350742
 10
74.33672008775262
 20
-116.885544133105
 10
74.33672008775262
 20
-116.885544133105
 10
74.33672008775262
 20
-116.885544133105
 10
73.86250269420799
 20
-116.885544133105
 10
73.86250269420799
 20
-116.885544133105
 10
73.86250269420799
 20
-116.885544133105
 10
73.86250269420799
 20
-116.9572021191982
 10
73.86250269420799
 20
-116.9572021191982
 10
73.86250269420799
 20
-116.9572021191982
 10
74.3790947622212
 20
-116.9572021191982
 10
74.3790947622212
 20
-116.9572021191982
 10
74.3790947622212
 20
-116.9572021191982
 10
74.3790947622212
 20
-117.1956027267775
 10
74.3790947622212
 20
-117.1956027267775
 10
74.3790947622212
 20
-117.1956027267775
 10
73.86250269420799
 20
-117.1956027267775
 10
73.86250269420799
 20
-117.1956027267775
 10
73.86250269420799
 20
-117.1956027267775
 10
73.86250269420799
 20
-117.2669162033222
 10
73.86250269420799
 20
-117.2669162033222
 10
73.86250269420799
 20
-117.2669162033222
 10
74.33672008775262
 20
-117.2669162033222
 10
74.33672008775262
 20
-117.2669162033222
 10
74.33672008775262
 20
-117.2669162033222
 10
74.33672008775262
 20
-117.6510443499275
 10
74.33672008775262
 20
-117.6510443499275
 10
74.33672008775262
 20
-117.6510443499275
 10
74.48227537200444
 20
-117.66448022232
 10
74.48227537200444
 20
-117.66448022232
 10
74.50621878562693
 20
-117.6668917891597
 10
74.53532984247728
 20
-117.6668917891597
 10
74.53532984247728
 20
-117.698586667624
 10
74.53532984247728
 20
-117.7199462596325
 10
74.51948240324514
 20
-117.7306260556368
 10
74.48227537200444
 20
-117.754397214485
 10
74.48227537200444
 20
-117.754397214485
 10
74.48227537200444
 20
-117.8577500790425
 10
74.48227537200444
 20
-117.8577500790425
 10
74.48227537200444
 20
-117.8577500790425
 10
75.3297688613759
 20
-117.8577500790425
 10
75.3297688613759
 20
-117.8577500790425
 10
75.3297688613759
 20
-117.8577500790425
 10
75.3297688613759
 20
-118.1595404435504
 10
75.3297688613759
 20
-118.1595404435504
 10
75.3297688613759
 20
-118.1595404435504
 10
75.08878443218266
 20
-118.1595404435504
 10
75.08878443218266
 20
-118.1595404435504
 10
75.08878443218266
 20
-118.1595404435504
 10
75.21332463397445
 20
-118.2415337160993
 10
75.21332463397445
 20
-118.2415337160993
 10
75.22383217520446
 20
-118.2494574357154
 10
75.24501951243874
 20
-118.25772566488
 10
75.24501951243874
 20
-118.2814968237282
 10
75.24501951243874
 20
-118.3025119061883
 10
75.22383217520446
 20
-118.3080240589647
 10
75.1974771947423
 20
-118.3104356258043
 10
75.18679739873802
 20
-118.3104356258043
 10
75.17353378111981
 20
-118.3131917021925
 10
75.16561006150374
 20
-118.3131917021925
 10
75.12323538703517
 20
-118.3583224530493
 10
75.05967337533231
 20
-118.4323920059822
 10
74.98818764401338
 20
-118.498537839299
 10
75.04106985971195
 20
-118.5250650745354
 10
75.21056855758626
 20
-118.6098144234726
 10
75.40935056708517
 20
-118.6521890979411
 10
75.27413056928911
 20
-118.7634656821147
 10
75.1974771947423
 20
-118.8826659859043
 10
75.16561006150374
 20
-118.9698269016812
 10
74.97492402639516
 20
-118.9222845839847
 10
74.62007919141443
 20
-118.7317708036504
 10
74.36841496621693
 20
-118.4933701960711
 10
74.33396401136443
 20
-118.6256618627047
 10
74.3286241133623
 20
-118.6918076960215
 10
74.3286241133623
 20
-118.7634656821147
 10
73.90763344506476
 20
-118.8719861899001
 10
73.66389293948333
 20
-118.9116047879804
 10
73.39379745343975
 20
-118.9488118192211
 10
73.3779500142076
 20
-118.9911864936897
 10
73.36210257497545
 20
-119.022881372154
 10
73.34091523774116
 20
-119.022881372154
 10
73.31163192611653
 20
-119.022881372154
 10
73.30646428288867
 20
-118.9963541369176
 10
73.2985405632726
 20
-118.9488118192211
 10
73.2985405632726
 20
-118.9488118192211
 10
73.2401461947976
 20
-118.6335855823208
 10
73.2401461947976
 20
-118.6335855823208
 97
        0
 97
        0
 92
        1
 93
        1
 72
     4
 94
        3
 73
     0
 74
     1
 95
       17
 96
       13
 40
0.0
 40
0.0
 40
0.0
 40
0.0
 40
1.0
 40
1.0
 40
1.0
 40
2.0
 40
2.0
 40
2.0
 40
3.0
 40
3.0
 40
3.0
 40
4.0
 40
4.0
 40
4.0
 40
4.0
 10
73.5235052984594
 20
-116.9572021191982
 10
73.5235052984594
 20
-116.9572021191982
 10
73.5235052984594
 20
-116.885544133105
 10
73.5235052984594
 20
-116.885544133105
 10
73.5235052984594
 20
-116.885544133105
 10
73.24290227118581
 20
-116.885544133105
 10
73.24290227118581
 20
-116.885544133105
 10
73.22171493395152
 20
-116.9227511643457
 10
73.21103513794725
 20
-116.9385986035779
 10
73.19777152032903
 20
-116.9572021191982
 10
73.19777152032903
 20
-116.9572021191982
 10
73.5235052984594
 20
-116.9572021191982
 10
73.5235052984594
 20
-116.9572021191982
 97
        0
 97
        0
 92
        1
 93
        1
 72
     4
 94
        3
 73
     0
 74
     1
 95
       17
 96
       13
 40
0.0
 40
0.0
 40
0.0
 40
0.0
 40
1.0
 40
1.0
 40
1.0
 40
2.0
 40
2.0
 40
2.0
 40
3.0
 40
3.0
 40
3.0
 40
4.0
 40
4.0
 40
4.0
 40
4.0
 10
73.86250269420799
 20
-117.5635389246022
 10
73.91555716468083
 20
-117.5714626442183
 10
73.95259194114728
 20
-117.5742187206065
 10
73.96585555876548
 20
-117.5742187206065
 10
74.01098630962225
 20
-117.5742187206065
 10
74.0240776724662
 20
-117.5532036381464
 10
74.02149385085227
 20
-117.4949815244457
 10
74.02149385085227
 20
-117.4949815244457
 10
73.86250269420799
 20
-117.4949815244457
 10
73.86250269420799
 20
-117.4949815244457
 10
73.86250269420799
 20
-117.4949815244457
 10
73.86250269420799
 20
-117.5635389246022
 10
73.86250269420799
 20
-117.5635389246022
 97
        0
 97
        0
 92
        1
 93
        1
 72
     4
 94
        3
 73
     0
 74
     1
 95
       17
 96
       13
 40
0.0
 40
0.0
 40
0.0
 40
0.0
 40
1.0
 40
1.0
 40
1.0
 40
2.0
 40
2.0
 40
2.0
 40
3.0
 40
3.0
 40
3.0
 40
4.0
 40
4.0
 40
4.0
 40
4.0
 10
73.94208439991726
 20
-118.5409125137676
 10
74.0268337488544
 20
-118.5250650745354
 10
74.22010360557692
 20
-118.4878580432947
 10
74.33672008775262
 20
-118.4613308080583
 10
74.27040199966157
 20
-118.3979410511297
 10
74.17238903310621
 20
-118.2894205433443
 10
74.10365937817548
 20
-118.1833116023986
 10
74.03734129008441
 20
-118.2391221492597
 10
73.96051566076335
 20
-118.2866644669561
 10
73.94208439991726
 20
-118.2973442629604
 10
73.94208439991726
 20
-118.2973442629604
 10
73.94208439991726
 20
-118.5409125137676
 10
73.94208439991726
 20
-118.5409125137676
 97
        0
 97
        0
 92
        1
 93
        1
 72
     4
 94
        3
 73
     0
 74
     1
 95
       50
 96
       46
 40
0.0
 40
0.0
 40
0.0
 40
0.0
 40
1.0
 40
1.0
 40
1.0
 40
2.0
 40
2.0
 40
2.0
 40
3.0
 40
3.0
 40
3.0
 40
4.0
 40
4.0
 40
4.0
 40
5.0
 40
5.0
 40
5.0
 40
6.0
 40
6.0
 40
6.0
 40
7.0
 40
7.0
 40
7.0
 40
8.0
 40
8.0
 40
8.0
 40
9.0
 40
9.0
 40
9.0
 40
10.0
 40
10.0
 40
10.0
 40
11.0
 40
11.0
 40
11.0
 40
12.0
 40
12.0
 40
12.0
 40
13.0
 40
13.0
 40
13.0
 40
14.0
 40
14.0
 40
14.0
 40
15.0
 40
15.0
 40
15.0
 40
15.0
 10
74.92996553031266
 20
-116.5069281392761
 10
74.92996553031266
 20
-116.5069281392761
 10
75.28739418690732
 20
-116.5255316548964
 10
75.28739418690732
 20
-116.5255316548964
 10
75.31392142214375
 20
-116.5282877312846
 10
75.34044865738016
 20
-116.5362114509007
 10
75.34044865738016
 20
-116.5599826097489
 10
75.34044865738016
 20
-116.5944335646014
 10
75.31650524375769
 20
-116.5996012078293
 10
75.29015026329552
 20
-116.6075249274453
 10
75.29015026329552
 20
-116.6075249274453
 10
75.29015026329552
 20
-117.4629421364329
 10
75.29015026329552
 20
-117.4629421364329
 10
75.29015026329552
 20
-117.7330376224765
 10
75.22383217520446
 20
-117.82329912419
 10
74.82919648736909
 20
-117.8046956085697
 10
74.82402884414122
 20
-117.7330376224765
 10
74.81610512452514
 20
-117.6245171146911
 10
74.73652341881588
 20
-117.4843017284414
 10
74.73652341881588
 20
-117.4843017284414
 10
74.43990069753586
 20
-117.4843017284414
 10
74.43990069753586
 20
-117.4843017284414
 10
74.43990069753586
 20
-117.4843017284414
 10
74.43990069753586
 20
-116.5916774882132
 10
74.43990069753586
 20
-116.5916774882132
 10
74.43990069753586
 20
-116.5916774882132
 10
74.810765226523
 20
-116.6075249274453
 10
74.810765226523
 20
-116.6075249274453
 10
74.81868894613908
 20
-116.6075249274453
 10
74.85572372260552
 20
-116.6102810038335
 10
74.85572372260552
 20
-116.6392198059096
 10
74.85572372260552
 20
-116.6712591939225
 10
74.81334904813694
 20
-116.6815944803782
 10
74.80008543051873
 20
-116.6843505567664
 10
74.80008543051873
 20
-116.6843505567664
 10
74.80008543051873
 20
-117.4736219324372
 10
74.80008543051873
 20
-117.4736219324372
 10
74.82661266575515
 20
-117.4763780088253
 10
74.85038382460338
 20
-117.4843017284414
 10
74.87157116183766
 20
-117.4843017284414
 10
74.92720945392445
 20
-117.4843017284414
 10
74.92996553031266
 20
-117.4470946972007
 10
74.92996553031266
 20
-117.4102321755086
 10
74.92996553031266
 20
-117.4102321755086
 10
74.92996553031266
 20
-116.5069281392761
 10
74.92996553031266
 20
-116.5069281392761
 97
        0
 97
        0
 92
        1
 93
        1
 72
     4
 94
        3
 73
     0
 74
     1
 95
       14
 96
       10
 40
0.0
 40
0.0
 40
0.0
 40
0.0
 40
1.0
 40
1.0
 40
1.0
 40
2.0
 40
2.0
 40
2.0
 40
3.0
 40
3.0
 40
3.0
 40
3.0
 10
74.52206622485907
 20
-118.1595404435504
 10
74.5458373837073
 20
-118.1833116023986
 10
74.61732311502622
 20
-118.2549695884918
 10
74.70207246396338
 20
-118.3211154218086
 10
74.75237085804802
 20
-118.270817027724
 10
74.7975016089048
 20
-118.2150064808629
 10
74.83987628337337
 20
-118.1595404435504
 10
74.83987628337337
 20
-118.1595404435504
 10
74.52206622485907
 20
-118.1595404435504
 10
74.52206622485907
 20
-118.1595404435504
 97
        0
 97
        0
 75
     2
 76
     1
 98
        0
  0
ENDBLK
  5
44
330
41
100
AcDbEntity
  8
0
100
AcDbBlockEnd
  0
BLOCK
  5
6A
330
68
100
AcDbEntity
  8
0
100
AcDbBlockBegin
  2
block 3
 70
     0
 10
0.0
 20
0.0
 30
0.0
  3
block 3
  1

  0
SPLINE
  5
6C
330
68
100
AcDbEntity
  8
_U+30EC_U+30A4_U+30E4_U+30FC 1
370
     0
100
AcDbSpline
210
0.0
220
0.0
230
1.0
 70
    11
 71
     3
 72
    62
 73
    58
 74
     0
 42
0.0000000001
 43
0.0000000001
 12
1.0
 22
0.0
 32
0.0
 13
1.0
 23
0.0
 33
0.0
 40
0.0
 40
0.0
 40
0.0
 40
0.0
 40
1.0
 40
1.0
 40
1.0
 40
2.0
 40
2.0
 40
2.0
 40
3.0
 40
3.0
 40
3.0
 40
4.0
 40
4.0
 40
4.0
 40
5.0
 40
5.0
 40
5.0
 40
6.0
 40
6.0
 40
6.0
 40
7.0
 40
7.0
 40
7.0
 40
8.0
 40
8.0
 40
8.0
 40
9.0
 40
9.0
 40
9.0
 40
10.0
 40
10.0
 40
10.0
 40
11.0
 40
11.0
 40
11.0
 40
12.0
 40
12.0
 40
12.0
 40
13.0
 40
13.0
 40
13.0
 40
14.0
 40
14.0
 40
14.0
 40
15.0
 40
15.0
 40
15.0
 40
16.0
 40
16.0
 40
16.0
 40
17.0
 40
17.0
 40
17.0
 40
18.0
 40
18.0
 40
18.0
 40
19.0
 40
19.0
 40
19.0
 40
19.0
 10
89.9659125209113
 20
-121.9539686110046
 30
0.0
 10
89.87048337596988
 20
-121.9539686110046
 30
0.0
 10
89.65275334130209
 20
-121.9329535285445
 30
0.0
 10
89.52769637518753
 20
-121.7469183723411
 30
0.0
 10
89.45362682225465
 20
-121.6346082595219
 30
0.0
 10
89.44949270767235
 20
-121.5353895095467
 30
0.0
 10
89.44535859309005
 20
-121.4506401606096
 30
0.0
 10
89.44535859309005
 20
-121.4506401606096
 30
0.0
 10
89.66550019459751
 20
-121.4506401606096
 30
0.0
 10
89.66550019459751
 20
-121.4506401606096
 30
0.0
 10
89.66756725188867
 20
-121.5247097135424
 30
0.0
 10
89.67790253834441
 20
-121.759320716088
 30
0.0
 10
89.96143389678048
 20
-121.759320716088
 30
0.0
 10
90.09889320664195
 20
-121.759320716088
 30
0.0
 10
90.25151093663851
 20
-121.6897297872859
 30
0.0
 10
90.25151093663851
 20
-121.4613199566138
 30
0.0
 10
90.25151093663851
 20
-121.3448757292124
 30
0.0
 10
90.21327037675225
 20
-121.2962998828704
 30
0.0
 10
90.18157549828794
 20
-121.2646050044061
 30
0.0
 10
90.10750594535507
 20
-121.1905354514732
 30
0.0
 10
89.99106171795363
 20
-121.1777885981778
 30
0.0
 10
89.93628469973815
 20
-121.1777885981778
 30
0.0
 10
89.91699216502076
 20
-121.1777885981778
 30
0.0
 10
89.88116317197415
 20
-121.1798556554689
 30
0.0
 10
89.85360240809216
 20
-121.1839897700512
 30
0.0
 10
89.85360240809216
 20
-121.1839897700512
 30
0.0
 10
89.85360240809216
 20
-120.9893418751346
 30
0.0
 10
89.85360240809216
 20
-120.9893418751346
 30
0.0
 10
89.89184296797843
 20
-120.9958875565566
 30
0.0
 10
89.93387313289848
 20
-120.9979546138477
 30
0.0
 10
89.94041881432045
 20
-120.9979546138477
 30
0.0
 10
90.0058756285402
 20
-120.9979546138477
 30
0.0
 10
90.20465763803912
 20
-120.9765950218392
 30
0.0
 10
90.20465763803912
 20
-120.7399169620025
 30
0.0
 10
90.20465763803912
 20
-120.5621500349636
 30
0.0
 10
90.07374400959962
 20
-120.5070285071996
 30
0.0
 10
89.96350095407163
 20
-120.5070285071996
 30
0.0
 10
89.69926213035296
 20
-120.5070285071996
 30
0.0
 10
89.69064939163984
 20
-120.7399169620025
 30
0.0
 10
89.68651527705754
 20
-120.8115749480957
 30
0.0
 10
89.68651527705754
 20
-120.8115749480957
 30
0.0
 10
89.4832546434278
 20
-120.8115749480957
 30
0.0
 10
89.4832546434278
 20
-120.8115749480957
 30
0.0
 10
89.49186738214092
 20
-120.6868624915297
 30
0.0
 10
89.51942814602292
 20
-120.3103135549919
 30
0.0
 10
89.97624780736706
 20
-120.3103135549919
 30
0.0
 10
90.20052352345682
 20
-120.3103135549919
 30
0.0
 10
90.44168020742431
 20
-120.4374375783976
 30
0.0
 10
90.44168020742431
 20
-120.7333712805806
 30
0.0
 10
90.44168020742431
 20
-120.9197509463326
 30
0.0
 10
90.3465955720314
 20
-121.00208872843
 30
0.0
 10
90.24703231250768
 20
-121.0634114280675
 30
0.0
 10
90.30835501214514
 20
-121.0909721919495
 30
0.0
 10
90.49025605376633
 20
-121.1712429167558
 30
0.0
 10
90.49025605376633
 20
-121.4485731033184
 30
0.0
 10
90.49025605376633
 20
-121.7868814799699
 30
0.0
 10
90.24289819792538
 20
-121.9539686110046
 30
0.0
 10
89.9659125209113
 20
-121.9539686110046
 30
0.0
  0
HATCH
  5
6D
330
68
100
AcDbEntity
  8
_U+30EC_U+30A4_U+30E4_U+30FC 1
 62
   179
420
  2234388
100
AcDbHatch
 10
0.0
 20
0.0
 30
0.0
210
0.0
220
0.0
230
1.0
  2
SOLID
 70
     1
 71
     0
 91
        1
 92
        1
 93
        1
 72
     4
 94
        3
 73
     0
 74
     1
 95
       62
 96
       58
 40
0.0
 40
0.0
 40
0.0
 40
0.0
 40
1.0
 40
1.0
 40
1.0
 40
2.0
 40
2.0
 40
2.0
 40
3.0
 40
3.0
 40
3.0
 40
4.0
 40
4.0
 40
4.0
 40
5.0
 40
5.0
 40
5.0
 40
6.0
 40
6.0
 40
6.0
 40
7.0
 40
7.0
 40
7.0
 40
8.0
 40
8.0
 40
8.0
 40
9.0
 40
9.0
 40
9.0
 40
10.0
 40
10.0
 40
10.0
 40
11.0
 40
11.0
 40
11.0
 40
12.0
 40
12.0
 40
12.0
 40
13.0
 40
13.0
 40
13.0
 40
14.0
 40
14.0
 40
14.0
 40
15.0
 40
15.0
 40
15.0
 40
16.0
 40
16.0
 40
16.0
 40
17.0
 40
17.0
 40
17.0
 40
18.0
 40
18.0
 40
18.0
 40
19.0
 40
19.0
 40
19.0
 40
19.0
 10
89.9659125209113
 20
-121.9539686110046
 10
89.87048337596988
 20
-121.9539686110046
 10
89.65275334130209
 20
-121.9329535285445
 10
89.52769637518753
 20
-121.7469183723411
 10
89.45362682225465
 20
-121.6346082595219
 10
89.44949270767235
 20
-121.5353895095467
 10
89.44535859309005
 20
-121.4506401606096
 10
89.44535859309005
 20
-121.4506401606096
 10
89.66550019459751
 20
-121.4506401606096
 10
89.66550019459751
 20
-121.4506401606096
 10
89.66756725188867
 20
-121.5247097135424
 10
89.67790253834441
 20
-121.759320716088
 10
89.96143389678048
 20
-121.759320716088
 10
90.09889320664195
 20
-121.759320716088
 10
90.25151093663851
 20
-121.6897297872859
 10
90.25151093663851
 20
-121.4613199566138
 10
90.25151093663851
 20
-121.3448757292124
 10
90.21327037675225
 20
-121.2962998828704
 10
90.18157549828794
 20
-121.2646050044061
 10
90.10750594535507
 20
-121.1905354514732
 10
89.99106171795363
 20
-121.1777885981778
 10
89.93628469973815
 20
-121.1777885981778
 10
89.91699216502076
 20
-121.1777885981778
 10
89.88116317197415
 20
-121.1798556554689
 10
89.85360240809216
 20
-121.1839897700512
 10
89.85360240809216
 20
-121.1839897700512
 10
89.85360240809216
 20
-120.9893418751346
 10
89.85360240809216
 20
-120.9893418751346
 10
89.89184296797843
 20
-120.9958875565566
 10
89.93387313289848
 20
-120.9979546138477
 10
89.94041881432045
 20
-120.9979546138477
 10
90.0058756285402
 20
-120.9979546138477
 10
90.20465763803912
 20
-120.9765950218392
 10
90.20465763803912
 20
-120.7399169620025
 10
90.20465763803912
 20
-120.5621500349636
 10
90.07374400959962
 20
-120.5070285071996
 10
89.96350095407163
 20
-120.5070285071996
 10
89.69926213035296
 20
-120.5070285071996
 10
89.69064939163984
 20
-120.7399169620025
 10
89.68651527705754
 20
-120.8115749480957
 10
89.68651527705754
 20
-120.8115749480957
 10
89.4832546434278
 20
-120.8115749480957
 10
89.4832546434278
 20
-120.8115749480957
 10
89.49186738214092
 20
-120.6868624915297
 10
89.51942814602292
 20
-120.3103135549919
 10
89.97624780736706
 20
-120.3103135549919
 10
90.20052352345682
 20
-120.3103135549919
 10
90.44168020742431
 20
-120.4374375783976
 10
90.44168020742431
 20
-120.7333712805806
 10
90.44168020742431
 20
-120.9197509463326
 10
90.3465955720314
 20
-121.00208872843
 10
90.24703231250768
 20
-121.0634114280675
 10
90.30835501214514
 20
-121.0909721919495
 10
90.49025605376633
 20
-121.1712429167558
 10
90.49025605376633
 20
-121.4485731033184
 10
90.49025605376633
 20
-121.7868814799699
 10
90.24289819792538
 20
-121.9539686110046
 10
89.9659125209113
 20
-121.9539686110046
 97
        0
 97
        0
 75
     2
 76
     1
 98
        0
  0
SPLINE
  5
6E
330
68
100
AcDbEntity
  8
_U+30EC_U+30A4_U+30E4_U+30FC 1
370
     0
100
AcDbSpline
210
0.0
220
0.0
230
1.0
 70
    11
 71
     3
 72
    29
 73
    25
 74
     0
 42
0.0000000001
 43
0.0000000001
 12
1.0
 22
0.0
 32
0.0
 13
1.0
 23
0.0
 33
0.0
 40
0.0
 40
0.0
 40
0.0
 40
0.0
 40
1.0
 40
1.0
 40
1.0
 40
2.0
 40
2.0
 40
2.0
 40
3.0
 40
3.0
 40
3.0
 40
4.0
 40
4.0
 40
4.0
 40
5.0
 40
5.0
 40
5.0
 40
6.0
 40
6.0
 40
6.0
 40
7.0
 40
7.0
 40
7.0
 40
8.0
 40
8.0
 40
8.0
 40
8.0
 10
91.15102536783725
 20
-121.9539686110046
 30
0.0
 10
90.88437497727891
 20
-121.9539686110046
 30
0.0
 10
90.630471440016
 20
-121.8165093011431
 30
0.0
 10
90.630471440016
 20
-121.4675211284873
 30
0.0
 10
90.630471440016
 20
-121.2115505339332
 30
0.0
 10
90.77240937400829
 20
-121.1164658985403
 30
0.0
 10
90.87817380540547
 20
-121.0551431989029
 30
0.0
 10
90.75346134883942
 20
-120.9958875565566
 30
0.0
 10
90.6773247386154
 20
-120.8815103864463
 30
0.0
 10
90.6773247386154
 20
-120.7206244272851
 30
0.0
 10
90.6773247386154
 20
-120.4457058075622
 30
0.0
 10
90.87610674811431
 20
-120.3103135549919
 30
0.0
 10
91.15102536783725
 20
-120.3103135549919
 30
0.0
 10
91.43455672627331
 20
-120.3103135549919
 30
0.0
 10
91.62507050660763
 20
-120.4543185462753
 30
0.0
 10
91.62507050660763
 20
-120.7206244272851
 30
0.0
 10
91.62507050660763
 20
-120.8815103864463
 30
0.0
 10
91.54652232954393
 20
-120.9958875565566
 30
0.0
 10
91.42180987297789
 20
-121.0551431989029
 30
0.0
 10
91.51069333649733
 20
-121.1057861025361
 30
0.0
 10
91.66951223836735
 20
-121.200870737929
 30
0.0
 10
91.66951223836735
 20
-121.463387013905
 30
0.0
 10
91.66951223836735
 20
-121.8378688931517
 30
0.0
 10
91.39011499451358
 20
-121.9539686110046
 30
0.0
 10
91.15102536783725
 20
-121.9539686110046
 30
0.0
  0
SPLINE
  5
6F
330
68
100
AcDbEntity
  8
_U+30EC_U+30A4_U+30E4_U+30FC 1
370
     0
100
AcDbSpline
210
0.0
220
0.0
230
1.0
 70
    11
 71
     3
 72
    17
 73
    13
 74
     0
 42
0.0000000001
 43
0.0000000001
 12
1.0
 22
0.0
 32
0.0
 13
1.0
 23
0.0
 33
0.0
 40
0.0
 40
0.0
 40
0.0
 40
0.0
 40
1.0
 40
1.0
 40
1.0
 40
2.0
 40
2.0
 40
2.0
 40
3.0
 40
3.0
 40
3.0
 40
4.0
 40
4.0
 40
4.0
 40
4.0
 10
91.15102536783725
 20
-121.1629746875912
 30
0.0
 10
91.00736488610232
 20
-121.1629746875912
 30
0.0
 10
90.85474715610576
 20
-121.2497910938195
 30
0.0
 10
90.85474715610576
 20
-121.4527072179007
 30
0.0
 10
90.85474715610576
 20
-121.6580349088216
 30
0.0
 10
90.98187117951149
 20
-121.759320716088
 30
0.0
 10
91.15102536783725
 20
-121.759320716088
 30
0.0
 10
91.33706052404074
 20
-121.759320716088
 30
0.0
 10
91.44730357956874
 20
-121.6366753168131
 30
0.0
 10
91.44730357956874
 20
-121.4589083897742
 30
0.0
 10
91.44730357956874
 20
-121.2370442405241
 30
0.0
 10
91.28435056311642
 20
-121.1629746875912
 30
0.0
 10
91.15102536783725
 20
-121.1629746875912
 30
0.0
  0
SPLINE
  5
70
330
68
100
AcDbEntity
  8
_U+30EC_U+30A4_U+30E4_U+30FC 1
370
     0
100
AcDbSpline
210
0.0
220
0.0
230
1.0
 70
    11
 71
     3
 72
    17
 73
    13
 74
     0
 42
0.0000000001
 43
0.0000000001
 12
1.0
 22
0.0
 32
0.0
 13
1.0
 23
0.0
 33
0.0
 40
0.0
 40
0.0
 40
0.0
 40
0.0
 40
1.0
 40
1.0
 40
1.0
 40
2.0
 40
2.0
 40
2.0
 40
3.0
 40
3.0
 40
3.0
 40
4.0
 40
4.0
 40
4.0
 40
4.0
 10
91.15102536783725
 20
-120.5028943926173
 30
0.0
 10
90.98600529409379
 20
-120.5028943926173
 30
0.0
 10
90.90125594515663
 20
-120.5979790280102
 30
0.0
 10
90.90125594515663
 20
-120.7333712805806
 30
0.0
 10
90.90125594515663
 20
-120.8560166798554
 30
0.0
 10
90.97325844079836
 20
-120.974527964548
 30
0.0
 10
91.15102536783725
 20
-120.974527964548
 30
0.0
 10
91.32879229487614
 20
-120.974527964548
 30
0.0
 10
91.40079479051786
 20
-120.8560166798554
 30
0.0
 10
91.40079479051786
 20
-120.7333712805806
 30
0.0
 10
91.40079479051786
 20
-120.5979790280102
 30
0.0
 10
91.31397838428957
 20
-120.5028943926173
 30
0.0
 10
91.15102536783725
 20
-120.5028943926173
 30
0.0
  0
HATCH
  5
71
330
68
100
AcDbEntity
  8
_U+30EC_U+30A4_U+30E4_U+30FC 1
 62
   179
420
  2234388
100
AcDbHatch
 10
0.0
 20
0.0
 30
0.0
210
0.0
220
0.0
230
1.0
  2
SOLID
 70
     1
 71
     0
 91
        3
 92
        1
 93
        1
 72
     4
 94
        3
 73
     0
 74
     1
 95
       29
 96
       25
 40
0.0
 40
0.0
 40
0.0
 40
0.0
 40
1.0
 40
1.0
 40
1.0
 40
2.0
 40
2.0
 40
2.0
 40
3.0
 40
3.0
 40
3.0
 40
4.0
 40
4.0
 40
4.0
 40
5.0
 40
5.0
 40
5.0
 40
6.0
 40
6.0
 40
6.0
 40
7.0
 40
7.0
 40
7.0
 40
8.0
 40
8.0
 40
8.0
 40
8.0
 10
91.15102536783725
 20
-121.9539686110046
 10
90.88437497727891
 20
-121.9539686110046
 10
90.630471440016
 20
-121.8165093011431
 10
90.630471440016
 20
-121.4675211284873
 10
90.630471440016
 20
-121.2115505339332
 10
90.77240937400829
 20
-121.1164658985403
 10
90.87817380540547
 20
-121.0551431989029
 10
90.75346134883942
 20
-120.9958875565566
 10
90.6773247386154
 20
-120.8815103864463
 10
90.6773247386154
 20
-120.7206244272851
 10
90.6773247386154
 20
-120.4457058075622
 10
90.87610674811431
 20
-120.3103135549919
 10
91.15102536783725
 20
-120.3103135549919
 10
91.43455672627331
 20
-120.3103135549919
 10
91.62507050660763
 20
-120.4543185462753
 10
91.62507050660763
 20
-120.7206244272851
 10
91.62507050660763
 20
-120.8815103864463
 10
91.54652232954393
 20
-120.9958875565566
 10
91.42180987297789
 20
-121.0551431989029
 10
91.51069333649733
 20
-121.1057861025361
 10
91.66951223836735
 20
-121.200870737929
 10
91.66951223836735
 20
-121.463387013905
 10
91.66951223836735
 20
-121.8378688931517
 10
91.39011499451358
 20
-121.9539686110046
 10
91.15102536783725
 20
-121.9539686110046
 97
        0
 97
        0
 92
        1
 93
        1
 72
     4
 94
        3
 73
     0
 74
     1
 95
       17
 96
       13
 40
0.0
 40
0.0
 40
0.0
 40
0.0
 40
1.0
 40
1.0
 40
1.0
 40
2.0
 40
2.0
 40
2.0
 40
3.0
 40
3.0
 40
3.0
 40
4.0
 40
4.0
 40
4.0
 40
4.0
 10
91.15102536783725
 20
-121.1629746875912
 10
91.00736488610232
 20
-121.1629746875912
 10
90.85474715610576
 20
-121.2497910938195
 10
90.85474715610576
 20
-121.4527072179007
 10
90.85474715610576
 20
-121.6580349088216
 10
90.98187117951149
 20
-121.759320716088
 10
91.15102536783725
 20
-121.759320716088
 10
91.33706052404074
 20
-121.759320716088
 10
91.44730357956874
 20
-121.6366753168131
 10
91.44730357956874
 20
-121.4589083897742
 10
91.44730357956874
 20
-121.2370442405241
 10
91.28435056311642
 20
-121.1629746875912
 10
91.15102536783725
 20
-121.1629746875912
 97
        0
 97
        0
 92
        1
 93
        1
 72
     4
 94
        3
 73
     0
 74
     1
 95
       17
 96
       13
 40
0.0
 40
0.0
 40
0.0
 40
0.0
 40
1.0
 40
1.0
 40
1.0
 40
2.0
 40
2.0
 40
2.0
 40
3.0
 40
3.0
 40
3.0
 40
4.0
 40
4.0
 40
4.0
 40
4.0
 10
91.15102536783725
 20
-120.5028943926173
 10
90.98600529409379
 20
-120.5028943926173
 10
90.90125594515663
 20
-120.5979790280102
 10
90.90125594515663
 20
-120.7333712805806
 10
90.90125594515663
 20
-120.8560166798554
 10
90.97325844079836
 20
-120.974527964548
 10
91.15102536783725
 20
-120.974527964548
 10
91.32879229487614
 20
-120.974527964548
 10
91.40079479051786
 20
-120.8560166798554
 10
91.40079479051786
 20
-120.7333712805806
 10
91.40079479051786
 20
-120.5979790280102
 10
91.31397838428957
 20
-120.5028943926173
 10
91.15102536783725
 20
-120.5028943926173
 97
        0
 97
        0
 75
     2
 76
     1
 98
        0
  0
ENDBLK
  5
6B
330
68
100
AcDbEntity
  8
0
100
AcDbBlockEnd
  0
BLOCK
  5
80
330
7E
100
AcDbEntity
  8
0
100
AcDbBlockBegin
  2
block 4
 70
     0
 10
0.0
 20
0.0
 30
0.0
  3
block 4
  1

  0
SPLINE
  5
82
330
7E
100
AcDbEntity
  8
_U+30EC_U+30A4_U+30E4_U+30FC 1
370
     0
100
AcDbSpline
210
0.0
220
0.0
230
1.0
 70
    11
 71
     3
 72
    26
 73
    22
 74
     0
 42
0.0000000001
 43
0.0000000001
 12
1.0
 22
0.0
 32
0.0
 13
1.0
 23
0.0
 33
0.0
 40
0.0
 40
0.0
 40
0.0
 40
0.0
 40
1.0
 40
1.0
 40
1.0
 40
2.0
 40
2.0
 40
2.0
 40
3.0
 40
3.0
 40
3.0
 40
4.0
 40
4.0
 40
4.0
 40
5.0
 40
5.0
 40
5.0
 40
6.0
 40
6.0
 40
6.0
 40
7.0
 40
7.0
 40
7.0
 40
7.0
 10
66.96628280660913
 20
-134.7504312814166
 30
0.0
 10
66.96628280660913
 20
-134.7504312814166
 30
0.0
 10
65.86212970358656
 20
-134.7504312814166
 30
0.0
 10
65.86212970358656
 20
-134.7504312814166
 30
0.0
 10
65.86212970358656
 20
-134.7504312814166
 30
0.0
 10
65.86212970358656
 20
-135.0804714289035
 30
0.0
 10
65.86212970358656
 20
-135.0804714289035
 30
0.0
 10
65.86212970358656
 20
-135.0804714289035
 30
0.0
 10
65.71399059772081
 20
-135.0804714289035
 30
0.0
 10
65.71399059772081
 20
-135.0804714289035
 30
0.0
 10
65.69917668713424
 20
-134.7483642241254
 30
0.0
 10
65.53622367068192
 20
-134.7018554350745
 30
0.0
 10
65.42184650057162
 20
-134.6722276139014
 30
0.0
 10
65.42184650057162
 20
-134.6722276139014
 30
0.0
 10
65.42184650057162
 20
-134.5261555653268
 30
0.0
 10
65.42184650057162
 20
-134.5261555653268
 30
0.0
 10
65.42184650057162
 20
-134.5261555653268
 30
0.0
 10
66.96628280660913
 20
-134.5261555653268
 30
0.0
 10
66.96628280660913
 20
-134.5261555653268
 30
0.0
 10
66.96628280660913
 20
-134.5261555653268
 30
0.0
 10
66.96628280660913
 20
-134.7504312814166
 30
0.0
 10
66.96628280660913
 20
-134.7504312814166
 30
0.0
  0
HATCH
  5
83
330
7E
100
AcDbEntity
  8
_U+30EC_U+30A4_U+30E4_U+30FC 1
 62
   179
420
  2234388
100
AcDbHatch
 10
0.0
 20
0.0
 30
0.0
210
0.0
220
0.0
230
1.0
  2
SOLID
 70
     1
 71
     0
 91
        1
 92
        1
 93
        1
 72
     4
 94
        3
 73
     0
 74
     1
 95
       26
 96
       22
 40
0.0
 40
0.0
 40
0.0
 40
0.0
 40
1.0
 40
1.0
 40
1.0
 40
2.0
 40
2.0
 40
2.0
 40
3.0
 40
3.0
 40
3.0
 40
4.0
 40
4.0
 40
4.0
 40
5.0
 40
5.0
 40
5.0
 40
6.0
 40
6.0
 40
6.0
 40
7.0
 40
7.0
 40
7.0
 40
7.0
 10
66.96628280660913
 20
-134.7504312814166
 10
66.96628280660913
 20
-134.7504312814166
 10
65.86212970358656
 20
-134.7504312814166
 10
65.86212970358656
 20
-134.7504312814166
 10
65.86212970358656
 20
-134.7504312814166
 10
65.86212970358656
 20
-135.0804714289035
 10
65.86212970358656
 20
-135.0804714289035
 10
65.86212970358656
 20
-135.0804714289035
 10
65.71399059772081
 20
-135.0804714289035
 10
65.71399059772081
 20
-135.0804714289035
 10
65.69917668713424
 20
-134.7483642241254
 10
65.53622367068192
 20
-134.7018554350745
 10
65.42184650057162
 20
-134.6722276139014
 10
65.42184650057162
 20
-134.6722276139014
 10
65.42184650057162
 20
-134.5261555653268
 10
65.42184650057162
 20
-134.5261555653268
 10
65.42184650057162
 20
-134.5261555653268
 10
66.96628280660913
 20
-134.5261555653268
 10
66.96628280660913
 20
-134.5261555653268
 10
66.96628280660913
 20
-134.5261555653268
 10
66.96628280660913
 20
-134.7504312814166
 10
66.96628280660913
 20
-134.7504312814166
 97
        0
 97
        0
 75
     2
 76
     1
 98
        0
  0
POLYLINE
  5
84
330
7E
100
AcDbEntity
  8
_U+30EC_U+30A4_U+30E4_U+30FC 1
370
     0
100
AcDb2dPolyline
 66
     1
 10
0.0
 20
0.0
 30
0.0
  0
VERTEX
  5
85
330
84
100
AcDbEntity
  8
_U+30EC_U+30A4_U+30E4_U+30FC 1
370
     0
100
AcDbVertex
100
AcDb2dVertex
 10
66.61936169124446
 20
-133.1929036125351
 30
0.0
  0
VERTEX
  5
86
330
84
100
AcDbEntity
  8
_U+30EC_U+30A4_U+30E4_U+30FC 1
370
     0
100
AcDbVertex
100
AcDb2dVertex
 10
66.96628280660913
 20
-133.1929036125351
 30
0.0
  0
VERTEX
  5
87
330
84
100
AcDbEntity
  8
_U+30EC_U+30A4_U+30E4_U+30FC 1
370
     0
100
AcDbVertex
100
AcDb2dVertex
 10
66.96628280660913
 20
-133.4106336472029
 30
0.0
  0
VERTEX
  5
88
330
84
100
AcDbEntity
  8
_U+30EC_U+30A4_U+30E4_U+30FC 1
370
     0
100
AcDbVertex
100
AcDb2dVertex
 10
66.61936169124446
 20
-133.4106336472029
 30
0.0
  0
VERTEX
  5
89
330
84
100
AcDbEntity
  8
_U+30EC_U+30A4_U+30E4_U+30FC 1
370
     0
100
AcDbVertex
100
AcDb2dVertex
 10
66.61936169124446
 20
-134.0665798275945
 30
0.0
  0
VERTEX
  5
8A
330
84
100
AcDbEntity
  8
_U+30EC_U+30A4_U+30E4_U+30FC 1
370
     0
100
AcDbVertex
100
AcDb2dVertex
 10
66.3950859751547
 20
-134.0665798275945
 30
0.0
  0
VERTEX
  5
8B
330
84
100
AcDbEntity
  8
_U+30EC_U+30A4_U+30E4_U+30FC 1
370
     0
100
AcDbVertex
100
AcDb2dVertex
 10
65.42184650057162
 20
-133.3875515074517
 30
0.0
  0
VERTEX
  5
8C
330
84
100
AcDbEntity
  8
_U+30EC_U+30A4_U+30E4_U+30FC 1
370
     0
100
AcDbVertex
100
AcDb2dVertex
 10
65.42184650057162
 20
-133.1929036125351
 30
0.0
  0
VERTEX
  5
8D
330
84
100
AcDbEntity
  8
_U+30EC_U+30A4_U+30E4_U+30FC 1
370
     0
100
AcDbVertex
100
AcDb2dVertex
 10
66.42057968174555
 20
-133.1929036125351
 30
0.0
  0
VERTEX
  5
8E
330
84
100
AcDbEntity
  8
_U+30EC_U+30A4_U+30E4_U+30FC 1
370
     0
100
AcDbVertex
100
AcDb2dVertex
 10
66.42057968174555
 20
-132.9855088643231
 30
0.0
  0
VERTEX
  5
8F
330
84
100
AcDbEntity
  8
_U+30EC_U+30A4_U+30E4_U+30FC 1
370
     0
100
AcDbVertex
100
AcDb2dVertex
 10
66.61936169124446
 20
-132.9855088643231
 30
0.0
  0
VERTEX
  5
90
330
84
100
AcDbEntity
  8
_U+30EC_U+30A4_U+30E4_U+30FC 1
370
     0
100
AcDbVertex
100
AcDb2dVertex
 10
66.61936169124446
 20
-133.1929036125351
 30
0.0
  0
SEQEND
  5
91
330
84
100
AcDbEntity
  8
_U+30EC_U+30A4_U+30E4_U+30FC 1
370
     0
  0
POLYLINE
  5
92
330
7E
100
AcDbEntity
  8
_U+30EC_U+30A4_U+30E4_U+30FC 1
370
     0
100
AcDb2dPolyline
 66
     1
 10
0.0
 20
0.0
 30
0.0
  0
VERTEX
  5
93
330
92
100
AcDbEntity
  8
_U+30EC_U+30A4_U+30E4_U+30FC 1
370
     0
100
AcDbVertex
100
AcDb2dVertex
 10
65.76463350135398
 20
-133.4106336472029
 30
0.0
  0
VERTEX
  5
94
330
92
100
AcDbEntity
  8
_U+30EC_U+30A4_U+30E4_U+30FC 1
370
     0
100
AcDbVertex
100
AcDb2dVertex
 10
66.42057968174555
 20
-133.8677978180956
 30
0.0
  0
VERTEX
  5
95
330
92
100
AcDbEntity
  8
_U+30EC_U+30A4_U+30E4_U+30FC 1
370
     0
100
AcDbVertex
100
AcDb2dVertex
 10
66.42057968174555
 20
-133.4106336472029
 30
0.0
  0
VERTEX
  5
96
330
92
100
AcDbEntity
  8
_U+30EC_U+30A4_U+30E4_U+30FC 1
370
     0
100
AcDbVertex
100
AcDb2dVertex
 10
65.76463350135398
 20
-133.4106336472029
 30
0.0
  0
SEQEND
  5
97
330
92
100
AcDbEntity
  8
_U+30EC_U+30A4_U+30E4_U+30FC 1
370
     0
  0
HATCH
  5
98
330
7E
100
AcDbEntity
  8
_U+30EC_U+30A4_U+30E4_U+30FC 1
 62
   179
420
  2234388
100
AcDbHatch
 10
0.0
 20
0.0
 30
0.0
210
0.0
220
0.0
230
1.0
  2
SOLID
 70
     1
 71
     0
 91
        2
 92
        1
 93
       11
 72
     1
 10
66.61936169124446
 20
-133.1929036125351
 11
66.96628280660913
 21
-133.1929036125351
 72
     1
 10
66.96628280660913
 20
-133.1929036125351
 11
66.96628280660913
 21
-133.4106336472029
 72
     1
 10
66.96628280660913
 20
-133.4106336472029
 11
66.61936169124446
 21
-133.4106336472029
 72
     1
 10
66.61936169124446
 20
-133.4106336472029
 11
66.61936169124446
 21
-134.0665798275945
 72
     1
 10
66.61936169124446
 20
-134.0665798275945
 11
66.3950859751547
 21
-134.0665798275945
 72
     1
 10
66.3950859751547
 20
-134.0665798275945
 11
65.42184650057162
 21
-133.3875515074517
 72
     1
 10
65.42184650057162
 20
-133.3875515074517
 11
65.42184650057162
 21
-133.1929036125351
 72
     1
 10
65.42184650057162
 20
-133.1929036125351
 11
66.42057968174555
 21
-133.1929036125351
 72
     1
 10
66.42057968174555
 20
-133.1929036125351
 11
66.42057968174555
 21
-132.9855088643231
 72
     1
 10
66.42057968174555
 20
-132.9855088643231
 11
66.61936169124446
 21
-132.9855088643231
 72
     1
 10
66.61936169124446
 20
-132.9855088643231
 11
66.61936169124446
 21
-133.1929036125351
 97
        0
 92
        1
 93
        3
 72
     1
 10
65.76463350135398
 20
-133.4106336472029
 11
66.42057968174555
 21
-133.8677978180956
 72
     1
 10
66.42057968174555
 20
-133.8677978180956
 11
66.42057968174555
 21
-133.4106336472029
 72
     1
 10
66.42057968174555
 20
-133.4106336472029
 11
65.76463350135398
 21
-133.4106336472029
 97
        0
 75
     2
 76
     1
 98
        0
  0
POLYLINE
  5
99
330
7E
100
AcDbEntity
  8
_U+30EC_U+30A4_U+30E4_U+30FC 1
370
     0
100
AcDb2dPolyline
 66
     1
 10
0.0
 20
0.0
 30
0.0
  0
VERTEX
  5
9A
330
99
100
AcDbEntity
  8
_U+30EC_U+30A4_U+30E4_U+30FC 1
370
     0
100
AcDbVertex
100
AcDb2dVertex
 10
66.96628280660913
 20
-132.7881048930183
 30
0.0
  0
VERTEX
  5
9B
330
99
100
AcDbEntity
  8
_U+30EC_U+30A4_U+30E4_U+30FC 1
370
     0
100
AcDbVertex
100
AcDb2dVertex
 10
66.71444632663736
 20
-132.7881048930183
 30
0.0
  0
VERTEX
  5
9C
330
99
100
AcDbEntity
  8
_U+30EC_U+30A4_U+30E4_U+30FC 1
370
     0
100
AcDbVertex
100
AcDb2dVertex
 10
66.71444632663736
 20
-132.5362684130465
 30
0.0
  0
VERTEX
  5
9D
330
99
100
AcDbEntity
  8
_U+30EC_U+30A4_U+30E4_U+30FC 1
370
     0
100
AcDbVertex
100
AcDb2dVertex
 10
66.96628280660913
 20
-132.5362684130465
 30
0.0
  0
VERTEX
  5
9E
330
99
100
AcDbEntity
  8
_U+30EC_U+30A4_U+30E4_U+30FC 1
370
     0
100
AcDbVertex
100
AcDb2dVertex
 10
66.96628280660913
 20
-132.7881048930183
 30
0.0
  0
SEQEND
  5
9F
330
99
100
AcDbEntity
  8
_U+30EC_U+30A4_U+30E4_U+30FC 1
370
     0
  0
HATCH
  5
A0
330
7E
100
AcDbEntity
  8
_U+30EC_U+30A4_U+30E4_U+30FC 1
 62
   179
420
  2234388
100
AcDbHatch
 10
0.0
 20
0.0
 30
0.0
210
0.0
220
0.0
230
1.0
  2
SOLID
 70
     1
 71
     0
 91
        1
 92
        1
 93
        4
 72
     1
 10
66.96628280660913
 20
-132.7881048930183
 11
66.71444632663736
 21
-132.7881048930183
 72
     1
 10
66.71444632663736
 20
-132.7881048930183
 11
66.71444632663736
 21
-132.5362684130465
 72
     1
 10
66.71444632663736
 20
-132.5362684130465
 11
66.96628280660913
 21
-132.5362684130465
 72
     1
 10
66.96628280660913
 20
-132.5362684130465
 11
66.96628280660913
 21
-132.7881048930183
 97
        0
 75
     2
 76
     1
 98
        0
  0
SPLINE
  5
A1
330
7E
100
AcDbEntity
  8
_U+30EC_U+30A4_U+30E4_U+30FC 1
370
     0
100
AcDbSpline
210
0.0
220
0.0
230
1.0
 70
    11
 71
     3
 72
    53
 73
    49
 74
     0
 42
0.0000000001
 43
0.0000000001
 12
1.0
 22
0.0
 32
0.0
 13
1.0
 23
0.0
 33
0.0
 40
0.0
 40
0.0
 40
0.0
 40
0.0
 40
1.0
 40
1.0
 40
1.0
 40
2.0
 40
2.0
 40
2.0
 40
3.0
 40
3.0
 40
3.0
 40
4.0
 40
4.0
 40
4.0
 40
5.0
 40
5.0
 40
5.0
 40
6.0
 40
6.0
 40
6.0
 40
7.0
 40
7.0
 40
7.0
 40
8.0
 40
8.0
 40
8.0
 40
9.0
 40
9.0
 40
9.0
 40
10.0
 40
10.0
 40
10.0
 40
11.0
 40
11.0
 40
11.0
 40
12.0
 40
12.0
 40
12.0
 40
13.0
 40
13.0
 40
13.0
 40
14.0
 40
14.0
 40
14.0
 40
15.0
 40
15.0
 40
15.0
 40
16.0
 40
16.0
 40
16.0
 40
16.0
 10
67.0169257102423
 20
-131.8189995330175
 30
0.0
 10
67.0169257102423
 20
-131.8972032005327
 30
0.0
 10
67.00004474236458
 20
-131.9988335173475
 30
0.0
 10
66.93665498543598
 20
-132.1004638341624
 30
0.0
 10
66.8267564394565
 20
-132.2737521370705
 30
0.0
 10
66.69549830146849
 20
-132.295111729079
 30
0.0
 10
66.58766681278017
 20
-132.3140597542479
 30
0.0
 10
66.58766681278017
 20
-132.3140597542479
 30
0.0
 10
66.58766681278017
 20
-132.0918510954493
 30
0.0
 10
66.58766681278017
 20
-132.0918510954493
 30
0.0
 10
66.78644882227908
 20
-132.0370740772338
 30
0.0
 10
66.81607664345223
 20
-131.9099500538281
 30
0.0
 10
66.81607664345223
 20
-131.8169324757263
 30
0.0
 10
66.81607664345223
 20
-131.6774061085737
 30
0.0
 10
66.71651338392851
 20
-131.5251328881257
 30
0.0
 10
66.48396943867415
 20
-131.5251328881257
 30
0.0
 10
66.22799884412008
 20
-131.5251328881257
 30
0.0
 10
66.15806340576951
 20
-131.7049668724557
 30
0.0
 10
66.15806340576951
 20
-131.8255452144394
 30
0.0
 10
66.15806340576951
 20
-131.8572400929038
 30
0.0
 10
66.15806340576951
 20
-131.9988335173475
 30
0.0
 10
66.28725448646638
 20
-132.087716980867
 30
0.0
 10
66.28725448646638
 20
-132.087716980867
 30
0.0
 10
66.26830646129751
 20
-132.2634168506147
 30
0.0
 10
66.26830646129751
 20
-132.2634168506147
 30
0.0
 10
66.26830646129751
 20
-132.2634168506147
 30
0.0
 10
65.42184650057162
 20
-132.142838508631
 30
0.0
 10
65.42184650057162
 20
-132.142838508631
 30
0.0
 10
65.42184650057162
 20
-132.142838508631
 30
0.0
 10
65.42184650057162
 20
-131.3642469289645
 30
0.0
 10
65.42184650057162
 20
-131.3642469289645
 30
0.0
 10
65.42184650057162
 20
-131.3642469289645
 30
0.0
 10
65.61649439548825
 20
-131.3642469289645
 30
0.0
 10
65.61649439548825
 20
-131.3642469289645
 30
0.0
 10
65.61649439548825
 20
-131.3642469289645
 30
0.0
 10
65.61649439548825
 20
-131.9798854921787
 30
0.0
 10
65.61649439548825
 20
-131.9798854921787
 30
0.0
 10
65.61649439548825
 20
-131.9798854921787
 30
0.0
 10
66.03955212107692
 20
-132.0453423063984
 30
0.0
 10
66.03955212107692
 20
-132.0453423063984
 30
0.0
 10
66.00579018532147
 20
-131.9840196067609
 30
0.0
 10
65.96548256814405
 20
-131.9016818246635
 30
0.0
 10
65.96548256814405
 20
-131.7831705399709
 30
0.0
 10
65.96548256814405
 20
-131.529267002708
 30
0.0
 10
66.15186223389607
 20
-131.2922444333228
 30
0.0
 10
66.46502141350527
 20
-131.2922444333228
 30
0.0
 10
66.78231470769678
 20
-131.2922444333228
 30
0.0
 10
67.0169257102423
 20
-131.5165201494125
 30
0.0
 10
67.0169257102423
 20
-131.8189995330175
 30
0.0
  0
HATCH
  5
A2
330
7E
100
AcDbEntity
  8
_U+30EC_U+30A4_U+30E4_U+30FC 1
 62
   179
420
  2234388
100
AcDbHatch
 10
0.0
 20
0.0
 30
0.0
210
0.0
220
0.0
230
1.0
  2
SOLID
 70
     1
 71
     0
 91
        1
 92
        1
 93
        1
 72
     4
 94
        3
 73
     0
 74
     1
 95
       53
 96
       49
 40
0.0
 40
0.0
 40
0.0
 40
0.0
 40
1.0
 40
1.0
 40
1.0
 40
2.0
 40
2.0
 40
2.0
 40
3.0
 40
3.0
 40
3.0
 40
4.0
 40
4.0
 40
4.0
 40
5.0
 40
5.0
 40
5.0
 40
6.0
 40
6.0
 40
6.0
 40
7.0
 40
7.0
 40
7.0
 40
8.0
 40
8.0
 40
8.0
 40
9.0
 40
9.0
 40
9.0
 40
10.0
 40
10.0
 40
10.0
 40
11.0
 40
11.0
 40
11.0
 40
12.0
 40
12.0
 40
12.0
 40
13.0
 40
13.0
 40
13.0
 40
14.0
 40
14.0
 40
14.0
 40
15.0
 40
15.0
 40
15.0
 40
16.0
 40
16.0
 40
16.0
 40
16.0
 10
67.0169257102423
 20
-131.8189995330175
 10
67.0169257102423
 20
-131.8972032005327
 10
67.00004474236458
 20
-131.9988335173475
 10
66.93665498543598
 20
-132.1004638341624
 10
66.8267564394565
 20
-132.2737521370705
 10
66.69549830146849
 20
-132.295111729079
 10
66.58766681278017
 20
-132.3140597542479
 10
66.58766681278017
 20
-132.3140597542479
 10
66.58766681278017
 20
-132.0918510954493
 10
66.58766681278017
 20
-132.0918510954493
 10
66.78644882227908
 20
-132.0370740772338
 10
66.81607664345223
 20
-131.9099500538281
 10
66.81607664345223
 20
-131.8169324757263
 10
66.81607664345223
 20
-131.6774061085737
 10
66.71651338392851
 20
-131.5251328881257
 10
66.48396943867415
 20
-131.5251328881257
 10
66.22799884412008
 20
-131.5251328881257
 10
66.15806340576951
 20
-131.7049668724557
 10
66.15806340576951
 20
-131.8255452144394
 10
66.15806340576951
 20
-131.8572400929038
 10
66.15806340576951
 20
-131.9988335173475
 10
66.28725448646638
 20
-132.087716980867
 10
66.28725448646638
 20
-132.087716980867
 10
66.26830646129751
 20
-132.2634168506147
 10
66.26830646129751
 20
-132.2634168506147
 10
66.26830646129751
 20
-132.2634168506147
 10
65.42184650057162
 20
-132.142838508631
 10
65.42184650057162
 20
-132.142838508631
 10
65.42184650057162
 20
-132.142838508631
 10
65.42184650057162
 20
-131.3642469289645
 10
65.42184650057162
 20
-131.3642469289645
 10
65.42184650057162
 20
-131.3642469289645
 10
65.61649439548825
 20
-131.3642469289645
 10
65.61649439548825
 20
-131.3642469289645
 10
65.61649439548825
 20
-131.3642469289645
 10
65.61649439548825
 20
-131.9798854921787
 10
65.61649439548825
 20
-131.9798854921787
 10
65.61649439548825
 20
-131.9798854921787
 10
66.03955212107692
 20
-132.0453423063984
 10
66.03955212107692
 20
-132.0453423063984
 10
66.00579018532147
 20
-131.9840196067609
 10
65.96548256814405
 20
-131.9016818246635
 10
65.96548256814405
 20
-131.7831705399709
 10
65.96548256814405
 20
-131.529267002708
 10
66.15186223389607
 20
-131.2922444333228
 10
66.46502141350527
 20
-131.2922444333228
 10
66.78231470769678
 20
-131.2922444333228
 10
67.0169257102423
 20
-131.5165201494125
 10
67.0169257102423
 20
-131.8189995330175
 97
        0
 97
        0
 75
     2
 76
     1
 98
        0
  0
ENDBLK
  5
81
330
7E
100
AcDbEntity
  8
0
100
AcDbBlockEnd
  0
BLOCK
  5
B1
330
AF
100
AcDbEntity
  8
0
100
AcDbBlockBegin
  2
block 5
 70
     0
 10
0.0
 20
0.0
 30
0.0
  3
block 5
  1

  0
SPLINE
  5
B3
330
AF
100
AcDbEntity
  8
_U+30EC_U+30A4_U+30E4_U+30FC 1
370
     0
100
AcDbSpline
210
0.0
220
0.0
230
1.0
 70
    11
 71
     3
 72
    44
 73
    40
 74
     0
 42
0.0000000001
 43
0.0000000001
 12
1.0
 22
0.0
 32
0.0
 13
1.0
 23
0.0
 33
0.0
 40
0.0
 40
0.0
 40
0.0
 40
0.0
 40
1.0
 40
1.0
 40
1.0
 40
2.0
 40
2.0
 40
2.0
 40
3.0
 40
3.0
 40
3.0
 40
4.0
 40
4.0
 40
4.0
 40
5.0
 40
5.0
 40
5.0
 40
6.0
 40
6.0
 40
6.0
 40
7.0
 40
7.0
 40
7.0
 40
8.0
 40
8.0
 40
8.0
 40
9.0
 40
9.0
 40
9.0
 40
10.0
 40
10.0
 40
10.0
 40
11.0
 40
11.0
 40
11.0
 40
12.0
 40
12.0
 40
12.0
 40
13.0
 40
13.0
 40
13.0
 40
13.0
 10
114.8842881657234
 20
-131.9829860781154
 30
0.0
 10
115.0434515771419
 20
-132.2007161127832
 30
0.0
 10
115.1171766205263
 20
-132.2937336908849
 30
0.0
 10
115.2611816118097
 20
-132.3426540467755
 30
0.0
 10
115.2611816118097
 20
-132.3426540467755
 30
0.0
 10
115.2611816118097
 20
-131.564062467109
 30
0.0
 10
115.2611816118097
 20
-131.564062467109
 30
0.0
 10
115.2611816118097
 20
-131.564062467109
 30
0.0
 10
115.4665093027306
 20
-131.564062467109
 30
0.0
 10
115.4665093027306
 20
-131.564062467109
 30
0.0
 10
115.4665093027306
 20
-131.564062467109
 30
0.0
 10
115.4665093027306
 20
-132.5920789599076
 30
0.0
 10
115.4665093027306
 20
-132.5920789599076
 30
0.0
 10
115.1089083913617
 20
-132.5603840814432
 30
0.0
 10
115.030360214298
 20
-132.4949272672235
 30
0.0
 10
114.7320149452753
 20
-132.1097655919726
 30
0.0
 10
114.5335774453249
 20
-131.8537949974185
 30
0.0
 10
114.465364554717
 20
-131.7883381831988
 30
0.0
 10
114.3282497544041
 20
-131.7883381831988
 30
0.0
 10
114.2097384697115
 20
-131.7883381831988
 30
0.0
 10
114.078824841272
 20
-131.8603406788405
 30
0.0
 10
114.078824841272
 20
-132.0570556310482
 30
0.0
 10
114.078824841272
 20
-132.3171603401846
 30
0.0
 10
114.3089572196867
 20
-132.3257730788977
 30
0.0
 10
114.4254014470881
 20
-132.32990719348
 30
0.0
 10
114.4254014470881
 20
-132.32990719348
 30
0.0
 10
114.4254014470881
 20
-132.5541829095698
 30
0.0
 10
114.4254014470881
 20
-132.5541829095698
 30
0.0
 10
114.2986219332309
 20
-132.5455701708567
 30
0.0
 10
114.1863118204118
 20
-132.5348903748524
 30
0.0
 10
114.0678005357192
 20
-132.4546196500461
 30
0.0
 10
113.9072590861065
 20
-132.3447211040666
 30
0.0
 10
113.8734971503511
 20
-132.1583414383146
 30
0.0
 10
113.8734971503511
 20
-132.0422417204617
 30
0.0
 10
113.8734971503511
 20
-131.7649115338991
 30
0.0
 10
114.0574652492634
 20
-131.557516785687
 30
0.0
 10
114.3303168116952
 20
-131.557516785687
 30
0.0
 10
114.5590711519158
 20
-131.557516785687
 30
0.0
 10
114.658289901891
 20
-131.6739610130885
 30
0.0
 10
114.8842881657234
 20
-131.9829860781154
 30
0.0
  0
HATCH
  5
B4
330
AF
100
AcDbEntity
  8
_U+30EC_U+30A4_U+30E4_U+30FC 1
 62
   179
420
  2234388
100
AcDbHatch
 10
0.0
 20
0.0
 30
0.0
210
0.0
220
0.0
230
1.0
  2
SOLID
 70
     1
 71
     0
 91
        1
 92
        1
 93
        1
 72
     4
 94
        3
 73
     0
 74
     1
 95
       44
 96
       40
 40
0.0
 40
0.0
 40
0.0
 40
0.0
 40
1.0
 40
1.0
 40
1.0
 40
2.0
 40
2.0
 40
2.0
 40
3.0
 40
3.0
 40
3.0
 40
4.0
 40
4.0
 40
4.0
 40
5.0
 40
5.0
 40
5.0
 40
6.0
 40
6.0
 40
6.0
 40
7.0
 40
7.0
 40
7.0
 40
8.0
 40
8.0
 40
8.0
 40
9.0
 40
9.0
 40
9.0
 40
10.0
 40
10.0
 40
10.0
 40
11.0
 40
11.0
 40
11.0
 40
12.0
 40
12.0
 40
12.0
 40
13.0
 40
13.0
 40
13.0
 40
13.0
 10
114.8842881657234
 20
-131.9829860781154
 10
115.0434515771419
 20
-132.2007161127832
 10
115.1171766205263
 20
-132.2937336908849
 10
115.2611816118097
 20
-132.3426540467755
 10
115.2611816118097
 20
-132.3426540467755
 10
115.2611816118097
 20
-131.564062467109
 10
115.2611816118097
 20
-131.564062467109
 10
115.2611816118097
 20
-131.564062467109
 10
115.4665093027306
 20
-131.564062467109
 10
115.4665093027306
 20
-131.564062467109
 10
115.4665093027306
 20
-131.564062467109
 10
115.4665093027306
 20
-132.5920789599076
 10
115.4665093027306
 20
-132.5920789599076
 10
115.1089083913617
 20
-132.5603840814432
 10
115.030360214298
 20
-132.4949272672235
 10
114.7320149452753
 20
-132.1097655919726
 10
114.5335774453249
 20
-131.8537949974185
 10
114.465364554717
 20
-131.7883381831988
 10
114.3282497544041
 20
-131.7883381831988
 10
114.2097384697115
 20
-131.7883381831988
 10
114.078824841272
 20
-131.8603406788405
 10
114.078824841272
 20
-132.0570556310482
 10
114.078824841272
 20
-132.3171603401846
 10
114.3089572196867
 20
-132.3257730788977
 10
114.4254014470881
 20
-132.32990719348
 10
114.4254014470881
 20
-132.32990719348
 10
114.4254014470881
 20
-132.5541829095698
 10
114.4254014470881
 20
-132.5541829095698
 10
114.2986219332309
 20
-132.5455701708567
 10
114.1863118204118
 20
-132.5348903748524
 10
114.0678005357192
 20
-132.4546196500461
 10
113.9072590861065
 20
-132.3447211040666
 10
113.8734971503511
 20
-132.1583414383146
 10
113.8734971503511
 20
-132.0422417204617
 10
113.8734971503511
 20
-131.7649115338991
 10
114.0574652492634
 20
-131.557516785687
 10
114.3303168116952
 20
-131.557516785687
 10
114.5590711519158
 20
-131.557516785687
 10
114.658289901891
 20
-131.6739610130885
 10
114.8842881657234
 20
-131.9829860781154
 97
        0
 97
        0
 75
     2
 76
     1
 98
        0
  0
POLYLINE
  5
B5
330
AF
100
AcDbEntity
  8
_U+30EC_U+30A4_U+30E4_U+30FC 1
370
     0
100
AcDb2dPolyline
 66
     1
 10
0.0
 20
0.0
 30
0.0
  0
VERTEX
  5
B6
330
B5
100
AcDbEntity
  8
_U+30EC_U+30A4_U+30E4_U+30FC 1
370
     0
100
AcDbVertex
100
AcDb2dVertex
 10
115.4665093027306
 20
-131.3390977319222
 30
0.0
  0
VERTEX
  5
B7
330
B5
100
AcDbEntity
  8
_U+30EC_U+30A4_U+30E4_U+30FC 1
370
     0
100
AcDbVertex
100
AcDb2dVertex
 10
115.2143283132103
 20
-131.3390977319222
 30
0.0
  0
VERTEX
  5
B8
330
B5
100
AcDbEntity
  8
_U+30EC_U+30A4_U+30E4_U+30FC 1
370
     0
100
AcDbVertex
100
AcDb2dVertex
 10
115.2143283132103
 20
-131.0872612519504
 30
0.0
  0
VERTEX
  5
B9
330
B5
100
AcDbEntity
  8
_U+30EC_U+30A4_U+30E4_U+30FC 1
370
     0
100
AcDbVertex
100
AcDb2dVertex
 10
115.4665093027306
 20
-131.0872612519504
 30
0.0
  0
VERTEX
  5
BA
330
B5
100
AcDbEntity
  8
_U+30EC_U+30A4_U+30E4_U+30FC 1
370
     0
100
AcDbVertex
100
AcDb2dVertex
 10
115.4665093027306
 20
-131.3390977319222
 30
0.0
  0
SEQEND
  5
BB
330
B5
100
AcDbEntity
  8
_U+30EC_U+30A4_U+30E4_U+30FC 1
370
     0
  0
HATCH
  5
BC
330
AF
100
AcDbEntity
  8
_U+30EC_U+30A4_U+30E4_U+30FC 1
 62
   179
420
  2234388
100
AcDbHatch
 10
0.0
 20
0.0
 30
0.0
210
0.0
220
0.0
230
1.0
  2
SOLID
 70
     1
 71
     0
 91
        1
 92
        1
 93
        4
 72
     1
 10
115.4665093027306
 20
-131.3390977319222
 11
115.2143283132103
 21
-131.3390977319222
 72
     1
 10
115.2143283132103
 20
-131.3390977319222
 11
115.2143283132103
 21
-131.0872612519504
 72
     1
 10
115.2143283132103
 20
-131.0872612519504
 11
115.4665093027306
 21
-131.0872612519504
 72
     1
 10
115.4665093027306
 20
-131.0872612519504
 11
115.4665093027306
 21
-131.3390977319222
 97
        0
 75
     2
 76
     1
 98
        0
  0
SPLINE
  5
BD
330
AF
100
AcDbEntity
  8
_U+30EC_U+30A4_U+30E4_U+30FC 1
370
     0
100
AcDbSpline
210
0.0
220
0.0
230
1.0
 70
    11
 71
     3
 72
    53
 73
    49
 74
     0
 42
0.0000000001
 43
0.0000000001
 12
1.0
 22
0.0
 32
0.0
 13
1.0
 23
0.0
 33
0.0
 40
0.0
 40
0.0
 40
0.0
 40
0.0
 40
1.0
 40
1.0
 40
1.0
 40
2.0
 40
2.0
 40
2.0
 40
3.0
 40
3.0
 40
3.0
 40
4.0
 40
4.0
 40
4.0
 40
5.0
 40
5.0
 40
5.0
 40
6.0
 40
6.0
 40
6.0
 40
7.0
 40
7.0
 40
7.0
 40
8.0
 40
8.0
 40
8.0
 40
9.0
 40
9.0
 40
9.0
 40
10.0
 40
10.0
 40
10.0
 40
11.0
 40
11.0
 40
11.0
 40
12.0
 40
12.0
 40
12.0
 40
13.0
 40
13.0
 40
13.0
 40
14.0
 40
14.0
 40
14.0
 40
15.0
 40
15.0
 40
15.0
 40
16.0
 40
16.0
 40
16.0
 40
16.0
 10
115.5168076968152
 20
-130.3699923719214
 30
0.0
 10
115.5168076968152
 20
-130.4481960394366
 30
0.0
 10
115.5002712384861
 20
-130.5498263562514
 30
0.0
 10
115.4368814815574
 20
-130.6514566730663
 30
0.0
 10
115.3266384260295
 20
-130.8247449759744
 30
0.0
 10
115.19572479759
 20
-130.8461045679829
 30
0.0
 10
115.0875487993531
 20
-130.8650525931518
 30
0.0
 10
115.0875487993531
 20
-130.8650525931518
 30
0.0
 10
115.0875487993531
 20
-130.6428439343532
 30
0.0
 10
115.0875487993531
 20
-130.6428439343532
 30
0.0
 10
115.2866753184006
 20
-130.5880669161377
 30
0.0
 10
115.3163031395737
 20
-130.460942892732
 30
0.0
 10
115.3163031395737
 20
-130.3679253146302
 30
0.0
 10
115.3163031395737
 20
-130.2283989474776
 30
0.0
 10
115.2163953705015
 20
-130.0761257270296
 30
0.0
 10
114.9841959347956
 20
-130.0761257270296
 30
0.0
 10
114.727880830693
 20
-130.0761257270296
 30
0.0
 10
114.658289901891
 20
-130.2559597113596
 30
0.0
 10
114.658289901891
 20
-130.3765380533434
 30
0.0
 10
114.658289901891
 20
-130.4082329318077
 30
0.0
 10
114.658289901891
 20
-130.5498263562514
 30
0.0
 10
114.7871364730393
 20
-130.6387098197709
 30
0.0
 10
114.7871364730393
 20
-130.6387098197709
 30
0.0
 10
114.768532957419
 20
-130.8144096895186
 30
0.0
 10
114.768532957419
 20
-130.8144096895186
 30
0.0
 10
114.768532957419
 20
-130.8144096895186
 30
0.0
 10
113.9217284871446
 20
-130.6938313475349
 30
0.0
 10
113.9217284871446
 20
-130.6938313475349
 30
0.0
 10
113.9217284871446
 20
-130.6938313475349
 30
0.0
 10
113.9217284871446
 20
-129.9152397678684
 30
0.0
 10
113.9217284871446
 20
-129.9152397678684
 30
0.0
 10
113.9217284871446
 20
-129.9152397678684
 30
0.0
 10
114.1167208916097
 20
-129.9152397678684
 30
0.0
 10
114.1167208916097
 20
-129.9152397678684
 30
0.0
 10
114.1167208916097
 20
-129.9152397678684
 30
0.0
 10
114.1167208916097
 20
-130.5308783310826
 30
0.0
 10
114.1167208916097
 20
-130.5308783310826
 30
0.0
 10
114.1167208916097
 20
-130.5308783310826
 30
0.0
 10
114.5397786171984
 20
-130.5963351453023
 30
0.0
 10
114.5397786171984
 20
-130.5963351453023
 30
0.0
 10
114.5060166814429
 20
-130.5350124456649
 30
0.0
 10
114.465364554717
 20
-130.4526746635674
 30
0.0
 10
114.465364554717
 20
-130.3341633788748
 30
0.0
 10
114.465364554717
 20
-130.0802598416119
 30
0.0
 10
114.6520887300175
 20
-129.8432372722267
 30
0.0
 10
114.9649034000782
 20
-129.8432372722267
 30
0.0
 10
115.2825412038183
 20
-129.8432372722267
 30
0.0
 10
115.5168076968152
 20
-130.0675129883165
 30
0.0
 10
115.5168076968152
 20
-130.3699923719214
 30
0.0
  0
HATCH
  5
BE
330
AF
100
AcDbEntity
  8
_U+30EC_U+30A4_U+30E4_U+30FC 1
 62
   179
420
  2234388
100
AcDbHatch
 10
0.0
 20
0.0
 30
0.0
210
0.0
220
0.0
230
1.0
  2
SOLID
 70
     1
 71
     0
 91
        1
 92
        1
 93
        1
 72
     4
 94
        3
 73
     0
 74
     1
 95
       53
 96
       49
 40
0.0
 40
0.0
 40
0.0
 40
0.0
 40
1.0
 40
1.0
 40
1.0
 40
2.0
 40
2.0
 40
2.0
 40
3.0
 40
3.0
 40
3.0
 40
4.0
 40
4.0
 40
4.0
 40
5.0
 40
5.0
 40
5.0
 40
6.0
 40
6.0
 40
6.0
 40
7.0
 40
7.0
 40
7.0
 40
8.0
 40
8.0
 40
8.0
 40
9.0
 40
9.0
 40
9.0
 40
10.0
 40
10.0
 40
10.0
 40
11.0
 40
11.0
 40
11.0
 40
12.0
 40
12.0
 40
12.0
 40
13.0
 40
13.0
 40
13.0
 40
14.0
 40
14.0
 40
14.0
 40
15.0
 40
15.0
 40
15.0
 40
16.0
 40
16.0
 40
16.0
 40
16.0
 10
115.5168076968152
 20
-130.3699923719214
 10
115.5168076968152
 20
-130.4481960394366
 10
115.5002712384861
 20
-130.5498263562514
 10
115.4368814815574
 20
-130.6514566730663
 10
115.3266384260295
 20
-130.8247449759744
 10
115.19572479759
 20
-130.8461045679829
 10
115.0875487993531
 20
-130.8650525931518
 10
115.0875487993531
 20
-130.8650525931518
 10
115.0875487993531
 20
-130.6428439343532
 10
115.0875487993531
 20
-130.6428439343532
 10
115.2866753184006
 20
-130.5880669161377
 10
115.3163031395737
 20
-130.460942892732
 10
115.3163031395737
 20
-130.3679253146302
 10
115.3163031395737
 20
-130.2283989474776
 10
115.2163953705015
 20
-130.0761257270296
 10
114.9841959347956
 20
-130.0761257270296
 10
114.727880830693
 20
-130.0761257270296
 10
114.658289901891
 20
-130.2559597113596
 10
114.658289901891
 20
-130.3765380533434
 10
114.658289901891
 20
-130.4082329318077
 10
114.658289901891
 20
-130.5498263562514
 10
114.7871364730393
 20
-130.6387098197709
 10
114.7871364730393
 20
-130.6387098197709
 10
114.768532957419
 20
-130.8144096895186
 10
114.768532957419
 20
-130.8144096895186
 10
114.768532957419
 20
-130.8144096895186
 10
113.9217284871446
 20
-130.6938313475349
 10
113.9217284871446
 20
-130.6938313475349
 10
113.9217284871446
 20
-130.6938313475349
 10
113.9217284871446
 20
-129.9152397678684
 10
113.9217284871446
 20
-129.9152397678684
 10
113.9217284871446
 20
-129.9152397678684
 10
114.1167208916097
 20
-129.9152397678684
 10
114.1167208916097
 20
-129.9152397678684
 10
114.1167208916097
 20
-129.9152397678684
 10
114.1167208916097
 20
-130.5308783310826
 10
114.1167208916097
 20
-130.5308783310826
 10
114.1167208916097
 20
-130.5308783310826
 10
114.5397786171984
 20
-130.5963351453023
 10
114.5397786171984
 20
-130.5963351453023
 10
114.5060166814429
 20
-130.5350124456649
 10
114.465364554717
 20
-130.4526746635674
 10
114.465364554717
 20
-130.3341633788748
 10
114.465364554717
 20
-130.0802598416119
 10
114.6520887300175
 20
-129.8432372722267
 10
114.9649034000782
 20
-129.8432372722267
 10
115.2825412038183
 20
-129.8432372722267
 10
115.5168076968152
 20
-130.0675129883165
 10
115.5168076968152
 20
-130.3699923719214
 97
        0
 97
        0
 75
     2
 76
     1
 98
        0
  0
ENDBLK
  5
B2
330
AF
100
AcDbEntity
  8
0
100
AcDbBlockEnd
  0
BLOCK
  5
D3
330
D1
100
AcDbEntity
  8
0
100
AcDbBlockBegin
  2
block 6
 70
     0
 10
0.0
 20
0.0
 30
0.0
  3
block 6
  1

  0
SPLINE
  5
D5
330
D1
100
AcDbEntity
  8
_U+30EC_U+30A4_U+30E4_U+30FC 1
370
     0
100
AcDbSpline
210
0.0
220
0.0
230
1.0
 70
    11
 71
     3
 72
    29
 73
    25
 74
     0
 42
0.0000000001
 43
0.0000000001
 12
1.0
 22
0.0
 32
0.0
 13
1.0
 23
0.0
 33
0.0
 40
0.0
 40
0.0
 40
0.0
 40
0.0
 40
1.0
 40
1.0
 40
1.0
 40
2.0
 40
2.0
 40
2.0
 40
3.0
 40
3.0
 40
3.0
 40
4.0
 40
4.0
 40
4.0
 40
5.0
 40
5.0
 40
5.0
 40
6.0
 40
6.0
 40
6.0
 40
7.0
 40
7.0
 40
7.0
 40
8.0
 40
8.0
 40
8.0
 40
8.0
 10
111.8215982793363
 20
-123.4171006635902
 30
0.0
 10
112.0310600848395
 20
-123.525276661827
 30
0.0
 10
112.0500081100083
 20
-123.6985649647351
 30
0.0
 10
112.0500081100083
 20
-123.8150091921365
 30
0.0
 10
112.0500081100083
 20
-123.9758951512977
 30
0.0
 10
112.0034993209575
 20
-124.1174885757415
 30
0.0
 10
111.8215982793363
 20
-124.2125732111344
 30
0.0
 10
111.6269503844197
 20
-124.3162705852404
 30
0.0
 10
111.3899278150345
 20
-124.3355631199578
 30
0.0
 10
111.2273193081307
 20
-124.3355631199578
 30
0.0
 10
111.0833143168472
 20
-124.3355631199578
 30
0.0
 10
110.8314778368755
 20
-124.3183376425315
 30
0.0
 10
110.6326958273766
 20
-124.2125732111344
 30
0.0
 10
110.4297797032953
 20
-124.104741722446
 30
0.0
 10
110.4063530539956
 20
-123.9438557632849
 30
0.0
 10
110.4063530539956
 20
-123.8150091921365
 30
0.0
 10
110.4063530539956
 20
-123.6561902902665
 30
0.0
 10
110.4507947857554
 20
-123.5125298085316
 30
0.0
 10
110.6326958273766
 20
-123.4171006635902
 30
0.0
 10
110.825276665002
 20
-123.317881913615
 30
0.0
 10
111.0536864956741
 20
-123.2944552643153
 30
0.0
 10
111.2273193081307
 20
-123.2944552643153
 30
0.0
 10
111.3985405537476
 20
-123.2944552643153
 30
0.0
 10
111.6290174417108
 20
-123.3158148563238
 30
0.0
 10
111.8215982793363
 20
-123.4171006635902
 30
0.0
  0
SPLINE
  5
D6
330
D1
100
AcDbEntity
  8
_U+30EC_U+30A4_U+30E4_U+30FC 1
370
     0
100
AcDbSpline
210
0.0
220
0.0
230
1.0
 70
    11
 71
     3
 72
    17
 73
    13
 74
     0
 42
0.0000000001
 43
0.0000000001
 12
1.0
 22
0.0
 32
0.0
 13
1.0
 23
0.0
 33
0.0
 40
0.0
 40
0.0
 40
0.0
 40
0.0
 40
1.0
 40
1.0
 40
1.0
 40
2.0
 40
2.0
 40
2.0
 40
3.0
 40
3.0
 40
3.0
 40
4.0
 40
4.0
 40
4.0
 40
4.0
 10
110.5989338916211
 20
-123.8150091921365
 30
0.0
 10
110.5989338916211
 20
-124.0647786148171
 30
0.0
 10
110.8824652500572
 20
-124.111287403868
 30
0.0
 10
111.2273193081307
 20
-124.111287403868
 30
0.0
 10
111.5466796596133
 20
-124.111287403868
 30
0.0
 10
111.8553602150917
 20
-124.0751139012729
 30
0.0
 10
111.8553602150917
 20
-123.8150091921365
 30
0.0
 10
111.8553602150917
 20
-123.5673068267471
 30
0.0
 10
111.5742404234953
 20
-123.518730980405
 30
0.0
 10
111.2273193081307
 20
-123.518730980405
 30
0.0
 10
110.9076144470995
 20
-123.518730980405
 30
0.0
 10
110.5989338916211
 20
-123.5569715402913
 30
0.0
 10
110.5989338916211
 20
-123.8150091921365
 30
0.0
  0
HATCH
  5
D7
330
D1
100
AcDbEntity
  8
_U+30EC_U+30A4_U+30E4_U+30FC 1
 62
   179
420
  2234388
100
AcDbHatch
 10
0.0
 20
0.0
 30
0.0
210
0.0
220
0.0
230
1.0
  2
SOLID
 70
     1
 71
     0
 91
        2
 92
        1
 93
        1
 72
     4
 94
        3
 73
     0
 74
     1
 95
       29
 96
       25
 40
0.0
 40
0.0
 40
0.0
 40
0.0
 40
1.0
 40
1.0
 40
1.0
 40
2.0
 40
2.0
 40
2.0
 40
3.0
 40
3.0
 40
3.0
 40
4.0
 40
4.0
 40
4.0
 40
5.0
 40
5.0
 40
5.0
 40
6.0
 40
6.0
 40
6.0
 40
7.0
 40
7.0
 40
7.0
 40
8.0
 40
8.0
 40
8.0
 40
8.0
 10
111.8215982793363
 20
-123.4171006635902
 10
112.0310600848395
 20
-123.525276661827
 10
112.0500081100083
 20
-123.6985649647351
 10
112.0500081100083
 20
-123.8150091921365
 10
112.0500081100083
 20
-123.9758951512977
 10
112.0034993209575
 20
-124.1174885757415
 10
111.8215982793363
 20
-124.2125732111344
 10
111.6269503844197
 20
-124.3162705852404
 10
111.3899278150345
 20
-124.3355631199578
 10
111.2273193081307
 20
-124.3355631199578
 10
111.0833143168472
 20
-124.3355631199578
 10
110.8314778368755
 20
-124.3183376425315
 10
110.6326958273766
 20
-124.2125732111344
 10
110.4297797032953
 20
-124.104741722446
 10
110.4063530539956
 20
-123.9438557632849
 10
110.4063530539956
 20
-123.8150091921365
 10
110.4063530539956
 20
-123.6561902902665
 10
110.4507947857554
 20
-123.5125298085316
 10
110.6326958273766
 20
-123.4171006635902
 10
110.825276665002
 20
-123.317881913615
 10
111.0536864956741
 20
-123.2944552643153
 10
111.2273193081307
 20
-123.2944552643153
 10
111.3985405537476
 20
-123.2944552643153
 10
111.6290174417108
 20
-123.3158148563238
 10
111.8215982793363
 20
-123.4171006635902
 97
        0
 97
        0
 92
        1
 93
        1
 72
     4
 94
        3
 73
     0
 74
     1
 95
       17
 96
       13
 40
0.0
 40
0.0
 40
0.0
 40
0.0
 40
1.0
 40
1.0
 40
1.0
 40
2.0
 40
2.0
 40
2.0
 40
3.0
 40
3.0
 40
3.0
 40
4.0
 40
4.0
 40
4.0
 40
4.0
 10
110.5989338916211
 20
-123.8150091921365
 10
110.5989338916211
 20
-124.0647786148171
 10
110.8824652500572
 20
-124.111287403868
 10
111.2273193081307
 20
-124.111287403868
 10
111.5466796596133
 20
-124.111287403868
 10
111.8553602150917
 20
-124.0751139012729
 10
111.8553602150917
 20
-123.8150091921365
 10
111.8553602150917
 20
-123.5673068267471
 10
111.5742404234953
 20
-123.518730980405
 10
111.2273193081307
 20
-123.518730980405
 10
110.9076144470995
 20
-123.518730980405
 10
110.5989338916211
 20
-123.5569715402913
 10
110.5989338916211
 20
-123.8150091921365
 97
        0
 97
        0
 75
     2
 76
     1
 98
        0
  0
POLYLINE
  5
D8
330
D1
100
AcDbEntity
  8
_U+30EC_U+30A4_U+30E4_U+30FC 1
370
     0
100
AcDb2dPolyline
 66
     1
 10
0.0
 20
0.0
 30
0.0
  0
VERTEX
  5
D9
330
D8
100
AcDbEntity
  8
_U+30EC_U+30A4_U+30E4_U+30FC 1
370
     0
100
AcDbVertex
100
AcDb2dVertex
 10
111.9993652063752
 20
-123.0781032678416
 30
0.0
  0
VERTEX
  5
DA
330
D8
100
AcDbEntity
  8
_U+30EC_U+30A4_U+30E4_U+30FC 1
370
     0
100
AcDbVertex
100
AcDb2dVertex
 10
111.7475287264034
 20
-123.0781032678416
 30
0.0
  0
VERTEX
  5
DB
330
D8
100
AcDbEntity
  8
_U+30EC_U+30A4_U+30E4_U+30FC 1
370
     0
100
AcDbVertex
100
AcDb2dVertex
 10
111.7475287264034
 20
-122.8262667878698
 30
0.0
  0
VERTEX
  5
DC
330
D8
100
AcDbEntity
  8
_U+30EC_U+30A4_U+30E4_U+30FC 1
370
     0
100
AcDbVertex
100
AcDb2dVertex
 10
111.9993652063752
 20
-122.8262667878698
 30
0.0
  0
VERTEX
  5
DD
330
D8
100
AcDbEntity
  8
_U+30EC_U+30A4_U+30E4_U+30FC 1
370
     0
100
AcDbVertex
100
AcDb2dVertex
 10
111.9993652063752
 20
-123.0781032678416
 30
0.0
  0
SEQEND
  5
DE
330
D8
100
AcDbEntity
  8
_U+30EC_U+30A4_U+30E4_U+30FC 1
370
     0
  0
HATCH
  5
DF
330
D1
100
AcDbEntity
  8
_U+30EC_U+30A4_U+30E4_U+30FC 1
 62
   179
420
  2234388
100
AcDbHatch
 10
0.0
 20
0.0
 30
0.0
210
0.0
220
0.0
230
1.0
  2
SOLID
 70
     1
 71
     0
 91
        1
 92
        1
 93
        4
 72
     1
 10
111.9993652063752
 20
-123.0781032678416
 11
111.7475287264034
 21
-123.0781032678416
 72
     1
 10
111.7475287264034
 20
-123.0781032678416
 11
111.7475287264034
 21
-122.8262667878698
 72
     1
 10
111.7475287264034
 20
-122.8262667878698
 11
111.9993652063752
 21
-122.8262667878698
 72
     1
 10
111.9993652063752
 20
-122.8262667878698
 11
111.9993652063752
 21
-123.0781032678416
 97
        0
 75
     2
 76
     1
 98
        0
  0
SPLINE
  5
E0
330
D1
100
AcDbEntity
  8
_U+30EC_U+30A4_U+30E4_U+30FC 1
370
     0
100
AcDbSpline
210
0.0
220
0.0
230
1.0
 70
    11
 71
     3
 72
    29
 73
    25
 74
     0
 42
0.0000000001
 43
0.0000000001
 12
1.0
 22
0.0
 32
0.0
 13
1.0
 23
0.0
 33
0.0
 40
0.0
 40
0.0
 40
0.0
 40
0.0
 40
1.0
 40
1.0
 40
1.0
 40
2.0
 40
2.0
 40
2.0
 40
3.0
 40
3.0
 40
3.0
 40
4.0
 40
4.0
 40
4.0
 40
5.0
 40
5.0
 40
5.0
 40
6.0
 40
6.0
 40
6.0
 40
7.0
 40
7.0
 40
7.0
 40
8.0
 40
8.0
 40
8.0
 40
8.0
 10
112.0500081100083
 20
-122.0900498826719
 30
0.0
 10
112.0500081100083
 20
-122.3567002732303
 30
0.0
 10
111.9125488001469
 20
-122.6102593009447
 30
0.0
 10
111.5635606274911
 20
-122.6102593009447
 30
0.0
 10
111.307590032937
 20
-122.6102593009447
 30
0.0
 10
111.2125053975441
 20
-122.4686658765009
 30
0.0
 10
111.1511826979066
 20
-122.3629014451037
 30
0.0
 10
111.0919270555604
 20
-122.4876139016698
 30
0.0
 10
110.9775498854501
 20
-122.5637505118938
 30
0.0
 10
110.8166639262889
 20
-122.5637505118938
 30
0.0
 10
110.541745306566
 20
-122.5637505118938
 30
0.0
 10
110.4063530539956
 20
-122.3649685023949
 30
0.0
 10
110.4063530539956
 20
-122.0900498826719
 30
0.0
 10
110.4063530539956
 20
-121.8065185242359
 30
0.0
 10
110.5503580452791
 20
-121.6160047439016
 30
0.0
 10
110.8166639262889
 20
-121.6160047439016
 30
0.0
 10
110.9775498854501
 20
-121.6160047439016
 30
0.0
 10
111.0919270555604
 20
-121.6945529209653
 30
0.0
 10
111.1511826979066
 20
-121.8192653775313
 30
0.0
 10
111.2018256015398
 20
-121.7303819140119
 30
0.0
 10
111.2969102369327
 20
-121.5715630121418
 30
0.0
 10
111.5594265129088
 20
-121.5715630121418
 30
0.0
 10
111.9339083921554
 20
-121.5715630121418
 30
0.0
 10
112.0500081100083
 20
-121.8509602559956
 30
0.0
 10
112.0500081100083
 20
-122.0900498826719
 30
0.0
  0
SPLINE
  5
E1
330
D1
100
AcDbEntity
  8
_U+30EC_U+30A4_U+30E4_U+30FC 1
370
     0
100
AcDbSpline
210
0.0
220
0.0
230
1.0
 70
    11
 71
     3
 72
    17
 73
    13
 74
     0
 42
0.0000000001
 43
0.0000000001
 12
1.0
 22
0.0
 32
0.0
 13
1.0
 23
0.0
 33
0.0
 40
0.0
 40
0.0
 40
0.0
 40
0.0
 40
1.0
 40
1.0
 40
1.0
 40
2.0
 40
2.0
 40
2.0
 40
3.0
 40
3.0
 40
3.0
 40
4.0
 40
4.0
 40
4.0
 40
4.0
 10
110.5989338916211
 20
-122.0900498826719
 30
0.0
 10
110.5989338916211
 20
-122.2550699564154
 30
0.0
 10
110.694018527014
 20
-122.339474795804
 30
0.0
 10
110.8294107795843
 20
-122.339474795804
 30
0.0
 10
110.9520561788592
 20
-122.339474795804
 30
0.0
 10
111.0705674635518
 20
-122.2678168097108
 30
0.0
 10
111.0705674635518
 20
-122.0900498826719
 30
0.0
 10
111.0705674635518
 20
-121.912282955633
 30
0.0
 10
110.9520561788592
 20
-121.8402804599913
 30
0.0
 10
110.8294107795843
 20
-121.8402804599913
 30
0.0
 10
110.694018527014
 20
-121.8402804599913
 30
0.0
 10
110.5989338916211
 20
-121.9270968662196
 30
0.0
 10
110.5989338916211
 20
-122.0900498826719
 30
0.0
  0
SPLINE
  5
E2
330
D1
100
AcDbEntity
  8
_U+30EC_U+30A4_U+30E4_U+30FC 1
370
     0
100
AcDbSpline
210
0.0
220
0.0
230
1.0
 70
    11
 71
     3
 72
    17
 73
    13
 74
     0
 42
0.0000000001
 43
0.0000000001
 12
1.0
 22
0.0
 32
0.0
 13
1.0
 23
0.0
 33
0.0
 40
0.0
 40
0.0
 40
0.0
 40
0.0
 40
1.0
 40
1.0
 40
1.0
 40
2.0
 40
2.0
 40
2.0
 40
3.0
 40
3.0
 40
3.0
 40
4.0
 40
4.0
 40
4.0
 40
4.0
 10
111.259014186595
 20
-122.0900498826719
 30
0.0
 10
111.259014186595
 20
-122.2337103644069
 30
0.0
 10
111.3458305928233
 20
-122.3863280944034
 30
0.0
 10
111.5487467169045
 20
-122.3863280944034
 30
0.0
 10
111.7540744078254
 20
-122.3863280944034
 30
0.0
 10
111.8553602150917
 20
-122.2592040709977
 30
0.0
 10
111.8553602150917
 20
-122.0900498826719
 30
0.0
 10
111.8553602150917
 20
-121.9040147264684
 30
0.0
 10
111.7327148158168
 20
-121.7937716709405
 30
0.0
 10
111.5549478887779
 20
-121.7937716709405
 30
0.0
 10
111.3330837395279
 20
-121.7937716709405
 30
0.0
 10
111.259014186595
 20
-121.9567246873928
 30
0.0
 10
111.259014186595
 20
-122.0900498826719
 30
0.0
  0
HATCH
  5
E3
330
D1
100
AcDbEntity
  8
_U+30EC_U+30A4_U+30E4_U+30FC 1
 62
   179
420
  2234388
100
AcDbHatch
 10
0.0
 20
0.0
 30
0.0
210
0.0
220
0.0
230
1.0
  2
SOLID
 70
     1
 71
     0
 91
        3
 92
        1
 93
        1
 72
     4
 94
        3
 73
     0
 74
     1
 95
       29
 96
       25
 40
0.0
 40
0.0
 40
0.0
 40
0.0
 40
1.0
 40
1.0
 40
1.0
 40
2.0
 40
2.0
 40
2.0
 40
3.0
 40
3.0
 40
3.0
 40
4.0
 40
4.0
 40
4.0
 40
5.0
 40
5.0
 40
5.0
 40
6.0
 40
6.0
 40
6.0
 40
7.0
 40
7.0
 40
7.0
 40
8.0
 40
8.0
 40
8.0
 40
8.0
 10
112.0500081100083
 20
-122.0900498826719
 10
112.0500081100083
 20
-122.3567002732303
 10
111.9125488001469
 20
-122.6102593009447
 10
111.5635606274911
 20
-122.6102593009447
 10
111.307590032937
 20
-122.6102593009447
 10
111.2125053975441
 20
-122.4686658765009
 10
111.1511826979066
 20
-122.3629014451037
 10
111.0919270555604
 20
-122.4876139016698
 10
110.9775498854501
 20
-122.5637505118938
 10
110.8166639262889
 20
-122.5637505118938
 10
110.541745306566
 20
-122.5637505118938
 10
110.4063530539956
 20
-122.3649685023949
 10
110.4063530539956
 20
-122.0900498826719
 10
110.4063530539956
 20
-121.8065185242359
 10
110.5503580452791
 20
-121.6160047439016
 10
110.8166639262889
 20
-121.6160047439016
 10
110.9775498854501
 20
-121.6160047439016
 10
111.0919270555604
 20
-121.6945529209653
 10
111.1511826979066
 20
-121.8192653775313
 10
111.2018256015398
 20
-121.7303819140119
 10
111.2969102369327
 20
-121.5715630121418
 10
111.5594265129088
 20
-121.5715630121418
 10
111.9339083921554
 20
-121.5715630121418
 10
112.0500081100083
 20
-121.8509602559956
 10
112.0500081100083
 20
-122.0900498826719
 97
        0
 97
        0
 92
        1
 93
        1
 72
     4
 94
        3
 73
     0
 74
     1
 95
       17
 96
       13
 40
0.0
 40
0.0
 40
0.0
 40
0.0
 40
1.0
 40
1.0
 40
1.0
 40
2.0
 40
2.0
 40
2.0
 40
3.0
 40
3.0
 40
3.0
 40
4.0
 40
4.0
 40
4.0
 40
4.0
 10
110.5989338916211
 20
-122.0900498826719
 10
110.5989338916211
 20
-122.2550699564154
 10
110.694018527014
 20
-122.339474795804
 10
110.8294107795843
 20
-122.339474795804
 10
110.9520561788592
 20
-122.339474795804
 10
111.0705674635518
 20
-122.2678168097108
 10
111.0705674635518
 20
-122.0900498826719
 10
111.0705674635518
 20
-121.912282955633
 10
110.9520561788592
 20
-121.8402804599913
 10
110.8294107795843
 20
-121.8402804599913
 10
110.694018527014
 20
-121.8402804599913
 10
110.5989338916211
 20
-121.9270968662196
 10
110.5989338916211
 20
-122.0900498826719
 97
        0
 97
        0
 92
        1
 93
        1
 72
     4
 94
        3
 73
     0
 74
     1
 95
       17
 96
       13
 40
0.0
 40
0.0
 40
0.0
 40
0.0
 40
1.0
 40
1.0
 40
1.0
 40
2.0
 40
2.0
 40
2.0
 40
3.0
 40
3.0
 40
3.0
 40
4.0
 40
4.0
 40
4.0
 40
4.0
 10
111.259014186595
 20
-122.0900498826719
 10
111.259014186595
 20
-122.2337103644069
 10
111.3458305928233
 20
-122.3863280944034
 10
111.5487467169045
 20
-122.3863280944034
 10
111.7540744078254
 20
-122.3863280944034
 10
111.8553602150917
 20
-122.2592040709977
 10
111.8553602150917
 20
-122.0900498826719
 10
111.8553602150917
 20
-121.9040147264684
 10
111.7327148158168
 20
-121.7937716709405
 10
111.5549478887779
 20
-121.7937716709405
 10
111.3330837395279
 20
-121.7937716709405
 10
111.259014186595
 20
-121.9567246873928
 10
111.259014186595
 20
-122.0900498826719
 97
        0
 97
        0
 75
     2
 76
     1
 98
        0
  0
ENDBLK
  5
D4
330
D1
100
AcDbEntity
  8
0
100
AcDbBlockEnd
  0
ENDSEC
  0
SECTION
  2
ENTITIES
  0
INSERT
  5
42
330
1F
100
AcDbEntity
  8
_U+30EC_U+30A4_U+30E4_U+30FC 1
100
AcDbBlockReference
  2
block 2
 10
0.0
 20
0.0
 30
0.0
  0
SPLINE
  5
56
330
1F
100
AcDbEntity
  8
_U+30EC_U+30A4_U+30E4_U+30FC 1
 62
   179
420
  2234388
370
     9
100
AcDbSpline
210
0.0
220
0.0
230
1.0
 70
    11
 71
     3
 72
    17
 73
    13
 74
     0
 42
0.0000000001
 43
0.0000000001
 12
1.0
 22
0.0
 32
0.0
 13
1.0
 23
0.0
 33
0.0
 40
0.0
 40
0.0
 40
0.0
 40
0.0
 40
1.0
 40
1.0
 40
1.0
 40
2.0
 40
2.0
 40
2.0
 40
3.0
 40
3.0
 40
3.0
 40
4.0
 40
4.0
 40
4.0
 40
4.0
 10
116.1624167586721
 20
-128.5010341345414
 30
0.0
 10
116.1624167586721
 20
-128.4452246901109
 30
0.0
 10
116.1176139820373
 20
-128.4004219123442
 30
0.0
 10
116.0625100945542
 20
-128.4004219123442
 30
0.0
 10
116.0073709292943
 20
-128.4004219123442
 30
0.0
 10
115.9626034304364
 20
-128.4452246901109
 30
0.0
 10
115.9626034304364
 20
-128.5010341345414
 30
0.0
 10
115.9626034304364
 20
-128.5561380234166
 30
0.0
 10
116.0073709292943
 20
-128.600940801183
 30
0.0
 10
116.0625100945542
 20
-128.600940801183
 30
0.0
 10
116.1176139820373
 20
-128.600940801183
 30
0.0
 10
116.1624167586721
 20
-128.5561380234166
 30
0.0
 10
116.1624167586721
 20
-128.5010341345414
 30
0.0
  0
SPLINE
  5
57
330
1F
100
AcDbEntity
  8
_U+30EC_U+30A4_U+30E4_U+30FC 1
 62
   179
420
  2234388
370
     9
100
AcDbSpline
210
0.0
220
0.0
230
1.0
 70
    11
 71
     3
 72
    17
 73
    13
 74
     0
 42
0.0000000001
 43
0.0000000001
 12
1.0
 22
0.0
 32
0.0
 13
1.0
 23
0.0
 33
0.0
 40
0.0
 40
0.0
 40
0.0
 40
0.0
 40
1.0
 40
1.0
 40
1.0
 40
2.0
 40
2.0
 40
2.0
 40
3.0
 40
3.0
 40
3.0
 40
4.0
 40
4.0
 40
4.0
 40
4.0
 10
116.1624167586721
 20
-126.000933301833
 30
0.0
 10
116.1624167586721
 20
-125.9457941351802
 30
0.0
 10
116.1176139820373
 20
-125.9010266351913
 30
0.0
 10
116.0625100945542
 20
-125.9010266351913
 30
0.0
 10
116.0073709292943
 20
-125.9010266351913
 30
0.0
 10
115.9626034304364
 20
-125.9457941351802
 30
0.0
 10
115.9626034304364
 20
-126.000933301833
 30
0.0
 10
115.9626034304364
 20
-126.0560371907082
 30
0.0
 10
116.0073709292943
 20
-126.1008399684749
 30
0.0
 10
116.0625100945542
 20
-126.1008399684749
 30
0.0
 10
116.1176139820373
 20
-126.1008399684749
 30
0.0
 10
116.1624167586721
 20
-126.0560371907082
 30
0.0
 10
116.1624167586721
 20
-126.000933301833
 30
0.0
  0
SPLINE
  5
58
330
1F
100
AcDbEntity
  8
_U+30EC_U+30A4_U+30E4_U+30FC 1
 62
   179
420
  2234388
370
     9
100
AcDbSpline
210
0.0
220
0.0
230
1.0
 70
    11
 71
     3
 72
    17
 73
    13
 74
     0
 42
0.0000000001
 43
0.0000000001
 12
1.0
 22
0.0
 32
0.0
 13
1.0
 23
0.0
 33
0.0
 40
0.0
 40
0.0
 40
0.0
 40
0.0
 40
1.0
 40
1.0
 40
1.0
 40
2.0
 40
2.0
 40
2.0
 40
3.0
 40
3.0
 40
3.0
 40
4.0
 40
4.0
 40
4.0
 40
4.0
 10
109.6622041467285
 20
-122.5007074693749
 30
0.0
 10
109.6622041467285
 20
-122.4455683027219
 30
0.0
 10
109.6174366478706
 20
-122.4008008027333
 30
0.0
 10
109.5622974826107
 20
-122.4008008027333
 30
0.0
 10
109.5071935951276
 20
-122.4008008027333
 30
0.0
 10
109.4623908184929
 20
-122.4455683027219
 30
0.0
 10
109.4623908184929
 20
-122.5007074693749
 30
0.0
 10
109.4623908184929
 20
-122.5558113582499
 30
0.0
 10
109.5071935951276
 20
-122.6006141360166
 30
0.0
 10
109.5622974826107
 20
-122.6006141360166
 30
0.0
 10
109.6174366478706
 20
-122.6006141360166
 30
0.0
 10
109.6622041467285
 20
-122.5558113582499
 30
0.0
 10
109.6622041467285
 20
-122.5007074693749
 30
0.0
  0
SPLINE
  5
59
330
1F
100
AcDbEntity
  8
_U+30EC_U+30A4_U+30E4_U+30FC 1
 62
   179
420
  2234388
370
     9
100
AcDbSpline
210
0.0
220
0.0
230
1.0
 70
    11
 71
     3
 72
    17
 73
    13
 74
     0
 42
0.0000000001
 43
0.0000000001
 12
1.0
 22
0.0
 32
0.0
 13
1.0
 23
0.0
 33
0.0
 40
0.0
 40
0.0
 40
0.0
 40
0.0
 40
1.0
 40
1.0
 40
1.0
 40
2.0
 40
2.0
 40
2.0
 40
3.0
 40
3.0
 40
3.0
 40
4.0
 40
4.0
 40
4.0
 40
4.0
 10
71.6626409495115
 20
-122.5007074693749
 30
0.0
 10
71.6626409495115
 20
-122.4455683027219
 30
0.0
 10
71.61783817287673
 20
-122.4008008027333
 30
0.0
 10
71.56273609322028
 20
-122.4008008027333
 30
0.0
 10
71.50759512013371
 20
-122.4008008027333
 30
0.0
 10
71.46282762127582
 20
-122.4455683027219
 30
0.0
 10
71.46282762127582
 20
-122.5007074693749
 30
0.0
 10
71.46282762127582
 20
-122.5558113582499
 30
0.0
 10
71.50759512013371
 20
-122.6006141360166
 30
0.0
 10
71.56273609322028
 20
-122.6006141360166
 30
0.0
 10
71.61783817287673
 20
-122.6006141360166
 30
0.0
 10
71.6626409495115
 20
-122.5558113582499
 30
0.0
 10
71.6626409495115
 20
-122.5007074693749
 30
0.0
  0
SPLINE
  5
5A
330
1F
100
AcDbEntity
  8
_U+30EC_U+30A4_U+30E4_U+30FC 1
 62
   179
420
  2234388
370
     9
100
AcDbSpline
210
0.0
220
0.0
230
1.0
 70
    11
 71
     3
 72
    17
 73
    13
 74
     0
 42
0.0000000001
 43
0.0000000001
 12
1.0
 22
0.0
 32
0.0
 13
1.0
 23
0.0
 33
0.0
 40
0.0
 40
0.0
 40
0.0
 40
0.0
 40
1.0
 40
1.0
 40
1.0
 40
2.0
 40
2.0
 40
2.0
 40
3.0
 40
3.0
 40
3.0
 40
4.0
 40
4.0
 40
4.0
 40
4.0
 10
67.66288188488718
 20
-126.0067894129426
 30
0.0
 10
67.66288188488718
 20
-125.9516502462898
 30
0.0
 10
67.61807910825242
 20
-125.906882746301
 30
0.0
 10
67.56262244300056
 20
-125.906882746301
 30
0.0
 10
67.50716577774872
 20
-125.906882746301
 30
0.0
 10
67.46271577888274
 20
-125.9516502462898
 30
0.0
 10
67.46271577888274
 20
-126.0067894129426
 30
0.0
 10
67.46271577888274
 20
-126.0618933018178
 30
0.0
 10
67.50716577774872
 20
-126.1066960795846
 30
0.0
 10
67.56262244300056
 20
-126.1066960795846
 30
0.0
 10
67.61807910825242
 20
-126.1066960795846
 30
0.0
 10
67.66288188488718
 20
-126.0618933018178
 30
0.0
 10
67.66288188488718
 20
-126.0067894129426
 30
0.0
  0
SPLINE
  5
5B
330
1F
100
AcDbEntity
  8
_U+30EC_U+30A4_U+30E4_U+30FC 1
 62
   179
420
  2234388
370
     9
100
AcDbSpline
210
0.0
220
0.0
230
1.0
 70
    11
 71
     3
 72
    17
 73
    13
 74
     0
 42
0.0000000001
 43
0.0000000001
 12
1.0
 22
0.0
 32
0.0
 13
1.0
 23
0.0
 33
0.0
 40
0.0
 40
0.0
 40
0.0
 40
0.0
 40
1.0
 40
1.0
 40
1.0
 40
2.0
 40
2.0
 40
2.0
 40
3.0
 40
3.0
 40
3.0
 40
4.0
 40
4.0
 40
4.0
 40
4.0
 10
67.66288188488718
 20
-140.4996060759865
 30
0.0
 10
67.66288188488718
 20
-140.4445021871109
 30
0.0
 10
67.61807910825242
 20
-140.3996994093442
 30
0.0
 10
67.56262244300056
 20
-140.3996994093442
 30
0.0
 10
67.50716577774872
 20
-140.3996994093442
 30
0.0
 10
67.46271577888274
 20
-140.4445021871109
 30
0.0
 10
67.46271577888274
 20
-140.4996060759865
 30
0.0
 10
67.46271577888274
 20
-140.5547452426389
 30
0.0
 10
67.50716577774872
 20
-140.5995127426281
 30
0.0
 10
67.56262244300056
 20
-140.5995127426281
 30
0.0
 10
67.61807910825242
 20
-140.5995127426281
 30
0.0
 10
67.66288188488718
 20
-140.5547452426389
 30
0.0
 10
67.66288188488718
 20
-140.4996060759865
 30
0.0
  0
POLYLINE
  5
5C
330
1F
100
AcDbEntity
  8
_U+30EC_U+30A4_U+30E4_U+30FC 1
 62
   179
420
  2234388
370
     9
100
AcDb2dPolyline
 66
     1
 10
0.0
 20
0.0
 30
0.0
  0
VERTEX
  5
5D
330
5C
100
AcDbEntity
  8
_U+30EC_U+30A4_U+30E4_U+30FC 1
 62
   179
420
  2234388
370
     9
100
AcDbVertex
100
AcDb2dVertex
 10
109.5622974826107
 20
-122.5007074693749
 30
0.0
  0
VERTEX
  5
5E
330
5C
100
AcDbEntity
  8
_U+30EC_U+30A4_U+30E4_U+30FC 1
 62
   179
420
  2234388
370
     9
100
AcDbVertex
100
AcDb2dVertex
 10
71.56273609322028
 20
-122.5007074693749
 30
0.0
  0
SEQEND
  5
5F
330
5C
100
AcDbEntity
  8
_U+30EC_U+30A4_U+30E4_U+30FC 1
 62
   179
420
  2234388
370
     9
  0
POLYLINE
  5
60
330
1F
100
AcDbEntity
  8
_U+30EC_U+30A4_U+30E4_U+30FC 1
 62
   179
420
  2234388
370
     9
100
AcDb2dPolyline
 66
     1
 10
0.0
 20
0.0
 30
0.0
  0
VERTEX
  5
61
330
60
100
AcDbEntity
  8
_U+30EC_U+30A4_U+30E4_U+30FC 1
 62
   179
420
  2234388
370
     9
100
AcDbVertex
100
AcDb2dVertex
 10
109.5622974826107
 20
-125.2607349686849
 30
0.0
  0
VERTEX
  5
62
330
60
100
AcDbEntity
  8
_U+30EC_U+30A4_U+30E4_U+30FC 1
 62
   179
420
  2234388
370
     9
100
AcDbVertex
100
AcDb2dVertex
 10
109.5622974826107
 20
-121.5005824696249
 30
0.0
  0
SEQEND
  5
63
330
60
100
AcDbEntity
  8
_U+30EC_U+30A4_U+30E4_U+30FC 1
 62
   179
420
  2234388
370
     9
  0
POLYLINE
  5
64
330
1F
100
AcDbEntity
  8
_U+30EC_U+30A4_U+30E4_U+30FC 1
 62
   179
420
  2234388
370
     9
100
AcDb2dPolyline
 66
     1
 10
0.0
 20
0.0
 30
0.0
  0
VERTEX
  5
65
330
64
100
AcDbEntity
  8
_U+30EC_U+30A4_U+30E4_U+30FC 1
 62
   179
420
  2234388
370
     9
100
AcDbVertex
100
AcDb2dVertex
 10
71.56273609322028
 20
-130.9281099672679
 30
0.0
  0
VERTEX
  5
66
330
64
100
AcDbEntity
  8
_U+30EC_U+30A4_U+30E4_U+30FC 1
 62
   179
420
  2234388
370
     9
100
AcDbVertex
100
AcDb2dVertex
 10
71.56273609322028
 20
-121.5005824696249
 30
0.0
  0
SEQEND
  5
67
330
64
100
AcDbEntity
  8
_U+30EC_U+30A4_U+30E4_U+30FC 1
 62
   179
420
  2234388
370
     9
  0
INSERT
  5
69
330
1F
100
AcDbEntity
  8
_U+30EC_U+30A4_U+30E4_U+30FC 1
100
AcDbBlockReference
  2
block 3
 10
0.0
 20
0.0
 30
0.0
  0
POLYLINE
  5
72
330
1F
100
AcDbEntity
  8
_U+30EC_U+30A4_U+30E4_U+30FC 1
 62
   179
420
  2234388
370
     9
100
AcDb2dPolyline
 66
     1
 10
0.0
 20
0.0
 30
0.0
  0
VERTEX
  5
73
330
72
100
AcDbEntity
  8
_U+30EC_U+30A4_U+30E4_U+30FC 1
 62
   179
420
  2234388
370
     9
100
AcDbVertex
100
AcDb2dVertex
 10
67.56262244300056
 20
-126.0004041351667
 30
0.0
  0
VERTEX
  5
74
330
72
100
AcDbEntity
  8
_U+30EC_U+30A4_U+30E4_U+30FC 1
 62
   179
420
  2234388
370
     9
100
AcDbVertex
100
AcDb2dVertex
 10
67.56262244300056
 20
-140.4996060759865
 30
0.0
  0
SEQEND
  5
75
330
72
100
AcDbEntity
  8
_U+30EC_U+30A4_U+30E4_U+30FC 1
 62
   179
420
  2234388
370
     9
  0
POLYLINE
  5
76
330
1F
100
AcDbEntity
  8
_U+30EC_U+30A4_U+30E4_U+30FC 1
 62
   179
420
  2234388
370
     9
100
AcDb2dPolyline
 66
     1
 10
0.0
 20
0.0
 30
0.0
  0
VERTEX
  5
77
330
76
100
AcDbEntity
  8
_U+30EC_U+30A4_U+30E4_U+30FC 1
 62
   179
420
  2234388
370
     9
100
AcDbVertex
100
AcDb2dVertex
 10
70.52263958970646
 20
-126.0064366351652
 30
0.0
  0
VERTEX
  5
78
330
76
100
AcDbEntity
  8
_U+30EC_U+30A4_U+30E4_U+30FC 1
 62
   179
420
  2234388
370
     9
100
AcDbVertex
100
AcDb2dVertex
 10
66.56253274629276
 20
-126.0064366351652
 30
0.0
  0
SEQEND
  5
79
330
76
100
AcDbEntity
  8
_U+30EC_U+30A4_U+30E4_U+30FC 1
 62
   179
420
  2234388
370
     9
  0
POLYLINE
  5
7A
330
1F
100
AcDbEntity
  8
_U+30EC_U+30A4_U+30E4_U+30FC 1
 62
   179
420
  2234388
370
     9
100
AcDb2dPolyline
 66
     1
 10
0.0
 20
0.0
 30
0.0
  0
VERTEX
  5
7B
330
7A
100
AcDbEntity
  8
_U+30EC_U+30A4_U+30E4_U+30FC 1
 62
   179
420
  2234388
370
     9
100
AcDbVertex
100
AcDb2dVertex
 10
71.5658387297589
 20
-140.4996060759865
 30
0.0
  0
VERTEX
  5
7C
330
7A
100
AcDbEntity
  8
_U+30EC_U+30A4_U+30E4_U+30FC 1
 62
   179
420
  2234388
370
     9
100
AcDbVertex
100
AcDb2dVertex
 10
66.56253274629276
 20
-140.4996060759865
 30
0.0
  0
SEQEND
  5
7D
330
7A
100
AcDbEntity
  8
_U+30EC_U+30A4_U+30E4_U+30FC 1
 62
   179
420
  2234388
370
     9
  0
INSERT
  5
7F
330
1F
100
AcDbEntity
  8
_U+30EC_U+30A4_U+30E4_U+30FC 1
100
AcDbBlockReference
  2
block 4
 10
0.0
 20
0.0
 30
0.0
  0
POLYLINE
  5
A3
330
1F
100
AcDbEntity
  8
_U+30EC_U+30A4_U+30E4_U+30FC 1
 62
   179
420
  2234388
370
     9
100
AcDb2dPolyline
 66
     1
 10
0.0
 20
0.0
 30
0.0
  0
VERTEX
  5
A4
330
A3
100
AcDbEntity
  8
_U+30EC_U+30A4_U+30E4_U+30FC 1
 62
   179
420
  2234388
370
     9
100
AcDbVertex
100
AcDb2dVertex
 10
116.0625100945542
 20
-125.000808302083
 30
0.0
  0
VERTEX
  5
A5
330
A3
100
AcDbEntity
  8
_U+30EC_U+30A4_U+30E4_U+30FC 1
 62
   179
420
  2234388
370
     9
100
AcDbVertex
100
AcDb2dVertex
 10
116.0625100945542
 20
-133.5766949666055
 30
0.0
  0
SEQEND
  5
A6
330
A3
100
AcDbEntity
  8
_U+30EC_U+30A4_U+30E4_U+30FC 1
 62
   179
420
  2234388
370
     9
  0
POLYLINE
  5
A7
330
1F
100
AcDbEntity
  8
_U+30EC_U+30A4_U+30E4_U+30FC 1
 62
   179
420
  2234388
370
     9
100
AcDb2dPolyline
 66
     1
 10
0.0
 20
0.0
 30
0.0
  0
VERTEX
  5
A8
330
A7
100
AcDbEntity
  8
_U+30EC_U+30A4_U+30E4_U+30FC 1
 62
   179
420
  2234388
370
     9
100
AcDbVertex
100
AcDb2dVertex
 10
110.6344243997029
 20
-126.000933301833
 30
0.0
  0
VERTEX
  5
A9
330
A7
100
AcDbEntity
  8
_U+30EC_U+30A4_U+30E4_U+30FC 1
 62
   179
420
  2234388
370
     9
100
AcDbVertex
100
AcDb2dVertex
 10
117.0629555262899
 20
-126.000933301833
 30
0.0
  0
SEQEND
  5
AA
330
A7
100
AcDbEntity
  8
_U+30EC_U+30A4_U+30E4_U+30FC 1
 62
   179
420
  2234388
370
     9
  0
POLYLINE
  5
AB
330
1F
100
AcDbEntity
  8
_U+30EC_U+30A4_U+30E4_U+30FC 1
 62
   179
420
  2234388
370
     9
100
AcDb2dPolyline
 66
     1
 10
0.0
 20
0.0
 30
0.0
  0
VERTEX
  5
AC
330
AB
100
AcDbEntity
  8
_U+30EC_U+30A4_U+30E4_U+30FC 1
 62
   179
420
  2234388
370
     9
100
AcDbVertex
100
AcDb2dVertex
 10
110.6347771774717
 20
-128.5010341345414
 30
0.0
  0
VERTEX
  5
AD
330
AB
100
AcDbEntity
  8
_U+30EC_U+30A4_U+30E4_U+30FC 1
 62
   179
420
  2234388
370
     9
100
AcDbVertex
100
AcDb2dVertex
 10
117.0629555262899
 20
-128.5010341345414
 30
0.0
  0
SEQEND
  5
AE
330
AB
100
AcDbEntity
  8
_U+30EC_U+30A4_U+30E4_U+30FC 1
 62
   179
420
  2234388
370
     9
  0
INSERT
  5
B0
330
1F
100
AcDbEntity
  8
_U+30EC_U+30A4_U+30E4_U+30FC 1
100
AcDbBlockReference
  2
block 5
 10
0.0
 20
0.0
 30
0.0
  0
SPLINE
  5
BF
330
1F
100
AcDbEntity
  8
_U+30EC_U+30A4_U+30E4_U+30FC 1
 62
   179
420
  2234388
370
     9
100
AcDbSpline
210
0.0
220
0.0
230
1.0
 70
    11
 71
     3
 72
    17
 73
    13
 74
     0
 42
0.0000000001
 43
0.0000000001
 12
1.0
 22
0.0
 32
0.0
 13
1.0
 23
0.0
 33
0.0
 40
0.0
 40
0.0
 40
0.0
 40
0.0
 40
1.0
 40
1.0
 40
1.0
 40
2.0
 40
2.0
 40
2.0
 40
3.0
 40
3.0
 40
3.0
 40
4.0
 40
4.0
 40
4.0
 40
4.0
 10
112.6949287915795
 20
-128.5010341345414
 30
0.0
 10
112.6949287915795
 20
-128.4452246901109
 30
0.0
 10
112.6501260149447
 20
-128.4004219123442
 30
0.0
 10
112.5950249718511
 20
-128.4004219123442
 30
0.0
 10
112.5398829622017
 20
-128.4004219123442
 30
0.0
 10
112.4951154633438
 20
-128.4452246901109
 30
0.0
 10
112.4951154633438
 20
-128.5010341345414
 30
0.0
 10
112.4951154633438
 20
-128.5561380234166
 30
0.0
 10
112.5398829622017
 20
-128.600940801183
 30
0.0
 10
112.5950249718511
 20
-128.600940801183
 30
0.0
 10
112.6501260149447
 20
-128.600940801183
 30
0.0
 10
112.6949287915795
 20
-128.5561380234166
 30
0.0
 10
112.6949287915795
 20
-128.5010341345414
 30
0.0
  0
SPLINE
  5
C0
330
1F
100
AcDbEntity
  8
_U+30EC_U+30A4_U+30E4_U+30FC 1
 62
   179
420
  2234388
370
     9
100
AcDbSpline
210
0.0
220
0.0
230
1.0
 70
    11
 71
     3
 72
    17
 73
    13
 74
     0
 42
0.0000000001
 43
0.0000000001
 12
1.0
 22
0.0
 32
0.0
 13
1.0
 23
0.0
 33
0.0
 40
0.0
 40
0.0
 40
0.0
 40
0.0
 40
1.0
 40
1.0
 40
1.0
 40
2.0
 40
2.0
 40
2.0
 40
3.0
 40
3.0
 40
3.0
 40
4.0
 40
4.0
 40
4.0
 40
4.0
 10
112.6949287915795
 20
-127.7038269125185
 30
0.0
 10
112.6949287915795
 20
-127.6487230236433
 30
0.0
 10
112.6501260149447
 20
-127.6039202458769
 30
0.0
 10
112.5950249718511
 20
-127.6039202458769
 30
0.0
 10
112.5398829622017
 20
-127.6039202458769
 30
0.0
 10
112.4951154633438
 20
-127.6487230236433
 30
0.0
 10
112.4951154633438
 20
-127.7038269125185
 30
0.0
 10
112.4951154633438
 20
-127.7589660791713
 30
0.0
 10
112.5398829622017
 20
-127.8037335791602
 30
0.0
 10
112.5950249718511
 20
-127.8037335791602
 30
0.0
 10
112.6501260149447
 20
-127.8037335791602
 30
0.0
 10
112.6949287915795
 20
-127.7589660791713
 30
0.0
 10
112.6949287915795
 20
-127.7038269125185
 30
0.0
  0
POLYLINE
  5
C1
330
1F
100
AcDbEntity
  8
_U+30EC_U+30A4_U+30E4_U+30FC 1
 62
   179
420
  2234388
370
     9
100
AcDb2dPolyline
 66
     1
 10
0.0
 20
0.0
 30
0.0
  0
VERTEX
  5
C2
330
C1
100
AcDbEntity
  8
_U+30EC_U+30A4_U+30E4_U+30FC 1
 62
   179
420
  2234388
370
     9
100
AcDbVertex
100
AcDb2dVertex
 10
112.5950249718511
 20
-126.000933301833
 30
0.0
  0
VERTEX
  5
C3
330
C1
100
AcDbEntity
  8
_U+30EC_U+30A4_U+30E4_U+30FC 1
 62
   179
420
  2234388
370
     9
100
AcDbVertex
100
AcDb2dVertex
 10
112.5950249718511
 20
-120.7428510809255
 30
0.0
  0
SEQEND
  5
C4
330
C1
100
AcDbEntity
  8
_U+30EC_U+30A4_U+30E4_U+30FC 1
 62
   179
420
  2234388
370
     9
  0
POLYLINE
  5
C5
330
1F
100
AcDbEntity
  8
_U+30EC_U+30A4_U+30E4_U+30FC 1
 62
   179
420
  2234388
370
     9
100
AcDb2dPolyline
 66
     1
 10
0.0
 20
0.0
 30
0.0
  0
VERTEX
  5
C6
330
C5
100
AcDbEntity
  8
_U+30EC_U+30A4_U+30E4_U+30FC 1
 62
   179
420
  2234388
370
     9
100
AcDbVertex
100
AcDb2dVertex
 10
112.5950249718511
 20
-126.000933301833
 30
0.0
  0
VERTEX
  5
C7
330
C5
100
AcDbEntity
  8
_U+30EC_U+30A4_U+30E4_U+30FC 1
 62
   179
420
  2234388
370
     9
100
AcDbVertex
100
AcDb2dVertex
 10
112.5950249718511
 20
-129.5008063565139
 30
0.0
  0
SEQEND
  5
C8
330
C5
100
AcDbEntity
  8
_U+30EC_U+30A4_U+30E4_U+30FC 1
 62
   179
420
  2234388
370
     9
  0
POLYLINE
  5
C9
330
1F
100
AcDbEntity
  8
_U+30EC_U+30A4_U+30E4_U+30FC 1
 62
   179
420
  2234388
370
     9
100
AcDb2dPolyline
 66
     1
 10
0.0
 20
0.0
 30
0.0
  0
VERTEX
  5
CA
330
C9
100
AcDbEntity
  8
_U+30EC_U+30A4_U+30E4_U+30FC 1
 62
   179
420
  2234388
370
     9
100
AcDbVertex
100
AcDb2dVertex
 10
110.6344243997029
 20
-128.5010341345414
 30
0.0
  0
VERTEX
  5
CB
330
C9
100
AcDbEntity
  8
_U+30EC_U+30A4_U+30E4_U+30FC 1
 62
   179
420
  2234388
370
     9
100
AcDbVertex
100
AcDb2dVertex
 10
113.5954646019383
 20
-128.5010341345414
 30
0.0
  0
SEQEND
  5
CC
330
C9
100
AcDbEntity
  8
_U+30EC_U+30A4_U+30E4_U+30FC 1
 62
   179
420
  2234388
370
     9
  0
POLYLINE
  5
CD
330
1F
100
AcDbEntity
  8
_U+30EC_U+30A4_U+30E4_U+30FC 1
 62
   179
420
  2234388
370
     9
100
AcDb2dPolyline
 66
     1
 10
0.0
 20
0.0
 30
0.0
  0
VERTEX
  5
CE
330
CD
100
AcDbEntity
  8
_U+30EC_U+30A4_U+30E4_U+30FC 1
 62
   179
420
  2234388
370
     9
100
AcDbVertex
100
AcDb2dVertex
 10
110.6344243997029
 20
-127.7010752458524
 30
0.0
  0
VERTEX
  5
CF
330
CD
100
AcDbEntity
  8
_U+30EC_U+30A4_U+30E4_U+30FC 1
 62
   179
420
  2234388
370
     9
100
AcDbVertex
100
AcDb2dVertex
 10
113.5954646019383
 20
-127.7010752458524
 30
0.0
  0
SEQEND
  5
D0
330
CD
100
AcDbEntity
  8
_U+30EC_U+30A4_U+30E4_U+30FC 1
 62
   179
420
  2234388
370
     9
  0
INSERT
  5
D2
330
1F
100
AcDbEntity
  8
_U+30EC_U+30A4_U+30E4_U+30FC 1
100
AcDbBlockReference
  2
block 6
 10
0.0
 20
0.0
 30
0.0
  0
SPLINE
  5
E4
330
1F
100
AcDbEntity
  8
_U+30EC_U+30A4_U+30E4_U+30FC 1
370
     0
100
AcDbSpline
210
0.0
220
0.0
230
1.0
 70
    11
 71
     3
 72
    86
 73
    82
 74
     0
 42
0.0000000001
 43
0.0000000001
 12
1.0
 22
0.0
 32
0.0
 13
1.0
 23
0.0
 33
0.0
 40
0.0
 40
0.0
 40
0.0
 40
0.0
 40
1.0
 40
1.0
 40
1.0
 40
2.0
 40
2.0
 40
2.0
 40
3.0
 40
3.0
 40
3.0
 40
4.0
 40
4.0
 40
4.0
 40
5.0
 40
5.0
 40
5.0
 40
6.0
 40
6.0
 40
6.0
 40
7.0
 40
7.0
 40
7.0
 40
8.0
 40
8.0
 40
8.0
 40
9.0
 40
9.0
 40
9.0
 40
10.0
 40
10.0
 40
10.0
 40
11.0
 40
11.0
 40
11.0
 40
12.0
 40
12.0
 40
12.0
 40
13.0
 40
13.0
 40
13.0
 40
14.0
 40
14.0
 40
14.0
 40
15.0
 40
15.0
 40
15.0
 40
16.0
 40
16.0
 40
16.0
 40
17.0
 40
17.0
 40
17.0
 40
18.0
 40
18.0
 40
18.0
 40
19.0
 40
19.0
 40
19.0
 40
20.0
 40
20.0
 40
20.0
 40
21.0
 40
21.0
 40
21.0
 40
22.0
 40
22.0
 40
22.0
 40
23.0
 40
23.0
 40
23.0
 40
24.0
 40
24.0
 40
24.0
 40
25.0
 40
25.0
 40
25.0
 40
26.0
 40
26.0
 40
26.0
 40
27.0
 40
27.0
 40
27.0
 40
27.0
 10
74.1494772749559
 20
-140.0968749649758
 30
0.0
 10
72.31944442636458
 20
-136.2025257992827
 30
0.0
 10
72.26070510092028
 20
-132.5569555224165
 30
0.0
 10
74.56339143106274
 20
-128.5003285789862
 30
0.0
 10
74.56356781994712
 20
-128.5003285789862
 30
0.0
 10
84.14388313108847
 20
-128.5003285789862
 30
0.0
 10
86.46018886727379
 20
-128.5003285789862
 30
0.0
 10
86.68049639970741
 20
-128.1963046901731
 30
0.0
 10
86.95972220048229
 20
-127.6965949680757
 30
0.0
 10
86.95972220048229
 20
-127.6965949680757
 30
0.0
 10
86.95972220048229
 20
-127.6965949680757
 30
0.0
 10
87.47424637945717
 20
-128.5003285789862
 30
0.0
 10
87.47424637945717
 20
-128.5003285789862
 30
0.0
 10
87.47424637945717
 20
-128.5003285789862
 30
0.0
 10
96.05856664265184
 20
-128.5003285789862
 30
0.0
 10
96.05856664265184
 20
-128.5003285789862
 30
0.0
 10
96.05856664265184
 20
-128.5003285789862
 30
0.0
 10
96.55845275363843
 20
-127.7114116347388
 30
0.0
 10
96.55845275363843
 20
-127.7114116347388
 30
0.0
 10
96.55845275363843
 20
-127.7114116347388
 30
0.0
 10
97.05798608684663
 20
-128.5003285789862
 30
0.0
 10
97.05798608684663
 20
-128.5003285789862
 30
0.0
 10
97.05798608684663
 20
-128.5003285789862
 30
0.0
 10
105.6424805291452
 20
-128.5003285789862
 30
0.0
 10
105.6424805291452
 20
-128.5003285789862
 30
0.0
 10
105.6424805291452
 20
-128.5003285789862
 30
0.0
 10
106.1568305290162
 20
-127.7114116347388
 30
0.0
 10
106.1568305290162
 20
-127.7114116347388
 30
0.0
 10
106.1568305290162
 20
-127.7114116347388
 30
0.0
 10
106.6711805288878
 20
-128.5003285789862
 30
0.0
 10
106.6711805288878
 20
-128.5003285789862
 30
0.0
 10
106.6711805288878
 20
-128.5003285789862
 30
0.0
 10
109.5622974826107
 20
-128.5003285789862
 30
0.0
 10
109.5622974826107
 20
-128.5003285789862
 30
0.0
 10
109.5622974826107
 20
-128.5003285789862
 30
0.0
 10
109.5622974826107
 20
-127.7406921902869
 30
0.0
 10
109.5622974826107
 20
-127.7406921902869
 30
0.0
 10
109.5622974826107
 20
-127.7406921902869
 30
0.0
 10
107.9658369677842
 20
-125.9916199685021
 30
0.0
 10
107.9658369677842
 20
-125.9916199685021
 30
0.0
 10
107.9658369677842
 20
-125.9916199685021
 30
0.0
 10
104.3657045596313
 20
-125.9916199685021
 30
0.0
 10
104.3657045596313
 20
-125.9916199685021
 30
0.0
 10
104.1524856761821
 20
-126.2758530239865
 30
0.0
 10
103.8999320715141
 20
-126.5283713572567
 30
0.0
 10
103.6157343009868
 20
-126.7416255238702
 30
0.0
 10
101.9589840654763
 20
-127.9842499680039
 30
0.0
 10
99.6083905143338
 20
-127.6483702458658
 30
0.0
 10
98.36573330874202
 20
-125.9916199685021
 30
0.0
 10
98.36573330874202
 20
-125.9916199685021
 30
0.0
 10
94.76595119343028
 20
-125.9916199685021
 30
0.0
 10
94.76595119343028
 20
-125.9916199685021
 30
0.0
 10
94.55269703220418
 20
-126.2758530239865
 30
0.0
 10
94.30017870531313
 20
-126.5283713572567
 30
0.0
 10
94.01598330982948
 20
-126.7416255238702
 30
0.0
 10
92.3588779215065
 20
-127.9842499680039
 30
0.0
 10
90.00828437036402
 20
-127.6483702458658
 30
0.0
 10
88.76562467984469
 20
-125.9916199685021
 30
0.0
 10
88.76562467984469
 20
-125.9916199685021
 30
0.0
 10
85.16584720093076
 20
-125.9916199685021
 30
0.0
 10
85.16584720093076
 20
-125.9916199685021
 30
0.0
 10
84.9525908882344
 20
-126.2758530239865
 30
0.0
 10
84.70007256134335
 20
-126.5283713572567
 30
0.0
 10
84.41587479081606
 20
-126.7416255238702
 30
0.0
 10
82.75877177753672
 20
-127.9842499680039
 30
0.0
 10
80.40853100416302
 20
-127.6483702458658
 30
0.0
 10
79.16587131364369
 20
-125.9916199685021
 30
0.0
 10
79.16587131364369
 20
-125.9916199685021
 30
0.0
 10
73.66320839847276
 20
-126.0002277462778
 30
0.0
 10
73.66320839847276
 20
-126.0002277462778
 30
0.0
 10
72.07570843897327
 20
-129.5159405231763
 30
0.0
 10
71.13622775999363
 20
-133.9687369109522
 30
0.0
 10
72.10086149388711
 20
-137.7032071877963
 30
0.0
 10
72.61348286969793
 20
-139.2001138540891
 30
0.0
 10
73.14264952286445
 20
-139.9056694094682
 30
0.0
 10
73.90108644795954
 20
-140.474100242659
 30
0.0
 10
74.07437088798314
 20
-140.5977841315175
 30
0.0
 10
74.13621283084986
 20
-140.5485363537519
 30
0.0
 10
74.208038384573
 20
-140.436917464891
 30
0.0
 10
74.26455338313117
 20
-140.3490405204682
 30
0.0
 10
74.19703171818713
 20
-140.197487187173
 30
0.0
 10
74.1494772749559
 20
-140.0968749649758
 30
0.0
  0
HATCH
  5
E5
330
1F
100
AcDbEntity
  8
_U+30EC_U+30A4_U+30E4_U+30FC 1
 62
   252
420
  9607061
100
AcDbHatch
 10
0.0
 20
0.0
 30
0.0
210
0.0
220
0.0
230
1.0
  2
SOLID
 70
     1
 71
     0
 91
        1
 92
        1
 93
        1
 72
     4
 94
        3
 73
     0
 74
     1
 95
       86
 96
       82
 40
0.0
 40
0.0
 40
0.0
 40
0.0
 40
1.0
 40
1.0
 40
1.0
 40
2.0
 40
2.0
 40
2.0
 40
3.0
 40
3.0
 40
3.0
 40
4.0
 40
4.0
 40
4.0
 40
5.0
 40
5.0
 40
5.0
 40
6.0
 40
6.0
 40
6.0
 40
7.0
 40
7.0
 40
7.0
 40
8.0
 40
8.0
 40
8.0
 40
9.0
 40
9.0
 40
9.0
 40
10.0
 40
10.0
 40
10.0
 40
11.0
 40
11.0
 40
11.0
 40
12.0
 40
12.0
 40
12.0
 40
13.0
 40
13.0
 40
13.0
 40
14.0
 40
14.0
 40
14.0
 40
15.0
 40
15.0
 40
15.0
 40
16.0
 40
16.0
 40
16.0
 40
17.0
 40
17.0
 40
17.0
 40
18.0
 40
18.0
 40
18.0
 40
19.0
 40
19.0
 40
19.0
 40
20.0
 40
20.0
 40
20.0
 40
21.0
 40
21.0
 40
21.0
 40
22.0
 40
22.0
 40
22.0
 40
23.0
 40
23.0
 40
23.0
 40
24.0
 40
24.0
 40
24.0
 40
25.0
 40
25.0
 40
25.0
 40
26.0
 40
26.0
 40
26.0
 40
27.0
 40
27.0
 40
27.0
 40
27.0
 10
74.1494772749559
 20
-140.0968749649758
 10
72.31944442636458
 20
-136.2025257992827
 10
72.26070510092028
 20
-132.5569555224165
 10
74.56339143106274
 20
-128.5003285789862
 10
74.56356781994712
 20
-128.5003285789862
 10
84.14388313108847
 20
-128.5003285789862
 10
86.46018886727379
 20
-128.5003285789862
 10
86.68049639970741
 20
-128.1963046901731
 10
86.95972220048229
 20
-127.6965949680757
 10
86.95972220048229
 20
-127.6965949680757
 10
86.95972220048229
 20
-127.6965949680757
 10
87.47424637945717
 20
-128.5003285789862
 10
87.47424637945717
 20
-128.5003285789862
 10
87.47424637945717
 20
-128.5003285789862
 10
96.05856664265184
 20
-128.5003285789862
 10
96.05856664265184
 20
-128.5003285789862
 10
96.05856664265184
 20
-128.5003285789862
 10
96.55845275363843
 20
-127.7114116347388
 10
96.55845275363843
 20
-127.7114116347388
 10
96.55845275363843
 20
-127.7114116347388
 10
97.05798608684663
 20
-128.5003285789862
 10
97.05798608684663
 20
-128.5003285789862
 10
97.05798608684663
 20
-128.5003285789862
 10
105.6424805291452
 20
-128.5003285789862
 10
105.6424805291452
 20
-128.5003285789862
 10
105.6424805291452
 20
-128.5003285789862
 10
106.1568305290162
 20
-127.7114116347388
 10
106.1568305290162
 20
-127.7114116347388
 10
106.1568305290162
 20
-127.7114116347388
 10
106.6711805288878
 20
-128.5003285789862
 10
106.6711805288878
 20
-128.5003285789862
 10
106.6711805288878
 20
-128.5003285789862
 10
109.5622974826107
 20
-128.5003285789862
 10
109.5622974826107
 20
-128.5003285789862
 10
109.5622974826107
 20
-128.5003285789862
 10
109.5622974826107
 20
-127.7406921902869
 10
109.5622974826107
 20
-127.7406921902869
 10
109.5622974826107
 20
-127.7406921902869
 10
107.9658369677842
 20
-125.9916199685021
 10
107.9658369677842
 20
-125.9916199685021
 10
107.9658369677842
 20
-125.9916199685021
 10
104.3657045596313
 20
-125.9916199685021
 10
104.3657045596313
 20
-125.9916199685021
 10
104.1524856761821
 20
-126.2758530239865
 10
103.8999320715141
 20
-126.5283713572567
 10
103.6157343009868
 20
-126.7416255238702
 10
101.9589840654763
 20
-127.9842499680039
 10
99.6083905143338
 20
-127.6483702458658
 10
98.36573330874202
 20
-125.9916199685021
 10
98.36573330874202
 20
-125.9916199685021
 10
94.76595119343028
 20
-125.9916199685021
 10
94.76595119343028
 20
-125.9916199685021
 10
94.55269703220418
 20
-126.2758530239865
 10
94.30017870531313
 20
-126.5283713572567
 10
94.01598330982948
 20
-126.7416255238702
 10
92.3588779215065
 20
-127.9842499680039
 10
90.00828437036402
 20
-127.6483702458658
 10
88.76562467984469
 20
-125.9916199685021
 10
88.76562467984469
 20
-125.9916199685021
 10
85.16584720093076
 20
-125.9916199685021
 10
85.16584720093076
 20
-125.9916199685021
 10
84.9525908882344
 20
-126.2758530239865
 10
84.70007256134335
 20
-126.5283713572567
 10
84.41587479081606
 20
-126.7416255238702
 10
82.75877177753672
 20
-127.9842499680039
 10
80.40853100416302
 20
-127.6483702458658
 10
79.16587131364369
 20
-125.9916199685021
 10
79.16587131364369
 20
-125.9916199685021
 10
73.66320839847276
 20
-126.0002277462778
 10
73.66320839847276
 20
-126.0002277462778
 10
72.07570843897327
 20
-129.5159405231763
 10
71.13622775999363
 20
-133.9687369109522
 10
72.10086149388711
 20
-137.7032071877963
 10
72.61348286969793
 20
-139.2001138540891
 10
73.14264952286445
 20
-139.9056694094682
 10
73.90108644795954
 20
-140.474100242659
 10
74.07437088798314
 20
-140.5977841315175
 10
74.13621283084986
 20
-140.5485363537519
 10
74.208038384573
 20
-140.436917464891
 10
74.26455338313117
 20
-140.3490405204682
 10
74.19703171818713
 20
-140.197487187173
 10
74.1494772749559
 20
-140.0968749649758
 97
        0
 97
        0
 75
     2
 76
     1
 98
        0
  0
SPLINE
  5
E6
330
1F
100
AcDbEntity
  8
_U+30EC_U+30A4_U+30E4_U+30FC 1
 62
   179
420
  2234388
370
    25
100
AcDbSpline
210
0.0
220
0.0
230
1.0
 70
    11
 71
     3
 72
    86
 73
    82
 74
     0
 42
0.0000000001
 43
0.0000000001
 12
1.0
 22
0.0
 32
0.0
 13
1.0
 23
0.0
 33
0.0
 40
0.0
 40
0.0
 40
0.0
 40
0.0
 40
1.0
 40
1.0
 40
1.0
 40
2.0
 40
2.0
 40
2.0
 40
3.0
 40
3.0
 40
3.0
 40
4.0
 40
4.0
 40
4.0
 40
5.0
 40
5.0
 40
5.0
 40
6.0
 40
6.0
 40
6.0
 40
7.0
 40
7.0
 40
7.0
 40
8.0
 40
8.0
 40
8.0
 40
9.0
 40
9.0
 40
9.0
 40
10.0
 40
10.0
 40
10.0
 40
11.0
 40
11.0
 40
11.0
 40
12.0
 40
12.0
 40
12.0
 40
13.0
 40
13.0
 40
13.0
 40
14.0
 40
14.0
 40
14.0
 40
15.0
 40
15.0
 40
15.0
 40
16.0
 40
16.0
 40
16.0
 40
17.0
 40
17.0
 40
17.0
 40
18.0
 40
18.0
 40
18.0
 40
19.0
 40
19.0
 40
19.0
 40
20.0
 40
20.0
 40
20.0
 40
21.0
 40
21.0
 40
21.0
 40
22.0
 40
22.0
 40
22.0
 40
23.0
 40
23.0
 40
23.0
 40
24.0
 40
24.0
 40
24.0
 40
25.0
 40
25.0
 40
25.0
 40
26.0
 40
26.0
 40
26.0
 40
27.0
 40
27.0
 40
27.0
 40
27.0
 10
74.1494772749559
 20
-140.0968749649758
 30
0.0
 10
72.31944442636458
 20
-136.2025257992827
 30
0.0
 10
72.26070510092028
 20
-132.5569555224165
 30
0.0
 10
74.56339143106274
 20
-128.5003285789862
 30
0.0
 10
74.56356781994712
 20
-128.5003285789862
 30
0.0
 10
84.14388313108847
 20
-128.5003285789862
 30
0.0
 10
86.46018886727379
 20
-128.5003285789862
 30
0.0
 10
86.68049639970741
 20
-128.1963046901731
 30
0.0
 10
86.95972220048229
 20
-127.6965949680757
 30
0.0
 10
86.95972220048229
 20
-127.6965949680757
 30
0.0
 10
86.95972220048229
 20
-127.6965949680757
 30
0.0
 10
87.47424637945717
 20
-128.5003285789862
 30
0.0
 10
87.47424637945717
 20
-128.5003285789862
 30
0.0
 10
87.47424637945717
 20
-128.5003285789862
 30
0.0
 10
96.05856664265184
 20
-128.5003285789862
 30
0.0
 10
96.05856664265184
 20
-128.5003285789862
 30
0.0
 10
96.05856664265184
 20
-128.5003285789862
 30
0.0
 10
96.55845275363843
 20
-127.7114116347388
 30
0.0
 10
96.55845275363843
 20
-127.7114116347388
 30
0.0
 10
96.55845275363843
 20
-127.7114116347388
 30
0.0
 10
97.05798608684663
 20
-128.5003285789862
 30
0.0
 10
97.05798608684663
 20
-128.5003285789862
 30
0.0
 10
97.05798608684663
 20
-128.5003285789862
 30
0.0
 10
105.6424805291452
 20
-128.5003285789862
 30
0.0
 10
105.6424805291452
 20
-128.5003285789862
 30
0.0
 10
105.6424805291452
 20
-128.5003285789862
 30
0.0
 10
106.1568305290162
 20
-127.7114116347388
 30
0.0
 10
106.1568305290162
 20
-127.7114116347388
 30
0.0
 10
106.1568305290162
 20
-127.7114116347388
 30
0.0
 10
106.6711805288878
 20
-128.5003285789862
 30
0.0
 10
106.6711805288878
 20
-128.5003285789862
 30
0.0
 10
106.6711805288878
 20
-128.5003285789862
 30
0.0
 10
109.5622974826107
 20
-128.5003285789862
 30
0.0
 10
109.5622974826107
 20
-128.5003285789862
 30
0.0
 10
109.5622974826107
 20
-128.5003285789862
 30
0.0
 10
109.5622974826107
 20
-127.7406921902869
 30
0.0
 10
109.5622974826107
 20
-127.7406921902869
 30
0.0
 10
109.5622974826107
 20
-127.7406921902869
 30
0.0
 10
107.9658369677842
 20
-125.9916199685021
 30
0.0
 10
107.9658369677842
 20
-125.9916199685021
 30
0.0
 10
107.9658369677842
 20
-125.9916199685021
 30
0.0
 10
104.3657045596313
 20
-125.9916199685021
 30
0.0
 10
104.3657045596313
 20
-125.9916199685021
 30
0.0
 10
104.1524856761821
 20
-126.2758530239865
 30
0.0
 10
103.8999320715141
 20
-126.5283713572567
 30
0.0
 10
103.6157343009868
 20
-126.7416255238702
 30
0.0
 10
101.9589840654763
 20
-127.9842499680039
 30
0.0
 10
99.6083905143338
 20
-127.6483702458658
 30
0.0
 10
98.36573330874202
 20
-125.9916199685021
 30
0.0
 10
98.36573330874202
 20
-125.9916199685021
 30
0.0
 10
94.76595119343028
 20
-125.9916199685021
 30
0.0
 10
94.76595119343028
 20
-125.9916199685021
 30
0.0
 10
94.55269703220418
 20
-126.2758530239865
 30
0.0
 10
94.30017870531313
 20
-126.5283713572567
 30
0.0
 10
94.01598330982948
 20
-126.7416255238702
 30
0.0
 10
92.3588779215065
 20
-127.9842499680039
 30
0.0
 10
90.00828437036402
 20
-127.6483702458658
 30
0.0
 10
88.76562467984469
 20
-125.9916199685021
 30
0.0
 10
88.76562467984469
 20
-125.9916199685021
 30
0.0
 10
85.16584720093076
 20
-125.9916199685021
 30
0.0
 10
85.16584720093076
 20
-125.9916199685021
 30
0.0
 10
84.9525908882344
 20
-126.2758530239865
 30
0.0
 10
84.70007256134335
 20
-126.5283713572567
 30
0.0
 10
84.41587479081606
 20
-126.7416255238702
 30
0.0
 10
82.75877177753672
 20
-127.9842499680039
 30
0.0
 10
80.40853100416302
 20
-127.6483702458658
 30
0.0
 10
79.16587131364369
 20
-125.9916199685021
 30
0.0
 10
79.16587131364369
 20
-125.9916199685021
 30
0.0
 10
73.66320839847276
 20
-126.0002277462778
 30
0.0
 10
73.66320839847276
 20
-126.0002277462778
 30
0.0
 10
72.07570843897327
 20
-129.5159405231763
 30
0.0
 10
71.13622775999363
 20
-133.9687369109522
 30
0.0
 10
72.10086149388711
 20
-137.7032071877963
 30
0.0
 10
72.61348286969793
 20
-139.2001138540891
 30
0.0
 10
73.14264952286445
 20
-139.9056694094682
 30
0.0
 10
73.90108644795954
 20
-140.474100242659
 30
0.0
 10
74.07437088798314
 20
-140.5977841315175
 30
0.0
 10
74.13621283084986
 20
-140.5485363537519
 30
0.0
 10
74.208038384573
 20
-140.436917464891
 30
0.0
 10
74.26455338313117
 20
-140.3490405204682
 30
0.0
 10
74.19703171818713
 20
-140.197487187173
 30
0.0
 10
74.1494772749559
 20
-140.0968749649758
 30
0.0
  0
ENDSEC
  0
SECTION
  2
OBJECTS
  0
DICTIONARY
  5
C
330
0
100
AcDbDictionary
281
     1
  3
ACAD_GROUP
350
D
  3
ACAD_LAYOUT
350
1A
  3
ACAD_MATERIAL
350
3B
  3
ACAD_MLEADERSTYLE
350
E8
  3
ACAD_MLINESTYLE
350
17
  3
ACAD_PLOTSETTINGS
350
19
  3
ACAD_PLOTSTYLENAME
350
E
  3
ACAD_TABLESTYLE
350
E7
  3
ACAD_VISUALSTYLE
350
2A
  0
SUN
  5
3F
330
29
100
AcDbSun
 90
        1
290
     0
 63
     7
421
 16777215
 40
1.0
291
     1
 91
  2455826
 92
 54000000
292
     0
 70
     2
 71
   256
280
     1
  0
DICTIONARY
  5
D
102
{ACAD_REACTORS
330
C
102
}
330
C
100
AcDbDictionary
281
     1
  0
DICTIONARY
  5
1A
102
{ACAD_REACTORS
330
C
102
}
330
C
100
AcDbDictionary
281
     1
  3
Layout1
350
1E
  3
Layout2
350
26
  3
Model
350
22
  0
DICTIONARY
  5
3B
102
{ACAD_REACTORS
330
C
102
}
330
C
100
AcDbDictionary
281
     1
  3
ByBlock
350
3D
  3
ByLayer
350
3C
  3
Global
350
3E
  0
DICTIONARY
  5
E8
102
{ACAD_REACTORS
330
C
102
}
330
C
100
AcDbDictionary
281
     1
  0
DICTIONARY
  5
17
102
{ACAD_REACTORS
330
C
102
}
330
C
100
AcDbDictionary
281
     1
  3
Standard
350
18
  0
DICTIONARY
  5
19
102
{ACAD_REACTORS
330
C
102
}
330
C
100
AcDbDictionary
281
     1
  0
ACDBDICTIONARYWDFLT
  5
E
102
{ACAD_REACTORS
330
C
102
}
330
C
100
AcDbDictionary
281
     1
  3
Normal
350
F
100
AcDbDictionaryWithDefault
340
F
  0
DICTIONARY
  5
E7
102
{ACAD_REACTORS
330
C
102
}
330
C
100
AcDbDictionary
281
     1
  0
DICTIONARY
  5
2A
102
{ACAD_REACTORS
330
C
102
}
330
C
100
AcDbDictionary
281
     1
  3
2dWireframe
350
2F
  3
3D Hidden
350
31
  3
3dWireframe
350
30
  3
Basic
350
32
  3
Brighten
350
36
  3
ColorChange
350
3A
  3
Conceptual
350
34
  3
Dim
350
35
  3
Facepattern
350
39
  3
Flat
350
2B
  3
FlatWithEdges
350
2C
  3
Gouraud
350
2D
  3
GouraudWithEdges
350
2E
  3
Linepattern
350
38
  3
Realistic
350
33
  3
Thicken
350
37
  0
LAYOUT
  5
1E
102
{ACAD_REACTORS
330
1A
102
}
330
1A
100
AcDbPlotSettings
  1

  2
none_device
  4

  6

 40
0.0
 41
0.0
 42
0.0
 43
0.0
 44
0.0
 45
0.0
 46
0.0
 47
0.0
 48
0.0
 49
0.0
140
0.0
141
0.0
142
1.0
143
1.0
 70
   688
 72
     0
 73
     0
 74
     5
  7

 75
    16
 76
     0
 77
     2
 78
   300
147
1.0
148
0.0
149
0.0
100
AcDbLayout
  1
Layout1
 70
     1
 71
     1
 10
0.0
 20
0.0
 11
12.0
 21
9.0
 12
0.0
 22
0.0
 32
0.0
 14
1.000000000000000E+20
 24
1.000000000000000E+20
 34
1.000000000000000E+20
 15
-1.000000000000000E+20
 25
-1.000000000000000E+20
 35
-1.000000000000000E+20
146
0.0
 13
0.0
 23
0.0
 33
0.0
 16
1.0
 26
0.0
 36
0.0
 17
0.0
 27
1.0
 37
0.0
 76
     0
330
1B
  0
LAYOUT
  5
26
102
{ACAD_REACTORS
330
1A
102
}
330
1A
100
AcDbPlotSettings
  1

  2
none_device
  4

  6

 40
0.0
 41
0.0
 42
0.0
 43
0.0
 44
0.0
 45
0.0
 46
0.0
 47
0.0
 48
0.0
 49
0.0
140
0.0
141
0.0
142
1.0
143
1.0
 70
   688
 72
     0
 73
     0
 74
     5
  7

 75
    16
 76
     0
 77
     2
 78
   300
147
1.0
148
0.0
149
0.0
100
AcDbLayout
  1
Layout2
 70
     1
 71
     2
 10
0.0
 20
0.0
 11
0.0
 21
0.0
 12
0.0
 22
0.0
 32
0.0
 14
0.0
 24
0.0
 34
0.0
 15
0.0
 25
0.0
 35
0.0
146
0.0
 13
0.0
 23
0.0
 33
0.0
 16
1.0
 26
0.0
 36
0.0
 17
0.0
 27
1.0
 37
0.0
 76
     0
330
23
  0
LAYOUT
  5
22
102
{ACAD_REACTORS
330
1A
102
}
330
1A
100
AcDbPlotSettings
  1

  2
none_device
  4

  6

 40
0.0
 41
0.0
 42
0.0
 43
0.0
 44
0.0
 45
0.0
 46
0.0
 47
0.0
 48
0.0
 49
0.0
140
0.0
141
0.0
142
1.0
143
1.0
 70
  1712
 72
     0
 73
     0
 74
     0
  7

 75
     0
 76
     0
 77
     2
 78
   300
147
1.0
148
0.0
149
0.0
100
AcDbLayout
  1
Model
 70
     1
 71
     0
 10
0.0
 20
0.0
 11
12.0
 21
9.0
 12
0.0
 22
0.0
 32
0.0
 14
1.000000000000000E+20
 24
1.000000000000000E+20
 34
1.000000000000000E+20
 15
-1.000000000000000E+20
 25
-1.000000000000000E+20
 35
-1.000000000000000E+20
146
0.0
 13
0.0
 23
0.0
 33
0.0
 16
1.0
 26
0.0
 36
0.0
 17
0.0
 27
1.0
 37
0.0
 76
     0
330
1F
331
29
  0
MATERIAL
  5
3D
102
{ACAD_REACTORS
330
3B
102
}
330
3B
100
AcDbMaterial
  1
ByBlock
 72
     1
 94
      127
  0
MATERIAL
  5
3C
102
{ACAD_REACTORS
330
3B
102
}
330
3B
100
AcDbMaterial
  1
ByLayer
 72
     1
 94
      127
  0
MATERIAL
  5
3E
102
{ACAD_REACTORS
330
3B
102
}
330
3B
100
AcDbMaterial
  1
Global
 72
     1
 94
      127
  0
MLINESTYLE
  5
18
102
{ACAD_REACTORS
330
17
102
}
330
17
100
AcDbMlineStyle
  2
Standard
 70
     0
  3

 62
   256
 51
90.0
 52
90.0
 71
     2
 49
0.5
 62
   256
  6
BYLAYER
 49
-0.5
 62
   256
  6
BYLAYER
  0
ACDBPLACEHOLDER
  5
F
102
{ACAD_REACTORS
330
E
102
}
330
E
  0
VISUALSTYLE
  5
2F
102
{ACAD_REACTORS
330
2A
102
}
330
2A
100
AcDbVisualStyle
  2
2dWireframe
 70
     4
177
     2
291
     0
 71
     0
176
     1
 72
     2
176
     1
 73
     0
176
     1
 90
        0
176
     1
 40
-0.6
176
     1
 41
-30.0
176
     1
 62
     5
 63
     7
421
 16777215
176
     1
 74
     1
176
     1
 91
        4
176
     1
 64
     7
176
     1
 65
   257
176
     1
 75
     1
176
     1
175
     1
176
     1
 42
1.0
176
     1
 92
        0
176
     1
 66
   257
176
     1
 43
1.0
176
     1
 76
     1
176
     1
 77
     6
176
     1
 78
     2
176
     1
 67
     7
176
     1
 79
     5
176
     1
170
     0
176
     1
171
     0
176
     1
290
     0
176
     1
 93
        1
176
     1
 44
0.0
176
     1
173
     0
176
     1
  0
VISUALSTYLE
  5
31
102
{ACAD_REACTORS
330
2A
102
}
330
2A
100
AcDbVisualStyle
  2
3D Hidden
 70
     6
177
     2
291
     0
 71
     1
176
     1
 72
     2
176
     1
 73
     2
176
     1
 90
        0
176
     1
 40
-0.6
176
     1
 41
-30.0
176
     1
 62
     5
 63
     7
421
 16777215
176
     1
 74
     2
176
     1
 91
        2
176
     1
 64
     7
176
     1
 65
   257
176
     1
 75
     2
176
     1
175
     1
176
     1
 42
40.0
176
     1
 92
        0
176
     1
 66
   257
176
     1
 43
1.0
176
     1
 76
     1
176
     1
 77
     6
176
     1
 78
     2
176
     1
 67
     7
176
     1
 79
     3
176
     1
170
     0
176
     1
171
     0
176
     1
290
     0
176
     1
 93
        1
176
     1
 44
0.0
176
     1
173
     0
176
     1
  0
VISUALSTYLE
  5
30
102
{ACAD_REACTORS
330
2A
102
}
330
2A
100
AcDbVisualStyle
  2
3dWireframe
 70
     5
177
     2
291
     0
 71
     0
176
     1
 72
     2
176
     1
 73
     0
176
     1
 90
        0
176
     1
 40
-0.6
176
     1
 41
-30.0
176
     1
 62
     5
 63
     7
421
 16777215
176
     1
 74
     1
176
     1
 91
        4
176
     1
 64
     7
176
     1
 65
   257
176
     1
 75
     1
176
     1
175
     1
176
     1
 42
1.0
176
     1
 92
        0
176
     1
 66
   257
176
     1
 43
1.0
176
     1
 76
     1
176
     1
 77
     6
176
     1
 78
     2
176
     1
 67
     7
176
     1
 79
     5
176
     1
170
     0
176
     1
171
     0
176
     1
290
     0
176
     1
 93
        1
176
     1
 44
0.0
176
     1
173
     0
176
     1
  0
VISUALSTYLE
  5
32
102
{ACAD_REACTORS
330
2A
102
}
330
2A
100
AcDbVisualStyle
  2
Basic
 70
     7
177
     2
291
     1
 71
     1
176
     1
 72
     0
176
     1
 73
     1
176
     1
 90
        0
176
     1
 40
-0.6
176
     1
 41
-30.0
176
     1
 62
     5
 63
     7
421
 16777215
176
     1
 74
     0
176
     1
 91
        4
176
     1
 64
     7
176
     1
 65
   257
176
     1
 75
     1
176
     1
175
     1
176
     1
 42
1.0
176
     1
 92
        8
176
     1
 66
     7
176
     1
 43
1.0
176
     1
 76
     1
176
     1
 77
     6
176
     1
 78
     2
176
     1
 67
     7
176
     1
 79
     5
176
     1
170
     0
176
     1
171
     0
176
     1
290
     0
176
     1
 93
        1
176
     1
 44
0.0
176
     1
173
     0
176
     1
  0
VISUALSTYLE
  5
36
102
{ACAD_REACTORS
330
2A
102
}
330
2A
100
AcDbVisualStyle
  2
Brighten
 70
    12
177
     2
291
     1
 71
     2
176
     1
 72
     2
176
     1
 73
     0
176
     1
 90
        0
176
     1
 40
-0.6
176
     1
 41
-30.0
176
     1
 62
     5
 63
     7
421
 16777215
176
     1
 74
     1
176
     1
 91
        4
176
     1
 64
     7
176
     1
 65
   257
176
     1
 75
     1
176
     1
175
     1
176
     1
 42
1.0
176
     1
 92
        8
176
     1
 66
     7
176
     1
 43
1.0
176
     1
 76
     1
176
     1
 77
     6
176
     1
 78
     2
176
     1
 67
     7
176
     1
 79
     5
176
     1
170
     0
176
     1
171
     0
176
     1
290
     0
176
     1
 93
        1
176
     1
 44
50.0
176
     1
173
     0
176
     1
  0
VISUALSTYLE
  5
3A
102
{ACAD_REACTORS
330
2A
102
}
330
2A
100
AcDbVisualStyle
  2
ColorChange
 70
    16
177
     2
291
     1
 71
     2
176
     1
 72
     2
176
     1
 73
     3
176
     1
 90
        0
176
     1
 40
-0.6
176
     1
 41
-30.0
176
     1
 62
     5
 63
     8
421
  8421504
176
     1
 74
     1
176
     1
 91
        4
176
     1
 64
     7
176
     1
 65
   257
176
     1
 75
     1
176
     1
175
     1
176
     1
 42
1.0
176
     1
 92
        8
176
     1
 66
     8
424
  8421504
176
     1
 43
1.0
176
     1
 76
     1
176
     1
 77
     6
176
     1
 78
     2
176
     1
 67
     7
176
     1
 79
     5
176
     1
170
     0
176
     1
171
     0
176
     1
290
     0
176
     1
 93
        1
176
     1
 44
0.0
176
     1
173
     0
176
     1
  0
VISUALSTYLE
  5
34
102
{ACAD_REACTORS
330
2A
102
}
330
2A
100
AcDbVisualStyle
  2
Conceptual
 70
     9
177
     2
291
     0
 71
     3
176
     1
 72
     2
176
     1
 73
     0
176
     1
 90
        0
176
     1
 40
-0.6
176
     1
 41
-30.0
176
     1
 62
     5
 63
     7
421
 16777215
176
     1
 74
     2
176
     1
 91
        2
176
     1
 64
     7
176
     1
 65
   257
176
     1
 75
     1
176
     1
175
     1
176
     1
 42
40.0
176
     1
 92
        8
176
     1
 66
     7
176
     1
 43
1.0
176
     1
 76
     1
176
     1
 77
     6
176
     1
 78
     2
176
     1
 67
     7
176
     1
 79
     3
176
     1
170
     0
176
     1
171
     0
176
     1
290
     0
176
     1
 93
        1
176
     1
 44
0.0
176
     1
173
     0
176
     1
  0
VISUALSTYLE
  5
35
102
{ACAD_REACTORS
330
2A
102
}
330
2A
100
AcDbVisualStyle
  2
Dim
 70
    11
177
     2
291
     1
 71
     2
176
     1
 72
     2
176
     1
 73
     0
176
     1
 90
        0
176
     1
 40
-0.6
176
     1
 41
-30.0
176
     1
 62
     5
 63
     7
421
 16777215
176
     1
 74
     1
176
     1
 91
        4
176
     1
 64
     7
176
     1
 65
   257
176
     1
 75
     1
176
     1
175
     1
176
     1
 42
1.0
176
     1
 92
        8
176
     1
 66
     7
176
     1
 43
1.0
176
     1
 76
     1
176
     1
 77
     6
176
     1
 78
     2
176
     1
 67
     7
176
     1
 79
     5
176
     1
170
     0
176
     1
171
     0
176
     1
290
     0
176
     1
 93
        1
176
     1
 44
-50.0
176
     1
173
     0
176
     1
  0
VISUALSTYLE
  5
39
102
{ACAD_REACTORS
330
2A
102
}
330
2A
100
AcDbVisualStyle
  2
Facepattern
 70
    15
177
     2
291
     1
 71
     2
176
     1
 72
     2
176
     1
 73
     0
176
     1
 90
        0
176
     1
 40
-0.6
176
     1
 41
-30.0
176
     1
 62
     5
 63
     7
421
 16777215
176
     1
 74
     1
176
     1
 91
        4
176
     1
 64
     7
176
     1
 65
   257
176
     1
 75
     1
176
     1
175
     1
176
     1
 42
1.0
176
     1
 92
        8
176
     1
 66
     7
176
     1
 43
1.0
176
     1
 76
     1
176
     1
 77
     6
176
     1
 78
     2
176
     1
 67
     7
176
     1
 79
     5
176
     1
170
     0
176
     1
171
     0
176
     1
290
     0
176
     1
 93
        1
176
     1
 44
0.0
176
     1
173
     0
176
     1
  0
VISUALSTYLE
  5
2B
102
{ACAD_REACTORS
330
2A
102
}
330
2A
100
AcDbVisualStyle
  2
Flat
 70
     0
177
     2
291
     1
 71
     2
176
     1
 72
     1
176
     1
 73
     1
176
     1
 90
        2
176
     1
 40
-0.6
176
     1
 41
30.0
176
     1
 62
     5
 63
     7
421
 16777215
176
     1
 74
     0
176
     1
 91
        4
176
     1
 64
     7
176
     1
 65
   257
176
     1
 75
     1
176
     1
175
     1
176
     1
 42
1.0
176
     1
 92
        8
176
     1
 66
     7
176
     1
 43
1.0
176
     1
 76
     1
176
     1
 77
     6
176
     1
 78
     2
176
     1
 67
     7
176
     1
 79
     5
176
     1
170
     0
176
     1
171
     0
176
     1
290
     0
176
     1
 93
       13
176
     1
 44
0.0
176
     1
173
     0
176
     1
  0
VISUALSTYLE
  5
2C
102
{ACAD_REACTORS
330
2A
102
}
330
2A
100
AcDbVisualStyle
  2
FlatWithEdges
 70
     1
177
     2
291
     1
 71
     2
176
     1
 72
     1
176
     1
 73
     1
176
     1
 90
        2
176
     1
 40
-0.6
176
     1
 41
30.0
176
     1
 62
     5
 63
     7
421
 16777215
176
     1
 74
     1
176
     1
 91
        4
176
     1
 64
     7
176
     1
 65
   257
176
     1
 75
     1
176
     1
175
     1
176
     1
 42
1.0
176
     1
 92
        0
176
     1
 66
   257
176
     1
 43
1.0
176
     1
 76
     1
176
     1
 77
     6
176
     1
 78
     2
176
     1
 67
     7
176
     1
 79
     5
176
     1
170
     0
176
     1
171
     0
176
     1
290
     0
176
     1
 93
       13
176
     1
 44
0.0
176
     1
173
     0
176
     1
  0
VISUALSTYLE
  5
2D
102
{ACAD_REACTORS
330
2A
102
}
330
2A
100
AcDbVisualStyle
  2
Gouraud
 70
     2
177
     2
291
     1
 71
     2
176
     1
 72
     2
176
     1
 73
     1
176
     1
 90
        2
176
     1
 40
-0.6
176
     1
 41
30.0
176
     1
 62
     5
 63
     7
421
 16777215
176
     1
 74
     0
176
     1
 91
        4
176
     1
 64
     7
176
     1
 65
   257
176
     1
 75
     1
176
     1
175
     1
176
     1
 42
1.0
176
     1
 92
        0
176
     1
 66
     7
176
     1
 43
1.0
176
     1
 76
     1
176
     1
 77
     6
176
     1
 78
     2
176
     1
 67
     7
176
     1
 79
     5
176
     1
170
     0
176
     1
171
     0
176
     1
290
     0
176
     1
 93
       13
176
     1
 44
0.0
176
     1
173
     0
176
     1
  0
VISUALSTYLE
  5
2E
102
{ACAD_REACTORS
330
2A
102
}
330
2A
100
AcDbVisualStyle
  2
GouraudWithEdges
 70
     3
177
     2
291
     1
 71
     2
176
     1
 72
     2
176
     1
 73
     1
176
     1
 90
        2
176
     1
 40
-0.6
176
     1
 41
30.0
176
     1
 62
     5
 63
     7
421
 16777215
176
     1
 74
     1
176
     1
 91
        4
176
     1
 64
     7
176
     1
 65
   257
176
     1
 75
     1
176
     1
175
     1
176
     1
 42
1.0
176
     1
 92
        0
176
     1
 66
   257
176
     1
 43
1.0
176
     1
 76
     1
176
     1
 77
     6
176
     1
 78
     2
176
     1
 67
     7
176
     1
 79
     5
176
     1
170
     0
176
     1
171
     0
176
     1
290
     0
176
     1
 93
       13
176
     1
 44
0.0
176
     1
173
     0
176
     1
  0
VISUALSTYLE
  5
38
102
{ACAD_REACTORS
330
2A
102
}
330
2A
100
AcDbVisualStyle
  2
Linepattern
 70
    14
177
     2
291
     1
 71
     2
176
     1
 72
     2
176
     1
 73
     0
176
     1
 90
        0
176
     1
 40
-0.6
176
     1
 41
-30.0
176
     1
 62
     5
 63
     7
421
 16777215
176
     1
 74
     1
176
     1
 91
        4
176
     1
 64
     7
176
     1
 65
   257
176
     1
 75
     7
176
     1
175
     7
176
     1
 42
1.0
176
     1
 92
        8
176
     1
 66
     7
176
     1
 43
1.0
176
     1
 76
     1
176
     1
 77
     6
176
     1
 78
     2
176
     1
 67
     7
176
     1
 79
     5
176
     1
170
     0
176
     1
171
     0
176
     1
290
     0
176
     1
 93
        1
176
     1
 44
0.0
176
     1
173
     0
176
     1
  0
VISUALSTYLE
  5
33
102
{ACAD_REACTORS
330
2A
102
}
330
2A
100
AcDbVisualStyle
  2
Realistic
 70
     8
177
     2
291
     0
 71
     2
176
     1
 72
     2
176
     1
 73
     0
176
     1
 90
        0
176
     1
 40
-0.6
176
     1
 41
-30.0
176
     1
 62
     5
 63
     7
421
 16777215
176
     1
 74
     1
176
     1
 91
        0
176
     1
 64
     7
176
     1
 65
   257
176
     1
 75
     1
176
     1
175
     1
176
     1
 42
1.0
176
     1
 92
        8
176
     1
 66
     8
424
  7895160
176
     1
 43
1.0
176
     1
 76
     1
176
     1
 77
     6
176
     1
 78
     2
176
     1
 67
     7
176
     1
 79
     5
176
     1
170
     0
176
     1
171
     0
176
     1
290
     0
176
     1
 93
       13
176
     1
 44
0.0
176
     1
173
     0
176
     1
  0
VISUALSTYLE
  5
37
102
{ACAD_REACTORS
330
2A
102
}
330
2A
100
AcDbVisualStyle
  2
Thicken
 70
    13
177
     2
291
     1
 71
     2
176
     1
 72
     2
176
     1
 73
     0
176
     1
 90
        0
176
     1
 40
-0.6
176
     1
 41
-30.0
176
     1
 62
     5
 63
     7
421
 16777215
176
     1
 74
     1
176
     1
 91
        4
176
     1
 64
     7
176
     1
 65
   257
176
     1
 75
     1
176
     1
175
     1
176
     1
 42
1.0
176
     1
 92
       12
176
     1
 66
     7
176
     1
 43
1.0
176
     1
 76
     1
176
     1
 77
     6
176
     1
 78
     2
176
     1
 67
     7
176
     1
 79
     5
176
     1
170
     0
176
     1
171
     0
176
     1
290
     0
176
     1
 93
        1
176
     1
 44
0.0
176
     1
173
     0
176
     1
  0
ENDSEC
  0
EOF
