  0
SECTION
  2
HEADER
  9
$ACADVER
  1
AC1024
  9
$ACADMAINTVER
 70
     6
  9
$DWGCODEPAGE
  3
UNDEFINED
  9
$INSBASE
 10
0.0
 20
0.0
 30
0.0
  9
$EXTMIN
 10
1.000000000000000E+20
 20
1.000000000000000E+20
 30
1.000000000000000E+20
  9
$EXTMAX
 10
-1.000000000000000E+20
 20
-1.000000000000000E+20
 30
-1.000000000000000E+20
  9
$LIMMIN
 10
0.0
 20
0.0
  9
$LIMMAX
 10
12.0
 20
9.0
  9
$ORTHOMODE
 70
     0
  9
$REGENMODE
 70
     1
  9
$FILLMODE
 70
     1
  9
$QTEXTMODE
 70
     0
  9
$MIRRTEXT
 70
     1
  9
$LTSCALE
 40
1.0
  9
$ATTMODE
 70
     1
  9
$TEXTSIZE
 40
0.2
  9
$TRACEWID
 40
0.05
  9
$TEXTSTYLE
  7
Standard
  9
$CLAYER
  8
0
  9
$CELTYPE
  6
ByLayer
  9
$CECOLOR
 62
   256
  9
$CELTSCALE
 40
1.0
  9
$DISPSILH
 70
     0
  9
$DIMSCALE
 40
1.0
  9
$DIMASZ
 40
0.18
  9
$DIMEXO
 40
0.0625
  9
$DIMDLI
 40
0.38
  9
$DIMRND
 40
0.0
  9
$DIMDLE
 40
0.0
  9
$DIMEXE
 40
0.18
  9
$DIMTP
 40
0.0
  9
$DIMTM
 40
0.0
  9
$DIMTXT
 40
0.18
  9
$DIMCEN
 40
0.09
  9
$DIMTSZ
 40
0.0
  9
$DIMTOL
 70
     0
  9
$DIMLIM
 70
     0
  9
$DIMTIH
 70
     1
  9
$DIMTOH
 70
     1
  9
$DIMSE1
 70
     0
  9
$DIMSE2
 70
     0
  9
$DIMTAD
 70
     0
  9
$DIMZIN
 70
     0
  9
$DIMBLK
  1

  9
$DIMASO
 70
     1
  9
$DIMSHO
 70
     1
  9
$DIMPOST
  1

  9
$DIMAPOST
  1

  9
$DIMALT
 70
     0
  9
$DIMALTD
 70
     2
  9
$DIMALTF
 40
25.4
  9
$DIMLFAC
 40
1.0
  9
$DIMTOFL
 70
     0
  9
$DIMTVP
 40
0.0
  9
$DIMTIX
 70
     0
  9
$DIMSOXD
 70
     0
  9
$DIMSAH
 70
     0
  9
$DIMBLK1
  1

  9
$DIMBLK2
  1

  9
$DIMSTYLE
  2
Standard
  9
$DIMCLRD
 70
     0
  9
$DIMCLRE
 70
     0
  9
$DIMCLRT
 70
     0
  9
$DIMTFAC
 40
1.0
  9
$DIMGAP
 40
0.09
  9
$DIMJUST
 70
     0
  9
$DIMSD1
 70
     0
  9
$DIMSD2
 70
     0
  9
$DIMTOLJ
 70
     1
  9
$DIMTZIN
 70
     0
  9
$DIMALTZ
 70
     0
  9
$DIMALTTZ
 70
     0
  9
$DIMUPT
 70
     0
  9
$DIMDEC
 70
     4
  9
$DIMTDEC
 70
     4
  9
$DIMALTU
 70
     2
  9
$DIMALTTD
 70
     2
  9
$DIMTXSTY
  7
Standard
  9
$DIMAUNIT
 70
     0
  9
$DIMADEC
 70
     0
  9
$DIMALTRND
 40
0.0
  9
$DIMAZIN
 70
     0
  9
$DIMDSEP
 70
    46
  9
$DIMATFIT
 70
     3
  9
$DIMFRAC
 70
     0
  9
$DIMLDRBLK
  1

  9
$DIMLUNIT
 70
     2
  9
$DIMLWD
 70
    -2
  9
$DIMLWE
 70
    -2
  9
$DIMTMOVE
 70
     0
  9
$DIMFXL
 40
1.0
  9
$DIMFXLON
 70
     0
  9
$DIMJOGANG
 40
0.7853981633974483
  9
$DIMTFILL
 70
     0
  9
$DIMTFILLCLR
 70
     0
  9
$DIMARCSYM
 70
     0
  9
$DIMLTYPE
  6

  9
$DIMLTEX1
  6

  9
$DIMLTEX2
  6

  9
$DIMTXTDIRECTION
 70
     0
  9
$LUNITS
 70
     2
  9
$LUPREC
 70
     4
  9
$SKETCHINC
 40
0.1
  9
$FILLETRAD
 40
0.5
  9
$AUNITS
 70
     0
  9
$AUPREC
 70
     0
  9
$MENU
  1
.
  9
$ELEVATION
 40
0.0
  9
$PELEVATION
 40
0.0
  9
$THICKNESS
 40
0.0
  9
$LIMCHECK
 70
     0
  9
$CHAMFERA
 40
0.5
  9
$CHAMFERB
 40
0.5
  9
$CHAMFERC
 40
1.0
  9
$CHAMFERD
 40
0.0
  9
$SKPOLY
 70
     0
  9
$TDCREATE
 40
2457917.631643507
  9
$TDUCREATE
 40
2457917.256643518
  9
$TDUPDATE
 40
2457917.631643507
  9
$TDUUPDATE
 40
2457917.256643518
  9
$TDINDWG
 40
0.0000000116
  9
$TDUSRTIMER
 40
0.0000000116
  9
$USRTIMER
 70
     1
  9
$ANGBASE
 50
0.0
  9
$ANGDIR
 70
     0
  9
$PDMODE
 70
     0
  9
$PDSIZE
 40
0.0
  9
$PLINEWID
 40
0.0
  9
$SPLFRAME
 70
     0
  9
$SPLINETYPE
 70
     6
  9
$SPLINESEGS
 70
     8
  9
$HANDSEED
  5
12E
  9
$SURFTAB1
 70
     6
  9
$SURFTAB2
 70
     6
  9
$SURFTYPE
 70
     6
  9
$SURFU
 70
     6
  9
$SURFV
 70
     6
  9
$UCSBASE
  2

  9
$UCSNAME
  2

  9
$UCSORG
 10
0.0
 20
0.0
 30
0.0
  9
$UCSXDIR
 10
1.0
 20
0.0
 30
0.0
  9
$UCSYDIR
 10
0.0
 20
1.0
 30
0.0
  9
$UCSORTHOREF
  2

  9
$UCSORTHOVIEW
 70
     0
  9
$UCSORGTOP
 10
0.0
 20
0.0
 30
0.0
  9
$UCSORGBOTTOM
 10
0.0
 20
0.0
 30
0.0
  9
$UCSORGLEFT
 10
0.0
 20
0.0
 30
0.0
  9
$UCSORGRIGHT
 10
0.0
 20
0.0
 30
0.0
  9
$UCSORGFRONT
 10
0.0
 20
0.0
 30
0.0
  9
$UCSORGBACK
 10
0.0
 20
0.0
 30
0.0
  9
$PUCSBASE
  2

  9
$PUCSNAME
  2

  9
$PUCSORG
 10
0.0
 20
0.0
 30
0.0
  9
$PUCSXDIR
 10
1.0
 20
0.0
 30
0.0
  9
$PUCSYDIR
 10
0.0
 20
1.0
 30
0.0
  9
$PUCSORTHOREF
  2

  9
$PUCSORTHOVIEW
 70
     0
  9
$PUCSORGTOP
 10
0.0
 20
0.0
 30
0.0
  9
$PUCSORGBOTTOM
 10
0.0
 20
0.0
 30
0.0
  9
$PUCSORGLEFT
 10
0.0
 20
0.0
 30
0.0
  9
$PUCSORGRIGHT
 10
0.0
 20
0.0
 30
0.0
  9
$PUCSORGFRONT
 10
0.0
 20
0.0
 30
0.0
  9
$PUCSORGBACK
 10
0.0
 20
0.0
 30
0.0
  9
$USERI1
 70
     0
  9
$USERI2
 70
     0
  9
$USERI3
 70
     0
  9
$USERI4
 70
     0
  9
$USERI5
 70
     0
  9
$USERR1
 40
0.0
  9
$USERR2
 40
0.0
  9
$USERR3
 40
0.0
  9
$USERR4
 40
0.0
  9
$USERR5
 40
0.0
  9
$WORLDVIEW
 70
     1
  9
$SHADEDGE
 70
     3
  9
$SHADEDIF
 70
    70
  9
$TILEMODE
 70
     1
  9
$MAXACTVP
 70
    64
  9
$PINSBASE
 10
0.0
 20
0.0
 30
0.0
  9
$PLIMCHECK
 70
     0
  9
$PEXTMIN
 10
1.000000000000000E+20
 20
1.000000000000000E+20
 30
1.000000000000000E+20
  9
$PEXTMAX
 10
-1.000000000000000E+20
 20
-1.000000000000000E+20
 30
-1.000000000000000E+20
  9
$PLIMMIN
 10
0.0
 20
0.0
  9
$PLIMMAX
 10
12.0
 20
9.0
  9
$UNITMODE
 70
     0
  9
$VISRETAIN
 70
     1
  9
$PLINEGEN
 70
     0
  9
$PSLTSCALE
 70
     1
  9
$TREEDEPTH
 70
  3020
  9
$CMLSTYLE
  2
Standard
  9
$CMLJUST
 70
     0
  9
$CMLSCALE
 40
1.0
  9
$PROXYGRAPHICS
 70
     1
  9
$MEASUREMENT
 70
     0
  9
$CELWEIGHT
370
    -1
  9
$ENDCAPS
280
     0
  9
$JOINSTYLE
280
     0
  9
$LWDISPLAY
290
     1
  9
$INSUNITS
 70
     1
  9
$HYPERLINKBASE
  1

  9
$STYLESHEET
  1

  9
$XEDIT
290
     1
  9
$CEPSNTYPE
380
     0
  9
$PSTYLEMODE
290
     1
  9
$FINGERPRINTGUID
  2
{24F952CC-9F8A-069E-C3F4-EA45F8366425}
  9
$VERSIONGUID
  2
{FAEB1C32-E019-11D5-929B-00C0DF256EC4}
  9
$EXTNAMES
290
     1
  9
$PSVPSCALE
 40
0.0
  9
$OLESTARTUP
290
     0
  9
$SORTENTS
280
   127
  9
$INDEXCTL
280
     0
  9
$HIDETEXT
280
     1
  9
$XCLIPFRAME
280
     2
  9
$HALOGAP
280
     0
  9
$OBSCOLOR
 70
   257
  9
$OBSLTYPE
280
     0
  9
$INTERSECTIONDISPLAY
280
     0
  9
$INTERSECTIONCOLOR
 70
   257
  9
$DIMASSOC
280
     2
  9
$PROJECTNAME
  1

  9
$CAMERADISPLAY
290
     0
  9
$LENSLENGTH
 40
50.0
  9
$CAMERAHEIGHT
 40
0.0
  9
$STEPSPERSEC
 40
2.0
  9
$STEPSIZE
 40
6.0
  9
$3DDWFPREC
 40
2.0
  9
$PSOLWIDTH
 40
0.25
  9
$PSOLHEIGHT
 40
4.0
  9
$LOFTANG1
 40
1.570796326794897
  9
$LOFTANG2
 40
1.570796326794897
  9
$LOFTMAG1
 40
0.0
  9
$LOFTMAG2
 40
0.0
  9
$LOFTPARAM
 70
     7
  9
$LOFTNORMALS
280
     1
  9
$LATITUDE
 40
37.795
  9
$LONGITUDE
 40
-122.394
  9
$NORTHDIRECTION
 40
0.0
  9
$TIMEZONE
 70
 -8000
  9
$LIGHTGLYPHDISPLAY
280
     1
  9
$TILEMODELIGHTSYNCH
280
     1
  9
$CMATERIAL
347
3C
  9
$SOLIDHIST
280
     1
  9
$SHOWHIST
280
     1
  9
$DWFFRAME
280
     2
  9
$DGNFRAME
280
     2
  9
$REALWORLDSCALE
290
     1
  9
$INTERFERECOLOR
 62
   256
  9
$CSHADOW
280
     0
  9
$SHADOWPLANELOCATION
 40
0.0
  0
ENDSEC
  0
SECTION
  2
CLASSES
  0
CLASS
  1
ACDBDICTIONARYWDFLT
  2
AcDbDictionaryWithDefault
  3
ObjectDBX Classes
 90
        0
 91
        4
280
     0
281
     0
  0
CLASS
  1
VISUALSTYLE
  2
AcDbVisualStyle
  3
ObjectDBX Classes
 90
     4095
 91
        4
280
     0
281
     0
  0
CLASS
  1
MATERIAL
  2
AcDbMaterial
  3
ObjectDBX Classes
 90
     1153
 91
        4
280
     0
281
     0
  0
CLASS
  1
SUN
  2
AcDbSun
  3
SCENEOE
 90
     1024
 91
        4
280
     0
281
     0
  0
ENDSEC
  0
SECTION
  2
TABLES
  0
TABLE
  2
VPORT
  5
8
330
0
100
AcDbSymbolTable
 70
     1
  0
VPORT
  5
29
330
8
100
AcDbSymbolTableRecord
100
AcDbViewportTableRecord
  2
*Active
 70
     0
 10
0.0
 20
0.0
 11
1.0
 21
1.0
 12
0.0
 22
0.0
 13
0.0
 23
0.0
 14
0.5
 24
0.5
 15
0.5
 25
0.5
 16
0.0
 26
0.0
 36
1.0
 17
91.00082462281999
 27
-128.4993055234307
 37
0.0
 40
256.9986110468615
 41
0.7081814508812795
 42
50.0
 43
0.0
 44
0.0
 50
0.0
 51
0.0
 71
     0
 72
   100
 73
     1
 74
     3
 75
     0
 76
     0
 77
     0
 78
     0
281
     0
 65
     1
110
0.0
120
0.0
130
0.0
111
1.0
121
0.0
131
0.0
112
0.0
122
1.0
132
0.0
 79
     0
146
0.0
 60
     3
 61
     5
292
     1
282
     1
141
0.0
142
0.0
 63
   250
361
3F
  0
ENDTAB
  0
TABLE
  2
LTYPE
  5
5
330
0
100
AcDbSymbolTable
 70
     1
  0
LTYPE
  5
14
330
5
100
AcDbSymbolTableRecord
100
AcDbLinetypeTableRecord
  2
ByBlock
 70
     0
  3

 72
    65
 73
     0
 40
0.0
  0
LTYPE
  5
15
330
5
100
AcDbSymbolTableRecord
100
AcDbLinetypeTableRecord
  2
ByLayer
 70
     0
  3

 72
    65
 73
     0
 40
0.0
  0
LTYPE
  5
16
330
5
100
AcDbSymbolTableRecord
100
AcDbLinetypeTableRecord
  2
Continuous
 70
     0
  3
Solid line
 72
    65
 73
     0
 40
0.0
  0
ENDTAB
  0
TABLE
  2
LAYER
  5
2
330
0
100
AcDbSymbolTable
 70
     2
  0
LAYER
  5
10
330
2
100
AcDbSymbolTableRecord
100
AcDbLayerTableRecord
  2
0
 70
     0
 62
     7
  6
Continuous
370
    -3
390
F
347
3E
  0
LAYER
  5
40
330
2
100
AcDbSymbolTableRecord
100
AcDbLayerTableRecord
  2
_U+30EC_U+30A4_U+30E4_U+30FC 1
 70
     0
 62
     7
  6
Continuous
370
    -3
390
F
347
3E
  0
ENDTAB
  0
TABLE
  2
STYLE
  5
3
330
0
100
AcDbSymbolTable
 70
     1
  0
STYLE
  5
11
330
3
100
AcDbSymbolTableRecord
100
AcDbTextStyleTableRecord
  2
Standard
 70
     0
 40
0.0
 41
1.0
 50
0.0
 71
     0
 42
0.2
  3
txt
  4

  0
ENDTAB
  0
TABLE
  2
VIEW
  5
6
330
0
100
AcDbSymbolTable
 70
     0
  0
ENDTAB
  0
TABLE
  2
UCS
  5
7
330
0
100
AcDbSymbolTable
 70
     0
  0
ENDTAB
  0
TABLE
  2
APPID
  5
9
330
0
100
AcDbSymbolTable
 70
     1
  0
APPID
  5
12
330
9
100
AcDbSymbolTableRecord
100
AcDbRegAppTableRecord
  2
ACAD
 70
     0
  0
ENDTAB
  0
TABLE
  2
DIMSTYLE
  5
A
330
0
100
AcDbSymbolTable
 70
     1
100
AcDbDimStyleTable
  0
DIMSTYLE
105
27
330
A
100
AcDbSymbolTableRecord
100
AcDbDimStyleTableRecord
  2
Standard
 70
     0
178
     0
340
11
  0
ENDTAB
  0
TABLE
  2
BLOCK_RECORD
  5
1
330
0
100
AcDbSymbolTable
 70
    11
  0
BLOCK_RECORD
  5
1F
330
1
100
AcDbSymbolTableRecord
100
AcDbBlockTableRecord
  2
*Model_Space
340
22
 70
     0
280
     1
281
     0
  0
BLOCK_RECORD
  5
1B
330
1
100
AcDbSymbolTableRecord
100
AcDbBlockTableRecord
  2
*Paper_Space
340
1E
 70
     0
280
     1
281
     0
  0
BLOCK_RECORD
  5
23
330
1
100
AcDbSymbolTableRecord
100
AcDbBlockTableRecord
  2
*Paper_Space0
340
26
 70
     0
280
     1
281
     0
  0
BLOCK_RECORD
  5
41
330
1
100
AcDbSymbolTableRecord
100
AcDbBlockTableRecord
  2
block 2
340
0
102
{BLKREFS
331
42
102
}
 70
     0
280
     1
281
     0
  0
BLOCK_RECORD
  5
57
330
1
100
AcDbSymbolTableRecord
100
AcDbBlockTableRecord
  2
block 3
340
0
102
{BLKREFS
331
58
102
}
 70
     0
280
     1
281
     0
  0
BLOCK_RECORD
  5
A1
330
1
100
AcDbSymbolTableRecord
100
AcDbBlockTableRecord
  2
block 4
340
0
102
{BLKREFS
331
A2
102
}
 70
     0
280
     1
281
     0
  0
BLOCK_RECORD
  5
B1
330
1
100
AcDbSymbolTableRecord
100
AcDbBlockTableRecord
  2
block 5
340
0
102
{BLKREFS
331
B2
102
}
 70
     0
280
     1
281
     0
  0
BLOCK_RECORD
  5
C3
330
1
100
AcDbSymbolTableRecord
100
AcDbBlockTableRecord
  2
block 6
340
0
102
{BLKREFS
331
C4
102
}
 70
     0
280
     1
281
     0
  0
BLOCK_RECORD
  5
DC
330
1
100
AcDbSymbolTableRecord
100
AcDbBlockTableRecord
  2
block 7
340
0
102
{BLKREFS
331
DD
102
}
 70
     0
280
     1
281
     0
  0
BLOCK_RECORD
  5
103
330
1
100
AcDbSymbolTableRecord
100
AcDbBlockTableRecord
  2
block 8
340
0
102
{BLKREFS
331
104
102
}
 70
     0
280
     1
281
     0
  0
BLOCK_RECORD
  5
10C
330
1
100
AcDbSymbolTableRecord
100
AcDbBlockTableRecord
  2
block 9
340
0
102
{BLKREFS
331
10D
102
}
 70
     0
280
     1
281
     0
  0
BLOCK_RECORD
  5
112
330
1
100
AcDbSymbolTableRecord
100
AcDbBlockTableRecord
  2
block 10
340
0
102
{BLKREFS
331
113
102
}
 70
     0
280
     1
281
     0
  0
BLOCK_RECORD
  5
11A
330
1
100
AcDbSymbolTableRecord
100
AcDbBlockTableRecord
  2
block 11
340
0
102
{BLKREFS
331
11B
102
}
 70
     0
280
     1
281
     0
  0
ENDTAB
  0
ENDSEC
  0
SECTION
  2
BLOCKS
  0
BLOCK
  5
20
330
1F
100
AcDbEntity
  8
0
100
AcDbBlockBegin
  2
*Model_Space
 70
     0
 10
0.0
 20
0.0
 30
0.0
  3
*Model_Space
  1

  0
ENDBLK
  5
21
330
1F
100
AcDbEntity
  8
0
100
AcDbBlockEnd
  0
BLOCK
  5
1C
330
1B
100
AcDbEntity
 67
     1
  8
0
100
AcDbBlockBegin
  2
*Paper_Space
 70
     0
 10
0.0
 20
0.0
 30
0.0
  3
*Paper_Space
  1

  0
ENDBLK
  5
1D
330
1B
100
AcDbEntity
 67
     1
  8
0
100
AcDbBlockEnd
  0
BLOCK
  5
24
330
23
100
AcDbEntity
  8
0
100
AcDbBlockBegin
  2
*Paper_Space0
 70
     0
 10
0.0
 20
0.0
 30
0.0
  3
*Paper_Space0
  1

  0
ENDBLK
  5
25
330
23
100
AcDbEntity
  8
0
100
AcDbBlockEnd
  0
BLOCK
  5
43
330
41
100
AcDbEntity
  8
0
100
AcDbBlockBegin
  2
block 2
 70
     0
 10
0.0
 20
0.0
 30
0.0
  3
block 2
  1

  0
POLYLINE
  5
45
330
41
100
AcDbEntity
  8
_U+30EC_U+30A4_U+30E4_U+30FC 1
370
     0
100
AcDb2dPolyline
 66
     1
 10
0.0
 20
0.0
 30
0.0
  0
VERTEX
  5
46
330
45
100
AcDbEntity
  8
_U+30EC_U+30A4_U+30E4_U+30FC 1
370
     0
100
AcDbVertex
100
AcDb2dVertex
 10
97.34944862751976
 20
-158.6948960714376
 30
0.0
  0
VERTEX
  5
47
330
45
100
AcDbEntity
  8
_U+30EC_U+30A4_U+30E4_U+30FC 1
370
     0
100
AcDbVertex
100
AcDb2dVertex
 10
97.35459918294391
 20
-138.7322599653167
 30
0.0
  0
VERTEX
  5
48
330
45
100
AcDbEntity
  8
_U+30EC_U+30A4_U+30E4_U+30FC 1
370
     0
100
AcDbVertex
100
AcDb2dVertex
 10
97.2040689090065
 20
-138.7298610764286
 30
0.0
  0
VERTEX
  5
49
330
45
100
AcDbEntity
  8
_U+30EC_U+30A4_U+30E4_U+30FC 1
370
     0
100
AcDbVertex
100
AcDb2dVertex
 10
78.7693491015376
 20
-135.7298741327343
 30
0.0
  0
VERTEX
  5
4A
330
45
100
AcDbEntity
  8
_U+30EC_U+30A4_U+30E4_U+30FC 1
370
     0
100
AcDbVertex
100
AcDb2dVertex
 10
78.77210275808481
 20
-135.726416910513
 30
0.0
  0
VERTEX
  5
4B
330
45
100
AcDbEntity
  8
_U+30EC_U+30A4_U+30E4_U+30FC 1
370
     0
100
AcDbVertex
100
AcDb2dVertex
 10
78.77210275808481
 20
-100.7295913637064
 30
0.0
  0
VERTEX
  5
4C
330
45
100
AcDbEntity
  8
_U+30EC_U+30A4_U+30E4_U+30FC 1
370
     0
100
AcDbVertex
100
AcDb2dVertex
 10
77.7010321843482
 20
-100.7295913637064
 30
0.0
  0
VERTEX
  5
4D
330
45
100
AcDbEntity
  8
_U+30EC_U+30A4_U+30E4_U+30FC 1
370
     0
100
AcDbVertex
100
AcDb2dVertex
 10
77.7010321843482
 20
-136.7255188547076
 30
0.0
  0
VERTEX
  5
4E
330
45
100
AcDbEntity
  8
_U+30EC_U+30A4_U+30E4_U+30FC 1
370
     0
100
AcDbVertex
100
AcDb2dVertex
 10
77.98078495498888
 20
-136.7255188547076
 30
0.0
  0
VERTEX
  5
4F
330
45
100
AcDbEntity
  8
_U+30EC_U+30A4_U+30E4_U+30FC 1
370
     0
100
AcDbVertex
100
AcDb2dVertex
 10
96.30145170981196
 20
-139.7268816317348
 30
0.0
  0
VERTEX
  5
50
330
45
100
AcDbEntity
  8
_U+30EC_U+30A4_U+30E4_U+30FC 1
370
     0
100
AcDbVertex
100
AcDb2dVertex
 10
96.30145170981196
 20
-157.6089755161535
 30
0.0
  0
VERTEX
  5
51
330
45
100
AcDbEntity
  8
_U+30EC_U+30A4_U+30E4_U+30FC 1
370
     0
100
AcDbVertex
100
AcDb2dVertex
 10
96.29901754320738
 20
-157.6089755161535
 30
0.0
  0
VERTEX
  5
52
330
45
100
AcDbEntity
  8
_U+30EC_U+30A4_U+30E4_U+30FC 1
370
     0
100
AcDbVertex
100
AcDb2dVertex
 10
93.37173817344406
 20
-157.6089755161535
 30
0.0
  0
VERTEX
  5
53
330
45
100
AcDbEntity
  8
_U+30EC_U+30A4_U+30E4_U+30FC 1
370
     0
100
AcDbVertex
100
AcDb2dVertex
 10
93.37173817344406
 20
-158.6948960714376
 30
0.0
  0
VERTEX
  5
54
330
45
100
AcDbEntity
  8
_U+30EC_U+30A4_U+30E4_U+30FC 1
370
     0
100
AcDbVertex
100
AcDb2dVertex
 10
97.34944862751976
 20
-158.6948960714376
 30
0.0
  0
SEQEND
  5
56
330
45
100
AcDbEntity
  8
_U+30EC_U+30A4_U+30E4_U+30FC 1
370
     0
  0
HATCH
  5
55
330
41
100
AcDbEntity
  8
_U+30EC_U+30A4_U+30E4_U+30FC 1
 62
     9
420
 13224394
100
AcDbHatch
 10
0.0
 20
0.0
 30
0.0
210
0.0
220
0.0
230
1.0
  2
SOLID
 70
     1
 71
     0
 91
        1
 92
        1
 93
       14
 72
     1
 10
97.34944862751976
 20
-158.6948960714376
 11
97.35459918294391
 21
-138.7322599653167
 72
     1
 10
97.35459918294391
 20
-138.7322599653167
 11
97.2040689090065
 21
-138.7298610764286
 72
     1
 10
97.2040689090065
 20
-138.7298610764286
 11
78.7693491015376
 21
-135.7298741327343
 72
     1
 10
78.7693491015376
 20
-135.7298741327343
 11
78.77210275808481
 21
-135.726416910513
 72
     1
 10
78.77210275808481
 20
-135.726416910513
 11
78.77210275808481
 21
-100.7295913637064
 72
     1
 10
78.77210275808481
 20
-100.7295913637064
 11
77.7010321843482
 21
-100.7295913637064
 72
     1
 10
77.7010321843482
 20
-100.7295913637064
 11
77.7010321843482
 21
-136.7255188547076
 72
     1
 10
77.7010321843482
 20
-136.7255188547076
 11
77.98078495498888
 21
-136.7255188547076
 72
     1
 10
77.98078495498888
 20
-136.7255188547076
 11
96.30145170981196
 21
-139.7268816317348
 72
     1
 10
96.30145170981196
 20
-139.7268816317348
 11
96.30145170981196
 21
-157.6089755161535
 72
     1
 10
96.30145170981196
 20
-157.6089755161535
 11
96.29901754320738
 21
-157.6089755161535
 72
     1
 10
96.29901754320738
 20
-157.6089755161535
 11
93.37173817344406
 21
-157.6089755161535
 72
     1
 10
93.37173817344406
 20
-157.6089755161535
 11
93.37173817344406
 21
-158.6948960714376
 72
     1
 10
93.37173817344406
 20
-158.6948960714376
 11
97.34944862751976
 21
-158.6948960714376
 97
        0
 75
     2
 76
     1
 98
        0
  0
INSERT
  5
58
330
41
100
AcDbEntity
  8
_U+30EC_U+30A4_U+30E4_U+30FC 1
100
AcDbBlockReference
  2
block 3
 10
0.0
 20
0.0
 30
0.0
  0
INSERT
  5
A2
330
41
100
AcDbEntity
  8
_U+30EC_U+30A4_U+30E4_U+30FC 1
100
AcDbBlockReference
  2
block 4
 10
0.0
 20
0.0
 30
0.0
  0
INSERT
  5
B2
330
41
100
AcDbEntity
  8
_U+30EC_U+30A4_U+30E4_U+30FC 1
100
AcDbBlockReference
  2
block 5
 10
0.0
 20
0.0
 30
0.0
  0
INSERT
  5
C4
330
41
100
AcDbEntity
  8
_U+30EC_U+30A4_U+30E4_U+30FC 1
100
AcDbBlockReference
  2
block 6
 10
0.0
 20
0.0
 30
0.0
  0
INSERT
  5
DD
330
41
100
AcDbEntity
  8
_U+30EC_U+30A4_U+30E4_U+30FC 1
100
AcDbBlockReference
  2
block 7
 10
0.0
 20
0.0
 30
0.0
  0
INSERT
  5
104
330
41
100
AcDbEntity
  8
_U+30EC_U+30A4_U+30E4_U+30FC 1
100
AcDbBlockReference
  2
block 8
 10
0.0
 20
0.0
 30
0.0
  0
INSERT
  5
10D
330
41
100
AcDbEntity
  8
_U+30EC_U+30A4_U+30E4_U+30FC 1
100
AcDbBlockReference
  2
block 9
 10
0.0
 20
0.0
 30
0.0
  0
INSERT
  5
113
330
41
100
AcDbEntity
  8
_U+30EC_U+30A4_U+30E4_U+30FC 1
100
AcDbBlockReference
  2
block 10
 10
0.0
 20
0.0
 30
0.0
  0
INSERT
  5
11B
330
41
100
AcDbEntity
  8
_U+30EC_U+30A4_U+30E4_U+30FC 1
100
AcDbBlockReference
  2
block 11
 10
0.0
 20
0.0
 30
0.0
  0
ENDBLK
  5
44
330
41
100
AcDbEntity
  8
0
100
AcDbBlockEnd
  0
BLOCK
  5
59
330
57
100
AcDbEntity
  8
0
100
AcDbBlockBegin
  2
block 3
 70
     0
 10
0.0
 20
0.0
 30
0.0
  3
block 3
  1

  0
SPLINE
  5
5B
330
57
100
AcDbEntity
  8
_U+30EC_U+30A4_U+30E4_U+30FC 1
 62
   179
420
  2234388
370
     9
100
AcDbSpline
210
0.0
220
0.0
230
1.0
 70
    11
 71
     3
 72
    17
 73
    13
 74
     0
 42
0.0000000001
 43
0.0000000001
 12
1.0
 22
0.0
 32
0.0
 13
1.0
 23
0.0
 33
0.0
 40
0.0
 40
0.0
 40
0.0
 40
0.0
 40
1.0
 40
1.0
 40
1.0
 40
2.0
 40
2.0
 40
2.0
 40
3.0
 40
3.0
 40
3.0
 40
4.0
 40
4.0
 40
4.0
 40
4.0
 10
78.87303048778135
 20
-96.72916192026216
 30
0.0
 10
78.87303048778135
 20
-96.67419914249797
 30
0.0
 10
78.82826298892347
 20
-96.6294316425094
 30
0.0
 10
78.77280831364001
 20
-96.6294316425094
 30
0.0
 10
78.71766715841167
 20
-96.6294316425094
 30
0.0
 10
78.67289965955378
 20
-96.67419914249797
 30
0.0
 10
78.67289965955378
 20
-96.72916192026216
 30
0.0
 10
78.67289965955378
 20
-96.78461858691485
 30
0.0
 10
78.71766715841167
 20
-96.82942136468156
 30
0.0
 10
78.77280831364001
 20
-96.82942136468156
 30
0.0
 10
78.82826298892347
 20
-96.82942136468156
 30
0.0
 10
78.87303048778135
 20
-96.78461858691485
 30
0.0
 10
78.87303048778135
 20
-96.72916192026216
 30
0.0
  0
SPLINE
  5
5C
330
57
100
AcDbEntity
  8
_U+30EC_U+30A4_U+30E4_U+30FC 1
 62
   179
420
  2234388
370
     9
100
AcDbSpline
210
0.0
220
0.0
230
1.0
 70
    11
 71
     3
 72
    17
 73
    13
 74
     0
 42
0.0000000001
 43
0.0000000001
 12
1.0
 22
0.0
 32
0.0
 13
1.0
 23
0.0
 33
0.0
 40
0.0
 40
0.0
 40
0.0
 40
0.0
 40
1.0
 40
1.0
 40
1.0
 40
2.0
 40
2.0
 40
2.0
 40
3.0
 40
3.0
 40
3.0
 40
4.0
 40
4.0
 40
4.0
 40
4.0
 10
77.75786664722726
 20
-96.72916192026216
 30
0.0
 10
77.75786664722726
 20
-96.67419914249797
 30
0.0
 10
77.71309718404038
 20
-96.6294316425094
 30
0.0
 10
77.65795801878043
 20
-96.6294316425094
 30
0.0
 10
77.60285413129736
 20
-96.6294316425094
 30
0.0
 10
77.5580513546626
 20
-96.67419914249797
 30
0.0
 10
77.5580513546626
 20
-96.72916192026216
 30
0.0
 10
77.5580513546626
 20
-96.78461858691485
 30
0.0
 10
77.60285413129736
 20
-96.82942136468156
 30
0.0
 10
77.65795801878043
 20
-96.82942136468156
 30
0.0
 10
77.71309718404038
 20
-96.82942136468156
 30
0.0
 10
77.75786664722726
 20
-96.78461858691485
 30
0.0
 10
77.75786664722726
 20
-96.72916192026216
 30
0.0
  0
SPLINE
  5
5D
330
57
100
AcDbEntity
  8
_U+30EC_U+30A4_U+30E4_U+30FC 1
 62
   179
420
  2234388
370
     9
100
AcDbSpline
210
0.0
220
0.0
230
1.0
 70
    11
 71
     3
 72
    17
 73
    13
 74
     0
 42
0.0000000001
 43
0.0000000001
 12
1.0
 22
0.0
 32
0.0
 13
1.0
 23
0.0
 33
0.0
 40
0.0
 40
0.0
 40
0.0
 40
0.0
 40
1.0
 40
1.0
 40
1.0
 40
2.0
 40
2.0
 40
2.0
 40
3.0
 40
3.0
 40
3.0
 40
4.0
 40
4.0
 40
4.0
 40
4.0
 10
101.8494138634267
 20
-100.7295913637064
 30
0.0
 10
101.8494138634267
 20
-100.6743110859426
 30
0.0
 10
101.8046437916361
 20
-100.629331919287
 30
0.0
 10
101.7495046263761
 20
-100.629331919287
 30
0.0
 10
101.6947535166618
 20
-100.629331919287
 30
0.0
 10
101.649950740027
 20
-100.6743110859426
 30
0.0
 10
101.649950740027
 20
-100.7295913637064
 30
0.0
 10
101.649950740027
 20
-100.7845541414706
 30
0.0
 10
101.6947535166618
 20
-100.829498030348
 30
0.0
 10
101.7495046263761
 20
-100.829498030348
 30
0.0
 10
101.8046437916361
 20
-100.829498030348
 30
0.0
 10
101.8494138634267
 20
-100.7845541414706
 30
0.0
 10
101.8494138634267
 20
-100.7295913637064
 30
0.0
  0
SPLINE
  5
5E
330
57
100
AcDbEntity
  8
_U+30EC_U+30A4_U+30E4_U+30FC 1
 62
   179
420
  2234388
370
     9
100
AcDbSpline
210
0.0
220
0.0
230
1.0
 70
    11
 71
     3
 72
    17
 73
    13
 74
     0
 42
0.0000000001
 43
0.0000000001
 12
1.0
 22
0.0
 32
0.0
 13
1.0
 23
0.0
 33
0.0
 40
0.0
 40
0.0
 40
0.0
 40
0.0
 40
1.0
 40
1.0
 40
1.0
 40
2.0
 40
2.0
 40
2.0
 40
3.0
 40
3.0
 40
3.0
 40
4.0
 40
4.0
 40
4.0
 40
4.0
 10
101.8494138634267
 20
-138.7050607986573
 30
0.0
 10
101.8494138634267
 20
-138.650274409782
 30
0.0
 10
101.8046437916361
 20
-138.6055069097928
 30
0.0
 10
101.7495046263761
 20
-138.6055069097928
 30
0.0
 10
101.6947535166618
 20
-138.6055069097928
 30
0.0
 10
101.649950740027
 20
-138.650274409782
 30
0.0
 10
101.649950740027
 20
-138.7050607986573
 30
0.0
 10
101.649950740027
 20
-138.7608702430877
 30
0.0
 10
101.6947535166618
 20
-138.8056377430763
 30
0.0
 10
101.7495046263761
 20
-138.8056377430763
 30
0.0
 10
101.8046437916361
 20
-138.8056377430763
 30
0.0
 10
101.8494138634267
 20
-138.7608702430877
 30
0.0
 10
101.8494138634267
 20
-138.7050607986573
 30
0.0
  0
SPLINE
  5
5F
330
57
100
AcDbEntity
  8
_U+30EC_U+30A4_U+30E4_U+30FC 1
 62
   179
420
  2234388
370
     9
100
AcDbSpline
210
0.0
220
0.0
230
1.0
 70
    11
 71
     3
 72
    17
 73
    13
 74
     0
 42
0.0000000001
 43
0.0000000001
 12
1.0
 22
0.0
 32
0.0
 13
1.0
 23
0.0
 33
0.0
 40
0.0
 40
0.0
 40
0.0
 40
0.0
 40
1.0
 40
1.0
 40
1.0
 40
2.0
 40
2.0
 40
2.0
 40
3.0
 40
3.0
 40
3.0
 40
4.0
 40
4.0
 40
4.0
 40
4.0
 10
97.44970806940638
 20
-96.72845636470664
 30
0.0
 10
97.44970806940638
 20
-96.67317608694285
 30
0.0
 10
97.40490529277162
 20
-96.62819692028724
 30
0.0
 10
97.34976612751167
 20
-96.62819692028724
 30
0.0
 10
97.29430946225982
 20
-96.62819692028724
 30
0.0
 10
97.24954442013194
 20
-96.67317608694285
 30
0.0
 10
97.24954442013194
 20
-96.72845636470664
 30
0.0
 10
97.24954442013194
 20
-96.78391303135963
 30
0.0
 10
97.29430946225982
 20
-96.8283630313486
 30
0.0
 10
97.34976612751167
 20
-96.8283630313486
 30
0.0
 10
97.40490529277162
 20
-96.8283630313486
 30
0.0
 10
97.44970806940638
 20
-96.78391303135963
 30
0.0
 10
97.44970806940638
 20
-96.72845636470664
 30
0.0
  0
SPLINE
  5
60
330
57
100
AcDbEntity
  8
_U+30EC_U+30A4_U+30E4_U+30FC 1
 62
   179
420
  2234388
370
     9
100
AcDbSpline
210
0.0
220
0.0
230
1.0
 70
    11
 71
     3
 72
    17
 73
    13
 74
     0
 42
0.0000000001
 43
0.0000000001
 12
1.0
 22
0.0
 32
0.0
 13
1.0
 23
0.0
 33
0.0
 40
0.0
 40
0.0
 40
0.0
 40
0.0
 40
1.0
 40
1.0
 40
1.0
 40
2.0
 40
2.0
 40
2.0
 40
3.0
 40
3.0
 40
3.0
 40
4.0
 40
4.0
 40
4.0
 40
4.0
 10
97.44970806940638
 20
-162.7290863482067
 30
0.0
 10
97.44970806940638
 20
-162.6739471815536
 30
0.0
 10
97.40490529277162
 20
-162.629179681565
 30
0.0
 10
97.34976612751167
 20
-162.629179681565
 30
0.0
 10
97.29430946225982
 20
-162.629179681565
 30
0.0
 10
97.24954442013194
 20
-162.6739471815536
 30
0.0
 10
97.24954442013194
 20
-162.7290863482067
 30
0.0
 10
97.24954442013194
 20
-162.7845430148594
 30
0.0
 10
97.29430946225982
 20
-162.8293457926261
 30
0.0
 10
97.34976612751167
 20
-162.8293457926261
 30
0.0
 10
97.40490529277162
 20
-162.8293457926261
 30
0.0
 10
97.44970806940638
 20
-162.7845430148594
 30
0.0
 10
97.44970806940638
 20
-162.7290863482067
 30
0.0
  0
SPLINE
  5
61
330
57
100
AcDbEntity
  8
_U+30EC_U+30A4_U+30E4_U+30FC 1
 62
   179
420
  2234388
370
     9
100
AcDbSpline
210
0.0
220
0.0
230
1.0
 70
    11
 71
     3
 72
    17
 73
    13
 74
     0
 42
0.0000000001
 43
0.0000000001
 12
1.0
 22
0.0
 32
0.0
 13
1.0
 23
0.0
 33
0.0
 40
0.0
 40
0.0
 40
0.0
 40
0.0
 40
1.0
 40
1.0
 40
1.0
 40
2.0
 40
2.0
 40
2.0
 40
3.0
 40
3.0
 40
3.0
 40
4.0
 40
4.0
 40
4.0
 40
4.0
 10
77.92049720274224
 20
-162.7290863482067
 30
0.0
 10
77.92049720274224
 20
-162.6739471815536
 30
0.0
 10
77.87604720275328
 20
-162.629179681565
 30
0.0
 10
77.82058857018694
 20
-162.629179681565
 30
0.0
 10
77.76544940492698
 20
-162.629179681565
 30
0.0
 10
77.72064662829223
 20
-162.6739471815536
 30
0.0
 10
77.72064662829223
 20
-162.7290863482067
 30
0.0
 10
77.72064662829223
 20
-162.7845430148594
 30
0.0
 10
77.76544940492698
 20
-162.8293457926261
 30
0.0
 10
77.82058857018694
 20
-162.8293457926261
 30
0.0
 10
77.87604720275328
 20
-162.8293457926261
 30
0.0
 10
77.92049720274224
 20
-162.7845430148594
 30
0.0
 10
77.92049720274224
 20
-162.7290863482067
 30
0.0
  0
SPLINE
  5
62
330
57
100
AcDbEntity
  8
_U+30EC_U+30A4_U+30E4_U+30FC 1
 62
   179
420
  2234388
370
     9
100
AcDbSpline
210
0.0
220
0.0
230
1.0
 70
    11
 71
     3
 72
    17
 73
    13
 74
     0
 42
0.0000000001
 43
0.0000000001
 12
1.0
 22
0.0
 32
0.0
 13
1.0
 23
0.0
 33
0.0
 40
0.0
 40
0.0
 40
0.0
 40
0.0
 40
1.0
 40
1.0
 40
1.0
 40
2.0
 40
2.0
 40
2.0
 40
3.0
 40
3.0
 40
3.0
 40
4.0
 40
4.0
 40
4.0
 40
4.0
 10
101.8494138634267
 20
-158.6803969047744
 30
0.0
 10
101.8494138634267
 20
-158.6249402381218
 30
0.0
 10
101.8046437916361
 20
-158.5801727381325
 30
0.0
 10
101.7495046263761
 20
-158.5801727381325
 30
0.0
 10
101.6947535166618
 20
-158.5801727381325
 30
0.0
 10
101.649950740027
 20
-158.6249402381218
 30
0.0
 10
101.649950740027
 20
-158.6803969047744
 30
0.0
 10
101.649950740027
 20
-158.7355360714275
 30
0.0
 10
101.6947535166618
 20
-158.7803035714161
 30
0.0
 10
101.7495046263761
 20
-158.7803035714161
 30
0.0
 10
101.8046437916361
 20
-158.7803035714161
 30
0.0
 10
101.8494138634267
 20
-158.7355360714275
 30
0.0
 10
101.8494138634267
 20
-158.6803969047744
 30
0.0
  0
POLYLINE
  5
63
330
57
100
AcDbEntity
  8
_U+30EC_U+30A4_U+30E4_U+30FC 1
 62
   179
420
  2234388
370
     9
100
AcDb2dPolyline
 66
     1
 10
0.0
 20
0.0
 30
0.0
  0
VERTEX
  5
64
330
63
100
AcDbEntity
  8
_U+30EC_U+30A4_U+30E4_U+30FC 1
 62
   179
420
  2234388
370
     9
100
AcDbVertex
100
AcDb2dVertex
 10
77.64141274142476
 20
-96.72916192026216
 30
0.0
  0
VERTEX
  5
65
330
63
100
AcDbEntity
  8
_U+30EC_U+30A4_U+30E4_U+30FC 1
 62
   179
420
  2234388
370
     9
100
AcDbVertex
100
AcDb2dVertex
 10
78.77280831364001
 20
-96.72916192026216
 30
0.0
  0
SEQEND
  5
66
330
63
100
AcDbEntity
  8
_U+30EC_U+30A4_U+30E4_U+30FC 1
 62
   179
420
  2234388
370
     9
  0
POLYLINE
  5
67
330
57
100
AcDbEntity
  8
_U+30EC_U+30A4_U+30E4_U+30FC 1
 62
   179
420
  2234388
370
     9
100
AcDb2dPolyline
 66
     1
 10
0.0
 20
0.0
 30
0.0
  0
VERTEX
  5
68
330
67
100
AcDbEntity
  8
_U+30EC_U+30A4_U+30E4_U+30FC 1
 62
   179
420
  2234388
370
     9
100
AcDbVertex
100
AcDb2dVertex
 10
77.65795801878043
 20
-98.18916803100835
 30
0.0
  0
VERTEX
  5
69
330
67
100
AcDbEntity
  8
_U+30EC_U+30A4_U+30E4_U+30FC 1
 62
   179
420
  2234388
370
     9
100
AcDbVertex
100
AcDb2dVertex
 10
77.65795801878043
 20
-95.72921330940106
 30
0.0
  0
SEQEND
  5
6A
330
67
100
AcDbEntity
  8
_U+30EC_U+30A4_U+30E4_U+30FC 1
 62
   179
420
  2234388
370
     9
  0
POLYLINE
  5
6B
330
57
100
AcDbEntity
  8
_U+30EC_U+30A4_U+30E4_U+30FC 1
 62
   179
420
  2234388
370
     9
100
AcDb2dPolyline
 66
     1
 10
0.0
 20
0.0
 30
0.0
  0
VERTEX
  5
6C
330
6B
100
AcDbEntity
  8
_U+30EC_U+30A4_U+30E4_U+30FC 1
 62
   179
420
  2234388
370
     9
100
AcDbVertex
100
AcDb2dVertex
 10
78.77280831364001
 20
-98.18916803100835
 30
0.0
  0
VERTEX
  5
6D
330
6B
100
AcDbEntity
  8
_U+30EC_U+30A4_U+30E4_U+30FC 1
 62
   179
420
  2234388
370
     9
100
AcDbVertex
100
AcDb2dVertex
 10
78.77280831364001
 20
-95.72921330940106
 30
0.0
  0
SEQEND
  5
6E
330
6B
100
AcDbEntity
  8
_U+30EC_U+30A4_U+30E4_U+30FC 1
 62
   179
420
  2234388
370
     9
  0
POLYLINE
  5
6F
330
57
100
AcDbEntity
  8
_U+30EC_U+30A4_U+30E4_U+30FC 1
 62
   179
420
  2234388
370
     9
100
AcDb2dPolyline
 66
     1
 10
0.0
 20
0.0
 30
0.0
  0
VERTEX
  5
70
330
6F
100
AcDbEntity
  8
_U+30EC_U+30A4_U+30E4_U+30FC 1
 62
   179
420
  2234388
370
     9
100
AcDbVertex
100
AcDb2dVertex
 10
103.2095459780162
 20
-158.6803969047744
 30
0.0
  0
VERTEX
  5
71
330
6F
100
AcDbEntity
  8
_U+30EC_U+30A4_U+30E4_U+30FC 1
 62
   179
420
  2234388
370
     9
100
AcDbVertex
100
AcDb2dVertex
 10
98.34953832422758
 20
-158.6803969047744
 30
0.0
  0
SEQEND
  5
72
330
6F
100
AcDbEntity
  8
_U+30EC_U+30A4_U+30E4_U+30FC 1
 62
   179
420
  2234388
370
     9
  0
POLYLINE
  5
73
330
57
100
AcDbEntity
  8
_U+30EC_U+30A4_U+30E4_U+30FC 1
 62
   179
420
  2234388
370
     9
100
AcDb2dPolyline
 66
     1
 10
0.0
 20
0.0
 30
0.0
  0
VERTEX
  5
74
330
73
100
AcDbEntity
  8
_U+30EC_U+30A4_U+30E4_U+30FC 1
 62
   179
420
  2234388
370
     9
100
AcDbVertex
100
AcDb2dVertex
 10
77.76474384938943
 20
-162.7290863482067
 30
0.0
  0
VERTEX
  5
75
330
73
100
AcDbEntity
  8
_U+30EC_U+30A4_U+30E4_U+30FC 1
 62
   179
420
  2234388
370
     9
100
AcDbVertex
100
AcDb2dVertex
 10
97.34976612751167
 20
-162.7290863482067
 30
0.0
  0
SEQEND
  5
76
330
73
100
AcDbEntity
  8
_U+30EC_U+30A4_U+30E4_U+30FC 1
 62
   179
420
  2234388
370
     9
  0
POLYLINE
  5
77
330
57
100
AcDbEntity
  8
_U+30EC_U+30A4_U+30E4_U+30FC 1
 62
   179
420
  2234388
370
     9
100
AcDb2dPolyline
 66
     1
 10
0.0
 20
0.0
 30
0.0
  0
VERTEX
  5
78
330
77
100
AcDbEntity
  8
_U+30EC_U+30A4_U+30E4_U+30FC 1
 62
   179
420
  2234388
370
     9
100
AcDbVertex
100
AcDb2dVertex
 10
77.82058857018694
 20
-138.17451829879
 30
0.0
  0
VERTEX
  5
79
330
77
100
AcDbEntity
  8
_U+30EC_U+30A4_U+30E4_U+30FC 1
 62
   179
420
  2234388
370
     9
100
AcDbVertex
100
AcDb2dVertex
 10
77.82058857018694
 20
-163.7288585701792
 30
0.0
  0
SEQEND
  5
7A
330
77
100
AcDbEntity
  8
_U+30EC_U+30A4_U+30E4_U+30FC 1
 62
   179
420
  2234388
370
     9
  0
POLYLINE
  5
7B
330
57
100
AcDbEntity
  8
_U+30EC_U+30A4_U+30E4_U+30FC 1
 62
   179
420
  2234388
370
     9
100
AcDb2dPolyline
 66
     1
 10
0.0
 20
0.0
 30
0.0
  0
VERTEX
  5
7C
330
7B
100
AcDbEntity
  8
_U+30EC_U+30A4_U+30E4_U+30FC 1
 62
   179
420
  2234388
370
     9
100
AcDbVertex
100
AcDb2dVertex
 10
97.34976612751167
 20
-161.269044959683
 30
0.0
  0
VERTEX
  5
7D
330
7B
100
AcDbEntity
  8
_U+30EC_U+30A4_U+30E4_U+30FC 1
 62
   179
420
  2234388
370
     9
100
AcDbVertex
100
AcDb2dVertex
 10
97.34976612751167
 20
-163.7295288479566
 30
0.0
  0
SEQEND
  5
7E
330
7B
100
AcDbEntity
  8
_U+30EC_U+30A4_U+30E4_U+30FC 1
 62
   179
420
  2234388
370
     9
  0
SPLINE
  5
7F
330
57
100
AcDbEntity
  8
_U+30EC_U+30A4_U+30E4_U+30FC 1
 62
   179
420
  2234388
370
     9
100
AcDbSpline
210
0.0
220
0.0
230
1.0
 70
    11
 71
     3
 72
    17
 73
    13
 74
     0
 42
0.0000000001
 43
0.0000000001
 12
1.0
 22
0.0
 32
0.0
 13
1.0
 23
0.0
 33
0.0
 40
0.0
 40
0.0
 40
0.0
 40
0.0
 40
1.0
 40
1.0
 40
1.0
 40
2.0
 40
2.0
 40
2.0
 40
3.0
 40
3.0
 40
3.0
 40
4.0
 40
4.0
 40
4.0
 40
4.0
 10
93.44959622701329
 20
-162.7290863482067
 30
0.0
 10
93.44959622701329
 20
-162.6739471815536
 30
0.0
 10
93.40479345037852
 20
-162.629179681565
 30
0.0
 10
93.34968956289545
 20
-162.629179681565
 30
0.0
 10
93.29455275445426
 20
-162.629179681565
 30
0.0
 10
93.24978289877762
 20
-162.6739471815536
 30
0.0
 10
93.24978289877762
 20
-162.7290863482067
 30
0.0
 10
93.24978289877762
 20
-162.7845430148594
 30
0.0
 10
93.29455275445426
 20
-162.8293457926261
 30
0.0
 10
93.34968956289545
 20
-162.8293457926261
 30
0.0
 10
93.40479345037852
 20
-162.8293457926261
 30
0.0
 10
93.44959622701329
 20
-162.7845430148594
 30
0.0
 10
93.44959622701329
 20
-162.7290863482067
 30
0.0
  0
POLYLINE
  5
80
330
57
100
AcDbEntity
  8
_U+30EC_U+30A4_U+30E4_U+30FC 1
 62
   179
420
  2234388
370
     9
100
AcDb2dPolyline
 66
     1
 10
0.0
 20
0.0
 30
0.0
  0
VERTEX
  5
81
330
80
100
AcDbEntity
  8
_U+30EC_U+30A4_U+30E4_U+30FC 1
 62
   179
420
  2234388
370
     9
100
AcDbVertex
100
AcDb2dVertex
 10
93.34968956289545
 20
-161.269044959683
 30
0.0
  0
VERTEX
  5
82
330
80
100
AcDbEntity
  8
_U+30EC_U+30A4_U+30E4_U+30FC 1
 62
   179
420
  2234388
370
     9
100
AcDbVertex
100
AcDb2dVertex
 10
93.34968956289545
 20
-163.7295288479566
 30
0.0
  0
SEQEND
  5
83
330
80
100
AcDbEntity
  8
_U+30EC_U+30A4_U+30E4_U+30FC 1
 62
   179
420
  2234388
370
     9
  0
POLYLINE
  5
84
330
57
100
AcDbEntity
  8
_U+30EC_U+30A4_U+30E4_U+30FC 1
 62
   179
420
  2234388
370
     9
100
AcDb2dPolyline
 66
     1
 10
0.0
 20
0.0
 30
0.0
  0
VERTEX
  5
85
330
84
100
AcDbEntity
  8
_U+30EC_U+30A4_U+30E4_U+30FC 1
 62
   179
420
  2234388
370
     9
100
AcDbVertex
100
AcDb2dVertex
 10
97.34976612751167
 20
-96.72845636470664
 30
0.0
  0
VERTEX
  5
86
330
84
100
AcDbEntity
  8
_U+30EC_U+30A4_U+30E4_U+30FC 1
 62
   179
420
  2234388
370
     9
100
AcDbVertex
100
AcDb2dVertex
 10
78.77418215696986
 20
-96.72845636470664
 30
0.0
  0
SEQEND
  5
87
330
84
100
AcDbEntity
  8
_U+30EC_U+30A4_U+30E4_U+30FC 1
 62
   179
420
  2234388
370
     9
  0
POLYLINE
  5
88
330
57
100
AcDbEntity
  8
_U+30EC_U+30A4_U+30E4_U+30FC 1
 62
   179
420
  2234388
370
     9
100
AcDb2dPolyline
 66
     1
 10
0.0
 20
0.0
 30
0.0
  0
VERTEX
  5
89
330
88
100
AcDbEntity
  8
_U+30EC_U+30A4_U+30E4_U+30FC 1
 62
   179
420
  2234388
370
     9
100
AcDbVertex
100
AcDb2dVertex
 10
97.34976612751167
 20
-137.8093227433257
 30
0.0
  0
VERTEX
  5
8A
330
88
100
AcDbEntity
  8
_U+30EC_U+30A4_U+30E4_U+30FC 1
 62
   179
420
  2234388
370
     9
100
AcDbVertex
100
AcDb2dVertex
 10
97.34976612751167
 20
-95.7283666427345
 30
0.0
  0
SEQEND
  5
8B
330
88
100
AcDbEntity
  8
_U+30EC_U+30A4_U+30E4_U+30FC 1
 62
   179
420
  2234388
370
     9
  0
POLYLINE
  5
8C
330
57
100
AcDbEntity
  8
_U+30EC_U+30A4_U+30E4_U+30FC 1
 62
   179
420
  2234388
370
     9
100
AcDb2dPolyline
 66
     1
 10
0.0
 20
0.0
 30
0.0
  0
VERTEX
  5
8D
330
8C
100
AcDbEntity
  8
_U+30EC_U+30A4_U+30E4_U+30FC 1
 62
   179
420
  2234388
370
     9
100
AcDbVertex
100
AcDb2dVertex
 10
101.7495046263761
 20
-139.5298199651173
 30
0.0
  0
VERTEX
  5
8E
330
8C
100
AcDbEntity
  8
_U+30EC_U+30A4_U+30E4_U+30FC 1
 62
   179
420
  2234388
370
     9
100
AcDbVertex
100
AcDb2dVertex
 10
101.7495046263761
 20
-158.6803969047744
 30
0.0
  0
SEQEND
  5
8F
330
8C
100
AcDbEntity
  8
_U+30EC_U+30A4_U+30E4_U+30FC 1
 62
   179
420
  2234388
370
     9
  0
POLYLINE
  5
90
330
57
100
AcDbEntity
  8
_U+30EC_U+30A4_U+30E4_U+30FC 1
 62
   179
420
  2234388
370
     9
100
AcDb2dPolyline
 66
     1
 10
0.0
 20
0.0
 30
0.0
  0
VERTEX
  5
91
330
90
100
AcDbEntity
  8
_U+30EC_U+30A4_U+30E4_U+30FC 1
 62
   179
420
  2234388
370
     9
100
AcDbVertex
100
AcDb2dVertex
 10
103.0097326497806
 20
-138.7050607986573
 30
0.0
  0
VERTEX
  5
92
330
90
100
AcDbEntity
  8
_U+30EC_U+30A4_U+30E4_U+30FC 1
 62
   179
420
  2234388
370
     9
100
AcDbVertex
100
AcDb2dVertex
 10
98.34922082423567
 20
-138.7050607986573
 30
0.0
  0
SEQEND
  5
93
330
90
100
AcDbEntity
  8
_U+30EC_U+30A4_U+30E4_U+30FC 1
 62
   179
420
  2234388
370
     9
  0
SPLINE
  5
94
330
57
100
AcDbEntity
  8
_U+30EC_U+30A4_U+30E4_U+30FC 1
 62
   179
420
  2234388
370
     9
100
AcDbSpline
210
0.0
220
0.0
230
1.0
 70
    11
 71
     3
 72
    17
 73
    13
 74
     0
 42
0.0000000001
 43
0.0000000001
 12
1.0
 22
0.0
 32
0.0
 13
1.0
 23
0.0
 33
0.0
 40
0.0
 40
0.0
 40
0.0
 40
0.0
 40
1.0
 40
1.0
 40
1.0
 40
2.0
 40
2.0
 40
2.0
 40
3.0
 40
3.0
 40
3.0
 40
4.0
 40
4.0
 40
4.0
 40
4.0
 10
101.8494138634267
 20
-135.7050738549629
 30
0.0
 10
101.8494138634267
 20
-135.6502874660876
 30
0.0
 10
101.8046437916361
 20
-135.6055199660984
 30
0.0
 10
101.7495046263761
 20
-135.6055199660984
 30
0.0
 10
101.6947535166618
 20
-135.6055199660984
 30
0.0
 10
101.649950740027
 20
-135.6502874660876
 30
0.0
 10
101.649950740027
 20
-135.7050738549629
 30
0.0
 10
101.649950740027
 20
-135.7608832993934
 30
0.0
 10
101.6947535166618
 20
-135.8056507993819
 30
0.0
 10
101.7495046263761
 20
-135.8056507993819
 30
0.0
 10
101.8046437916361
 20
-135.8056507993819
 30
0.0
 10
101.8494138634267
 20
-135.7608832993934
 30
0.0
 10
101.8494138634267
 20
-135.7050738549629
 30
0.0
  0
POLYLINE
  5
95
330
57
100
AcDbEntity
  8
_U+30EC_U+30A4_U+30E4_U+30FC 1
 62
   179
420
  2234388
370
     9
100
AcDb2dPolyline
 66
     1
 10
0.0
 20
0.0
 30
0.0
  0
VERTEX
  5
96
330
95
100
AcDbEntity
  8
_U+30EC_U+30A4_U+30E4_U+30FC 1
 62
   179
420
  2234388
370
     9
100
AcDbVertex
100
AcDb2dVertex
 10
103.0097326497806
 20
-135.7050738549629
 30
0.0
  0
VERTEX
  5
97
330
95
100
AcDbEntity
  8
_U+30EC_U+30A4_U+30E4_U+30FC 1
 62
   179
420
  2234388
370
     9
100
AcDbVertex
100
AcDb2dVertex
 10
80.85154932619402
 20
-135.7050738549629
 30
0.0
  0
SEQEND
  5
98
330
95
100
AcDbEntity
  8
_U+30EC_U+30A4_U+30E4_U+30FC 1
 62
   179
420
  2234388
370
     9
  0
POLYLINE
  5
99
330
57
100
AcDbEntity
  8
_U+30EC_U+30A4_U+30E4_U+30FC 1
 62
   179
420
  2234388
370
     9
100
AcDb2dPolyline
 66
     1
 10
0.0
 20
0.0
 30
0.0
  0
VERTEX
  5
9A
330
99
100
AcDbEntity
  8
_U+30EC_U+30A4_U+30E4_U+30FC 1
 62
   179
420
  2234388
370
     9
100
AcDbVertex
100
AcDb2dVertex
 10
101.7495046263761
 20
-139.5298199651173
 30
0.0
  0
VERTEX
  5
9B
330
99
100
AcDbEntity
  8
_U+30EC_U+30A4_U+30E4_U+30FC 1
 62
   179
420
  2234388
370
     9
100
AcDbVertex
100
AcDb2dVertex
 10
101.7495046263761
 20
-100.7297677525953
 30
0.0
  0
SEQEND
  5
9C
330
99
100
AcDbEntity
  8
_U+30EC_U+30A4_U+30E4_U+30FC 1
 62
   179
420
  2234388
370
     9
  0
POLYLINE
  5
9D
330
57
100
AcDbEntity
  8
_U+30EC_U+30A4_U+30E4_U+30FC 1
 62
   179
420
  2234388
370
     9
100
AcDb2dPolyline
 66
     1
 10
0.0
 20
0.0
 30
0.0
  0
VERTEX
  5
9E
330
9D
100
AcDbEntity
  8
_U+30EC_U+30A4_U+30E4_U+30FC 1
 62
   179
420
  2234388
370
     9
100
AcDbVertex
100
AcDb2dVertex
 10
103.0097326497806
 20
-100.7295913637064
 30
0.0
  0
VERTEX
  5
9F
330
9D
100
AcDbEntity
  8
_U+30EC_U+30A4_U+30E4_U+30FC 1
 62
   179
420
  2234388
370
     9
100
AcDbVertex
100
AcDb2dVertex
 10
80.328591561758
 20
-100.7295913637064
 30
0.0
  0
SEQEND
  5
A0
330
9D
100
AcDbEntity
  8
_U+30EC_U+30A4_U+30E4_U+30FC 1
 62
   179
420
  2234388
370
     9
  0
ENDBLK
  5
5A
330
57
100
AcDbEntity
  8
0
100
AcDbBlockEnd
  0
BLOCK
  5
A3
330
A1
100
AcDbEntity
  8
0
100
AcDbBlockBegin
  2
block 4
 70
     0
 10
0.0
 20
0.0
 30
0.0
  3
block 4
  1

  0
SPLINE
  5
A5
330
A1
100
AcDbEntity
  8
_U+30EC_U+30A4_U+30E4_U+30FC 1
370
     0
100
AcDbSpline
210
0.0
220
0.0
230
1.0
 70
    11
 71
     3
 72
    26
 73
    22
 74
     0
 42
0.0000000001
 43
0.0000000001
 12
1.0
 22
0.0
 32
0.0
 13
1.0
 23
0.0
 33
0.0
 40
0.0
 40
0.0
 40
0.0
 40
0.0
 40
1.0
 40
1.0
 40
1.0
 40
2.0
 40
2.0
 40
2.0
 40
3.0
 40
3.0
 40
3.0
 40
4.0
 40
4.0
 40
4.0
 40
5.0
 40
5.0
 40
5.0
 40
6.0
 40
6.0
 40
6.0
 40
7.0
 40
7.0
 40
7.0
 40
7.0
 10
77.3334363955972
 20
-95.0126328972538
 30
0.0
 10
77.3334363955972
 20
-95.0126328972538
 30
0.0
 10
77.3334363955972
 20
-93.90830753945696
 30
0.0
 10
77.3334363955972
 20
-93.90830753945696
 30
0.0
 10
77.3334363955972
 20
-93.90830753945696
 30
0.0
 10
77.00339624811026
 20
-93.90830753945696
 30
0.0
 10
77.00339624811026
 20
-93.90830753945696
 30
0.0
 10
77.00339624811026
 20
-93.90830753945696
 30
0.0
 10
77.00339624811026
 20
-93.76034068836547
 30
0.0
 10
77.00339624811026
 20
-93.76034068836547
 30
0.0
 10
77.33550345288835
 20
-93.7455267777789
 30
0.0
 10
77.38201224193922
 20
-93.58257376132659
 30
0.0
 10
77.41164006311237
 20
-93.46836884599055
 30
0.0
 10
77.41164006311237
 20
-93.46836884599055
 30
0.0
 10
77.55771211168697
 20
-93.46836884599055
 30
0.0
 10
77.55771211168697
 20
-93.46836884599055
 30
0.0
 10
77.55771211168697
 20
-93.46836884599055
 30
0.0
 10
77.55771211168697
 20
-95.0126328972538
 30
0.0
 10
77.55771211168697
 20
-95.0126328972538
 30
0.0
 10
77.55771211168697
 20
-95.0126328972538
 30
0.0
 10
77.3334363955972
 20
-95.0126328972538
 30
0.0
 10
77.3334363955972
 20
-95.0126328972538
 30
0.0
  0
HATCH
  5
A6
330
A1
100
AcDbEntity
  8
_U+30EC_U+30A4_U+30E4_U+30FC 1
 62
   179
420
  2234388
100
AcDbHatch
 10
0.0
 20
0.0
 30
0.0
210
0.0
220
0.0
230
1.0
  2
SOLID
 70
     1
 71
     0
 91
        1
 92
        1
 93
        1
 72
     4
 94
        3
 73
     0
 74
     1
 95
       26
 96
       22
 40
0.0
 40
0.0
 40
0.0
 40
0.0
 40
1.0
 40
1.0
 40
1.0
 40
2.0
 40
2.0
 40
2.0
 40
3.0
 40
3.0
 40
3.0
 40
4.0
 40
4.0
 40
4.0
 40
5.0
 40
5.0
 40
5.0
 40
6.0
 40
6.0
 40
6.0
 40
7.0
 40
7.0
 40
7.0
 40
7.0
 10
77.3334363955972
 20
-95.0126328972538
 10
77.3334363955972
 20
-95.0126328972538
 10
77.3334363955972
 20
-93.90830753945696
 10
77.3334363955972
 20
-93.90830753945696
 10
77.3334363955972
 20
-93.90830753945696
 10
77.00339624811026
 20
-93.90830753945696
 10
77.00339624811026
 20
-93.90830753945696
 10
77.00339624811026
 20
-93.90830753945696
 10
77.00339624811026
 20
-93.76034068836547
 10
77.00339624811026
 20
-93.76034068836547
 10
77.33550345288835
 20
-93.7455267777789
 10
77.38201224193922
 20
-93.58257376132659
 10
77.41164006311237
 20
-93.46836884599055
 10
77.41164006311237
 20
-93.46836884599055
 10
77.55771211168697
 20
-93.46836884599055
 10
77.55771211168697
 20
-93.46836884599055
 10
77.55771211168697
 20
-93.46836884599055
 10
77.55771211168697
 20
-95.0126328972538
 10
77.55771211168697
 20
-95.0126328972538
 10
77.55771211168697
 20
-95.0126328972538
 10
77.3334363955972
 20
-95.0126328972538
 10
77.3334363955972
 20
-95.0126328972538
 97
        0
 97
        0
 75
     2
 76
     1
 98
        0
  0
POLYLINE
  5
A7
330
A1
100
AcDbEntity
  8
_U+30EC_U+30A4_U+30E4_U+30FC 1
370
     0
100
AcDb2dPolyline
 66
     1
 10
0.0
 20
0.0
 30
0.0
  0
VERTEX
  5
A8
330
A7
100
AcDbEntity
  8
_U+30EC_U+30A4_U+30E4_U+30FC 1
370
     0
100
AcDbVertex
100
AcDb2dVertex
 10
78.11891816623417
 20
-95.0126328972538
 30
0.0
  0
VERTEX
  5
A9
330
A7
100
AcDbEntity
  8
_U+30EC_U+30A4_U+30E4_U+30FC 1
370
     0
100
AcDbVertex
100
AcDb2dVertex
 10
78.11891816623417
 20
-94.7609686720563
 30
0.0
  0
VERTEX
  5
AA
330
A7
100
AcDbEntity
  8
_U+30EC_U+30A4_U+30E4_U+30FC 1
370
     0
100
AcDbVertex
100
AcDb2dVertex
 10
78.37058239143167
 20
-94.7609686720563
 30
0.0
  0
VERTEX
  5
AB
330
A7
100
AcDbEntity
  8
_U+30EC_U+30A4_U+30E4_U+30FC 1
370
     0
100
AcDbVertex
100
AcDb2dVertex
 10
78.37058239143167
 20
-95.0126328972538
 30
0.0
  0
VERTEX
  5
AC
330
A7
100
AcDbEntity
  8
_U+30EC_U+30A4_U+30E4_U+30FC 1
370
     0
100
AcDbVertex
100
AcDb2dVertex
 10
78.11891816623417
 20
-95.0126328972538
 30
0.0
  0
SEQEND
  5
AD
330
A7
100
AcDbEntity
  8
_U+30EC_U+30A4_U+30E4_U+30FC 1
370
     0
  0
HATCH
  5
AE
330
A1
100
AcDbEntity
  8
_U+30EC_U+30A4_U+30E4_U+30FC 1
 62
   179
420
  2234388
100
AcDbHatch
 10
0.0
 20
0.0
 30
0.0
210
0.0
220
0.0
230
1.0
  2
SOLID
 70
     1
 71
     0
 91
        1
 92
        1
 93
        4
 72
     1
 10
78.11891816623417
 20
-95.0126328972538
 11
78.11891816623417
 21
-94.7609686720563
 72
     1
 10
78.11891816623417
 20
-94.7609686720563
 11
78.37058239143167
 21
-94.7609686720563
 72
     1
 10
78.37058239143167
 20
-94.7609686720563
 11
78.37058239143167
 21
-95.0126328972538
 72
     1
 10
78.37058239143167
 20
-95.0126328972538
 11
78.11891816623417
 21
-95.0126328972538
 97
        0
 75
     2
 76
     1
 98
        0
  0
SPLINE
  5
AF
330
A1
100
AcDbEntity
  8
_U+30EC_U+30A4_U+30E4_U+30FC 1
370
     0
100
AcDbSpline
210
0.0
220
0.0
230
1.0
 70
    11
 71
     3
 72
    26
 73
    22
 74
     0
 42
0.0000000001
 43
0.0000000001
 12
1.0
 22
0.0
 32
0.0
 13
1.0
 23
0.0
 33
0.0
 40
0.0
 40
0.0
 40
0.0
 40
0.0
 40
1.0
 40
1.0
 40
1.0
 40
2.0
 40
2.0
 40
2.0
 40
3.0
 40
3.0
 40
3.0
 40
4.0
 40
4.0
 40
4.0
 40
5.0
 40
5.0
 40
5.0
 40
6.0
 40
6.0
 40
6.0
 40
7.0
 40
7.0
 40
7.0
 40
7.0
 10
79.05856795983605
 20
-95.0126328972538
 30
0.0
 10
79.05856795983605
 20
-95.0126328972538
 30
0.0
 10
79.05856795983605
 20
-93.90830753945696
 30
0.0
 10
79.05856795983605
 20
-93.90830753945696
 30
0.0
 10
79.05856795983605
 20
-93.90830753945696
 30
0.0
 10
78.72852781234913
 20
-93.90830753945696
 30
0.0
 10
78.72852781234913
 20
-93.90830753945696
 30
0.0
 10
78.72852781234913
 20
-93.90830753945696
 30
0.0
 10
78.72852781234913
 20
-93.76034068836547
 30
0.0
 10
78.72852781234913
 20
-93.76034068836547
 30
0.0
 10
79.06063501712721
 20
-93.7455267777789
 30
0.0
 10
79.10714380617807
 20
-93.58257376132659
 30
0.0
 10
79.13677162735122
 20
-93.46836884599055
 30
0.0
 10
79.13677162735122
 20
-93.46836884599055
 30
0.0
 10
79.28284367592582
 20
-93.46836884599055
 30
0.0
 10
79.28284367592582
 20
-93.46836884599055
 30
0.0
 10
79.28284367592582
 20
-93.46836884599055
 30
0.0
 10
79.28284367592582
 20
-95.0126328972538
 30
0.0
 10
79.28284367592582
 20
-95.0126328972538
 30
0.0
 10
79.28284367592582
 20
-95.0126328972538
 30
0.0
 10
79.05856795983605
 20
-95.0126328972538
 30
0.0
 10
79.05856795983605
 20
-95.0126328972538
 30
0.0
  0
HATCH
  5
B0
330
A1
100
AcDbEntity
  8
_U+30EC_U+30A4_U+30E4_U+30FC 1
 62
   179
420
  2234388
100
AcDbHatch
 10
0.0
 20
0.0
 30
0.0
210
0.0
220
0.0
230
1.0
  2
SOLID
 70
     1
 71
     0
 91
        1
 92
        1
 93
        1
 72
     4
 94
        3
 73
     0
 74
     1
 95
       26
 96
       22
 40
0.0
 40
0.0
 40
0.0
 40
0.0
 40
1.0
 40
1.0
 40
1.0
 40
2.0
 40
2.0
 40
2.0
 40
3.0
 40
3.0
 40
3.0
 40
4.0
 40
4.0
 40
4.0
 40
5.0
 40
5.0
 40
5.0
 40
6.0
 40
6.0
 40
6.0
 40
7.0
 40
7.0
 40
7.0
 40
7.0
 10
79.05856795983605
 20
-95.0126328972538
 10
79.05856795983605
 20
-95.0126328972538
 10
79.05856795983605
 20
-93.90830753945696
 10
79.05856795983605
 20
-93.90830753945696
 10
79.05856795983605
 20
-93.90830753945696
 10
78.72852781234913
 20
-93.90830753945696
 10
78.72852781234913
 20
-93.90830753945696
 10
78.72852781234913
 20
-93.90830753945696
 10
78.72852781234913
 20
-93.76034068836547
 10
78.72852781234913
 20
-93.76034068836547
 10
79.06063501712721
 20
-93.7455267777789
 10
79.10714380617807
 20
-93.58257376132659
 10
79.13677162735122
 20
-93.46836884599055
 10
79.13677162735122
 20
-93.46836884599055
 10
79.28284367592582
 20
-93.46836884599055
 10
79.28284367592582
 20
-93.46836884599055
 10
79.28284367592582
 20
-93.46836884599055
 10
79.28284367592582
 20
-95.0126328972538
 10
79.28284367592582
 20
-95.0126328972538
 10
79.28284367592582
 20
-95.0126328972538
 10
79.05856795983605
 20
-95.0126328972538
 10
79.05856795983605
 20
-95.0126328972538
 97
        0
 97
        0
 75
     2
 76
     1
 98
        0
  0
ENDBLK
  5
A4
330
A1
100
AcDbEntity
  8
0
100
AcDbBlockEnd
  0
BLOCK
  5
B3
330
B1
100
AcDbEntity
  8
0
100
AcDbBlockBegin
  2
block 5
 70
     0
 10
0.0
 20
0.0
 30
0.0
  3
block 5
  1

  0
SPLINE
  5
B5
330
B1
100
AcDbEntity
  8
_U+30EC_U+30A4_U+30E4_U+30FC 1
370
     0
100
AcDbSpline
210
0.0
220
0.0
230
1.0
 70
    11
 71
     3
 72
    26
 73
    22
 74
     0
 42
0.0000000001
 43
0.0000000001
 12
1.0
 22
0.0
 32
0.0
 13
1.0
 23
0.0
 33
0.0
 40
0.0
 40
0.0
 40
0.0
 40
0.0
 40
1.0
 40
1.0
 40
1.0
 40
2.0
 40
2.0
 40
2.0
 40
3.0
 40
3.0
 40
3.0
 40
4.0
 40
4.0
 40
4.0
 40
5.0
 40
5.0
 40
5.0
 40
6.0
 40
6.0
 40
6.0
 40
7.0
 40
7.0
 40
7.0
 40
7.0
 10
83.96920706451118
 20
-162.0834743518402
 30
0.0
 10
83.96920706451118
 20
-162.0834743518402
 30
0.0
 10
83.96920706451118
 20
-160.9789767392691
 30
0.0
 10
83.96920706451118
 20
-160.9789767392691
 30
0.0
 10
83.96920706451118
 20
-160.9789767392691
 30
0.0
 10
83.63916691702424
 20
-160.9789767392691
 30
0.0
 10
83.63916691702424
 20
-160.9789767392691
 30
0.0
 10
83.63916691702424
 20
-160.9789767392691
 30
0.0
 10
83.63916691702424
 20
-160.8311821429519
 30
0.0
 10
83.63916691702424
 20
-160.8311821429519
 30
0.0
 10
83.97127412180232
 20
-160.8163682323654
 30
0.0
 10
84.0177829108532
 20
-160.653415215913
 30
0.0
 10
84.04741073202635
 20
-160.5393825553513
 30
0.0
 10
84.04741073202635
 20
-160.5393825553513
 30
0.0
 10
84.19348278060095
 20
-160.5393825553513
 30
0.0
 10
84.19348278060095
 20
-160.5393825553513
 30
0.0
 10
84.19348278060095
 20
-160.5393825553513
 30
0.0
 10
84.19348278060095
 20
-162.0834743518402
 30
0.0
 10
84.19348278060095
 20
-162.0834743518402
 30
0.0
 10
84.19348278060095
 20
-162.0834743518402
 30
0.0
 10
83.96920706451118
 20
-162.0834743518402
 30
0.0
 10
83.96920706451118
 20
-162.0834743518402
 30
0.0
  0
HATCH
  5
B6
330
B1
100
AcDbEntity
  8
_U+30EC_U+30A4_U+30E4_U+30FC 1
 62
   179
420
  2234388
100
AcDbHatch
 10
0.0
 20
0.0
 30
0.0
210
0.0
220
0.0
230
1.0
  2
SOLID
 70
     1
 71
     0
 91
        1
 92
        1
 93
        1
 72
     4
 94
        3
 73
     0
 74
     1
 95
       26
 96
       22
 40
0.0
 40
0.0
 40
0.0
 40
0.0
 40
1.0
 40
1.0
 40
1.0
 40
2.0
 40
2.0
 40
2.0
 40
3.0
 40
3.0
 40
3.0
 40
4.0
 40
4.0
 40
4.0
 40
5.0
 40
5.0
 40
5.0
 40
6.0
 40
6.0
 40
6.0
 40
7.0
 40
7.0
 40
7.0
 40
7.0
 10
83.96920706451118
 20
-162.0834743518402
 10
83.96920706451118
 20
-162.0834743518402
 10
83.96920706451118
 20
-160.9789767392691
 10
83.96920706451118
 20
-160.9789767392691
 10
83.96920706451118
 20
-160.9789767392691
 10
83.63916691702424
 20
-160.9789767392691
 10
83.63916691702424
 20
-160.9789767392691
 10
83.63916691702424
 20
-160.9789767392691
 10
83.63916691702424
 20
-160.8311821429519
 10
83.63916691702424
 20
-160.8311821429519
 10
83.97127412180232
 20
-160.8163682323654
 10
84.0177829108532
 20
-160.653415215913
 10
84.04741073202635
 20
-160.5393825553513
 10
84.04741073202635
 20
-160.5393825553513
 10
84.19348278060095
 20
-160.5393825553513
 10
84.19348278060095
 20
-160.5393825553513
 10
84.19348278060095
 20
-160.5393825553513
 10
84.19348278060095
 20
-162.0834743518402
 10
84.19348278060095
 20
-162.0834743518402
 10
84.19348278060095
 20
-162.0834743518402
 10
83.96920706451118
 20
-162.0834743518402
 10
83.96920706451118
 20
-162.0834743518402
 97
        0
 97
        0
 75
     2
 76
     1
 98
        0
  0
SPLINE
  5
B7
330
B1
100
AcDbEntity
  8
_U+30EC_U+30A4_U+30E4_U+30FC 1
370
     0
100
AcDbSpline
210
0.0
220
0.0
230
1.0
 70
    11
 71
     3
 72
    53
 73
    49
 74
     0
 42
0.0000000001
 43
0.0000000001
 12
1.0
 22
0.0
 32
0.0
 13
1.0
 23
0.0
 33
0.0
 40
0.0
 40
0.0
 40
0.0
 40
0.0
 40
1.0
 40
1.0
 40
1.0
 40
2.0
 40
2.0
 40
2.0
 40
3.0
 40
3.0
 40
3.0
 40
4.0
 40
4.0
 40
4.0
 40
5.0
 40
5.0
 40
5.0
 40
6.0
 40
6.0
 40
6.0
 40
7.0
 40
7.0
 40
7.0
 40
8.0
 40
8.0
 40
8.0
 40
9.0
 40
9.0
 40
9.0
 40
10.0
 40
10.0
 40
10.0
 40
11.0
 40
11.0
 40
11.0
 40
12.0
 40
12.0
 40
12.0
 40
13.0
 40
13.0
 40
13.0
 40
14.0
 40
14.0
 40
14.0
 40
15.0
 40
15.0
 40
15.0
 40
16.0
 40
16.0
 40
16.0
 40
16.0
 10
85.17567950344566
 20
-162.1344617650219
 30
0.0
 10
85.09730358115624
 20
-162.1344617650219
 30
0.0
 10
84.99584551911562
 20
-162.1172362875957
 30
0.0
 10
84.89421520230076
 20
-162.0538465306671
 30
0.0
 10
84.72075464461842
 20
-161.9436034751391
 30
0.0
 10
84.69956730738414
 20
-161.8126898466996
 30
0.0
 10
84.68061928221526
 20
-161.7048583580113
 30
0.0
 10
84.68061928221526
 20
-161.7048583580113
 30
0.0
 10
84.90265568623961
 20
-161.7048583580113
 30
0.0
 10
84.90265568623961
 20
-161.7048583580113
 30
0.0
 10
84.95777721400361
 20
-161.9036403675102
 30
0.0
 10
85.08472898263507
 20
-161.9332681886834
 30
0.0
 10
85.17774656073682
 20
-161.9332681886834
 30
0.0
 10
85.31727292788943
 20
-161.9332681886834
 30
0.0
 10
85.46971840311174
 20
-161.8340494387081
 30
0.0
 10
85.46971840311174
 20
-161.6011609839053
 30
0.0
 10
85.46971840311174
 20
-161.3451903893512
 30
0.0
 10
85.2898844187817
 20
-161.2752549510006
 30
0.0
 10
85.16930607679795
 20
-161.2752549510006
 30
0.0
 10
85.13761119833366
 20
-161.2752549510006
 30
0.0
 10
84.99584551911562
 20
-161.2752549510006
 30
0.0
 10
84.90696205559618
 20
-161.4044460316975
 30
0.0
 10
84.90696205559618
 20
-161.4044460316975
 30
0.0
 10
84.7314344406227
 20
-161.3854980065286
 30
0.0
 10
84.7314344406227
 20
-161.3854980065286
 30
0.0
 10
84.7314344406227
 20
-161.3854980065286
 30
0.0
 10
84.85201278260645
 20
-160.5393825553513
 30
0.0
 10
84.85201278260645
 20
-160.5393825553513
 30
0.0
 10
84.85201278260645
 20
-160.5393825553513
 30
0.0
 10
85.63043210749865
 20
-160.5393825553513
 30
0.0
 10
85.63043210749865
 20
-160.5393825553513
 30
0.0
 10
85.63043210749865
 20
-160.5393825553513
 30
0.0
 10
85.63043210749865
 20
-160.7336859407194
 30
0.0
 10
85.63043210749865
 20
-160.7336859407194
 30
0.0
 10
85.63043210749865
 20
-160.7336859407194
 30
0.0
 10
85.0147935442845
 20
-160.7336859407194
 30
0.0
 10
85.0147935442845
 20
-160.7336859407194
 30
0.0
 10
85.0147935442845
 20
-160.7336859407194
 30
0.0
 10
84.94933673006476
 20
-161.156743666308
 30
0.0
 10
84.94933673006476
 20
-161.156743666308
 30
0.0
 10
85.0106594297022
 20
-161.1229817305526
 30
0.0
 10
85.09316946657394
 20
-161.0830186229237
 30
0.0
 10
85.21150849649227
 20
-161.0830186229237
 30
0.0
 10
85.46541203375517
 20
-161.0830186229237
 30
0.0
 10
85.70243460314036
 20
-161.2690537791272
 30
0.0
 10
85.70243460314036
 20
-161.5818684491879
 30
0.0
 10
85.70243460314036
 20
-161.8995062529279
 30
0.0
 10
85.4781588870506
 20
-162.1344617650219
 30
0.0
 10
85.17567950344566
 20
-162.1344617650219
 30
0.0
  0
HATCH
  5
B8
330
B1
100
AcDbEntity
  8
_U+30EC_U+30A4_U+30E4_U+30FC 1
 62
   179
420
  2234388
100
AcDbHatch
 10
0.0
 20
0.0
 30
0.0
210
0.0
220
0.0
230
1.0
  2
SOLID
 70
     1
 71
     0
 91
        1
 92
        1
 93
        1
 72
     4
 94
        3
 73
     0
 74
     1
 95
       53
 96
       49
 40
0.0
 40
0.0
 40
0.0
 40
0.0
 40
1.0
 40
1.0
 40
1.0
 40
2.0
 40
2.0
 40
2.0
 40
3.0
 40
3.0
 40
3.0
 40
4.0
 40
4.0
 40
4.0
 40
5.0
 40
5.0
 40
5.0
 40
6.0
 40
6.0
 40
6.0
 40
7.0
 40
7.0
 40
7.0
 40
8.0
 40
8.0
 40
8.0
 40
9.0
 40
9.0
 40
9.0
 40
10.0
 40
10.0
 40
10.0
 40
11.0
 40
11.0
 40
11.0
 40
12.0
 40
12.0
 40
12.0
 40
13.0
 40
13.0
 40
13.0
 40
14.0
 40
14.0
 40
14.0
 40
15.0
 40
15.0
 40
15.0
 40
16.0
 40
16.0
 40
16.0
 40
16.0
 10
85.17567950344566
 20
-162.1344617650219
 10
85.09730358115624
 20
-162.1344617650219
 10
84.99584551911562
 20
-162.1172362875957
 10
84.89421520230076
 20
-162.0538465306671
 10
84.72075464461842
 20
-161.9436034751391
 10
84.69956730738414
 20
-161.8126898466996
 10
84.68061928221526
 20
-161.7048583580113
 10
84.68061928221526
 20
-161.7048583580113
 10
84.90265568623961
 20
-161.7048583580113
 10
84.90265568623961
 20
-161.7048583580113
 10
84.95777721400361
 20
-161.9036403675102
 10
85.08472898263507
 20
-161.9332681886834
 10
85.17774656073682
 20
-161.9332681886834
 10
85.31727292788943
 20
-161.9332681886834
 10
85.46971840311174
 20
-161.8340494387081
 10
85.46971840311174
 20
-161.6011609839053
 10
85.46971840311174
 20
-161.3451903893512
 10
85.2898844187817
 20
-161.2752549510006
 10
85.16930607679795
 20
-161.2752549510006
 10
85.13761119833366
 20
-161.2752549510006
 10
84.99584551911562
 20
-161.2752549510006
 10
84.90696205559618
 20
-161.4044460316975
 10
84.90696205559618
 20
-161.4044460316975
 10
84.7314344406227
 20
-161.3854980065286
 10
84.7314344406227
 20
-161.3854980065286
 10
84.7314344406227
 20
-161.3854980065286
 10
84.85201278260645
 20
-160.5393825553513
 10
84.85201278260645
 20
-160.5393825553513
 10
84.85201278260645
 20
-160.5393825553513
 10
85.63043210749865
 20
-160.5393825553513
 10
85.63043210749865
 20
-160.5393825553513
 10
85.63043210749865
 20
-160.5393825553513
 10
85.63043210749865
 20
-160.7336859407194
 10
85.63043210749865
 20
-160.7336859407194
 10
85.63043210749865
 20
-160.7336859407194
 10
85.0147935442845
 20
-160.7336859407194
 10
85.0147935442845
 20
-160.7336859407194
 10
85.0147935442845
 20
-160.7336859407194
 10
84.94933673006476
 20
-161.156743666308
 10
84.94933673006476
 20
-161.156743666308
 10
85.0106594297022
 20
-161.1229817305526
 10
85.09316946657394
 20
-161.0830186229237
 10
85.21150849649227
 20
-161.0830186229237
 10
85.46541203375517
 20
-161.0830186229237
 10
85.70243460314036
 20
-161.2690537791272
 10
85.70243460314036
 20
-161.5818684491879
 10
85.70243460314036
 20
-161.8995062529279
 10
85.4781588870506
 20
-162.1344617650219
 10
85.17567950344566
 20
-162.1344617650219
 97
        0
 97
        0
 75
     2
 76
     1
 98
        0
  0
POLYLINE
  5
B9
330
B1
100
AcDbEntity
  8
_U+30EC_U+30A4_U+30E4_U+30FC 1
370
     0
100
AcDb2dPolyline
 66
     1
 10
0.0
 20
0.0
 30
0.0
  0
VERTEX
  5
BA
330
B9
100
AcDbEntity
  8
_U+30EC_U+30A4_U+30E4_U+30FC 1
370
     0
100
AcDbVertex
100
AcDb2dVertex
 10
85.93153345290948
 20
-162.0834743518402
 30
0.0
  0
VERTEX
  5
BB
330
B9
100
AcDbEntity
  8
_U+30EC_U+30A4_U+30E4_U+30FC 1
370
     0
100
AcDbVertex
100
AcDb2dVertex
 10
85.93153345290948
 20
-161.831982381417
 30
0.0
  0
VERTEX
  5
BC
330
B9
100
AcDbEntity
  8
_U+30EC_U+30A4_U+30E4_U+30FC 1
370
     0
100
AcDbVertex
100
AcDb2dVertex
 10
86.18319767810698
 20
-161.831982381417
 30
0.0
  0
VERTEX
  5
BD
330
B9
100
AcDbEntity
  8
_U+30EC_U+30A4_U+30E4_U+30FC 1
370
     0
100
AcDbVertex
100
AcDb2dVertex
 10
86.18319767810698
 20
-162.0834743518402
 30
0.0
  0
VERTEX
  5
BE
330
B9
100
AcDbEntity
  8
_U+30EC_U+30A4_U+30E4_U+30FC 1
370
     0
100
AcDbVertex
100
AcDb2dVertex
 10
85.93153345290948
 20
-162.0834743518402
 30
0.0
  0
SEQEND
  5
BF
330
B9
100
AcDbEntity
  8
_U+30EC_U+30A4_U+30E4_U+30FC 1
370
     0
  0
HATCH
  5
C0
330
B1
100
AcDbEntity
  8
_U+30EC_U+30A4_U+30E4_U+30FC 1
 62
   179
420
  2234388
100
AcDbHatch
 10
0.0
 20
0.0
 30
0.0
210
0.0
220
0.0
230
1.0
  2
SOLID
 70
     1
 71
     0
 91
        1
 92
        1
 93
        4
 72
     1
 10
85.93153345290948
 20
-162.0834743518402
 11
85.93153345290948
 21
-161.831982381417
 72
     1
 10
85.93153345290948
 20
-161.831982381417
 11
86.18319767810698
 21
-161.831982381417
 72
     1
 10
86.18319767810698
 20
-161.831982381417
 11
86.18319767810698
 21
-162.0834743518402
 72
     1
 10
86.18319767810698
 20
-162.0834743518402
 11
85.93153345290948
 21
-162.0834743518402
 97
        0
 75
     2
 76
     1
 98
        0
  0
SPLINE
  5
C1
330
B1
100
AcDbEntity
  8
_U+30EC_U+30A4_U+30E4_U+30FC 1
370
     0
100
AcDbSpline
210
0.0
220
0.0
230
1.0
 70
    11
 71
     3
 72
    53
 73
    49
 74
     0
 42
0.0000000001
 43
0.0000000001
 12
1.0
 22
0.0
 32
0.0
 13
1.0
 23
0.0
 33
0.0
 40
0.0
 40
0.0
 40
0.0
 40
0.0
 40
1.0
 40
1.0
 40
1.0
 40
2.0
 40
2.0
 40
2.0
 40
3.0
 40
3.0
 40
3.0
 40
4.0
 40
4.0
 40
4.0
 40
5.0
 40
5.0
 40
5.0
 40
6.0
 40
6.0
 40
6.0
 40
7.0
 40
7.0
 40
7.0
 40
8.0
 40
8.0
 40
8.0
 40
9.0
 40
9.0
 40
9.0
 40
10.0
 40
10.0
 40
10.0
 40
11.0
 40
11.0
 40
11.0
 40
12.0
 40
12.0
 40
12.0
 40
13.0
 40
13.0
 40
13.0
 40
14.0
 40
14.0
 40
14.0
 40
15.0
 40
15.0
 40
15.0
 40
16.0
 40
16.0
 40
16.0
 40
16.0
 10
86.90081106768453
 20
-162.1344617650219
 30
0.0
 10
86.82243514539509
 20
-162.1344617650219
 30
0.0
 10
86.72097708335448
 20
-162.1172362875957
 30
0.0
 10
86.6193467665396
 20
-162.0538465306671
 30
0.0
 10
86.44588620885729
 20
-161.9436034751391
 30
0.0
 10
86.424698871623
 20
-161.8126898466996
 30
0.0
 10
86.40575084645413
 20
-161.7048583580113
 30
0.0
 10
86.40575084645413
 20
-161.7048583580113
 30
0.0
 10
86.62778725047848
 20
-161.7048583580113
 30
0.0
 10
86.62778725047848
 20
-161.7048583580113
 30
0.0
 10
86.68290877824248
 20
-161.9036403675102
 30
0.0
 10
86.80986054687392
 20
-161.9332681886834
 30
0.0
 10
86.90287812497567
 20
-161.9332681886834
 30
0.0
 10
87.04257674690255
 20
-161.9332681886834
 30
0.0
 10
87.19484996735059
 20
-161.8340494387081
 30
0.0
 10
87.19484996735059
 20
-161.6011609839053
 30
0.0
 10
87.19484996735059
 20
-161.3451903893512
 30
0.0
 10
87.01501598302056
 20
-161.2752549510006
 30
0.0
 10
86.89443764103682
 20
-161.2752549510006
 30
0.0
 10
86.86274276257251
 20
-161.2752549510006
 30
0.0
 10
86.72097708335448
 20
-161.2752549510006
 30
0.0
 10
86.63209361983503
 20
-161.4044460316975
 30
0.0
 10
86.63209361983503
 20
-161.4044460316975
 30
0.0
 10
86.45656600486156
 20
-161.3854980065286
 30
0.0
 10
86.45656600486156
 20
-161.3854980065286
 30
0.0
 10
86.45656600486156
 20
-161.3854980065286
 30
0.0
 10
86.5771443468453
 20
-160.5393825553513
 30
0.0
 10
86.5771443468453
 20
-160.5393825553513
 30
0.0
 10
86.5771443468453
 20
-160.5393825553513
 30
0.0
 10
87.3555636717375
 20
-160.5393825553513
 30
0.0
 10
87.3555636717375
 20
-160.5393825553513
 30
0.0
 10
87.3555636717375
 20
-160.5393825553513
 30
0.0
 10
87.3555636717375
 20
-160.7336859407194
 30
0.0
 10
87.3555636717375
 20
-160.7336859407194
 30
0.0
 10
87.3555636717375
 20
-160.7336859407194
 30
0.0
 10
86.73992510852335
 20
-160.7336859407194
 30
0.0
 10
86.73992510852335
 20
-160.7336859407194
 30
0.0
 10
86.73992510852335
 20
-160.7336859407194
 30
0.0
 10
86.67446829430361
 20
-161.156743666308
 30
0.0
 10
86.67446829430361
 20
-161.156743666308
 30
0.0
 10
86.73579099394105
 20
-161.1229817305526
 30
0.0
 10
86.81830103081279
 20
-161.0830186229237
 30
0.0
 10
86.93664006073112
 20
-161.0830186229237
 30
0.0
 10
87.19054359799404
 20
-161.0830186229237
 30
0.0
 10
87.42756616737923
 20
-161.2690537791272
 30
0.0
 10
87.42756616737923
 20
-161.5818684491879
 30
0.0
 10
87.42756616737923
 20
-161.8995062529279
 30
0.0
 10
87.20329045128946
 20
-162.1344617650219
 30
0.0
 10
86.90081106768453
 20
-162.1344617650219
 30
0.0
  0
HATCH
  5
C2
330
B1
100
AcDbEntity
  8
_U+30EC_U+30A4_U+30E4_U+30FC 1
 62
   179
420
  2234388
100
AcDbHatch
 10
0.0
 20
0.0
 30
0.0
210
0.0
220
0.0
230
1.0
  2
SOLID
 70
     1
 71
     0
 91
        1
 92
        1
 93
        1
 72
     4
 94
        3
 73
     0
 74
     1
 95
       53
 96
       49
 40
0.0
 40
0.0
 40
0.0
 40
0.0
 40
1.0
 40
1.0
 40
1.0
 40
2.0
 40
2.0
 40
2.0
 40
3.0
 40
3.0
 40
3.0
 40
4.0
 40
4.0
 40
4.0
 40
5.0
 40
5.0
 40
5.0
 40
6.0
 40
6.0
 40
6.0
 40
7.0
 40
7.0
 40
7.0
 40
8.0
 40
8.0
 40
8.0
 40
9.0
 40
9.0
 40
9.0
 40
10.0
 40
10.0
 40
10.0
 40
11.0
 40
11.0
 40
11.0
 40
12.0
 40
12.0
 40
12.0
 40
13.0
 40
13.0
 40
13.0
 40
14.0
 40
14.0
 40
14.0
 40
15.0
 40
15.0
 40
15.0
 40
16.0
 40
16.0
 40
16.0
 40
16.0
 10
86.90081106768453
 20
-162.1344617650219
 10
86.82243514539509
 20
-162.1344617650219
 10
86.72097708335448
 20
-162.1172362875957
 10
86.6193467665396
 20
-162.0538465306671
 10
86.44588620885729
 20
-161.9436034751391
 10
86.424698871623
 20
-161.8126898466996
 10
86.40575084645413
 20
-161.7048583580113
 10
86.40575084645413
 20
-161.7048583580113
 10
86.62778725047848
 20
-161.7048583580113
 10
86.62778725047848
 20
-161.7048583580113
 10
86.68290877824248
 20
-161.9036403675102
 10
86.80986054687392
 20
-161.9332681886834
 10
86.90287812497567
 20
-161.9332681886834
 10
87.04257674690255
 20
-161.9332681886834
 10
87.19484996735059
 20
-161.8340494387081
 10
87.19484996735059
 20
-161.6011609839053
 10
87.19484996735059
 20
-161.3451903893512
 10
87.01501598302056
 20
-161.2752549510006
 10
86.89443764103682
 20
-161.2752549510006
 10
86.86274276257251
 20
-161.2752549510006
 10
86.72097708335448
 20
-161.2752549510006
 10
86.63209361983503
 20
-161.4044460316975
 10
86.63209361983503
 20
-161.4044460316975
 10
86.45656600486156
 20
-161.3854980065286
 10
86.45656600486156
 20
-161.3854980065286
 10
86.45656600486156
 20
-161.3854980065286
 10
86.5771443468453
 20
-160.5393825553513
 10
86.5771443468453
 20
-160.5393825553513
 10
86.5771443468453
 20
-160.5393825553513
 10
87.3555636717375
 20
-160.5393825553513
 10
87.3555636717375
 20
-160.5393825553513
 10
87.3555636717375
 20
-160.5393825553513
 10
87.3555636717375
 20
-160.7336859407194
 10
87.3555636717375
 20
-160.7336859407194
 10
87.3555636717375
 20
-160.7336859407194
 10
86.73992510852335
 20
-160.7336859407194
 10
86.73992510852335
 20
-160.7336859407194
 10
86.73992510852335
 20
-160.7336859407194
 10
86.67446829430361
 20
-161.156743666308
 10
86.67446829430361
 20
-161.156743666308
 10
86.73579099394105
 20
-161.1229817305526
 10
86.81830103081279
 20
-161.0830186229237
 10
86.93664006073112
 20
-161.0830186229237
 10
87.19054359799404
 20
-161.0830186229237
 10
87.42756616737923
 20
-161.2690537791272
 10
87.42756616737923
 20
-161.5818684491879
 10
87.42756616737923
 20
-161.8995062529279
 10
87.20329045128946
 20
-162.1344617650219
 10
86.90081106768453
 20
-162.1344617650219
 97
        0
 97
        0
 75
     2
 76
     1
 98
        0
  0
ENDBLK
  5
B4
330
B1
100
AcDbEntity
  8
0
100
AcDbBlockEnd
  0
BLOCK
  5
C5
330
C3
100
AcDbEntity
  8
0
100
AcDbBlockBegin
  2
block 6
 70
     0
 10
0.0
 20
0.0
 30
0.0
  3
block 6
  1

  0
POLYLINE
  5
C7
330
C3
100
AcDbEntity
  8
_U+30EC_U+30A4_U+30E4_U+30FC 1
370
     0
100
AcDb2dPolyline
 66
     1
 10
0.0
 20
0.0
 30
0.0
  0
VERTEX
  5
C8
330
C7
100
AcDbEntity
  8
_U+30EC_U+30A4_U+30E4_U+30FC 1
370
     0
100
AcDbVertex
100
AcDb2dVertex
 10
95.87080618262952
 20
-161.7365532364756
 30
0.0
  0
VERTEX
  5
C9
330
C7
100
AcDbEntity
  8
_U+30EC_U+30A4_U+30E4_U+30FC 1
370
     0
100
AcDbVertex
100
AcDb2dVertex
 10
95.87080618262952
 20
-162.0834743518402
 30
0.0
  0
VERTEX
  5
CA
330
C7
100
AcDbEntity
  8
_U+30EC_U+30A4_U+30E4_U+30FC 1
370
     0
100
AcDbVertex
100
AcDb2dVertex
 10
95.65307614796174
 20
-162.0834743518402
 30
0.0
  0
VERTEX
  5
CB
330
C7
100
AcDbEntity
  8
_U+30EC_U+30A4_U+30E4_U+30FC 1
370
     0
100
AcDbVertex
100
AcDb2dVertex
 10
95.65307614796174
 20
-161.7365532364756
 30
0.0
  0
VERTEX
  5
CC
330
C7
100
AcDbEntity
  8
_U+30EC_U+30A4_U+30E4_U+30FC 1
370
     0
100
AcDbVertex
100
AcDb2dVertex
 10
94.99712996757016
 20
-161.7365532364756
 30
0.0
  0
VERTEX
  5
CD
330
C7
100
AcDbEntity
  8
_U+30EC_U+30A4_U+30E4_U+30FC 1
370
     0
100
AcDbVertex
100
AcDb2dVertex
 10
94.99712996757016
 20
-161.5122775203858
 30
0.0
  0
VERTEX
  5
CE
330
C7
100
AcDbEntity
  8
_U+30EC_U+30A4_U+30E4_U+30FC 1
370
     0
100
AcDbVertex
100
AcDb2dVertex
 10
95.67615828771291
 20
-160.5393825553513
 30
0.0
  0
VERTEX
  5
CF
330
C7
100
AcDbEntity
  8
_U+30EC_U+30A4_U+30E4_U+30FC 1
370
     0
100
AcDbVertex
100
AcDb2dVertex
 10
95.87080618262952
 20
-160.5393825553513
 30
0.0
  0
VERTEX
  5
D0
330
C7
100
AcDbEntity
  8
_U+30EC_U+30A4_U+30E4_U+30FC 1
370
     0
100
AcDbVertex
100
AcDb2dVertex
 10
95.87080618262952
 20
-161.5377712269767
 30
0.0
  0
VERTEX
  5
D1
330
C7
100
AcDbEntity
  8
_U+30EC_U+30A4_U+30E4_U+30FC 1
370
     0
100
AcDbVertex
100
AcDb2dVertex
 10
96.07820093084156
 20
-161.5377712269767
 30
0.0
  0
VERTEX
  5
D2
330
C7
100
AcDbEntity
  8
_U+30EC_U+30A4_U+30E4_U+30FC 1
370
     0
100
AcDbVertex
100
AcDb2dVertex
 10
96.07820093084156
 20
-161.7365532364756
 30
0.0
  0
VERTEX
  5
D3
330
C7
100
AcDbEntity
  8
_U+30EC_U+30A4_U+30E4_U+30FC 1
370
     0
100
AcDbVertex
100
AcDb2dVertex
 10
95.87080618262952
 20
-161.7365532364756
 30
0.0
  0
SEQEND
  5
D4
330
C7
100
AcDbEntity
  8
_U+30EC_U+30A4_U+30E4_U+30FC 1
370
     0
  0
POLYLINE
  5
D5
330
C3
100
AcDbEntity
  8
_U+30EC_U+30A4_U+30E4_U+30FC 1
370
     0
100
AcDb2dPolyline
 66
     1
 10
0.0
 20
0.0
 30
0.0
  0
VERTEX
  5
D6
330
D5
100
AcDbEntity
  8
_U+30EC_U+30A4_U+30E4_U+30FC 1
370
     0
100
AcDbVertex
100
AcDb2dVertex
 10
95.65307614796174
 20
-160.8818250465851
 30
0.0
  0
VERTEX
  5
D7
330
D5
100
AcDbEntity
  8
_U+30EC_U+30A4_U+30E4_U+30FC 1
370
     0
100
AcDbVertex
100
AcDb2dVertex
 10
95.19625648661761
 20
-161.5377712269767
 30
0.0
  0
VERTEX
  5
D8
330
D5
100
AcDbEntity
  8
_U+30EC_U+30A4_U+30E4_U+30FC 1
370
     0
100
AcDbVertex
100
AcDb2dVertex
 10
95.65307614796174
 20
-161.5377712269767
 30
0.0
  0
VERTEX
  5
D9
330
D5
100
AcDbEntity
  8
_U+30EC_U+30A4_U+30E4_U+30FC 1
370
     0
100
AcDbVertex
100
AcDb2dVertex
 10
95.65307614796174
 20
-160.8818250465851
 30
0.0
  0
SEQEND
  5
DA
330
D5
100
AcDbEntity
  8
_U+30EC_U+30A4_U+30E4_U+30FC 1
370
     0
  0
HATCH
  5
DB
330
C3
100
AcDbEntity
  8
_U+30EC_U+30A4_U+30E4_U+30FC 1
 62
   179
420
  2234388
100
AcDbHatch
 10
0.0
 20
0.0
 30
0.0
210
0.0
220
0.0
230
1.0
  2
SOLID
 70
     1
 71
     0
 91
        2
 92
        1
 93
       11
 72
     1
 10
95.87080618262952
 20
-161.7365532364756
 11
95.87080618262952
 21
-162.0834743518402
 72
     1
 10
95.87080618262952
 20
-162.0834743518402
 11
95.65307614796174
 21
-162.0834743518402
 72
     1
 10
95.65307614796174
 20
-162.0834743518402
 11
95.65307614796174
 21
-161.7365532364756
 72
     1
 10
95.65307614796174
 20
-161.7365532364756
 11
94.99712996757016
 21
-161.7365532364756
 72
     1
 10
94.99712996757016
 20
-161.7365532364756
 11
94.99712996757016
 21
-161.5122775203858
 72
     1
 10
94.99712996757016
 20
-161.5122775203858
 11
95.67615828771291
 21
-160.5393825553513
 72
     1
 10
95.67615828771291
 20
-160.5393825553513
 11
95.87080618262952
 21
-160.5393825553513
 72
     1
 10
95.87080618262952
 20
-160.5393825553513
 11
95.87080618262952
 21
-161.5377712269767
 72
     1
 10
95.87080618262952
 20
-161.5377712269767
 11
96.07820093084156
 21
-161.5377712269767
 72
     1
 10
96.07820093084156
 20
-161.5377712269767
 11
96.07820093084156
 21
-161.7365532364756
 72
     1
 10
96.07820093084156
 20
-161.7365532364756
 11
95.87080618262952
 21
-161.7365532364756
 97
        0
 92
        1
 93
        3
 72
     1
 10
95.65307614796174
 20
-160.8818250465851
 11
95.19625648661761
 21
-161.5377712269767
 72
     1
 10
95.19625648661761
 20
-161.5377712269767
 11
95.65307614796174
 21
-161.5377712269767
 72
     1
 10
95.65307614796174
 20
-161.5377712269767
 11
95.65307614796174
 21
-160.8818250465851
 97
        0
 75
     2
 76
     1
 98
        0
  0
ENDBLK
  5
C6
330
C3
100
AcDbEntity
  8
0
100
AcDbBlockEnd
  0
BLOCK
  5
DE
330
DC
100
AcDbEntity
  8
0
100
AcDbBlockBegin
  2
block 7
 70
     0
 10
0.0
 20
0.0
 30
0.0
  3
block 7
  1

  0
SPLINE
  5
E0
330
DC
100
AcDbEntity
  8
_U+30EC_U+30A4_U+30E4_U+30FC 1
370
     0
100
AcDbSpline
210
0.0
220
0.0
230
1.0
 70
    11
 71
     3
 72
    26
 73
    22
 74
     0
 42
0.0000000001
 43
0.0000000001
 12
1.0
 22
0.0
 32
0.0
 13
1.0
 23
0.0
 33
0.0
 40
0.0
 40
0.0
 40
0.0
 40
0.0
 40
1.0
 40
1.0
 40
1.0
 40
2.0
 40
2.0
 40
2.0
 40
3.0
 40
3.0
 40
3.0
 40
4.0
 40
4.0
 40
4.0
 40
5.0
 40
5.0
 40
5.0
 40
6.0
 40
6.0
 40
6.0
 40
7.0
 40
7.0
 40
7.0
 40
7.0
 10
87.21190319000259
 20
-94.98300507608064
 30
0.0
 10
87.21190319000259
 20
-94.98300507608064
 30
0.0
 10
87.21190319000259
 20
-93.8786797182838
 30
0.0
 10
87.21190319000259
 20
-93.8786797182838
 30
0.0
 10
87.21190319000259
 20
-93.8786797182838
 30
0.0
 10
86.88186304251565
 20
-93.8786797182838
 30
0.0
 10
86.88186304251565
 20
-93.8786797182838
 30
0.0
 10
86.88186304251565
 20
-93.8786797182838
 30
0.0
 10
86.88186304251565
 20
-93.73071286719232
 30
0.0
 10
86.88186304251565
 20
-93.73071286719232
 30
0.0
 10
87.21397024729373
 20
-93.71589895660576
 30
0.0
 10
87.2604790363446
 20
-93.55294594015344
 30
0.0
 10
87.29010685751776
 20
-93.4387410248174
 30
0.0
 10
87.29010685751776
 20
-93.4387410248174
 30
0.0
 10
87.43617890609235
 20
-93.4387410248174
 30
0.0
 10
87.43617890609235
 20
-93.4387410248174
 30
0.0
 10
87.43617890609235
 20
-93.4387410248174
 30
0.0
 10
87.43617890609235
 20
-94.98300507608064
 30
0.0
 10
87.43617890609235
 20
-94.98300507608064
 30
0.0
 10
87.43617890609235
 20
-94.98300507608064
 30
0.0
 10
87.21190319000259
 20
-94.98300507608064
 30
0.0
 10
87.21190319000259
 20
-94.98300507608064
 30
0.0
  0
HATCH
  5
E1
330
DC
100
AcDbEntity
  8
_U+30EC_U+30A4_U+30E4_U+30FC 1
 62
   179
420
  2234388
100
AcDbHatch
 10
0.0
 20
0.0
 30
0.0
210
0.0
220
0.0
230
1.0
  2
SOLID
 70
     1
 71
     0
 91
        1
 92
        1
 93
        1
 72
     4
 94
        3
 73
     0
 74
     1
 95
       26
 96
       22
 40
0.0
 40
0.0
 40
0.0
 40
0.0
 40
1.0
 40
1.0
 40
1.0
 40
2.0
 40
2.0
 40
2.0
 40
3.0
 40
3.0
 40
3.0
 40
4.0
 40
4.0
 40
4.0
 40
5.0
 40
5.0
 40
5.0
 40
6.0
 40
6.0
 40
6.0
 40
7.0
 40
7.0
 40
7.0
 40
7.0
 10
87.21190319000259
 20
-94.98300507608064
 10
87.21190319000259
 20
-94.98300507608064
 10
87.21190319000259
 20
-93.8786797182838
 10
87.21190319000259
 20
-93.8786797182838
 10
87.21190319000259
 20
-93.8786797182838
 10
86.88186304251565
 20
-93.8786797182838
 10
86.88186304251565
 20
-93.8786797182838
 10
86.88186304251565
 20
-93.8786797182838
 10
86.88186304251565
 20
-93.73071286719232
 10
86.88186304251565
 20
-93.73071286719232
 10
87.21397024729373
 20
-93.71589895660576
 10
87.2604790363446
 20
-93.55294594015344
 10
87.29010685751776
 20
-93.4387410248174
 10
87.29010685751776
 20
-93.4387410248174
 10
87.43617890609235
 20
-93.4387410248174
 10
87.43617890609235
 20
-93.4387410248174
 10
87.43617890609235
 20
-93.4387410248174
 10
87.43617890609235
 20
-94.98300507608064
 10
87.43617890609235
 20
-94.98300507608064
 10
87.43617890609235
 20
-94.98300507608064
 10
87.21190319000259
 20
-94.98300507608064
 10
87.21190319000259
 20
-94.98300507608064
 97
        0
 97
        0
 75
     2
 76
     1
 98
        0
  0
SPLINE
  5
E2
330
DC
100
AcDbEntity
  8
_U+30EC_U+30A4_U+30E4_U+30FC 1
370
     0
100
AcDbSpline
210
0.0
220
0.0
230
1.0
 70
    11
 71
     3
 72
    29
 73
    25
 74
     0
 42
0.0000000001
 43
0.0000000001
 12
1.0
 22
0.0
 32
0.0
 13
1.0
 23
0.0
 33
0.0
 40
0.0
 40
0.0
 40
0.0
 40
0.0
 40
1.0
 40
1.0
 40
1.0
 40
2.0
 40
2.0
 40
2.0
 40
3.0
 40
3.0
 40
3.0
 40
4.0
 40
4.0
 40
4.0
 40
5.0
 40
5.0
 40
5.0
 40
6.0
 40
6.0
 40
6.0
 40
7.0
 40
7.0
 40
7.0
 40
8.0
 40
8.0
 40
8.0
 40
8.0
 10
88.43732365410595
 20
-95.03382023448808
 30
0.0
 10
88.17084551832187
 20
-95.03382023448808
 30
0.0
 10
87.91694198105897
 20
-94.89618866985235
 30
0.0
 10
87.91694198105897
 20
-94.54720049719654
 30
0.0
 10
87.91694198105897
 20
-94.29122990264247
 30
0.0
 10
88.058707660277
 20
-94.19597301247532
 30
0.0
 10
88.16447209167417
 20
-94.13465031283786
 30
0.0
 10
88.03958738033386
 20
-94.07539467049158
 30
0.0
 10
87.96345077010983
 20
-93.96118975515554
 30
0.0
 10
87.96345077010983
 20
-93.80047605076864
 30
0.0
 10
87.96345077010983
 20
-93.52538517627144
 30
0.0
 10
88.16240503438301
 20
-93.38999292370112
 30
0.0
 10
88.43732365410595
 20
-93.38999292370112
 30
0.0
 10
88.72085501254202
 20
-93.38999292370112
 30
0.0
 10
88.91119653810206
 20
-93.5338256602103
 30
0.0
 10
88.91119653810206
 20
-93.80047605076864
 30
0.0
 10
88.91119653810206
 20
-93.96118975515554
 30
0.0
 10
88.83299287058689
 20
-94.07539467049158
 30
0.0
 10
88.70810815924659
 20
-94.13465031283786
 30
0.0
 10
88.79699162276603
 20
-94.18546547124531
 30
0.0
 10
88.9556382698618
 20
-94.28072236141246
 30
0.0
 10
88.9556382698618
 20
-94.54306638261424
 30
0.0
 10
88.9556382698618
 20
-94.91737600708663
 30
0.0
 10
88.67641328078228
 20
-95.03382023448808
 30
0.0
 10
88.43732365410595
 20
-95.03382023448808
 30
0.0
  0
SPLINE
  5
E3
330
DC
100
AcDbEntity
  8
_U+30EC_U+30A4_U+30E4_U+30FC 1
370
     0
100
AcDbSpline
210
0.0
220
0.0
230
1.0
 70
    11
 71
     3
 72
    17
 73
    13
 74
     0
 42
0.0000000001
 43
0.0000000001
 12
1.0
 22
0.0
 32
0.0
 13
1.0
 23
0.0
 33
0.0
 40
0.0
 40
0.0
 40
0.0
 40
0.0
 40
1.0
 40
1.0
 40
1.0
 40
2.0
 40
2.0
 40
2.0
 40
3.0
 40
3.0
 40
3.0
 40
4.0
 40
4.0
 40
4.0
 40
4.0
 10
88.43732365410595
 20
-94.24265405630045
 30
0.0
 10
88.29349091759677
 20
-94.24265405630045
 30
0.0
 10
88.14121769714873
 20
-94.32929820775449
 30
0.0
 10
88.14121769714873
 20
-94.53238658660996
 30
0.0
 10
88.14121769714873
 20
-94.73754202275659
 30
0.0
 10
88.26816946578019
 20
-94.83917233957146
 30
0.0
 10
88.43732365410595
 20
-94.83917233957146
 30
0.0
 10
88.62353106508371
 20
-94.83917233957146
 30
0.0
 10
88.73360186583744
 20
-94.71652694029656
 30
0.0
 10
88.73360186583744
 20
-94.53876001325767
 30
0.0
 10
88.73360186583744
 20
-94.31655135445907
 30
0.0
 10
88.57064884938512
 20
-94.24265405630045
 30
0.0
 10
88.43732365410595
 20
-94.24265405630045
 30
0.0
  0
SPLINE
  5
E4
330
DC
100
AcDbEntity
  8
_U+30EC_U+30A4_U+30E4_U+30FC 1
370
     0
100
AcDbSpline
210
0.0
220
0.0
230
1.0
 70
    11
 71
     3
 72
    17
 73
    13
 74
     0
 42
0.0000000001
 43
0.0000000001
 12
1.0
 22
0.0
 32
0.0
 13
1.0
 23
0.0
 33
0.0
 40
0.0
 40
0.0
 40
0.0
 40
0.0
 40
1.0
 40
1.0
 40
1.0
 40
2.0
 40
2.0
 40
2.0
 40
3.0
 40
3.0
 40
3.0
 40
4.0
 40
4.0
 40
4.0
 40
4.0
 10
88.43732365410595
 20
-93.58257376132659
 30
0.0
 10
88.27230358036249
 20
-93.58257376132659
 30
0.0
 10
88.1877264861996
 20
-93.67765839671948
 30
0.0
 10
88.1877264861996
 20
-93.81305064928979
 30
0.0
 10
88.1877264861996
 20
-93.93586830333895
 30
0.0
 10
88.25972898184132
 20
-94.05437958803155
 30
0.0
 10
88.43732365410595
 20
-94.05437958803155
 30
0.0
 10
88.61509058114484
 20
-94.05437958803155
 30
0.0
 10
88.6869208220123
 20
-93.93586830333895
 30
0.0
 10
88.6869208220123
 20
-93.81305064928979
 30
0.0
 10
88.6869208220123
 20
-93.67765839671948
 30
0.0
 10
88.60027667055827
 20
-93.58257376132659
 30
0.0
 10
88.43732365410595
 20
-93.58257376132659
 30
0.0
  0
HATCH
  5
E5
330
DC
100
AcDbEntity
  8
_U+30EC_U+30A4_U+30E4_U+30FC 1
 62
   179
420
  2234388
100
AcDbHatch
 10
0.0
 20
0.0
 30
0.0
210
0.0
220
0.0
230
1.0
  2
SOLID
 70
     1
 71
     0
 91
        3
 92
        1
 93
        1
 72
     4
 94
        3
 73
     0
 74
     1
 95
       29
 96
       25
 40
0.0
 40
0.0
 40
0.0
 40
0.0
 40
1.0
 40
1.0
 40
1.0
 40
2.0
 40
2.0
 40
2.0
 40
3.0
 40
3.0
 40
3.0
 40
4.0
 40
4.0
 40
4.0
 40
5.0
 40
5.0
 40
5.0
 40
6.0
 40
6.0
 40
6.0
 40
7.0
 40
7.0
 40
7.0
 40
8.0
 40
8.0
 40
8.0
 40
8.0
 10
88.43732365410595
 20
-95.03382023448808
 10
88.17084551832187
 20
-95.03382023448808
 10
87.91694198105897
 20
-94.89618866985235
 10
87.91694198105897
 20
-94.54720049719654
 10
87.91694198105897
 20
-94.29122990264247
 10
88.058707660277
 20
-94.19597301247532
 10
88.16447209167417
 20
-94.13465031283786
 10
88.03958738033386
 20
-94.07539467049158
 10
87.96345077010983
 20
-93.96118975515554
 10
87.96345077010983
 20
-93.80047605076864
 10
87.96345077010983
 20
-93.52538517627144
 10
88.16240503438301
 20
-93.38999292370112
 10
88.43732365410595
 20
-93.38999292370112
 10
88.72085501254202
 20
-93.38999292370112
 10
88.91119653810206
 20
-93.5338256602103
 10
88.91119653810206
 20
-93.80047605076864
 10
88.91119653810206
 20
-93.96118975515554
 10
88.83299287058689
 20
-94.07539467049158
 10
88.70810815924659
 20
-94.13465031283786
 10
88.79699162276603
 20
-94.18546547124531
 10
88.9556382698618
 20
-94.28072236141246
 10
88.9556382698618
 20
-94.54306638261424
 10
88.9556382698618
 20
-94.91737600708663
 10
88.67641328078228
 20
-95.03382023448808
 10
88.43732365410595
 20
-95.03382023448808
 97
        0
 97
        0
 92
        1
 93
        1
 72
     4
 94
        3
 73
     0
 74
     1
 95
       17
 96
       13
 40
0.0
 40
0.0
 40
0.0
 40
0.0
 40
1.0
 40
1.0
 40
1.0
 40
2.0
 40
2.0
 40
2.0
 40
3.0
 40
3.0
 40
3.0
 40
4.0
 40
4.0
 40
4.0
 40
4.0
 10
88.43732365410595
 20
-94.24265405630045
 10
88.29349091759677
 20
-94.24265405630045
 10
88.14121769714873
 20
-94.32929820775449
 10
88.14121769714873
 20
-94.53238658660996
 10
88.14121769714873
 20
-94.73754202275659
 10
88.26816946578019
 20
-94.83917233957146
 10
88.43732365410595
 20
-94.83917233957146
 10
88.62353106508371
 20
-94.83917233957146
 10
88.73360186583744
 20
-94.71652694029656
 10
88.73360186583744
 20
-94.53876001325767
 10
88.73360186583744
 20
-94.31655135445907
 10
88.57064884938512
 20
-94.24265405630045
 10
88.43732365410595
 20
-94.24265405630045
 97
        0
 97
        0
 92
        1
 93
        1
 72
     4
 94
        3
 73
     0
 74
     1
 95
       17
 96
       13
 40
0.0
 40
0.0
 40
0.0
 40
0.0
 40
1.0
 40
1.0
 40
1.0
 40
2.0
 40
2.0
 40
2.0
 40
3.0
 40
3.0
 40
3.0
 40
4.0
 40
4.0
 40
4.0
 40
4.0
 10
88.43732365410595
 20
-93.58257376132659
 10
88.27230358036249
 20
-93.58257376132659
 10
88.1877264861996
 20
-93.67765839671948
 10
88.1877264861996
 20
-93.81305064928979
 10
88.1877264861996
 20
-93.93586830333895
 10
88.25972898184132
 20
-94.05437958803155
 10
88.43732365410595
 20
-94.05437958803155
 10
88.61509058114484
 20
-94.05437958803155
 10
88.6869208220123
 20
-93.93586830333895
 10
88.6869208220123
 20
-93.81305064928979
 10
88.6869208220123
 20
-93.67765839671948
 10
88.60027667055827
 20
-93.58257376132659
 10
88.43732365410595
 20
-93.58257376132659
 97
        0
 97
        0
 75
     2
 76
     1
 98
        0
  0
POLYLINE
  5
E6
330
DC
100
AcDbEntity
  8
_U+30EC_U+30A4_U+30E4_U+30FC 1
370
     0
100
AcDb2dPolyline
 66
     1
 10
0.0
 20
0.0
 30
0.0
  0
VERTEX
  5
E7
330
E6
100
AcDbEntity
  8
_U+30EC_U+30A4_U+30E4_U+30FC 1
370
     0
100
AcDbVertex
100
AcDb2dVertex
 10
89.1742295784009
 20
-94.98300507608064
 30
0.0
  0
VERTEX
  5
E8
330
E6
100
AcDbEntity
  8
_U+30EC_U+30A4_U+30E4_U+30FC 1
370
     0
100
AcDbVertex
100
AcDb2dVertex
 10
89.1742295784009
 20
-94.73134085088314
 30
0.0
  0
VERTEX
  5
E9
330
E6
100
AcDbEntity
  8
_U+30EC_U+30A4_U+30E4_U+30FC 1
370
     0
100
AcDbVertex
100
AcDb2dVertex
 10
89.4258938035984
 20
-94.73134085088314
 30
0.0
  0
VERTEX
  5
EA
330
E6
100
AcDbEntity
  8
_U+30EC_U+30A4_U+30E4_U+30FC 1
370
     0
100
AcDbVertex
100
AcDb2dVertex
 10
89.4258938035984
 20
-94.98300507608064
 30
0.0
  0
VERTEX
  5
EB
330
E6
100
AcDbEntity
  8
_U+30EC_U+30A4_U+30E4_U+30FC 1
370
     0
100
AcDbVertex
100
AcDb2dVertex
 10
89.1742295784009
 20
-94.98300507608064
 30
0.0
  0
SEQEND
  5
EC
330
E6
100
AcDbEntity
  8
_U+30EC_U+30A4_U+30E4_U+30FC 1
370
     0
  0
HATCH
  5
ED
330
DC
100
AcDbEntity
  8
_U+30EC_U+30A4_U+30E4_U+30FC 1
 62
   179
420
  2234388
100
AcDbHatch
 10
0.0
 20
0.0
 30
0.0
210
0.0
220
0.0
230
1.0
  2
SOLID
 70
     1
 71
     0
 91
        1
 92
        1
 93
        4
 72
     1
 10
89.1742295784009
 20
-94.98300507608064
 11
89.1742295784009
 21
-94.73134085088314
 72
     1
 10
89.1742295784009
 20
-94.73134085088314
 11
89.4258938035984
 21
-94.73134085088314
 72
     1
 10
89.4258938035984
 20
-94.73134085088314
 11
89.4258938035984
 21
-94.98300507608064
 72
     1
 10
89.4258938035984
 20
-94.98300507608064
 11
89.1742295784009
 21
-94.98300507608064
 97
        0
 75
     2
 76
     1
 98
        0
  0
POLYLINE
  5
EE
330
DC
100
AcDbEntity
  8
_U+30EC_U+30A4_U+30E4_U+30FC 1
370
     0
100
AcDb2dPolyline
 66
     1
 10
0.0
 20
0.0
 30
0.0
  0
VERTEX
  5
EF
330
EE
100
AcDbEntity
  8
_U+30EC_U+30A4_U+30E4_U+30FC 1
370
     0
100
AcDbVertex
100
AcDb2dVertex
 10
90.49456242312289
 20
-94.63608396071598
 30
0.0
  0
VERTEX
  5
F0
330
EE
100
AcDbEntity
  8
_U+30EC_U+30A4_U+30E4_U+30FC 1
370
     0
100
AcDbVertex
100
AcDb2dVertex
 10
90.49456242312289
 20
-94.98300507608064
 30
0.0
  0
VERTEX
  5
F1
330
EE
100
AcDbEntity
  8
_U+30EC_U+30A4_U+30E4_U+30FC 1
370
     0
100
AcDbVertex
100
AcDb2dVertex
 10
90.27666013368083
 20
-94.98300507608064
 30
0.0
  0
VERTEX
  5
F2
330
EE
100
AcDbEntity
  8
_U+30EC_U+30A4_U+30E4_U+30FC 1
370
     0
100
AcDbVertex
100
AcDb2dVertex
 10
90.27666013368083
 20
-94.63608396071598
 30
0.0
  0
VERTEX
  5
F3
330
EE
100
AcDbEntity
  8
_U+30EC_U+30A4_U+30E4_U+30FC 1
370
     0
100
AcDbVertex
100
AcDb2dVertex
 10
89.62088620806354
 20
-94.63608396071598
 30
0.0
  0
VERTEX
  5
F4
330
EE
100
AcDbEntity
  8
_U+30EC_U+30A4_U+30E4_U+30FC 1
370
     0
100
AcDbVertex
100
AcDb2dVertex
 10
89.62088620806354
 20
-94.41180824462622
 30
0.0
  0
VERTEX
  5
F5
330
EE
100
AcDbEntity
  8
_U+30EC_U+30A4_U+30E4_U+30FC 1
370
     0
100
AcDbVertex
100
AcDb2dVertex
 10
90.29991452820627
 20
-93.4387410248174
 30
0.0
  0
VERTEX
  5
F6
330
EE
100
AcDbEntity
  8
_U+30EC_U+30A4_U+30E4_U+30FC 1
370
     0
100
AcDbVertex
100
AcDb2dVertex
 10
90.49456242312289
 20
-93.4387410248174
 30
0.0
  0
VERTEX
  5
F7
330
EE
100
AcDbEntity
  8
_U+30EC_U+30A4_U+30E4_U+30FC 1
370
     0
100
AcDbVertex
100
AcDb2dVertex
 10
90.49456242312289
 20
-94.43712969644281
 30
0.0
  0
VERTEX
  5
F8
330
EE
100
AcDbEntity
  8
_U+30EC_U+30A4_U+30E4_U+30FC 1
370
     0
100
AcDbVertex
100
AcDb2dVertex
 10
90.70195717133493
 20
-94.43712969644281
 30
0.0
  0
VERTEX
  5
F9
330
EE
100
AcDbEntity
  8
_U+30EC_U+30A4_U+30E4_U+30FC 1
370
     0
100
AcDbVertex
100
AcDb2dVertex
 10
90.70195717133493
 20
-94.63608396071598
 30
0.0
  0
VERTEX
  5
FA
330
EE
100
AcDbEntity
  8
_U+30EC_U+30A4_U+30E4_U+30FC 1
370
     0
100
AcDbVertex
100
AcDb2dVertex
 10
90.49456242312289
 20
-94.63608396071598
 30
0.0
  0
SEQEND
  5
FB
330
EE
100
AcDbEntity
  8
_U+30EC_U+30A4_U+30E4_U+30FC 1
370
     0
  0
POLYLINE
  5
FC
330
DC
100
AcDbEntity
  8
_U+30EC_U+30A4_U+30E4_U+30FC 1
370
     0
100
AcDb2dPolyline
 66
     1
 10
0.0
 20
0.0
 30
0.0
  0
VERTEX
  5
FD
330
FC
100
AcDbEntity
  8
_U+30EC_U+30A4_U+30E4_U+30FC 1
370
     0
100
AcDbVertex
100
AcDb2dVertex
 10
90.27666013368083
 20
-93.7813557708255
 30
0.0
  0
VERTEX
  5
FE
330
FC
100
AcDbEntity
  8
_U+30EC_U+30A4_U+30E4_U+30FC 1
370
     0
100
AcDbVertex
100
AcDb2dVertex
 10
89.81984047233671
 20
-94.43712969644281
 30
0.0
  0
VERTEX
  5
FF
330
FC
100
AcDbEntity
  8
_U+30EC_U+30A4_U+30E4_U+30FC 1
370
     0
100
AcDbVertex
100
AcDb2dVertex
 10
90.27666013368083
 20
-94.43712969644281
 30
0.0
  0
VERTEX
  5
100
330
FC
100
AcDbEntity
  8
_U+30EC_U+30A4_U+30E4_U+30FC 1
370
     0
100
AcDbVertex
100
AcDb2dVertex
 10
90.27666013368083
 20
-93.7813557708255
 30
0.0
  0
SEQEND
  5
101
330
FC
100
AcDbEntity
  8
_U+30EC_U+30A4_U+30E4_U+30FC 1
370
     0
  0
HATCH
  5
102
330
DC
100
AcDbEntity
  8
_U+30EC_U+30A4_U+30E4_U+30FC 1
 62
   179
420
  2234388
100
AcDbHatch
 10
0.0
 20
0.0
 30
0.0
210
0.0
220
0.0
230
1.0
  2
SOLID
 70
     1
 71
     0
 91
        2
 92
        1
 93
       11
 72
     1
 10
90.49456242312289
 20
-94.63608396071598
 11
90.49456242312289
 21
-94.98300507608064
 72
     1
 10
90.49456242312289
 20
-94.98300507608064
 11
90.27666013368083
 21
-94.98300507608064
 72
     1
 10
90.27666013368083
 20
-94.98300507608064
 11
90.27666013368083
 21
-94.63608396071598
 72
     1
 10
90.27666013368083
 20
-94.63608396071598
 11
89.62088620806354
 21
-94.63608396071598
 72
     1
 10
89.62088620806354
 20
-94.63608396071598
 11
89.62088620806354
 21
-94.41180824462622
 72
     1
 10
89.62088620806354
 20
-94.41180824462622
 11
90.29991452820627
 21
-93.4387410248174
 72
     1
 10
90.29991452820627
 20
-93.4387410248174
 11
90.49456242312289
 21
-93.4387410248174
 72
     1
 10
90.49456242312289
 20
-93.4387410248174
 11
90.49456242312289
 21
-94.43712969644281
 72
     1
 10
90.49456242312289
 20
-94.43712969644281
 11
90.70195717133493
 21
-94.43712969644281
 72
     1
 10
90.70195717133493
 20
-94.43712969644281
 11
90.70195717133493
 21
-94.63608396071598
 72
     1
 10
90.70195717133493
 20
-94.63608396071598
 11
90.49456242312289
 21
-94.63608396071598
 97
        0
 92
        1
 93
        3
 72
     1
 10
90.27666013368083
 20
-93.7813557708255
 11
89.81984047233671
 21
-94.43712969644281
 72
     1
 10
89.81984047233671
 20
-94.43712969644281
 11
90.27666013368083
 21
-94.43712969644281
 72
     1
 10
90.27666013368083
 20
-94.43712969644281
 11
90.27666013368083
 21
-93.7813557708255
 97
        0
 75
     2
 76
     1
 98
        0
  0
ENDBLK
  5
DF
330
DC
100
AcDbEntity
  8
0
100
AcDbBlockEnd
  0
BLOCK
  5
105
330
103
100
AcDbEntity
  8
0
100
AcDbBlockBegin
  2
block 8
 70
     0
 10
0.0
 20
0.0
 30
0.0
  3
block 8
  1

  0
SPLINE
  5
107
330
103
100
AcDbEntity
  8
_U+30EC_U+30A4_U+30E4_U+30FC 1
370
     0
100
AcDbSpline
210
0.0
220
0.0
230
1.0
 70
    11
 71
     3
 72
    44
 73
    40
 74
     0
 42
0.0000000001
 43
0.0000000001
 12
1.0
 22
0.0
 32
0.0
 13
1.0
 23
0.0
 33
0.0
 40
0.0
 40
0.0
 40
0.0
 40
0.0
 40
1.0
 40
1.0
 40
1.0
 40
2.0
 40
2.0
 40
2.0
 40
3.0
 40
3.0
 40
3.0
 40
4.0
 40
4.0
 40
4.0
 40
5.0
 40
5.0
 40
5.0
 40
6.0
 40
6.0
 40
6.0
 40
7.0
 40
7.0
 40
7.0
 40
8.0
 40
8.0
 40
8.0
 40
9.0
 40
9.0
 40
9.0
 40
10.0
 40
10.0
 40
10.0
 40
11.0
 40
11.0
 40
11.0
 40
12.0
 40
12.0
 40
12.0
 40
13.0
 40
13.0
 40
13.0
 40
13.0
 10
103.9185492361731
 20
-149.1884819505501
 30
0.0
 10
104.0770236284946
 20
-149.4062119852179
 30
0.0
 10
104.151437690976
 20
-149.4992295633196
 30
0.0
 10
104.295098172711
 20
-149.5481499192102
 30
0.0
 10
104.295098172711
 20
-149.5481499192102
 30
0.0
 10
104.295098172711
 20
-148.7695583395437
 30
0.0
 10
104.295098172711
 20
-148.7695583395437
 30
0.0
 10
104.295098172711
 20
-148.7695583395437
 30
0.0
 10
104.5000813540833
 20
-148.7695583395437
 30
0.0
 10
104.5000813540833
 20
-148.7695583395437
 30
0.0
 10
104.5000813540833
 20
-148.7695583395437
 30
0.0
 10
104.5000813540833
 20
-149.7975748323423
 30
0.0
 10
104.5000813540833
 20
-149.7975748323423
 30
0.0
 10
104.1424804427144
 20
-149.765879953878
 30
0.0
 10
104.0646212847477
 20
-149.7004231396582
 30
0.0
 10
103.7662760157251
 20
-149.3152614644073
 30
0.0
 10
103.5671494966777
 20
-149.0592908698532
 30
0.0
 10
103.4996256251668
 20
-148.9938340556335
 30
0.0
 10
103.3621663153053
 20
-148.9938340556335
 30
0.0
 10
103.2436550306127
 20
-148.9938340556335
 30
0.0
 10
103.1123968926247
 20
-149.0658365512752
 30
0.0
 10
103.1123968926247
 20
-149.2622069939345
 30
0.0
 10
103.1123968926247
 20
-149.5226562126194
 30
0.0
 10
103.3432182901364
 20
-149.530924441784
 30
0.0
 10
103.4596625175379
 20
-149.5354030659148
 30
0.0
 10
103.4596625175379
 20
-149.5354030659148
 30
0.0
 10
103.4596625175379
 20
-149.7596787820045
 30
0.0
 10
103.4596625175379
 20
-149.7596787820045
 30
0.0
 10
103.3325384941322
 20
-149.7510660432914
 30
0.0
 10
103.2205728908615
 20
-149.7403862472871
 30
0.0
 10
103.1020616061689
 20
-149.6601155224808
 30
0.0
 10
102.9411756470078
 20
-149.5502169765013
 30
0.0
 10
102.9070692017038
 20
-149.3641818202979
 30
0.0
 10
102.9070692017038
 20
-149.2477375928964
 30
0.0
 10
102.9070692017038
 20
-148.9704074063338
 30
0.0
 10
103.0913818101647
 20
-148.7633571676703
 30
0.0
 10
103.3642333725964
 20
-148.7633571676703
 30
0.0
 10
103.5926432032685
 20
-148.7633571676703
 30
0.0
 10
103.6922064627922
 20
-148.8794568855232
 30
0.0
 10
103.9185492361731
 20
-149.1884819505501
 30
0.0
  0
HATCH
  5
108
330
103
100
AcDbEntity
  8
_U+30EC_U+30A4_U+30E4_U+30FC 1
 62
   179
420
  2234388
100
AcDbHatch
 10
0.0
 20
0.0
 30
0.0
210
0.0
220
0.0
230
1.0
  2
SOLID
 70
     1
 71
     0
 91
        1
 92
        1
 93
        1
 72
     4
 94
        3
 73
     0
 74
     1
 95
       44
 96
       40
 40
0.0
 40
0.0
 40
0.0
 40
0.0
 40
1.0
 40
1.0
 40
1.0
 40
2.0
 40
2.0
 40
2.0
 40
3.0
 40
3.0
 40
3.0
 40
4.0
 40
4.0
 40
4.0
 40
5.0
 40
5.0
 40
5.0
 40
6.0
 40
6.0
 40
6.0
 40
7.0
 40
7.0
 40
7.0
 40
8.0
 40
8.0
 40
8.0
 40
9.0
 40
9.0
 40
9.0
 40
10.0
 40
10.0
 40
10.0
 40
11.0
 40
11.0
 40
11.0
 40
12.0
 40
12.0
 40
12.0
 40
13.0
 40
13.0
 40
13.0
 40
13.0
 10
103.9185492361731
 20
-149.1884819505501
 10
104.0770236284946
 20
-149.4062119852179
 10
104.151437690976
 20
-149.4992295633196
 10
104.295098172711
 20
-149.5481499192102
 10
104.295098172711
 20
-149.5481499192102
 10
104.295098172711
 20
-148.7695583395437
 10
104.295098172711
 20
-148.7695583395437
 10
104.295098172711
 20
-148.7695583395437
 10
104.5000813540833
 20
-148.7695583395437
 10
104.5000813540833
 20
-148.7695583395437
 10
104.5000813540833
 20
-148.7695583395437
 10
104.5000813540833
 20
-149.7975748323423
 10
104.5000813540833
 20
-149.7975748323423
 10
104.1424804427144
 20
-149.765879953878
 10
104.0646212847477
 20
-149.7004231396582
 10
103.7662760157251
 20
-149.3152614644073
 10
103.5671494966777
 20
-149.0592908698532
 10
103.4996256251668
 20
-148.9938340556335
 10
103.3621663153053
 20
-148.9938340556335
 10
103.2436550306127
 20
-148.9938340556335
 10
103.1123968926247
 20
-149.0658365512752
 10
103.1123968926247
 20
-149.2622069939345
 10
103.1123968926247
 20
-149.5226562126194
 10
103.3432182901364
 20
-149.530924441784
 10
103.4596625175379
 20
-149.5354030659148
 10
103.4596625175379
 20
-149.5354030659148
 10
103.4596625175379
 20
-149.7596787820045
 10
103.4596625175379
 20
-149.7596787820045
 10
103.3325384941322
 20
-149.7510660432914
 10
103.2205728908615
 20
-149.7403862472871
 10
103.1020616061689
 20
-149.6601155224808
 10
102.9411756470078
 20
-149.5502169765013
 10
102.9070692017038
 20
-149.3641818202979
 10
102.9070692017038
 20
-149.2477375928964
 10
102.9070692017038
 20
-148.9704074063338
 10
103.0913818101647
 20
-148.7633571676703
 10
103.3642333725964
 20
-148.7633571676703
 10
103.5926432032685
 20
-148.7633571676703
 10
103.6922064627922
 20
-148.8794568855232
 10
103.9185492361731
 20
-149.1884819505501
 97
        0
 97
        0
 75
     2
 76
     1
 98
        0
  0
SPLINE
  5
109
330
103
100
AcDbEntity
  8
_U+30EC_U+30A4_U+30E4_U+30FC 1
370
     0
100
AcDbSpline
210
0.0
220
0.0
230
1.0
 70
    11
 71
     3
 72
    29
 73
    25
 74
     0
 42
0.0000000001
 43
0.0000000001
 12
1.0
 22
0.0
 32
0.0
 13
1.0
 23
0.0
 33
0.0
 40
0.0
 40
0.0
 40
0.0
 40
0.0
 40
1.0
 40
1.0
 40
1.0
 40
2.0
 40
2.0
 40
2.0
 40
3.0
 40
3.0
 40
3.0
 40
4.0
 40
4.0
 40
4.0
 40
5.0
 40
5.0
 40
5.0
 40
6.0
 40
6.0
 40
6.0
 40
7.0
 40
7.0
 40
7.0
 40
8.0
 40
8.0
 40
8.0
 40
8.0
 10
104.3223144270444
 20
-147.7070908918927
 30
0.0
 10
104.5317762325476
 20
-147.8145778710325
 30
0.0
 10
104.551068767265
 20
-147.9882106834891
 30
0.0
 10
104.551068767265
 20
-148.1046549108905
 30
0.0
 10
104.551068767265
 20
-148.2651963605032
 30
0.0
 10
104.5045599782141
 20
-148.4071342944954
 30
0.0
 10
104.3223144270444
 20
-148.5022189298883
 30
0.0
 10
104.1280110416763
 20
-148.6059163039943
 30
0.0
 10
103.8909884722911
 20
-148.6248643291632
 30
0.0
 10
103.7280354558388
 20
-148.6248643291632
 30
0.0
 10
103.5843749741039
 20
-148.6248643291632
 30
0.0
 10
103.3325384941322
 20
-148.608327870834
 30
0.0
 10
103.1337564846332
 20
-148.5022189298883
 30
0.0
 10
102.9304958510035
 20
-148.3943874412
 30
0.0
 10
102.9070692017038
 20
-148.2335014820389
 30
0.0
 10
102.9070692017038
 20
-148.1046549108905
 30
0.0
 10
102.9070692017038
 20
-147.946180518569
 30
0.0
 10
102.951855443012
 20
-147.8021755272856
 30
0.0
 10
103.1337564846332
 20
-147.7070908918927
 30
0.0
 10
103.3259928127102
 20
-147.607527632369
 30
0.0
 10
103.5547471529308
 20
-147.5844454926178
 30
0.0
 10
103.7280354558388
 20
-147.5844454926178
 30
0.0
 10
103.8992567014557
 20
-147.5844454926178
 30
0.0
 10
104.1300780989675
 20
-147.6051160655293
 30
0.0
 10
104.3223144270444
 20
-147.7070908918927
 30
0.0
  0
SPLINE
  5
10A
330
103
100
AcDbEntity
  8
_U+30EC_U+30A4_U+30E4_U+30FC 1
370
     0
100
AcDbSpline
210
0.0
220
0.0
230
1.0
 70
    11
 71
     3
 72
    17
 73
    13
 74
     0
 42
0.0000000001
 43
0.0000000001
 12
1.0
 22
0.0
 32
0.0
 13
1.0
 23
0.0
 33
0.0
 40
0.0
 40
0.0
 40
0.0
 40
0.0
 40
1.0
 40
1.0
 40
1.0
 40
2.0
 40
2.0
 40
2.0
 40
3.0
 40
3.0
 40
3.0
 40
4.0
 40
4.0
 40
4.0
 40
4.0
 10
103.0999945488778
 20
-148.1046549108905
 30
0.0
 10
103.0999945488778
 20
-148.3540798240226
 30
0.0
 10
103.3831813977653
 20
-148.400933122622
 30
0.0
 10
103.7280354558388
 20
-148.400933122622
 30
0.0
 10
104.0473958073215
 20
-148.400933122622
 30
0.0
 10
104.3564208723484
 20
-148.3647596200269
 30
0.0
 10
104.3564208723484
 20
-148.1046549108905
 30
0.0
 10
104.3564208723484
 20
-147.8572970550496
 30
0.0
 10
104.0749565712035
 20
-147.808376699159
 30
0.0
 10
103.7280354558388
 20
-147.808376699159
 30
0.0
 10
103.4086751043562
 20
-147.808376699159
 30
0.0
 10
103.0999945488778
 20
-147.8466172590453
 30
0.0
 10
103.0999945488778
 20
-148.1046549108905
 30
0.0
  0
HATCH
  5
10B
330
103
100
AcDbEntity
  8
_U+30EC_U+30A4_U+30E4_U+30FC 1
 62
   179
420
  2234388
100
AcDbHatch
 10
0.0
 20
0.0
 30
0.0
210
0.0
220
0.0
230
1.0
  2
SOLID
 70
     1
 71
     0
 91
        2
 92
        1
 93
        1
 72
     4
 94
        3
 73
     0
 74
     1
 95
       29
 96
       25
 40
0.0
 40
0.0
 40
0.0
 40
0.0
 40
1.0
 40
1.0
 40
1.0
 40
2.0
 40
2.0
 40
2.0
 40
3.0
 40
3.0
 40
3.0
 40
4.0
 40
4.0
 40
4.0
 40
5.0
 40
5.0
 40
5.0
 40
6.0
 40
6.0
 40
6.0
 40
7.0
 40
7.0
 40
7.0
 40
8.0
 40
8.0
 40
8.0
 40
8.0
 10
104.3223144270444
 20
-147.7070908918927
 10
104.5317762325476
 20
-147.8145778710325
 10
104.551068767265
 20
-147.9882106834891
 10
104.551068767265
 20
-148.1046549108905
 10
104.551068767265
 20
-148.2651963605032
 10
104.5045599782141
 20
-148.4071342944954
 10
104.3223144270444
 20
-148.5022189298883
 10
104.1280110416763
 20
-148.6059163039943
 10
103.8909884722911
 20
-148.6248643291632
 10
103.7280354558388
 20
-148.6248643291632
 10
103.5843749741039
 20
-148.6248643291632
 10
103.3325384941322
 20
-148.608327870834
 10
103.1337564846332
 20
-148.5022189298883
 10
102.9304958510035
 20
-148.3943874412
 10
102.9070692017038
 20
-148.2335014820389
 10
102.9070692017038
 20
-148.1046549108905
 10
102.9070692017038
 20
-147.946180518569
 10
102.951855443012
 20
-147.8021755272856
 10
103.1337564846332
 20
-147.7070908918927
 10
103.3259928127102
 20
-147.607527632369
 10
103.5547471529308
 20
-147.5844454926178
 10
103.7280354558388
 20
-147.5844454926178
 10
103.8992567014557
 20
-147.5844454926178
 10
104.1300780989675
 20
-147.6051160655293
 10
104.3223144270444
 20
-147.7070908918927
 97
        0
 97
        0
 92
        1
 93
        1
 72
     4
 94
        3
 73
     0
 74
     1
 95
       17
 96
       13
 40
0.0
 40
0.0
 40
0.0
 40
0.0
 40
1.0
 40
1.0
 40
1.0
 40
2.0
 40
2.0
 40
2.0
 40
3.0
 40
3.0
 40
3.0
 40
4.0
 40
4.0
 40
4.0
 40
4.0
 10
103.0999945488778
 20
-148.1046549108905
 10
103.0999945488778
 20
-148.3540798240226
 10
103.3831813977653
 20
-148.400933122622
 10
103.7280354558388
 20
-148.400933122622
 10
104.0473958073215
 20
-148.400933122622
 10
104.3564208723484
 20
-148.3647596200269
 10
104.3564208723484
 20
-148.1046549108905
 10
104.3564208723484
 20
-147.8572970550496
 10
104.0749565712035
 20
-147.808376699159
 10
103.7280354558388
 20
-147.808376699159
 10
103.4086751043562
 20
-147.808376699159
 10
103.0999945488778
 20
-147.8466172590453
 10
103.0999945488778
 20
-148.1046549108905
 97
        0
 97
        0
 75
     2
 76
     1
 98
        0
  0
ENDBLK
  5
106
330
103
100
AcDbEntity
  8
0
100
AcDbBlockEnd
  0
BLOCK
  5
10E
330
10C
100
AcDbEntity
  8
0
100
AcDbBlockBegin
  2
block 9
 70
     0
 10
0.0
 20
0.0
 30
0.0
  3
block 9
  1

  0
SPLINE
  5
110
330
10C
100
AcDbEntity
  8
_U+30EC_U+30A4_U+30E4_U+30FC 1
370
     0
100
AcDbSpline
210
0.0
220
0.0
230
1.0
 70
    11
 71
     3
 72
    62
 73
    58
 74
     0
 42
0.0000000001
 43
0.0000000001
 12
1.0
 22
0.0
 32
0.0
 13
1.0
 23
0.0
 33
0.0
 40
0.0
 40
0.0
 40
0.0
 40
0.0
 40
1.0
 40
1.0
 40
1.0
 40
2.0
 40
2.0
 40
2.0
 40
3.0
 40
3.0
 40
3.0
 40
4.0
 40
4.0
 40
4.0
 40
5.0
 40
5.0
 40
5.0
 40
6.0
 40
6.0
 40
6.0
 40
7.0
 40
7.0
 40
7.0
 40
8.0
 40
8.0
 40
8.0
 40
9.0
 40
9.0
 40
9.0
 40
10.0
 40
10.0
 40
10.0
 40
11.0
 40
11.0
 40
11.0
 40
12.0
 40
12.0
 40
12.0
 40
13.0
 40
13.0
 40
13.0
 40
14.0
 40
14.0
 40
14.0
 40
15.0
 40
15.0
 40
15.0
 40
16.0
 40
16.0
 40
16.0
 40
17.0
 40
17.0
 40
17.0
 40
18.0
 40
18.0
 40
18.0
 40
19.0
 40
19.0
 40
19.0
 40
19.0
 10
104.551068767265
 20
-137.3766275698225
 30
0.0
 10
104.551068767265
 20
-137.4720567147639
 30
0.0
 10
104.5297091752565
 20
-137.6901312589802
 30
0.0
 10
104.343674019053
 20
-137.8148437155463
 30
0.0
 10
104.2313639062338
 20
-137.8885687589306
 30
0.0
 10
104.1321451562586
 20
-137.8930473830615
 30
0.0
 10
104.0473958073215
 20
-137.8971814976438
 30
0.0
 10
104.0473958073215
 20
-137.8971814976438
 30
0.0
 10
104.0473958073215
 20
-137.6770398961363
 30
0.0
 10
104.0473958073215
 20
-137.6770398961363
 30
0.0
 10
104.1218098698029
 20
-137.6749728388452
 30
0.0
 10
104.3564208723484
 20
-137.6646375523894
 30
0.0
 10
104.3564208723484
 20
-137.3811061939533
 30
0.0
 10
104.3564208723484
 20
-137.2436468840919
 30
0.0
 10
104.2864854339978
 20
-137.0913736636438
 30
0.0
 10
104.0580756033258
 20
-137.0913736636438
 30
0.0
 10
103.9419758854728
 20
-137.0913736636438
 30
0.0
 10
103.8930555295823
 20
-137.1292697139816
 30
0.0
 10
103.861360651118
 20
-137.1609645924459
 30
0.0
 10
103.7872910981851
 20
-137.2350341453787
 30
0.0
 10
103.7745442448897
 20
-137.3514783727802
 30
0.0
 10
103.7745442448897
 20
-137.4062553909957
 30
0.0
 10
103.7745442448897
 20
-137.4255479257131
 30
0.0
 10
103.7766113021809
 20
-137.4613769187597
 30
0.0
 10
103.7807454167632
 20
-137.4889376826416
 30
0.0
 10
103.7807454167632
 20
-137.4889376826416
 30
0.0
 10
103.5864420313951
 20
-137.4889376826416
 30
0.0
 10
103.5864420313951
 20
-137.4889376826416
 30
0.0
 10
103.5926432032685
 20
-137.4510416323039
 30
0.0
 10
103.5947102605597
 20
-137.4083224482868
 30
0.0
 10
103.5947102605597
 20
-137.4021212764134
 30
0.0
 10
103.5947102605597
 20
-137.3366644621936
 30
0.0
 10
103.5736951780996
 20
-137.1375379431462
 30
0.0
 10
103.3366726087145
 20
-137.1375379431462
 30
0.0
 10
103.1592501912241
 20
-137.1375379431462
 30
0.0
 10
103.1041286634601
 20
-137.2691405906827
 30
0.0
 10
103.1041286634601
 20
-137.3786946271137
 30
0.0
 10
103.1041286634601
 20
-137.6432779603809
 30
0.0
 10
103.3366726087145
 20
-137.651890699094
 30
0.0
 10
103.4086751043562
 20
-137.6560248136763
 30
0.0
 10
103.4086751043562
 20
-137.6560248136763
 30
0.0
 10
103.4086751043562
 20
-137.8589409377575
 30
0.0
 10
103.4086751043562
 20
-137.8589409377575
 30
0.0
 10
103.2839626477901
 20
-137.8506727085929
 30
0.0
 10
102.9070692017038
 20
-137.8231119447109
 30
0.0
 10
102.9070692017038
 20
-137.3662922833668
 30
0.0
 10
102.9070692017038
 20
-137.142016567277
 30
0.0
 10
103.0341932251095
 20
-136.9008598833095
 30
0.0
 10
103.3301269272925
 20
-136.9008598833095
 30
0.0
 10
103.5165065930445
 20
-136.9008598833095
 30
0.0
 10
103.598844375142
 20
-136.9959445187024
 30
0.0
 10
103.6601670747794
 20
-137.0955077782261
 30
0.0
 10
103.6877278386614
 20
-137.0341850785887
 30
0.0
 10
103.7683430730163
 20
-136.8522840369675
 30
0.0
 10
104.0453287500303
 20
-136.8522840369675
 30
0.0
 10
104.3839816362304
 20
-136.8522840369675
 30
0.0
 10
104.551068767265
 20
-137.0996418928084
 30
0.0
 10
104.551068767265
 20
-137.3766275698225
 30
0.0
  0
HATCH
  5
111
330
10C
100
AcDbEntity
  8
_U+30EC_U+30A4_U+30E4_U+30FC 1
 62
   179
420
  2234388
100
AcDbHatch
 10
0.0
 20
0.0
 30
0.0
210
0.0
220
0.0
230
1.0
  2
SOLID
 70
     1
 71
     0
 91
        1
 92
        1
 93
        1
 72
     4
 94
        3
 73
     0
 74
     1
 95
       62
 96
       58
 40
0.0
 40
0.0
 40
0.0
 40
0.0
 40
1.0
 40
1.0
 40
1.0
 40
2.0
 40
2.0
 40
2.0
 40
3.0
 40
3.0
 40
3.0
 40
4.0
 40
4.0
 40
4.0
 40
5.0
 40
5.0
 40
5.0
 40
6.0
 40
6.0
 40
6.0
 40
7.0
 40
7.0
 40
7.0
 40
8.0
 40
8.0
 40
8.0
 40
9.0
 40
9.0
 40
9.0
 40
10.0
 40
10.0
 40
10.0
 40
11.0
 40
11.0
 40
11.0
 40
12.0
 40
12.0
 40
12.0
 40
13.0
 40
13.0
 40
13.0
 40
14.0
 40
14.0
 40
14.0
 40
15.0
 40
15.0
 40
15.0
 40
16.0
 40
16.0
 40
16.0
 40
17.0
 40
17.0
 40
17.0
 40
18.0
 40
18.0
 40
18.0
 40
19.0
 40
19.0
 40
19.0
 40
19.0
 10
104.551068767265
 20
-137.3766275698225
 10
104.551068767265
 20
-137.4720567147639
 10
104.5297091752565
 20
-137.6901312589802
 10
104.343674019053
 20
-137.8148437155463
 10
104.2313639062338
 20
-137.8885687589306
 10
104.1321451562586
 20
-137.8930473830615
 10
104.0473958073215
 20
-137.8971814976438
 10
104.0473958073215
 20
-137.8971814976438
 10
104.0473958073215
 20
-137.6770398961363
 10
104.0473958073215
 20
-137.6770398961363
 10
104.1218098698029
 20
-137.6749728388452
 10
104.3564208723484
 20
-137.6646375523894
 10
104.3564208723484
 20
-137.3811061939533
 10
104.3564208723484
 20
-137.2436468840919
 10
104.2864854339978
 20
-137.0913736636438
 10
104.0580756033258
 20
-137.0913736636438
 10
103.9419758854728
 20
-137.0913736636438
 10
103.8930555295823
 20
-137.1292697139816
 10
103.861360651118
 20
-137.1609645924459
 10
103.7872910981851
 20
-137.2350341453787
 10
103.7745442448897
 20
-137.3514783727802
 10
103.7745442448897
 20
-137.4062553909957
 10
103.7745442448897
 20
-137.4255479257131
 10
103.7766113021809
 20
-137.4613769187597
 10
103.7807454167632
 20
-137.4889376826416
 10
103.7807454167632
 20
-137.4889376826416
 10
103.5864420313951
 20
-137.4889376826416
 10
103.5864420313951
 20
-137.4889376826416
 10
103.5926432032685
 20
-137.4510416323039
 10
103.5947102605597
 20
-137.4083224482868
 10
103.5947102605597
 20
-137.4021212764134
 10
103.5947102605597
 20
-137.3366644621936
 10
103.5736951780996
 20
-137.1375379431462
 10
103.3366726087145
 20
-137.1375379431462
 10
103.1592501912241
 20
-137.1375379431462
 10
103.1041286634601
 20
-137.2691405906827
 10
103.1041286634601
 20
-137.3786946271137
 10
103.1041286634601
 20
-137.6432779603809
 10
103.3366726087145
 20
-137.651890699094
 10
103.4086751043562
 20
-137.6560248136763
 10
103.4086751043562
 20
-137.6560248136763
 10
103.4086751043562
 20
-137.8589409377575
 10
103.4086751043562
 20
-137.8589409377575
 10
103.2839626477901
 20
-137.8506727085929
 10
102.9070692017038
 20
-137.8231119447109
 10
102.9070692017038
 20
-137.3662922833668
 10
102.9070692017038
 20
-137.142016567277
 10
103.0341932251095
 20
-136.9008598833095
 10
103.3301269272925
 20
-136.9008598833095
 10
103.5165065930445
 20
-136.9008598833095
 10
103.598844375142
 20
-136.9959445187024
 10
103.6601670747794
 20
-137.0955077782261
 10
103.6877278386614
 20
-137.0341850785887
 10
103.7683430730163
 20
-136.8522840369675
 10
104.0453287500303
 20
-136.8522840369675
 10
104.3839816362304
 20
-136.8522840369675
 10
104.551068767265
 20
-137.0996418928084
 10
104.551068767265
 20
-137.3766275698225
 97
        0
 97
        0
 75
     2
 76
     1
 98
        0
  0
ENDBLK
  5
10F
330
10C
100
AcDbEntity
  8
0
100
AcDbBlockEnd
  0
BLOCK
  5
114
330
112
100
AcDbEntity
  8
0
100
AcDbBlockBegin
  2
block 10
 70
     0
 10
0.0
 20
0.0
 30
0.0
  3
block 10
  1

  0
SPLINE
  5
116
330
112
100
AcDbEntity
  8
_U+30EC_U+30A4_U+30E4_U+30FC 1
370
     0
100
AcDbSpline
210
0.0
220
0.0
230
1.0
 70
    11
 71
     3
 72
    62
 73
    58
 74
     0
 42
0.0000000001
 43
0.0000000001
 12
1.0
 22
0.0
 32
0.0
 13
1.0
 23
0.0
 33
0.0
 40
0.0
 40
0.0
 40
0.0
 40
0.0
 40
1.0
 40
1.0
 40
1.0
 40
2.0
 40
2.0
 40
2.0
 40
3.0
 40
3.0
 40
3.0
 40
4.0
 40
4.0
 40
4.0
 40
5.0
 40
5.0
 40
5.0
 40
6.0
 40
6.0
 40
6.0
 40
7.0
 40
7.0
 40
7.0
 40
8.0
 40
8.0
 40
8.0
 40
9.0
 40
9.0
 40
9.0
 40
10.0
 40
10.0
 40
10.0
 40
11.0
 40
11.0
 40
11.0
 40
12.0
 40
12.0
 40
12.0
 40
13.0
 40
13.0
 40
13.0
 40
14.0
 40
14.0
 40
14.0
 40
15.0
 40
15.0
 40
15.0
 40
16.0
 40
16.0
 40
16.0
 40
17.0
 40
17.0
 40
17.0
 40
18.0
 40
18.0
 40
18.0
 40
19.0
 40
19.0
 40
19.0
 40
19.0
 10
104.551068767265
 20
-118.8139363309736
 30
0.0
 10
104.551068767265
 20
-118.9091932211408
 30
0.0
 10
104.5297091752565
 20
-119.1270955105828
 30
0.0
 10
104.343674019053
 20
-119.2518079671489
 30
0.0
 10
104.2313639062338
 20
-119.3258775200817
 30
0.0
 10
104.1321451562586
 20
-119.3301838894383
 30
0.0
 10
104.0473958073215
 20
-119.3343180040206
 30
0.0
 10
104.0473958073215
 20
-119.3343180040206
 30
0.0
 10
104.0473958073215
 20
-119.1143486572874
 30
0.0
 10
104.0473958073215
 20
-119.1143486572874
 30
0.0
 10
104.1218098698029
 20
-119.1122815999962
 30
0.0
 10
104.3564208723484
 20
-119.101601803992
 30
0.0
 10
104.3564208723484
 20
-118.8182427003302
 30
0.0
 10
104.3564208723484
 20
-118.6806111356944
 30
0.0
 10
104.2864854339978
 20
-118.5283379152464
 30
0.0
 10
104.0580756033258
 20
-118.5283379152464
 30
0.0
 10
103.9419758854728
 20
-118.5283379152464
 30
0.0
 10
103.8930555295823
 20
-118.5664062203584
 30
0.0
 10
103.861360651118
 20
-118.5981010988227
 30
0.0
 10
103.7872910981851
 20
-118.6721706517556
 30
0.0
 10
103.7745442448897
 20
-118.788614879157
 30
0.0
 10
103.7745442448897
 20
-118.8435641521468
 30
0.0
 10
103.7745442448897
 20
-118.8625121773156
 30
0.0
 10
103.7766113021809
 20
-118.8985134251365
 30
0.0
 10
103.7807454167632
 20
-118.9260741890185
 30
0.0
 10
103.7807454167632
 20
-118.9260741890185
 30
0.0
 10
103.5864420313951
 20
-118.9260741890185
 30
0.0
 10
103.5864420313951
 20
-118.9260741890185
 30
0.0
 10
103.5926432032685
 20
-118.8880058839065
 30
0.0
 10
103.5947102605597
 20
-118.8456312094379
 30
0.0
 10
103.5947102605597
 20
-118.8392577827902
 30
0.0
 10
103.5947102605597
 20
-118.7738009685704
 30
0.0
 10
103.5736951780996
 20
-118.5748467042973
 30
0.0
 10
103.3366726087145
 20
-118.5748467042973
 30
0.0
 10
103.1592501912241
 20
-118.5748467042973
 30
0.0
 10
103.1041286634601
 20
-118.7061048422853
 30
0.0
 10
103.1041286634601
 20
-118.8160033882648
 30
0.0
 10
103.1041286634601
 20
-119.0804144667577
 30
0.0
 10
103.3366726087145
 20
-119.0890272054708
 30
0.0
 10
103.4086751043562
 20
-119.0931613200531
 30
0.0
 10
103.4086751043562
 20
-119.0931613200531
 30
0.0
 10
103.4086751043562
 20
-119.2962496989086
 30
0.0
 10
103.4086751043562
 20
-119.2962496989086
 30
0.0
 10
103.2839626477901
 20
-119.2878092149697
 30
0.0
 10
102.9070692017038
 20
-119.2602484510877
 30
0.0
 10
102.9070692017038
 20
-118.8034287897436
 30
0.0
 10
102.9070692017038
 20
-118.5791530736538
 30
0.0
 10
103.0341932251095
 20
-118.3379963896863
 30
0.0
 10
103.3301269272925
 20
-118.3379963896863
 30
0.0
 10
103.5165065930445
 20
-118.3379963896863
 30
0.0
 10
103.598844375142
 20
-118.4330810250792
 30
0.0
 10
103.6601670747794
 20
-118.532644284603
 30
0.0
 10
103.6877278386614
 20
-118.4711493301913
 30
0.0
 10
103.7683430730163
 20
-118.2892482885701
 30
0.0
 10
104.0453287500303
 20
-118.2892482885701
 30
0.0
 10
104.3839816362304
 20
-118.2892482885701
 30
0.0
 10
104.551068767265
 20
-118.5367783991853
 30
0.0
 10
104.551068767265
 20
-118.8139363309736
 30
0.0
  0
HATCH
  5
117
330
112
100
AcDbEntity
  8
_U+30EC_U+30A4_U+30E4_U+30FC 1
 62
   179
420
  2234388
100
AcDbHatch
 10
0.0
 20
0.0
 30
0.0
210
0.0
220
0.0
230
1.0
  2
SOLID
 70
     1
 71
     0
 91
        1
 92
        1
 93
        1
 72
     4
 94
        3
 73
     0
 74
     1
 95
       62
 96
       58
 40
0.0
 40
0.0
 40
0.0
 40
0.0
 40
1.0
 40
1.0
 40
1.0
 40
2.0
 40
2.0
 40
2.0
 40
3.0
 40
3.0
 40
3.0
 40
4.0
 40
4.0
 40
4.0
 40
5.0
 40
5.0
 40
5.0
 40
6.0
 40
6.0
 40
6.0
 40
7.0
 40
7.0
 40
7.0
 40
8.0
 40
8.0
 40
8.0
 40
9.0
 40
9.0
 40
9.0
 40
10.0
 40
10.0
 40
10.0
 40
11.0
 40
11.0
 40
11.0
 40
12.0
 40
12.0
 40
12.0
 40
13.0
 40
13.0
 40
13.0
 40
14.0
 40
14.0
 40
14.0
 40
15.0
 40
15.0
 40
15.0
 40
16.0
 40
16.0
 40
16.0
 40
17.0
 40
17.0
 40
17.0
 40
18.0
 40
18.0
 40
18.0
 40
19.0
 40
19.0
 40
19.0
 40
19.0
 10
104.551068767265
 20
-118.8139363309736
 10
104.551068767265
 20
-118.9091932211408
 10
104.5297091752565
 20
-119.1270955105828
 10
104.343674019053
 20
-119.2518079671489
 10
104.2313639062338
 20
-119.3258775200817
 10
104.1321451562586
 20
-119.3301838894383
 10
104.0473958073215
 20
-119.3343180040206
 10
104.0473958073215
 20
-119.3343180040206
 10
104.0473958073215
 20
-119.1143486572874
 10
104.0473958073215
 20
-119.1143486572874
 10
104.1218098698029
 20
-119.1122815999962
 10
104.3564208723484
 20
-119.101601803992
 10
104.3564208723484
 20
-118.8182427003302
 10
104.3564208723484
 20
-118.6806111356944
 10
104.2864854339978
 20
-118.5283379152464
 10
104.0580756033258
 20
-118.5283379152464
 10
103.9419758854728
 20
-118.5283379152464
 10
103.8930555295823
 20
-118.5664062203584
 10
103.861360651118
 20
-118.5981010988227
 10
103.7872910981851
 20
-118.6721706517556
 10
103.7745442448897
 20
-118.788614879157
 10
103.7745442448897
 20
-118.8435641521468
 10
103.7745442448897
 20
-118.8625121773156
 10
103.7766113021809
 20
-118.8985134251365
 10
103.7807454167632
 20
-118.9260741890185
 10
103.7807454167632
 20
-118.9260741890185
 10
103.5864420313951
 20
-118.9260741890185
 10
103.5864420313951
 20
-118.9260741890185
 10
103.5926432032685
 20
-118.8880058839065
 10
103.5947102605597
 20
-118.8456312094379
 10
103.5947102605597
 20
-118.8392577827902
 10
103.5947102605597
 20
-118.7738009685704
 10
103.5736951780996
 20
-118.5748467042973
 10
103.3366726087145
 20
-118.5748467042973
 10
103.1592501912241
 20
-118.5748467042973
 10
103.1041286634601
 20
-118.7061048422853
 10
103.1041286634601
 20
-118.8160033882648
 10
103.1041286634601
 20
-119.0804144667577
 10
103.3366726087145
 20
-119.0890272054708
 10
103.4086751043562
 20
-119.0931613200531
 10
103.4086751043562
 20
-119.0931613200531
 10
103.4086751043562
 20
-119.2962496989086
 10
103.4086751043562
 20
-119.2962496989086
 10
103.2839626477901
 20
-119.2878092149697
 10
102.9070692017038
 20
-119.2602484510877
 10
102.9070692017038
 20
-118.8034287897436
 10
102.9070692017038
 20
-118.5791530736538
 10
103.0341932251095
 20
-118.3379963896863
 10
103.3301269272925
 20
-118.3379963896863
 10
103.5165065930445
 20
-118.3379963896863
 10
103.598844375142
 20
-118.4330810250792
 10
103.6601670747794
 20
-118.532644284603
 10
103.6877278386614
 20
-118.4711493301913
 10
103.7683430730163
 20
-118.2892482885701
 10
104.0453287500303
 20
-118.2892482885701
 10
104.3839816362304
 20
-118.2892482885701
 10
104.551068767265
 20
-118.5367783991853
 10
104.551068767265
 20
-118.8139363309736
 97
        0
 97
        0
 75
     2
 76
     1
 98
        0
  0
SPLINE
  5
118
330
112
100
AcDbEntity
  8
_U+30EC_U+30A4_U+30E4_U+30FC 1
370
     0
100
AcDbSpline
210
0.0
220
0.0
230
1.0
 70
    11
 71
     3
 72
    53
 73
    49
 74
     0
 42
0.0000000001
 43
0.0000000001
 12
1.0
 22
0.0
 32
0.0
 13
1.0
 23
0.0
 33
0.0
 40
0.0
 40
0.0
 40
0.0
 40
0.0
 40
1.0
 40
1.0
 40
1.0
 40
2.0
 40
2.0
 40
2.0
 40
3.0
 40
3.0
 40
3.0
 40
4.0
 40
4.0
 40
4.0
 40
5.0
 40
5.0
 40
5.0
 40
6.0
 40
6.0
 40
6.0
 40
7.0
 40
7.0
 40
7.0
 40
8.0
 40
8.0
 40
8.0
 40
9.0
 40
9.0
 40
9.0
 40
10.0
 40
10.0
 40
10.0
 40
11.0
 40
11.0
 40
11.0
 40
12.0
 40
12.0
 40
12.0
 40
13.0
 40
13.0
 40
13.0
 40
14.0
 40
14.0
 40
14.0
 40
15.0
 40
15.0
 40
15.0
 40
16.0
 40
16.0
 40
16.0
 40
16.0
 10
104.551068767265
 20
-117.6475992544423
 30
0.0
 10
104.551068767265
 20
-117.7259751767317
 30
0.0
 10
104.5341877993873
 20
-117.8274332387723
 30
0.0
 10
104.4704535329102
 20
-117.9290635555872
 30
0.0
 10
104.3605549869307
 20
-118.1025241132695
 30
0.0
 10
104.2292968489427
 20
-118.1237114505038
 30
0.0
 10
104.1218098698029
 20
-118.1426594756727
 30
0.0
 10
104.1218098698029
 20
-118.1426594756727
 30
0.0
 10
104.1218098698029
 20
-117.9206230716483
 30
0.0
 10
104.1218098698029
 20
-117.9206230716483
 30
0.0
 10
104.3202473697533
 20
-117.8655015438843
 30
0.0
 10
104.3498751909264
 20
-117.7385497752529
 30
0.0
 10
104.3498751909264
 20
-117.6455321971511
 30
0.0
 10
104.3498751909264
 20
-117.5060058299985
 30
0.0
 10
104.2506564409512
 20
-117.3535603547762
 30
0.0
 10
104.0177679861483
 20
-117.3535603547762
 30
0.0
 10
103.7621419011428
 20
-117.3535603547762
 30
0.0
 10
103.6922064627922
 20
-117.5333943391062
 30
0.0
 10
103.6922064627922
 20
-117.65397268109
 30
0.0
 10
103.6922064627922
 20
-117.6856675595543
 30
0.0
 10
103.6922064627922
 20
-117.8274332387723
 30
0.0
 10
103.8213975434891
 20
-117.9163167022918
 30
0.0
 10
103.8213975434891
 20
-117.9163167022918
 30
0.0
 10
103.8021050087717
 20
-118.0918443172652
 30
0.0
 10
103.8021050087717
 20
-118.0918443172652
 30
0.0
 10
103.8021050087717
 20
-118.0918443172652
 30
0.0
 10
102.9559895575943
 20
-117.9712659752815
 30
0.0
 10
102.9559895575943
 20
-117.9712659752815
 30
0.0
 10
102.9559895575943
 20
-117.9712659752815
 30
0.0
 10
102.9559895575943
 20
-117.1928466503893
 30
0.0
 10
102.9559895575943
 20
-117.1928466503893
 30
0.0
 10
102.9559895575943
 20
-117.1928466503893
 30
0.0
 10
103.150637452511
 20
-117.1928466503893
 30
0.0
 10
103.150637452511
 20
-117.1928466503893
 30
0.0
 10
103.150637452511
 20
-117.1928466503893
 30
0.0
 10
103.150637452511
 20
-117.8084852136034
 30
0.0
 10
103.150637452511
 20
-117.8084852136034
 30
0.0
 10
103.150637452511
 20
-117.8084852136034
 30
0.0
 10
103.5736951780996
 20
-117.8739420278232
 30
0.0
 10
103.5736951780996
 20
-117.8739420278232
 30
0.0
 10
103.5395887327957
 20
-117.8126193281857
 30
0.0
 10
103.4996256251668
 20
-117.730109291314
 30
0.0
 10
103.4996256251668
 20
-117.6117702613957
 30
0.0
 10
103.4996256251668
 20
-117.3578667241328
 30
0.0
 10
103.6856607813703
 20
-117.1208441547476
 30
0.0
 10
103.9988199609795
 20
-117.1208441547476
 30
0.0
 10
104.316113255171
 20
-117.1208441547476
 30
0.0
 10
104.551068767265
 20
-117.3451198708373
 30
0.0
 10
104.551068767265
 20
-117.6475992544423
 30
0.0
  0
HATCH
  5
119
330
112
100
AcDbEntity
  8
_U+30EC_U+30A4_U+30E4_U+30FC 1
 62
   179
420
  2234388
100
AcDbHatch
 10
0.0
 20
0.0
 30
0.0
210
0.0
220
0.0
230
1.0
  2
SOLID
 70
     1
 71
     0
 91
        1
 92
        1
 93
        1
 72
     4
 94
        3
 73
     0
 74
     1
 95
       53
 96
       49
 40
0.0
 40
0.0
 40
0.0
 40
0.0
 40
1.0
 40
1.0
 40
1.0
 40
2.0
 40
2.0
 40
2.0
 40
3.0
 40
3.0
 40
3.0
 40
4.0
 40
4.0
 40
4.0
 40
5.0
 40
5.0
 40
5.0
 40
6.0
 40
6.0
 40
6.0
 40
7.0
 40
7.0
 40
7.0
 40
8.0
 40
8.0
 40
8.0
 40
9.0
 40
9.0
 40
9.0
 40
10.0
 40
10.0
 40
10.0
 40
11.0
 40
11.0
 40
11.0
 40
12.0
 40
12.0
 40
12.0
 40
13.0
 40
13.0
 40
13.0
 40
14.0
 40
14.0
 40
14.0
 40
15.0
 40
15.0
 40
15.0
 40
16.0
 40
16.0
 40
16.0
 40
16.0
 10
104.551068767265
 20
-117.6475992544423
 10
104.551068767265
 20
-117.7259751767317
 10
104.5341877993873
 20
-117.8274332387723
 10
104.4704535329102
 20
-117.9290635555872
 10
104.3605549869307
 20
-118.1025241132695
 10
104.2292968489427
 20
-118.1237114505038
 10
104.1218098698029
 20
-118.1426594756727
 10
104.1218098698029
 20
-118.1426594756727
 10
104.1218098698029
 20
-117.9206230716483
 10
104.1218098698029
 20
-117.9206230716483
 10
104.3202473697533
 20
-117.8655015438843
 10
104.3498751909264
 20
-117.7385497752529
 10
104.3498751909264
 20
-117.6455321971511
 10
104.3498751909264
 20
-117.5060058299985
 10
104.2506564409512
 20
-117.3535603547762
 10
104.0177679861483
 20
-117.3535603547762
 10
103.7621419011428
 20
-117.3535603547762
 10
103.6922064627922
 20
-117.5333943391062
 10
103.6922064627922
 20
-117.65397268109
 10
103.6922064627922
 20
-117.6856675595543
 10
103.6922064627922
 20
-117.8274332387723
 10
103.8213975434891
 20
-117.9163167022918
 10
103.8213975434891
 20
-117.9163167022918
 10
103.8021050087717
 20
-118.0918443172652
 10
103.8021050087717
 20
-118.0918443172652
 10
103.8021050087717
 20
-118.0918443172652
 10
102.9559895575943
 20
-117.9712659752815
 10
102.9559895575943
 20
-117.9712659752815
 10
102.9559895575943
 20
-117.9712659752815
 10
102.9559895575943
 20
-117.1928466503893
 10
102.9559895575943
 20
-117.1928466503893
 10
102.9559895575943
 20
-117.1928466503893
 10
103.150637452511
 20
-117.1928466503893
 10
103.150637452511
 20
-117.1928466503893
 10
103.150637452511
 20
-117.1928466503893
 10
103.150637452511
 20
-117.8084852136034
 10
103.150637452511
 20
-117.8084852136034
 10
103.150637452511
 20
-117.8084852136034
 10
103.5736951780996
 20
-117.8739420278232
 10
103.5736951780996
 20
-117.8739420278232
 10
103.5395887327957
 20
-117.8126193281857
 10
103.4996256251668
 20
-117.730109291314
 10
103.4996256251668
 20
-117.6117702613957
 10
103.4996256251668
 20
-117.3578667241328
 10
103.6856607813703
 20
-117.1208441547476
 10
103.9988199609795
 20
-117.1208441547476
 10
104.316113255171
 20
-117.1208441547476
 10
104.551068767265
 20
-117.3451198708373
 10
104.551068767265
 20
-117.6475992544423
 97
        0
 97
        0
 75
     2
 76
     1
 98
        0
  0
ENDBLK
  5
115
330
112
100
AcDbEntity
  8
0
100
AcDbBlockEnd
  0
BLOCK
  5
11C
330
11A
100
AcDbEntity
  8
0
100
AcDbBlockBegin
  2
block 11
 70
     0
 10
0.0
 20
0.0
 30
0.0
  3
block 11
  1

  0
POLYLINE
  5
11E
330
11A
100
AcDbEntity
  8
_U+30EC_U+30A4_U+30E4_U+30FC 1
 62
   179
420
  2234388
370
    25
100
AcDb2dPolyline
 66
     1
 10
0.0
 20
0.0
 30
0.0
  0
VERTEX
  5
11F
330
11E
100
AcDbEntity
  8
_U+30EC_U+30A4_U+30E4_U+30FC 1
 62
   179
420
  2234388
370
    25
100
AcDbVertex
100
AcDb2dVertex
 10
77.6224685752414
 20
-136.7761424658061
 30
0.0
  0
VERTEX
  5
120
330
11E
100
AcDbEntity
  8
_U+30EC_U+30A4_U+30E4_U+30FC 1
 62
   179
420
  2234388
370
    25
100
AcDbVertex
100
AcDb2dVertex
 10
77.6224685752414
 20
-100.7297677525953
 30
0.0
  0
VERTEX
  5
121
330
11E
100
AcDbEntity
  8
_U+30EC_U+30A4_U+30E4_U+30FC 1
 62
   179
420
  2234388
370
    25
100
AcDbVertex
100
AcDb2dVertex
 10
78.77280831364001
 20
-100.7297677525953
 30
0.0
  0
VERTEX
  5
122
330
11E
100
AcDbEntity
  8
_U+30EC_U+30A4_U+30E4_U+30FC 1
 62
   179
420
  2234388
370
    25
100
AcDbVertex
100
AcDb2dVertex
 10
78.76899632376882
 20
-135.7298741327343
 30
0.0
  0
VERTEX
  5
123
330
11E
100
AcDbEntity
  8
_U+30EC_U+30A4_U+30E4_U+30FC 1
 62
   179
420
  2234388
370
    25
100
AcDbVertex
100
AcDb2dVertex
 10
97.34634418315453
 20
-138.7298610764286
 30
0.0
  0
VERTEX
  5
124
330
11E
100
AcDbEntity
  8
_U+30EC_U+30A4_U+30E4_U+30FC 1
 62
   179
420
  2234388
370
    25
100
AcDbVertex
100
AcDb2dVertex
 10
97.34944862751976
 20
-158.6948960714376
 30
0.0
  0
VERTEX
  5
125
330
11E
100
AcDbEntity
  8
_U+30EC_U+30A4_U+30E4_U+30FC 1
 62
   179
420
  2234388
370
    25
100
AcDbVertex
100
AcDb2dVertex
 10
93.31935067478058
 20
-158.6948960714376
 30
0.0
  0
VERTEX
  5
126
330
11E
100
AcDbEntity
  8
_U+30EC_U+30A4_U+30E4_U+30FC 1
 62
   179
420
  2234388
370
    25
100
AcDbVertex
100
AcDb2dVertex
 10
93.31903317478867
 20
-158.6948960714376
 30
0.0
  0
VERTEX
  5
127
330
11E
100
AcDbEntity
  8
_U+30EC_U+30A4_U+30E4_U+30FC 1
 62
   179
420
  2234388
370
    25
100
AcDbVertex
100
AcDb2dVertex
 10
93.31903317478867
 20
-157.6000149606001
 30
0.0
  0
VERTEX
  5
128
330
11E
100
AcDbEntity
  8
_U+30EC_U+30A4_U+30E4_U+30FC 1
 62
   179
420
  2234388
370
    25
100
AcDbVertex
100
AcDb2dVertex
 10
96.23255421156968
 20
-157.6000149606001
 30
0.0
  0
VERTEX
  5
129
330
11E
100
AcDbEntity
  8
_U+30EC_U+30A4_U+30E4_U+30FC 1
 62
   179
420
  2234388
370
    25
100
AcDbVertex
100
AcDb2dVertex
 10
96.2283914338981
 20
-139.7799394094995
 30
0.0
  0
VERTEX
  5
12A
330
11E
100
AcDbEntity
  8
_U+30EC_U+30A4_U+30E4_U+30FC 1
 62
   179
420
  2234388
370
    25
100
AcDbVertex
100
AcDb2dVertex
 10
77.6224685752414
 20
-136.7761424658061
 30
0.0
  0
SEQEND
  5
12B
330
11E
100
AcDbEntity
  8
_U+30EC_U+30A4_U+30E4_U+30FC 1
 62
   179
420
  2234388
370
    25
  0
ENDBLK
  5
11D
330
11A
100
AcDbEntity
  8
0
100
AcDbBlockEnd
  0
ENDSEC
  0
SECTION
  2
ENTITIES
  0
INSERT
  5
42
330
1F
100
AcDbEntity
  8
_U+30EC_U+30A4_U+30E4_U+30FC 1
100
AcDbBlockReference
  2
block 2
 10
0.0
 20
0.0
 30
0.0
  0
ENDSEC
  0
SECTION
  2
OBJECTS
  0
DICTIONARY
  5
C
330
0
100
AcDbDictionary
281
     1
  3
ACAD_GROUP
350
D
  3
ACAD_LAYOUT
350
1A
  3
ACAD_MATERIAL
350
3B
  3
ACAD_MLEADERSTYLE
350
12D
  3
ACAD_MLINESTYLE
350
17
  3
ACAD_PLOTSETTINGS
350
19
  3
ACAD_PLOTSTYLENAME
350
E
  3
ACAD_TABLESTYLE
350
12C
  3
ACAD_VISUALSTYLE
350
2A
  0
SUN
  5
3F
330
29
100
AcDbSun
 90
        1
290
     0
 63
     7
421
 16777215
 40
1.0
291
     1
 91
  2455826
 92
 54000000
292
     0
 70
     2
 71
   256
280
     1
  0
DICTIONARY
  5
D
102
{ACAD_REACTORS
330
C
102
}
330
C
100
AcDbDictionary
281
     1
  0
DICTIONARY
  5
1A
102
{ACAD_REACTORS
330
C
102
}
330
C
100
AcDbDictionary
281
     1
  3
Layout1
350
1E
  3
Layout2
350
26
  3
Model
350
22
  0
DICTIONARY
  5
3B
102
{ACAD_REACTORS
330
C
102
}
330
C
100
AcDbDictionary
281
     1
  3
ByBlock
350
3D
  3
ByLayer
350
3C
  3
Global
350
3E
  0
DICTIONARY
  5
12D
102
{ACAD_REACTORS
330
C
102
}
330
C
100
AcDbDictionary
281
     1
  0
DICTIONARY
  5
17
102
{ACAD_REACTORS
330
C
102
}
330
C
100
AcDbDictionary
281
     1
  3
Standard
350
18
  0
DICTIONARY
  5
19
102
{ACAD_REACTORS
330
C
102
}
330
C
100
AcDbDictionary
281
     1
  0
ACDBDICTIONARYWDFLT
  5
E
102
{ACAD_REACTORS
330
C
102
}
330
C
100
AcDbDictionary
281
     1
  3
Normal
350
F
100
AcDbDictionaryWithDefault
340
F
  0
DICTIONARY
  5
12C
102
{ACAD_REACTORS
330
C
102
}
330
C
100
AcDbDictionary
281
     1
  0
DICTIONARY
  5
2A
102
{ACAD_REACTORS
330
C
102
}
330
C
100
AcDbDictionary
281
     1
  3
2dWireframe
350
2F
  3
3D Hidden
350
31
  3
3dWireframe
350
30
  3
Basic
350
32
  3
Brighten
350
36
  3
ColorChange
350
3A
  3
Conceptual
350
34
  3
Dim
350
35
  3
Facepattern
350
39
  3
Flat
350
2B
  3
FlatWithEdges
350
2C
  3
Gouraud
350
2D
  3
GouraudWithEdges
350
2E
  3
Linepattern
350
38
  3
Realistic
350
33
  3
Thicken
350
37
  0
LAYOUT
  5
1E
102
{ACAD_REACTORS
330
1A
102
}
330
1A
100
AcDbPlotSettings
  1

  2
none_device
  4

  6

 40
0.0
 41
0.0
 42
0.0
 43
0.0
 44
0.0
 45
0.0
 46
0.0
 47
0.0
 48
0.0
 49
0.0
140
0.0
141
0.0
142
1.0
143
1.0
 70
   688
 72
     0
 73
     0
 74
     5
  7

 75
    16
 76
     0
 77
     2
 78
   300
147
1.0
148
0.0
149
0.0
100
AcDbLayout
  1
Layout1
 70
     1
 71
     1
 10
0.0
 20
0.0
 11
12.0
 21
9.0
 12
0.0
 22
0.0
 32
0.0
 14
1.000000000000000E+20
 24
1.000000000000000E+20
 34
1.000000000000000E+20
 15
-1.000000000000000E+20
 25
-1.000000000000000E+20
 35
-1.000000000000000E+20
146
0.0
 13
0.0
 23
0.0
 33
0.0
 16
1.0
 26
0.0
 36
0.0
 17
0.0
 27
1.0
 37
0.0
 76
     0
330
1B
  0
LAYOUT
  5
26
102
{ACAD_REACTORS
330
1A
102
}
330
1A
100
AcDbPlotSettings
  1

  2
none_device
  4

  6

 40
0.0
 41
0.0
 42
0.0
 43
0.0
 44
0.0
 45
0.0
 46
0.0
 47
0.0
 48
0.0
 49
0.0
140
0.0
141
0.0
142
1.0
143
1.0
 70
   688
 72
     0
 73
     0
 74
     5
  7

 75
    16
 76
     0
 77
     2
 78
   300
147
1.0
148
0.0
149
0.0
100
AcDbLayout
  1
Layout2
 70
     1
 71
     2
 10
0.0
 20
0.0
 11
0.0
 21
0.0
 12
0.0
 22
0.0
 32
0.0
 14
0.0
 24
0.0
 34
0.0
 15
0.0
 25
0.0
 35
0.0
146
0.0
 13
0.0
 23
0.0
 33
0.0
 16
1.0
 26
0.0
 36
0.0
 17
0.0
 27
1.0
 37
0.0
 76
     0
330
23
  0
LAYOUT
  5
22
102
{ACAD_REACTORS
330
1A
102
}
330
1A
100
AcDbPlotSettings
  1

  2
none_device
  4

  6

 40
0.0
 41
0.0
 42
0.0
 43
0.0
 44
0.0
 45
0.0
 46
0.0
 47
0.0
 48
0.0
 49
0.0
140
0.0
141
0.0
142
1.0
143
1.0
 70
  1712
 72
     0
 73
     0
 74
     0
  7

 75
     0
 76
     0
 77
     2
 78
   300
147
1.0
148
0.0
149
0.0
100
AcDbLayout
  1
Model
 70
     1
 71
     0
 10
0.0
 20
0.0
 11
12.0
 21
9.0
 12
0.0
 22
0.0
 32
0.0
 14
1.000000000000000E+20
 24
1.000000000000000E+20
 34
1.000000000000000E+20
 15
-1.000000000000000E+20
 25
-1.000000000000000E+20
 35
-1.000000000000000E+20
146
0.0
 13
0.0
 23
0.0
 33
0.0
 16
1.0
 26
0.0
 36
0.0
 17
0.0
 27
1.0
 37
0.0
 76
     0
330
1F
331
29
  0
MATERIAL
  5
3D
102
{ACAD_REACTORS
330
3B
102
}
330
3B
100
AcDbMaterial
  1
ByBlock
 72
     1
 94
      127
  0
MATERIAL
  5
3C
102
{ACAD_REACTORS
330
3B
102
}
330
3B
100
AcDbMaterial
  1
ByLayer
 72
     1
 94
      127
  0
MATERIAL
  5
3E
102
{ACAD_REACTORS
330
3B
102
}
330
3B
100
AcDbMaterial
  1
Global
 72
     1
 94
      127
  0
MLINESTYLE
  5
18
102
{ACAD_REACTORS
330
17
102
}
330
17
100
AcDbMlineStyle
  2
Standard
 70
     0
  3

 62
   256
 51
90.0
 52
90.0
 71
     2
 49
0.5
 62
   256
  6
BYLAYER
 49
-0.5
 62
   256
  6
BYLAYER
  0
ACDBPLACEHOLDER
  5
F
102
{ACAD_REACTORS
330
E
102
}
330
E
  0
VISUALSTYLE
  5
2F
102
{ACAD_REACTORS
330
2A
102
}
330
2A
100
AcDbVisualStyle
  2
2dWireframe
 70
     4
177
     2
291
     0
 71
     0
176
     1
 72
     2
176
     1
 73
     0
176
     1
 90
        0
176
     1
 40
-0.6
176
     1
 41
-30.0
176
     1
 62
     5
 63
     7
421
 16777215
176
     1
 74
     1
176
     1
 91
        4
176
     1
 64
     7
176
     1
 65
   257
176
     1
 75
     1
176
     1
175
     1
176
     1
 42
1.0
176
     1
 92
        0
176
     1
 66
   257
176
     1
 43
1.0
176
     1
 76
     1
176
     1
 77
     6
176
     1
 78
     2
176
     1
 67
     7
176
     1
 79
     5
176
     1
170
     0
176
     1
171
     0
176
     1
290
     0
176
     1
 93
        1
176
     1
 44
0.0
176
     1
173
     0
176
     1
  0
VISUALSTYLE
  5
31
102
{ACAD_REACTORS
330
2A
102
}
330
2A
100
AcDbVisualStyle
  2
3D Hidden
 70
     6
177
     2
291
     0
 71
     1
176
     1
 72
     2
176
     1
 73
     2
176
     1
 90
        0
176
     1
 40
-0.6
176
     1
 41
-30.0
176
     1
 62
     5
 63
     7
421
 16777215
176
     1
 74
     2
176
     1
 91
        2
176
     1
 64
     7
176
     1
 65
   257
176
     1
 75
     2
176
     1
175
     1
176
     1
 42
40.0
176
     1
 92
        0
176
     1
 66
   257
176
     1
 43
1.0
176
     1
 76
     1
176
     1
 77
     6
176
     1
 78
     2
176
     1
 67
     7
176
     1
 79
     3
176
     1
170
     0
176
     1
171
     0
176
     1
290
     0
176
     1
 93
        1
176
     1
 44
0.0
176
     1
173
     0
176
     1
  0
VISUALSTYLE
  5
30
102
{ACAD_REACTORS
330
2A
102
}
330
2A
100
AcDbVisualStyle
  2
3dWireframe
 70
     5
177
     2
291
     0
 71
     0
176
     1
 72
     2
176
     1
 73
     0
176
     1
 90
        0
176
     1
 40
-0.6
176
     1
 41
-30.0
176
     1
 62
     5
 63
     7
421
 16777215
176
     1
 74
     1
176
     1
 91
        4
176
     1
 64
     7
176
     1
 65
   257
176
     1
 75
     1
176
     1
175
     1
176
     1
 42
1.0
176
     1
 92
        0
176
     1
 66
   257
176
     1
 43
1.0
176
     1
 76
     1
176
     1
 77
     6
176
     1
 78
     2
176
     1
 67
     7
176
     1
 79
     5
176
     1
170
     0
176
     1
171
     0
176
     1
290
     0
176
     1
 93
        1
176
     1
 44
0.0
176
     1
173
     0
176
     1
  0
VISUALSTYLE
  5
32
102
{ACAD_REACTORS
330
2A
102
}
330
2A
100
AcDbVisualStyle
  2
Basic
 70
     7
177
     2
291
     1
 71
     1
176
     1
 72
     0
176
     1
 73
     1
176
     1
 90
        0
176
     1
 40
-0.6
176
     1
 41
-30.0
176
     1
 62
     5
 63
     7
421
 16777215
176
     1
 74
     0
176
     1
 91
        4
176
     1
 64
     7
176
     1
 65
   257
176
     1
 75
     1
176
     1
175
     1
176
     1
 42
1.0
176
     1
 92
        8
176
     1
 66
     7
176
     1
 43
1.0
176
     1
 76
     1
176
     1
 77
     6
176
     1
 78
     2
176
     1
 67
     7
176
     1
 79
     5
176
     1
170
     0
176
     1
171
     0
176
     1
290
     0
176
     1
 93
        1
176
     1
 44
0.0
176
     1
173
     0
176
     1
  0
VISUALSTYLE
  5
36
102
{ACAD_REACTORS
330
2A
102
}
330
2A
100
AcDbVisualStyle
  2
Brighten
 70
    12
177
     2
291
     1
 71
     2
176
     1
 72
     2
176
     1
 73
     0
176
     1
 90
        0
176
     1
 40
-0.6
176
     1
 41
-30.0
176
     1
 62
     5
 63
     7
421
 16777215
176
     1
 74
     1
176
     1
 91
        4
176
     1
 64
     7
176
     1
 65
   257
176
     1
 75
     1
176
     1
175
     1
176
     1
 42
1.0
176
     1
 92
        8
176
     1
 66
     7
176
     1
 43
1.0
176
     1
 76
     1
176
     1
 77
     6
176
     1
 78
     2
176
     1
 67
     7
176
     1
 79
     5
176
     1
170
     0
176
     1
171
     0
176
     1
290
     0
176
     1
 93
        1
176
     1
 44
50.0
176
     1
173
     0
176
     1
  0
VISUALSTYLE
  5
3A
102
{ACAD_REACTORS
330
2A
102
}
330
2A
100
AcDbVisualStyle
  2
ColorChange
 70
    16
177
     2
291
     1
 71
     2
176
     1
 72
     2
176
     1
 73
     3
176
     1
 90
        0
176
     1
 40
-0.6
176
     1
 41
-30.0
176
     1
 62
     5
 63
     8
421
  8421504
176
     1
 74
     1
176
     1
 91
        4
176
     1
 64
     7
176
     1
 65
   257
176
     1
 75
     1
176
     1
175
     1
176
     1
 42
1.0
176
     1
 92
        8
176
     1
 66
     8
424
  8421504
176
     1
 43
1.0
176
     1
 76
     1
176
     1
 77
     6
176
     1
 78
     2
176
     1
 67
     7
176
     1
 79
     5
176
     1
170
     0
176
     1
171
     0
176
     1
290
     0
176
     1
 93
        1
176
     1
 44
0.0
176
     1
173
     0
176
     1
  0
VISUALSTYLE
  5
34
102
{ACAD_REACTORS
330
2A
102
}
330
2A
100
AcDbVisualStyle
  2
Conceptual
 70
     9
177
     2
291
     0
 71
     3
176
     1
 72
     2
176
     1
 73
     0
176
     1
 90
        0
176
     1
 40
-0.6
176
     1
 41
-30.0
176
     1
 62
     5
 63
     7
421
 16777215
176
     1
 74
     2
176
     1
 91
        2
176
     1
 64
     7
176
     1
 65
   257
176
     1
 75
     1
176
     1
175
     1
176
     1
 42
40.0
176
     1
 92
        8
176
     1
 66
     7
176
     1
 43
1.0
176
     1
 76
     1
176
     1
 77
     6
176
     1
 78
     2
176
     1
 67
     7
176
     1
 79
     3
176
     1
170
     0
176
     1
171
     0
176
     1
290
     0
176
     1
 93
        1
176
     1
 44
0.0
176
     1
173
     0
176
     1
  0
VISUALSTYLE
  5
35
102
{ACAD_REACTORS
330
2A
102
}
330
2A
100
AcDbVisualStyle
  2
Dim
 70
    11
177
     2
291
     1
 71
     2
176
     1
 72
     2
176
     1
 73
     0
176
     1
 90
        0
176
     1
 40
-0.6
176
     1
 41
-30.0
176
     1
 62
     5
 63
     7
421
 16777215
176
     1
 74
     1
176
     1
 91
        4
176
     1
 64
     7
176
     1
 65
   257
176
     1
 75
     1
176
     1
175
     1
176
     1
 42
1.0
176
     1
 92
        8
176
     1
 66
     7
176
     1
 43
1.0
176
     1
 76
     1
176
     1
 77
     6
176
     1
 78
     2
176
     1
 67
     7
176
     1
 79
     5
176
     1
170
     0
176
     1
171
     0
176
     1
290
     0
176
     1
 93
        1
176
     1
 44
-50.0
176
     1
173
     0
176
     1
  0
VISUALSTYLE
  5
39
102
{ACAD_REACTORS
330
2A
102
}
330
2A
100
AcDbVisualStyle
  2
Facepattern
 70
    15
177
     2
291
     1
 71
     2
176
     1
 72
     2
176
     1
 73
     0
176
     1
 90
        0
176
     1
 40
-0.6
176
     1
 41
-30.0
176
     1
 62
     5
 63
     7
421
 16777215
176
     1
 74
     1
176
     1
 91
        4
176
     1
 64
     7
176
     1
 65
   257
176
     1
 75
     1
176
     1
175
     1
176
     1
 42
1.0
176
     1
 92
        8
176
     1
 66
     7
176
     1
 43
1.0
176
     1
 76
     1
176
     1
 77
     6
176
     1
 78
     2
176
     1
 67
     7
176
     1
 79
     5
176
     1
170
     0
176
     1
171
     0
176
     1
290
     0
176
     1
 93
        1
176
     1
 44
0.0
176
     1
173
     0
176
     1
  0
VISUALSTYLE
  5
2B
102
{ACAD_REACTORS
330
2A
102
}
330
2A
100
AcDbVisualStyle
  2
Flat
 70
     0
177
     2
291
     1
 71
     2
176
     1
 72
     1
176
     1
 73
     1
176
     1
 90
        2
176
     1
 40
-0.6
176
     1
 41
30.0
176
     1
 62
     5
 63
     7
421
 16777215
176
     1
 74
     0
176
     1
 91
        4
176
     1
 64
     7
176
     1
 65
   257
176
     1
 75
     1
176
     1
175
     1
176
     1
 42
1.0
176
     1
 92
        8
176
     1
 66
     7
176
     1
 43
1.0
176
     1
 76
     1
176
     1
 77
     6
176
     1
 78
     2
176
     1
 67
     7
176
     1
 79
     5
176
     1
170
     0
176
     1
171
     0
176
     1
290
     0
176
     1
 93
       13
176
     1
 44
0.0
176
     1
173
     0
176
     1
  0
VISUALSTYLE
  5
2C
102
{ACAD_REACTORS
330
2A
102
}
330
2A
100
AcDbVisualStyle
  2
FlatWithEdges
 70
     1
177
     2
291
     1
 71
     2
176
     1
 72
     1
176
     1
 73
     1
176
     1
 90
        2
176
     1
 40
-0.6
176
     1
 41
30.0
176
     1
 62
     5
 63
     7
421
 16777215
176
     1
 74
     1
176
     1
 91
        4
176
     1
 64
     7
176
     1
 65
   257
176
     1
 75
     1
176
     1
175
     1
176
     1
 42
1.0
176
     1
 92
        0
176
     1
 66
   257
176
     1
 43
1.0
176
     1
 76
     1
176
     1
 77
     6
176
     1
 78
     2
176
     1
 67
     7
176
     1
 79
     5
176
     1
170
     0
176
     1
171
     0
176
     1
290
     0
176
     1
 93
       13
176
     1
 44
0.0
176
     1
173
     0
176
     1
  0
VISUALSTYLE
  5
2D
102
{ACAD_REACTORS
330
2A
102
}
330
2A
100
AcDbVisualStyle
  2
Gouraud
 70
     2
177
     2
291
     1
 71
     2
176
     1
 72
     2
176
     1
 73
     1
176
     1
 90
        2
176
     1
 40
-0.6
176
     1
 41
30.0
176
     1
 62
     5
 63
     7
421
 16777215
176
     1
 74
     0
176
     1
 91
        4
176
     1
 64
     7
176
     1
 65
   257
176
     1
 75
     1
176
     1
175
     1
176
     1
 42
1.0
176
     1
 92
        0
176
     1
 66
     7
176
     1
 43
1.0
176
     1
 76
     1
176
     1
 77
     6
176
     1
 78
     2
176
     1
 67
     7
176
     1
 79
     5
176
     1
170
     0
176
     1
171
     0
176
     1
290
     0
176
     1
 93
       13
176
     1
 44
0.0
176
     1
173
     0
176
     1
  0
VISUALSTYLE
  5
2E
102
{ACAD_REACTORS
330
2A
102
}
330
2A
100
AcDbVisualStyle
  2
GouraudWithEdges
 70
     3
177
     2
291
     1
 71
     2
176
     1
 72
     2
176
     1
 73
     1
176
     1
 90
        2
176
     1
 40
-0.6
176
     1
 41
30.0
176
     1
 62
     5
 63
     7
421
 16777215
176
     1
 74
     1
176
     1
 91
        4
176
     1
 64
     7
176
     1
 65
   257
176
     1
 75
     1
176
     1
175
     1
176
     1
 42
1.0
176
     1
 92
        0
176
     1
 66
   257
176
     1
 43
1.0
176
     1
 76
     1
176
     1
 77
     6
176
     1
 78
     2
176
     1
 67
     7
176
     1
 79
     5
176
     1
170
     0
176
     1
171
     0
176
     1
290
     0
176
     1
 93
       13
176
     1
 44
0.0
176
     1
173
     0
176
     1
  0
VISUALSTYLE
  5
38
102
{ACAD_REACTORS
330
2A
102
}
330
2A
100
AcDbVisualStyle
  2
Linepattern
 70
    14
177
     2
291
     1
 71
     2
176
     1
 72
     2
176
     1
 73
     0
176
     1
 90
        0
176
     1
 40
-0.6
176
     1
 41
-30.0
176
     1
 62
     5
 63
     7
421
 16777215
176
     1
 74
     1
176
     1
 91
        4
176
     1
 64
     7
176
     1
 65
   257
176
     1
 75
     7
176
     1
175
     7
176
     1
 42
1.0
176
     1
 92
        8
176
     1
 66
     7
176
     1
 43
1.0
176
     1
 76
     1
176
     1
 77
     6
176
     1
 78
     2
176
     1
 67
     7
176
     1
 79
     5
176
     1
170
     0
176
     1
171
     0
176
     1
290
     0
176
     1
 93
        1
176
     1
 44
0.0
176
     1
173
     0
176
     1
  0
VISUALSTYLE
  5
33
102
{ACAD_REACTORS
330
2A
102
}
330
2A
100
AcDbVisualStyle
  2
Realistic
 70
     8
177
     2
291
     0
 71
     2
176
     1
 72
     2
176
     1
 73
     0
176
     1
 90
        0
176
     1
 40
-0.6
176
     1
 41
-30.0
176
     1
 62
     5
 63
     7
421
 16777215
176
     1
 74
     1
176
     1
 91
        0
176
     1
 64
     7
176
     1
 65
   257
176
     1
 75
     1
176
     1
175
     1
176
     1
 42
1.0
176
     1
 92
        8
176
     1
 66
     8
424
  7895160
176
     1
 43
1.0
176
     1
 76
     1
176
     1
 77
     6
176
     1
 78
     2
176
     1
 67
     7
176
     1
 79
     5
176
     1
170
     0
176
     1
171
     0
176
     1
290
     0
176
     1
 93
       13
176
     1
 44
0.0
176
     1
173
     0
176
     1
  0
VISUALSTYLE
  5
37
102
{ACAD_REACTORS
330
2A
102
}
330
2A
100
AcDbVisualStyle
  2
Thicken
 70
    13
177
     2
291
     1
 71
     2
176
     1
 72
     2
176
     1
 73
     0
176
     1
 90
        0
176
     1
 40
-0.6
176
     1
 41
-30.0
176
     1
 62
     5
 63
     7
421
 16777215
176
     1
 74
     1
176
     1
 91
        4
176
     1
 64
     7
176
     1
 65
   257
176
     1
 75
     1
176
     1
175
     1
176
     1
 42
1.0
176
     1
 92
       12
176
     1
 66
     7
176
     1
 43
1.0
176
     1
 76
     1
176
     1
 77
     6
176
     1
 78
     2
176
     1
 67
     7
176
     1
 79
     5
176
     1
170
     0
176
     1
171
     0
176
     1
290
     0
176
     1
 93
        1
176
     1
 44
0.0
176
     1
173
     0
176
     1
  0
ENDSEC
  0
EOF
