  0
SECTION
  2
HEADER
  9
$ACADVER
  1
AC1024
  9
$ACADMAINTVER
 70
     6
  9
$DWGCODEPAGE
  3
UNDEFINED
  9
$INSBASE
 10
0.0
 20
0.0
 30
0.0
  9
$EXTMIN
 10
1.000000000000000E+20
 20
1.000000000000000E+20
 30
1.000000000000000E+20
  9
$EXTMAX
 10
-1.000000000000000E+20
 20
-1.000000000000000E+20
 30
-1.000000000000000E+20
  9
$LIMMIN
 10
0.0
 20
0.0
  9
$LIMMAX
 10
12.0
 20
9.0
  9
$ORTHOMODE
 70
     0
  9
$REGENMODE
 70
     1
  9
$FILLMODE
 70
     1
  9
$QTEXTMODE
 70
     0
  9
$MIRRTEXT
 70
     1
  9
$LTSCALE
 40
1.0
  9
$ATTMODE
 70
     1
  9
$TEXTSIZE
 40
0.2
  9
$TRACEWID
 40
0.05
  9
$TEXTSTYLE
  7
Standard
  9
$CLAYER
  8
0
  9
$CELTYPE
  6
ByLayer
  9
$CECOLOR
 62
   256
  9
$CELTSCALE
 40
1.0
  9
$DISPSILH
 70
     0
  9
$DIMSCALE
 40
1.0
  9
$DIMASZ
 40
0.18
  9
$DIMEXO
 40
0.0625
  9
$DIMDLI
 40
0.38
  9
$DIMRND
 40
0.0
  9
$DIMDLE
 40
0.0
  9
$DIMEXE
 40
0.18
  9
$DIMTP
 40
0.0
  9
$DIMTM
 40
0.0
  9
$DIMTXT
 40
0.18
  9
$DIMCEN
 40
0.09
  9
$DIMTSZ
 40
0.0
  9
$DIMTOL
 70
     0
  9
$DIMLIM
 70
     0
  9
$DIMTIH
 70
     1
  9
$DIMTOH
 70
     1
  9
$DIMSE1
 70
     0
  9
$DIMSE2
 70
     0
  9
$DIMTAD
 70
     0
  9
$DIMZIN
 70
     0
  9
$DIMBLK
  1

  9
$DIMASO
 70
     1
  9
$DIMSHO
 70
     1
  9
$DIMPOST
  1

  9
$DIMAPOST
  1

  9
$DIMALT
 70
     0
  9
$DIMALTD
 70
     2
  9
$DIMALTF
 40
25.4
  9
$DIMLFAC
 40
1.0
  9
$DIMTOFL
 70
     0
  9
$DIMTVP
 40
0.0
  9
$DIMTIX
 70
     0
  9
$DIMSOXD
 70
     0
  9
$DIMSAH
 70
     0
  9
$DIMBLK1
  1

  9
$DIMBLK2
  1

  9
$DIMSTYLE
  2
Standard
  9
$DIMCLRD
 70
     0
  9
$DIMCLRE
 70
     0
  9
$DIMCLRT
 70
     0
  9
$DIMTFAC
 40
1.0
  9
$DIMGAP
 40
0.09
  9
$DIMJUST
 70
     0
  9
$DIMSD1
 70
     0
  9
$DIMSD2
 70
     0
  9
$DIMTOLJ
 70
     1
  9
$DIMTZIN
 70
     0
  9
$DIMALTZ
 70
     0
  9
$DIMALTTZ
 70
     0
  9
$DIMUPT
 70
     0
  9
$DIMDEC
 70
     4
  9
$DIMTDEC
 70
     4
  9
$DIMALTU
 70
     2
  9
$DIMALTTD
 70
     2
  9
$DIMTXSTY
  7
Standard
  9
$DIMAUNIT
 70
     0
  9
$DIMADEC
 70
     0
  9
$DIMALTRND
 40
0.0
  9
$DIMAZIN
 70
     0
  9
$DIMDSEP
 70
    46
  9
$DIMATFIT
 70
     3
  9
$DIMFRAC
 70
     0
  9
$DIMLDRBLK
  1

  9
$DIMLUNIT
 70
     2
  9
$DIMLWD
 70
    -2
  9
$DIMLWE
 70
    -2
  9
$DIMTMOVE
 70
     0
  9
$DIMFXL
 40
1.0
  9
$DIMFXLON
 70
     0
  9
$DIMJOGANG
 40
0.7853981633974483
  9
$DIMTFILL
 70
     0
  9
$DIMTFILLCLR
 70
     0
  9
$DIMARCSYM
 70
     0
  9
$DIMLTYPE
  6

  9
$DIMLTEX1
  6

  9
$DIMLTEX2
  6

  9
$DIMTXTDIRECTION
 70
     0
  9
$LUNITS
 70
     2
  9
$LUPREC
 70
     4
  9
$SKETCHINC
 40
0.1
  9
$FILLETRAD
 40
0.5
  9
$AUNITS
 70
     0
  9
$AUPREC
 70
     0
  9
$MENU
  1
.
  9
$ELEVATION
 40
0.0
  9
$PELEVATION
 40
0.0
  9
$THICKNESS
 40
0.0
  9
$LIMCHECK
 70
     0
  9
$CHAMFERA
 40
0.5
  9
$CHAMFERB
 40
0.5
  9
$CHAMFERC
 40
1.0
  9
$CHAMFERD
 40
0.0
  9
$SKPOLY
 70
     0
  9
$TDCREATE
 40
2457917.631620359
  9
$TDUCREATE
 40
2457917.25662037
  9
$TDUPDATE
 40
2457917.631620359
  9
$TDUUPDATE
 40
2457917.25662037
  9
$TDINDWG
 40
0.0000000116
  9
$TDUSRTIMER
 40
0.0000000116
  9
$USRTIMER
 70
     1
  9
$ANGBASE
 50
0.0
  9
$ANGDIR
 70
     0
  9
$PDMODE
 70
     0
  9
$PDSIZE
 40
0.0
  9
$PLINEWID
 40
0.0
  9
$SPLFRAME
 70
     0
  9
$SPLINETYPE
 70
     6
  9
$SPLINESEGS
 70
     8
  9
$HANDSEED
  5
12C
  9
$SURFTAB1
 70
     6
  9
$SURFTAB2
 70
     6
  9
$SURFTYPE
 70
     6
  9
$SURFU
 70
     6
  9
$SURFV
 70
     6
  9
$UCSBASE
  2

  9
$UCSNAME
  2

  9
$UCSORG
 10
0.0
 20
0.0
 30
0.0
  9
$UCSXDIR
 10
1.0
 20
0.0
 30
0.0
  9
$UCSYDIR
 10
0.0
 20
1.0
 30
0.0
  9
$UCSORTHOREF
  2

  9
$UCSORTHOVIEW
 70
     0
  9
$UCSORGTOP
 10
0.0
 20
0.0
 30
0.0
  9
$UCSORGBOTTOM
 10
0.0
 20
0.0
 30
0.0
  9
$UCSORGLEFT
 10
0.0
 20
0.0
 30
0.0
  9
$UCSORGRIGHT
 10
0.0
 20
0.0
 30
0.0
  9
$UCSORGFRONT
 10
0.0
 20
0.0
 30
0.0
  9
$UCSORGBACK
 10
0.0
 20
0.0
 30
0.0
  9
$PUCSBASE
  2

  9
$PUCSNAME
  2

  9
$PUCSORG
 10
0.0
 20
0.0
 30
0.0
  9
$PUCSXDIR
 10
1.0
 20
0.0
 30
0.0
  9
$PUCSYDIR
 10
0.0
 20
1.0
 30
0.0
  9
$PUCSORTHOREF
  2

  9
$PUCSORTHOVIEW
 70
     0
  9
$PUCSORGTOP
 10
0.0
 20
0.0
 30
0.0
  9
$PUCSORGBOTTOM
 10
0.0
 20
0.0
 30
0.0
  9
$PUCSORGLEFT
 10
0.0
 20
0.0
 30
0.0
  9
$PUCSORGRIGHT
 10
0.0
 20
0.0
 30
0.0
  9
$PUCSORGFRONT
 10
0.0
 20
0.0
 30
0.0
  9
$PUCSORGBACK
 10
0.0
 20
0.0
 30
0.0
  9
$USERI1
 70
     0
  9
$USERI2
 70
     0
  9
$USERI3
 70
     0
  9
$USERI4
 70
     0
  9
$USERI5
 70
     0
  9
$USERR1
 40
0.0
  9
$USERR2
 40
0.0
  9
$USERR3
 40
0.0
  9
$USERR4
 40
0.0
  9
$USERR5
 40
0.0
  9
$WORLDVIEW
 70
     1
  9
$SHADEDGE
 70
     3
  9
$SHADEDIF
 70
    70
  9
$TILEMODE
 70
     1
  9
$MAXACTVP
 70
    64
  9
$PINSBASE
 10
0.0
 20
0.0
 30
0.0
  9
$PLIMCHECK
 70
     0
  9
$PEXTMIN
 10
1.000000000000000E+20
 20
1.000000000000000E+20
 30
1.000000000000000E+20
  9
$PEXTMAX
 10
-1.000000000000000E+20
 20
-1.000000000000000E+20
 30
-1.000000000000000E+20
  9
$PLIMMIN
 10
0.0
 20
0.0
  9
$PLIMMAX
 10
12.0
 20
9.0
  9
$UNITMODE
 70
     0
  9
$VISRETAIN
 70
     1
  9
$PLINEGEN
 70
     0
  9
$PSLTSCALE
 70
     1
  9
$TREEDEPTH
 70
  3020
  9
$CMLSTYLE
  2
Standard
  9
$CMLJUST
 70
     0
  9
$CMLSCALE
 40
1.0
  9
$PROXYGRAPHICS
 70
     1
  9
$MEASUREMENT
 70
     0
  9
$CELWEIGHT
370
    -1
  9
$ENDCAPS
280
     0
  9
$JOINSTYLE
280
     0
  9
$LWDISPLAY
290
     1
  9
$INSUNITS
 70
     1
  9
$HYPERLINKBASE
  1

  9
$STYLESHEET
  1

  9
$XEDIT
290
     1
  9
$CEPSNTYPE
380
     0
  9
$PSTYLEMODE
290
     1
  9
$FINGERPRINTGUID
  2
{5EC80BB4-899E-E027-7E0D-061DEA37724B}
  9
$VERSIONGUID
  2
{FAEB1C32-E019-11D5-929B-00C0DF256EC4}
  9
$EXTNAMES
290
     1
  9
$PSVPSCALE
 40
0.0
  9
$OLESTARTUP
290
     0
  9
$SORTENTS
280
   127
  9
$INDEXCTL
280
     0
  9
$HIDETEXT
280
     1
  9
$XCLIPFRAME
280
     2
  9
$HALOGAP
280
     0
  9
$OBSCOLOR
 70
   257
  9
$OBSLTYPE
280
     0
  9
$INTERSECTIONDISPLAY
280
     0
  9
$INTERSECTIONCOLOR
 70
   257
  9
$DIMASSOC
280
     2
  9
$PROJECTNAME
  1

  9
$CAMERADISPLAY
290
     0
  9
$LENSLENGTH
 40
50.0
  9
$CAMERAHEIGHT
 40
0.0
  9
$STEPSPERSEC
 40
2.0
  9
$STEPSIZE
 40
6.0
  9
$3DDWFPREC
 40
2.0
  9
$PSOLWIDTH
 40
0.25
  9
$PSOLHEIGHT
 40
4.0
  9
$LOFTANG1
 40
1.570796326794897
  9
$LOFTANG2
 40
1.570796326794897
  9
$LOFTMAG1
 40
0.0
  9
$LOFTMAG2
 40
0.0
  9
$LOFTPARAM
 70
     7
  9
$LOFTNORMALS
280
     1
  9
$LATITUDE
 40
37.795
  9
$LONGITUDE
 40
-122.394
  9
$NORTHDIRECTION
 40
0.0
  9
$TIMEZONE
 70
 -8000
  9
$LIGHTGLYPHDISPLAY
280
     1
  9
$TILEMODELIGHTSYNCH
280
     1
  9
$CMATERIAL
347
3C
  9
$SOLIDHIST
280
     1
  9
$SHOWHIST
280
     1
  9
$DWFFRAME
280
     2
  9
$DGNFRAME
280
     2
  9
$REALWORLDSCALE
290
     1
  9
$INTERFERECOLOR
 62
   256
  9
$CSHADOW
280
     0
  9
$SHADOWPLANELOCATION
 40
0.0
  0
ENDSEC
  0
SECTION
  2
CLASSES
  0
CLASS
  1
ACDBDICTIONARYWDFLT
  2
AcDbDictionaryWithDefault
  3
ObjectDBX Classes
 90
        0
 91
        4
280
     0
281
     0
  0
CLASS
  1
VISUALSTYLE
  2
AcDbVisualStyle
  3
ObjectDBX Classes
 90
     4095
 91
        4
280
     0
281
     0
  0
CLASS
  1
MATERIAL
  2
AcDbMaterial
  3
ObjectDBX Classes
 90
     1153
 91
        4
280
     0
281
     0
  0
CLASS
  1
SUN
  2
AcDbSun
  3
SCENEOE
 90
     1024
 91
        4
280
     0
281
     0
  0
ENDSEC
  0
SECTION
  2
TABLES
  0
TABLE
  2
VPORT
  5
8
330
0
100
AcDbSymbolTable
 70
     1
  0
VPORT
  5
29
330
8
100
AcDbSymbolTableRecord
100
AcDbViewportTableRecord
  2
*Active
 70
     0
 10
0.0
 20
0.0
 11
1.0
 21
1.0
 12
0.0
 22
0.0
 13
0.0
 23
0.0
 14
0.5
 24
0.5
 15
0.5
 25
0.5
 16
0.0
 26
0.0
 36
1.0
 17
91.00082462281999
 27
-128.4993055234307
 37
0.0
 40
256.9986110468615
 41
0.7081814508812795
 42
50.0
 43
0.0
 44
0.0
 50
0.0
 51
0.0
 71
     0
 72
   100
 73
     1
 74
     3
 75
     0
 76
     0
 77
     0
 78
     0
281
     0
 65
     1
110
0.0
120
0.0
130
0.0
111
1.0
121
0.0
131
0.0
112
0.0
122
1.0
132
0.0
 79
     0
146
0.0
 60
     3
 61
     5
292
     1
282
     1
141
0.0
142
0.0
 63
   250
361
3F
  0
ENDTAB
  0
TABLE
  2
LTYPE
  5
5
330
0
100
AcDbSymbolTable
 70
     1
  0
LTYPE
  5
14
330
5
100
AcDbSymbolTableRecord
100
AcDbLinetypeTableRecord
  2
ByBlock
 70
     0
  3

 72
    65
 73
     0
 40
0.0
  0
LTYPE
  5
15
330
5
100
AcDbSymbolTableRecord
100
AcDbLinetypeTableRecord
  2
ByLayer
 70
     0
  3

 72
    65
 73
     0
 40
0.0
  0
LTYPE
  5
16
330
5
100
AcDbSymbolTableRecord
100
AcDbLinetypeTableRecord
  2
Continuous
 70
     0
  3
Solid line
 72
    65
 73
     0
 40
0.0
  0
ENDTAB
  0
TABLE
  2
LAYER
  5
2
330
0
100
AcDbSymbolTable
 70
     2
  0
LAYER
  5
10
330
2
100
AcDbSymbolTableRecord
100
AcDbLayerTableRecord
  2
0
 70
     0
 62
     7
  6
Continuous
370
    -3
390
F
347
3E
  0
LAYER
  5
40
330
2
100
AcDbSymbolTableRecord
100
AcDbLayerTableRecord
  2
_U+30EC_U+30A4_U+30E4_U+30FC 1
 70
     0
 62
     7
  6
Continuous
370
    -3
390
F
347
3E
  0
ENDTAB
  0
TABLE
  2
STYLE
  5
3
330
0
100
AcDbSymbolTable
 70
     1
  0
STYLE
  5
11
330
3
100
AcDbSymbolTableRecord
100
AcDbTextStyleTableRecord
  2
Standard
 70
     0
 40
0.0
 41
1.0
 50
0.0
 71
     0
 42
0.2
  3
txt
  4

  0
ENDTAB
  0
TABLE
  2
VIEW
  5
6
330
0
100
AcDbSymbolTable
 70
     0
  0
ENDTAB
  0
TABLE
  2
UCS
  5
7
330
0
100
AcDbSymbolTable
 70
     0
  0
ENDTAB
  0
TABLE
  2
APPID
  5
9
330
0
100
AcDbSymbolTable
 70
     1
  0
APPID
  5
12
330
9
100
AcDbSymbolTableRecord
100
AcDbRegAppTableRecord
  2
ACAD
 70
     0
  0
ENDTAB
  0
TABLE
  2
DIMSTYLE
  5
A
330
0
100
AcDbSymbolTable
 70
     1
100
AcDbDimStyleTable
  0
DIMSTYLE
105
27
330
A
100
AcDbSymbolTableRecord
100
AcDbDimStyleTableRecord
  2
Standard
 70
     0
178
     0
340
11
  0
ENDTAB
  0
TABLE
  2
BLOCK_RECORD
  5
1
330
0
100
AcDbSymbolTable
 70
    11
  0
BLOCK_RECORD
  5
1F
330
1
100
AcDbSymbolTableRecord
100
AcDbBlockTableRecord
  2
*Model_Space
340
22
 70
     0
280
     1
281
     0
  0
BLOCK_RECORD
  5
1B
330
1
100
AcDbSymbolTableRecord
100
AcDbBlockTableRecord
  2
*Paper_Space
340
1E
 70
     0
280
     1
281
     0
  0
BLOCK_RECORD
  5
23
330
1
100
AcDbSymbolTableRecord
100
AcDbBlockTableRecord
  2
*Paper_Space0
340
26
 70
     0
280
     1
281
     0
  0
BLOCK_RECORD
  5
41
330
1
100
AcDbSymbolTableRecord
100
AcDbBlockTableRecord
  2
block 2
340
0
102
{BLKREFS
331
42
102
}
 70
     0
280
     1
281
     0
  0
BLOCK_RECORD
  5
57
330
1
100
AcDbSymbolTableRecord
100
AcDbBlockTableRecord
  2
block 3
340
0
102
{BLKREFS
331
58
102
}
 70
     0
280
     1
281
     0
  0
BLOCK_RECORD
  5
A1
330
1
100
AcDbSymbolTableRecord
100
AcDbBlockTableRecord
  2
block 4
340
0
102
{BLKREFS
331
A2
102
}
 70
     0
280
     1
281
     0
  0
BLOCK_RECORD
  5
B1
330
1
100
AcDbSymbolTableRecord
100
AcDbBlockTableRecord
  2
block 5
340
0
102
{BLKREFS
331
B2
102
}
 70
     0
280
     1
281
     0
  0
BLOCK_RECORD
  5
C3
330
1
100
AcDbSymbolTableRecord
100
AcDbBlockTableRecord
  2
block 6
340
0
102
{BLKREFS
331
C4
102
}
 70
     0
280
     1
281
     0
  0
BLOCK_RECORD
  5
DC
330
1
100
AcDbSymbolTableRecord
100
AcDbBlockTableRecord
  2
block 7
340
0
102
{BLKREFS
331
DD
102
}
 70
     0
280
     1
281
     0
  0
BLOCK_RECORD
  5
102
330
1
100
AcDbSymbolTableRecord
100
AcDbBlockTableRecord
  2
block 8
340
0
102
{BLKREFS
331
103
102
}
 70
     0
280
     1
281
     0
  0
BLOCK_RECORD
  5
10B
330
1
100
AcDbSymbolTableRecord
100
AcDbBlockTableRecord
  2
block 9
340
0
102
{BLKREFS
331
10C
102
}
 70
     0
280
     1
281
     0
  0
BLOCK_RECORD
  5
111
330
1
100
AcDbSymbolTableRecord
100
AcDbBlockTableRecord
  2
block 10
340
0
102
{BLKREFS
331
112
102
}
 70
     0
280
     1
281
     0
  0
BLOCK_RECORD
  5
119
330
1
100
AcDbSymbolTableRecord
100
AcDbBlockTableRecord
  2
block 11
340
0
102
{BLKREFS
331
11A
102
}
 70
     0
280
     1
281
     0
  0
ENDTAB
  0
ENDSEC
  0
SECTION
  2
BLOCKS
  0
BLOCK
  5
20
330
1F
100
AcDbEntity
  8
0
100
AcDbBlockBegin
  2
*Model_Space
 70
     0
 10
0.0
 20
0.0
 30
0.0
  3
*Model_Space
  1

  0
ENDBLK
  5
21
330
1F
100
AcDbEntity
  8
0
100
AcDbBlockEnd
  0
BLOCK
  5
1C
330
1B
100
AcDbEntity
 67
     1
  8
0
100
AcDbBlockBegin
  2
*Paper_Space
 70
     0
 10
0.0
 20
0.0
 30
0.0
  3
*Paper_Space
  1

  0
ENDBLK
  5
1D
330
1B
100
AcDbEntity
 67
     1
  8
0
100
AcDbBlockEnd
  0
BLOCK
  5
24
330
23
100
AcDbEntity
  8
0
100
AcDbBlockBegin
  2
*Paper_Space0
 70
     0
 10
0.0
 20
0.0
 30
0.0
  3
*Paper_Space0
  1

  0
ENDBLK
  5
25
330
23
100
AcDbEntity
  8
0
100
AcDbBlockEnd
  0
BLOCK
  5
43
330
41
100
AcDbEntity
  8
0
100
AcDbBlockBegin
  2
block 2
 70
     0
 10
0.0
 20
0.0
 30
0.0
  3
block 2
  1

  0
POLYLINE
  5
45
330
41
100
AcDbEntity
  8
_U+30EC_U+30A4_U+30E4_U+30FC 1
370
     0
100
AcDb2dPolyline
 66
     1
 10
0.0
 20
0.0
 30
0.0
  0
VERTEX
  5
46
330
45
100
AcDbEntity
  8
_U+30EC_U+30A4_U+30E4_U+30FC 1
370
     0
100
AcDbVertex
100
AcDb2dVertex
 10
96.39239781860283
 20
-158.6948960714376
 30
0.0
  0
VERTEX
  5
47
330
45
100
AcDbEntity
  8
_U+30EC_U+30A4_U+30E4_U+30FC 1
370
     0
100
AcDbVertex
100
AcDb2dVertex
 10
96.39723330923417
 20
-138.7322599653167
 30
0.0
  0
VERTEX
  5
48
330
45
100
AcDbEntity
  8
_U+30EC_U+30A4_U+30E4_U+30FC 1
370
     0
100
AcDbVertex
100
AcDb2dVertex
 10
96.24666532232078
 20
-138.7298610764286
 30
0.0
  0
VERTEX
  5
49
330
45
100
AcDbEntity
  8
_U+30EC_U+30A4_U+30E4_U+30FC 1
370
     0
100
AcDbVertex
100
AcDb2dVertex
 10
79.81184268605249
 20
-135.7298741327343
 30
0.0
  0
VERTEX
  5
4A
330
45
100
AcDbEntity
  8
_U+30EC_U+30A4_U+30E4_U+30FC 1
370
     0
100
AcDbVertex
100
AcDb2dVertex
 10
79.81544101929401
 20
-135.726416910513
 30
0.0
  0
VERTEX
  5
4B
330
45
100
AcDbEntity
  8
_U+30EC_U+30A4_U+30E4_U+30FC 1
370
     0
100
AcDbVertex
100
AcDb2dVertex
 10
79.81544101929401
 20
-100.7295913637064
 30
0.0
  0
VERTEX
  5
4C
330
45
100
AcDbEntity
  8
_U+30EC_U+30A4_U+30E4_U+30FC 1
370
     0
100
AcDbVertex
100
AcDb2dVertex
 10
78.74366687997058
 20
-100.7295913637064
 30
0.0
  0
VERTEX
  5
4D
330
45
100
AcDbEntity
  8
_U+30EC_U+30A4_U+30E4_U+30FC 1
370
     0
100
AcDbVertex
100
AcDb2dVertex
 10
78.74366687997058
 20
-136.7255188547076
 30
0.0
  0
VERTEX
  5
4E
330
45
100
AcDbEntity
  8
_U+30EC_U+30A4_U+30E4_U+30FC 1
370
     0
100
AcDbVertex
100
AcDb2dVertex
 10
79.02377242838006
 20
-136.7255188547076
 30
0.0
  0
VERTEX
  5
4F
330
45
100
AcDbEntity
  8
_U+30EC_U+30A4_U+30E4_U+30FC 1
370
     0
100
AcDbVertex
100
AcDb2dVertex
 10
95.34440090089502
 20
-139.7268816317348
 30
0.0
  0
VERTEX
  5
50
330
45
100
AcDbEntity
  8
_U+30EC_U+30A4_U+30E4_U+30FC 1
370
     0
100
AcDbVertex
100
AcDb2dVertex
 10
95.34440090089502
 20
-157.6089755161535
 30
0.0
  0
VERTEX
  5
51
330
45
100
AcDbEntity
  8
_U+30EC_U+30A4_U+30E4_U+30FC 1
370
     0
100
AcDbVertex
100
AcDb2dVertex
 10
95.34164923429856
 20
-157.6089755161535
 30
0.0
  0
VERTEX
  5
52
330
45
100
AcDbEntity
  8
_U+30EC_U+30A4_U+30E4_U+30FC 1
370
     0
100
AcDbVertex
100
AcDb2dVertex
 10
92.41468736452713
 20
-157.6089755161535
 30
0.0
  0
VERTEX
  5
53
330
45
100
AcDbEntity
  8
_U+30EC_U+30A4_U+30E4_U+30FC 1
370
     0
100
AcDbVertex
100
AcDb2dVertex
 10
92.41468736452713
 20
-158.6948960714376
 30
0.0
  0
VERTEX
  5
54
330
45
100
AcDbEntity
  8
_U+30EC_U+30A4_U+30E4_U+30FC 1
370
     0
100
AcDbVertex
100
AcDb2dVertex
 10
96.39239781860283
 20
-158.6948960714376
 30
0.0
  0
SEQEND
  5
56
330
45
100
AcDbEntity
  8
_U+30EC_U+30A4_U+30E4_U+30FC 1
370
     0
  0
HATCH
  5
55
330
41
100
AcDbEntity
  8
_U+30EC_U+30A4_U+30E4_U+30FC 1
 62
     9
420
 13224394
100
AcDbHatch
 10
0.0
 20
0.0
 30
0.0
210
0.0
220
0.0
230
1.0
  2
SOLID
 70
     1
 71
     0
 91
        1
 92
        1
 93
       14
 72
     1
 10
96.39239781860283
 20
-158.6948960714376
 11
96.39723330923417
 21
-138.7322599653167
 72
     1
 10
96.39723330923417
 20
-138.7322599653167
 11
96.24666532232078
 21
-138.7298610764286
 72
     1
 10
96.24666532232078
 20
-138.7298610764286
 11
79.81184268605249
 21
-135.7298741327343
 72
     1
 10
79.81184268605249
 20
-135.7298741327343
 11
79.81544101929401
 21
-135.726416910513
 72
     1
 10
79.81544101929401
 20
-135.726416910513
 11
79.81544101929401
 21
-100.7295913637064
 72
     1
 10
79.81544101929401
 20
-100.7295913637064
 11
78.74366687997058
 21
-100.7295913637064
 72
     1
 10
78.74366687997058
 20
-100.7295913637064
 11
78.74366687997058
 21
-136.7255188547076
 72
     1
 10
78.74366687997058
 20
-136.7255188547076
 11
79.02377242838006
 21
-136.7255188547076
 72
     1
 10
79.02377242838006
 20
-136.7255188547076
 11
95.34440090089502
 21
-139.7268816317348
 72
     1
 10
95.34440090089502
 20
-139.7268816317348
 11
95.34440090089502
 21
-157.6089755161535
 72
     1
 10
95.34440090089502
 20
-157.6089755161535
 11
95.34164923429856
 21
-157.6089755161535
 72
     1
 10
95.34164923429856
 20
-157.6089755161535
 11
92.41468736452713
 21
-157.6089755161535
 72
     1
 10
92.41468736452713
 20
-157.6089755161535
 11
92.41468736452713
 21
-158.6948960714376
 72
     1
 10
92.41468736452713
 20
-158.6948960714376
 11
96.39239781860283
 21
-158.6948960714376
 97
        0
 75
     2
 76
     1
 98
        0
  0
INSERT
  5
58
330
41
100
AcDbEntity
  8
_U+30EC_U+30A4_U+30E4_U+30FC 1
100
AcDbBlockReference
  2
block 3
 10
0.0
 20
0.0
 30
0.0
  0
INSERT
  5
A2
330
41
100
AcDbEntity
  8
_U+30EC_U+30A4_U+30E4_U+30FC 1
100
AcDbBlockReference
  2
block 4
 10
0.0
 20
0.0
 30
0.0
  0
INSERT
  5
B2
330
41
100
AcDbEntity
  8
_U+30EC_U+30A4_U+30E4_U+30FC 1
100
AcDbBlockReference
  2
block 5
 10
0.0
 20
0.0
 30
0.0
  0
INSERT
  5
C4
330
41
100
AcDbEntity
  8
_U+30EC_U+30A4_U+30E4_U+30FC 1
100
AcDbBlockReference
  2
block 6
 10
0.0
 20
0.0
 30
0.0
  0
INSERT
  5
DD
330
41
100
AcDbEntity
  8
_U+30EC_U+30A4_U+30E4_U+30FC 1
100
AcDbBlockReference
  2
block 7
 10
0.0
 20
0.0
 30
0.0
  0
INSERT
  5
103
330
41
100
AcDbEntity
  8
_U+30EC_U+30A4_U+30E4_U+30FC 1
100
AcDbBlockReference
  2
block 8
 10
0.0
 20
0.0
 30
0.0
  0
INSERT
  5
10C
330
41
100
AcDbEntity
  8
_U+30EC_U+30A4_U+30E4_U+30FC 1
100
AcDbBlockReference
  2
block 9
 10
0.0
 20
0.0
 30
0.0
  0
INSERT
  5
112
330
41
100
AcDbEntity
  8
_U+30EC_U+30A4_U+30E4_U+30FC 1
100
AcDbBlockReference
  2
block 10
 10
0.0
 20
0.0
 30
0.0
  0
INSERT
  5
11A
330
41
100
AcDbEntity
  8
_U+30EC_U+30A4_U+30E4_U+30FC 1
100
AcDbBlockReference
  2
block 11
 10
0.0
 20
0.0
 30
0.0
  0
ENDBLK
  5
44
330
41
100
AcDbEntity
  8
0
100
AcDbBlockEnd
  0
BLOCK
  5
59
330
57
100
AcDbEntity
  8
0
100
AcDbBlockBegin
  2
block 3
 70
     0
 10
0.0
 20
0.0
 30
0.0
  3
block 3
  1

  0
SPLINE
  5
5B
330
57
100
AcDbEntity
  8
_U+30EC_U+30A4_U+30E4_U+30FC 1
 62
   179
420
  2234388
370
     9
100
AcDbSpline
210
0.0
220
0.0
230
1.0
 70
    11
 71
     3
 72
    17
 73
    13
 74
     0
 42
0.0000000001
 43
0.0000000001
 12
1.0
 22
0.0
 32
0.0
 13
1.0
 23
0.0
 33
0.0
 40
0.0
 40
0.0
 40
0.0
 40
0.0
 40
1.0
 40
1.0
 40
1.0
 40
2.0
 40
2.0
 40
2.0
 40
3.0
 40
3.0
 40
3.0
 40
4.0
 40
4.0
 40
4.0
 40
4.0
 10
79.91587685006502
 20
-96.72916192026216
 30
0.0
 10
79.91587685006502
 20
-96.67419914249797
 30
0.0
 10
79.87110935120712
 20
-96.6294316425094
 30
0.0
 10
79.81561942449048
 20
-96.6294316425094
 30
0.0
 10
79.76068990957972
 20
-96.6294316425094
 30
0.0
 10
79.71588713294496
 20
-96.67419914249797
 30
0.0
 10
79.71588713294496
 20
-96.72916192026216
 30
0.0
 10
79.71588713294496
 20
-96.78461858691485
 30
0.0
 10
79.76068990957972
 20
-96.82942136468156
 30
0.0
 10
79.81561942449048
 20
-96.82942136468156
 30
0.0
 10
79.87110935120712
 20
-96.82942136468156
 30
0.0
 10
79.91587685006502
 20
-96.78461858691485
 30
0.0
 10
79.91587685006502
 20
-96.72916192026216
 30
0.0
  0
SPLINE
  5
5C
330
57
100
AcDbEntity
  8
_U+30EC_U+30A4_U+30E4_U+30FC 1
 62
   179
420
  2234388
370
     9
100
AcDbSpline
210
0.0
220
0.0
230
1.0
 70
    11
 71
     3
 72
    17
 73
    13
 74
     0
 42
0.0000000001
 43
0.0000000001
 12
1.0
 22
0.0
 32
0.0
 13
1.0
 23
0.0
 33
0.0
 40
0.0
 40
0.0
 40
0.0
 40
0.0
 40
1.0
 40
1.0
 40
1.0
 40
2.0
 40
2.0
 40
2.0
 40
3.0
 40
3.0
 40
3.0
 40
4.0
 40
4.0
 40
4.0
 40
4.0
 10
78.80053465629754
 20
-96.72916192026216
 30
0.0
 10
78.80053465629754
 20
-96.67419914249797
 30
0.0
 10
78.75573187966278
 20
-96.6294316425094
 30
0.0
 10
78.7008043810641
 20
-96.6294316425094
 30
0.0
 10
78.64566521580414
 20
-96.6294316425094
 30
0.0
 10
78.60089771694626
 20
-96.67419914249797
 30
0.0
 10
78.60089771694626
 20
-96.72916192026216
 30
0.0
 10
78.60089771694626
 20
-96.78461858691485
 30
0.0
 10
78.64566521580414
 20
-96.82942136468156
 30
0.0
 10
78.7008043810641
 20
-96.82942136468156
 30
0.0
 10
78.75573187966278
 20
-96.82942136468156
 30
0.0
 10
78.80053465629754
 20
-96.78461858691485
 30
0.0
 10
78.80053465629754
 20
-96.72916192026216
 30
0.0
  0
SPLINE
  5
5D
330
57
100
AcDbEntity
  8
_U+30EC_U+30A4_U+30E4_U+30FC 1
 62
   179
420
  2234388
370
     9
100
AcDbSpline
210
0.0
220
0.0
230
1.0
 70
    11
 71
     3
 72
    17
 73
    13
 74
     0
 42
0.0000000001
 43
0.0000000001
 12
1.0
 22
0.0
 32
0.0
 13
1.0
 23
0.0
 33
0.0
 40
0.0
 40
0.0
 40
0.0
 40
0.0
 40
1.0
 40
1.0
 40
1.0
 40
2.0
 40
2.0
 40
2.0
 40
3.0
 40
3.0
 40
3.0
 40
4.0
 40
4.0
 40
4.0
 40
4.0
 10
100.892360481577
 20
-100.7295913637064
 30
0.0
 10
100.892360481577
 20
-100.6743110859426
 30
0.0
 10
100.8475929827191
 20
-100.629331919287
 30
0.0
 10
100.7924538174592
 20
-100.629331919287
 30
0.0
 10
100.7373499299761
 20
-100.629331919287
 30
0.0
 10
100.6925471533413
 20
-100.6743110859426
 30
0.0
 10
100.6925471533413
 20
-100.7295913637064
 30
0.0
 10
100.6925471533413
 20
-100.7845541414706
 30
0.0
 10
100.7373499299761
 20
-100.829498030348
 30
0.0
 10
100.7924538174592
 20
-100.829498030348
 30
0.0
 10
100.8475929827191
 20
-100.829498030348
 30
0.0
 10
100.892360481577
 20
-100.7845541414706
 30
0.0
 10
100.892360481577
 20
-100.7295913637064
 30
0.0
  0
SPLINE
  5
5E
330
57
100
AcDbEntity
  8
_U+30EC_U+30A4_U+30E4_U+30FC 1
 62
   179
420
  2234388
370
     9
100
AcDbSpline
210
0.0
220
0.0
230
1.0
 70
    11
 71
     3
 72
    17
 73
    13
 74
     0
 42
0.0000000001
 43
0.0000000001
 12
1.0
 22
0.0
 32
0.0
 13
1.0
 23
0.0
 33
0.0
 40
0.0
 40
0.0
 40
0.0
 40
0.0
 40
1.0
 40
1.0
 40
1.0
 40
2.0
 40
2.0
 40
2.0
 40
3.0
 40
3.0
 40
3.0
 40
4.0
 40
4.0
 40
4.0
 40
4.0
 10
100.892360481577
 20
-138.7050607986573
 30
0.0
 10
100.892360481577
 20
-138.650274409782
 30
0.0
 10
100.8475929827191
 20
-138.6055069097928
 30
0.0
 10
100.7924538174592
 20
-138.6055069097928
 30
0.0
 10
100.7373499299761
 20
-138.6055069097928
 30
0.0
 10
100.6925471533413
 20
-138.650274409782
 30
0.0
 10
100.6925471533413
 20
-138.7050607986573
 30
0.0
 10
100.6925471533413
 20
-138.7608702430877
 30
0.0
 10
100.7373499299761
 20
-138.8056377430763
 30
0.0
 10
100.7924538174592
 20
-138.8056377430763
 30
0.0
 10
100.8475929827191
 20
-138.8056377430763
 30
0.0
 10
100.892360481577
 20
-138.7608702430877
 30
0.0
 10
100.892360481577
 20
-138.7050607986573
 30
0.0
  0
SPLINE
  5
5F
330
57
100
AcDbEntity
  8
_U+30EC_U+30A4_U+30E4_U+30FC 1
 62
   179
420
  2234388
370
     9
100
AcDbSpline
210
0.0
220
0.0
230
1.0
 70
    11
 71
     3
 72
    17
 73
    13
 74
     0
 42
0.0000000001
 43
0.0000000001
 12
1.0
 22
0.0
 32
0.0
 13
1.0
 23
0.0
 33
0.0
 40
0.0
 40
0.0
 40
0.0
 40
0.0
 40
1.0
 40
1.0
 40
1.0
 40
2.0
 40
2.0
 40
2.0
 40
3.0
 40
3.0
 40
3.0
 40
4.0
 40
4.0
 40
4.0
 40
4.0
 10
96.49230448272067
 20
-96.72845636470664
 30
0.0
 10
96.49230448272067
 20
-96.67317608694285
 30
0.0
 10
96.4475017060859
 20
-96.62819692028724
 30
0.0
 10
96.39239781860283
 20
-96.62819692028724
 30
0.0
 10
96.33726108702692
 20
-96.62819692028724
 30
0.0
 10
96.29249115448499
 20
-96.67317608694285
 30
0.0
 10
96.29249115448499
 20
-96.72845636470664
 30
0.0
 10
96.29249115448499
 20
-96.78391303135963
 30
0.0
 10
96.33726108702692
 20
-96.8283630313486
 30
0.0
 10
96.39239781860283
 20
-96.8283630313486
 30
0.0
 10
96.4475017060859
 20
-96.8283630313486
 30
0.0
 10
96.49230448272067
 20
-96.78391303135963
 30
0.0
 10
96.49230448272067
 20
-96.72845636470664
 30
0.0
  0
SPLINE
  5
60
330
57
100
AcDbEntity
  8
_U+30EC_U+30A4_U+30E4_U+30FC 1
 62
   179
420
  2234388
370
     9
100
AcDbSpline
210
0.0
220
0.0
230
1.0
 70
    11
 71
     3
 72
    17
 73
    13
 74
     0
 42
0.0000000001
 43
0.0000000001
 12
1.0
 22
0.0
 32
0.0
 13
1.0
 23
0.0
 33
0.0
 40
0.0
 40
0.0
 40
0.0
 40
0.0
 40
1.0
 40
1.0
 40
1.0
 40
2.0
 40
2.0
 40
2.0
 40
3.0
 40
3.0
 40
3.0
 40
4.0
 40
4.0
 40
4.0
 40
4.0
 10
96.49230448272067
 20
-162.7290863482067
 30
0.0
 10
96.49230448272067
 20
-162.6739471815536
 30
0.0
 10
96.4475017060859
 20
-162.629179681565
 30
0.0
 10
96.39239781860283
 20
-162.629179681565
 30
0.0
 10
96.33726108702692
 20
-162.629179681565
 30
0.0
 10
96.29249115448499
 20
-162.6739471815536
 30
0.0
 10
96.29249115448499
 20
-162.7290863482067
 30
0.0
 10
96.29249115448499
 20
-162.7845430148594
 30
0.0
 10
96.33726108702692
 20
-162.8293457926261
 30
0.0
 10
96.39239781860283
 20
-162.8293457926261
 30
0.0
 10
96.4475017060859
 20
-162.8293457926261
 30
0.0
 10
96.49230448272067
 20
-162.7845430148594
 30
0.0
 10
96.49230448272067
 20
-162.7290863482067
 30
0.0
  0
SPLINE
  5
61
330
57
100
AcDbEntity
  8
_U+30EC_U+30A4_U+30E4_U+30FC 1
 62
   179
420
  2234388
370
     9
100
AcDbSpline
210
0.0
220
0.0
230
1.0
 70
    11
 71
     3
 72
    17
 73
    13
 74
     0
 42
0.0000000001
 43
0.0000000001
 12
1.0
 22
0.0
 32
0.0
 13
1.0
 23
0.0
 33
0.0
 40
0.0
 40
0.0
 40
0.0
 40
0.0
 40
1.0
 40
1.0
 40
1.0
 40
2.0
 40
2.0
 40
2.0
 40
3.0
 40
3.0
 40
3.0
 40
4.0
 40
4.0
 40
4.0
 40
4.0
 10
78.96330831359238
 20
-162.7290863482067
 30
0.0
 10
78.96330831359238
 20
-162.6739471815536
 30
0.0
 10
78.91885831360374
 20
-162.629179681565
 30
0.0
 10
78.86339965469372
 20
-162.629179681565
 30
0.0
 10
78.80843886918686
 20
-162.629179681565
 30
0.0
 10
78.76366937946028
 20
-162.6739471815536
 30
0.0
 10
78.76366937946028
 20
-162.7290863482067
 30
0.0
 10
78.76366937946028
 20
-162.7845430148594
 30
0.0
 10
78.80843886918686
 20
-162.8293457926261
 30
0.0
 10
78.86339965469372
 20
-162.8293457926261
 30
0.0
 10
78.91885831360374
 20
-162.8293457926261
 30
0.0
 10
78.96330831359238
 20
-162.7845430148594
 30
0.0
 10
78.96330831359238
 20
-162.7290863482067
 30
0.0
  0
SPLINE
  5
62
330
57
100
AcDbEntity
  8
_U+30EC_U+30A4_U+30E4_U+30FC 1
 62
   179
420
  2234388
370
     9
100
AcDbSpline
210
0.0
220
0.0
230
1.0
 70
    11
 71
     3
 72
    17
 73
    13
 74
     0
 42
0.0000000001
 43
0.0000000001
 12
1.0
 22
0.0
 32
0.0
 13
1.0
 23
0.0
 33
0.0
 40
0.0
 40
0.0
 40
0.0
 40
0.0
 40
1.0
 40
1.0
 40
1.0
 40
2.0
 40
2.0
 40
2.0
 40
3.0
 40
3.0
 40
3.0
 40
4.0
 40
4.0
 40
4.0
 40
4.0
 10
100.892360481577
 20
-158.6803969047744
 30
0.0
 10
100.892360481577
 20
-158.6249402381218
 30
0.0
 10
100.8475929827191
 20
-158.5801727381325
 30
0.0
 10
100.7924538174592
 20
-158.5801727381325
 30
0.0
 10
100.7373499299761
 20
-158.5801727381325
 30
0.0
 10
100.6925471533413
 20
-158.6249402381218
 30
0.0
 10
100.6925471533413
 20
-158.6803969047744
 30
0.0
 10
100.6925471533413
 20
-158.7355360714275
 30
0.0
 10
100.7373499299761
 20
-158.7803035714161
 30
0.0
 10
100.7924538174592
 20
-158.7803035714161
 30
0.0
 10
100.8475929827191
 20
-158.7803035714161
 30
0.0
 10
100.892360481577
 20
-158.7355360714275
 30
0.0
 10
100.892360481577
 20
-158.6803969047744
 30
0.0
  0
POLYLINE
  5
63
330
57
100
AcDbEntity
  8
_U+30EC_U+30A4_U+30E4_U+30FC 1
 62
   179
420
  2234388
370
     9
100
AcDb2dPolyline
 66
     1
 10
0.0
 20
0.0
 30
0.0
  0
VERTEX
  5
64
330
63
100
AcDbEntity
  8
_U+30EC_U+30A4_U+30E4_U+30FC 1
 62
   179
420
  2234388
370
     9
100
AcDbVertex
100
AcDb2dVertex
 10
78.68408271482403
 20
-96.72916192026216
 30
0.0
  0
VERTEX
  5
65
330
63
100
AcDbEntity
  8
_U+30EC_U+30A4_U+30E4_U+30FC 1
 62
   179
420
  2234388
370
     9
100
AcDbVertex
100
AcDb2dVertex
 10
79.8157937970628
 20
-96.72916192026216
 30
0.0
  0
SEQEND
  5
66
330
63
100
AcDbEntity
  8
_U+30EC_U+30A4_U+30E4_U+30FC 1
 62
   179
420
  2234388
370
     9
  0
POLYLINE
  5
67
330
57
100
AcDbEntity
  8
_U+30EC_U+30A4_U+30E4_U+30FC 1
 62
   179
420
  2234388
370
     9
100
AcDb2dPolyline
 66
     1
 10
0.0
 20
0.0
 30
0.0
  0
VERTEX
  5
68
330
67
100
AcDbEntity
  8
_U+30EC_U+30A4_U+30E4_U+30FC 1
 62
   179
420
  2234388
370
     9
100
AcDbVertex
100
AcDb2dVertex
 10
78.7006279921797
 20
-98.18916803100835
 30
0.0
  0
VERTEX
  5
69
330
67
100
AcDbEntity
  8
_U+30EC_U+30A4_U+30E4_U+30FC 1
 62
   179
420
  2234388
370
     9
100
AcDbVertex
100
AcDb2dVertex
 10
78.7006279921797
 20
-95.72921330940106
 30
0.0
  0
SEQEND
  5
6A
330
67
100
AcDbEntity
  8
_U+30EC_U+30A4_U+30E4_U+30FC 1
 62
   179
420
  2234388
370
     9
  0
POLYLINE
  5
6B
330
57
100
AcDbEntity
  8
_U+30EC_U+30A4_U+30E4_U+30FC 1
 62
   179
420
  2234388
370
     9
100
AcDb2dPolyline
 66
     1
 10
0.0
 20
0.0
 30
0.0
  0
VERTEX
  5
6C
330
6B
100
AcDbEntity
  8
_U+30EC_U+30A4_U+30E4_U+30FC 1
 62
   179
420
  2234388
370
     9
100
AcDbVertex
100
AcDb2dVertex
 10
79.81561942449048
 20
-98.18916803100835
 30
0.0
  0
VERTEX
  5
6D
330
6B
100
AcDbEntity
  8
_U+30EC_U+30A4_U+30E4_U+30FC 1
 62
   179
420
  2234388
370
     9
100
AcDbVertex
100
AcDb2dVertex
 10
79.81561942449048
 20
-95.72921330940106
 30
0.0
  0
SEQEND
  5
6E
330
6B
100
AcDbEntity
  8
_U+30EC_U+30A4_U+30E4_U+30FC 1
 62
   179
420
  2234388
370
     9
  0
POLYLINE
  5
6F
330
57
100
AcDbEntity
  8
_U+30EC_U+30A4_U+30E4_U+30FC 1
 62
   179
420
  2234388
370
     9
100
AcDb2dPolyline
 66
     1
 10
0.0
 20
0.0
 30
0.0
  0
VERTEX
  5
70
330
6F
100
AcDbEntity
  8
_U+30EC_U+30A4_U+30E4_U+30FC 1
 62
   179
420
  2234388
370
     9
100
AcDbVertex
100
AcDb2dVertex
 10
102.2524951690993
 20
-158.6803969047744
 30
0.0
  0
VERTEX
  5
71
330
6F
100
AcDbEntity
  8
_U+30EC_U+30A4_U+30E4_U+30FC 1
 62
   179
420
  2234388
370
     9
100
AcDbVertex
100
AcDb2dVertex
 10
97.39217001531874
 20
-158.6803969047744
 30
0.0
  0
SEQEND
  5
72
330
6F
100
AcDbEntity
  8
_U+30EC_U+30A4_U+30E4_U+30FC 1
 62
   179
420
  2234388
370
     9
  0
POLYLINE
  5
73
330
57
100
AcDbEntity
  8
_U+30EC_U+30A4_U+30E4_U+30FC 1
 62
   179
420
  2234388
370
     9
100
AcDb2dPolyline
 66
     1
 10
0.0
 20
0.0
 30
0.0
  0
VERTEX
  5
74
330
73
100
AcDbEntity
  8
_U+30EC_U+30A4_U+30E4_U+30FC 1
 62
   179
420
  2234388
370
     9
100
AcDbVertex
100
AcDb2dVertex
 10
78.8074138227887
 20
-162.7290863482067
 30
0.0
  0
VERTEX
  5
75
330
73
100
AcDbEntity
  8
_U+30EC_U+30A4_U+30E4_U+30FC 1
 62
   179
420
  2234388
370
     9
100
AcDbVertex
100
AcDb2dVertex
 10
96.39275059637161
 20
-162.7290863482067
 30
0.0
  0
SEQEND
  5
76
330
73
100
AcDbEntity
  8
_U+30EC_U+30A4_U+30E4_U+30FC 1
 62
   179
420
  2234388
370
     9
  0
POLYLINE
  5
77
330
57
100
AcDbEntity
  8
_U+30EC_U+30A4_U+30E4_U+30FC 1
 62
   179
420
  2234388
370
     9
100
AcDb2dPolyline
 66
     1
 10
0.0
 20
0.0
 30
0.0
  0
VERTEX
  5
78
330
77
100
AcDbEntity
  8
_U+30EC_U+30A4_U+30E4_U+30FC 1
 62
   179
420
  2234388
370
     9
100
AcDbVertex
100
AcDb2dVertex
 10
78.86339965469372
 20
-138.17451829879
 30
0.0
  0
VERTEX
  5
79
330
77
100
AcDbEntity
  8
_U+30EC_U+30A4_U+30E4_U+30FC 1
 62
   179
420
  2234388
370
     9
100
AcDbVertex
100
AcDb2dVertex
 10
78.86339965469372
 20
-163.7288585701792
 30
0.0
  0
SEQEND
  5
7A
330
77
100
AcDbEntity
  8
_U+30EC_U+30A4_U+30E4_U+30FC 1
 62
   179
420
  2234388
370
     9
  0
POLYLINE
  5
7B
330
57
100
AcDbEntity
  8
_U+30EC_U+30A4_U+30E4_U+30FC 1
 62
   179
420
  2234388
370
     9
100
AcDb2dPolyline
 66
     1
 10
0.0
 20
0.0
 30
0.0
  0
VERTEX
  5
7C
330
7B
100
AcDbEntity
  8
_U+30EC_U+30A4_U+30E4_U+30FC 1
 62
   179
420
  2234388
370
     9
100
AcDbVertex
100
AcDb2dVertex
 10
96.39239781860283
 20
-161.269044959683
 30
0.0
  0
VERTEX
  5
7D
330
7B
100
AcDbEntity
  8
_U+30EC_U+30A4_U+30E4_U+30FC 1
 62
   179
420
  2234388
370
     9
100
AcDbVertex
100
AcDb2dVertex
 10
96.39239781860283
 20
-163.7295288479566
 30
0.0
  0
SEQEND
  5
7E
330
7B
100
AcDbEntity
  8
_U+30EC_U+30A4_U+30E4_U+30FC 1
 62
   179
420
  2234388
370
     9
  0
SPLINE
  5
7F
330
57
100
AcDbEntity
  8
_U+30EC_U+30A4_U+30E4_U+30FC 1
 62
   179
420
  2234388
370
     9
100
AcDbSpline
210
0.0
220
0.0
230
1.0
 70
    11
 71
     3
 72
    17
 73
    13
 74
     0
 42
0.0000000001
 43
0.0000000001
 12
1.0
 22
0.0
 32
0.0
 13
1.0
 23
0.0
 33
0.0
 40
0.0
 40
0.0
 40
0.0
 40
0.0
 40
1.0
 40
1.0
 40
1.0
 40
2.0
 40
2.0
 40
2.0
 40
3.0
 40
3.0
 40
3.0
 40
4.0
 40
4.0
 40
4.0
 40
4.0
 10
92.49254541809636
 20
-162.7290863482067
 30
0.0
 10
92.49254541809636
 20
-162.6739471815536
 30
0.0
 10
92.44774264146159
 20
-162.629179681565
 30
0.0
 10
92.39263875397852
 20
-162.629179681565
 30
0.0
 10
92.33749958871857
 20
-162.629179681565
 30
0.0
 10
92.29273208986069
 20
-162.6739471815536
 30
0.0
 10
92.29273208986069
 20
-162.7290863482067
 30
0.0
 10
92.29273208986069
 20
-162.7845430148594
 30
0.0
 10
92.33749958871857
 20
-162.8293457926261
 30
0.0
 10
92.39263875397852
 20
-162.8293457926261
 30
0.0
 10
92.44774264146159
 20
-162.8293457926261
 30
0.0
 10
92.49254541809636
 20
-162.7845430148594
 30
0.0
 10
92.49254541809636
 20
-162.7290863482067
 30
0.0
  0
POLYLINE
  5
80
330
57
100
AcDbEntity
  8
_U+30EC_U+30A4_U+30E4_U+30FC 1
 62
   179
420
  2234388
370
     9
100
AcDb2dPolyline
 66
     1
 10
0.0
 20
0.0
 30
0.0
  0
VERTEX
  5
81
330
80
100
AcDbEntity
  8
_U+30EC_U+30A4_U+30E4_U+30FC 1
 62
   179
420
  2234388
370
     9
100
AcDbVertex
100
AcDb2dVertex
 10
92.39263875397852
 20
-161.269044959683
 30
0.0
  0
VERTEX
  5
82
330
80
100
AcDbEntity
  8
_U+30EC_U+30A4_U+30E4_U+30FC 1
 62
   179
420
  2234388
370
     9
100
AcDbVertex
100
AcDb2dVertex
 10
92.39263875397852
 20
-163.7295288479566
 30
0.0
  0
SEQEND
  5
83
330
80
100
AcDbEntity
  8
_U+30EC_U+30A4_U+30E4_U+30FC 1
 62
   179
420
  2234388
370
     9
  0
POLYLINE
  5
84
330
57
100
AcDbEntity
  8
_U+30EC_U+30A4_U+30E4_U+30FC 1
 62
   179
420
  2234388
370
     9
100
AcDb2dPolyline
 66
     1
 10
0.0
 20
0.0
 30
0.0
  0
VERTEX
  5
85
330
84
100
AcDbEntity
  8
_U+30EC_U+30A4_U+30E4_U+30FC 1
 62
   179
420
  2234388
370
     9
100
AcDbVertex
100
AcDb2dVertex
 10
96.39239781860283
 20
-96.72845636470664
 30
0.0
  0
VERTEX
  5
86
330
84
100
AcDbEntity
  8
_U+30EC_U+30A4_U+30E4_U+30FC 1
 62
   179
420
  2234388
370
     9
100
AcDbVertex
100
AcDb2dVertex
 10
79.81667775782375
 20
-96.72845636470664
 30
0.0
  0
SEQEND
  5
87
330
84
100
AcDbEntity
  8
_U+30EC_U+30A4_U+30E4_U+30FC 1
 62
   179
420
  2234388
370
     9
  0
POLYLINE
  5
88
330
57
100
AcDbEntity
  8
_U+30EC_U+30A4_U+30E4_U+30FC 1
 62
   179
420
  2234388
370
     9
100
AcDb2dPolyline
 66
     1
 10
0.0
 20
0.0
 30
0.0
  0
VERTEX
  5
89
330
88
100
AcDbEntity
  8
_U+30EC_U+30A4_U+30E4_U+30FC 1
 62
   179
420
  2234388
370
     9
100
AcDbVertex
100
AcDb2dVertex
 10
96.39239781860283
 20
-137.8093227433257
 30
0.0
  0
VERTEX
  5
8A
330
88
100
AcDbEntity
  8
_U+30EC_U+30A4_U+30E4_U+30FC 1
 62
   179
420
  2234388
370
     9
100
AcDbVertex
100
AcDb2dVertex
 10
96.39239781860283
 20
-95.7283666427345
 30
0.0
  0
SEQEND
  5
8B
330
88
100
AcDbEntity
  8
_U+30EC_U+30A4_U+30E4_U+30FC 1
 62
   179
420
  2234388
370
     9
  0
POLYLINE
  5
8C
330
57
100
AcDbEntity
  8
_U+30EC_U+30A4_U+30E4_U+30FC 1
 62
   179
420
  2234388
370
     9
100
AcDb2dPolyline
 66
     1
 10
0.0
 20
0.0
 30
0.0
  0
VERTEX
  5
8D
330
8C
100
AcDbEntity
  8
_U+30EC_U+30A4_U+30E4_U+30FC 1
 62
   179
420
  2234388
370
     9
100
AcDbVertex
100
AcDb2dVertex
 10
100.7924538174592
 20
-139.5298199651173
 30
0.0
  0
VERTEX
  5
8E
330
8C
100
AcDbEntity
  8
_U+30EC_U+30A4_U+30E4_U+30FC 1
 62
   179
420
  2234388
370
     9
100
AcDbVertex
100
AcDb2dVertex
 10
100.7924538174592
 20
-158.6803969047744
 30
0.0
  0
SEQEND
  5
8F
330
8C
100
AcDbEntity
  8
_U+30EC_U+30A4_U+30E4_U+30FC 1
 62
   179
420
  2234388
370
     9
  0
POLYLINE
  5
90
330
57
100
AcDbEntity
  8
_U+30EC_U+30A4_U+30E4_U+30FC 1
 62
   179
420
  2234388
370
     9
100
AcDb2dPolyline
 66
     1
 10
0.0
 20
0.0
 30
0.0
  0
VERTEX
  5
91
330
90
100
AcDbEntity
  8
_U+30EC_U+30A4_U+30E4_U+30FC 1
 62
   179
420
  2234388
370
     9
100
AcDbVertex
100
AcDb2dVertex
 10
102.0523290630948
 20
-138.7050607986573
 30
0.0
  0
VERTEX
  5
92
330
90
100
AcDbEntity
  8
_U+30EC_U+30A4_U+30E4_U+30FC 1
 62
   179
420
  2234388
370
     9
100
AcDbVertex
100
AcDb2dVertex
 10
97.39217001531874
 20
-138.7050607986573
 30
0.0
  0
SEQEND
  5
93
330
90
100
AcDbEntity
  8
_U+30EC_U+30A4_U+30E4_U+30FC 1
 62
   179
420
  2234388
370
     9
  0
SPLINE
  5
94
330
57
100
AcDbEntity
  8
_U+30EC_U+30A4_U+30E4_U+30FC 1
 62
   179
420
  2234388
370
     9
100
AcDbSpline
210
0.0
220
0.0
230
1.0
 70
    11
 71
     3
 72
    17
 73
    13
 74
     0
 42
0.0000000001
 43
0.0000000001
 12
1.0
 22
0.0
 32
0.0
 13
1.0
 23
0.0
 33
0.0
 40
0.0
 40
0.0
 40
0.0
 40
0.0
 40
1.0
 40
1.0
 40
1.0
 40
2.0
 40
2.0
 40
2.0
 40
3.0
 40
3.0
 40
3.0
 40
4.0
 40
4.0
 40
4.0
 40
4.0
 10
100.892360481577
 20
-135.7050738549629
 30
0.0
 10
100.892360481577
 20
-135.6502874660876
 30
0.0
 10
100.8475929827191
 20
-135.6055199660984
 30
0.0
 10
100.7924538174592
 20
-135.6055199660984
 30
0.0
 10
100.7373499299761
 20
-135.6055199660984
 30
0.0
 10
100.6925471533413
 20
-135.6502874660876
 30
0.0
 10
100.6925471533413
 20
-135.7050738549629
 30
0.0
 10
100.6925471533413
 20
-135.7608832993934
 30
0.0
 10
100.7373499299761
 20
-135.8056507993819
 30
0.0
 10
100.7924538174592
 20
-135.8056507993819
 30
0.0
 10
100.8475929827191
 20
-135.8056507993819
 30
0.0
 10
100.892360481577
 20
-135.7608832993934
 30
0.0
 10
100.892360481577
 20
-135.7050738549629
 30
0.0
  0
POLYLINE
  5
95
330
57
100
AcDbEntity
  8
_U+30EC_U+30A4_U+30E4_U+30FC 1
 62
   179
420
  2234388
370
     9
100
AcDb2dPolyline
 66
     1
 10
0.0
 20
0.0
 30
0.0
  0
VERTEX
  5
96
330
95
100
AcDbEntity
  8
_U+30EC_U+30A4_U+30E4_U+30FC 1
 62
   179
420
  2234388
370
     9
100
AcDbVertex
100
AcDb2dVertex
 10
102.0523290630948
 20
-135.7050738549629
 30
0.0
  0
VERTEX
  5
97
330
95
100
AcDbEntity
  8
_U+30EC_U+30A4_U+30E4_U+30FC 1
 62
   179
420
  2234388
370
     9
100
AcDbVertex
100
AcDb2dVertex
 10
81.89457207736207
 20
-135.7050738549629
 30
0.0
  0
SEQEND
  5
98
330
95
100
AcDbEntity
  8
_U+30EC_U+30A4_U+30E4_U+30FC 1
 62
   179
420
  2234388
370
     9
  0
POLYLINE
  5
99
330
57
100
AcDbEntity
  8
_U+30EC_U+30A4_U+30E4_U+30FC 1
 62
   179
420
  2234388
370
     9
100
AcDb2dPolyline
 66
     1
 10
0.0
 20
0.0
 30
0.0
  0
VERTEX
  5
9A
330
99
100
AcDbEntity
  8
_U+30EC_U+30A4_U+30E4_U+30FC 1
 62
   179
420
  2234388
370
     9
100
AcDbVertex
100
AcDb2dVertex
 10
100.7924538174592
 20
-139.5298199651173
 30
0.0
  0
VERTEX
  5
9B
330
99
100
AcDbEntity
  8
_U+30EC_U+30A4_U+30E4_U+30FC 1
 62
   179
420
  2234388
370
     9
100
AcDbVertex
100
AcDb2dVertex
 10
100.7924538174592
 20
-100.7297677525953
 30
0.0
  0
SEQEND
  5
9C
330
99
100
AcDbEntity
  8
_U+30EC_U+30A4_U+30E4_U+30FC 1
 62
   179
420
  2234388
370
     9
  0
POLYLINE
  5
9D
330
57
100
AcDbEntity
  8
_U+30EC_U+30A4_U+30E4_U+30FC 1
 62
   179
420
  2234388
370
     9
100
AcDb2dPolyline
 66
     1
 10
0.0
 20
0.0
 30
0.0
  0
VERTEX
  5
9E
330
9D
100
AcDbEntity
  8
_U+30EC_U+30A4_U+30E4_U+30FC 1
 62
   179
420
  2234388
370
     9
100
AcDbVertex
100
AcDb2dVertex
 10
102.0523290630948
 20
-100.7295913637064
 30
0.0
  0
VERTEX
  5
9F
330
9D
100
AcDbEntity
  8
_U+30EC_U+30A4_U+30E4_U+30FC 1
 62
   179
420
  2234388
370
     9
100
AcDbVertex
100
AcDb2dVertex
 10
81.37108514627289
 20
-100.7295913637064
 30
0.0
  0
SEQEND
  5
A0
330
9D
100
AcDbEntity
  8
_U+30EC_U+30A4_U+30E4_U+30FC 1
 62
   179
420
  2234388
370
     9
  0
ENDBLK
  5
5A
330
57
100
AcDbEntity
  8
0
100
AcDbBlockEnd
  0
BLOCK
  5
A3
330
A1
100
AcDbEntity
  8
0
100
AcDbBlockBegin
  2
block 4
 70
     0
 10
0.0
 20
0.0
 30
0.0
  3
block 4
  1

  0
SPLINE
  5
A5
330
A1
100
AcDbEntity
  8
_U+30EC_U+30A4_U+30E4_U+30FC 1
370
     0
100
AcDbSpline
210
0.0
220
0.0
230
1.0
 70
    11
 71
     3
 72
    26
 73
    22
 74
     0
 42
0.0000000001
 43
0.0000000001
 12
1.0
 22
0.0
 32
0.0
 13
1.0
 23
0.0
 33
0.0
 40
0.0
 40
0.0
 40
0.0
 40
0.0
 40
1.0
 40
1.0
 40
1.0
 40
2.0
 40
2.0
 40
2.0
 40
3.0
 40
3.0
 40
3.0
 40
4.0
 40
4.0
 40
4.0
 40
5.0
 40
5.0
 40
5.0
 40
6.0
 40
6.0
 40
6.0
 40
7.0
 40
7.0
 40
7.0
 40
7.0
 10
78.37626679898233
 20
-95.0126328972538
 30
0.0
 10
78.37626679898233
 20
-95.0126328972538
 30
0.0
 10
78.37626679898233
 20
-93.90830753945696
 30
0.0
 10
78.37626679898233
 20
-93.90830753945696
 30
0.0
 10
78.37626679898233
 20
-93.90830753945696
 30
0.0
 10
78.04622665149539
 20
-93.90830753945696
 30
0.0
 10
78.04622665149539
 20
-93.90830753945696
 30
0.0
 10
78.04622665149539
 20
-93.90830753945696
 30
0.0
 10
78.04622665149539
 20
-93.76034068836547
 30
0.0
 10
78.04622665149539
 20
-93.76034068836547
 30
0.0
 10
78.37833385627347
 20
-93.7455267777789
 30
0.0
 10
78.42484264532435
 20
-93.58257376132659
 30
0.0
 10
78.4544704664975
 20
-93.46836884599055
 30
0.0
 10
78.4544704664975
 20
-93.46836884599055
 30
0.0
 10
78.60054251507209
 20
-93.46836884599055
 30
0.0
 10
78.60054251507209
 20
-93.46836884599055
 30
0.0
 10
78.60054251507209
 20
-93.46836884599055
 30
0.0
 10
78.60054251507209
 20
-95.0126328972538
 30
0.0
 10
78.60054251507209
 20
-95.0126328972538
 30
0.0
 10
78.60054251507209
 20
-95.0126328972538
 30
0.0
 10
78.37626679898233
 20
-95.0126328972538
 30
0.0
 10
78.37626679898233
 20
-95.0126328972538
 30
0.0
  0
HATCH
  5
A6
330
A1
100
AcDbEntity
  8
_U+30EC_U+30A4_U+30E4_U+30FC 1
 62
   179
420
  2234388
100
AcDbHatch
 10
0.0
 20
0.0
 30
0.0
210
0.0
220
0.0
230
1.0
  2
SOLID
 70
     1
 71
     0
 91
        1
 92
        1
 93
        1
 72
     4
 94
        3
 73
     0
 74
     1
 95
       26
 96
       22
 40
0.0
 40
0.0
 40
0.0
 40
0.0
 40
1.0
 40
1.0
 40
1.0
 40
2.0
 40
2.0
 40
2.0
 40
3.0
 40
3.0
 40
3.0
 40
4.0
 40
4.0
 40
4.0
 40
5.0
 40
5.0
 40
5.0
 40
6.0
 40
6.0
 40
6.0
 40
7.0
 40
7.0
 40
7.0
 40
7.0
 10
78.37626679898233
 20
-95.0126328972538
 10
78.37626679898233
 20
-95.0126328972538
 10
78.37626679898233
 20
-93.90830753945696
 10
78.37626679898233
 20
-93.90830753945696
 10
78.37626679898233
 20
-93.90830753945696
 10
78.04622665149539
 20
-93.90830753945696
 10
78.04622665149539
 20
-93.90830753945696
 10
78.04622665149539
 20
-93.90830753945696
 10
78.04622665149539
 20
-93.76034068836547
 10
78.04622665149539
 20
-93.76034068836547
 10
78.37833385627347
 20
-93.7455267777789
 10
78.42484264532435
 20
-93.58257376132659
 10
78.4544704664975
 20
-93.46836884599055
 10
78.4544704664975
 20
-93.46836884599055
 10
78.60054251507209
 20
-93.46836884599055
 10
78.60054251507209
 20
-93.46836884599055
 10
78.60054251507209
 20
-93.46836884599055
 10
78.60054251507209
 20
-95.0126328972538
 10
78.60054251507209
 20
-95.0126328972538
 10
78.60054251507209
 20
-95.0126328972538
 10
78.37626679898233
 20
-95.0126328972538
 10
78.37626679898233
 20
-95.0126328972538
 97
        0
 97
        0
 75
     2
 76
     1
 98
        0
  0
POLYLINE
  5
A7
330
A1
100
AcDbEntity
  8
_U+30EC_U+30A4_U+30E4_U+30FC 1
370
     0
100
AcDb2dPolyline
 66
     1
 10
0.0
 20
0.0
 30
0.0
  0
VERTEX
  5
A8
330
A7
100
AcDbEntity
  8
_U+30EC_U+30A4_U+30E4_U+30FC 1
370
     0
100
AcDbVertex
100
AcDb2dVertex
 10
79.16174856961929
 20
-95.0126328972538
 30
0.0
  0
VERTEX
  5
A9
330
A7
100
AcDbEntity
  8
_U+30EC_U+30A4_U+30E4_U+30FC 1
370
     0
100
AcDbVertex
100
AcDb2dVertex
 10
79.16174856961929
 20
-94.7609686720563
 30
0.0
  0
VERTEX
  5
AA
330
A7
100
AcDbEntity
  8
_U+30EC_U+30A4_U+30E4_U+30FC 1
370
     0
100
AcDbVertex
100
AcDb2dVertex
 10
79.4134127948168
 20
-94.7609686720563
 30
0.0
  0
VERTEX
  5
AB
330
A7
100
AcDbEntity
  8
_U+30EC_U+30A4_U+30E4_U+30FC 1
370
     0
100
AcDbVertex
100
AcDb2dVertex
 10
79.4134127948168
 20
-95.0126328972538
 30
0.0
  0
VERTEX
  5
AC
330
A7
100
AcDbEntity
  8
_U+30EC_U+30A4_U+30E4_U+30FC 1
370
     0
100
AcDbVertex
100
AcDb2dVertex
 10
79.16174856961929
 20
-95.0126328972538
 30
0.0
  0
SEQEND
  5
AD
330
A7
100
AcDbEntity
  8
_U+30EC_U+30A4_U+30E4_U+30FC 1
370
     0
  0
HATCH
  5
AE
330
A1
100
AcDbEntity
  8
_U+30EC_U+30A4_U+30E4_U+30FC 1
 62
   179
420
  2234388
100
AcDbHatch
 10
0.0
 20
0.0
 30
0.0
210
0.0
220
0.0
230
1.0
  2
SOLID
 70
     1
 71
     0
 91
        1
 92
        1
 93
        4
 72
     1
 10
79.16174856961929
 20
-95.0126328972538
 11
79.16174856961929
 21
-94.7609686720563
 72
     1
 10
79.16174856961929
 20
-94.7609686720563
 11
79.4134127948168
 21
-94.7609686720563
 72
     1
 10
79.4134127948168
 20
-94.7609686720563
 11
79.4134127948168
 21
-95.0126328972538
 72
     1
 10
79.4134127948168
 20
-95.0126328972538
 11
79.16174856961929
 21
-95.0126328972538
 97
        0
 75
     2
 76
     1
 98
        0
  0
SPLINE
  5
AF
330
A1
100
AcDbEntity
  8
_U+30EC_U+30A4_U+30E4_U+30FC 1
370
     0
100
AcDbSpline
210
0.0
220
0.0
230
1.0
 70
    11
 71
     3
 72
    26
 73
    22
 74
     0
 42
0.0000000001
 43
0.0000000001
 12
1.0
 22
0.0
 32
0.0
 13
1.0
 23
0.0
 33
0.0
 40
0.0
 40
0.0
 40
0.0
 40
0.0
 40
1.0
 40
1.0
 40
1.0
 40
2.0
 40
2.0
 40
2.0
 40
3.0
 40
3.0
 40
3.0
 40
4.0
 40
4.0
 40
4.0
 40
5.0
 40
5.0
 40
5.0
 40
6.0
 40
6.0
 40
6.0
 40
7.0
 40
7.0
 40
7.0
 40
7.0
 10
80.10139836322118
 20
-95.0126328972538
 30
0.0
 10
80.10139836322118
 20
-95.0126328972538
 30
0.0
 10
80.10139836322118
 20
-93.90830753945696
 30
0.0
 10
80.10139836322118
 20
-93.90830753945696
 30
0.0
 10
80.10139836322118
 20
-93.90830753945696
 30
0.0
 10
79.77135821573425
 20
-93.90830753945696
 30
0.0
 10
79.77135821573425
 20
-93.90830753945696
 30
0.0
 10
79.77135821573425
 20
-93.90830753945696
 30
0.0
 10
79.77135821573425
 20
-93.76034068836547
 30
0.0
 10
79.77135821573425
 20
-93.76034068836547
 30
0.0
 10
80.10346542051234
 20
-93.7455267777789
 30
0.0
 10
80.14997420956321
 20
-93.58257376132659
 30
0.0
 10
80.17960203073635
 20
-93.46836884599055
 30
0.0
 10
80.17960203073635
 20
-93.46836884599055
 30
0.0
 10
80.32567407931094
 20
-93.46836884599055
 30
0.0
 10
80.32567407931094
 20
-93.46836884599055
 30
0.0
 10
80.32567407931094
 20
-93.46836884599055
 30
0.0
 10
80.32567407931094
 20
-95.0126328972538
 30
0.0
 10
80.32567407931094
 20
-95.0126328972538
 30
0.0
 10
80.32567407931094
 20
-95.0126328972538
 30
0.0
 10
80.10139836322118
 20
-95.0126328972538
 30
0.0
 10
80.10139836322118
 20
-95.0126328972538
 30
0.0
  0
HATCH
  5
B0
330
A1
100
AcDbEntity
  8
_U+30EC_U+30A4_U+30E4_U+30FC 1
 62
   179
420
  2234388
100
AcDbHatch
 10
0.0
 20
0.0
 30
0.0
210
0.0
220
0.0
230
1.0
  2
SOLID
 70
     1
 71
     0
 91
        1
 92
        1
 93
        1
 72
     4
 94
        3
 73
     0
 74
     1
 95
       26
 96
       22
 40
0.0
 40
0.0
 40
0.0
 40
0.0
 40
1.0
 40
1.0
 40
1.0
 40
2.0
 40
2.0
 40
2.0
 40
3.0
 40
3.0
 40
3.0
 40
4.0
 40
4.0
 40
4.0
 40
5.0
 40
5.0
 40
5.0
 40
6.0
 40
6.0
 40
6.0
 40
7.0
 40
7.0
 40
7.0
 40
7.0
 10
80.10139836322118
 20
-95.0126328972538
 10
80.10139836322118
 20
-95.0126328972538
 10
80.10139836322118
 20
-93.90830753945696
 10
80.10139836322118
 20
-93.90830753945696
 10
80.10139836322118
 20
-93.90830753945696
 10
79.77135821573425
 20
-93.90830753945696
 10
79.77135821573425
 20
-93.90830753945696
 10
79.77135821573425
 20
-93.90830753945696
 10
79.77135821573425
 20
-93.76034068836547
 10
79.77135821573425
 20
-93.76034068836547
 10
80.10346542051234
 20
-93.7455267777789
 10
80.14997420956321
 20
-93.58257376132659
 10
80.17960203073635
 20
-93.46836884599055
 10
80.17960203073635
 20
-93.46836884599055
 10
80.32567407931094
 20
-93.46836884599055
 10
80.32567407931094
 20
-93.46836884599055
 10
80.32567407931094
 20
-93.46836884599055
 10
80.32567407931094
 20
-95.0126328972538
 10
80.32567407931094
 20
-95.0126328972538
 10
80.32567407931094
 20
-95.0126328972538
 10
80.10139836322118
 20
-95.0126328972538
 10
80.10139836322118
 20
-95.0126328972538
 97
        0
 97
        0
 75
     2
 76
     1
 98
        0
  0
ENDBLK
  5
A4
330
A1
100
AcDbEntity
  8
0
100
AcDbBlockEnd
  0
BLOCK
  5
B3
330
B1
100
AcDbEntity
  8
0
100
AcDbBlockBegin
  2
block 5
 70
     0
 10
0.0
 20
0.0
 30
0.0
  3
block 5
  1

  0
SPLINE
  5
B5
330
B1
100
AcDbEntity
  8
_U+30EC_U+30A4_U+30E4_U+30FC 1
370
     0
100
AcDbSpline
210
0.0
220
0.0
230
1.0
 70
    11
 71
     3
 72
    26
 73
    22
 74
     0
 42
0.0000000001
 43
0.0000000001
 12
1.0
 22
0.0
 32
0.0
 13
1.0
 23
0.0
 33
0.0
 40
0.0
 40
0.0
 40
0.0
 40
0.0
 40
1.0
 40
1.0
 40
1.0
 40
2.0
 40
2.0
 40
2.0
 40
3.0
 40
3.0
 40
3.0
 40
4.0
 40
4.0
 40
4.0
 40
5.0
 40
5.0
 40
5.0
 40
6.0
 40
6.0
 40
6.0
 40
7.0
 40
7.0
 40
7.0
 40
7.0
 10
84.01089271988269
 20
-162.0834743518402
 30
0.0
 10
84.01089271988269
 20
-162.0834743518402
 30
0.0
 10
84.01089271988269
 20
-160.9789767392691
 30
0.0
 10
84.01089271988269
 20
-160.9789767392691
 30
0.0
 10
84.01089271988269
 20
-160.9789767392691
 30
0.0
 10
83.68085257239576
 20
-160.9789767392691
 30
0.0
 10
83.68085257239576
 20
-160.9789767392691
 30
0.0
 10
83.68085257239576
 20
-160.9789767392691
 30
0.0
 10
83.68085257239576
 20
-160.8311821429519
 30
0.0
 10
83.68085257239576
 20
-160.8311821429519
 30
0.0
 10
84.01295977717385
 20
-160.8163682323654
 30
0.0
 10
84.05946856622472
 20
-160.653415215913
 30
0.0
 10
84.08909638739787
 20
-160.5393825553513
 30
0.0
 10
84.08909638739787
 20
-160.5393825553513
 30
0.0
 10
84.23516843597247
 20
-160.5393825553513
 30
0.0
 10
84.23516843597247
 20
-160.5393825553513
 30
0.0
 10
84.23516843597247
 20
-160.5393825553513
 30
0.0
 10
84.23516843597247
 20
-162.0834743518402
 30
0.0
 10
84.23516843597247
 20
-162.0834743518402
 30
0.0
 10
84.23516843597247
 20
-162.0834743518402
 30
0.0
 10
84.01089271988269
 20
-162.0834743518402
 30
0.0
 10
84.01089271988269
 20
-162.0834743518402
 30
0.0
  0
HATCH
  5
B6
330
B1
100
AcDbEntity
  8
_U+30EC_U+30A4_U+30E4_U+30FC 1
 62
   179
420
  2234388
100
AcDbHatch
 10
0.0
 20
0.0
 30
0.0
210
0.0
220
0.0
230
1.0
  2
SOLID
 70
     1
 71
     0
 91
        1
 92
        1
 93
        1
 72
     4
 94
        3
 73
     0
 74
     1
 95
       26
 96
       22
 40
0.0
 40
0.0
 40
0.0
 40
0.0
 40
1.0
 40
1.0
 40
1.0
 40
2.0
 40
2.0
 40
2.0
 40
3.0
 40
3.0
 40
3.0
 40
4.0
 40
4.0
 40
4.0
 40
5.0
 40
5.0
 40
5.0
 40
6.0
 40
6.0
 40
6.0
 40
7.0
 40
7.0
 40
7.0
 40
7.0
 10
84.01089271988269
 20
-162.0834743518402
 10
84.01089271988269
 20
-162.0834743518402
 10
84.01089271988269
 20
-160.9789767392691
 10
84.01089271988269
 20
-160.9789767392691
 10
84.01089271988269
 20
-160.9789767392691
 10
83.68085257239576
 20
-160.9789767392691
 10
83.68085257239576
 20
-160.9789767392691
 10
83.68085257239576
 20
-160.9789767392691
 10
83.68085257239576
 20
-160.8311821429519
 10
83.68085257239576
 20
-160.8311821429519
 10
84.01295977717385
 20
-160.8163682323654
 10
84.05946856622472
 20
-160.653415215913
 10
84.08909638739787
 20
-160.5393825553513
 10
84.08909638739787
 20
-160.5393825553513
 10
84.23516843597247
 20
-160.5393825553513
 10
84.23516843597247
 20
-160.5393825553513
 10
84.23516843597247
 20
-160.5393825553513
 10
84.23516843597247
 20
-162.0834743518402
 10
84.23516843597247
 20
-162.0834743518402
 10
84.23516843597247
 20
-162.0834743518402
 10
84.01089271988269
 20
-162.0834743518402
 10
84.01089271988269
 20
-162.0834743518402
 97
        0
 97
        0
 75
     2
 76
     1
 98
        0
  0
SPLINE
  5
B7
330
B1
100
AcDbEntity
  8
_U+30EC_U+30A4_U+30E4_U+30FC 1
370
     0
100
AcDbSpline
210
0.0
220
0.0
230
1.0
 70
    11
 71
     3
 72
    62
 73
    58
 74
     0
 42
0.0000000001
 43
0.0000000001
 12
1.0
 22
0.0
 32
0.0
 13
1.0
 23
0.0
 33
0.0
 40
0.0
 40
0.0
 40
0.0
 40
0.0
 40
1.0
 40
1.0
 40
1.0
 40
2.0
 40
2.0
 40
2.0
 40
3.0
 40
3.0
 40
3.0
 40
4.0
 40
4.0
 40
4.0
 40
5.0
 40
5.0
 40
5.0
 40
6.0
 40
6.0
 40
6.0
 40
7.0
 40
7.0
 40
7.0
 40
8.0
 40
8.0
 40
8.0
 40
9.0
 40
9.0
 40
9.0
 40
10.0
 40
10.0
 40
10.0
 40
11.0
 40
11.0
 40
11.0
 40
12.0
 40
12.0
 40
12.0
 40
13.0
 40
13.0
 40
13.0
 40
14.0
 40
14.0
 40
14.0
 40
15.0
 40
15.0
 40
15.0
 40
16.0
 40
16.0
 40
16.0
 40
17.0
 40
17.0
 40
17.0
 40
18.0
 40
18.0
 40
18.0
 40
19.0
 40
19.0
 40
19.0
 40
19.0
 10
85.2278727000472
 20
-162.1344617650219
 30
0.0
 10
85.13261580988005
 20
-162.1344617650219
 30
0.0
 10
84.914713520438
 20
-162.1131021730134
 30
0.0
 10
84.79000106387196
 20
-161.9270670168099
 30
0.0
 10
84.71593151093907
 20
-161.8147569039908
 30
0.0
 10
84.71162514158252
 20
-161.7155381540156
 30
0.0
 10
84.70749102700022
 20
-161.6307888050784
 30
0.0
 10
84.70749102700022
 20
-161.6307888050784
 30
0.0
 10
84.92746037373341
 20
-161.6307888050784
 30
0.0
 10
84.92746037373341
 20
-161.6307888050784
 30
0.0
 10
84.92952743102457
 20
-161.7048583580113
 30
0.0
 10
84.94020722702884
 20
-161.9394693605568
 30
0.0
 10
85.22356633069064
 20
-161.9394693605568
 30
0.0
 10
85.36119789532637
 20
-161.9394693605568
 30
0.0
 10
85.51347111577441
 20
-161.8698784317548
 30
0.0
 10
85.51347111577441
 20
-161.6411240915342
 30
0.0
 10
85.51347111577441
 20
-161.5250243736812
 30
0.0
 10
85.4754028106624
 20
-161.4764485273392
 30
0.0
 10
85.44370793219811
 20
-161.4447536488749
 30
0.0
 10
85.36963837926524
 20
-161.3703395863935
 30
0.0
 10
85.2531941518638
 20
-161.3579372426466
 30
0.0
 10
85.19824487887405
 20
-161.3579372426466
 30
0.0
 10
85.17929685370518
 20
-161.3579372426466
 30
0.0
 10
85.14329560588432
 20
-161.3600042999378
 30
0.0
 10
85.11573484200233
 20
-161.3641384145201
 30
0.0
 10
85.11573484200233
 20
-161.3641384145201
 30
0.0
 10
85.11573484200233
 20
-161.1694905196035
 30
0.0
 10
85.11573484200233
 20
-161.1694905196035
 30
0.0
 10
85.15380314711433
 20
-161.1760362010255
 30
0.0
 10
85.1961778215829
 20
-161.1781032583166
 30
0.0
 10
85.20255124823062
 20
-161.1781032583166
 30
0.0
 10
85.26800806245036
 20
-161.1781032583166
 30
0.0
 10
85.46696232672355
 20
-161.156743666308
 30
0.0
 10
85.46696232672355
 20
-160.9197210969228
 30
0.0
 10
85.46696232672355
 20
-160.7422986794325
 30
0.0
 10
85.33570418873552
 20
-160.6871771516685
 30
0.0
 10
85.22580564275606
 20
-160.6871771516685
 30
0.0
 10
84.96139456426313
 20
-160.6871771516685
 30
0.0
 10
84.95278182555
 20
-160.9197210969228
 30
0.0
 10
84.9486477109677
 20
-160.9920681021131
 30
0.0
 10
84.9486477109677
 20
-160.9920681021131
 30
0.0
 10
84.74555933211222
 20
-160.9920681021131
 30
0.0
 10
84.74555933211222
 20
-160.9920681021131
 30
0.0
 10
84.75399981605109
 20
-160.8670111359985
 30
0.0
 10
84.78156057993309
 20
-160.4904621994607
 30
0.0
 10
85.23838024127721
 20
-160.4904621994607
 30
0.0
 10
85.46265595736698
 20
-160.4904621994607
 30
0.0
 10
85.70381264133447
 20
-160.6172417133179
 30
0.0
 10
85.70381264133447
 20
-160.9135199250494
 30
0.0
 10
85.70381264133447
 20
-161.0995550812529
 30
0.0
 10
85.60872800594157
 20
-161.1822373728989
 30
0.0
 10
85.50916474641785
 20
-161.2435600725363
 30
0.0
 10
85.57065970082957
 20
-161.2711208364183
 30
0.0
 10
85.75256074245075
 20
-161.3517360707732
 30
0.0
 10
85.75256074245075
 20
-161.6287217477873
 30
0.0
 10
85.75256074245075
 20
-161.9670301244388
 30
0.0
 10
85.50503063183555
 20
-162.1344617650219
 30
0.0
 10
85.2278727000472
 20
-162.1344617650219
 30
0.0
  0
HATCH
  5
B8
330
B1
100
AcDbEntity
  8
_U+30EC_U+30A4_U+30E4_U+30FC 1
 62
   179
420
  2234388
100
AcDbHatch
 10
0.0
 20
0.0
 30
0.0
210
0.0
220
0.0
230
1.0
  2
SOLID
 70
     1
 71
     0
 91
        1
 92
        1
 93
        1
 72
     4
 94
        3
 73
     0
 74
     1
 95
       62
 96
       58
 40
0.0
 40
0.0
 40
0.0
 40
0.0
 40
1.0
 40
1.0
 40
1.0
 40
2.0
 40
2.0
 40
2.0
 40
3.0
 40
3.0
 40
3.0
 40
4.0
 40
4.0
 40
4.0
 40
5.0
 40
5.0
 40
5.0
 40
6.0
 40
6.0
 40
6.0
 40
7.0
 40
7.0
 40
7.0
 40
8.0
 40
8.0
 40
8.0
 40
9.0
 40
9.0
 40
9.0
 40
10.0
 40
10.0
 40
10.0
 40
11.0
 40
11.0
 40
11.0
 40
12.0
 40
12.0
 40
12.0
 40
13.0
 40
13.0
 40
13.0
 40
14.0
 40
14.0
 40
14.0
 40
15.0
 40
15.0
 40
15.0
 40
16.0
 40
16.0
 40
16.0
 40
17.0
 40
17.0
 40
17.0
 40
18.0
 40
18.0
 40
18.0
 40
19.0
 40
19.0
 40
19.0
 40
19.0
 10
85.2278727000472
 20
-162.1344617650219
 10
85.13261580988005
 20
-162.1344617650219
 10
84.914713520438
 20
-162.1131021730134
 10
84.79000106387196
 20
-161.9270670168099
 10
84.71593151093907
 20
-161.8147569039908
 10
84.71162514158252
 20
-161.7155381540156
 10
84.70749102700022
 20
-161.6307888050784
 10
84.70749102700022
 20
-161.6307888050784
 10
84.92746037373341
 20
-161.6307888050784
 10
84.92746037373341
 20
-161.6307888050784
 10
84.92952743102457
 20
-161.7048583580113
 10
84.94020722702884
 20
-161.9394693605568
 10
85.22356633069064
 20
-161.9394693605568
 10
85.36119789532637
 20
-161.9394693605568
 10
85.51347111577441
 20
-161.8698784317548
 10
85.51347111577441
 20
-161.6411240915342
 10
85.51347111577441
 20
-161.5250243736812
 10
85.4754028106624
 20
-161.4764485273392
 10
85.44370793219811
 20
-161.4447536488749
 10
85.36963837926524
 20
-161.3703395863935
 10
85.2531941518638
 20
-161.3579372426466
 10
85.19824487887405
 20
-161.3579372426466
 10
85.17929685370518
 20
-161.3579372426466
 10
85.14329560588432
 20
-161.3600042999378
 10
85.11573484200233
 20
-161.3641384145201
 10
85.11573484200233
 20
-161.3641384145201
 10
85.11573484200233
 20
-161.1694905196035
 10
85.11573484200233
 20
-161.1694905196035
 10
85.15380314711433
 20
-161.1760362010255
 10
85.1961778215829
 20
-161.1781032583166
 10
85.20255124823062
 20
-161.1781032583166
 10
85.26800806245036
 20
-161.1781032583166
 10
85.46696232672355
 20
-161.156743666308
 10
85.46696232672355
 20
-160.9197210969228
 10
85.46696232672355
 20
-160.7422986794325
 10
85.33570418873552
 20
-160.6871771516685
 10
85.22580564275606
 20
-160.6871771516685
 10
84.96139456426313
 20
-160.6871771516685
 10
84.95278182555
 20
-160.9197210969228
 10
84.9486477109677
 20
-160.9920681021131
 10
84.9486477109677
 20
-160.9920681021131
 10
84.74555933211222
 20
-160.9920681021131
 10
84.74555933211222
 20
-160.9920681021131
 10
84.75399981605109
 20
-160.8670111359985
 10
84.78156057993309
 20
-160.4904621994607
 10
85.23838024127721
 20
-160.4904621994607
 10
85.46265595736698
 20
-160.4904621994607
 10
85.70381264133447
 20
-160.6172417133179
 10
85.70381264133447
 20
-160.9135199250494
 10
85.70381264133447
 20
-161.0995550812529
 10
85.60872800594157
 20
-161.1822373728989
 10
85.50916474641785
 20
-161.2435600725363
 10
85.57065970082957
 20
-161.2711208364183
 10
85.75256074245075
 20
-161.3517360707732
 10
85.75256074245075
 20
-161.6287217477873
 10
85.75256074245075
 20
-161.9670301244388
 10
85.50503063183555
 20
-162.1344617650219
 10
85.2278727000472
 20
-162.1344617650219
 97
        0
 97
        0
 75
     2
 76
     1
 98
        0
  0
POLYLINE
  5
B9
330
B1
100
AcDbEntity
  8
_U+30EC_U+30A4_U+30E4_U+30FC 1
370
     0
100
AcDb2dPolyline
 66
     1
 10
0.0
 20
0.0
 30
0.0
  0
VERTEX
  5
BA
330
B9
100
AcDbEntity
  8
_U+30EC_U+30A4_U+30E4_U+30FC 1
370
     0
100
AcDbVertex
100
AcDb2dVertex
 10
85.973219108281
 20
-162.0834743518402
 30
0.0
  0
VERTEX
  5
BB
330
B9
100
AcDbEntity
  8
_U+30EC_U+30A4_U+30E4_U+30FC 1
370
     0
100
AcDbVertex
100
AcDb2dVertex
 10
85.973219108281
 20
-161.831982381417
 30
0.0
  0
VERTEX
  5
BC
330
B9
100
AcDbEntity
  8
_U+30EC_U+30A4_U+30E4_U+30FC 1
370
     0
100
AcDbVertex
100
AcDb2dVertex
 10
86.2248833334785
 20
-161.831982381417
 30
0.0
  0
VERTEX
  5
BD
330
B9
100
AcDbEntity
  8
_U+30EC_U+30A4_U+30E4_U+30FC 1
370
     0
100
AcDbVertex
100
AcDb2dVertex
 10
86.2248833334785
 20
-162.0834743518402
 30
0.0
  0
VERTEX
  5
BE
330
B9
100
AcDbEntity
  8
_U+30EC_U+30A4_U+30E4_U+30FC 1
370
     0
100
AcDbVertex
100
AcDb2dVertex
 10
85.973219108281
 20
-162.0834743518402
 30
0.0
  0
SEQEND
  5
BF
330
B9
100
AcDbEntity
  8
_U+30EC_U+30A4_U+30E4_U+30FC 1
370
     0
  0
HATCH
  5
C0
330
B1
100
AcDbEntity
  8
_U+30EC_U+30A4_U+30E4_U+30FC 1
 62
   179
420
  2234388
100
AcDbHatch
 10
0.0
 20
0.0
 30
0.0
210
0.0
220
0.0
230
1.0
  2
SOLID
 70
     1
 71
     0
 91
        1
 92
        1
 93
        4
 72
     1
 10
85.973219108281
 20
-162.0834743518402
 11
85.973219108281
 21
-161.831982381417
 72
     1
 10
85.973219108281
 20
-161.831982381417
 11
86.2248833334785
 21
-161.831982381417
 72
     1
 10
86.2248833334785
 20
-161.831982381417
 11
86.2248833334785
 21
-162.0834743518402
 72
     1
 10
86.2248833334785
 20
-162.0834743518402
 11
85.973219108281
 21
-162.0834743518402
 97
        0
 75
     2
 76
     1
 98
        0
  0
SPLINE
  5
C1
330
B1
100
AcDbEntity
  8
_U+30EC_U+30A4_U+30E4_U+30FC 1
370
     0
100
AcDbSpline
210
0.0
220
0.0
230
1.0
 70
    11
 71
     3
 72
    53
 73
    49
 74
     0
 42
0.0000000001
 43
0.0000000001
 12
1.0
 22
0.0
 32
0.0
 13
1.0
 23
0.0
 33
0.0
 40
0.0
 40
0.0
 40
0.0
 40
0.0
 40
1.0
 40
1.0
 40
1.0
 40
2.0
 40
2.0
 40
2.0
 40
3.0
 40
3.0
 40
3.0
 40
4.0
 40
4.0
 40
4.0
 40
5.0
 40
5.0
 40
5.0
 40
6.0
 40
6.0
 40
6.0
 40
7.0
 40
7.0
 40
7.0
 40
8.0
 40
8.0
 40
8.0
 40
9.0
 40
9.0
 40
9.0
 40
10.0
 40
10.0
 40
10.0
 40
11.0
 40
11.0
 40
11.0
 40
12.0
 40
12.0
 40
12.0
 40
13.0
 40
13.0
 40
13.0
 40
14.0
 40
14.0
 40
14.0
 40
15.0
 40
15.0
 40
15.0
 40
16.0
 40
16.0
 40
16.0
 40
16.0
 10
86.94249672305605
 20
-162.1344617650219
 30
0.0
 10
86.86412080076661
 20
-162.1344617650219
 30
0.0
 10
86.76266273872601
 20
-162.1172362875957
 30
0.0
 10
86.66103242191113
 20
-162.0538465306671
 30
0.0
 10
86.48757186422881
 20
-161.9436034751391
 30
0.0
 10
86.46638452699452
 20
-161.8126898466996
 30
0.0
 10
86.44743650182565
 20
-161.7048583580113
 30
0.0
 10
86.44743650182565
 20
-161.7048583580113
 30
0.0
 10
86.66947290585
 20
-161.7048583580113
 30
0.0
 10
86.66947290585
 20
-161.7048583580113
 30
0.0
 10
86.724594433614
 20
-161.9036403675102
 30
0.0
 10
86.85154620224544
 20
-161.9332681886834
 30
0.0
 10
86.9445637803472
 20
-161.9332681886834
 30
0.0
 10
87.08426240227408
 20
-161.9332681886834
 30
0.0
 10
87.23653562272212
 20
-161.8340494387081
 30
0.0
 10
87.23653562272212
 20
-161.6011609839053
 30
0.0
 10
87.23653562272212
 20
-161.3451903893512
 30
0.0
 10
87.05670163839208
 20
-161.2752549510006
 30
0.0
 10
86.93612329640834
 20
-161.2752549510006
 30
0.0
 10
86.90442841794403
 20
-161.2752549510006
 30
0.0
 10
86.76266273872601
 20
-161.2752549510006
 30
0.0
 10
86.67377927520656
 20
-161.4044460316975
 30
0.0
 10
86.67377927520656
 20
-161.4044460316975
 30
0.0
 10
86.49825166023308
 20
-161.3854980065286
 30
0.0
 10
86.49825166023308
 20
-161.3854980065286
 30
0.0
 10
86.49825166023308
 20
-161.3854980065286
 30
0.0
 10
86.61883000221682
 20
-160.5393825553513
 30
0.0
 10
86.61883000221682
 20
-160.5393825553513
 30
0.0
 10
86.61883000221682
 20
-160.5393825553513
 30
0.0
 10
87.39724932710902
 20
-160.5393825553513
 30
0.0
 10
87.39724932710902
 20
-160.5393825553513
 30
0.0
 10
87.39724932710902
 20
-160.5393825553513
 30
0.0
 10
87.39724932710902
 20
-160.7336859407194
 30
0.0
 10
87.39724932710902
 20
-160.7336859407194
 30
0.0
 10
87.39724932710902
 20
-160.7336859407194
 30
0.0
 10
86.78161076389488
 20
-160.7336859407194
 30
0.0
 10
86.78161076389488
 20
-160.7336859407194
 30
0.0
 10
86.78161076389488
 20
-160.7336859407194
 30
0.0
 10
86.71615394967513
 20
-161.156743666308
 30
0.0
 10
86.71615394967513
 20
-161.156743666308
 30
0.0
 10
86.77747664931258
 20
-161.1229817305526
 30
0.0
 10
86.85998668618431
 20
-161.0830186229237
 30
0.0
 10
86.97832571610265
 20
-161.0830186229237
 30
0.0
 10
87.23222925336556
 20
-161.0830186229237
 30
0.0
 10
87.46925182275075
 20
-161.2690537791272
 30
0.0
 10
87.46925182275075
 20
-161.5818684491879
 30
0.0
 10
87.46925182275075
 20
-161.8995062529279
 30
0.0
 10
87.24497610666099
 20
-162.1344617650219
 30
0.0
 10
86.94249672305605
 20
-162.1344617650219
 30
0.0
  0
HATCH
  5
C2
330
B1
100
AcDbEntity
  8
_U+30EC_U+30A4_U+30E4_U+30FC 1
 62
   179
420
  2234388
100
AcDbHatch
 10
0.0
 20
0.0
 30
0.0
210
0.0
220
0.0
230
1.0
  2
SOLID
 70
     1
 71
     0
 91
        1
 92
        1
 93
        1
 72
     4
 94
        3
 73
     0
 74
     1
 95
       53
 96
       49
 40
0.0
 40
0.0
 40
0.0
 40
0.0
 40
1.0
 40
1.0
 40
1.0
 40
2.0
 40
2.0
 40
2.0
 40
3.0
 40
3.0
 40
3.0
 40
4.0
 40
4.0
 40
4.0
 40
5.0
 40
5.0
 40
5.0
 40
6.0
 40
6.0
 40
6.0
 40
7.0
 40
7.0
 40
7.0
 40
8.0
 40
8.0
 40
8.0
 40
9.0
 40
9.0
 40
9.0
 40
10.0
 40
10.0
 40
10.0
 40
11.0
 40
11.0
 40
11.0
 40
12.0
 40
12.0
 40
12.0
 40
13.0
 40
13.0
 40
13.0
 40
14.0
 40
14.0
 40
14.0
 40
15.0
 40
15.0
 40
15.0
 40
16.0
 40
16.0
 40
16.0
 40
16.0
 10
86.94249672305605
 20
-162.1344617650219
 10
86.86412080076661
 20
-162.1344617650219
 10
86.76266273872601
 20
-162.1172362875957
 10
86.66103242191113
 20
-162.0538465306671
 10
86.48757186422881
 20
-161.9436034751391
 10
86.46638452699452
 20
-161.8126898466996
 10
86.44743650182565
 20
-161.7048583580113
 10
86.44743650182565
 20
-161.7048583580113
 10
86.66947290585
 20
-161.7048583580113
 10
86.66947290585
 20
-161.7048583580113
 10
86.724594433614
 20
-161.9036403675102
 10
86.85154620224544
 20
-161.9332681886834
 10
86.9445637803472
 20
-161.9332681886834
 10
87.08426240227408
 20
-161.9332681886834
 10
87.23653562272212
 20
-161.8340494387081
 10
87.23653562272212
 20
-161.6011609839053
 10
87.23653562272212
 20
-161.3451903893512
 10
87.05670163839208
 20
-161.2752549510006
 10
86.93612329640834
 20
-161.2752549510006
 10
86.90442841794403
 20
-161.2752549510006
 10
86.76266273872601
 20
-161.2752549510006
 10
86.67377927520656
 20
-161.4044460316975
 10
86.67377927520656
 20
-161.4044460316975
 10
86.49825166023308
 20
-161.3854980065286
 10
86.49825166023308
 20
-161.3854980065286
 10
86.49825166023308
 20
-161.3854980065286
 10
86.61883000221682
 20
-160.5393825553513
 10
86.61883000221682
 20
-160.5393825553513
 10
86.61883000221682
 20
-160.5393825553513
 10
87.39724932710902
 20
-160.5393825553513
 10
87.39724932710902
 20
-160.5393825553513
 10
87.39724932710902
 20
-160.5393825553513
 10
87.39724932710902
 20
-160.7336859407194
 10
87.39724932710902
 20
-160.7336859407194
 10
87.39724932710902
 20
-160.7336859407194
 10
86.78161076389488
 20
-160.7336859407194
 10
86.78161076389488
 20
-160.7336859407194
 10
86.78161076389488
 20
-160.7336859407194
 10
86.71615394967513
 20
-161.156743666308
 10
86.71615394967513
 20
-161.156743666308
 10
86.77747664931258
 20
-161.1229817305526
 10
86.85998668618431
 20
-161.0830186229237
 10
86.97832571610265
 20
-161.0830186229237
 10
87.23222925336556
 20
-161.0830186229237
 10
87.46925182275075
 20
-161.2690537791272
 10
87.46925182275075
 20
-161.5818684491879
 10
87.46925182275075
 20
-161.8995062529279
 10
87.24497610666099
 20
-162.1344617650219
 10
86.94249672305605
 20
-162.1344617650219
 97
        0
 97
        0
 75
     2
 76
     1
 98
        0
  0
ENDBLK
  5
B4
330
B1
100
AcDbEntity
  8
0
100
AcDbBlockEnd
  0
BLOCK
  5
C5
330
C3
100
AcDbEntity
  8
0
100
AcDbBlockBegin
  2
block 6
 70
     0
 10
0.0
 20
0.0
 30
0.0
  3
block 6
  1

  0
POLYLINE
  5
C7
330
C3
100
AcDbEntity
  8
_U+30EC_U+30A4_U+30E4_U+30FC 1
370
     0
100
AcDb2dPolyline
 66
     1
 10
0.0
 20
0.0
 30
0.0
  0
VERTEX
  5
C8
330
C7
100
AcDbEntity
  8
_U+30EC_U+30A4_U+30E4_U+30FC 1
370
     0
100
AcDbVertex
100
AcDb2dVertex
 10
94.9134141472786
 20
-161.7365532364756
 30
0.0
  0
VERTEX
  5
C9
330
C7
100
AcDbEntity
  8
_U+30EC_U+30A4_U+30E4_U+30FC 1
370
     0
100
AcDbVertex
100
AcDb2dVertex
 10
94.9134141472786
 20
-162.0834743518402
 30
0.0
  0
VERTEX
  5
CA
330
C7
100
AcDbEntity
  8
_U+30EC_U+30A4_U+30E4_U+30FC 1
370
     0
100
AcDbVertex
100
AcDb2dVertex
 10
94.69533960306228
 20
-162.0834743518402
 30
0.0
  0
VERTEX
  5
CB
330
C7
100
AcDbEntity
  8
_U+30EC_U+30A4_U+30E4_U+30FC 1
370
     0
100
AcDbVertex
100
AcDb2dVertex
 10
94.69533960306228
 20
-161.7365532364756
 30
0.0
  0
VERTEX
  5
CC
330
C7
100
AcDbEntity
  8
_U+30EC_U+30A4_U+30E4_U+30FC 1
370
     0
100
AcDbVertex
100
AcDb2dVertex
 10
94.03973793221924
 20
-161.7365532364756
 30
0.0
  0
VERTEX
  5
CD
330
C7
100
AcDbEntity
  8
_U+30EC_U+30A4_U+30E4_U+30FC 1
370
     0
100
AcDbVertex
100
AcDb2dVertex
 10
94.03973793221924
 20
-161.5122775203858
 30
0.0
  0
VERTEX
  5
CE
330
C7
100
AcDbEntity
  8
_U+30EC_U+30A4_U+30E4_U+30FC 1
370
     0
100
AcDbVertex
100
AcDb2dVertex
 10
94.71876625236197
 20
-160.5393825553513
 30
0.0
  0
VERTEX
  5
CF
330
C7
100
AcDbEntity
  8
_U+30EC_U+30A4_U+30E4_U+30FC 1
370
     0
100
AcDbVertex
100
AcDb2dVertex
 10
94.9134141472786
 20
-160.5393825553513
 30
0.0
  0
VERTEX
  5
D0
330
C7
100
AcDbEntity
  8
_U+30EC_U+30A4_U+30E4_U+30FC 1
370
     0
100
AcDbVertex
100
AcDb2dVertex
 10
94.9134141472786
 20
-161.5377712269767
 30
0.0
  0
VERTEX
  5
D1
330
C7
100
AcDbEntity
  8
_U+30EC_U+30A4_U+30E4_U+30FC 1
370
     0
100
AcDbVertex
100
AcDb2dVertex
 10
95.12080889549064
 20
-161.5377712269767
 30
0.0
  0
VERTEX
  5
D2
330
C7
100
AcDbEntity
  8
_U+30EC_U+30A4_U+30E4_U+30FC 1
370
     0
100
AcDbVertex
100
AcDb2dVertex
 10
95.12080889549064
 20
-161.7365532364756
 30
0.0
  0
VERTEX
  5
D3
330
C7
100
AcDbEntity
  8
_U+30EC_U+30A4_U+30E4_U+30FC 1
370
     0
100
AcDbVertex
100
AcDb2dVertex
 10
94.9134141472786
 20
-161.7365532364756
 30
0.0
  0
SEQEND
  5
D4
330
C7
100
AcDbEntity
  8
_U+30EC_U+30A4_U+30E4_U+30FC 1
370
     0
  0
POLYLINE
  5
D5
330
C3
100
AcDbEntity
  8
_U+30EC_U+30A4_U+30E4_U+30FC 1
370
     0
100
AcDb2dPolyline
 66
     1
 10
0.0
 20
0.0
 30
0.0
  0
VERTEX
  5
D6
330
D5
100
AcDbEntity
  8
_U+30EC_U+30A4_U+30E4_U+30FC 1
370
     0
100
AcDbVertex
100
AcDb2dVertex
 10
94.69533960306228
 20
-160.8818250465851
 30
0.0
  0
VERTEX
  5
D7
330
D5
100
AcDbEntity
  8
_U+30EC_U+30A4_U+30E4_U+30FC 1
370
     0
100
AcDbVertex
100
AcDb2dVertex
 10
94.23851994171815
 20
-161.5377712269767
 30
0.0
  0
VERTEX
  5
D8
330
D5
100
AcDbEntity
  8
_U+30EC_U+30A4_U+30E4_U+30FC 1
370
     0
100
AcDbVertex
100
AcDb2dVertex
 10
94.69533960306228
 20
-161.5377712269767
 30
0.0
  0
VERTEX
  5
D9
330
D5
100
AcDbEntity
  8
_U+30EC_U+30A4_U+30E4_U+30FC 1
370
     0
100
AcDbVertex
100
AcDb2dVertex
 10
94.69533960306228
 20
-160.8818250465851
 30
0.0
  0
SEQEND
  5
DA
330
D5
100
AcDbEntity
  8
_U+30EC_U+30A4_U+30E4_U+30FC 1
370
     0
  0
HATCH
  5
DB
330
C3
100
AcDbEntity
  8
_U+30EC_U+30A4_U+30E4_U+30FC 1
 62
   179
420
  2234388
100
AcDbHatch
 10
0.0
 20
0.0
 30
0.0
210
0.0
220
0.0
230
1.0
  2
SOLID
 70
     1
 71
     0
 91
        2
 92
        1
 93
       11
 72
     1
 10
94.9134141472786
 20
-161.7365532364756
 11
94.9134141472786
 21
-162.0834743518402
 72
     1
 10
94.9134141472786
 20
-162.0834743518402
 11
94.69533960306228
 21
-162.0834743518402
 72
     1
 10
94.69533960306228
 20
-162.0834743518402
 11
94.69533960306228
 21
-161.7365532364756
 72
     1
 10
94.69533960306228
 20
-161.7365532364756
 11
94.03973793221924
 21
-161.7365532364756
 72
     1
 10
94.03973793221924
 20
-161.7365532364756
 11
94.03973793221924
 21
-161.5122775203858
 72
     1
 10
94.03973793221924
 20
-161.5122775203858
 11
94.71876625236197
 21
-160.5393825553513
 72
     1
 10
94.71876625236197
 20
-160.5393825553513
 11
94.9134141472786
 21
-160.5393825553513
 72
     1
 10
94.9134141472786
 20
-160.5393825553513
 11
94.9134141472786
 21
-161.5377712269767
 72
     1
 10
94.9134141472786
 20
-161.5377712269767
 11
95.12080889549064
 21
-161.5377712269767
 72
     1
 10
95.12080889549064
 20
-161.5377712269767
 11
95.12080889549064
 21
-161.7365532364756
 72
     1
 10
95.12080889549064
 20
-161.7365532364756
 11
94.9134141472786
 21
-161.7365532364756
 97
        0
 92
        1
 93
        3
 72
     1
 10
94.69533960306228
 20
-160.8818250465851
 11
94.23851994171815
 21
-161.5377712269767
 72
     1
 10
94.23851994171815
 20
-161.5377712269767
 11
94.69533960306228
 21
-161.5377712269767
 72
     1
 10
94.69533960306228
 20
-161.5377712269767
 11
94.69533960306228
 21
-160.8818250465851
 97
        0
 75
     2
 76
     1
 98
        0
  0
ENDBLK
  5
C6
330
C3
100
AcDbEntity
  8
0
100
AcDbBlockEnd
  0
BLOCK
  5
DE
330
DC
100
AcDbEntity
  8
0
100
AcDbBlockBegin
  2
block 7
 70
     0
 10
0.0
 20
0.0
 30
0.0
  3
block 7
  1

  0
SPLINE
  5
E0
330
DC
100
AcDbEntity
  8
_U+30EC_U+30A4_U+30E4_U+30FC 1
370
     0
100
AcDbSpline
210
0.0
220
0.0
230
1.0
 70
    11
 71
     3
 72
    26
 73
    22
 74
     0
 42
0.0000000001
 43
0.0000000001
 12
1.0
 22
0.0
 32
0.0
 13
1.0
 23
0.0
 33
0.0
 40
0.0
 40
0.0
 40
0.0
 40
0.0
 40
1.0
 40
1.0
 40
1.0
 40
2.0
 40
2.0
 40
2.0
 40
3.0
 40
3.0
 40
3.0
 40
4.0
 40
4.0
 40
4.0
 40
5.0
 40
5.0
 40
5.0
 40
6.0
 40
6.0
 40
6.0
 40
7.0
 40
7.0
 40
7.0
 40
7.0
 10
86.25451115465165
 20
-94.98300507608064
 30
0.0
 10
86.25451115465165
 20
-94.98300507608064
 30
0.0
 10
86.25451115465165
 20
-93.8786797182838
 30
0.0
 10
86.25451115465165
 20
-93.8786797182838
 30
0.0
 10
86.25451115465165
 20
-93.8786797182838
 30
0.0
 10
85.92447100716473
 20
-93.8786797182838
 30
0.0
 10
85.92447100716473
 20
-93.8786797182838
 30
0.0
 10
85.92447100716473
 20
-93.8786797182838
 30
0.0
 10
85.92447100716473
 20
-93.73071286719232
 30
0.0
 10
85.92447100716473
 20
-93.73071286719232
 30
0.0
 10
86.25657821194281
 20
-93.71589895660576
 30
0.0
 10
86.30308700099367
 20
-93.55294594015344
 30
0.0
 10
86.33271482216682
 20
-93.4387410248174
 30
0.0
 10
86.33271482216682
 20
-93.4387410248174
 30
0.0
 10
86.47878687074142
 20
-93.4387410248174
 30
0.0
 10
86.47878687074142
 20
-93.4387410248174
 30
0.0
 10
86.47878687074142
 20
-93.4387410248174
 30
0.0
 10
86.47878687074142
 20
-94.98300507608064
 30
0.0
 10
86.47878687074142
 20
-94.98300507608064
 30
0.0
 10
86.47878687074142
 20
-94.98300507608064
 30
0.0
 10
86.25451115465165
 20
-94.98300507608064
 30
0.0
 10
86.25451115465165
 20
-94.98300507608064
 30
0.0
  0
HATCH
  5
E1
330
DC
100
AcDbEntity
  8
_U+30EC_U+30A4_U+30E4_U+30FC 1
 62
   179
420
  2234388
100
AcDbHatch
 10
0.0
 20
0.0
 30
0.0
210
0.0
220
0.0
230
1.0
  2
SOLID
 70
     1
 71
     0
 91
        1
 92
        1
 93
        1
 72
     4
 94
        3
 73
     0
 74
     1
 95
       26
 96
       22
 40
0.0
 40
0.0
 40
0.0
 40
0.0
 40
1.0
 40
1.0
 40
1.0
 40
2.0
 40
2.0
 40
2.0
 40
3.0
 40
3.0
 40
3.0
 40
4.0
 40
4.0
 40
4.0
 40
5.0
 40
5.0
 40
5.0
 40
6.0
 40
6.0
 40
6.0
 40
7.0
 40
7.0
 40
7.0
 40
7.0
 10
86.25451115465165
 20
-94.98300507608064
 10
86.25451115465165
 20
-94.98300507608064
 10
86.25451115465165
 20
-93.8786797182838
 10
86.25451115465165
 20
-93.8786797182838
 10
86.25451115465165
 20
-93.8786797182838
 10
85.92447100716473
 20
-93.8786797182838
 10
85.92447100716473
 20
-93.8786797182838
 10
85.92447100716473
 20
-93.8786797182838
 10
85.92447100716473
 20
-93.73071286719232
 10
85.92447100716473
 20
-93.73071286719232
 10
86.25657821194281
 20
-93.71589895660576
 10
86.30308700099367
 20
-93.55294594015344
 10
86.33271482216682
 20
-93.4387410248174
 10
86.33271482216682
 20
-93.4387410248174
 10
86.47878687074142
 20
-93.4387410248174
 10
86.47878687074142
 20
-93.4387410248174
 10
86.47878687074142
 20
-93.4387410248174
 10
86.47878687074142
 20
-94.98300507608064
 10
86.47878687074142
 20
-94.98300507608064
 10
86.47878687074142
 20
-94.98300507608064
 10
86.25451115465165
 20
-94.98300507608064
 10
86.25451115465165
 20
-94.98300507608064
 97
        0
 97
        0
 75
     2
 76
     1
 98
        0
  0
SPLINE
  5
E2
330
DC
100
AcDbEntity
  8
_U+30EC_U+30A4_U+30E4_U+30FC 1
370
     0
100
AcDbSpline
210
0.0
220
0.0
230
1.0
 70
    11
 71
     3
 72
    32
 73
    28
 74
     0
 42
0.0000000001
 43
0.0000000001
 12
1.0
 22
0.0
 32
0.0
 13
1.0
 23
0.0
 33
0.0
 40
0.0
 40
0.0
 40
0.0
 40
0.0
 40
1.0
 40
1.0
 40
1.0
 40
2.0
 40
2.0
 40
2.0
 40
3.0
 40
3.0
 40
3.0
 40
4.0
 40
4.0
 40
4.0
 40
5.0
 40
5.0
 40
5.0
 40
6.0
 40
6.0
 40
6.0
 40
7.0
 40
7.0
 40
7.0
 40
8.0
 40
8.0
 40
8.0
 40
9.0
 40
9.0
 40
9.0
 40
9.0
 10
87.48423798811159
 20
-95.03382023448808
 30
0.0
 10
86.96799042964689
 20
-95.03382023448808
 30
0.0
 10
86.95954994570803
 20
-94.47950437091137
 30
0.0
 10
86.95954994570803
 20
-94.26590845082589
 30
0.0
 10
86.95954994570803
 20
-94.03525930808841
 30
0.0
 10
86.97867022565117
 20
-93.38792586640997
 30
0.0
 10
87.5223062932236
 20
-93.38792586640997
 30
0.0
 10
87.69576685090593
 20
-93.38792586640997
 30
0.0
 10
87.94105764945571
 20
-93.45768904998627
 30
0.0
 10
87.97929820934199
 20
-93.78979625476435
 30
0.0
 10
87.97929820934199
 20
-93.78979625476435
 30
0.0
 10
87.76553003448224
 20
-93.78979625476435
 30
0.0
 10
87.76553003448224
 20
-93.78979625476435
 30
0.0
 10
87.75502249325223
 20
-93.73277992448348
 30
0.0
 10
87.72332761478792
 20
-93.58464081861773
 30
0.0
 10
87.52023923593245
 20
-93.58464081861773
 30
0.0
 10
87.22826739355752
 20
-93.58464081861773
 30
0.0
 10
87.1879597763801
 20
-93.91261390881351
 30
0.0
 10
87.17538517785894
 20
-94.11776934496015
 30
0.0
 10
87.26840275596068
 20
-94.03956567744497
 30
0.0
 10
87.33609888224584
 20
-93.98031003509868
 30
0.0
 10
87.51799992386704
 20
-93.98031003509868
 30
0.0
 10
87.69783390819707
 20
-93.98031003509868
 30
0.0
 10
88.00031329180202
 20
-94.088141523787
 30
0.0
 10
88.00031329180202
 20
-94.49431828149795
 30
0.0
 10
88.00031329180202
 20
-94.81385088775488
 30
0.0
 10
87.80153128230309
 20
-95.03382023448808
 30
0.0
 10
87.48423798811159
 20
-95.03382023448808
 30
0.0
  0
SPLINE
  5
E3
330
DC
100
AcDbEntity
  8
_U+30EC_U+30A4_U+30E4_U+30FC 1
370
     0
100
AcDbSpline
210
0.0
220
0.0
230
1.0
 70
    11
 71
     3
 72
    17
 73
    13
 74
     0
 42
0.0000000001
 43
0.0000000001
 12
1.0
 22
0.0
 32
0.0
 13
1.0
 23
0.0
 33
0.0
 40
0.0
 40
0.0
 40
0.0
 40
0.0
 40
1.0
 40
1.0
 40
1.0
 40
2.0
 40
2.0
 40
2.0
 40
3.0
 40
3.0
 40
3.0
 40
4.0
 40
4.0
 40
4.0
 40
4.0
 10
87.50111895598931
 20
-94.1749579300153
 30
0.0
 10
87.23877493478753
 20
-94.1749579300153
 30
0.0
 10
87.20070662967552
 20
-94.38648679280963
 30
0.0
 10
87.20070662967552
 20
-94.50275876543681
 30
0.0
 10
87.20070662967552
 20
-94.67845863518455
 30
0.0
 10
87.29596351984269
 20
-94.8412393968626
 30
0.0
 10
87.47993161875502
 20
-94.8412393968626
 30
0.0
 10
87.60050996073876
 20
-94.8412393968626
 30
0.0
 10
87.77620983048651
 20
-94.78198375451632
 30
0.0
 10
87.77620983048651
 20
-94.4963853387891
 30
0.0
 10
87.77620983048651
 20
-94.2722818774736
 30
0.0
 10
87.63651120855963
 20
-94.1749579300153
 30
0.0
 10
87.50111895598931
 20
-94.1749579300153
 30
0.0
  0
HATCH
  5
E4
330
DC
100
AcDbEntity
  8
_U+30EC_U+30A4_U+30E4_U+30FC 1
 62
   179
420
  2234388
100
AcDbHatch
 10
0.0
 20
0.0
 30
0.0
210
0.0
220
0.0
230
1.0
  2
SOLID
 70
     1
 71
     0
 91
        2
 92
        1
 93
        1
 72
     4
 94
        3
 73
     0
 74
     1
 95
       32
 96
       28
 40
0.0
 40
0.0
 40
0.0
 40
0.0
 40
1.0
 40
1.0
 40
1.0
 40
2.0
 40
2.0
 40
2.0
 40
3.0
 40
3.0
 40
3.0
 40
4.0
 40
4.0
 40
4.0
 40
5.0
 40
5.0
 40
5.0
 40
6.0
 40
6.0
 40
6.0
 40
7.0
 40
7.0
 40
7.0
 40
8.0
 40
8.0
 40
8.0
 40
9.0
 40
9.0
 40
9.0
 40
9.0
 10
87.48423798811159
 20
-95.03382023448808
 10
86.96799042964689
 20
-95.03382023448808
 10
86.95954994570803
 20
-94.47950437091137
 10
86.95954994570803
 20
-94.26590845082589
 10
86.95954994570803
 20
-94.03525930808841
 10
86.97867022565117
 20
-93.38792586640997
 10
87.5223062932236
 20
-93.38792586640997
 10
87.69576685090593
 20
-93.38792586640997
 10
87.94105764945571
 20
-93.45768904998627
 10
87.97929820934199
 20
-93.78979625476435
 10
87.97929820934199
 20
-93.78979625476435
 10
87.76553003448224
 20
-93.78979625476435
 10
87.76553003448224
 20
-93.78979625476435
 10
87.75502249325223
 20
-93.73277992448348
 10
87.72332761478792
 20
-93.58464081861773
 10
87.52023923593245
 20
-93.58464081861773
 10
87.22826739355752
 20
-93.58464081861773
 10
87.1879597763801
 20
-93.91261390881351
 10
87.17538517785894
 20
-94.11776934496015
 10
87.26840275596068
 20
-94.03956567744497
 10
87.33609888224584
 20
-93.98031003509868
 10
87.51799992386704
 20
-93.98031003509868
 10
87.69783390819707
 20
-93.98031003509868
 10
88.00031329180202
 20
-94.088141523787
 10
88.00031329180202
 20
-94.49431828149795
 10
88.00031329180202
 20
-94.81385088775488
 10
87.80153128230309
 20
-95.03382023448808
 10
87.48423798811159
 20
-95.03382023448808
 97
        0
 97
        0
 92
        1
 93
        1
 72
     4
 94
        3
 73
     0
 74
     1
 95
       17
 96
       13
 40
0.0
 40
0.0
 40
0.0
 40
0.0
 40
1.0
 40
1.0
 40
1.0
 40
2.0
 40
2.0
 40
2.0
 40
3.0
 40
3.0
 40
3.0
 40
4.0
 40
4.0
 40
4.0
 40
4.0
 10
87.50111895598931
 20
-94.1749579300153
 10
87.23877493478753
 20
-94.1749579300153
 10
87.20070662967552
 20
-94.38648679280963
 10
87.20070662967552
 20
-94.50275876543681
 10
87.20070662967552
 20
-94.67845863518455
 10
87.29596351984269
 20
-94.8412393968626
 10
87.47993161875502
 20
-94.8412393968626
 10
87.60050996073876
 20
-94.8412393968626
 10
87.77620983048651
 20
-94.78198375451632
 10
87.77620983048651
 20
-94.4963853387891
 10
87.77620983048651
 20
-94.2722818774736
 10
87.63651120855963
 20
-94.1749579300153
 10
87.50111895598931
 20
-94.1749579300153
 97
        0
 97
        0
 75
     2
 76
     1
 98
        0
  0
POLYLINE
  5
E5
330
DC
100
AcDbEntity
  8
_U+30EC_U+30A4_U+30E4_U+30FC 1
370
     0
100
AcDb2dPolyline
 66
     1
 10
0.0
 20
0.0
 30
0.0
  0
VERTEX
  5
E6
330
E5
100
AcDbEntity
  8
_U+30EC_U+30A4_U+30E4_U+30FC 1
370
     0
100
AcDbVertex
100
AcDb2dVertex
 10
88.21683754304996
 20
-94.98300507608064
 30
0.0
  0
VERTEX
  5
E7
330
E5
100
AcDbEntity
  8
_U+30EC_U+30A4_U+30E4_U+30FC 1
370
     0
100
AcDbVertex
100
AcDb2dVertex
 10
88.21683754304996
 20
-94.73134085088314
 30
0.0
  0
VERTEX
  5
E8
330
E5
100
AcDbEntity
  8
_U+30EC_U+30A4_U+30E4_U+30FC 1
370
     0
100
AcDbVertex
100
AcDb2dVertex
 10
88.46850176824746
 20
-94.73134085088314
 30
0.0
  0
VERTEX
  5
E9
330
E5
100
AcDbEntity
  8
_U+30EC_U+30A4_U+30E4_U+30FC 1
370
     0
100
AcDbVertex
100
AcDb2dVertex
 10
88.46850176824746
 20
-94.98300507608064
 30
0.0
  0
VERTEX
  5
EA
330
E5
100
AcDbEntity
  8
_U+30EC_U+30A4_U+30E4_U+30FC 1
370
     0
100
AcDbVertex
100
AcDb2dVertex
 10
88.21683754304996
 20
-94.98300507608064
 30
0.0
  0
SEQEND
  5
EB
330
E5
100
AcDbEntity
  8
_U+30EC_U+30A4_U+30E4_U+30FC 1
370
     0
  0
HATCH
  5
EC
330
DC
100
AcDbEntity
  8
_U+30EC_U+30A4_U+30E4_U+30FC 1
 62
   179
420
  2234388
100
AcDbHatch
 10
0.0
 20
0.0
 30
0.0
210
0.0
220
0.0
230
1.0
  2
SOLID
 70
     1
 71
     0
 91
        1
 92
        1
 93
        4
 72
     1
 10
88.21683754304996
 20
-94.98300507608064
 11
88.21683754304996
 21
-94.73134085088314
 72
     1
 10
88.21683754304996
 20
-94.73134085088314
 11
88.46850176824746
 21
-94.73134085088314
 72
     1
 10
88.46850176824746
 20
-94.73134085088314
 11
88.46850176824746
 21
-94.98300507608064
 72
     1
 10
88.46850176824746
 20
-94.98300507608064
 11
88.21683754304996
 21
-94.98300507608064
 97
        0
 75
     2
 76
     1
 98
        0
  0
POLYLINE
  5
ED
330
DC
100
AcDbEntity
  8
_U+30EC_U+30A4_U+30E4_U+30FC 1
370
     0
100
AcDb2dPolyline
 66
     1
 10
0.0
 20
0.0
 30
0.0
  0
VERTEX
  5
EE
330
ED
100
AcDbEntity
  8
_U+30EC_U+30A4_U+30E4_U+30FC 1
370
     0
100
AcDbVertex
100
AcDb2dVertex
 10
89.53717038777197
 20
-94.63608396071598
 30
0.0
  0
VERTEX
  5
EF
330
ED
100
AcDbEntity
  8
_U+30EC_U+30A4_U+30E4_U+30FC 1
370
     0
100
AcDbVertex
100
AcDb2dVertex
 10
89.53717038777197
 20
-94.98300507608064
 30
0.0
  0
VERTEX
  5
F0
330
ED
100
AcDbEntity
  8
_U+30EC_U+30A4_U+30E4_U+30FC 1
370
     0
100
AcDbVertex
100
AcDb2dVertex
 10
89.31926809832991
 20
-94.98300507608064
 30
0.0
  0
VERTEX
  5
F1
330
ED
100
AcDbEntity
  8
_U+30EC_U+30A4_U+30E4_U+30FC 1
370
     0
100
AcDbVertex
100
AcDb2dVertex
 10
89.31926809832991
 20
-94.63608396071598
 30
0.0
  0
VERTEX
  5
F2
330
ED
100
AcDbEntity
  8
_U+30EC_U+30A4_U+30E4_U+30FC 1
370
     0
100
AcDbVertex
100
AcDb2dVertex
 10
88.6634941727126
 20
-94.63608396071598
 30
0.0
  0
VERTEX
  5
F3
330
ED
100
AcDbEntity
  8
_U+30EC_U+30A4_U+30E4_U+30FC 1
370
     0
100
AcDbVertex
100
AcDb2dVertex
 10
88.6634941727126
 20
-94.41180824462622
 30
0.0
  0
VERTEX
  5
F4
330
ED
100
AcDbEntity
  8
_U+30EC_U+30A4_U+30E4_U+30FC 1
370
     0
100
AcDbVertex
100
AcDb2dVertex
 10
89.34252249285535
 20
-93.4387410248174
 30
0.0
  0
VERTEX
  5
F5
330
ED
100
AcDbEntity
  8
_U+30EC_U+30A4_U+30E4_U+30FC 1
370
     0
100
AcDbVertex
100
AcDb2dVertex
 10
89.53717038777197
 20
-93.4387410248174
 30
0.0
  0
VERTEX
  5
F6
330
ED
100
AcDbEntity
  8
_U+30EC_U+30A4_U+30E4_U+30FC 1
370
     0
100
AcDbVertex
100
AcDb2dVertex
 10
89.53717038777197
 20
-94.43712969644281
 30
0.0
  0
VERTEX
  5
F7
330
ED
100
AcDbEntity
  8
_U+30EC_U+30A4_U+30E4_U+30FC 1
370
     0
100
AcDbVertex
100
AcDb2dVertex
 10
89.744565135984
 20
-94.43712969644281
 30
0.0
  0
VERTEX
  5
F8
330
ED
100
AcDbEntity
  8
_U+30EC_U+30A4_U+30E4_U+30FC 1
370
     0
100
AcDbVertex
100
AcDb2dVertex
 10
89.744565135984
 20
-94.63608396071598
 30
0.0
  0
VERTEX
  5
F9
330
ED
100
AcDbEntity
  8
_U+30EC_U+30A4_U+30E4_U+30FC 1
370
     0
100
AcDbVertex
100
AcDb2dVertex
 10
89.53717038777197
 20
-94.63608396071598
 30
0.0
  0
SEQEND
  5
FA
330
ED
100
AcDbEntity
  8
_U+30EC_U+30A4_U+30E4_U+30FC 1
370
     0
  0
POLYLINE
  5
FB
330
DC
100
AcDbEntity
  8
_U+30EC_U+30A4_U+30E4_U+30FC 1
370
     0
100
AcDb2dPolyline
 66
     1
 10
0.0
 20
0.0
 30
0.0
  0
VERTEX
  5
FC
330
FB
100
AcDbEntity
  8
_U+30EC_U+30A4_U+30E4_U+30FC 1
370
     0
100
AcDbVertex
100
AcDb2dVertex
 10
89.31926809832991
 20
-93.7813557708255
 30
0.0
  0
VERTEX
  5
FD
330
FB
100
AcDbEntity
  8
_U+30EC_U+30A4_U+30E4_U+30FC 1
370
     0
100
AcDbVertex
100
AcDb2dVertex
 10
88.86244843698579
 20
-94.43712969644281
 30
0.0
  0
VERTEX
  5
FE
330
FB
100
AcDbEntity
  8
_U+30EC_U+30A4_U+30E4_U+30FC 1
370
     0
100
AcDbVertex
100
AcDb2dVertex
 10
89.31926809832991
 20
-94.43712969644281
 30
0.0
  0
VERTEX
  5
FF
330
FB
100
AcDbEntity
  8
_U+30EC_U+30A4_U+30E4_U+30FC 1
370
     0
100
AcDbVertex
100
AcDb2dVertex
 10
89.31926809832991
 20
-93.7813557708255
 30
0.0
  0
SEQEND
  5
100
330
FB
100
AcDbEntity
  8
_U+30EC_U+30A4_U+30E4_U+30FC 1
370
     0
  0
HATCH
  5
101
330
DC
100
AcDbEntity
  8
_U+30EC_U+30A4_U+30E4_U+30FC 1
 62
   179
420
  2234388
100
AcDbHatch
 10
0.0
 20
0.0
 30
0.0
210
0.0
220
0.0
230
1.0
  2
SOLID
 70
     1
 71
     0
 91
        2
 92
        1
 93
       11
 72
     1
 10
89.53717038777197
 20
-94.63608396071598
 11
89.53717038777197
 21
-94.98300507608064
 72
     1
 10
89.53717038777197
 20
-94.98300507608064
 11
89.31926809832991
 21
-94.98300507608064
 72
     1
 10
89.31926809832991
 20
-94.98300507608064
 11
89.31926809832991
 21
-94.63608396071598
 72
     1
 10
89.31926809832991
 20
-94.63608396071598
 11
88.6634941727126
 21
-94.63608396071598
 72
     1
 10
88.6634941727126
 20
-94.63608396071598
 11
88.6634941727126
 21
-94.41180824462622
 72
     1
 10
88.6634941727126
 20
-94.41180824462622
 11
89.34252249285535
 21
-93.4387410248174
 72
     1
 10
89.34252249285535
 20
-93.4387410248174
 11
89.53717038777197
 21
-93.4387410248174
 72
     1
 10
89.53717038777197
 20
-93.4387410248174
 11
89.53717038777197
 21
-94.43712969644281
 72
     1
 10
89.53717038777197
 20
-94.43712969644281
 11
89.744565135984
 21
-94.43712969644281
 72
     1
 10
89.744565135984
 20
-94.43712969644281
 11
89.744565135984
 21
-94.63608396071598
 72
     1
 10
89.744565135984
 20
-94.63608396071598
 11
89.53717038777197
 21
-94.63608396071598
 97
        0
 92
        1
 93
        3
 72
     1
 10
89.31926809832991
 20
-93.7813557708255
 11
88.86244843698579
 21
-94.43712969644281
 72
     1
 10
88.86244843698579
 20
-94.43712969644281
 11
89.31926809832991
 21
-94.43712969644281
 72
     1
 10
89.31926809832991
 20
-94.43712969644281
 11
89.31926809832991
 21
-93.7813557708255
 97
        0
 75
     2
 76
     1
 98
        0
  0
ENDBLK
  5
DF
330
DC
100
AcDbEntity
  8
0
100
AcDbBlockEnd
  0
BLOCK
  5
104
330
102
100
AcDbEntity
  8
0
100
AcDbBlockBegin
  2
block 8
 70
     0
 10
0.0
 20
0.0
 30
0.0
  3
block 8
  1

  0
SPLINE
  5
106
330
102
100
AcDbEntity
  8
_U+30EC_U+30A4_U+30E4_U+30FC 1
370
     0
100
AcDbSpline
210
0.0
220
0.0
230
1.0
 70
    11
 71
     3
 72
    44
 73
    40
 74
     0
 42
0.0000000001
 43
0.0000000001
 12
1.0
 22
0.0
 32
0.0
 13
1.0
 23
0.0
 33
0.0
 40
0.0
 40
0.0
 40
0.0
 40
0.0
 40
1.0
 40
1.0
 40
1.0
 40
2.0
 40
2.0
 40
2.0
 40
3.0
 40
3.0
 40
3.0
 40
4.0
 40
4.0
 40
4.0
 40
5.0
 40
5.0
 40
5.0
 40
6.0
 40
6.0
 40
6.0
 40
7.0
 40
7.0
 40
7.0
 40
8.0
 40
8.0
 40
8.0
 40
9.0
 40
9.0
 40
9.0
 40
10.0
 40
10.0
 40
10.0
 40
11.0
 40
11.0
 40
11.0
 40
12.0
 40
12.0
 40
12.0
 40
13.0
 40
13.0
 40
13.0
 40
13.0
 10
102.9615017103707
 20
-149.1884819505501
 30
0.0
 10
103.1199761026922
 20
-149.4062119852179
 30
0.0
 10
103.1943901651736
 20
-149.4992295633196
 30
0.0
 10
103.3380506469085
 20
-149.5481499192102
 30
0.0
 10
103.3380506469085
 20
-149.5481499192102
 30
0.0
 10
103.3380506469085
 20
-148.7695583395437
 30
0.0
 10
103.3380506469085
 20
-148.7695583395437
 30
0.0
 10
103.3380506469085
 20
-148.7695583395437
 30
0.0
 10
103.5430338282809
 20
-148.7695583395437
 30
0.0
 10
103.5430338282809
 20
-148.7695583395437
 30
0.0
 10
103.5430338282809
 20
-148.7695583395437
 30
0.0
 10
103.5430338282809
 20
-149.7975748323423
 30
0.0
 10
103.5430338282809
 20
-149.7975748323423
 30
0.0
 10
103.185432916912
 20
-149.765879953878
 30
0.0
 10
103.1075737589453
 20
-149.7004231396582
 30
0.0
 10
102.8092284899227
 20
-149.3152614644073
 30
0.0
 10
102.6101019708753
 20
-149.0592908698532
 30
0.0
 10
102.5425780993644
 20
-148.9938340556335
 30
0.0
 10
102.4051187895029
 20
-148.9938340556335
 30
0.0
 10
102.2866075048103
 20
-148.9938340556335
 30
0.0
 10
102.1553493668223
 20
-149.0658365512752
 30
0.0
 10
102.1553493668223
 20
-149.2622069939345
 30
0.0
 10
102.1553493668223
 20
-149.5226562126194
 30
0.0
 10
102.386170764334
 20
-149.530924441784
 30
0.0
 10
102.5026149917355
 20
-149.5354030659148
 30
0.0
 10
102.5026149917355
 20
-149.5354030659148
 30
0.0
 10
102.5026149917355
 20
-149.7596787820045
 30
0.0
 10
102.5026149917355
 20
-149.7596787820045
 30
0.0
 10
102.3754909683297
 20
-149.7510660432914
 30
0.0
 10
102.2635253650591
 20
-149.7403862472871
 30
0.0
 10
102.1450140803665
 20
-149.6601155224808
 30
0.0
 10
101.9841281212054
 20
-149.5502169765013
 30
0.0
 10
101.9500216759014
 20
-149.3641818202979
 30
0.0
 10
101.9500216759014
 20
-149.2477375928964
 30
0.0
 10
101.9500216759014
 20
-148.9704074063338
 30
0.0
 10
102.1343342843623
 20
-148.7633571676703
 30
0.0
 10
102.407185846794
 20
-148.7633571676703
 30
0.0
 10
102.6355956774661
 20
-148.7633571676703
 30
0.0
 10
102.7351589369898
 20
-148.8794568855232
 30
0.0
 10
102.9615017103707
 20
-149.1884819505501
 30
0.0
  0
HATCH
  5
107
330
102
100
AcDbEntity
  8
_U+30EC_U+30A4_U+30E4_U+30FC 1
 62
   179
420
  2234388
100
AcDbHatch
 10
0.0
 20
0.0
 30
0.0
210
0.0
220
0.0
230
1.0
  2
SOLID
 70
     1
 71
     0
 91
        1
 92
        1
 93
        1
 72
     4
 94
        3
 73
     0
 74
     1
 95
       44
 96
       40
 40
0.0
 40
0.0
 40
0.0
 40
0.0
 40
1.0
 40
1.0
 40
1.0
 40
2.0
 40
2.0
 40
2.0
 40
3.0
 40
3.0
 40
3.0
 40
4.0
 40
4.0
 40
4.0
 40
5.0
 40
5.0
 40
5.0
 40
6.0
 40
6.0
 40
6.0
 40
7.0
 40
7.0
 40
7.0
 40
8.0
 40
8.0
 40
8.0
 40
9.0
 40
9.0
 40
9.0
 40
10.0
 40
10.0
 40
10.0
 40
11.0
 40
11.0
 40
11.0
 40
12.0
 40
12.0
 40
12.0
 40
13.0
 40
13.0
 40
13.0
 40
13.0
 10
102.9615017103707
 20
-149.1884819505501
 10
103.1199761026922
 20
-149.4062119852179
 10
103.1943901651736
 20
-149.4992295633196
 10
103.3380506469085
 20
-149.5481499192102
 10
103.3380506469085
 20
-149.5481499192102
 10
103.3380506469085
 20
-148.7695583395437
 10
103.3380506469085
 20
-148.7695583395437
 10
103.3380506469085
 20
-148.7695583395437
 10
103.5430338282809
 20
-148.7695583395437
 10
103.5430338282809
 20
-148.7695583395437
 10
103.5430338282809
 20
-148.7695583395437
 10
103.5430338282809
 20
-149.7975748323423
 10
103.5430338282809
 20
-149.7975748323423
 10
103.185432916912
 20
-149.765879953878
 10
103.1075737589453
 20
-149.7004231396582
 10
102.8092284899227
 20
-149.3152614644073
 10
102.6101019708753
 20
-149.0592908698532
 10
102.5425780993644
 20
-148.9938340556335
 10
102.4051187895029
 20
-148.9938340556335
 10
102.2866075048103
 20
-148.9938340556335
 10
102.1553493668223
 20
-149.0658365512752
 10
102.1553493668223
 20
-149.2622069939345
 10
102.1553493668223
 20
-149.5226562126194
 10
102.386170764334
 20
-149.530924441784
 10
102.5026149917355
 20
-149.5354030659148
 10
102.5026149917355
 20
-149.5354030659148
 10
102.5026149917355
 20
-149.7596787820045
 10
102.5026149917355
 20
-149.7596787820045
 10
102.3754909683297
 20
-149.7510660432914
 10
102.2635253650591
 20
-149.7403862472871
 10
102.1450140803665
 20
-149.6601155224808
 10
101.9841281212054
 20
-149.5502169765013
 10
101.9500216759014
 20
-149.3641818202979
 10
101.9500216759014
 20
-149.2477375928964
 10
101.9500216759014
 20
-148.9704074063338
 10
102.1343342843623
 20
-148.7633571676703
 10
102.407185846794
 20
-148.7633571676703
 10
102.6355956774661
 20
-148.7633571676703
 10
102.7351589369898
 20
-148.8794568855232
 10
102.9615017103707
 20
-149.1884819505501
 97
        0
 97
        0
 75
     2
 76
     1
 98
        0
  0
SPLINE
  5
108
330
102
100
AcDbEntity
  8
_U+30EC_U+30A4_U+30E4_U+30FC 1
370
     0
100
AcDbSpline
210
0.0
220
0.0
230
1.0
 70
    11
 71
     3
 72
    29
 73
    25
 74
     0
 42
0.0000000001
 43
0.0000000001
 12
1.0
 22
0.0
 32
0.0
 13
1.0
 23
0.0
 33
0.0
 40
0.0
 40
0.0
 40
0.0
 40
0.0
 40
1.0
 40
1.0
 40
1.0
 40
2.0
 40
2.0
 40
2.0
 40
3.0
 40
3.0
 40
3.0
 40
4.0
 40
4.0
 40
4.0
 40
5.0
 40
5.0
 40
5.0
 40
6.0
 40
6.0
 40
6.0
 40
7.0
 40
7.0
 40
7.0
 40
8.0
 40
8.0
 40
8.0
 40
8.0
 10
103.365266901242
 20
-147.7070908918927
 30
0.0
 10
103.5747287067452
 20
-147.8145778710325
 30
0.0
 10
103.5940212414626
 20
-147.9882106834891
 30
0.0
 10
103.5940212414626
 20
-148.1046549108905
 30
0.0
 10
103.5940212414626
 20
-148.2651963605032
 30
0.0
 10
103.5475124524117
 20
-148.4071342944954
 30
0.0
 10
103.365266901242
 20
-148.5022189298883
 30
0.0
 10
103.1709635158739
 20
-148.6059163039943
 30
0.0
 10
102.9339409464887
 20
-148.6248643291632
 30
0.0
 10
102.7709879300364
 20
-148.6248643291632
 30
0.0
 10
102.6273274483015
 20
-148.6248643291632
 30
0.0
 10
102.3754909683297
 20
-148.608327870834
 30
0.0
 10
102.1767089588308
 20
-148.5022189298883
 30
0.0
 10
101.9734483252011
 20
-148.3943874412
 30
0.0
 10
101.9500216759014
 20
-148.2335014820389
 30
0.0
 10
101.9500216759014
 20
-148.1046549108905
 30
0.0
 10
101.9500216759014
 20
-147.946180518569
 30
0.0
 10
101.9948079172096
 20
-147.8021755272856
 30
0.0
 10
102.1767089588308
 20
-147.7070908918927
 30
0.0
 10
102.3689452869078
 20
-147.607527632369
 30
0.0
 10
102.5976996271284
 20
-147.5844454926178
 30
0.0
 10
102.7709879300364
 20
-147.5844454926178
 30
0.0
 10
102.9422091756533
 20
-147.5844454926178
 30
0.0
 10
103.1730305731651
 20
-147.6051160655293
 30
0.0
 10
103.365266901242
 20
-147.7070908918927
 30
0.0
  0
SPLINE
  5
109
330
102
100
AcDbEntity
  8
_U+30EC_U+30A4_U+30E4_U+30FC 1
370
     0
100
AcDbSpline
210
0.0
220
0.0
230
1.0
 70
    11
 71
     3
 72
    17
 73
    13
 74
     0
 42
0.0000000001
 43
0.0000000001
 12
1.0
 22
0.0
 32
0.0
 13
1.0
 23
0.0
 33
0.0
 40
0.0
 40
0.0
 40
0.0
 40
0.0
 40
1.0
 40
1.0
 40
1.0
 40
2.0
 40
2.0
 40
2.0
 40
3.0
 40
3.0
 40
3.0
 40
4.0
 40
4.0
 40
4.0
 40
4.0
 10
102.1429470230754
 20
-148.1046549108905
 30
0.0
 10
102.1429470230754
 20
-148.3540798240226
 30
0.0
 10
102.4261338719629
 20
-148.400933122622
 30
0.0
 10
102.7709879300364
 20
-148.400933122622
 30
0.0
 10
103.0903482815191
 20
-148.400933122622
 30
0.0
 10
103.399373346546
 20
-148.3647596200269
 30
0.0
 10
103.399373346546
 20
-148.1046549108905
 30
0.0
 10
103.399373346546
 20
-147.8572970550496
 30
0.0
 10
103.1179090454011
 20
-147.808376699159
 30
0.0
 10
102.7709879300364
 20
-147.808376699159
 30
0.0
 10
102.4516275785538
 20
-147.808376699159
 30
0.0
 10
102.1429470230754
 20
-147.8466172590453
 30
0.0
 10
102.1429470230754
 20
-148.1046549108905
 30
0.0
  0
HATCH
  5
10A
330
102
100
AcDbEntity
  8
_U+30EC_U+30A4_U+30E4_U+30FC 1
 62
   179
420
  2234388
100
AcDbHatch
 10
0.0
 20
0.0
 30
0.0
210
0.0
220
0.0
230
1.0
  2
SOLID
 70
     1
 71
     0
 91
        2
 92
        1
 93
        1
 72
     4
 94
        3
 73
     0
 74
     1
 95
       29
 96
       25
 40
0.0
 40
0.0
 40
0.0
 40
0.0
 40
1.0
 40
1.0
 40
1.0
 40
2.0
 40
2.0
 40
2.0
 40
3.0
 40
3.0
 40
3.0
 40
4.0
 40
4.0
 40
4.0
 40
5.0
 40
5.0
 40
5.0
 40
6.0
 40
6.0
 40
6.0
 40
7.0
 40
7.0
 40
7.0
 40
8.0
 40
8.0
 40
8.0
 40
8.0
 10
103.365266901242
 20
-147.7070908918927
 10
103.5747287067452
 20
-147.8145778710325
 10
103.5940212414626
 20
-147.9882106834891
 10
103.5940212414626
 20
-148.1046549108905
 10
103.5940212414626
 20
-148.2651963605032
 10
103.5475124524117
 20
-148.4071342944954
 10
103.365266901242
 20
-148.5022189298883
 10
103.1709635158739
 20
-148.6059163039943
 10
102.9339409464887
 20
-148.6248643291632
 10
102.7709879300364
 20
-148.6248643291632
 10
102.6273274483015
 20
-148.6248643291632
 10
102.3754909683297
 20
-148.608327870834
 10
102.1767089588308
 20
-148.5022189298883
 10
101.9734483252011
 20
-148.3943874412
 10
101.9500216759014
 20
-148.2335014820389
 10
101.9500216759014
 20
-148.1046549108905
 10
101.9500216759014
 20
-147.946180518569
 10
101.9948079172096
 20
-147.8021755272856
 10
102.1767089588308
 20
-147.7070908918927
 10
102.3689452869078
 20
-147.607527632369
 10
102.5976996271284
 20
-147.5844454926178
 10
102.7709879300364
 20
-147.5844454926178
 10
102.9422091756533
 20
-147.5844454926178
 10
103.1730305731651
 20
-147.6051160655293
 10
103.365266901242
 20
-147.7070908918927
 97
        0
 97
        0
 92
        1
 93
        1
 72
     4
 94
        3
 73
     0
 74
     1
 95
       17
 96
       13
 40
0.0
 40
0.0
 40
0.0
 40
0.0
 40
1.0
 40
1.0
 40
1.0
 40
2.0
 40
2.0
 40
2.0
 40
3.0
 40
3.0
 40
3.0
 40
4.0
 40
4.0
 40
4.0
 40
4.0
 10
102.1429470230754
 20
-148.1046549108905
 10
102.1429470230754
 20
-148.3540798240226
 10
102.4261338719629
 20
-148.400933122622
 10
102.7709879300364
 20
-148.400933122622
 10
103.0903482815191
 20
-148.400933122622
 10
103.399373346546
 20
-148.3647596200269
 10
103.399373346546
 20
-148.1046549108905
 10
103.399373346546
 20
-147.8572970550496
 10
103.1179090454011
 20
-147.808376699159
 10
102.7709879300364
 20
-147.808376699159
 10
102.4516275785538
 20
-147.808376699159
 10
102.1429470230754
 20
-147.8466172590453
 10
102.1429470230754
 20
-148.1046549108905
 97
        0
 97
        0
 75
     2
 76
     1
 98
        0
  0
ENDBLK
  5
105
330
102
100
AcDbEntity
  8
0
100
AcDbBlockEnd
  0
BLOCK
  5
10D
330
10B
100
AcDbEntity
  8
0
100
AcDbBlockBegin
  2
block 9
 70
     0
 10
0.0
 20
0.0
 30
0.0
  3
block 9
  1

  0
SPLINE
  5
10F
330
10B
100
AcDbEntity
  8
_U+30EC_U+30A4_U+30E4_U+30FC 1
370
     0
100
AcDbSpline
210
0.0
220
0.0
230
1.0
 70
    11
 71
     3
 72
    62
 73
    58
 74
     0
 42
0.0000000001
 43
0.0000000001
 12
1.0
 22
0.0
 32
0.0
 13
1.0
 23
0.0
 33
0.0
 40
0.0
 40
0.0
 40
0.0
 40
0.0
 40
1.0
 40
1.0
 40
1.0
 40
2.0
 40
2.0
 40
2.0
 40
3.0
 40
3.0
 40
3.0
 40
4.0
 40
4.0
 40
4.0
 40
5.0
 40
5.0
 40
5.0
 40
6.0
 40
6.0
 40
6.0
 40
7.0
 40
7.0
 40
7.0
 40
8.0
 40
8.0
 40
8.0
 40
9.0
 40
9.0
 40
9.0
 40
10.0
 40
10.0
 40
10.0
 40
11.0
 40
11.0
 40
11.0
 40
12.0
 40
12.0
 40
12.0
 40
13.0
 40
13.0
 40
13.0
 40
14.0
 40
14.0
 40
14.0
 40
15.0
 40
15.0
 40
15.0
 40
16.0
 40
16.0
 40
16.0
 40
17.0
 40
17.0
 40
17.0
 40
18.0
 40
18.0
 40
18.0
 40
19.0
 40
19.0
 40
19.0
 40
19.0
 10
103.5940212414626
 20
-137.3773165889196
 30
0.0
 10
103.5940212414626
 20
-137.472745733861
 30
0.0
 10
103.5726616494541
 20
-137.6908202780773
 30
0.0
 10
103.3866264932506
 20
-137.8155327346433
 30
0.0
 10
103.2743163804314
 20
-137.8892577780277
 30
0.0
 10
103.1750976304562
 20
-137.8937364021585
 30
0.0
 10
103.0903482815191
 20
-137.8978705167408
 30
0.0
 10
103.0903482815191
 20
-137.8978705167408
 30
0.0
 10
103.0903482815191
 20
-137.6777289152334
 30
0.0
 10
103.0903482815191
 20
-137.6777289152334
 30
0.0
 10
103.1647623440005
 20
-137.6756618579422
 30
0.0
 10
103.399373346546
 20
-137.6653265714864
 30
0.0
 10
103.399373346546
 20
-137.3817952130504
 30
0.0
 10
103.399373346546
 20
-137.2443359031889
 30
0.0
 10
103.3294379081954
 20
-137.0920626827409
 30
0.0
 10
103.1010280775234
 20
-137.0920626827409
 30
0.0
 10
102.9849283596704
 20
-137.0920626827409
 30
0.0
 10
102.9360080037799
 20
-137.1299587330786
 30
0.0
 10
102.9043131253156
 20
-137.1616536115429
 30
0.0
 10
102.8302435723827
 20
-137.2357231644758
 30
0.0
 10
102.8174967190873
 20
-137.3521673918772
 30
0.0
 10
102.8174967190873
 20
-137.4069444100927
 30
0.0
 10
102.8174967190873
 20
-137.4262369448101
 30
0.0
 10
102.8195637763784
 20
-137.4620659378567
 30
0.0
 10
102.8236978909607
 20
-137.4896267017387
 30
0.0
 10
102.8236978909607
 20
-137.4896267017387
 30
0.0
 10
102.6293945055927
 20
-137.4896267017387
 30
0.0
 10
102.6293945055927
 20
-137.4896267017387
 30
0.0
 10
102.6355956774661
 20
-137.451730651401
 30
0.0
 10
102.6376627347573
 20
-137.4090114673839
 30
0.0
 10
102.6376627347573
 20
-137.4028102955104
 30
0.0
 10
102.6376627347573
 20
-137.3373534812907
 30
0.0
 10
102.6166476522972
 20
-137.1382269622432
 30
0.0
 10
102.379625082912
 20
-137.1382269622432
 30
0.0
 10
102.2022026654217
 20
-137.1382269622432
 30
0.0
 10
102.1470811376577
 20
-137.2698296097798
 30
0.0
 10
102.1470811376577
 20
-137.3793836462107
 30
0.0
 10
102.1470811376577
 20
-137.6439669794779
 30
0.0
 10
102.379625082912
 20
-137.652579718191
 30
0.0
 10
102.4516275785538
 20
-137.6567138327733
 30
0.0
 10
102.4516275785538
 20
-137.6567138327733
 30
0.0
 10
102.4516275785538
 20
-137.8596299568545
 30
0.0
 10
102.4516275785538
 20
-137.8596299568545
 30
0.0
 10
102.3269151219877
 20
-137.8513617276899
 30
0.0
 10
101.9500216759014
 20
-137.8238009638079
 30
0.0
 10
101.9500216759014
 20
-137.3669813024638
 30
0.0
 10
101.9500216759014
 20
-137.1427055863741
 30
0.0
 10
102.0771456993071
 20
-136.9015489024066
 30
0.0
 10
102.3730794014901
 20
-136.9015489024066
 30
0.0
 10
102.5594590672421
 20
-136.9015489024066
 30
0.0
 10
102.6417968493396
 20
-136.9966335377995
 30
0.0
 10
102.703119548977
 20
-137.0961967973232
 30
0.0
 10
102.730680312859
 20
-137.0348740976857
 30
0.0
 10
102.8112955472138
 20
-136.8529730560645
 30
0.0
 10
103.0882812242279
 20
-136.8529730560645
 30
0.0
 10
103.426934110428
 20
-136.8529730560645
 30
0.0
 10
103.5940212414626
 20
-137.1003309119055
 30
0.0
 10
103.5940212414626
 20
-137.3773165889196
 30
0.0
  0
HATCH
  5
110
330
10B
100
AcDbEntity
  8
_U+30EC_U+30A4_U+30E4_U+30FC 1
 62
   179
420
  2234388
100
AcDbHatch
 10
0.0
 20
0.0
 30
0.0
210
0.0
220
0.0
230
1.0
  2
SOLID
 70
     1
 71
     0
 91
        1
 92
        1
 93
        1
 72
     4
 94
        3
 73
     0
 74
     1
 95
       62
 96
       58
 40
0.0
 40
0.0
 40
0.0
 40
0.0
 40
1.0
 40
1.0
 40
1.0
 40
2.0
 40
2.0
 40
2.0
 40
3.0
 40
3.0
 40
3.0
 40
4.0
 40
4.0
 40
4.0
 40
5.0
 40
5.0
 40
5.0
 40
6.0
 40
6.0
 40
6.0
 40
7.0
 40
7.0
 40
7.0
 40
8.0
 40
8.0
 40
8.0
 40
9.0
 40
9.0
 40
9.0
 40
10.0
 40
10.0
 40
10.0
 40
11.0
 40
11.0
 40
11.0
 40
12.0
 40
12.0
 40
12.0
 40
13.0
 40
13.0
 40
13.0
 40
14.0
 40
14.0
 40
14.0
 40
15.0
 40
15.0
 40
15.0
 40
16.0
 40
16.0
 40
16.0
 40
17.0
 40
17.0
 40
17.0
 40
18.0
 40
18.0
 40
18.0
 40
19.0
 40
19.0
 40
19.0
 40
19.0
 10
103.5940212414626
 20
-137.3773165889196
 10
103.5940212414626
 20
-137.472745733861
 10
103.5726616494541
 20
-137.6908202780773
 10
103.3866264932506
 20
-137.8155327346433
 10
103.2743163804314
 20
-137.8892577780277
 10
103.1750976304562
 20
-137.8937364021585
 10
103.0903482815191
 20
-137.8978705167408
 10
103.0903482815191
 20
-137.8978705167408
 10
103.0903482815191
 20
-137.6777289152334
 10
103.0903482815191
 20
-137.6777289152334
 10
103.1647623440005
 20
-137.6756618579422
 10
103.399373346546
 20
-137.6653265714864
 10
103.399373346546
 20
-137.3817952130504
 10
103.399373346546
 20
-137.2443359031889
 10
103.3294379081954
 20
-137.0920626827409
 10
103.1010280775234
 20
-137.0920626827409
 10
102.9849283596704
 20
-137.0920626827409
 10
102.9360080037799
 20
-137.1299587330786
 10
102.9043131253156
 20
-137.1616536115429
 10
102.8302435723827
 20
-137.2357231644758
 10
102.8174967190873
 20
-137.3521673918772
 10
102.8174967190873
 20
-137.4069444100927
 10
102.8174967190873
 20
-137.4262369448101
 10
102.8195637763784
 20
-137.4620659378567
 10
102.8236978909607
 20
-137.4896267017387
 10
102.8236978909607
 20
-137.4896267017387
 10
102.6293945055927
 20
-137.4896267017387
 10
102.6293945055927
 20
-137.4896267017387
 10
102.6355956774661
 20
-137.451730651401
 10
102.6376627347573
 20
-137.4090114673839
 10
102.6376627347573
 20
-137.4028102955104
 10
102.6376627347573
 20
-137.3373534812907
 10
102.6166476522972
 20
-137.1382269622432
 10
102.379625082912
 20
-137.1382269622432
 10
102.2022026654217
 20
-137.1382269622432
 10
102.1470811376577
 20
-137.2698296097798
 10
102.1470811376577
 20
-137.3793836462107
 10
102.1470811376577
 20
-137.6439669794779
 10
102.379625082912
 20
-137.652579718191
 10
102.4516275785538
 20
-137.6567138327733
 10
102.4516275785538
 20
-137.6567138327733
 10
102.4516275785538
 20
-137.8596299568545
 10
102.4516275785538
 20
-137.8596299568545
 10
102.3269151219877
 20
-137.8513617276899
 10
101.9500216759014
 20
-137.8238009638079
 10
101.9500216759014
 20
-137.3669813024638
 10
101.9500216759014
 20
-137.1427055863741
 10
102.0771456993071
 20
-136.9015489024066
 10
102.3730794014901
 20
-136.9015489024066
 10
102.5594590672421
 20
-136.9015489024066
 10
102.6417968493396
 20
-136.9966335377995
 10
102.703119548977
 20
-137.0961967973232
 10
102.730680312859
 20
-137.0348740976857
 10
102.8112955472138
 20
-136.8529730560645
 10
103.0882812242279
 20
-136.8529730560645
 10
103.426934110428
 20
-136.8529730560645
 10
103.5940212414626
 20
-137.1003309119055
 10
103.5940212414626
 20
-137.3773165889196
 97
        0
 97
        0
 75
     2
 76
     1
 98
        0
  0
ENDBLK
  5
10E
330
10B
100
AcDbEntity
  8
0
100
AcDbBlockEnd
  0
BLOCK
  5
113
330
111
100
AcDbEntity
  8
0
100
AcDbBlockBegin
  2
block 10
 70
     0
 10
0.0
 20
0.0
 30
0.0
  3
block 10
  1

  0
SPLINE
  5
115
330
111
100
AcDbEntity
  8
_U+30EC_U+30A4_U+30E4_U+30FC 1
370
     0
100
AcDbSpline
210
0.0
220
0.0
230
1.0
 70
    11
 71
     3
 72
    62
 73
    58
 74
     0
 42
0.0000000001
 43
0.0000000001
 12
1.0
 22
0.0
 32
0.0
 13
1.0
 23
0.0
 33
0.0
 40
0.0
 40
0.0
 40
0.0
 40
0.0
 40
1.0
 40
1.0
 40
1.0
 40
2.0
 40
2.0
 40
2.0
 40
3.0
 40
3.0
 40
3.0
 40
4.0
 40
4.0
 40
4.0
 40
5.0
 40
5.0
 40
5.0
 40
6.0
 40
6.0
 40
6.0
 40
7.0
 40
7.0
 40
7.0
 40
8.0
 40
8.0
 40
8.0
 40
9.0
 40
9.0
 40
9.0
 40
10.0
 40
10.0
 40
10.0
 40
11.0
 40
11.0
 40
11.0
 40
12.0
 40
12.0
 40
12.0
 40
13.0
 40
13.0
 40
13.0
 40
14.0
 40
14.0
 40
14.0
 40
15.0
 40
15.0
 40
15.0
 40
16.0
 40
16.0
 40
16.0
 40
17.0
 40
17.0
 40
17.0
 40
18.0
 40
18.0
 40
18.0
 40
19.0
 40
19.0
 40
19.0
 40
19.0
 10
103.5940212414626
 20
-118.8142808405221
 30
0.0
 10
103.5940212414626
 20
-118.9095377306893
 30
0.0
 10
103.5726616494541
 20
-119.1274400201313
 30
0.0
 10
103.3866264932506
 20
-119.2521524766974
 30
0.0
 10
103.2743163804314
 20
-119.3262220296303
 30
0.0
 10
103.1750976304562
 20
-119.3305283989868
 30
0.0
 10
103.0903482815191
 20
-119.3346625135691
 30
0.0
 10
103.0903482815191
 20
-119.3346625135691
 30
0.0
 10
103.0903482815191
 20
-119.1146931668359
 30
0.0
 10
103.0903482815191
 20
-119.1146931668359
 30
0.0
 10
103.1647623440005
 20
-119.1126261095448
 30
0.0
 10
103.399373346546
 20
-119.1019463135405
 30
0.0
 10
103.399373346546
 20
-118.8185872098787
 30
0.0
 10
103.399373346546
 20
-118.680955645243
 30
0.0
 10
103.3294379081954
 20
-118.5286824247949
 30
0.0
 10
103.1010280775234
 20
-118.5286824247949
 30
0.0
 10
102.9849283596704
 20
-118.5286824247949
 30
0.0
 10
102.9360080037799
 20
-118.5667507299069
 30
0.0
 10
102.9043131253156
 20
-118.5984456083712
 30
0.0
 10
102.8302435723827
 20
-118.6725151613041
 30
0.0
 10
102.8174967190873
 20
-118.7889593887055
 30
0.0
 10
102.8174967190873
 20
-118.8439086616953
 30
0.0
 10
102.8174967190873
 20
-118.8628566868641
 30
0.0
 10
102.8195637763784
 20
-118.898857934685
 30
0.0
 10
102.8236978909607
 20
-118.926418698567
 30
0.0
 10
102.8236978909607
 20
-118.926418698567
 30
0.0
 10
102.6293945055927
 20
-118.926418698567
 30
0.0
 10
102.6293945055927
 20
-118.926418698567
 30
0.0
 10
102.6355956774661
 20
-118.888350393455
 30
0.0
 10
102.6376627347573
 20
-118.8459757189864
 30
0.0
 10
102.6376627347573
 20
-118.8396022923387
 30
0.0
 10
102.6376627347573
 20
-118.774145478119
 30
0.0
 10
102.6166476522972
 20
-118.5751912138458
 30
0.0
 10
102.379625082912
 20
-118.5751912138458
 30
0.0
 10
102.2022026654217
 20
-118.5751912138458
 30
0.0
 10
102.1470811376577
 20
-118.7064493518338
 30
0.0
 10
102.1470811376577
 20
-118.8163478978133
 30
0.0
 10
102.1470811376577
 20
-119.0807589763062
 30
0.0
 10
102.379625082912
 20
-119.0893717150193
 30
0.0
 10
102.4516275785538
 20
-119.0935058296016
 30
0.0
 10
102.4516275785538
 20
-119.0935058296016
 30
0.0
 10
102.4516275785538
 20
-119.2965942084571
 30
0.0
 10
102.4516275785538
 20
-119.2965942084571
 30
0.0
 10
102.3269151219877
 20
-119.2881537245182
 30
0.0
 10
101.9500216759014
 20
-119.2605929606362
 30
0.0
 10
101.9500216759014
 20
-118.8037732992921
 30
0.0
 10
101.9500216759014
 20
-118.5794975832024
 30
0.0
 10
102.0771456993071
 20
-118.3383408992349
 30
0.0
 10
102.3730794014901
 20
-118.3383408992349
 30
0.0
 10
102.5594590672421
 20
-118.3383408992349
 30
0.0
 10
102.6417968493396
 20
-118.4334255346278
 30
0.0
 10
102.703119548977
 20
-118.5329887941515
 30
0.0
 10
102.730680312859
 20
-118.4714938397398
 30
0.0
 10
102.8112955472138
 20
-118.2895927981186
 30
0.0
 10
103.0882812242279
 20
-118.2895927981186
 30
0.0
 10
103.426934110428
 20
-118.2895927981186
 30
0.0
 10
103.5940212414626
 20
-118.5371229087338
 30
0.0
 10
103.5940212414626
 20
-118.8142808405221
 30
0.0
  0
HATCH
  5
116
330
111
100
AcDbEntity
  8
_U+30EC_U+30A4_U+30E4_U+30FC 1
 62
   179
420
  2234388
100
AcDbHatch
 10
0.0
 20
0.0
 30
0.0
210
0.0
220
0.0
230
1.0
  2
SOLID
 70
     1
 71
     0
 91
        1
 92
        1
 93
        1
 72
     4
 94
        3
 73
     0
 74
     1
 95
       62
 96
       58
 40
0.0
 40
0.0
 40
0.0
 40
0.0
 40
1.0
 40
1.0
 40
1.0
 40
2.0
 40
2.0
 40
2.0
 40
3.0
 40
3.0
 40
3.0
 40
4.0
 40
4.0
 40
4.0
 40
5.0
 40
5.0
 40
5.0
 40
6.0
 40
6.0
 40
6.0
 40
7.0
 40
7.0
 40
7.0
 40
8.0
 40
8.0
 40
8.0
 40
9.0
 40
9.0
 40
9.0
 40
10.0
 40
10.0
 40
10.0
 40
11.0
 40
11.0
 40
11.0
 40
12.0
 40
12.0
 40
12.0
 40
13.0
 40
13.0
 40
13.0
 40
14.0
 40
14.0
 40
14.0
 40
15.0
 40
15.0
 40
15.0
 40
16.0
 40
16.0
 40
16.0
 40
17.0
 40
17.0
 40
17.0
 40
18.0
 40
18.0
 40
18.0
 40
19.0
 40
19.0
 40
19.0
 40
19.0
 10
103.5940212414626
 20
-118.8142808405221
 10
103.5940212414626
 20
-118.9095377306893
 10
103.5726616494541
 20
-119.1274400201313
 10
103.3866264932506
 20
-119.2521524766974
 10
103.2743163804314
 20
-119.3262220296303
 10
103.1750976304562
 20
-119.3305283989868
 10
103.0903482815191
 20
-119.3346625135691
 10
103.0903482815191
 20
-119.3346625135691
 10
103.0903482815191
 20
-119.1146931668359
 10
103.0903482815191
 20
-119.1146931668359
 10
103.1647623440005
 20
-119.1126261095448
 10
103.399373346546
 20
-119.1019463135405
 10
103.399373346546
 20
-118.8185872098787
 10
103.399373346546
 20
-118.680955645243
 10
103.3294379081954
 20
-118.5286824247949
 10
103.1010280775234
 20
-118.5286824247949
 10
102.9849283596704
 20
-118.5286824247949
 10
102.9360080037799
 20
-118.5667507299069
 10
102.9043131253156
 20
-118.5984456083712
 10
102.8302435723827
 20
-118.6725151613041
 10
102.8174967190873
 20
-118.7889593887055
 10
102.8174967190873
 20
-118.8439086616953
 10
102.8174967190873
 20
-118.8628566868641
 10
102.8195637763784
 20
-118.898857934685
 10
102.8236978909607
 20
-118.926418698567
 10
102.8236978909607
 20
-118.926418698567
 10
102.6293945055927
 20
-118.926418698567
 10
102.6293945055927
 20
-118.926418698567
 10
102.6355956774661
 20
-118.888350393455
 10
102.6376627347573
 20
-118.8459757189864
 10
102.6376627347573
 20
-118.8396022923387
 10
102.6376627347573
 20
-118.774145478119
 10
102.6166476522972
 20
-118.5751912138458
 10
102.379625082912
 20
-118.5751912138458
 10
102.2022026654217
 20
-118.5751912138458
 10
102.1470811376577
 20
-118.7064493518338
 10
102.1470811376577
 20
-118.8163478978133
 10
102.1470811376577
 20
-119.0807589763062
 10
102.379625082912
 20
-119.0893717150193
 10
102.4516275785538
 20
-119.0935058296016
 10
102.4516275785538
 20
-119.0935058296016
 10
102.4516275785538
 20
-119.2965942084571
 10
102.4516275785538
 20
-119.2965942084571
 10
102.3269151219877
 20
-119.2881537245182
 10
101.9500216759014
 20
-119.2605929606362
 10
101.9500216759014
 20
-118.8037732992921
 10
101.9500216759014
 20
-118.5794975832024
 10
102.0771456993071
 20
-118.3383408992349
 10
102.3730794014901
 20
-118.3383408992349
 10
102.5594590672421
 20
-118.3383408992349
 10
102.6417968493396
 20
-118.4334255346278
 10
102.703119548977
 20
-118.5329887941515
 10
102.730680312859
 20
-118.4714938397398
 10
102.8112955472138
 20
-118.2895927981186
 10
103.0882812242279
 20
-118.2895927981186
 10
103.426934110428
 20
-118.2895927981186
 10
103.5940212414626
 20
-118.5371229087338
 10
103.5940212414626
 20
-118.8142808405221
 97
        0
 97
        0
 75
     2
 76
     1
 98
        0
  0
SPLINE
  5
117
330
111
100
AcDbEntity
  8
_U+30EC_U+30A4_U+30E4_U+30FC 1
370
     0
100
AcDbSpline
210
0.0
220
0.0
230
1.0
 70
    11
 71
     3
 72
    53
 73
    49
 74
     0
 42
0.0000000001
 43
0.0000000001
 12
1.0
 22
0.0
 32
0.0
 13
1.0
 23
0.0
 33
0.0
 40
0.0
 40
0.0
 40
0.0
 40
0.0
 40
1.0
 40
1.0
 40
1.0
 40
2.0
 40
2.0
 40
2.0
 40
3.0
 40
3.0
 40
3.0
 40
4.0
 40
4.0
 40
4.0
 40
5.0
 40
5.0
 40
5.0
 40
6.0
 40
6.0
 40
6.0
 40
7.0
 40
7.0
 40
7.0
 40
8.0
 40
8.0
 40
8.0
 40
9.0
 40
9.0
 40
9.0
 40
10.0
 40
10.0
 40
10.0
 40
11.0
 40
11.0
 40
11.0
 40
12.0
 40
12.0
 40
12.0
 40
13.0
 40
13.0
 40
13.0
 40
14.0
 40
14.0
 40
14.0
 40
15.0
 40
15.0
 40
15.0
 40
16.0
 40
16.0
 40
16.0
 40
16.0
 10
103.5940212414626
 20
-117.6479437639908
 30
0.0
 10
103.5940212414626
 20
-117.7263196862802
 30
0.0
 10
103.5771402735849
 20
-117.8277777483208
 30
0.0
 10
103.5134060071078
 20
-117.9294080651357
 30
0.0
 10
103.4035074611283
 20
-118.102868622818
 30
0.0
 10
103.2722493231403
 20
-118.1240559600523
 30
0.0
 10
103.1647623440005
 20
-118.1430039852212
 30
0.0
 10
103.1647623440005
 20
-118.1430039852212
 30
0.0
 10
103.1647623440005
 20
-117.9209675811968
 30
0.0
 10
103.1647623440005
 20
-117.9209675811968
 30
0.0
 10
103.3631998439509
 20
-117.8658460534328
 30
0.0
 10
103.392827665124
 20
-117.7388942848014
 30
0.0
 10
103.392827665124
 20
-117.6458767066997
 30
0.0
 10
103.392827665124
 20
-117.506350339547
 30
0.0
 10
103.2936089151488
 20
-117.3539048643247
 30
0.0
 10
103.0607204603459
 20
-117.3539048643247
 30
0.0
 10
102.8050943753404
 20
-117.3539048643247
 30
0.0
 10
102.7351589369898
 20
-117.5337388486548
 30
0.0
 10
102.7351589369898
 20
-117.6543171906385
 30
0.0
 10
102.7351589369898
 20
-117.6860120691028
 30
0.0
 10
102.7351589369898
 20
-117.8277777483208
 30
0.0
 10
102.8643500176867
 20
-117.9166612118403
 30
0.0
 10
102.8643500176867
 20
-117.9166612118403
 30
0.0
 10
102.8450574829693
 20
-118.0921888268138
 30
0.0
 10
102.8450574829693
 20
-118.0921888268138
 30
0.0
 10
102.8450574829693
 20
-118.0921888268138
 30
0.0
 10
101.9989420317919
 20
-117.97161048483
 30
0.0
 10
101.9989420317919
 20
-117.97161048483
 30
0.0
 10
101.9989420317919
 20
-117.97161048483
 30
0.0
 10
101.9989420317919
 20
-117.1931911599378
 30
0.0
 10
101.9989420317919
 20
-117.1931911599378
 30
0.0
 10
101.9989420317919
 20
-117.1931911599378
 30
0.0
 10
102.1935899267086
 20
-117.1931911599378
 30
0.0
 10
102.1935899267086
 20
-117.1931911599378
 30
0.0
 10
102.1935899267086
 20
-117.1931911599378
 30
0.0
 10
102.1935899267086
 20
-117.808829723152
 30
0.0
 10
102.1935899267086
 20
-117.808829723152
 30
0.0
 10
102.1935899267086
 20
-117.808829723152
 30
0.0
 10
102.6166476522972
 20
-117.8742865373717
 30
0.0
 10
102.6166476522972
 20
-117.8742865373717
 30
0.0
 10
102.5825412069933
 20
-117.8129638377343
 30
0.0
 10
102.5425780993644
 20
-117.7304538008625
 30
0.0
 10
102.5425780993644
 20
-117.6121147709442
 30
0.0
 10
102.5425780993644
 20
-117.3582112336813
 30
0.0
 10
102.7286132555679
 20
-117.1211886642961
 30
0.0
 10
103.0417724351771
 20
-117.1211886642961
 30
0.0
 10
103.3590657293686
 20
-117.1211886642961
 30
0.0
 10
103.5940212414626
 20
-117.3454643803859
 30
0.0
 10
103.5940212414626
 20
-117.6479437639908
 30
0.0
  0
HATCH
  5
118
330
111
100
AcDbEntity
  8
_U+30EC_U+30A4_U+30E4_U+30FC 1
 62
   179
420
  2234388
100
AcDbHatch
 10
0.0
 20
0.0
 30
0.0
210
0.0
220
0.0
230
1.0
  2
SOLID
 70
     1
 71
     0
 91
        1
 92
        1
 93
        1
 72
     4
 94
        3
 73
     0
 74
     1
 95
       53
 96
       49
 40
0.0
 40
0.0
 40
0.0
 40
0.0
 40
1.0
 40
1.0
 40
1.0
 40
2.0
 40
2.0
 40
2.0
 40
3.0
 40
3.0
 40
3.0
 40
4.0
 40
4.0
 40
4.0
 40
5.0
 40
5.0
 40
5.0
 40
6.0
 40
6.0
 40
6.0
 40
7.0
 40
7.0
 40
7.0
 40
8.0
 40
8.0
 40
8.0
 40
9.0
 40
9.0
 40
9.0
 40
10.0
 40
10.0
 40
10.0
 40
11.0
 40
11.0
 40
11.0
 40
12.0
 40
12.0
 40
12.0
 40
13.0
 40
13.0
 40
13.0
 40
14.0
 40
14.0
 40
14.0
 40
15.0
 40
15.0
 40
15.0
 40
16.0
 40
16.0
 40
16.0
 40
16.0
 10
103.5940212414626
 20
-117.6479437639908
 10
103.5940212414626
 20
-117.7263196862802
 10
103.5771402735849
 20
-117.8277777483208
 10
103.5134060071078
 20
-117.9294080651357
 10
103.4035074611283
 20
-118.102868622818
 10
103.2722493231403
 20
-118.1240559600523
 10
103.1647623440005
 20
-118.1430039852212
 10
103.1647623440005
 20
-118.1430039852212
 10
103.1647623440005
 20
-117.9209675811968
 10
103.1647623440005
 20
-117.9209675811968
 10
103.3631998439509
 20
-117.8658460534328
 10
103.392827665124
 20
-117.7388942848014
 10
103.392827665124
 20
-117.6458767066997
 10
103.392827665124
 20
-117.506350339547
 10
103.2936089151488
 20
-117.3539048643247
 10
103.0607204603459
 20
-117.3539048643247
 10
102.8050943753404
 20
-117.3539048643247
 10
102.7351589369898
 20
-117.5337388486548
 10
102.7351589369898
 20
-117.6543171906385
 10
102.7351589369898
 20
-117.6860120691028
 10
102.7351589369898
 20
-117.8277777483208
 10
102.8643500176867
 20
-117.9166612118403
 10
102.8643500176867
 20
-117.9166612118403
 10
102.8450574829693
 20
-118.0921888268138
 10
102.8450574829693
 20
-118.0921888268138
 10
102.8450574829693
 20
-118.0921888268138
 10
101.9989420317919
 20
-117.97161048483
 10
101.9989420317919
 20
-117.97161048483
 10
101.9989420317919
 20
-117.97161048483
 10
101.9989420317919
 20
-117.1931911599378
 10
101.9989420317919
 20
-117.1931911599378
 10
101.9989420317919
 20
-117.1931911599378
 10
102.1935899267086
 20
-117.1931911599378
 10
102.1935899267086
 20
-117.1931911599378
 10
102.1935899267086
 20
-117.1931911599378
 10
102.1935899267086
 20
-117.808829723152
 10
102.1935899267086
 20
-117.808829723152
 10
102.1935899267086
 20
-117.808829723152
 10
102.6166476522972
 20
-117.8742865373717
 10
102.6166476522972
 20
-117.8742865373717
 10
102.5825412069933
 20
-117.8129638377343
 10
102.5425780993644
 20
-117.7304538008625
 10
102.5425780993644
 20
-117.6121147709442
 10
102.5425780993644
 20
-117.3582112336813
 10
102.7286132555679
 20
-117.1211886642961
 10
103.0417724351771
 20
-117.1211886642961
 10
103.3590657293686
 20
-117.1211886642961
 10
103.5940212414626
 20
-117.3454643803859
 10
103.5940212414626
 20
-117.6479437639908
 97
        0
 97
        0
 75
     2
 76
     1
 98
        0
  0
ENDBLK
  5
114
330
111
100
AcDbEntity
  8
0
100
AcDbBlockEnd
  0
BLOCK
  5
11B
330
119
100
AcDbEntity
  8
0
100
AcDbBlockBegin
  2
block 11
 70
     0
 10
0.0
 20
0.0
 30
0.0
  3
block 11
  1

  0
POLYLINE
  5
11D
330
119
100
AcDbEntity
  8
_U+30EC_U+30A4_U+30E4_U+30FC 1
 62
   179
420
  2234388
370
    25
100
AcDb2dPolyline
 66
     1
 10
0.0
 20
0.0
 30
0.0
  0
VERTEX
  5
11E
330
11D
100
AcDbEntity
  8
_U+30EC_U+30A4_U+30E4_U+30FC 1
 62
   179
420
  2234388
370
    25
100
AcDbVertex
100
AcDb2dVertex
 10
78.66531493752507
 20
-136.7761424658061
 30
0.0
  0
VERTEX
  5
11F
330
11D
100
AcDbEntity
  8
_U+30EC_U+30A4_U+30E4_U+30FC 1
 62
   179
420
  2234388
370
    25
100
AcDbVertex
100
AcDb2dVertex
 10
78.66531493752507
 20
-100.7297677525953
 30
0.0
  0
VERTEX
  5
120
330
11D
100
AcDbEntity
  8
_U+30EC_U+30A4_U+30E4_U+30FC 1
 62
   179
420
  2234388
370
    25
100
AcDbVertex
100
AcDb2dVertex
 10
79.81544101929401
 20
-100.7297677525953
 30
0.0
  0
VERTEX
  5
121
330
11D
100
AcDbEntity
  8
_U+30EC_U+30A4_U+30E4_U+30FC 1
 62
   179
420
  2234388
370
    25
100
AcDbVertex
100
AcDb2dVertex
 10
79.81184268605249
 20
-135.7298741327343
 30
0.0
  0
VERTEX
  5
122
330
11D
100
AcDbEntity
  8
_U+30EC_U+30A4_U+30E4_U+30FC 1
 62
   179
420
  2234388
370
    25
100
AcDbVertex
100
AcDb2dVertex
 10
96.3892933742376
 20
-138.7298610764286
 30
0.0
  0
VERTEX
  5
123
330
11D
100
AcDbEntity
  8
_U+30EC_U+30A4_U+30E4_U+30FC 1
 62
   179
420
  2234388
370
    25
100
AcDbVertex
100
AcDb2dVertex
 10
96.39239781860283
 20
-158.6948960714376
 30
0.0
  0
VERTEX
  5
124
330
11D
100
AcDbEntity
  8
_U+30EC_U+30A4_U+30E4_U+30FC 1
 62
   179
420
  2234388
370
    25
100
AcDbVertex
100
AcDb2dVertex
 10
92.36198236587174
 20
-158.6948960714376
 30
0.0
  0
VERTEX
  5
125
330
11D
100
AcDbEntity
  8
_U+30EC_U+30A4_U+30E4_U+30FC 1
 62
   179
420
  2234388
370
    25
100
AcDbVertex
100
AcDb2dVertex
 10
92.36198236587174
 20
-157.6000149606001
 30
0.0
  0
VERTEX
  5
126
330
11D
100
AcDbEntity
  8
_U+30EC_U+30A4_U+30E4_U+30FC 1
 62
   179
420
  2234388
370
    25
100
AcDbVertex
100
AcDb2dVertex
 10
95.27550340265275
 20
-157.6000149606001
 30
0.0
  0
VERTEX
  5
127
330
11D
100
AcDbEntity
  8
_U+30EC_U+30A4_U+30E4_U+30FC 1
 62
   179
420
  2234388
370
    25
100
AcDbVertex
100
AcDb2dVertex
 10
95.27067034722049
 20
-139.7799394094995
 30
0.0
  0
VERTEX
  5
128
330
11D
100
AcDbEntity
  8
_U+30EC_U+30A4_U+30E4_U+30FC 1
 62
   179
420
  2234388
370
    25
100
AcDbVertex
100
AcDb2dVertex
 10
78.66531493752507
 20
-136.7761424658061
 30
0.0
  0
SEQEND
  5
129
330
11D
100
AcDbEntity
  8
_U+30EC_U+30A4_U+30E4_U+30FC 1
 62
   179
420
  2234388
370
    25
  0
ENDBLK
  5
11C
330
119
100
AcDbEntity
  8
0
100
AcDbBlockEnd
  0
ENDSEC
  0
SECTION
  2
ENTITIES
  0
INSERT
  5
42
330
1F
100
AcDbEntity
  8
_U+30EC_U+30A4_U+30E4_U+30FC 1
100
AcDbBlockReference
  2
block 2
 10
0.0
 20
0.0
 30
0.0
  0
ENDSEC
  0
SECTION
  2
OBJECTS
  0
DICTIONARY
  5
C
330
0
100
AcDbDictionary
281
     1
  3
ACAD_GROUP
350
D
  3
ACAD_LAYOUT
350
1A
  3
ACAD_MATERIAL
350
3B
  3
ACAD_MLEADERSTYLE
350
12B
  3
ACAD_MLINESTYLE
350
17
  3
ACAD_PLOTSETTINGS
350
19
  3
ACAD_PLOTSTYLENAME
350
E
  3
ACAD_TABLESTYLE
350
12A
  3
ACAD_VISUALSTYLE
350
2A
  0
SUN
  5
3F
330
29
100
AcDbSun
 90
        1
290
     0
 63
     7
421
 16777215
 40
1.0
291
     1
 91
  2455826
 92
 54000000
292
     0
 70
     2
 71
   256
280
     1
  0
DICTIONARY
  5
D
102
{ACAD_REACTORS
330
C
102
}
330
C
100
AcDbDictionary
281
     1
  0
DICTIONARY
  5
1A
102
{ACAD_REACTORS
330
C
102
}
330
C
100
AcDbDictionary
281
     1
  3
Layout1
350
1E
  3
Layout2
350
26
  3
Model
350
22
  0
DICTIONARY
  5
3B
102
{ACAD_REACTORS
330
C
102
}
330
C
100
AcDbDictionary
281
     1
  3
ByBlock
350
3D
  3
ByLayer
350
3C
  3
Global
350
3E
  0
DICTIONARY
  5
12B
102
{ACAD_REACTORS
330
C
102
}
330
C
100
AcDbDictionary
281
     1
  0
DICTIONARY
  5
17
102
{ACAD_REACTORS
330
C
102
}
330
C
100
AcDbDictionary
281
     1
  3
Standard
350
18
  0
DICTIONARY
  5
19
102
{ACAD_REACTORS
330
C
102
}
330
C
100
AcDbDictionary
281
     1
  0
ACDBDICTIONARYWDFLT
  5
E
102
{ACAD_REACTORS
330
C
102
}
330
C
100
AcDbDictionary
281
     1
  3
Normal
350
F
100
AcDbDictionaryWithDefault
340
F
  0
DICTIONARY
  5
12A
102
{ACAD_REACTORS
330
C
102
}
330
C
100
AcDbDictionary
281
     1
  0
DICTIONARY
  5
2A
102
{ACAD_REACTORS
330
C
102
}
330
C
100
AcDbDictionary
281
     1
  3
2dWireframe
350
2F
  3
3D Hidden
350
31
  3
3dWireframe
350
30
  3
Basic
350
32
  3
Brighten
350
36
  3
ColorChange
350
3A
  3
Conceptual
350
34
  3
Dim
350
35
  3
Facepattern
350
39
  3
Flat
350
2B
  3
FlatWithEdges
350
2C
  3
Gouraud
350
2D
  3
GouraudWithEdges
350
2E
  3
Linepattern
350
38
  3
Realistic
350
33
  3
Thicken
350
37
  0
LAYOUT
  5
1E
102
{ACAD_REACTORS
330
1A
102
}
330
1A
100
AcDbPlotSettings
  1

  2
none_device
  4

  6

 40
0.0
 41
0.0
 42
0.0
 43
0.0
 44
0.0
 45
0.0
 46
0.0
 47
0.0
 48
0.0
 49
0.0
140
0.0
141
0.0
142
1.0
143
1.0
 70
   688
 72
     0
 73
     0
 74
     5
  7

 75
    16
 76
     0
 77
     2
 78
   300
147
1.0
148
0.0
149
0.0
100
AcDbLayout
  1
Layout1
 70
     1
 71
     1
 10
0.0
 20
0.0
 11
12.0
 21
9.0
 12
0.0
 22
0.0
 32
0.0
 14
1.000000000000000E+20
 24
1.000000000000000E+20
 34
1.000000000000000E+20
 15
-1.000000000000000E+20
 25
-1.000000000000000E+20
 35
-1.000000000000000E+20
146
0.0
 13
0.0
 23
0.0
 33
0.0
 16
1.0
 26
0.0
 36
0.0
 17
0.0
 27
1.0
 37
0.0
 76
     0
330
1B
  0
LAYOUT
  5
26
102
{ACAD_REACTORS
330
1A
102
}
330
1A
100
AcDbPlotSettings
  1

  2
none_device
  4

  6

 40
0.0
 41
0.0
 42
0.0
 43
0.0
 44
0.0
 45
0.0
 46
0.0
 47
0.0
 48
0.0
 49
0.0
140
0.0
141
0.0
142
1.0
143
1.0
 70
   688
 72
     0
 73
     0
 74
     5
  7

 75
    16
 76
     0
 77
     2
 78
   300
147
1.0
148
0.0
149
0.0
100
AcDbLayout
  1
Layout2
 70
     1
 71
     2
 10
0.0
 20
0.0
 11
0.0
 21
0.0
 12
0.0
 22
0.0
 32
0.0
 14
0.0
 24
0.0
 34
0.0
 15
0.0
 25
0.0
 35
0.0
146
0.0
 13
0.0
 23
0.0
 33
0.0
 16
1.0
 26
0.0
 36
0.0
 17
0.0
 27
1.0
 37
0.0
 76
     0
330
23
  0
LAYOUT
  5
22
102
{ACAD_REACTORS
330
1A
102
}
330
1A
100
AcDbPlotSettings
  1

  2
none_device
  4

  6

 40
0.0
 41
0.0
 42
0.0
 43
0.0
 44
0.0
 45
0.0
 46
0.0
 47
0.0
 48
0.0
 49
0.0
140
0.0
141
0.0
142
1.0
143
1.0
 70
  1712
 72
     0
 73
     0
 74
     0
  7

 75
     0
 76
     0
 77
     2
 78
   300
147
1.0
148
0.0
149
0.0
100
AcDbLayout
  1
Model
 70
     1
 71
     0
 10
0.0
 20
0.0
 11
12.0
 21
9.0
 12
0.0
 22
0.0
 32
0.0
 14
1.000000000000000E+20
 24
1.000000000000000E+20
 34
1.000000000000000E+20
 15
-1.000000000000000E+20
 25
-1.000000000000000E+20
 35
-1.000000000000000E+20
146
0.0
 13
0.0
 23
0.0
 33
0.0
 16
1.0
 26
0.0
 36
0.0
 17
0.0
 27
1.0
 37
0.0
 76
     0
330
1F
331
29
  0
MATERIAL
  5
3D
102
{ACAD_REACTORS
330
3B
102
}
330
3B
100
AcDbMaterial
  1
ByBlock
 72
     1
 94
      127
  0
MATERIAL
  5
3C
102
{ACAD_REACTORS
330
3B
102
}
330
3B
100
AcDbMaterial
  1
ByLayer
 72
     1
 94
      127
  0
MATERIAL
  5
3E
102
{ACAD_REACTORS
330
3B
102
}
330
3B
100
AcDbMaterial
  1
Global
 72
     1
 94
      127
  0
MLINESTYLE
  5
18
102
{ACAD_REACTORS
330
17
102
}
330
17
100
AcDbMlineStyle
  2
Standard
 70
     0
  3

 62
   256
 51
90.0
 52
90.0
 71
     2
 49
0.5
 62
   256
  6
BYLAYER
 49
-0.5
 62
   256
  6
BYLAYER
  0
ACDBPLACEHOLDER
  5
F
102
{ACAD_REACTORS
330
E
102
}
330
E
  0
VISUALSTYLE
  5
2F
102
{ACAD_REACTORS
330
2A
102
}
330
2A
100
AcDbVisualStyle
  2
2dWireframe
 70
     4
177
     2
291
     0
 71
     0
176
     1
 72
     2
176
     1
 73
     0
176
     1
 90
        0
176
     1
 40
-0.6
176
     1
 41
-30.0
176
     1
 62
     5
 63
     7
421
 16777215
176
     1
 74
     1
176
     1
 91
        4
176
     1
 64
     7
176
     1
 65
   257
176
     1
 75
     1
176
     1
175
     1
176
     1
 42
1.0
176
     1
 92
        0
176
     1
 66
   257
176
     1
 43
1.0
176
     1
 76
     1
176
     1
 77
     6
176
     1
 78
     2
176
     1
 67
     7
176
     1
 79
     5
176
     1
170
     0
176
     1
171
     0
176
     1
290
     0
176
     1
 93
        1
176
     1
 44
0.0
176
     1
173
     0
176
     1
  0
VISUALSTYLE
  5
31
102
{ACAD_REACTORS
330
2A
102
}
330
2A
100
AcDbVisualStyle
  2
3D Hidden
 70
     6
177
     2
291
     0
 71
     1
176
     1
 72
     2
176
     1
 73
     2
176
     1
 90
        0
176
     1
 40
-0.6
176
     1
 41
-30.0
176
     1
 62
     5
 63
     7
421
 16777215
176
     1
 74
     2
176
     1
 91
        2
176
     1
 64
     7
176
     1
 65
   257
176
     1
 75
     2
176
     1
175
     1
176
     1
 42
40.0
176
     1
 92
        0
176
     1
 66
   257
176
     1
 43
1.0
176
     1
 76
     1
176
     1
 77
     6
176
     1
 78
     2
176
     1
 67
     7
176
     1
 79
     3
176
     1
170
     0
176
     1
171
     0
176
     1
290
     0
176
     1
 93
        1
176
     1
 44
0.0
176
     1
173
     0
176
     1
  0
VISUALSTYLE
  5
30
102
{ACAD_REACTORS
330
2A
102
}
330
2A
100
AcDbVisualStyle
  2
3dWireframe
 70
     5
177
     2
291
     0
 71
     0
176
     1
 72
     2
176
     1
 73
     0
176
     1
 90
        0
176
     1
 40
-0.6
176
     1
 41
-30.0
176
     1
 62
     5
 63
     7
421
 16777215
176
     1
 74
     1
176
     1
 91
        4
176
     1
 64
     7
176
     1
 65
   257
176
     1
 75
     1
176
     1
175
     1
176
     1
 42
1.0
176
     1
 92
        0
176
     1
 66
   257
176
     1
 43
1.0
176
     1
 76
     1
176
     1
 77
     6
176
     1
 78
     2
176
     1
 67
     7
176
     1
 79
     5
176
     1
170
     0
176
     1
171
     0
176
     1
290
     0
176
     1
 93
        1
176
     1
 44
0.0
176
     1
173
     0
176
     1
  0
VISUALSTYLE
  5
32
102
{ACAD_REACTORS
330
2A
102
}
330
2A
100
AcDbVisualStyle
  2
Basic
 70
     7
177
     2
291
     1
 71
     1
176
     1
 72
     0
176
     1
 73
     1
176
     1
 90
        0
176
     1
 40
-0.6
176
     1
 41
-30.0
176
     1
 62
     5
 63
     7
421
 16777215
176
     1
 74
     0
176
     1
 91
        4
176
     1
 64
     7
176
     1
 65
   257
176
     1
 75
     1
176
     1
175
     1
176
     1
 42
1.0
176
     1
 92
        8
176
     1
 66
     7
176
     1
 43
1.0
176
     1
 76
     1
176
     1
 77
     6
176
     1
 78
     2
176
     1
 67
     7
176
     1
 79
     5
176
     1
170
     0
176
     1
171
     0
176
     1
290
     0
176
     1
 93
        1
176
     1
 44
0.0
176
     1
173
     0
176
     1
  0
VISUALSTYLE
  5
36
102
{ACAD_REACTORS
330
2A
102
}
330
2A
100
AcDbVisualStyle
  2
Brighten
 70
    12
177
     2
291
     1
 71
     2
176
     1
 72
     2
176
     1
 73
     0
176
     1
 90
        0
176
     1
 40
-0.6
176
     1
 41
-30.0
176
     1
 62
     5
 63
     7
421
 16777215
176
     1
 74
     1
176
     1
 91
        4
176
     1
 64
     7
176
     1
 65
   257
176
     1
 75
     1
176
     1
175
     1
176
     1
 42
1.0
176
     1
 92
        8
176
     1
 66
     7
176
     1
 43
1.0
176
     1
 76
     1
176
     1
 77
     6
176
     1
 78
     2
176
     1
 67
     7
176
     1
 79
     5
176
     1
170
     0
176
     1
171
     0
176
     1
290
     0
176
     1
 93
        1
176
     1
 44
50.0
176
     1
173
     0
176
     1
  0
VISUALSTYLE
  5
3A
102
{ACAD_REACTORS
330
2A
102
}
330
2A
100
AcDbVisualStyle
  2
ColorChange
 70
    16
177
     2
291
     1
 71
     2
176
     1
 72
     2
176
     1
 73
     3
176
     1
 90
        0
176
     1
 40
-0.6
176
     1
 41
-30.0
176
     1
 62
     5
 63
     8
421
  8421504
176
     1
 74
     1
176
     1
 91
        4
176
     1
 64
     7
176
     1
 65
   257
176
     1
 75
     1
176
     1
175
     1
176
     1
 42
1.0
176
     1
 92
        8
176
     1
 66
     8
424
  8421504
176
     1
 43
1.0
176
     1
 76
     1
176
     1
 77
     6
176
     1
 78
     2
176
     1
 67
     7
176
     1
 79
     5
176
     1
170
     0
176
     1
171
     0
176
     1
290
     0
176
     1
 93
        1
176
     1
 44
0.0
176
     1
173
     0
176
     1
  0
VISUALSTYLE
  5
34
102
{ACAD_REACTORS
330
2A
102
}
330
2A
100
AcDbVisualStyle
  2
Conceptual
 70
     9
177
     2
291
     0
 71
     3
176
     1
 72
     2
176
     1
 73
     0
176
     1
 90
        0
176
     1
 40
-0.6
176
     1
 41
-30.0
176
     1
 62
     5
 63
     7
421
 16777215
176
     1
 74
     2
176
     1
 91
        2
176
     1
 64
     7
176
     1
 65
   257
176
     1
 75
     1
176
     1
175
     1
176
     1
 42
40.0
176
     1
 92
        8
176
     1
 66
     7
176
     1
 43
1.0
176
     1
 76
     1
176
     1
 77
     6
176
     1
 78
     2
176
     1
 67
     7
176
     1
 79
     3
176
     1
170
     0
176
     1
171
     0
176
     1
290
     0
176
     1
 93
        1
176
     1
 44
0.0
176
     1
173
     0
176
     1
  0
VISUALSTYLE
  5
35
102
{ACAD_REACTORS
330
2A
102
}
330
2A
100
AcDbVisualStyle
  2
Dim
 70
    11
177
     2
291
     1
 71
     2
176
     1
 72
     2
176
     1
 73
     0
176
     1
 90
        0
176
     1
 40
-0.6
176
     1
 41
-30.0
176
     1
 62
     5
 63
     7
421
 16777215
176
     1
 74
     1
176
     1
 91
        4
176
     1
 64
     7
176
     1
 65
   257
176
     1
 75
     1
176
     1
175
     1
176
     1
 42
1.0
176
     1
 92
        8
176
     1
 66
     7
176
     1
 43
1.0
176
     1
 76
     1
176
     1
 77
     6
176
     1
 78
     2
176
     1
 67
     7
176
     1
 79
     5
176
     1
170
     0
176
     1
171
     0
176
     1
290
     0
176
     1
 93
        1
176
     1
 44
-50.0
176
     1
173
     0
176
     1
  0
VISUALSTYLE
  5
39
102
{ACAD_REACTORS
330
2A
102
}
330
2A
100
AcDbVisualStyle
  2
Facepattern
 70
    15
177
     2
291
     1
 71
     2
176
     1
 72
     2
176
     1
 73
     0
176
     1
 90
        0
176
     1
 40
-0.6
176
     1
 41
-30.0
176
     1
 62
     5
 63
     7
421
 16777215
176
     1
 74
     1
176
     1
 91
        4
176
     1
 64
     7
176
     1
 65
   257
176
     1
 75
     1
176
     1
175
     1
176
     1
 42
1.0
176
     1
 92
        8
176
     1
 66
     7
176
     1
 43
1.0
176
     1
 76
     1
176
     1
 77
     6
176
     1
 78
     2
176
     1
 67
     7
176
     1
 79
     5
176
     1
170
     0
176
     1
171
     0
176
     1
290
     0
176
     1
 93
        1
176
     1
 44
0.0
176
     1
173
     0
176
     1
  0
VISUALSTYLE
  5
2B
102
{ACAD_REACTORS
330
2A
102
}
330
2A
100
AcDbVisualStyle
  2
Flat
 70
     0
177
     2
291
     1
 71
     2
176
     1
 72
     1
176
     1
 73
     1
176
     1
 90
        2
176
     1
 40
-0.6
176
     1
 41
30.0
176
     1
 62
     5
 63
     7
421
 16777215
176
     1
 74
     0
176
     1
 91
        4
176
     1
 64
     7
176
     1
 65
   257
176
     1
 75
     1
176
     1
175
     1
176
     1
 42
1.0
176
     1
 92
        8
176
     1
 66
     7
176
     1
 43
1.0
176
     1
 76
     1
176
     1
 77
     6
176
     1
 78
     2
176
     1
 67
     7
176
     1
 79
     5
176
     1
170
     0
176
     1
171
     0
176
     1
290
     0
176
     1
 93
       13
176
     1
 44
0.0
176
     1
173
     0
176
     1
  0
VISUALSTYLE
  5
2C
102
{ACAD_REACTORS
330
2A
102
}
330
2A
100
AcDbVisualStyle
  2
FlatWithEdges
 70
     1
177
     2
291
     1
 71
     2
176
     1
 72
     1
176
     1
 73
     1
176
     1
 90
        2
176
     1
 40
-0.6
176
     1
 41
30.0
176
     1
 62
     5
 63
     7
421
 16777215
176
     1
 74
     1
176
     1
 91
        4
176
     1
 64
     7
176
     1
 65
   257
176
     1
 75
     1
176
     1
175
     1
176
     1
 42
1.0
176
     1
 92
        0
176
     1
 66
   257
176
     1
 43
1.0
176
     1
 76
     1
176
     1
 77
     6
176
     1
 78
     2
176
     1
 67
     7
176
     1
 79
     5
176
     1
170
     0
176
     1
171
     0
176
     1
290
     0
176
     1
 93
       13
176
     1
 44
0.0
176
     1
173
     0
176
     1
  0
VISUALSTYLE
  5
2D
102
{ACAD_REACTORS
330
2A
102
}
330
2A
100
AcDbVisualStyle
  2
Gouraud
 70
     2
177
     2
291
     1
 71
     2
176
     1
 72
     2
176
     1
 73
     1
176
     1
 90
        2
176
     1
 40
-0.6
176
     1
 41
30.0
176
     1
 62
     5
 63
     7
421
 16777215
176
     1
 74
     0
176
     1
 91
        4
176
     1
 64
     7
176
     1
 65
   257
176
     1
 75
     1
176
     1
175
     1
176
     1
 42
1.0
176
     1
 92
        0
176
     1
 66
     7
176
     1
 43
1.0
176
     1
 76
     1
176
     1
 77
     6
176
     1
 78
     2
176
     1
 67
     7
176
     1
 79
     5
176
     1
170
     0
176
     1
171
     0
176
     1
290
     0
176
     1
 93
       13
176
     1
 44
0.0
176
     1
173
     0
176
     1
  0
VISUALSTYLE
  5
2E
102
{ACAD_REACTORS
330
2A
102
}
330
2A
100
AcDbVisualStyle
  2
GouraudWithEdges
 70
     3
177
     2
291
     1
 71
     2
176
     1
 72
     2
176
     1
 73
     1
176
     1
 90
        2
176
     1
 40
-0.6
176
     1
 41
30.0
176
     1
 62
     5
 63
     7
421
 16777215
176
     1
 74
     1
176
     1
 91
        4
176
     1
 64
     7
176
     1
 65
   257
176
     1
 75
     1
176
     1
175
     1
176
     1
 42
1.0
176
     1
 92
        0
176
     1
 66
   257
176
     1
 43
1.0
176
     1
 76
     1
176
     1
 77
     6
176
     1
 78
     2
176
     1
 67
     7
176
     1
 79
     5
176
     1
170
     0
176
     1
171
     0
176
     1
290
     0
176
     1
 93
       13
176
     1
 44
0.0
176
     1
173
     0
176
     1
  0
VISUALSTYLE
  5
38
102
{ACAD_REACTORS
330
2A
102
}
330
2A
100
AcDbVisualStyle
  2
Linepattern
 70
    14
177
     2
291
     1
 71
     2
176
     1
 72
     2
176
     1
 73
     0
176
     1
 90
        0
176
     1
 40
-0.6
176
     1
 41
-30.0
176
     1
 62
     5
 63
     7
421
 16777215
176
     1
 74
     1
176
     1
 91
        4
176
     1
 64
     7
176
     1
 65
   257
176
     1
 75
     7
176
     1
175
     7
176
     1
 42
1.0
176
     1
 92
        8
176
     1
 66
     7
176
     1
 43
1.0
176
     1
 76
     1
176
     1
 77
     6
176
     1
 78
     2
176
     1
 67
     7
176
     1
 79
     5
176
     1
170
     0
176
     1
171
     0
176
     1
290
     0
176
     1
 93
        1
176
     1
 44
0.0
176
     1
173
     0
176
     1
  0
VISUALSTYLE
  5
33
102
{ACAD_REACTORS
330
2A
102
}
330
2A
100
AcDbVisualStyle
  2
Realistic
 70
     8
177
     2
291
     0
 71
     2
176
     1
 72
     2
176
     1
 73
     0
176
     1
 90
        0
176
     1
 40
-0.6
176
     1
 41
-30.0
176
     1
 62
     5
 63
     7
421
 16777215
176
     1
 74
     1
176
     1
 91
        0
176
     1
 64
     7
176
     1
 65
   257
176
     1
 75
     1
176
     1
175
     1
176
     1
 42
1.0
176
     1
 92
        8
176
     1
 66
     8
424
  7895160
176
     1
 43
1.0
176
     1
 76
     1
176
     1
 77
     6
176
     1
 78
     2
176
     1
 67
     7
176
     1
 79
     5
176
     1
170
     0
176
     1
171
     0
176
     1
290
     0
176
     1
 93
       13
176
     1
 44
0.0
176
     1
173
     0
176
     1
  0
VISUALSTYLE
  5
37
102
{ACAD_REACTORS
330
2A
102
}
330
2A
100
AcDbVisualStyle
  2
Thicken
 70
    13
177
     2
291
     1
 71
     2
176
     1
 72
     2
176
     1
 73
     0
176
     1
 90
        0
176
     1
 40
-0.6
176
     1
 41
-30.0
176
     1
 62
     5
 63
     7
421
 16777215
176
     1
 74
     1
176
     1
 91
        4
176
     1
 64
     7
176
     1
 65
   257
176
     1
 75
     1
176
     1
175
     1
176
     1
 42
1.0
176
     1
 92
       12
176
     1
 66
     7
176
     1
 43
1.0
176
     1
 76
     1
176
     1
 77
     6
176
     1
 78
     2
176
     1
 67
     7
176
     1
 79
     5
176
     1
170
     0
176
     1
171
     0
176
     1
290
     0
176
     1
 93
        1
176
     1
 44
0.0
176
     1
173
     0
176
     1
  0
ENDSEC
  0
EOF
