  0
SECTION
  2
HEADER
  9
$ACADVER
  1
AC1024
  9
$ACADMAINTVER
 70
     6
  9
$DWGCODEPAGE
  3
UNDEFINED
  9
$INSBASE
 10
0.0
 20
0.0
 30
0.0
  9
$EXTMIN
 10
1.000000000000000E+20
 20
1.000000000000000E+20
 30
1.000000000000000E+20
  9
$EXTMAX
 10
-1.000000000000000E+20
 20
-1.000000000000000E+20
 30
-1.000000000000000E+20
  9
$LIMMIN
 10
0.0
 20
0.0
  9
$LIMMAX
 10
12.0
 20
9.0
  9
$ORTHOMODE
 70
     0
  9
$REGENMODE
 70
     1
  9
$FILLMODE
 70
     1
  9
$QTEXTMODE
 70
     0
  9
$MIRRTEXT
 70
     1
  9
$LTSCALE
 40
1.0
  9
$ATTMODE
 70
     1
  9
$TEXTSIZE
 40
0.2
  9
$TRACEWID
 40
0.05
  9
$TEXTSTYLE
  7
Standard
  9
$CLAYER
  8
0
  9
$CELTYPE
  6
ByLayer
  9
$CECOLOR
 62
   256
  9
$CELTSCALE
 40
1.0
  9
$DISPSILH
 70
     0
  9
$DIMSCALE
 40
1.0
  9
$DIMASZ
 40
0.18
  9
$DIMEXO
 40
0.0625
  9
$DIMDLI
 40
0.38
  9
$DIMRND
 40
0.0
  9
$DIMDLE
 40
0.0
  9
$DIMEXE
 40
0.18
  9
$DIMTP
 40
0.0
  9
$DIMTM
 40
0.0
  9
$DIMTXT
 40
0.18
  9
$DIMCEN
 40
0.09
  9
$DIMTSZ
 40
0.0
  9
$DIMTOL
 70
     0
  9
$DIMLIM
 70
     0
  9
$DIMTIH
 70
     1
  9
$DIMTOH
 70
     1
  9
$DIMSE1
 70
     0
  9
$DIMSE2
 70
     0
  9
$DIMTAD
 70
     0
  9
$DIMZIN
 70
     0
  9
$DIMBLK
  1

  9
$DIMASO
 70
     1
  9
$DIMSHO
 70
     1
  9
$DIMPOST
  1

  9
$DIMAPOST
  1

  9
$DIMALT
 70
     0
  9
$DIMALTD
 70
     2
  9
$DIMALTF
 40
25.4
  9
$DIMLFAC
 40
1.0
  9
$DIMTOFL
 70
     0
  9
$DIMTVP
 40
0.0
  9
$DIMTIX
 70
     0
  9
$DIMSOXD
 70
     0
  9
$DIMSAH
 70
     0
  9
$DIMBLK1
  1

  9
$DIMBLK2
  1

  9
$DIMSTYLE
  2
Standard
  9
$DIMCLRD
 70
     0
  9
$DIMCLRE
 70
     0
  9
$DIMCLRT
 70
     0
  9
$DIMTFAC
 40
1.0
  9
$DIMGAP
 40
0.09
  9
$DIMJUST
 70
     0
  9
$DIMSD1
 70
     0
  9
$DIMSD2
 70
     0
  9
$DIMTOLJ
 70
     1
  9
$DIMTZIN
 70
     0
  9
$DIMALTZ
 70
     0
  9
$DIMALTTZ
 70
     0
  9
$DIMUPT
 70
     0
  9
$DIMDEC
 70
     4
  9
$DIMTDEC
 70
     4
  9
$DIMALTU
 70
     2
  9
$DIMALTTD
 70
     2
  9
$DIMTXSTY
  7
Standard
  9
$DIMAUNIT
 70
     0
  9
$DIMADEC
 70
     0
  9
$DIMALTRND
 40
0.0
  9
$DIMAZIN
 70
     0
  9
$DIMDSEP
 70
    46
  9
$DIMATFIT
 70
     3
  9
$DIMFRAC
 70
     0
  9
$DIMLDRBLK
  1

  9
$DIMLUNIT
 70
     2
  9
$DIMLWD
 70
    -2
  9
$DIMLWE
 70
    -2
  9
$DIMTMOVE
 70
     0
  9
$DIMFXL
 40
1.0
  9
$DIMFXLON
 70
     0
  9
$DIMJOGANG
 40
0.7853981633974483
  9
$DIMTFILL
 70
     0
  9
$DIMTFILLCLR
 70
     0
  9
$DIMARCSYM
 70
     0
  9
$DIMLTYPE
  6

  9
$DIMLTEX1
  6

  9
$DIMLTEX2
  6

  9
$DIMTXTDIRECTION
 70
     0
  9
$LUNITS
 70
     2
  9
$LUPREC
 70
     4
  9
$SKETCHINC
 40
0.1
  9
$FILLETRAD
 40
0.5
  9
$AUNITS
 70
     0
  9
$AUPREC
 70
     0
  9
$MENU
  1
.
  9
$ELEVATION
 40
0.0
  9
$PELEVATION
 40
0.0
  9
$THICKNESS
 40
0.0
  9
$LIMCHECK
 70
     0
  9
$CHAMFERA
 40
0.5
  9
$CHAMFERB
 40
0.5
  9
$CHAMFERC
 40
1.0
  9
$CHAMFERD
 40
0.0
  9
$SKPOLY
 70
     0
  9
$TDCREATE
 40
2457917.631273136
  9
$TDUCREATE
 40
2457917.256273148
  9
$TDUPDATE
 40
2457917.631273136
  9
$TDUUPDATE
 40
2457917.256273148
  9
$TDINDWG
 40
0.0000000116
  9
$TDUSRTIMER
 40
0.0000000116
  9
$USRTIMER
 70
     1
  9
$ANGBASE
 50
0.0
  9
$ANGDIR
 70
     0
  9
$PDMODE
 70
     0
  9
$PDSIZE
 40
0.0
  9
$PLINEWID
 40
0.0
  9
$SPLFRAME
 70
     0
  9
$SPLINETYPE
 70
     6
  9
$SPLINESEGS
 70
     8
  9
$HANDSEED
  5
D3
  9
$SURFTAB1
 70
     6
  9
$SURFTAB2
 70
     6
  9
$SURFTYPE
 70
     6
  9
$SURFU
 70
     6
  9
$SURFV
 70
     6
  9
$UCSBASE
  2

  9
$UCSNAME
  2

  9
$UCSORG
 10
0.0
 20
0.0
 30
0.0
  9
$UCSXDIR
 10
1.0
 20
0.0
 30
0.0
  9
$UCSYDIR
 10
0.0
 20
1.0
 30
0.0
  9
$UCSORTHOREF
  2

  9
$UCSORTHOVIEW
 70
     0
  9
$UCSORGTOP
 10
0.0
 20
0.0
 30
0.0
  9
$UCSORGBOTTOM
 10
0.0
 20
0.0
 30
0.0
  9
$UCSORGLEFT
 10
0.0
 20
0.0
 30
0.0
  9
$UCSORGRIGHT
 10
0.0
 20
0.0
 30
0.0
  9
$UCSORGFRONT
 10
0.0
 20
0.0
 30
0.0
  9
$UCSORGBACK
 10
0.0
 20
0.0
 30
0.0
  9
$PUCSBASE
  2

  9
$PUCSNAME
  2

  9
$PUCSORG
 10
0.0
 20
0.0
 30
0.0
  9
$PUCSXDIR
 10
1.0
 20
0.0
 30
0.0
  9
$PUCSYDIR
 10
0.0
 20
1.0
 30
0.0
  9
$PUCSORTHOREF
  2

  9
$PUCSORTHOVIEW
 70
     0
  9
$PUCSORGTOP
 10
0.0
 20
0.0
 30
0.0
  9
$PUCSORGBOTTOM
 10
0.0
 20
0.0
 30
0.0
  9
$PUCSORGLEFT
 10
0.0
 20
0.0
 30
0.0
  9
$PUCSORGRIGHT
 10
0.0
 20
0.0
 30
0.0
  9
$PUCSORGFRONT
 10
0.0
 20
0.0
 30
0.0
  9
$PUCSORGBACK
 10
0.0
 20
0.0
 30
0.0
  9
$USERI1
 70
     0
  9
$USERI2
 70
     0
  9
$USERI3
 70
     0
  9
$USERI4
 70
     0
  9
$USERI5
 70
     0
  9
$USERR1
 40
0.0
  9
$USERR2
 40
0.0
  9
$USERR3
 40
0.0
  9
$USERR4
 40
0.0
  9
$USERR5
 40
0.0
  9
$WORLDVIEW
 70
     1
  9
$SHADEDGE
 70
     3
  9
$SHADEDIF
 70
    70
  9
$TILEMODE
 70
     1
  9
$MAXACTVP
 70
    64
  9
$PINSBASE
 10
0.0
 20
0.0
 30
0.0
  9
$PLIMCHECK
 70
     0
  9
$PEXTMIN
 10
1.000000000000000E+20
 20
1.000000000000000E+20
 30
1.000000000000000E+20
  9
$PEXTMAX
 10
-1.000000000000000E+20
 20
-1.000000000000000E+20
 30
-1.000000000000000E+20
  9
$PLIMMIN
 10
0.0
 20
0.0
  9
$PLIMMAX
 10
12.0
 20
9.0
  9
$UNITMODE
 70
     0
  9
$VISRETAIN
 70
     1
  9
$PLINEGEN
 70
     0
  9
$PSLTSCALE
 70
     1
  9
$TREEDEPTH
 70
  3020
  9
$CMLSTYLE
  2
Standard
  9
$CMLJUST
 70
     0
  9
$CMLSCALE
 40
1.0
  9
$PROXYGRAPHICS
 70
     1
  9
$MEASUREMENT
 70
     0
  9
$CELWEIGHT
370
    -1
  9
$ENDCAPS
280
     0
  9
$JOINSTYLE
280
     0
  9
$LWDISPLAY
290
     1
  9
$INSUNITS
 70
     1
  9
$HYPERLINKBASE
  1

  9
$STYLESHEET
  1

  9
$XEDIT
290
     1
  9
$CEPSNTYPE
380
     0
  9
$PSTYLEMODE
290
     1
  9
$FINGERPRINTGUID
  2
{2DBC399B-B3AC-E611-795C-54ADF5C7CB6E}
  9
$VERSIONGUID
  2
{FAEB1C32-E019-11D5-929B-00C0DF256EC4}
  9
$EXTNAMES
290
     1
  9
$PSVPSCALE
 40
0.0
  9
$OLESTARTUP
290
     0
  9
$SORTENTS
280
   127
  9
$INDEXCTL
280
     0
  9
$HIDETEXT
280
     1
  9
$XCLIPFRAME
280
     2
  9
$HALOGAP
280
     0
  9
$OBSCOLOR
 70
   257
  9
$OBSLTYPE
280
     0
  9
$INTERSECTIONDISPLAY
280
     0
  9
$INTERSECTIONCOLOR
 70
   257
  9
$DIMASSOC
280
     2
  9
$PROJECTNAME
  1

  9
$CAMERADISPLAY
290
     0
  9
$LENSLENGTH
 40
50.0
  9
$CAMERAHEIGHT
 40
0.0
  9
$STEPSPERSEC
 40
2.0
  9
$STEPSIZE
 40
6.0
  9
$3DDWFPREC
 40
2.0
  9
$PSOLWIDTH
 40
0.25
  9
$PSOLHEIGHT
 40
4.0
  9
$LOFTANG1
 40
1.570796326794897
  9
$LOFTANG2
 40
1.570796326794897
  9
$LOFTMAG1
 40
0.0
  9
$LOFTMAG2
 40
0.0
  9
$LOFTPARAM
 70
     7
  9
$LOFTNORMALS
280
     1
  9
$LATITUDE
 40
37.795
  9
$LONGITUDE
 40
-122.394
  9
$NORTHDIRECTION
 40
0.0
  9
$TIMEZONE
 70
 -8000
  9
$LIGHTGLYPHDISPLAY
280
     1
  9
$TILEMODELIGHTSYNCH
280
     1
  9
$CMATERIAL
347
3C
  9
$SOLIDHIST
280
     1
  9
$SHOWHIST
280
     1
  9
$DWFFRAME
280
     2
  9
$DGNFRAME
280
     2
  9
$REALWORLDSCALE
290
     1
  9
$INTERFERECOLOR
 62
   256
  9
$CSHADOW
280
     0
  9
$SHADOWPLANELOCATION
 40
0.0
  0
ENDSEC
  0
SECTION
  2
CLASSES
  0
CLASS
  1
ACDBDICTIONARYWDFLT
  2
AcDbDictionaryWithDefault
  3
ObjectDBX Classes
 90
        0
 91
        4
280
     0
281
     0
  0
CLASS
  1
VISUALSTYLE
  2
AcDbVisualStyle
  3
ObjectDBX Classes
 90
     4095
 91
        4
280
     0
281
     0
  0
CLASS
  1
MATERIAL
  2
AcDbMaterial
  3
ObjectDBX Classes
 90
     1153
 91
        4
280
     0
281
     0
  0
CLASS
  1
SUN
  2
AcDbSun
  3
SCENEOE
 90
     1024
 91
        4
280
     0
281
     0
  0
ENDSEC
  0
SECTION
  2
TABLES
  0
TABLE
  2
VPORT
  5
8
330
0
100
AcDbSymbolTable
 70
     1
  0
VPORT
  5
29
330
8
100
AcDbSymbolTableRecord
100
AcDbViewportTableRecord
  2
*Active
 70
     0
 10
0.0
 20
0.0
 11
1.0
 21
1.0
 12
0.0
 22
0.0
 13
0.0
 23
0.0
 14
0.5
 24
0.5
 15
0.5
 25
0.5
 16
0.0
 26
0.0
 36
1.0
 17
91.00082462281999
 27
-128.4993055234307
 37
0.0
 40
256.9986110468615
 41
0.7081814508812795
 42
50.0
 43
0.0
 44
0.0
 50
0.0
 51
0.0
 71
     0
 72
   100
 73
     1
 74
     3
 75
     0
 76
     0
 77
     0
 78
     0
281
     0
 65
     1
110
0.0
120
0.0
130
0.0
111
1.0
121
0.0
131
0.0
112
0.0
122
1.0
132
0.0
 79
     0
146
0.0
 60
     3
 61
     5
292
     1
282
     1
141
0.0
142
0.0
 63
   250
361
3F
  0
ENDTAB
  0
TABLE
  2
LTYPE
  5
5
330
0
100
AcDbSymbolTable
 70
     1
  0
LTYPE
  5
14
330
5
100
AcDbSymbolTableRecord
100
AcDbLinetypeTableRecord
  2
ByBlock
 70
     0
  3

 72
    65
 73
     0
 40
0.0
  0
LTYPE
  5
15
330
5
100
AcDbSymbolTableRecord
100
AcDbLinetypeTableRecord
  2
ByLayer
 70
     0
  3

 72
    65
 73
     0
 40
0.0
  0
LTYPE
  5
16
330
5
100
AcDbSymbolTableRecord
100
AcDbLinetypeTableRecord
  2
Continuous
 70
     0
  3
Solid line
 72
    65
 73
     0
 40
0.0
  0
ENDTAB
  0
TABLE
  2
LAYER
  5
2
330
0
100
AcDbSymbolTable
 70
     2
  0
LAYER
  5
10
330
2
100
AcDbSymbolTableRecord
100
AcDbLayerTableRecord
  2
0
 70
     0
 62
     7
  6
Continuous
370
    -3
390
F
347
3E
  0
LAYER
  5
40
330
2
100
AcDbSymbolTableRecord
100
AcDbLayerTableRecord
  2
_U+30EC_U+30A4_U+30E4_U+30FC 1
 70
     0
 62
     7
  6
Continuous
370
    -3
390
F
347
3E
  0
ENDTAB
  0
TABLE
  2
STYLE
  5
3
330
0
100
AcDbSymbolTable
 70
     1
  0
STYLE
  5
11
330
3
100
AcDbSymbolTableRecord
100
AcDbTextStyleTableRecord
  2
Standard
 70
     0
 40
0.0
 41
1.0
 50
0.0
 71
     0
 42
0.2
  3
txt
  4

  0
ENDTAB
  0
TABLE
  2
VIEW
  5
6
330
0
100
AcDbSymbolTable
 70
     0
  0
ENDTAB
  0
TABLE
  2
UCS
  5
7
330
0
100
AcDbSymbolTable
 70
     0
  0
ENDTAB
  0
TABLE
  2
APPID
  5
9
330
0
100
AcDbSymbolTable
 70
     1
  0
APPID
  5
12
330
9
100
AcDbSymbolTableRecord
100
AcDbRegAppTableRecord
  2
ACAD
 70
     0
  0
ENDTAB
  0
TABLE
  2
DIMSTYLE
  5
A
330
0
100
AcDbSymbolTable
 70
     1
100
AcDbDimStyleTable
  0
DIMSTYLE
105
27
330
A
100
AcDbSymbolTableRecord
100
AcDbDimStyleTableRecord
  2
Standard
 70
     0
178
     0
340
11
  0
ENDTAB
  0
TABLE
  2
BLOCK_RECORD
  5
1
330
0
100
AcDbSymbolTable
 70
     6
  0
BLOCK_RECORD
  5
1F
330
1
100
AcDbSymbolTableRecord
100
AcDbBlockTableRecord
  2
*Model_Space
340
22
 70
     0
280
     1
281
     0
  0
BLOCK_RECORD
  5
1B
330
1
100
AcDbSymbolTableRecord
100
AcDbBlockTableRecord
  2
*Paper_Space
340
1E
 70
     0
280
     1
281
     0
  0
BLOCK_RECORD
  5
23
330
1
100
AcDbSymbolTableRecord
100
AcDbBlockTableRecord
  2
*Paper_Space0
340
26
 70
     0
280
     1
281
     0
  0
BLOCK_RECORD
  5
41
330
1
100
AcDbSymbolTableRecord
100
AcDbBlockTableRecord
  2
block 2
340
0
102
{BLKREFS
331
42
102
}
 70
     0
280
     1
281
     0
  0
BLOCK_RECORD
  5
8E
330
1
100
AcDbSymbolTableRecord
100
AcDbBlockTableRecord
  2
block 3
340
0
102
{BLKREFS
331
8F
102
}
 70
     0
280
     1
281
     0
  0
BLOCK_RECORD
  5
A3
330
1
100
AcDbSymbolTableRecord
100
AcDbBlockTableRecord
  2
block 4
340
0
102
{BLKREFS
331
A4
102
}
 70
     0
280
     1
281
     0
  0
BLOCK_RECORD
  5
AB
330
1
100
AcDbSymbolTableRecord
100
AcDbBlockTableRecord
  2
block 5
340
0
102
{BLKREFS
331
AC
102
}
 70
     0
280
     1
281
     0
  0
BLOCK_RECORD
  5
B3
330
1
100
AcDbSymbolTableRecord
100
AcDbBlockTableRecord
  2
block 6
340
0
102
{BLKREFS
331
B4
102
}
 70
     0
280
     1
281
     0
  0
ENDTAB
  0
ENDSEC
  0
SECTION
  2
BLOCKS
  0
BLOCK
  5
20
330
1F
100
AcDbEntity
  8
0
100
AcDbBlockBegin
  2
*Model_Space
 70
     0
 10
0.0
 20
0.0
 30
0.0
  3
*Model_Space
  1

  0
ENDBLK
  5
21
330
1F
100
AcDbEntity
  8
0
100
AcDbBlockEnd
  0
BLOCK
  5
1C
330
1B
100
AcDbEntity
 67
     1
  8
0
100
AcDbBlockBegin
  2
*Paper_Space
 70
     0
 10
0.0
 20
0.0
 30
0.0
  3
*Paper_Space
  1

  0
ENDBLK
  5
1D
330
1B
100
AcDbEntity
 67
     1
  8
0
100
AcDbBlockEnd
  0
BLOCK
  5
24
330
23
100
AcDbEntity
  8
0
100
AcDbBlockBegin
  2
*Paper_Space0
 70
     0
 10
0.0
 20
0.0
 30
0.0
  3
*Paper_Space0
  1

  0
ENDBLK
  5
25
330
23
100
AcDbEntity
  8
0
100
AcDbBlockEnd
  0
BLOCK
  5
43
330
41
100
AcDbEntity
  8
0
100
AcDbBlockBegin
  2
block 2
 70
     0
 10
0.0
 20
0.0
 30
0.0
  3
block 2
  1

  0
SPLINE
  5
45
330
41
100
AcDbEntity
  8
_U+30EC_U+30A4_U+30E4_U+30FC 1
 62
   179
420
  2234388
370
     9
100
AcDbSpline
210
0.0
220
0.0
230
1.0
 70
    11
 71
     3
 72
    17
 73
    13
 74
     0
 42
0.0000000001
 43
0.0000000001
 12
1.0
 22
0.0
 32
0.0
 13
1.0
 23
0.0
 33
0.0
 40
0.0
 40
0.0
 40
0.0
 40
0.0
 40
1.0
 40
1.0
 40
1.0
 40
2.0
 40
2.0
 40
2.0
 40
3.0
 40
3.0
 40
3.0
 40
4.0
 40
4.0
 40
4.0
 40
4.0
 10
92.93559901790422
 20
-124.6387171910625
 30
0.0
 10
93.3669051180118
 20
-125.4297155241983
 30
0.0
 10
93.27733484251915
 20
-126.3106369128668
 30
0.0
 10
92.7357527545937
 20
-126.6058766350153
 30
0.0
 10
92.19420125904108
 20
-126.9011163571635
 30
0.0
 10
91.40528433472359
 20
-126.4994435794864
 30
0.0
 10
90.97394295683914
 20
-125.7084452463506
 30
0.0
 10
90.54263685673156
 20
-124.9170941354374
 30
0.0
 10
90.63220713222421
 20
-124.0361727467688
 30
0.0
 10
91.1737562850748
 20
-123.7409330246203
 30
0.0
 10
91.71534071570228
 20
-123.4456933024718
 30
0.0
 10
92.50425764001977
 20
-123.8474013579271
 30
0.0
 10
92.93559901790422
 20
-124.6387171910625
 30
0.0
  0
SPLINE
  5
46
330
41
100
AcDbEntity
  8
_U+30EC_U+30A4_U+30E4_U+30FC 1
 62
   179
420
  2234388
370
     9
100
AcDbSpline
210
0.0
220
0.0
230
1.0
 70
    11
 71
     3
 72
    17
 73
    13
 74
     0
 42
0.0000000001
 43
0.0000000001
 12
1.0
 22
0.0
 32
0.0
 13
1.0
 23
0.0
 33
0.0
 40
0.0
 40
0.0
 40
0.0
 40
0.0
 40
1.0
 40
1.0
 40
1.0
 40
2.0
 40
2.0
 40
2.0
 40
3.0
 40
3.0
 40
3.0
 40
4.0
 40
4.0
 40
4.0
 40
4.0
 10
93.25253456537409
 20
-124.5092124688728
 30
0.0
 10
93.70589164324005
 20
-125.3408508019982
 30
0.0
 10
93.56498983518047
 20
-126.293068579538
 30
0.0
 10
92.93764512896314
 20
-126.6351571905634
 30
0.0
 10
92.30994997692225
 20
-126.9772458015889
 30
0.0
 10
91.4335065562258
 20
-126.5803708016881
 30
0.0
 10
90.97979906780084
 20
-125.7483796907853
 30
0.0
 10
90.52609157937589
 20
-124.9160710798822
 30
0.0
 10
90.66699102022568
 20
-123.9638533023425
 30
0.0
 10
91.29468850421179
 20
-123.6220821913166
 30
0.0
 10
91.92203321042912
 20
-123.2799935802912
 30
0.0
 10
92.79882707694912
 20
-123.676868580192
 30
0.0
 10
93.25253456537409
 20
-124.5092124688728
 30
0.0
  0
SPLINE
  5
47
330
41
100
AcDbEntity
  8
_U+30EC_U+30A4_U+30E4_U+30FC 1
 62
   179
420
  2234388
370
     9
100
AcDbSpline
210
0.0
220
0.0
230
1.0
 70
    11
 71
     3
 72
    17
 73
    13
 74
     0
 42
0.0000000001
 43
0.0000000001
 12
1.0
 22
0.0
 32
0.0
 13
1.0
 23
0.0
 33
0.0
 40
0.0
 40
0.0
 40
0.0
 40
0.0
 40
1.0
 40
1.0
 40
1.0
 40
2.0
 40
2.0
 40
2.0
 40
3.0
 40
3.0
 40
3.0
 40
4.0
 40
4.0
 40
4.0
 40
4.0
 10
93.47714817075483
 20
-124.2849163578178
 30
0.0
 10
94.03386676766286
 20
-125.3053613575624
 30
0.0
 10
93.93639427014959
 20
-126.4322394128363
 30
0.0
 10
93.25941373186525
 20
-126.8015624682996
 30
0.0
 10
92.58282124912657
 20
-127.1705327459852
 30
0.0
 10
91.5823434968731
 20
-126.6423891350062
 30
0.0
 10
91.02562489996507
 20
-125.6216266352614
 30
0.0
 10
90.4695765808177
 20
-124.6004760799609
 30
0.0
 10
90.56673157833907
 20
-123.4732452469096
 30
0.0
 10
91.24402961661532
 20
-123.1046277470015
 30
0.0
 10
91.92065737713088
 20
-122.7353046915385
 30
0.0
 10
92.92109985160747
 20
-123.2638010802952
 30
0.0
 10
93.47714817075483
 20
-124.2849163578178
 30
0.0
  0
SPLINE
  5
48
330
41
100
AcDbEntity
  8
_U+30EC_U+30A4_U+30E4_U+30FC 1
 62
   179
420
  2234388
370
     9
100
AcDbSpline
210
0.0
220
0.0
230
1.0
 70
     8
 71
     3
 72
    20
 73
    16
 74
     0
 42
0.0000000001
 43
0.0000000001
 12
1.0
 22
0.0
 32
0.0
 13
1.0
 23
0.0
 33
0.0
 40
0.0
 40
0.0
 40
0.0
 40
0.0
 40
1.0
 40
1.0
 40
1.0
 40
2.0
 40
2.0
 40
2.0
 40
3.0
 40
3.0
 40
3.0
 40
4.0
 40
4.0
 40
4.0
 40
5.0
 40
5.0
 40
5.0
 40
5.0
 10
90.6907682418413
 20
-124.0417113578785
 30
0.0
 10
90.6907682418413
 20
-124.0417113578785
 30
0.0
 10
90.66113490926398
 20
-121.8954113584152
 30
0.0
 10
91.63127377340255
 20
-120.807797469798
 30
0.0
 10
91.63127377340255
 20
-120.807797469798
 30
0.0
 10
92.21935431395494
 20
-120.5724946920792
 30
0.0
 10
92.21935431395494
 20
-120.5724946920792
 30
0.0
 10
92.21935431395494
 20
-120.5724946920792
 30
0.0
 10
93.83613482826298
 20
-120.3082641365895
 30
0.0
 10
95.65893755953718
 20
-122.6306002471202
 30
0.0
 10
95.65893755953718
 20
-122.6306002471202
 30
0.0
 10
97.51066806785116
 20
-125.5699446908296
 30
0.0
 10
95.98243477350631
 20
-127.0988835793365
 30
0.0
 10
95.98243477350631
 20
-127.0988835793365
 30
0.0
 10
94.04215704522913
 20
-127.481294690352
 30
0.0
 10
92.66032652492702
 20
-126.9814085793657
 30
0.0
  0
SPLINE
  5
49
330
41
100
AcDbEntity
  8
_U+30EC_U+30A4_U+30E4_U+30FC 1
 62
   179
420
  2234388
370
     9
100
AcDbSpline
210
0.0
220
0.0
230
1.0
 70
     8
 71
     3
 72
    17
 73
    13
 74
     0
 42
0.0000000001
 43
0.0000000001
 12
1.0
 22
0.0
 32
0.0
 13
1.0
 23
0.0
 33
0.0
 40
0.0
 40
0.0
 40
0.0
 40
0.0
 40
1.0
 40
1.0
 40
1.0
 40
2.0
 40
2.0
 40
2.0
 40
3.0
 40
3.0
 40
3.0
 40
4.0
 40
4.0
 40
4.0
 40
4.0
 10
95.98243477350631
 20
-127.0988835793365
 30
0.0
 10
95.98243477350631
 20
-127.0988835793365
 30
0.0
 10
97.80488472701174
 20
-126.0994641351417
 30
0.0
 10
97.80488472701174
 20
-126.0994641351417
 30
0.0
 10
97.80488472701174
 20
-126.0994641351417
 30
0.0
 10
98.89285136592206
 20
-123.6007391357666
 30
0.0
 10
97.18752363165082
 20
-121.7779363584444
 30
0.0
 10
97.18752363165082
 20
-121.7779363584444
 30
0.0
 10
95.80604588911747
 20
-119.6023558034329
 30
0.0
 10
93.71865983126001
 20
-119.7494641367292
 30
0.0
 10
93.71865983126001
 20
-119.7494641367292
 30
0.0
 10
92.21935431395494
 20
-120.5724946920792
 30
0.0
 10
92.21935431395494
 20
-120.5724946920792
 30
0.0
  0
SPLINE
  5
4A
330
41
100
AcDbEntity
  8
_U+30EC_U+30A4_U+30E4_U+30FC 1
 62
   179
420
  2234388
370
     9
100
AcDbSpline
210
0.0
220
0.0
230
1.0
 70
     8
 71
     3
 72
    11
 73
     7
 74
     0
 42
0.0000000001
 43
0.0000000001
 12
1.0
 22
0.0
 32
0.0
 13
1.0
 23
0.0
 33
0.0
 40
0.0
 40
0.0
 40
0.0
 40
0.0
 40
1.0
 40
1.0
 40
1.0
 40
2.0
 40
2.0
 40
2.0
 40
2.0
 10
96.36449309709252
 20
-120.7785169142499
 30
0.0
 10
96.36449309709252
 20
-120.7785169142499
 30
0.0
 10
97.33427918346233
 20
-120.7492363587015
 30
0.0
 10
98.01090694397789
 20
-122.1014335805858
 30
0.0
 10
98.01090694397789
 20
-122.1014335805858
 30
0.0
 10
98.27549027056114
 20
-122.7777085804166
 30
0.0
 10
98.09910138617231
 20
-123.6007391357666
 30
0.0
  0
SPLINE
  5
4B
330
41
100
AcDbEntity
  8
_U+30EC_U+30A4_U+30E4_U+30FC 1
 62
   179
420
  2234388
370
     9
100
AcDbSpline
210
0.0
220
0.0
230
1.0
 70
     8
 71
     3
 72
    23
 73
    19
 74
     0
 42
0.0000000001
 43
0.0000000001
 12
1.0
 22
0.0
 32
0.0
 13
1.0
 23
0.0
 33
0.0
 40
0.0
 40
0.0
 40
0.0
 40
0.0
 40
1.0
 40
1.0
 40
1.0
 40
2.0
 40
2.0
 40
2.0
 40
3.0
 40
3.0
 40
3.0
 40
4.0
 40
4.0
 40
4.0
 40
5.0
 40
5.0
 40
5.0
 40
6.0
 40
6.0
 40
6.0
 40
6.0
 10
94.13035148742355
 20
-119.7787446922777
 30
0.0
 10
94.13035148742355
 20
-119.7787446922777
 30
0.0
 10
93.80720705122322
 20
-119.3674058034916
 30
0.0
 10
95.86460699873457
 20
-118.3972669148452
 30
0.0
 10
95.86460699873457
 20
-118.3972669148452
 30
0.0
 10
97.54030140042849
 20
-117.4856891372954
 30
0.0
 10
97.54030140042849
 20
-117.4856891372954
 30
0.0
 10
97.54030140042849
 20
-117.4856891372954
 30
0.0
 10
99.33382357689415
 20
-116.8979613596645
 30
0.0
 10
101.0095179785881
 20
-119.5437946923363
 30
0.0
 10
101.0095179785881
 20
-119.5437946923363
 30
0.0
 10
103.3025734756429
 20
-122.8066363581872
 30
0.0
 10
101.0095179785881
 20
-124.1884669133975
 30
0.0
 10
101.0095179785881
 20
-124.1884669133975
 30
0.0
 10
98.65754859414736
 20
-125.5995780241558
 30
0.0
 10
98.65754859414736
 20
-125.5995780241558
 30
0.0
 10
98.65754859414736
 20
-125.5995780241558
 30
0.0
 10
98.33405138017824
 20
-125.864161357423
 30
0.0
 10
97.95199305659202
 20
-125.7466863574522
 30
0.0
  0
SPLINE
  5
4C
330
41
100
AcDbEntity
  8
_U+30EC_U+30A4_U+30E4_U+30FC 1
 62
   179
420
  2234388
370
     9
100
AcDbSpline
210
0.0
220
0.0
230
1.0
 70
     8
 71
     3
 72
    11
 73
     7
 74
     0
 42
0.0000000001
 43
0.0000000001
 12
1.0
 22
0.0
 32
0.0
 13
1.0
 23
0.0
 33
0.0
 40
0.0
 40
0.0
 40
0.0
 40
0.0
 40
1.0
 40
1.0
 40
1.0
 40
2.0
 40
2.0
 40
2.0
 40
2.0
 10
94.74771258278447
 20
-118.9849946924761
 30
0.0
 10
94.74771258278447
 20
-118.9849946924761
 30
0.0
 10
97.01113474726198
 20
-118.308719692645
 30
0.0
 10
98.9221319207306
 20
-121.5426335807256
 30
0.0
 10
98.9221319207306
 20
-121.5426335807256
 30
0.0
 10
100.3625235506498
 20
-123.9238835801303
 30
0.0
 10
99.03960691773356
 20
-125.3939085797626
 30
0.0
  0
SPLINE
  5
4D
330
41
100
AcDbEntity
  8
_U+30EC_U+30A4_U+30E4_U+30FC 1
 62
   179
420
  2234388
370
     9
100
AcDbSpline
210
0.0
220
0.0
230
1.0
 70
    11
 71
     3
 72
    35
 73
    31
 74
     0
 42
0.0000000001
 43
0.0000000001
 12
1.0
 22
0.0
 32
0.0
 13
1.0
 23
0.0
 33
0.0
 40
0.0
 40
0.0
 40
0.0
 40
0.0
 40
1.0
 40
1.0
 40
1.0
 40
2.0
 40
2.0
 40
2.0
 40
3.0
 40
3.0
 40
3.0
 40
4.0
 40
4.0
 40
4.0
 40
5.0
 40
5.0
 40
5.0
 40
6.0
 40
6.0
 40
6.0
 40
7.0
 40
7.0
 40
7.0
 40
8.0
 40
8.0
 40
8.0
 40
9.0
 40
9.0
 40
9.0
 40
10.0
 40
10.0
 40
10.0
 40
10.0
 10
91.3666904468193
 20
-124.1884669133975
 30
0.0
 10
91.3666904468193
 20
-124.1884669133975
 30
0.0
 10
92.68960707973557
 20
-124.2177474689456
 30
0.0
 10
92.51321819534672
 20
-125.7759669130006
 30
0.0
 10
92.51321819534672
 20
-125.7759669130006
 30
0.0
 10
92.0429654295661
 20
-126.158378024016
 30
0.0
 10
92.0429654295661
 20
-126.158378024016
 30
0.0
 10
92.0429654295661
 20
-126.158378024016
 30
0.0
 10
91.98405154218023
 20
-133.3314085777782
 30
0.0
 10
91.98405154218023
 20
-133.3314085777782
 30
0.0
 10
91.98405154218023
 20
-133.3314085777782
 30
0.0
 10
92.0429654295661
 20
-135.7419391327313
 30
0.0
 10
89.66171549031685
 20
-136.8884669102225
 30
0.0
 10
89.66171549031685
 20
-136.8884669102225
 30
0.0
 10
84.8697586681254
 20
-139.5928613539905
 30
0.0
 10
84.3405920149589
 20
-134.5072169108178
 30
0.0
 10
84.3405920149589
 20
-134.5072169108178
 30
0.0
 10
86.51599612612638
 20
-134.4779363552693
 30
0.0
 10
86.51599612612638
 20
-134.4779363552693
 30
0.0
 10
86.51599612612638
 20
-134.4779363552693
 30
0.0
 10
86.28069335435168
 20
-136.0358030215469
 30
0.0
 10
87.48613499026497
 20
-135.7419391327313
 30
0.0
 10
87.48613499026497
 20
-135.7419391327313
 30
0.0
 10
89.72062937770272
 20
-135.1542113551001
 30
0.0
 10
89.74990993251126
 20
-133.2432141333558
 30
0.0
 10
89.74990993251126
 20
-133.2432141333558
 30
0.0
 10
89.86738492951423
 20
-126.1287446906902
 30
0.0
 10
89.86738492951423
 20
-126.1287446906902
 30
0.0
 10
89.86738492951423
 20
-126.1287446906902
 30
0.0
 10
89.77919048731981
 20
-124.8351085799023
 30
0.0
 10
91.3666904468193
 20
-124.1884669133975
 30
0.0
  0
HATCH
  5
4E
330
41
100
AcDbEntity
  8
_U+30EC_U+30A4_U+30E4_U+30FC 1
 62
     7
420
 16711422
100
AcDbHatch
 10
0.0
 20
0.0
 30
0.0
210
0.0
220
0.0
230
1.0
  2
SOLID
 70
     1
 71
     0
 91
        1
 92
        1
 93
        1
 72
     4
 94
        3
 73
     0
 74
     1
 95
       35
 96
       31
 40
0.0
 40
0.0
 40
0.0
 40
0.0
 40
1.0
 40
1.0
 40
1.0
 40
2.0
 40
2.0
 40
2.0
 40
3.0
 40
3.0
 40
3.0
 40
4.0
 40
4.0
 40
4.0
 40
5.0
 40
5.0
 40
5.0
 40
6.0
 40
6.0
 40
6.0
 40
7.0
 40
7.0
 40
7.0
 40
8.0
 40
8.0
 40
8.0
 40
9.0
 40
9.0
 40
9.0
 40
10.0
 40
10.0
 40
10.0
 40
10.0
 10
91.3666904468193
 20
-124.1884669133975
 10
91.3666904468193
 20
-124.1884669133975
 10
92.68960707973557
 20
-124.2177474689456
 10
92.51321819534672
 20
-125.7759669130006
 10
92.51321819534672
 20
-125.7759669130006
 10
92.0429654295661
 20
-126.158378024016
 10
92.0429654295661
 20
-126.158378024016
 10
92.0429654295661
 20
-126.158378024016
 10
91.98405154218023
 20
-133.3314085777782
 10
91.98405154218023
 20
-133.3314085777782
 10
91.98405154218023
 20
-133.3314085777782
 10
92.0429654295661
 20
-135.7419391327313
 10
89.66171549031685
 20
-136.8884669102225
 10
89.66171549031685
 20
-136.8884669102225
 10
84.8697586681254
 20
-139.5928613539905
 10
84.3405920149589
 20
-134.5072169108178
 10
84.3405920149589
 20
-134.5072169108178
 10
86.51599612612638
 20
-134.4779363552693
 10
86.51599612612638
 20
-134.4779363552693
 10
86.51599612612638
 20
-134.4779363552693
 10
86.28069335435168
 20
-136.0358030215469
 10
87.48613499026497
 20
-135.7419391327313
 10
87.48613499026497
 20
-135.7419391327313
 10
89.72062937770272
 20
-135.1542113551001
 10
89.74990993251126
 20
-133.2432141333558
 10
89.74990993251126
 20
-133.2432141333558
 10
89.86738492951423
 20
-126.1287446906902
 10
89.86738492951423
 20
-126.1287446906902
 10
89.86738492951423
 20
-126.1287446906902
 10
89.77919048731981
 20
-124.8351085799023
 10
91.3666904468193
 20
-124.1884669133975
 97
        0
 97
        0
 75
     2
 76
     1
 98
        0
  0
SPLINE
  5
4F
330
41
100
AcDbEntity
  8
_U+30EC_U+30A4_U+30E4_U+30FC 1
 62
   179
420
  2234388
370
     9
100
AcDbSpline
210
0.0
220
0.0
230
1.0
 70
    11
 71
     3
 72
    17
 73
    13
 74
     0
 42
0.0000000001
 43
0.0000000001
 12
1.0
 22
0.0
 32
0.0
 13
1.0
 23
0.0
 33
0.0
 40
0.0
 40
0.0
 40
0.0
 40
0.0
 40
1.0
 40
1.0
 40
1.0
 40
2.0
 40
2.0
 40
2.0
 40
3.0
 40
3.0
 40
3.0
 40
4.0
 40
4.0
 40
4.0
 40
4.0
 10
86.51599612612638
 20
-134.492400244155
 30
0.0
 10
86.51599612612638
 20
-134.7927905218573
 30
0.0
 10
86.02884530522131
 20
-135.0363835773522
 30
0.0
 10
85.42820587610045
 20
-135.0363835773522
 30
0.0
 10
84.82756644697959
 20
-135.0363835773522
 30
0.0
 10
84.3405920149589
 20
-134.7927905218573
 30
0.0
 10
84.3405920149589
 20
-134.492400244155
 30
0.0
 10
84.3405920149589
 20
-134.1923274664517
 30
0.0
 10
84.82756644697959
 20
-133.948769688735
 30
0.0
 10
85.42820587610045
 20
-133.948769688735
 30
0.0
 10
86.02884530522131
 20
-133.948769688735
 30
0.0
 10
86.51599612612638
 20
-134.1923274664517
 30
0.0
 10
86.51599612612638
 20
-134.492400244155
 30
0.0
  0
HATCH
  5
50
330
41
100
AcDbEntity
  8
_U+30EC_U+30A4_U+30E4_U+30FC 1
 62
     7
420
 16711422
100
AcDbHatch
 10
0.0
 20
0.0
 30
0.0
210
0.0
220
0.0
230
1.0
  2
SOLID
 70
     1
 71
     0
 91
        1
 92
        1
 93
        1
 72
     4
 94
        3
 73
     0
 74
     1
 95
       17
 96
       13
 40
0.0
 40
0.0
 40
0.0
 40
0.0
 40
1.0
 40
1.0
 40
1.0
 40
2.0
 40
2.0
 40
2.0
 40
3.0
 40
3.0
 40
3.0
 40
4.0
 40
4.0
 40
4.0
 40
4.0
 10
86.51599612612638
 20
-134.492400244155
 10
86.51599612612638
 20
-134.7927905218573
 10
86.02884530522131
 20
-135.0363835773522
 10
85.42820587610045
 20
-135.0363835773522
 10
84.82756644697959
 20
-135.0363835773522
 10
84.3405920149589
 20
-134.7927905218573
 10
84.3405920149589
 20
-134.492400244155
 10
84.3405920149589
 20
-134.1923274664517
 10
84.82756644697959
 20
-133.948769688735
 10
85.42820587610045
 20
-133.948769688735
 10
86.02884530522131
 20
-133.948769688735
 10
86.51599612612638
 20
-134.1923274664517
 10
86.51599612612638
 20
-134.492400244155
 97
        0
 97
        0
 75
     2
 76
     1
 98
        0
  0
POLYLINE
  5
51
330
41
100
AcDbEntity
  8
_U+30EC_U+30A4_U+30E4_U+30FC 1
 62
   179
420
  2234388
370
     9
100
AcDb2dPolyline
 66
     1
 10
0.0
 20
0.0
 30
0.0
  0
VERTEX
  5
52
330
51
100
AcDbEntity
  8
_U+30EC_U+30A4_U+30E4_U+30FC 1
 62
   179
420
  2234388
370
     9
100
AcDbVertex
100
AcDb2dVertex
 10
79.47525741686171
 20
-122.2630058027675
 30
0.0
  0
VERTEX
  5
53
330
51
100
AcDbEntity
  8
_U+30EC_U+30A4_U+30E4_U+30FC 1
 62
   179
420
  2234388
370
     9
100
AcDbVertex
100
AcDb2dVertex
 10
84.37004895865184
 20
-124.7765474688058
 30
0.0
  0
SEQEND
  5
54
330
51
100
AcDbEntity
  8
_U+30EC_U+30A4_U+30E4_U+30FC 1
 62
   179
420
  2234388
370
     9
  0
POLYLINE
  5
55
330
41
100
AcDbEntity
  8
_U+30EC_U+30A4_U+30E4_U+30FC 1
 62
   179
420
  2234388
370
     9
100
AcDb2dPolyline
 66
     1
 10
0.0
 20
0.0
 30
0.0
  0
VERTEX
  5
56
330
55
100
AcDbEntity
  8
_U+30EC_U+30A4_U+30E4_U+30FC 1
 62
   179
420
  2234388
370
     9
100
AcDbVertex
100
AcDb2dVertex
 10
80.31310461770867
 20
-122.7039780248795
 30
0.0
  0
VERTEX
  5
57
330
55
100
AcDbEntity
  8
_U+30EC_U+30A4_U+30E4_U+30FC 1
 62
   179
420
  2234388
370
     9
100
AcDbVertex
100
AcDb2dVertex
 10
84.81102116962393
 20
-119.4407835812509
 30
0.0
  0
SEQEND
  5
58
330
55
100
AcDbEntity
  8
_U+30EC_U+30A4_U+30E4_U+30FC 1
 62
   179
420
  2234388
370
     9
  0
POLYLINE
  5
59
330
41
100
AcDbEntity
  8
_U+30EC_U+30A4_U+30E4_U+30FC 1
 62
   179
420
  2234388
370
     9
100
AcDb2dPolyline
 66
     1
 10
0.0
 20
0.0
 30
0.0
  0
VERTEX
  5
5A
330
59
100
AcDbEntity
  8
_U+30EC_U+30A4_U+30E4_U+30FC 1
 62
   179
420
  2234388
370
     9
100
AcDbVertex
100
AcDb2dVertex
 10
87.72143776203967
 20
-117.5446030261693
 30
0.0
  0
VERTEX
  5
5B
330
59
100
AcDbEntity
  8
_U+30EC_U+30A4_U+30E4_U+30FC 1
 62
   179
420
  2234388
370
     9
100
AcDbVertex
100
AcDb2dVertex
 10
91.73428488188564
 20
-114.5459919158079
 30
0.0
  0
SEQEND
  5
5C
330
59
100
AcDbEntity
  8
_U+30EC_U+30A4_U+30E4_U+30FC 1
 62
   179
420
  2234388
370
     9
  0
POLYLINE
  5
5D
330
41
100
AcDbEntity
  8
_U+30EC_U+30A4_U+30E4_U+30FC 1
 62
   179
420
  2234388
370
     9
100
AcDb2dPolyline
 66
     1
 10
0.0
 20
0.0
 30
0.0
  0
VERTEX
  5
5E
330
5D
100
AcDbEntity
  8
_U+30EC_U+30A4_U+30E4_U+30FC 1
 62
   179
420
  2234388
370
     9
100
AcDbVertex
100
AcDb2dVertex
 10
90.72004879664985
 20
-114.0609224714847
 30
0.0
  0
VERTEX
  5
5F
330
5D
100
AcDbEntity
  8
_U+30EC_U+30A4_U+30E4_U+30FC 1
 62
   179
420
  2234388
370
     9
100
AcDbVertex
100
AcDb2dVertex
 10
95.61484033843998
 20
-116.574464137523
 30
0.0
  0
SEQEND
  5
60
330
5D
100
AcDbEntity
  8
_U+30EC_U+30A4_U+30E4_U+30FC 1
 62
   179
420
  2234388
370
     9
  0
POLYLINE
  5
61
330
41
100
AcDbEntity
  8
_U+30EC_U+30A4_U+30E4_U+30FC 1
 62
   179
420
  2234388
370
     9
100
AcDb2dPolyline
 66
     1
 10
0.0
 20
0.0
 30
0.0
  0
VERTEX
  5
62
330
61
100
AcDbEntity
  8
_U+30EC_U+30A4_U+30E4_U+30FC 1
 62
   179
420
  2234388
370
     9
100
AcDbVertex
100
AcDb2dVertex
 10
79.51935463795891
 20
-128.61300580118
 30
0.0
  0
VERTEX
  5
63
330
61
100
AcDbEntity
  8
_U+30EC_U+30A4_U+30E4_U+30FC 1
 62
   179
420
  2234388
370
     9
100
AcDbVertex
100
AcDb2dVertex
 10
83.22352121012442
 20
-126.3199502461977
 30
0.0
  0
SEQEND
  5
64
330
61
100
AcDbEntity
  8
_U+30EC_U+30A4_U+30E4_U+30FC 1
 62
   179
420
  2234388
370
     9
  0
POLYLINE
  5
65
330
41
100
AcDbEntity
  8
_U+30EC_U+30A4_U+30E4_U+30FC 1
 62
   179
420
  2234388
370
     9
100
AcDb2dPolyline
 66
     1
 10
0.0
 20
0.0
 30
0.0
  0
VERTEX
  5
66
330
65
100
AcDbEntity
  8
_U+30EC_U+30A4_U+30E4_U+30FC 1
 62
   179
420
  2234388
370
     9
100
AcDbVertex
100
AcDb2dVertex
 10
80.66588238648633
 20
-127.9074502458009
 30
0.0
  0
VERTEX
  5
67
330
65
100
AcDbEntity
  8
_U+30EC_U+30A4_U+30E4_U+30FC 1
 62
   179
420
  2234388
370
     9
100
AcDbVertex
100
AcDb2dVertex
 10
80.66588238648633
 20
-132.8022419112438
 30
0.0
  0
SEQEND
  5
68
330
65
100
AcDbEntity
  8
_U+30EC_U+30A4_U+30E4_U+30FC 1
 62
   179
420
  2234388
370
     9
  0
POLYLINE
  5
69
330
41
100
AcDbEntity
  8
_U+30EC_U+30A4_U+30E4_U+30FC 1
 62
   179
420
  2234388
370
     9
100
AcDb2dPolyline
 66
     1
 10
0.0
 20
0.0
 30
0.0
  0
VERTEX
  5
6A
330
69
100
AcDbEntity
  8
_U+30EC_U+30A4_U+30E4_U+30FC 1
 62
   179
420
  2234388
370
     9
100
AcDbVertex
100
AcDb2dVertex
 10
80.57768794429192
 20
-135.5362696883381
 30
0.0
  0
VERTEX
  5
6B
330
69
100
AcDbEntity
  8
_U+30EC_U+30A4_U+30E4_U+30FC 1
 62
   179
420
  2234388
370
     9
100
AcDbVertex
100
AcDb2dVertex
 10
80.57768794429192
 20
-141.0043252425266
 30
0.0
  0
SEQEND
  5
6C
330
69
100
AcDbEntity
  8
_U+30EC_U+30A4_U+30E4_U+30FC 1
 62
   179
420
  2234388
370
     9
  0
POLYLINE
  5
6D
330
41
100
AcDbEntity
  8
_U+30EC_U+30A4_U+30E4_U+30FC 1
 62
   179
420
  2234388
370
     9
100
AcDb2dPolyline
 66
     1
 10
0.0
 20
0.0
 30
0.0
  0
VERTEX
  5
6E
330
6D
100
AcDbEntity
  8
_U+30EC_U+30A4_U+30E4_U+30FC 1
 62
   179
420
  2234388
370
     9
100
AcDbVertex
100
AcDb2dVertex
 10
79.4311601957645
 20
-141.4452974646386
 30
0.0
  0
VERTEX
  5
6F
330
6D
100
AcDbEntity
  8
_U+30EC_U+30A4_U+30E4_U+30FC 1
 62
   179
420
  2234388
370
     9
100
AcDbVertex
100
AcDb2dVertex
 10
82.95893788354117
 20
-139.8137002428243
 30
0.0
  0
SEQEND
  5
70
330
6D
100
AcDbEntity
  8
_U+30EC_U+30A4_U+30E4_U+30FC 1
 62
   179
420
  2234388
370
     9
  0
POLYLINE
  5
71
330
41
100
AcDbEntity
  8
_U+30EC_U+30A4_U+30E4_U+30FC 1
 62
   179
420
  2234388
370
     9
100
AcDb2dPolyline
 66
     1
 10
0.0
 20
0.0
 30
0.0
  0
VERTEX
  5
72
330
71
100
AcDbEntity
  8
_U+30EC_U+30A4_U+30E4_U+30FC 1
 62
   179
420
  2234388
370
     9
100
AcDbVertex
100
AcDb2dVertex
 10
88.82386828946989
 20
-140.1223807983027
 30
0.0
  0
VERTEX
  5
73
330
71
100
AcDbEntity
  8
_U+30EC_U+30A4_U+30E4_U+30FC 1
 62
   179
420
  2234388
370
     9
100
AcDbVertex
100
AcDb2dVertex
 10
93.67456261016281
 20
-142.415436353285
 30
0.0
  0
SEQEND
  5
74
330
71
100
AcDbEntity
  8
_U+30EC_U+30A4_U+30E4_U+30FC 1
 62
   179
420
  2234388
370
     9
  0
POLYLINE
  5
75
330
41
100
AcDbEntity
  8
_U+30EC_U+30A4_U+30E4_U+30FC 1
 62
   179
420
  2234388
370
     9
100
AcDb2dPolyline
 66
     1
 10
0.0
 20
0.0
 30
0.0
  0
VERTEX
  5
76
330
75
100
AcDbEntity
  8
_U+30EC_U+30A4_U+30E4_U+30FC 1
 62
   179
420
  2234388
370
     9
100
AcDbVertex
100
AcDb2dVertex
 10
91.82247932408005
 20
-141.533491909061
 30
0.0
  0
VERTEX
  5
77
330
75
100
AcDbEntity
  8
_U+30EC_U+30A4_U+30E4_U+30FC 1
 62
   179
420
  2234388
370
     9
100
AcDbVertex
100
AcDb2dVertex
 10
93.58636816796839
 20
-140.2546724649363
 30
0.0
  0
SEQEND
  5
78
330
75
100
AcDbEntity
  8
_U+30EC_U+30A4_U+30E4_U+30FC 1
 62
   179
420
  2234388
370
     9
  0
POLYLINE
  5
79
330
41
100
AcDbEntity
  8
_U+30EC_U+30A4_U+30E4_U+30FC 1
 62
   179
420
  2234388
370
     9
100
AcDb2dPolyline
 66
     1
 10
0.0
 20
0.0
 30
0.0
  0
VERTEX
  5
7A
330
79
100
AcDbEntity
  8
_U+30EC_U+30A4_U+30E4_U+30FC 1
 62
   179
420
  2234388
370
     9
100
AcDbVertex
100
AcDb2dVertex
 10
94.29192370552373
 20
-135.0952974662261
 30
0.0
  0
VERTEX
  5
7B
330
79
100
AcDbEntity
  8
_U+30EC_U+30A4_U+30E4_U+30FC 1
 62
   179
420
  2234388
370
     9
100
AcDbVertex
100
AcDb2dVertex
 10
99.23081246841106
 20
-137.4765474656308
 30
0.0
  0
SEQEND
  5
7C
330
79
100
AcDbEntity
  8
_U+30EC_U+30A4_U+30E4_U+30FC 1
 62
   179
420
  2234388
370
     9
  0
POLYLINE
  5
7D
330
41
100
AcDbEntity
  8
_U+30EC_U+30A4_U+30E4_U+30FC 1
 62
   179
420
  2234388
370
     9
100
AcDb2dPolyline
 66
     1
 10
0.0
 20
0.0
 30
0.0
  0
VERTEX
  5
7E
330
7D
100
AcDbEntity
  8
_U+30EC_U+30A4_U+30E4_U+30FC 1
 62
   179
420
  2234388
370
     9
100
AcDbVertex
100
AcDb2dVertex
 10
96.84956252916182
 20
-137.961616909954
 30
0.0
  0
VERTEX
  5
7F
330
7D
100
AcDbEntity
  8
_U+30EC_U+30A4_U+30E4_U+30FC 1
 62
   179
420
  2234388
370
     9
100
AcDbVertex
100
AcDb2dVertex
 10
98.08428471988364
 20
-136.9473807990964
 30
0.0
  0
SEQEND
  5
80
330
7D
100
AcDbEntity
  8
_U+30EC_U+30A4_U+30E4_U+30FC 1
 62
   179
420
  2234388
370
     9
  0
POLYLINE
  5
81
330
41
100
AcDbEntity
  8
_U+30EC_U+30A4_U+30E4_U+30FC 1
 62
   179
420
  2234388
370
     9
100
AcDb2dPolyline
 66
     1
 10
0.0
 20
0.0
 30
0.0
  0
VERTEX
  5
82
330
81
100
AcDbEntity
  8
_U+30EC_U+30A4_U+30E4_U+30FC 1
 62
   179
420
  2234388
370
     9
100
AcDbVertex
100
AcDb2dVertex
 10
92.96900707260747
 20
-133.1550196889334
 30
0.0
  0
VERTEX
  5
83
330
81
100
AcDbEntity
  8
_U+30EC_U+30A4_U+30E4_U+30FC 1
 62
   179
420
  2234388
370
     9
100
AcDbVertex
100
AcDb2dVertex
 10
92.70442374602422
 20
-132.5376585779766
 30
0.0
  0
VERTEX
  5
84
330
81
100
AcDbEntity
  8
_U+30EC_U+30A4_U+30E4_U+30FC 1
 62
   179
420
  2234388
370
     9
100
AcDbVertex
100
AcDb2dVertex
 10
92.43984041944097
 20
-133.6400891332566
 30
0.0
  0
VERTEX
  5
85
330
81
100
AcDbEntity
  8
_U+30EC_U+30A4_U+30E4_U+30FC 1
 62
   179
420
  2234388
370
     9
100
AcDbVertex
100
AcDb2dVertex
 10
93.58636816796839
 20
-133.3314085777782
 30
0.0
  0
VERTEX
  5
86
330
81
100
AcDbEntity
  8
_U+30EC_U+30A4_U+30E4_U+30FC 1
 62
   179
420
  2234388
370
     9
100
AcDbVertex
100
AcDb2dVertex
 10
92.96900707260747
 20
-133.1550196889334
 30
0.0
  0
SEQEND
  5
88
330
81
100
AcDbEntity
  8
_U+30EC_U+30A4_U+30E4_U+30FC 1
 62
   179
420
  2234388
370
     9
  0
HATCH
  5
87
330
41
100
AcDbEntity
  8
_U+30EC_U+30A4_U+30E4_U+30FC 1
 62
   179
420
  2234388
100
AcDbHatch
 10
0.0
 20
0.0
 30
0.0
210
0.0
220
0.0
230
1.0
  2
SOLID
 70
     1
 71
     0
 91
        1
 92
        1
 93
        4
 72
     1
 10
92.96900707260747
 20
-133.1550196889334
 11
92.70442374602422
 21
-132.5376585779766
 72
     1
 10
92.70442374602422
 20
-132.5376585779766
 11
92.43984041944097
 21
-133.6400891332566
 72
     1
 10
92.43984041944097
 20
-133.6400891332566
 11
93.58636816796839
 21
-133.3314085777782
 72
     1
 10
93.58636816796839
 20
-133.3314085777782
 11
92.96900707260747
 21
-133.1550196889334
 97
        0
 75
     2
 76
     1
 98
        0
  0
POLYLINE
  5
89
330
41
100
AcDbEntity
  8
_U+30EC_U+30A4_U+30E4_U+30FC 1
 62
   179
420
  2234388
370
     9
100
AcDb2dPolyline
 66
     1
 10
0.0
 20
0.0
 30
0.0
  0
VERTEX
  5
8A
330
89
100
AcDbEntity
  8
_U+30EC_U+30A4_U+30E4_U+30FC 1
 62
   179
420
  2234388
370
     9
100
AcDbVertex
100
AcDb2dVertex
 10
92.88081263041306
 20
-133.287311355567
 30
0.0
  0
VERTEX
  5
8B
330
89
100
AcDbEntity
  8
_U+30EC_U+30A4_U+30E4_U+30FC 1
 62
   179
420
  2234388
370
     9
100
AcDbVertex
100
AcDb2dVertex
 10
95.12977090637068
 20
-130.7296724673175
 30
0.0
  0
VERTEX
  5
8C
330
89
100
AcDbEntity
  8
_U+30EC_U+30A4_U+30E4_U+30FC 1
 62
   179
420
  2234388
370
     9
100
AcDbVertex
100
AcDb2dVertex
 10
100.8624096490078
 20
-130.7296724673175
 30
0.0
  0
SEQEND
  5
8D
330
89
100
AcDbEntity
  8
_U+30EC_U+30A4_U+30E4_U+30FC 1
 62
   179
420
  2234388
370
     9
  0
INSERT
  5
8F
330
41
100
AcDbEntity
  8
_U+30EC_U+30A4_U+30E4_U+30FC 1
100
AcDbBlockReference
  2
block 3
 10
0.0
 20
0.0
 30
0.0
  0
INSERT
  5
A4
330
41
100
AcDbEntity
  8
_U+30EC_U+30A4_U+30E4_U+30FC 1
100
AcDbBlockReference
  2
block 4
 10
0.0
 20
0.0
 30
0.0
  0
INSERT
  5
AC
330
41
100
AcDbEntity
  8
_U+30EC_U+30A4_U+30E4_U+30FC 1
100
AcDbBlockReference
  2
block 5
 10
0.0
 20
0.0
 30
0.0
  0
INSERT
  5
B4
330
41
100
AcDbEntity
  8
_U+30EC_U+30A4_U+30E4_U+30FC 1
100
AcDbBlockReference
  2
block 6
 10
0.0
 20
0.0
 30
0.0
  0
SPLINE
  5
C5
330
41
100
AcDbEntity
  8
_U+30EC_U+30A4_U+30E4_U+30FC 1
370
     0
100
AcDbSpline
210
0.0
220
0.0
230
1.0
 70
    11
 71
     3
 72
    17
 73
    13
 74
     0
 42
0.0000000001
 43
0.0000000001
 12
1.0
 22
0.0
 32
0.0
 13
1.0
 23
0.0
 33
0.0
 40
0.0
 40
0.0
 40
0.0
 40
0.0
 40
1.0
 40
1.0
 40
1.0
 40
2.0
 40
2.0
 40
2.0
 40
3.0
 40
3.0
 40
3.0
 40
4.0
 40
4.0
 40
4.0
 40
4.0
 10
98.34026026890872
 20
-136.9649491324256
 30
0.0
 10
98.34026026890872
 20
-137.0965352435037
 30
0.0
 10
98.23344164210843
 20
-137.2030035768101
 30
0.0
 10
98.10185553103035
 20
-137.2030035768101
 30
0.0
 10
97.97023166723783
 20
-137.2030035768101
 30
0.0
 10
97.86379861439761
 20
-137.0965352435037
 30
0.0
 10
97.86379861439761
 20
-136.9649491324256
 30
0.0
 10
97.86379861439761
 20
-136.8333277435694
 30
0.0
 10
97.97023166723783
 20
-136.7268946880404
 30
0.0
 10
98.10185553103035
 20
-136.7268946880404
 30
0.0
 10
98.23344164210843
 20
-136.7268946880404
 30
0.0
 10
98.34026026890872
 20
-136.8333277435694
 30
0.0
 10
98.34026026890872
 20
-136.9649491324256
 30
0.0
  0
HATCH
  5
C6
330
41
100
AcDbEntity
  8
_U+30EC_U+30A4_U+30E4_U+30FC 1
 62
   179
420
  2234388
100
AcDbHatch
 10
0.0
 20
0.0
 30
0.0
210
0.0
220
0.0
230
1.0
  2
SOLID
 70
     1
 71
     0
 91
        1
 92
        1
 93
        1
 72
     4
 94
        3
 73
     0
 74
     1
 95
       17
 96
       13
 40
0.0
 40
0.0
 40
0.0
 40
0.0
 40
1.0
 40
1.0
 40
1.0
 40
2.0
 40
2.0
 40
2.0
 40
3.0
 40
3.0
 40
3.0
 40
4.0
 40
4.0
 40
4.0
 40
4.0
 10
98.34026026890872
 20
-136.9649491324256
 10
98.34026026890872
 20
-137.0965352435037
 10
98.23344164210843
 20
-137.2030035768101
 10
98.10185553103035
 20
-137.2030035768101
 10
97.97023166723783
 20
-137.2030035768101
 10
97.86379861439761
 20
-137.0965352435037
 10
97.86379861439761
 20
-136.9649491324256
 10
97.86379861439761
 20
-136.8333277435694
 10
97.97023166723783
 20
-136.7268946880404
 10
98.10185553103035
 20
-136.7268946880404
 10
98.23344164210843
 20
-136.7268946880404
 10
98.34026026890872
 20
-136.8333277435694
 10
98.34026026890872
 20
-136.9649491324256
 97
        0
 97
        0
 75
     2
 76
     1
 98
        0
  0
SPLINE
  5
C7
330
41
100
AcDbEntity
  8
_U+30EC_U+30A4_U+30E4_U+30FC 1
370
     0
100
AcDbSpline
210
0.0
220
0.0
230
1.0
 70
    11
 71
     3
 72
    17
 73
    13
 74
     0
 42
0.0000000001
 43
0.0000000001
 12
1.0
 22
0.0
 32
0.0
 13
1.0
 23
0.0
 33
0.0
 40
0.0
 40
0.0
 40
0.0
 40
0.0
 40
1.0
 40
1.0
 40
1.0
 40
2.0
 40
2.0
 40
2.0
 40
3.0
 40
3.0
 40
3.0
 40
4.0
 40
4.0
 40
4.0
 40
4.0
 10
92.07845487310513
 20
-141.5951574646014
 30
0.0
 10
92.07845487310513
 20
-141.7267435756795
 30
0.0
 10
91.97163608811833
 20
-141.8332119089859
 30
0.0
 10
91.84004997704025
 20
-141.8332119089859
 30
0.0
 10
91.70842627143423
 20
-141.8332119089859
 30
0.0
 10
91.60199321859402
 20
-141.7267435756795
 30
0.0
 10
91.60199321859402
 20
-141.5951574646014
 30
0.0
 10
91.60199321859402
 20
-141.4635360757452
 30
0.0
 10
91.70842627143423
 20
-141.3571030202162
 30
0.0
 10
91.84004997704025
 20
-141.3571030202162
 30
0.0
 10
91.97163608811833
 20
-141.3571030202162
 30
0.0
 10
92.07845487310513
 20
-141.4635360757452
 30
0.0
 10
92.07845487310513
 20
-141.5951574646014
 30
0.0
  0
HATCH
  5
C8
330
41
100
AcDbEntity
  8
_U+30EC_U+30A4_U+30E4_U+30FC 1
 62
   179
420
  2234388
100
AcDbHatch
 10
0.0
 20
0.0
 30
0.0
210
0.0
220
0.0
230
1.0
  2
SOLID
 70
     1
 71
     0
 91
        1
 92
        1
 93
        1
 72
     4
 94
        3
 73
     0
 74
     1
 95
       17
 96
       13
 40
0.0
 40
0.0
 40
0.0
 40
0.0
 40
1.0
 40
1.0
 40
1.0
 40
2.0
 40
2.0
 40
2.0
 40
3.0
 40
3.0
 40
3.0
 40
4.0
 40
4.0
 40
4.0
 40
4.0
 10
92.07845487310513
 20
-141.5951574646014
 10
92.07845487310513
 20
-141.7267435756795
 10
91.97163608811833
 20
-141.8332119089859
 10
91.84004997704025
 20
-141.8332119089859
 10
91.70842627143423
 20
-141.8332119089859
 10
91.60199321859402
 20
-141.7267435756795
 10
91.60199321859402
 20
-141.5951574646014
 10
91.60199321859402
 20
-141.4635360757452
 10
91.70842627143423
 20
-141.3571030202162
 10
91.84004997704025
 20
-141.3571030202162
 10
91.97163608811833
 20
-141.3571030202162
 10
92.07845487310513
 20
-141.4635360757452
 10
92.07845487310513
 20
-141.5951574646014
 97
        0
 97
        0
 75
     2
 76
     1
 98
        0
  0
SPLINE
  5
C9
330
41
100
AcDbEntity
  8
_U+30EC_U+30A4_U+30E4_U+30FC 1
370
     0
100
AcDbSpline
210
0.0
220
0.0
230
1.0
 70
    11
 71
     3
 72
    17
 73
    13
 74
     0
 42
0.0000000001
 43
0.0000000001
 12
1.0
 22
0.0
 32
0.0
 13
1.0
 23
0.0
 33
0.0
 40
0.0
 40
0.0
 40
0.0
 40
0.0
 40
1.0
 40
1.0
 40
1.0
 40
2.0
 40
2.0
 40
2.0
 40
3.0
 40
3.0
 40
3.0
 40
4.0
 40
4.0
 40
4.0
 40
4.0
 10
80.7893898833354
 20
-140.8896019092222
 30
0.0
 10
80.7893898833354
 20
-141.0211880203003
 30
0.0
 10
80.68274720205166
 20
-141.1276563536068
 30
0.0
 10
80.55116109097327
 20
-141.1276563536068
 30
0.0
 10
80.41971405943328
 20
-141.1276563536068
 30
0.0
 10
80.31310461770867
 20
-141.0211880203003
 30
0.0
 10
80.31310461770867
 20
-140.8896019092222
 30
0.0
 10
80.31310461770867
 20
-140.757980520366
 30
0.0
 10
80.41971405943328
 20
-140.6515474648371
 30
0.0
 10
80.55116109097327
 20
-140.6515474648371
 30
0.0
 10
80.68274720205166
 20
-140.6515474648371
 30
0.0
 10
80.7893898833354
 20
-140.757980520366
 30
0.0
 10
80.7893898833354
 20
-140.8896019092222
 30
0.0
  0
HATCH
  5
CA
330
41
100
AcDbEntity
  8
_U+30EC_U+30A4_U+30E4_U+30FC 1
 62
   179
420
  2234388
100
AcDbHatch
 10
0.0
 20
0.0
 30
0.0
210
0.0
220
0.0
230
1.0
  2
SOLID
 70
     1
 71
     0
 91
        1
 92
        1
 93
        1
 72
     4
 94
        3
 73
     0
 74
     1
 95
       17
 96
       13
 40
0.0
 40
0.0
 40
0.0
 40
0.0
 40
1.0
 40
1.0
 40
1.0
 40
2.0
 40
2.0
 40
2.0
 40
3.0
 40
3.0
 40
3.0
 40
4.0
 40
4.0
 40
4.0
 40
4.0
 10
80.7893898833354
 20
-140.8896019092222
 10
80.7893898833354
 20
-141.0211880203003
 10
80.68274720205166
 20
-141.1276563536068
 10
80.55116109097327
 20
-141.1276563536068
 10
80.41971405943328
 20
-141.1276563536068
 10
80.31310461770867
 20
-141.0211880203003
 10
80.31310461770867
 20
-140.8896019092222
 10
80.31310461770867
 20
-140.757980520366
 10
80.41971405943328
 20
-140.6515474648371
 10
80.55116109097327
 20
-140.6515474648371
 10
80.68274720205166
 20
-140.6515474648371
 10
80.7893898833354
 20
-140.757980520366
 10
80.7893898833354
 20
-140.8896019092222
 97
        0
 97
        0
 75
     2
 76
     1
 98
        0
  0
SPLINE
  5
CB
330
41
100
AcDbEntity
  8
_U+30EC_U+30A4_U+30E4_U+30FC 1
370
     0
100
AcDbSpline
210
0.0
220
0.0
230
1.0
 70
    11
 71
     3
 72
    17
 73
    13
 74
     0
 42
0.0000000001
 43
0.0000000001
 12
1.0
 22
0.0
 32
0.0
 13
1.0
 23
0.0
 33
0.0
 40
0.0
 40
0.0
 40
0.0
 40
0.0
 40
1.0
 40
1.0
 40
1.0
 40
2.0
 40
2.0
 40
2.0
 40
3.0
 40
3.0
 40
3.0
 40
4.0
 40
4.0
 40
4.0
 40
4.0
 10
80.87758432552981
 20
-127.8809213569185
 30
0.0
 10
80.87758432552981
 20
-128.0125074679969
 30
0.0
 10
80.77094164647406
 20
-128.1189758013037
 30
0.0
 10
80.63935553539567
 20
-128.1189758013037
 30
0.0
 10
80.5079085016277
 20
-128.1189758013037
 30
0.0
 10
80.40129905990308
 20
-128.0125074679969
 30
0.0
 10
80.40129905990308
 20
-127.8809213569185
 30
0.0
 10
80.40129905990308
 20
-127.7492999680626
 30
0.0
 10
80.5079085016277
 20
-127.6428669125337
 30
0.0
 10
80.63935553539567
 20
-127.6428669125337
 30
0.0
 10
80.77094164647406
 20
-127.6428669125337
 30
0.0
 10
80.87758432552981
 20
-127.7492999680626
 30
0.0
 10
80.87758432552981
 20
-127.8809213569185
 30
0.0
  0
HATCH
  5
CC
330
41
100
AcDbEntity
  8
_U+30EC_U+30A4_U+30E4_U+30FC 1
 62
   179
420
  2234388
100
AcDbHatch
 10
0.0
 20
0.0
 30
0.0
210
0.0
220
0.0
230
1.0
  2
SOLID
 70
     1
 71
     0
 91
        1
 92
        1
 93
        1
 72
     4
 94
        3
 73
     0
 74
     1
 95
       17
 96
       13
 40
0.0
 40
0.0
 40
0.0
 40
0.0
 40
1.0
 40
1.0
 40
1.0
 40
2.0
 40
2.0
 40
2.0
 40
3.0
 40
3.0
 40
3.0
 40
4.0
 40
4.0
 40
4.0
 40
4.0
 10
80.87758432552981
 20
-127.8809213569185
 10
80.87758432552981
 20
-128.0125074679969
 10
80.77094164647406
 20
-128.1189758013037
 10
80.63935553539567
 20
-128.1189758013037
 10
80.5079085016277
 20
-128.1189758013037
 10
80.40129905990308
 20
-128.0125074679969
 10
80.40129905990308
 20
-127.8809213569185
 10
80.40129905990308
 20
-127.7492999680626
 10
80.5079085016277
 20
-127.6428669125337
 10
80.63935553539567
 20
-127.6428669125337
 10
80.77094164647406
 20
-127.6428669125337
 10
80.87758432552981
 20
-127.7492999680626
 10
80.87758432552981
 20
-127.8809213569185
 97
        0
 97
        0
 75
     2
 76
     1
 98
        0
  0
SPLINE
  5
CD
330
41
100
AcDbEntity
  8
_U+30EC_U+30A4_U+30E4_U+30FC 1
370
     0
100
AcDbSpline
210
0.0
220
0.0
230
1.0
 70
    11
 71
     3
 72
    17
 73
    13
 74
     0
 42
0.0000000001
 43
0.0000000001
 12
1.0
 22
0.0
 32
0.0
 13
1.0
 23
0.0
 33
0.0
 40
0.0
 40
0.0
 40
0.0
 40
0.0
 40
1.0
 40
1.0
 40
1.0
 40
2.0
 40
2.0
 40
2.0
 40
3.0
 40
3.0
 40
3.0
 40
4.0
 40
4.0
 40
4.0
 40
4.0
 10
80.61300099894656
 20
-122.6774491359972
 30
0.0
 10
80.61300099894656
 20
-122.8090352470756
 30
0.0
 10
80.50635831320686
 20
-122.9155035803823
 30
0.0
 10
80.37477220212847
 20
-122.9155035803823
 30
0.0
 10
80.24332517504445
 20
-122.9155035803823
 30
0.0
 10
80.13671573331983
 20
-122.8090352470756
 30
0.0
 10
80.13671573331983
 20
-122.6774491359972
 30
0.0
 10
80.13671573331983
 20
-122.5458277471413
 30
0.0
 10
80.24332517504445
 20
-122.4393946916123
 30
0.0
 10
80.37477220212847
 20
-122.4393946916123
 30
0.0
 10
80.50635831320686
 20
-122.4393946916123
 30
0.0
 10
80.61300099894656
 20
-122.5458277471413
 30
0.0
 10
80.61300099894656
 20
-122.6774491359972
 30
0.0
  0
HATCH
  5
CE
330
41
100
AcDbEntity
  8
_U+30EC_U+30A4_U+30E4_U+30FC 1
 62
   179
420
  2234388
100
AcDbHatch
 10
0.0
 20
0.0
 30
0.0
210
0.0
220
0.0
230
1.0
  2
SOLID
 70
     1
 71
     0
 91
        1
 92
        1
 93
        1
 72
     4
 94
        3
 73
     0
 74
     1
 95
       17
 96
       13
 40
0.0
 40
0.0
 40
0.0
 40
0.0
 40
1.0
 40
1.0
 40
1.0
 40
2.0
 40
2.0
 40
2.0
 40
3.0
 40
3.0
 40
3.0
 40
4.0
 40
4.0
 40
4.0
 40
4.0
 10
80.61300099894656
 20
-122.6774491359972
 10
80.61300099894656
 20
-122.8090352470756
 10
80.50635831320686
 20
-122.9155035803823
 10
80.37477220212847
 20
-122.9155035803823
 10
80.24332517504445
 20
-122.9155035803823
 10
80.13671573331983
 20
-122.8090352470756
 10
80.13671573331983
 20
-122.6774491359972
 10
80.13671573331983
 20
-122.5458277471413
 10
80.24332517504445
 20
-122.4393946916123
 10
80.37477220212847
 20
-122.4393946916123
 10
80.50635831320686
 20
-122.4393946916123
 10
80.61300099894656
 20
-122.5458277471413
 10
80.61300099894656
 20
-122.6774491359972
 97
        0
 97
        0
 75
     2
 76
     1
 98
        0
  0
SPLINE
  5
CF
330
41
100
AcDbEntity
  8
_U+30EC_U+30A4_U+30E4_U+30FC 1
370
     0
100
AcDbSpline
210
0.0
220
0.0
230
1.0
 70
    11
 71
     3
 72
    17
 73
    13
 74
     0
 42
0.0000000001
 43
0.0000000001
 12
1.0
 22
0.0
 32
0.0
 13
1.0
 23
0.0
 33
0.0
 40
0.0
 40
0.0
 40
0.0
 40
0.0
 40
1.0
 40
1.0
 40
1.0
 40
2.0
 40
2.0
 40
2.0
 40
3.0
 40
3.0
 40
3.0
 40
4.0
 40
4.0
 40
4.0
 40
4.0
 10
91.85796876761908
 20
-114.5194630269255
 30
0.0
 10
91.85796876761908
 20
-114.6510491380039
 30
0.0
 10
91.75114997706234
 20
-114.7575174713107
 30
0.0
 10
91.61956386598426
 20
-114.7575174713107
 30
0.0
 10
91.48794016594819
 20
-114.7575174713107
 30
0.0
 10
91.38150711310797
 20
-114.6510491380039
 30
0.0
 10
91.38150711310797
 20
-114.5194630269255
 30
0.0
 10
91.38150711310797
 20
-114.3878416380696
 30
0.0
 10
91.48794016594819
 20
-114.2814085825407
 30
0.0
 10
91.61956386598426
 20
-114.2814085825407
 30
0.0
 10
91.75114997706234
 20
-114.2814085825407
 30
0.0
 10
91.85796876761908
 20
-114.3878416380696
 30
0.0
 10
91.85796876761908
 20
-114.5194630269255
 30
0.0
  0
HATCH
  5
D0
330
41
100
AcDbEntity
  8
_U+30EC_U+30A4_U+30E4_U+30FC 1
 62
   179
420
  2234388
100
AcDbHatch
 10
0.0
 20
0.0
 30
0.0
210
0.0
220
0.0
230
1.0
  2
SOLID
 70
     1
 71
     0
 91
        1
 92
        1
 93
        1
 72
     4
 94
        3
 73
     0
 74
     1
 95
       17
 96
       13
 40
0.0
 40
0.0
 40
0.0
 40
0.0
 40
1.0
 40
1.0
 40
1.0
 40
2.0
 40
2.0
 40
2.0
 40
3.0
 40
3.0
 40
3.0
 40
4.0
 40
4.0
 40
4.0
 40
4.0
 10
91.85796876761908
 20
-114.5194630269255
 10
91.85796876761908
 20
-114.6510491380039
 10
91.75114997706234
 20
-114.7575174713107
 10
91.61956386598426
 20
-114.7575174713107
 10
91.48794016594819
 20
-114.7575174713107
 10
91.38150711310797
 20
-114.6510491380039
 10
91.38150711310797
 20
-114.5194630269255
 10
91.38150711310797
 20
-114.3878416380696
 10
91.48794016594819
 20
-114.2814085825407
 10
91.61956386598426
 20
-114.2814085825407
 10
91.75114997706234
 20
-114.2814085825407
 10
91.85796876761908
 20
-114.3878416380696
 10
91.85796876761908
 20
-114.5194630269255
 97
        0
 97
        0
 75
     2
 76
     1
 98
        0
  0
ENDBLK
  5
44
330
41
100
AcDbEntity
  8
0
100
AcDbBlockEnd
  0
BLOCK
  5
90
330
8E
100
AcDbEntity
  8
0
100
AcDbBlockBegin
  2
block 3
 70
     0
 10
0.0
 20
0.0
 30
0.0
  3
block 3
  1

  0
SPLINE
  5
92
330
8E
100
AcDbEntity
  8
_U+30EC_U+30A4_U+30E4_U+30FC 1
370
     0
100
AcDbSpline
210
0.0
220
0.0
230
1.0
 70
    11
 71
     3
 72
    35
 73
    31
 74
     0
 42
0.0000000001
 43
0.0000000001
 12
1.0
 22
0.0
 32
0.0
 13
1.0
 23
0.0
 33
0.0
 40
0.0
 40
0.0
 40
0.0
 40
0.0
 40
1.0
 40
1.0
 40
1.0
 40
2.0
 40
2.0
 40
2.0
 40
3.0
 40
3.0
 40
3.0
 40
4.0
 40
4.0
 40
4.0
 40
5.0
 40
5.0
 40
5.0
 40
6.0
 40
6.0
 40
6.0
 40
7.0
 40
7.0
 40
7.0
 40
8.0
 40
8.0
 40
8.0
 40
9.0
 40
9.0
 40
9.0
 40
10.0
 40
10.0
 40
10.0
 40
10.0
 10
96.79409177267648
 20
-128.3887179583542
 30
0.0
 10
96.79409177267648
 20
-128.3887179583542
 30
0.0
 10
96.7434488690433
 20
-128.6531290368471
 30
0.0
 10
96.7434488690433
 20
-128.6531290368471
 30
0.0
 10
96.88297523619593
 20
-128.6658758901426
 30
0.0
 10
97.21094832639172
 20
-128.7568264109532
 30
0.0
 10
97.21094832639172
 20
-129.1480170033033
 30
0.0
 10
97.21094832639172
 20
-129.626196256656
 30
0.0
 10
96.80477156868075
 20
-129.750908713222
 30
0.0
 10
96.52985294895782
 20
-129.750908713222
 30
0.0
 10
96.52985294895782
 20
-129.750908713222
 30
0.0
 10
96.4619845678984
 20
-130.1043755100086
 30
0.0
 10
96.4619845678984
 20
-130.1043755100086
 30
0.0
 10
96.4619845678984
 20
-130.1043755100086
 30
0.0
 10
96.25458981968636
 20
-130.1043755100086
 30
0.0
 10
96.25458981968636
 20
-130.1043755100086
 30
0.0
 10
96.25458981968636
 20
-130.1043755100086
 30
0.0
 10
96.32659231532809
 20
-129.7360948026354
 30
0.0
 10
96.32659231532809
 20
-129.7360948026354
 30
0.0
 10
96.21876082663975
 20
-129.7171467774666
 30
0.0
 10
95.8677055966928
 20
-129.6558240778291
 30
0.0
 10
95.8677055966928
 20
-129.2389675241139
 30
0.0
 10
95.8677055966928
 20
-128.7907606014829
 30
0.0
 10
96.22289494122205
 20
-128.6403821835517
 30
0.0
 10
96.53812117812242
 20
-128.6403821835517
 30
0.0
 10
96.53812117812242
 20
-128.6403821835517
 30
0.0
 10
96.58669702446444
 20
-128.3887179583542
 30
0.0
 10
96.58669702446444
 20
-128.3887179583542
 30
0.0
 10
96.58669702446444
 20
-128.3887179583542
 30
0.0
 10
96.79409177267648
 20
-128.3887179583542
 30
0.0
 10
96.79409177267648
 20
-128.3887179583542
 30
0.0
  0
SPLINE
  5
93
330
8E
100
AcDbEntity
  8
_U+30EC_U+30A4_U+30E4_U+30FC 1
370
     0
100
AcDbSpline
210
0.0
220
0.0
230
1.0
 70
    11
 71
     3
 72
    14
 73
    10
 74
     0
 42
0.0000000001
 43
0.0000000001
 12
1.0
 22
0.0
 32
0.0
 13
1.0
 23
0.0
 33
0.0
 40
0.0
 40
0.0
 40
0.0
 40
0.0
 40
1.0
 40
1.0
 40
1.0
 40
2.0
 40
2.0
 40
2.0
 40
3.0
 40
3.0
 40
3.0
 40
3.0
 10
96.50435924236697
 20
-128.8138427412341
 30
0.0
 10
96.38378090038323
 20
-128.8224554799472
 30
0.0
 10
96.0895697459429
 20
-128.8455376196983
 30
0.0
 10
96.0895697459429
 20
-129.2434461482447
 30
0.0
 10
96.0895697459429
 20
-129.3068359051733
 30
0.0
 10
96.0895697459429
 20
-129.5204318252588
 30
0.0
 10
96.35828719379238
 20
-129.5648735570185
 30
0.0
 10
96.35828719379238
 20
-129.5648735570185
 30
0.0
 10
96.50435924236697
 20
-128.8138427412341
 30
0.0
 10
96.50435924236697
 20
-128.8138427412341
 30
0.0
  0
SPLINE
  5
94
330
8E
100
AcDbEntity
  8
_U+30EC_U+30A4_U+30E4_U+30FC 1
370
     0
100
AcDbSpline
210
0.0
220
0.0
230
1.0
 70
    11
 71
     3
 72
    14
 73
    10
 74
     0
 42
0.0000000001
 43
0.0000000001
 12
1.0
 22
0.0
 32
0.0
 13
1.0
 23
0.0
 33
0.0
 40
0.0
 40
0.0
 40
0.0
 40
0.0
 40
1.0
 40
1.0
 40
1.0
 40
2.0
 40
2.0
 40
2.0
 40
3.0
 40
3.0
 40
3.0
 40
3.0
 10
96.56568194200442
 20
-129.5734862957316
 30
0.0
 10
96.7475829836256
 20
-129.5690076716008
 30
0.0
 10
96.99080672488425
 20
-129.4887369467945
 30
0.0
 10
96.99080672488425
 20
-129.1332030927167
 30
0.0
 10
96.99080672488425
 20
-129.040185514615
 30
0.0
 10
96.97805987158883
 20
-128.8520833011203
 30
0.0
 10
96.70727536644819
 20
-128.8245225372383
 30
0.0
 10
96.70727536644819
 20
-128.8245225372383
 30
0.0
 10
96.56568194200442
 20
-129.5734862957316
 30
0.0
 10
96.56568194200442
 20
-129.5734862957316
 30
0.0
  0
HATCH
  5
95
330
8E
100
AcDbEntity
  8
_U+30EC_U+30A4_U+30E4_U+30FC 1
 62
   179
420
  2234388
100
AcDbHatch
 10
0.0
 20
0.0
 30
0.0
210
0.0
220
0.0
230
1.0
  2
SOLID
 70
     1
 71
     0
 91
        3
 92
        1
 93
        1
 72
     4
 94
        3
 73
     0
 74
     1
 95
       35
 96
       31
 40
0.0
 40
0.0
 40
0.0
 40
0.0
 40
1.0
 40
1.0
 40
1.0
 40
2.0
 40
2.0
 40
2.0
 40
3.0
 40
3.0
 40
3.0
 40
4.0
 40
4.0
 40
4.0
 40
5.0
 40
5.0
 40
5.0
 40
6.0
 40
6.0
 40
6.0
 40
7.0
 40
7.0
 40
7.0
 40
8.0
 40
8.0
 40
8.0
 40
9.0
 40
9.0
 40
9.0
 40
10.0
 40
10.0
 40
10.0
 40
10.0
 10
96.79409177267648
 20
-128.3887179583542
 10
96.79409177267648
 20
-128.3887179583542
 10
96.7434488690433
 20
-128.6531290368471
 10
96.7434488690433
 20
-128.6531290368471
 10
96.88297523619593
 20
-128.6658758901426
 10
97.21094832639172
 20
-128.7568264109532
 10
97.21094832639172
 20
-129.1480170033033
 10
97.21094832639172
 20
-129.626196256656
 10
96.80477156868075
 20
-129.750908713222
 10
96.52985294895782
 20
-129.750908713222
 10
96.52985294895782
 20
-129.750908713222
 10
96.4619845678984
 20
-130.1043755100086
 10
96.4619845678984
 20
-130.1043755100086
 10
96.4619845678984
 20
-130.1043755100086
 10
96.25458981968636
 20
-130.1043755100086
 10
96.25458981968636
 20
-130.1043755100086
 10
96.25458981968636
 20
-130.1043755100086
 10
96.32659231532809
 20
-129.7360948026354
 10
96.32659231532809
 20
-129.7360948026354
 10
96.21876082663975
 20
-129.7171467774666
 10
95.8677055966928
 20
-129.6558240778291
 10
95.8677055966928
 20
-129.2389675241139
 10
95.8677055966928
 20
-128.7907606014829
 10
96.22289494122205
 20
-128.6403821835517
 10
96.53812117812242
 20
-128.6403821835517
 10
96.53812117812242
 20
-128.6403821835517
 10
96.58669702446444
 20
-128.3887179583542
 10
96.58669702446444
 20
-128.3887179583542
 10
96.58669702446444
 20
-128.3887179583542
 10
96.79409177267648
 20
-128.3887179583542
 10
96.79409177267648
 20
-128.3887179583542
 97
        0
 97
        0
 92
        1
 93
        1
 72
     4
 94
        3
 73
     0
 74
     1
 95
       14
 96
       10
 40
0.0
 40
0.0
 40
0.0
 40
0.0
 40
1.0
 40
1.0
 40
1.0
 40
2.0
 40
2.0
 40
2.0
 40
3.0
 40
3.0
 40
3.0
 40
3.0
 10
96.50435924236697
 20
-128.8138427412341
 10
96.38378090038323
 20
-128.8224554799472
 10
96.0895697459429
 20
-128.8455376196983
 10
96.0895697459429
 20
-129.2434461482447
 10
96.0895697459429
 20
-129.3068359051733
 10
96.0895697459429
 20
-129.5204318252588
 10
96.35828719379238
 20
-129.5648735570185
 10
96.35828719379238
 20
-129.5648735570185
 10
96.50435924236697
 20
-128.8138427412341
 10
96.50435924236697
 20
-128.8138427412341
 97
        0
 97
        0
 92
        1
 93
        1
 72
     4
 94
        3
 73
     0
 74
     1
 95
       14
 96
       10
 40
0.0
 40
0.0
 40
0.0
 40
0.0
 40
1.0
 40
1.0
 40
1.0
 40
2.0
 40
2.0
 40
2.0
 40
3.0
 40
3.0
 40
3.0
 40
3.0
 10
96.56568194200442
 20
-129.5734862957316
 10
96.7475829836256
 20
-129.5690076716008
 10
96.99080672488425
 20
-129.4887369467945
 10
96.99080672488425
 20
-129.1332030927167
 10
96.99080672488425
 20
-129.040185514615
 10
96.97805987158883
 20
-128.8520833011203
 10
96.70727536644819
 20
-128.8245225372383
 10
96.70727536644819
 20
-128.8245225372383
 10
96.56568194200442
 20
-129.5734862957316
 10
96.56568194200442
 20
-129.5734862957316
 97
        0
 97
        0
 75
     2
 76
     1
 98
        0
  0
SPLINE
  5
96
330
8E
100
AcDbEntity
  8
_U+30EC_U+30A4_U+30E4_U+30FC 1
370
     0
100
AcDbSpline
210
0.0
220
0.0
230
1.0
 70
    11
 71
     3
 72
    44
 73
    40
 74
     0
 42
0.0000000001
 43
0.0000000001
 12
1.0
 22
0.0
 32
0.0
 13
1.0
 23
0.0
 33
0.0
 40
0.0
 40
0.0
 40
0.0
 40
0.0
 40
1.0
 40
1.0
 40
1.0
 40
2.0
 40
2.0
 40
2.0
 40
3.0
 40
3.0
 40
3.0
 40
4.0
 40
4.0
 40
4.0
 40
5.0
 40
5.0
 40
5.0
 40
6.0
 40
6.0
 40
6.0
 40
7.0
 40
7.0
 40
7.0
 40
8.0
 40
8.0
 40
8.0
 40
9.0
 40
9.0
 40
9.0
 40
10.0
 40
10.0
 40
10.0
 40
11.0
 40
11.0
 40
11.0
 40
12.0
 40
12.0
 40
12.0
 40
13.0
 40
13.0
 40
13.0
 40
13.0
 10
98.01572263174607
 20
-129.1776448244764
 30
0.0
 10
97.79799259707828
 20
-129.3364637263464
 30
0.0
 10
97.70497501897654
 20
-129.4105332792793
 30
0.0
 10
97.656054663086
 20
-129.5541937610142
 30
0.0
 10
97.656054663086
 20
-129.5541937610142
 30
0.0
 10
98.43464624275245
 20
-129.5541937610142
 30
0.0
 10
98.43464624275245
 20
-129.5541937610142
 30
0.0
 10
98.43464624275245
 20
-129.5541937610142
 30
0.0
 10
98.43464624275245
 20
-129.7595214519351
 30
0.0
 10
98.43464624275245
 20
-129.7595214519351
 30
0.0
 10
98.43464624275245
 20
-129.7595214519351
 30
0.0
 10
97.40662974995391
 20
-129.7595214519351
 30
0.0
 10
97.40662974995391
 20
-129.7595214519351
 30
0.0
 10
97.4383246284182
 20
-129.4019205405662
 30
0.0
 10
97.50378144263794
 20
-129.323716873051
 30
0.0
 10
97.88894311788889
 20
-129.0253716040284
 30
0.0
 10
98.14491371244294
 20
-128.8265895945295
 30
0.0
 10
98.21037052666269
 20
-128.7588934682443
 30
0.0
 10
98.21037052666269
 20
-128.6214341583828
 30
0.0
 10
98.21037052666269
 20
-128.5029228736902
 30
0.0
 10
98.13836803102097
 20
-128.3718369904765
 30
0.0
 10
97.9416530788132
 20
-128.3718369904765
 30
0.0
 10
97.68154836967683
 20
-128.3718369904765
 30
0.0
 10
97.67328014051223
 20
-128.6023138784397
 30
0.0
 10
97.66880151638142
 20
-128.7187581058411
 30
0.0
 10
97.66880151638142
 20
-128.7187581058411
 30
0.0
 10
97.44452580029166
 20
-128.7187581058411
 30
0.0
 10
97.44452580029166
 20
-128.7187581058411
 30
0.0
 10
97.45313853900477
 20
-128.5918063372097
 30
0.0
 10
97.46381833500905
 20
-128.4796684791648
 30
0.0
 10
97.54408905981538
 20
-128.3611571944722
 30
0.0
 10
97.65398760579484
 20
-128.2004434900853
 30
0.0
 10
97.84036727154685
 20
-128.1665092995556
 30
0.0
 10
97.95646698939977
 20
-128.1665092995556
 30
0.0
 10
98.2337971759624
 20
-128.1665092995556
 30
0.0
 10
98.44119192417443
 20
-128.3506496532422
 30
0.0
 10
98.44119192417443
 20
-128.623501215674
 30
0.0
 10
98.44119192417443
 20
-128.8520833011203
 30
0.0
 10
98.32474769677299
 20
-128.9513020510955
 30
0.0
 10
98.01572263174607
 20
-129.1776448244764
 30
0.0
  0
HATCH
  5
97
330
8E
100
AcDbEntity
  8
_U+30EC_U+30A4_U+30E4_U+30FC 1
 62
   179
420
  2234388
100
AcDbHatch
 10
0.0
 20
0.0
 30
0.0
210
0.0
220
0.0
230
1.0
  2
SOLID
 70
     1
 71
     0
 91
        1
 92
        1
 93
        1
 72
     4
 94
        3
 73
     0
 74
     1
 95
       44
 96
       40
 40
0.0
 40
0.0
 40
0.0
 40
0.0
 40
1.0
 40
1.0
 40
1.0
 40
2.0
 40
2.0
 40
2.0
 40
3.0
 40
3.0
 40
3.0
 40
4.0
 40
4.0
 40
4.0
 40
5.0
 40
5.0
 40
5.0
 40
6.0
 40
6.0
 40
6.0
 40
7.0
 40
7.0
 40
7.0
 40
8.0
 40
8.0
 40
8.0
 40
9.0
 40
9.0
 40
9.0
 40
10.0
 40
10.0
 40
10.0
 40
11.0
 40
11.0
 40
11.0
 40
12.0
 40
12.0
 40
12.0
 40
13.0
 40
13.0
 40
13.0
 40
13.0
 10
98.01572263174607
 20
-129.1776448244764
 10
97.79799259707828
 20
-129.3364637263464
 10
97.70497501897654
 20
-129.4105332792793
 10
97.656054663086
 20
-129.5541937610142
 10
97.656054663086
 20
-129.5541937610142
 10
98.43464624275245
 20
-129.5541937610142
 10
98.43464624275245
 20
-129.5541937610142
 10
98.43464624275245
 20
-129.5541937610142
 10
98.43464624275245
 20
-129.7595214519351
 10
98.43464624275245
 20
-129.7595214519351
 10
98.43464624275245
 20
-129.7595214519351
 10
97.40662974995391
 20
-129.7595214519351
 10
97.40662974995391
 20
-129.7595214519351
 10
97.4383246284182
 20
-129.4019205405662
 10
97.50378144263794
 20
-129.323716873051
 10
97.88894311788889
 20
-129.0253716040284
 10
98.14491371244294
 20
-128.8265895945295
 10
98.21037052666269
 20
-128.7588934682443
 10
98.21037052666269
 20
-128.6214341583828
 10
98.21037052666269
 20
-128.5029228736902
 10
98.13836803102097
 20
-128.3718369904765
 10
97.9416530788132
 20
-128.3718369904765
 10
97.68154836967683
 20
-128.3718369904765
 10
97.67328014051223
 20
-128.6023138784397
 10
97.66880151638142
 20
-128.7187581058411
 10
97.66880151638142
 20
-128.7187581058411
 10
97.44452580029166
 20
-128.7187581058411
 10
97.44452580029166
 20
-128.7187581058411
 10
97.45313853900477
 20
-128.5918063372097
 10
97.46381833500905
 20
-128.4796684791648
 10
97.54408905981538
 20
-128.3611571944722
 10
97.65398760579484
 20
-128.2004434900853
 10
97.84036727154685
 20
-128.1665092995556
 10
97.95646698939977
 20
-128.1665092995556
 10
98.2337971759624
 20
-128.1665092995556
 10
98.44119192417443
 20
-128.3506496532422
 10
98.44119192417443
 20
-128.623501215674
 10
98.44119192417443
 20
-128.8520833011203
 10
98.32474769677299
 20
-128.9513020510955
 10
98.01572263174607
 20
-129.1776448244764
 97
        0
 97
        0
 75
     2
 76
     1
 98
        0
  0
POLYLINE
  5
98
330
8E
100
AcDbEntity
  8
_U+30EC_U+30A4_U+30E4_U+30FC 1
370
     0
100
AcDb2dPolyline
 66
     1
 10
0.0
 20
0.0
 30
0.0
  0
VERTEX
  5
99
330
98
100
AcDbEntity
  8
_U+30EC_U+30A4_U+30E4_U+30FC 1
370
     0
100
AcDbVertex
100
AcDb2dVertex
 10
98.65961097793927
 20
-129.7595214519351
 30
0.0
  0
VERTEX
  5
9A
330
98
100
AcDbEntity
  8
_U+30EC_U+30A4_U+30E4_U+30FC 1
370
     0
100
AcDbVertex
100
AcDb2dVertex
 10
98.65961097793927
 20
-129.5076849719634
 30
0.0
  0
VERTEX
  5
9B
330
98
100
AcDbEntity
  8
_U+30EC_U+30A4_U+30E4_U+30FC 1
370
     0
100
AcDbVertex
100
AcDb2dVertex
 10
98.91144745791104
 20
-129.5076849719634
 30
0.0
  0
VERTEX
  5
9C
330
98
100
AcDbEntity
  8
_U+30EC_U+30A4_U+30E4_U+30FC 1
370
     0
100
AcDbVertex
100
AcDb2dVertex
 10
98.91144745791104
 20
-129.7595214519351
 30
0.0
  0
VERTEX
  5
9D
330
98
100
AcDbEntity
  8
_U+30EC_U+30A4_U+30E4_U+30FC 1
370
     0
100
AcDbVertex
100
AcDb2dVertex
 10
98.65961097793927
 20
-129.7595214519351
 30
0.0
  0
SEQEND
  5
9E
330
98
100
AcDbEntity
  8
_U+30EC_U+30A4_U+30E4_U+30FC 1
370
     0
  0
HATCH
  5
9F
330
8E
100
AcDbEntity
  8
_U+30EC_U+30A4_U+30E4_U+30FC 1
 62
   179
420
  2234388
100
AcDbHatch
 10
0.0
 20
0.0
 30
0.0
210
0.0
220
0.0
230
1.0
  2
SOLID
 70
     1
 71
     0
 91
        1
 92
        1
 93
        4
 72
     1
 10
98.65961097793927
 20
-129.7595214519351
 11
98.65961097793927
 21
-129.5076849719634
 72
     1
 10
98.65961097793927
 20
-129.5076849719634
 11
98.91144745791104
 21
-129.5076849719634
 72
     1
 10
98.91144745791104
 20
-129.5076849719634
 11
98.91144745791104
 21
-129.7595214519351
 72
     1
 10
98.91144745791104
 20
-129.7595214519351
 11
98.65961097793927
 21
-129.7595214519351
 97
        0
 75
     2
 76
     1
 98
        0
  0
SPLINE
  5
A0
330
8E
100
AcDbEntity
  8
_U+30EC_U+30A4_U+30E4_U+30FC 1
370
     0
100
AcDbSpline
210
0.0
220
0.0
230
1.0
 70
    11
 71
     3
 72
    32
 73
    28
 74
     0
 42
0.0000000001
 43
0.0000000001
 12
1.0
 22
0.0
 32
0.0
 13
1.0
 23
0.0
 33
0.0
 40
0.0
 40
0.0
 40
0.0
 40
0.0
 40
1.0
 40
1.0
 40
1.0
 40
2.0
 40
2.0
 40
2.0
 40
3.0
 40
3.0
 40
3.0
 40
4.0
 40
4.0
 40
4.0
 40
5.0
 40
5.0
 40
5.0
 40
6.0
 40
6.0
 40
6.0
 40
7.0
 40
7.0
 40
7.0
 40
8.0
 40
8.0
 40
8.0
 40
9.0
 40
9.0
 40
9.0
 40
9.0
 10
99.65214298723974
 20
-129.8101643555683
 30
0.0
 10
99.1357231740008
 20
-129.8101643555683
 30
0.0
 10
99.1274549448362
 20
-129.2561930015401
 30
0.0
 10
99.1274549448362
 20
-129.0422525719061
 30
0.0
 10
99.1274549448362
 20
-128.8117756839429
 30
0.0
 10
99.14640297000507
 20
-128.1644422422644
 30
0.0
 10
99.69003903757749
 20
-128.1644422422644
 30
0.0
 10
99.86367185003408
 20
-128.1644422422644
 30
0.0
 10
100.1089626485839
 20
-128.2342054258408
 30
0.0
 10
100.1472032084701
 20
-128.5663126306189
 30
0.0
 10
100.1472032084701
 20
-128.5663126306189
 30
0.0
 10
99.93326277883614
 20
-128.5663126306189
 30
0.0
 10
99.93326277883614
 20
-128.5663126306189
 30
0.0
 10
99.92292749238038
 20
-128.509296300338
 30
0.0
 10
99.89123261391609
 20
-128.3611571944722
 30
0.0
 10
99.68797198028635
 20
-128.3611571944722
 30
0.0
 10
99.39617239268568
 20
-128.3611571944722
 30
0.0
 10
99.35586477550827
 20
-128.689130284668
 30
0.0
 10
99.34311792221284
 20
-128.8941134660404
 30
0.0
 10
99.43613550031458
 20
-128.8159097985252
 30
0.0
 10
99.504003881374
 20
-128.7568264109532
 30
0.0
 10
99.68590492299519
 20
-128.7568264109532
 30
0.0
 10
99.86573890732524
 20
-128.7568264109532
 30
0.0
 10
100.1682182909302
 20
-128.8648301544158
 30
0.0
 10
100.1682182909302
 20
-129.2710069121267
 30
0.0
 10
100.1682182909302
 20
-129.5903672636094
 30
0.0
 10
99.96943628143126
 20
-129.8101643555683
 30
0.0
 10
99.65214298723974
 20
-129.8101643555683
 30
0.0
  0
SPLINE
  5
A1
330
8E
100
AcDbEntity
  8
_U+30EC_U+30A4_U+30E4_U+30FC 1
370
     0
100
AcDbSpline
210
0.0
220
0.0
230
1.0
 70
    11
 71
     3
 72
    17
 73
    13
 74
     0
 42
0.0000000001
 43
0.0000000001
 12
1.0
 22
0.0
 32
0.0
 13
1.0
 23
0.0
 33
0.0
 40
0.0
 40
0.0
 40
0.0
 40
0.0
 40
1.0
 40
1.0
 40
1.0
 40
2.0
 40
2.0
 40
2.0
 40
3.0
 40
3.0
 40
3.0
 40
4.0
 40
4.0
 40
4.0
 40
4.0
 10
99.66902395511747
 20
-128.9513020510955
 30
0.0
 10
99.40650767914143
 20
-128.9513020510955
 30
0.0
 10
99.36861162880369
 20
-129.1628309138898
 30
0.0
 10
99.36861162880369
 20
-129.2792751412913
 30
0.0
 10
99.36861162880369
 20
-129.454975011039
 30
0.0
 10
99.46369626419659
 20
-129.6179280274914
 30
0.0
 10
99.64766436310892
 20
-129.6179280274914
 30
0.0
 10
99.76824270509266
 20
-129.6179280274914
 30
0.0
 10
99.9439425748404
 20
-129.5586723851451
 30
0.0
 10
99.9439425748404
 20
-129.2730739694179
 30
0.0
 10
99.9439425748404
 20
-129.0487982533281
 30
0.0
 10
99.8044162076878
 20
-128.9513020510955
 30
0.0
 10
99.66902395511747
 20
-128.9513020510955
 30
0.0
  0
HATCH
  5
A2
330
8E
100
AcDbEntity
  8
_U+30EC_U+30A4_U+30E4_U+30FC 1
 62
   179
420
  2234388
100
AcDbHatch
 10
0.0
 20
0.0
 30
0.0
210
0.0
220
0.0
230
1.0
  2
SOLID
 70
     1
 71
     0
 91
        2
 92
        1
 93
        1
 72
     4
 94
        3
 73
     0
 74
     1
 95
       32
 96
       28
 40
0.0
 40
0.0
 40
0.0
 40
0.0
 40
1.0
 40
1.0
 40
1.0
 40
2.0
 40
2.0
 40
2.0
 40
3.0
 40
3.0
 40
3.0
 40
4.0
 40
4.0
 40
4.0
 40
5.0
 40
5.0
 40
5.0
 40
6.0
 40
6.0
 40
6.0
 40
7.0
 40
7.0
 40
7.0
 40
8.0
 40
8.0
 40
8.0
 40
9.0
 40
9.0
 40
9.0
 40
9.0
 10
99.65214298723974
 20
-129.8101643555683
 10
99.1357231740008
 20
-129.8101643555683
 10
99.1274549448362
 20
-129.2561930015401
 10
99.1274549448362
 20
-129.0422525719061
 10
99.1274549448362
 20
-128.8117756839429
 10
99.14640297000507
 20
-128.1644422422644
 10
99.69003903757749
 20
-128.1644422422644
 10
99.86367185003408
 20
-128.1644422422644
 10
100.1089626485839
 20
-128.2342054258408
 10
100.1472032084701
 20
-128.5663126306189
 10
100.1472032084701
 20
-128.5663126306189
 10
99.93326277883614
 20
-128.5663126306189
 10
99.93326277883614
 20
-128.5663126306189
 10
99.92292749238038
 20
-128.509296300338
 10
99.89123261391609
 20
-128.3611571944722
 10
99.68797198028635
 20
-128.3611571944722
 10
99.39617239268568
 20
-128.3611571944722
 10
99.35586477550827
 20
-128.689130284668
 10
99.34311792221284
 20
-128.8941134660404
 10
99.43613550031458
 20
-128.8159097985252
 10
99.504003881374
 20
-128.7568264109532
 10
99.68590492299519
 20
-128.7568264109532
 10
99.86573890732524
 20
-128.7568264109532
 10
100.1682182909302
 20
-128.8648301544158
 10
100.1682182909302
 20
-129.2710069121267
 10
100.1682182909302
 20
-129.5903672636094
 10
99.96943628143126
 20
-129.8101643555683
 10
99.65214298723974
 20
-129.8101643555683
 97
        0
 97
        0
 92
        1
 93
        1
 72
     4
 94
        3
 73
     0
 74
     1
 95
       17
 96
       13
 40
0.0
 40
0.0
 40
0.0
 40
0.0
 40
1.0
 40
1.0
 40
1.0
 40
2.0
 40
2.0
 40
2.0
 40
3.0
 40
3.0
 40
3.0
 40
4.0
 40
4.0
 40
4.0
 40
4.0
 10
99.66902395511747
 20
-128.9513020510955
 10
99.40650767914143
 20
-128.9513020510955
 10
99.36861162880369
 20
-129.1628309138898
 10
99.36861162880369
 20
-129.2792751412913
 10
99.36861162880369
 20
-129.454975011039
 10
99.46369626419659
 20
-129.6179280274914
 10
99.64766436310892
 20
-129.6179280274914
 10
99.76824270509266
 20
-129.6179280274914
 10
99.9439425748404
 20
-129.5586723851451
 10
99.9439425748404
 20
-129.2730739694179
 10
99.9439425748404
 20
-129.0487982533281
 10
99.8044162076878
 20
-128.9513020510955
 10
99.66902395511747
 20
-128.9513020510955
 97
        0
 97
        0
 75
     2
 76
     1
 98
        0
  0
ENDBLK
  5
91
330
8E
100
AcDbEntity
  8
0
100
AcDbBlockEnd
  0
BLOCK
  5
A5
330
A3
100
AcDbEntity
  8
0
100
AcDbBlockBegin
  2
block 4
 70
     0
 10
0.0
 20
0.0
 30
0.0
  3
block 4
  1

  0
SPLINE
  5
A7
330
A3
100
AcDbEntity
  8
_U+30EC_U+30A4_U+30E4_U+30FC 1
370
     0
100
AcDbSpline
210
0.0
220
0.0
230
1.0
 70
    11
 71
     3
 72
    62
 73
    58
 74
     0
 42
0.0000000001
 43
0.0000000001
 12
1.0
 22
0.0
 32
0.0
 13
1.0
 23
0.0
 33
0.0
 40
0.0
 40
0.0
 40
0.0
 40
0.0
 40
1.0
 40
1.0
 40
1.0
 40
2.0
 40
2.0
 40
2.0
 40
3.0
 40
3.0
 40
3.0
 40
4.0
 40
4.0
 40
4.0
 40
5.0
 40
5.0
 40
5.0
 40
6.0
 40
6.0
 40
6.0
 40
7.0
 40
7.0
 40
7.0
 40
8.0
 40
8.0
 40
8.0
 40
9.0
 40
9.0
 40
9.0
 40
10.0
 40
10.0
 40
10.0
 40
11.0
 40
11.0
 40
11.0
 40
12.0
 40
12.0
 40
12.0
 40
13.0
 40
13.0
 40
13.0
 40
14.0
 40
14.0
 40
14.0
 40
15.0
 40
15.0
 40
15.0
 40
16.0
 40
16.0
 40
16.0
 40
17.0
 40
17.0
 40
17.0
 40
18.0
 40
18.0
 40
18.0
 40
19.0
 40
19.0
 40
19.0
 40
19.0
 10
85.74343123941485
 20
-119.1388088352327
 30
0.0
 10
85.64817434924768
 20
-119.1388088352327
 30
0.0
 10
85.43027205980563
 20
-119.1176214979984
 30
0.0
 10
85.30555960323959
 20
-118.9314140870206
 30
0.0
 10
85.23149005030672
 20
-118.8192762289757
 30
0.0
 10
85.22718368095015
 20
-118.7198852242263
 30
0.0
 10
85.22304956636785
 20
-118.6353081300634
 30
0.0
 10
85.22304956636785
 20
-118.6353081300634
 30
0.0
 10
85.44301891310106
 20
-118.6353081300634
 30
0.0
 10
85.44301891310106
 20
-118.6353081300634
 30
0.0
 10
85.4450859703922
 20
-118.7093776829963
 30
0.0
 10
85.45576576639648
 20
-118.9441609403161
 30
0.0
 10
85.73912487005828
 20
-118.9441609403161
 30
0.0
 10
85.87675643469402
 20
-118.9441609403161
 30
0.0
 10
86.02902965514205
 20
-118.8743977567397
 30
0.0
 10
86.02902965514205
 20
-118.6458156712934
 30
0.0
 10
86.02902965514205
 20
-118.5295436986662
 30
0.0
 10
85.99096135003005
 20
-118.4807955975499
 30
0.0
 10
85.95926647156574
 20
-118.4491007190856
 30
0.0
 10
85.88519691863287
 20
-118.3750311661528
 30
0.0
 10
85.76875269123143
 20
-118.3624565676316
 30
0.0
 10
85.7138034182417
 20
-118.3624565676316
 30
0.0
 10
85.69485539307281
 20
-118.3624565676316
 30
0.0
 10
85.65885414525195
 20
-118.3645236249228
 30
0.0
 10
85.63129338136996
 20
-118.3686577395051
 30
0.0
 10
85.63129338136996
 20
-118.3686577395051
 30
0.0
 10
85.63129338136996
 20
-118.1740098445885
 30
0.0
 10
85.63129338136996
 20
-118.1740098445885
 30
0.0
 10
85.66936168648196
 20
-118.1803832712362
 30
0.0
 10
85.71173636095054
 20
-118.1826225833016
 30
0.0
 10
85.71810978759825
 20
-118.1826225833016
 30
0.0
 10
85.783566601818
 20
-118.1826225833016
 30
0.0
 10
85.98252086609118
 20
-118.1614352460673
 30
0.0
 10
85.98252086609118
 20
-117.9244126766821
 30
0.0
 10
85.98252086609118
 20
-117.7468180044175
 30
0.0
 10
85.85126272810317
 20
-117.6916964766535
 30
0.0
 10
85.74136418212369
 20
-117.6916964766535
 30
0.0
 10
85.47695310363076
 20
-117.6916964766535
 30
0.0
 10
85.46834036491764
 20
-117.9244126766821
 30
0.0
 10
85.46420625033534
 20
-117.9964151723238
 30
0.0
 10
85.46420625033534
 20
-117.9964151723238
 30
0.0
 10
85.26111787147987
 20
-117.9964151723238
 30
0.0
 10
85.26111787147987
 20
-117.9964151723238
 30
0.0
 10
85.26955835541872
 20
-117.8715304609835
 30
0.0
 10
85.29711911930072
 20
-117.4949815244457
 30
0.0
 10
85.75393878064486
 20
-117.4949815244457
 30
0.0
 10
85.97821449673462
 20
-117.4949815244457
 30
0.0
 10
86.21937118070211
 20
-117.6219332930772
 30
0.0
 10
86.21937118070211
 20
-117.9180392500344
 30
0.0
 10
86.21937118070211
 20
-118.1042466610121
 30
0.0
 10
86.1242865453092
 20
-118.1867566978839
 30
0.0
 10
86.02472328578548
 20
-118.2480793975213
 30
0.0
 10
86.0862182401972
 20
-118.2756401614033
 30
0.0
 10
86.26811928181839
 20
-118.3560831409839
 30
0.0
 10
86.26811928181839
 20
-118.6332410727723
 30
0.0
 10
86.26811928181839
 20
-118.971721704198
 30
0.0
 10
86.02058917120318
 20
-119.1388088352327
 30
0.0
 10
85.74343123941485
 20
-119.1388088352327
 30
0.0
  0
HATCH
  5
A8
330
A3
100
AcDbEntity
  8
_U+30EC_U+30A4_U+30E4_U+30FC 1
 62
   179
420
  2234388
100
AcDbHatch
 10
0.0
 20
0.0
 30
0.0
210
0.0
220
0.0
230
1.0
  2
SOLID
 70
     1
 71
     0
 91
        1
 92
        1
 93
        1
 72
     4
 94
        3
 73
     0
 74
     1
 95
       62
 96
       58
 40
0.0
 40
0.0
 40
0.0
 40
0.0
 40
1.0
 40
1.0
 40
1.0
 40
2.0
 40
2.0
 40
2.0
 40
3.0
 40
3.0
 40
3.0
 40
4.0
 40
4.0
 40
4.0
 40
5.0
 40
5.0
 40
5.0
 40
6.0
 40
6.0
 40
6.0
 40
7.0
 40
7.0
 40
7.0
 40
8.0
 40
8.0
 40
8.0
 40
9.0
 40
9.0
 40
9.0
 40
10.0
 40
10.0
 40
10.0
 40
11.0
 40
11.0
 40
11.0
 40
12.0
 40
12.0
 40
12.0
 40
13.0
 40
13.0
 40
13.0
 40
14.0
 40
14.0
 40
14.0
 40
15.0
 40
15.0
 40
15.0
 40
16.0
 40
16.0
 40
16.0
 40
17.0
 40
17.0
 40
17.0
 40
18.0
 40
18.0
 40
18.0
 40
19.0
 40
19.0
 40
19.0
 40
19.0
 10
85.74343123941485
 20
-119.1388088352327
 10
85.64817434924768
 20
-119.1388088352327
 10
85.43027205980563
 20
-119.1176214979984
 10
85.30555960323959
 20
-118.9314140870206
 10
85.23149005030672
 20
-118.8192762289757
 10
85.22718368095015
 20
-118.7198852242263
 10
85.22304956636785
 20
-118.6353081300634
 10
85.22304956636785
 20
-118.6353081300634
 10
85.44301891310106
 20
-118.6353081300634
 10
85.44301891310106
 20
-118.6353081300634
 10
85.4450859703922
 20
-118.7093776829963
 10
85.45576576639648
 20
-118.9441609403161
 10
85.73912487005828
 20
-118.9441609403161
 10
85.87675643469402
 20
-118.9441609403161
 10
86.02902965514205
 20
-118.8743977567397
 10
86.02902965514205
 20
-118.6458156712934
 10
86.02902965514205
 20
-118.5295436986662
 10
85.99096135003005
 20
-118.4807955975499
 10
85.95926647156574
 20
-118.4491007190856
 10
85.88519691863287
 20
-118.3750311661528
 10
85.76875269123143
 20
-118.3624565676316
 10
85.7138034182417
 20
-118.3624565676316
 10
85.69485539307281
 20
-118.3624565676316
 10
85.65885414525195
 20
-118.3645236249228
 10
85.63129338136996
 20
-118.3686577395051
 10
85.63129338136996
 20
-118.3686577395051
 10
85.63129338136996
 20
-118.1740098445885
 10
85.63129338136996
 20
-118.1740098445885
 10
85.66936168648196
 20
-118.1803832712362
 10
85.71173636095054
 20
-118.1826225833016
 10
85.71810978759825
 20
-118.1826225833016
 10
85.783566601818
 20
-118.1826225833016
 10
85.98252086609118
 20
-118.1614352460673
 10
85.98252086609118
 20
-117.9244126766821
 10
85.98252086609118
 20
-117.7468180044175
 10
85.85126272810317
 20
-117.6916964766535
 10
85.74136418212369
 20
-117.6916964766535
 10
85.47695310363076
 20
-117.6916964766535
 10
85.46834036491764
 20
-117.9244126766821
 10
85.46420625033534
 20
-117.9964151723238
 10
85.46420625033534
 20
-117.9964151723238
 10
85.26111787147987
 20
-117.9964151723238
 10
85.26111787147987
 20
-117.9964151723238
 10
85.26955835541872
 20
-117.8715304609835
 10
85.29711911930072
 20
-117.4949815244457
 10
85.75393878064486
 20
-117.4949815244457
 10
85.97821449673462
 20
-117.4949815244457
 10
86.21937118070211
 20
-117.6219332930772
 10
86.21937118070211
 20
-117.9180392500344
 10
86.21937118070211
 20
-118.1042466610121
 10
86.1242865453092
 20
-118.1867566978839
 10
86.02472328578548
 20
-118.2480793975213
 10
86.0862182401972
 20
-118.2756401614033
 10
86.26811928181839
 20
-118.3560831409839
 10
86.26811928181839
 20
-118.6332410727723
 10
86.26811928181839
 20
-118.971721704198
 10
86.02058917120318
 20
-119.1388088352327
 10
85.74343123941485
 20
-119.1388088352327
 97
        0
 97
        0
 75
     2
 76
     1
 98
        0
  0
SPLINE
  5
A9
330
A3
100
AcDbEntity
  8
_U+30EC_U+30A4_U+30E4_U+30FC 1
370
     0
100
AcDbSpline
210
0.0
220
0.0
230
1.0
 70
    11
 71
     3
 72
    62
 73
    58
 74
     0
 42
0.0000000001
 43
0.0000000001
 12
1.0
 22
0.0
 32
0.0
 13
1.0
 23
0.0
 33
0.0
 40
0.0
 40
0.0
 40
0.0
 40
0.0
 40
1.0
 40
1.0
 40
1.0
 40
2.0
 40
2.0
 40
2.0
 40
3.0
 40
3.0
 40
3.0
 40
4.0
 40
4.0
 40
4.0
 40
5.0
 40
5.0
 40
5.0
 40
6.0
 40
6.0
 40
6.0
 40
7.0
 40
7.0
 40
7.0
 40
8.0
 40
8.0
 40
8.0
 40
9.0
 40
9.0
 40
9.0
 40
10.0
 40
10.0
 40
10.0
 40
11.0
 40
11.0
 40
11.0
 40
12.0
 40
12.0
 40
12.0
 40
13.0
 40
13.0
 40
13.0
 40
14.0
 40
14.0
 40
14.0
 40
15.0
 40
15.0
 40
15.0
 40
16.0
 40
16.0
 40
16.0
 40
17.0
 40
17.0
 40
17.0
 40
18.0
 40
18.0
 40
18.0
 40
19.0
 40
19.0
 40
19.0
 40
19.0
 10
86.92027585717618
 20
-119.1388088352327
 30
0.0
 10
86.82519122178329
 20
-119.1388088352327
 30
0.0
 10
86.60728893234123
 20
-119.1176214979984
 30
0.0
 10
86.48240422100093
 20
-118.9314140870206
 30
0.0
 10
86.40833466806806
 20
-118.8192762289757
 30
0.0
 10
86.40420055348577
 20
-118.7198852242263
 30
0.0
 10
86.3998941841292
 20
-118.6353081300634
 30
0.0
 10
86.3998941841292
 20
-118.6353081300634
 30
0.0
 10
86.6198635308624
 20
-118.6353081300634
 30
0.0
 10
86.6198635308624
 20
-118.6353081300634
 30
0.0
 10
86.62210284292782
 20
-118.7093776829963
 30
0.0
 10
86.63261038415783
 20
-118.9441609403161
 30
0.0
 10
86.91614174259388
 20
-118.9441609403161
 30
0.0
 10
87.05360105245535
 20
-118.9441609403161
 30
0.0
 10
87.2058742729034
 20
-118.8743977567397
 30
0.0
 10
87.2058742729034
 20
-118.6458156712934
 30
0.0
 10
87.2058742729034
 20
-118.5295436986662
 30
0.0
 10
87.16780596779138
 20
-118.4807955975499
 30
0.0
 10
87.13611108932709
 20
-118.4491007190856
 30
0.0
 10
87.06204153639422
 20
-118.3750311661528
 30
0.0
 10
86.94576956376703
 20
-118.3624565676316
 30
0.0
 10
86.89064803600304
 20
-118.3624565676316
 30
0.0
 10
86.87170001083416
 20
-118.3624565676316
 30
0.0
 10
86.8356987630133
 20
-118.3645236249228
 30
0.0
 10
86.8081379991313
 20
-118.3686577395051
 30
0.0
 10
86.8081379991313
 20
-118.3686577395051
 30
0.0
 10
86.8081379991313
 20
-118.1740098445885
 30
0.0
 10
86.8081379991313
 20
-118.1740098445885
 30
0.0
 10
86.84620630424331
 20
-118.1803832712362
 30
0.0
 10
86.88858097871189
 20
-118.1826225833016
 30
0.0
 10
86.8949544053596
 20
-118.1826225833016
 30
0.0
 10
86.96058347435361
 20
-118.1826225833016
 30
0.0
 10
87.15936548385253
 20
-118.1614352460673
 30
0.0
 10
87.15936548385253
 20
-117.9244126766821
 30
0.0
 10
87.15936548385253
 20
-117.7468180044175
 30
0.0
 10
87.02827960063877
 20
-117.6916964766535
 30
0.0
 10
86.91820879988504
 20
-117.6916964766535
 30
0.0
 10
86.65379772139211
 20
-117.6916964766535
 30
0.0
 10
86.64535723745325
 20
-117.9244126766821
 30
0.0
 10
86.64105086809668
 20
-117.9964151723238
 30
0.0
 10
86.64105086809668
 20
-117.9964151723238
 30
0.0
 10
86.4379624892412
 20
-117.9964151723238
 30
0.0
 10
86.4379624892412
 20
-117.9964151723238
 30
0.0
 10
86.44640297318007
 20
-117.8715304609835
 30
0.0
 10
86.47396373706206
 20
-117.4949815244457
 30
0.0
 10
86.93095565318046
 20
-117.4949815244457
 30
0.0
 10
87.15505911449596
 20
-117.4949815244457
 30
0.0
 10
87.39621579846344
 20
-117.6219332930772
 30
0.0
 10
87.39621579846344
 20
-117.9180392500344
 30
0.0
 10
87.39621579846344
 20
-118.1042466610121
 30
0.0
 10
87.30113116307055
 20
-118.1867566978839
 30
0.0
 10
87.2017401583211
 20
-118.2480793975213
 30
0.0
 10
87.26306285795854
 20
-118.2756401614033
 30
0.0
 10
87.44496389957973
 20
-118.3560831409839
 30
0.0
 10
87.44496389957973
 20
-118.6332410727723
 30
0.0
 10
87.44496389957973
 20
-118.971721704198
 30
0.0
 10
87.19743378896453
 20
-119.1388088352327
 30
0.0
 10
86.92027585717618
 20
-119.1388088352327
 30
0.0
  0
HATCH
  5
AA
330
A3
100
AcDbEntity
  8
_U+30EC_U+30A4_U+30E4_U+30FC 1
 62
   179
420
  2234388
100
AcDbHatch
 10
0.0
 20
0.0
 30
0.0
210
0.0
220
0.0
230
1.0
  2
SOLID
 70
     1
 71
     0
 91
        1
 92
        1
 93
        1
 72
     4
 94
        3
 73
     0
 74
     1
 95
       62
 96
       58
 40
0.0
 40
0.0
 40
0.0
 40
0.0
 40
1.0
 40
1.0
 40
1.0
 40
2.0
 40
2.0
 40
2.0
 40
3.0
 40
3.0
 40
3.0
 40
4.0
 40
4.0
 40
4.0
 40
5.0
 40
5.0
 40
5.0
 40
6.0
 40
6.0
 40
6.0
 40
7.0
 40
7.0
 40
7.0
 40
8.0
 40
8.0
 40
8.0
 40
9.0
 40
9.0
 40
9.0
 40
10.0
 40
10.0
 40
10.0
 40
11.0
 40
11.0
 40
11.0
 40
12.0
 40
12.0
 40
12.0
 40
13.0
 40
13.0
 40
13.0
 40
14.0
 40
14.0
 40
14.0
 40
15.0
 40
15.0
 40
15.0
 40
16.0
 40
16.0
 40
16.0
 40
17.0
 40
17.0
 40
17.0
 40
18.0
 40
18.0
 40
18.0
 40
19.0
 40
19.0
 40
19.0
 40
19.0
 10
86.92027585717618
 20
-119.1388088352327
 10
86.82519122178329
 20
-119.1388088352327
 10
86.60728893234123
 20
-119.1176214979984
 10
86.48240422100093
 20
-118.9314140870206
 10
86.40833466806806
 20
-118.8192762289757
 10
86.40420055348577
 20
-118.7198852242263
 10
86.3998941841292
 20
-118.6353081300634
 10
86.3998941841292
 20
-118.6353081300634
 10
86.6198635308624
 20
-118.6353081300634
 10
86.6198635308624
 20
-118.6353081300634
 10
86.62210284292782
 20
-118.7093776829963
 10
86.63261038415783
 20
-118.9441609403161
 10
86.91614174259388
 20
-118.9441609403161
 10
87.05360105245535
 20
-118.9441609403161
 10
87.2058742729034
 20
-118.8743977567397
 10
87.2058742729034
 20
-118.6458156712934
 10
87.2058742729034
 20
-118.5295436986662
 10
87.16780596779138
 20
-118.4807955975499
 10
87.13611108932709
 20
-118.4491007190856
 10
87.06204153639422
 20
-118.3750311661528
 10
86.94576956376703
 20
-118.3624565676316
 10
86.89064803600304
 20
-118.3624565676316
 10
86.87170001083416
 20
-118.3624565676316
 10
86.8356987630133
 20
-118.3645236249228
 10
86.8081379991313
 20
-118.3686577395051
 10
86.8081379991313
 20
-118.3686577395051
 10
86.8081379991313
 20
-118.1740098445885
 10
86.8081379991313
 20
-118.1740098445885
 10
86.84620630424331
 20
-118.1803832712362
 10
86.88858097871189
 20
-118.1826225833016
 10
86.8949544053596
 20
-118.1826225833016
 10
86.96058347435361
 20
-118.1826225833016
 10
87.15936548385253
 20
-118.1614352460673
 10
87.15936548385253
 20
-117.9244126766821
 10
87.15936548385253
 20
-117.7468180044175
 10
87.02827960063877
 20
-117.6916964766535
 10
86.91820879988504
 20
-117.6916964766535
 10
86.65379772139211
 20
-117.6916964766535
 10
86.64535723745325
 20
-117.9244126766821
 10
86.64105086809668
 20
-117.9964151723238
 10
86.64105086809668
 20
-117.9964151723238
 10
86.4379624892412
 20
-117.9964151723238
 10
86.4379624892412
 20
-117.9964151723238
 10
86.44640297318007
 20
-117.8715304609835
 10
86.47396373706206
 20
-117.4949815244457
 10
86.93095565318046
 20
-117.4949815244457
 10
87.15505911449596
 20
-117.4949815244457
 10
87.39621579846344
 20
-117.6219332930772
 10
87.39621579846344
 20
-117.9180392500344
 10
87.39621579846344
 20
-118.1042466610121
 10
87.30113116307055
 20
-118.1867566978839
 10
87.2017401583211
 20
-118.2480793975213
 10
87.26306285795854
 20
-118.2756401614033
 10
87.44496389957973
 20
-118.3560831409839
 10
87.44496389957973
 20
-118.6332410727723
 10
87.44496389957973
 20
-118.971721704198
 10
87.19743378896453
 20
-119.1388088352327
 10
86.92027585717618
 20
-119.1388088352327
 97
        0
 97
        0
 75
     2
 76
     1
 98
        0
  0
ENDBLK
  5
A6
330
A3
100
AcDbEntity
  8
0
100
AcDbBlockEnd
  0
BLOCK
  5
AD
330
AB
100
AcDbEntity
  8
0
100
AcDbBlockBegin
  2
block 5
 70
     0
 10
0.0
 20
0.0
 30
0.0
  3
block 5
  1

  0
SPLINE
  5
AF
330
AB
100
AcDbEntity
  8
_U+30EC_U+30A4_U+30E4_U+30FC 1
370
     0
100
AcDbSpline
210
0.0
220
0.0
230
1.0
 70
    11
 71
     3
 72
    44
 73
    40
 74
     0
 42
0.0000000001
 43
0.0000000001
 12
1.0
 22
0.0
 32
0.0
 13
1.0
 23
0.0
 33
0.0
 40
0.0
 40
0.0
 40
0.0
 40
0.0
 40
1.0
 40
1.0
 40
1.0
 40
2.0
 40
2.0
 40
2.0
 40
3.0
 40
3.0
 40
3.0
 40
4.0
 40
4.0
 40
4.0
 40
5.0
 40
5.0
 40
5.0
 40
6.0
 40
6.0
 40
6.0
 40
7.0
 40
7.0
 40
7.0
 40
8.0
 40
8.0
 40
8.0
 40
9.0
 40
9.0
 40
9.0
 40
10.0
 40
10.0
 40
10.0
 40
11.0
 40
11.0
 40
11.0
 40
12.0
 40
12.0
 40
12.0
 40
13.0
 40
13.0
 40
13.0
 40
13.0
 10
80.39285344127332
 20
-134.590578850901
 30
0.0
 10
80.55150008836907
 20
-134.8083088855687
 30
0.0
 10
80.62556964130195
 20
-134.9013264636705
 30
0.0
 10
80.76940237781112
 20
-134.950246819561
 30
0.0
 10
80.76940237781112
 20
-134.950246819561
 30
0.0
 10
80.76940237781112
 20
-134.1716552398946
 30
0.0
 10
80.76940237781112
 20
-134.1716552398946
 30
0.0
 10
80.76940237781112
 20
-134.1716552398946
 30
0.0
 10
80.97455781395776
 20
-134.1716552398946
 30
0.0
 10
80.97455781395776
 20
-134.1716552398946
 30
0.0
 10
80.97455781395776
 20
-134.1716552398946
 30
0.0
 10
80.97455781395776
 20
-135.1996717326931
 30
0.0
 10
80.97455781395776
 20
-135.1996717326931
 30
0.0
 10
80.61695690258883
 20
-135.1679768542288
 30
0.0
 10
80.53875323507364
 20
-135.1025200400091
 30
0.0
 10
80.24040796605101
 20
-134.7173583647582
 30
0.0
 10
80.0416259565521
 20
-134.4613877702041
 30
0.0
 10
79.97392983026694
 20
-134.3959309559844
 30
0.0
 10
79.83647052040547
 20
-134.3959309559844
 30
0.0
 10
79.71795923571287
 20
-134.3959309559844
 30
0.0
 10
79.58687335249913
 20
-134.4679334516261
 30
0.0
 10
79.58687335249913
 20
-134.6646484038338
 30
0.0
 10
79.58687335249913
 20
-134.9247531129702
 30
0.0
 10
79.81735024046233
 20
-134.9333658516833
 30
0.0
 10
79.93379446786378
 20
-134.9374999662656
 30
0.0
 10
79.93379446786378
 20
-134.9374999662656
 30
0.0
 10
79.93379446786378
 20
-135.1617756823554
 30
0.0
 10
79.93379446786378
 20
-135.1617756823554
 30
0.0
 10
79.80684269923232
 20
-135.1531629436423
 30
0.0
 10
79.69470484118744
 20
-135.142483147638
 30
0.0
 10
79.57619355649484
 20
-135.0622124228317
 30
0.0
 10
79.41547985210794
 20
-134.9523138768522
 30
0.0
 10
79.38154566157823
 20
-134.7659342111002
 30
0.0
 10
79.38154566157823
 20
-134.6498344932473
 30
0.0
 10
79.38154566157823
 20
-134.3725043066846
 30
0.0
 10
79.56568601526483
 20
-134.1651095584726
 30
0.0
 10
79.83853757769661
 20
-134.1651095584726
 30
0.0
 10
80.06694740836868
 20
-134.1651095584726
 30
0.0
 10
80.16651066789241
 20
-134.2815537858741
 30
0.0
 10
80.39285344127332
 20
-134.590578850901
 30
0.0
  0
HATCH
  5
B0
330
AB
100
AcDbEntity
  8
_U+30EC_U+30A4_U+30E4_U+30FC 1
 62
   179
420
  2234388
100
AcDbHatch
 10
0.0
 20
0.0
 30
0.0
210
0.0
220
0.0
230
1.0
  2
SOLID
 70
     1
 71
     0
 91
        1
 92
        1
 93
        1
 72
     4
 94
        3
 73
     0
 74
     1
 95
       44
 96
       40
 40
0.0
 40
0.0
 40
0.0
 40
0.0
 40
1.0
 40
1.0
 40
1.0
 40
2.0
 40
2.0
 40
2.0
 40
3.0
 40
3.0
 40
3.0
 40
4.0
 40
4.0
 40
4.0
 40
5.0
 40
5.0
 40
5.0
 40
6.0
 40
6.0
 40
6.0
 40
7.0
 40
7.0
 40
7.0
 40
8.0
 40
8.0
 40
8.0
 40
9.0
 40
9.0
 40
9.0
 40
10.0
 40
10.0
 40
10.0
 40
11.0
 40
11.0
 40
11.0
 40
12.0
 40
12.0
 40
12.0
 40
13.0
 40
13.0
 40
13.0
 40
13.0
 10
80.39285344127332
 20
-134.590578850901
 10
80.55150008836907
 20
-134.8083088855687
 10
80.62556964130195
 20
-134.9013264636705
 10
80.76940237781112
 20
-134.950246819561
 10
80.76940237781112
 20
-134.950246819561
 10
80.76940237781112
 20
-134.1716552398946
 10
80.76940237781112
 20
-134.1716552398946
 10
80.76940237781112
 20
-134.1716552398946
 10
80.97455781395776
 20
-134.1716552398946
 10
80.97455781395776
 20
-134.1716552398946
 10
80.97455781395776
 20
-134.1716552398946
 10
80.97455781395776
 20
-135.1996717326931
 10
80.97455781395776
 20
-135.1996717326931
 10
80.61695690258883
 20
-135.1679768542288
 10
80.53875323507364
 20
-135.1025200400091
 10
80.24040796605101
 20
-134.7173583647582
 10
80.0416259565521
 20
-134.4613877702041
 10
79.97392983026694
 20
-134.3959309559844
 10
79.83647052040547
 20
-134.3959309559844
 10
79.71795923571287
 20
-134.3959309559844
 10
79.58687335249913
 20
-134.4679334516261
 10
79.58687335249913
 20
-134.6646484038338
 10
79.58687335249913
 20
-134.9247531129702
 10
79.81735024046233
 20
-134.9333658516833
 10
79.93379446786378
 20
-134.9374999662656
 10
79.93379446786378
 20
-134.9374999662656
 10
79.93379446786378
 20
-135.1617756823554
 10
79.93379446786378
 20
-135.1617756823554
 10
79.80684269923232
 20
-135.1531629436423
 10
79.69470484118744
 20
-135.142483147638
 10
79.57619355649484
 20
-135.0622124228317
 10
79.41547985210794
 20
-134.9523138768522
 10
79.38154566157823
 20
-134.7659342111002
 10
79.38154566157823
 20
-134.6498344932473
 10
79.38154566157823
 20
-134.3725043066846
 10
79.56568601526483
 20
-134.1651095584726
 10
79.83853757769661
 20
-134.1651095584726
 10
80.06694740836868
 20
-134.1651095584726
 10
80.16651066789241
 20
-134.2815537858741
 10
80.39285344127332
 20
-134.590578850901
 97
        0
 97
        0
 75
     2
 76
     1
 98
        0
  0
SPLINE
  5
B1
330
AB
100
AcDbEntity
  8
_U+30EC_U+30A4_U+30E4_U+30FC 1
370
     0
100
AcDbSpline
210
0.0
220
0.0
230
1.0
 70
    11
 71
     3
 72
    62
 73
    58
 74
     0
 42
0.0000000001
 43
0.0000000001
 12
1.0
 22
0.0
 32
0.0
 13
1.0
 23
0.0
 33
0.0
 40
0.0
 40
0.0
 40
0.0
 40
0.0
 40
1.0
 40
1.0
 40
1.0
 40
2.0
 40
2.0
 40
2.0
 40
3.0
 40
3.0
 40
3.0
 40
4.0
 40
4.0
 40
4.0
 40
5.0
 40
5.0
 40
5.0
 40
6.0
 40
6.0
 40
6.0
 40
7.0
 40
7.0
 40
7.0
 40
8.0
 40
8.0
 40
8.0
 40
9.0
 40
9.0
 40
9.0
 40
10.0
 40
10.0
 40
10.0
 40
11.0
 40
11.0
 40
11.0
 40
12.0
 40
12.0
 40
12.0
 40
13.0
 40
13.0
 40
13.0
 40
14.0
 40
14.0
 40
14.0
 40
15.0
 40
15.0
 40
15.0
 40
16.0
 40
16.0
 40
16.0
 40
17.0
 40
17.0
 40
17.0
 40
18.0
 40
18.0
 40
18.0
 40
19.0
 40
19.0
 40
19.0
 40
19.0
 10
81.02537297236519
 20
-133.515020040406
 30
0.0
 10
81.02537297236519
 20
-133.6104491853474
 30
0.0
 10
81.0041856351309
 20
-133.8281792200152
 30
0.0
 10
80.81797822415315
 20
-133.9532361861297
 30
0.0
 10
80.70584036610826
 20
-134.0269612295141
 30
0.0
 10
80.60644936135881
 20
-134.0314398536449
 30
0.0
 10
80.52187226719593
 20
-134.0355739682272
 30
0.0
 10
80.52187226719593
 20
-134.0355739682272
 30
0.0
 10
80.52187226719593
 20
-133.8154323667198
 30
0.0
 10
80.52187226719593
 20
-133.8154323667198
 30
0.0
 10
80.5959418201288
 20
-133.8133653094286
 30
0.0
 10
80.83072507744858
 20
-133.8030300229728
 30
0.0
 10
80.83072507744858
 20
-133.5194986645368
 30
0.0
 10
80.83072507744858
 20
-133.3820393546753
 30
0.0
 10
80.76096189387226
 20
-133.2294216246788
 30
0.0
 10
80.53237980842593
 20
-133.2294216246788
 30
0.0
 10
80.41610783579875
 20
-133.2294216246788
 30
0.0
 10
80.36735973468247
 20
-133.267662184565
 30
0.0
 10
80.33566485621817
 20
-133.2993570630293
 30
0.0
 10
80.2615953032853
 20
-133.3734266159622
 30
0.0
 10
80.24902070476413
 20
-133.4898708433637
 30
0.0
 10
80.24902070476413
 20
-133.5446478615791
 30
0.0
 10
80.24902070476413
 20
-133.5639403962965
 30
0.0
 10
80.25108776205529
 20
-133.5997693893431
 30
0.0
 10
80.25522187663759
 20
-133.6273301532251
 30
0.0
 10
80.25522187663759
 20
-133.6273301532251
 30
0.0
 10
80.06057398172098
 20
-133.6273301532251
 30
0.0
 10
80.06057398172098
 20
-133.6273301532251
 30
0.0
 10
80.06694740836868
 20
-133.5890895933389
 30
0.0
 10
80.06918672043409
 20
-133.5470594284188
 30
0.0
 10
80.06918672043409
 20
-133.5405137469968
 30
0.0
 10
80.06918672043409
 20
-133.4750569327771
 30
0.0
 10
80.04799938319981
 20
-133.2762749232782
 30
0.0
 10
79.81097681381462
 20
-133.2762749232782
 30
0.0
 10
79.63338214154999
 20
-133.2762749232782
 30
0.0
 10
79.578260613786
 20
-133.4071885517177
 30
0.0
 10
79.578260613786
 20
-133.5174316072456
 30
0.0
 10
79.578260613786
 20
-133.7816704309643
 30
0.0
 10
79.81097681381462
 20
-133.7902831696774
 30
0.0
 10
79.88297930945635
 20
-133.7944172842597
 30
0.0
 10
79.88297930945635
 20
-133.7944172842597
 30
0.0
 10
79.88297930945635
 20
-133.9973334083409
 30
0.0
 10
79.88297930945635
 20
-133.9973334083409
 30
0.0
 10
79.75809459811603
 20
-133.9890651791764
 30
0.0
 10
79.38154566157823
 20
-133.9615044152943
 30
0.0
 10
79.38154566157823
 20
-133.5046847539502
 30
0.0
 10
79.38154566157823
 20
-133.2804090378605
 30
0.0
 10
79.50849743020969
 20
-133.039252353893
 30
0.0
 10
79.8046033871669
 20
-133.039252353893
 30
0.0
 10
79.99081079814466
 20
-133.039252353893
 30
0.0
 10
80.07332083501639
 20
-133.1343369892859
 30
0.0
 10
80.13464353465385
 20
-133.2339002488096
 30
0.0
 10
80.16220429853584
 20
-133.1725775491721
 30
0.0
 10
80.24264727811642
 20
-132.9906765075509
 30
0.0
 10
80.51980520990477
 20
-132.9906765075509
 30
0.0
 10
80.85828584133057
 20
-132.9906765075509
 30
0.0
 10
81.02537297236519
 20
-133.2380343633919
 30
0.0
 10
81.02537297236519
 20
-133.515020040406
 30
0.0
  0
HATCH
  5
B2
330
AB
100
AcDbEntity
  8
_U+30EC_U+30A4_U+30E4_U+30FC 1
 62
   179
420
  2234388
100
AcDbHatch
 10
0.0
 20
0.0
 30
0.0
210
0.0
220
0.0
230
1.0
  2
SOLID
 70
     1
 71
     0
 91
        1
 92
        1
 93
        1
 72
     4
 94
        3
 73
     0
 74
     1
 95
       62
 96
       58
 40
0.0
 40
0.0
 40
0.0
 40
0.0
 40
1.0
 40
1.0
 40
1.0
 40
2.0
 40
2.0
 40
2.0
 40
3.0
 40
3.0
 40
3.0
 40
4.0
 40
4.0
 40
4.0
 40
5.0
 40
5.0
 40
5.0
 40
6.0
 40
6.0
 40
6.0
 40
7.0
 40
7.0
 40
7.0
 40
8.0
 40
8.0
 40
8.0
 40
9.0
 40
9.0
 40
9.0
 40
10.0
 40
10.0
 40
10.0
 40
11.0
 40
11.0
 40
11.0
 40
12.0
 40
12.0
 40
12.0
 40
13.0
 40
13.0
 40
13.0
 40
14.0
 40
14.0
 40
14.0
 40
15.0
 40
15.0
 40
15.0
 40
16.0
 40
16.0
 40
16.0
 40
17.0
 40
17.0
 40
17.0
 40
18.0
 40
18.0
 40
18.0
 40
19.0
 40
19.0
 40
19.0
 40
19.0
 10
81.02537297236519
 20
-133.515020040406
 10
81.02537297236519
 20
-133.6104491853474
 10
81.0041856351309
 20
-133.8281792200152
 10
80.81797822415315
 20
-133.9532361861297
 10
80.70584036610826
 20
-134.0269612295141
 10
80.60644936135881
 20
-134.0314398536449
 10
80.52187226719593
 20
-134.0355739682272
 10
80.52187226719593
 20
-134.0355739682272
 10
80.52187226719593
 20
-133.8154323667198
 10
80.52187226719593
 20
-133.8154323667198
 10
80.5959418201288
 20
-133.8133653094286
 10
80.83072507744858
 20
-133.8030300229728
 10
80.83072507744858
 20
-133.5194986645368
 10
80.83072507744858
 20
-133.3820393546753
 10
80.76096189387226
 20
-133.2294216246788
 10
80.53237980842593
 20
-133.2294216246788
 10
80.41610783579875
 20
-133.2294216246788
 10
80.36735973468247
 20
-133.267662184565
 10
80.33566485621817
 20
-133.2993570630293
 10
80.2615953032853
 20
-133.3734266159622
 10
80.24902070476413
 20
-133.4898708433637
 10
80.24902070476413
 20
-133.5446478615791
 10
80.24902070476413
 20
-133.5639403962965
 10
80.25108776205529
 20
-133.5997693893431
 10
80.25522187663759
 20
-133.6273301532251
 10
80.25522187663759
 20
-133.6273301532251
 10
80.06057398172098
 20
-133.6273301532251
 10
80.06057398172098
 20
-133.6273301532251
 10
80.06694740836868
 20
-133.5890895933389
 10
80.06918672043409
 20
-133.5470594284188
 10
80.06918672043409
 20
-133.5405137469968
 10
80.06918672043409
 20
-133.4750569327771
 10
80.04799938319981
 20
-133.2762749232782
 10
79.81097681381462
 20
-133.2762749232782
 10
79.63338214154999
 20
-133.2762749232782
 10
79.578260613786
 20
-133.4071885517177
 10
79.578260613786
 20
-133.5174316072456
 10
79.578260613786
 20
-133.7816704309643
 10
79.81097681381462
 20
-133.7902831696774
 10
79.88297930945635
 20
-133.7944172842597
 10
79.88297930945635
 20
-133.7944172842597
 10
79.88297930945635
 20
-133.9973334083409
 10
79.88297930945635
 20
-133.9973334083409
 10
79.75809459811603
 20
-133.9890651791764
 10
79.38154566157823
 20
-133.9615044152943
 10
79.38154566157823
 20
-133.5046847539502
 10
79.38154566157823
 20
-133.2804090378605
 10
79.50849743020969
 20
-133.039252353893
 10
79.8046033871669
 20
-133.039252353893
 10
79.99081079814466
 20
-133.039252353893
 10
80.07332083501639
 20
-133.1343369892859
 10
80.13464353465385
 20
-133.2339002488096
 10
80.16220429853584
 20
-133.1725775491721
 10
80.24264727811642
 20
-132.9906765075509
 10
80.51980520990477
 20
-132.9906765075509
 10
80.85828584133057
 20
-132.9906765075509
 10
81.02537297236519
 20
-133.2380343633919
 10
81.02537297236519
 20
-133.515020040406
 97
        0
 97
        0
 75
     2
 76
     1
 98
        0
  0
ENDBLK
  5
AE
330
AB
100
AcDbEntity
  8
0
100
AcDbBlockEnd
  0
BLOCK
  5
B5
330
B3
100
AcDbEntity
  8
0
100
AcDbBlockBegin
  2
block 6
 70
     0
 10
0.0
 20
0.0
 30
0.0
  3
block 6
  1

  0
SPLINE
  5
B7
330
B3
100
AcDbEntity
  8
_U+30EC_U+30A4_U+30E4_U+30FC 1
370
     0
100
AcDbSpline
210
0.0
220
0.0
230
1.0
 70
    11
 71
     3
 72
    26
 73
    22
 74
     0
 42
0.0000000001
 43
0.0000000001
 12
1.0
 22
0.0
 32
0.0
 13
1.0
 23
0.0
 33
0.0
 40
0.0
 40
0.0
 40
0.0
 40
0.0
 40
1.0
 40
1.0
 40
1.0
 40
2.0
 40
2.0
 40
2.0
 40
3.0
 40
3.0
 40
3.0
 40
4.0
 40
4.0
 40
4.0
 40
5.0
 40
5.0
 40
5.0
 40
6.0
 40
6.0
 40
6.0
 40
7.0
 40
7.0
 40
7.0
 40
7.0
 10
93.8612819860833
 20
-139.6372992272435
 30
0.0
 10
93.8612819860833
 20
-139.6372992272435
 30
0.0
 10
93.8612819860833
 20
-138.5331461242209
 30
0.0
 10
93.8612819860833
 20
-138.5331461242209
 30
0.0
 10
93.8612819860833
 20
-138.5331461242209
 30
0.0
 10
93.53124183859636
 20
-138.5331461242209
 30
0.0
 10
93.53124183859636
 20
-138.5331461242209
 30
0.0
 10
93.53124183859636
 20
-138.5331461242209
 30
0.0
 10
93.53124183859636
 20
-138.3850070183551
 30
0.0
 10
93.53124183859636
 20
-138.3850070183551
 30
0.0
 10
93.86334904337444
 20
-138.3701931077686
 30
0.0
 10
93.90985783242532
 20
-138.2072400913163
 30
0.0
 10
93.93948565359847
 20
-138.0928629212059
 30
0.0
 10
93.93948565359847
 20
-138.0928629212059
 30
0.0
 10
94.08555770217306
 20
-138.0928629212059
 30
0.0
 10
94.08555770217306
 20
-138.0928629212059
 30
0.0
 10
94.08555770217306
 20
-138.0928629212059
 30
0.0
 10
94.08555770217306
 20
-139.6372992272435
 30
0.0
 10
94.08555770217306
 20
-139.6372992272435
 30
0.0
 10
94.08555770217306
 20
-139.6372992272435
 30
0.0
 10
93.8612819860833
 20
-139.6372992272435
 30
0.0
 10
93.8612819860833
 20
-139.6372992272435
 30
0.0
  0
HATCH
  5
B8
330
B3
100
AcDbEntity
  8
_U+30EC_U+30A4_U+30E4_U+30FC 1
 62
   179
420
  2234388
100
AcDbHatch
 10
0.0
 20
0.0
 30
0.0
210
0.0
220
0.0
230
1.0
  2
SOLID
 70
     1
 71
     0
 91
        1
 92
        1
 93
        1
 72
     4
 94
        3
 73
     0
 74
     1
 95
       26
 96
       22
 40
0.0
 40
0.0
 40
0.0
 40
0.0
 40
1.0
 40
1.0
 40
1.0
 40
2.0
 40
2.0
 40
2.0
 40
3.0
 40
3.0
 40
3.0
 40
4.0
 40
4.0
 40
4.0
 40
5.0
 40
5.0
 40
5.0
 40
6.0
 40
6.0
 40
6.0
 40
7.0
 40
7.0
 40
7.0
 40
7.0
 10
93.8612819860833
 20
-139.6372992272435
 10
93.8612819860833
 20
-139.6372992272435
 10
93.8612819860833
 20
-138.5331461242209
 10
93.8612819860833
 20
-138.5331461242209
 10
93.8612819860833
 20
-138.5331461242209
 10
93.53124183859636
 20
-138.5331461242209
 10
93.53124183859636
 20
-138.5331461242209
 10
93.53124183859636
 20
-138.5331461242209
 10
93.53124183859636
 20
-138.3850070183551
 10
93.53124183859636
 20
-138.3850070183551
 10
93.86334904337444
 20
-138.3701931077686
 10
93.90985783242532
 20
-138.2072400913163
 10
93.93948565359847
 20
-138.0928629212059
 10
93.93948565359847
 20
-138.0928629212059
 10
94.08555770217306
 20
-138.0928629212059
 10
94.08555770217306
 20
-138.0928629212059
 10
94.08555770217306
 20
-138.0928629212059
 10
94.08555770217306
 20
-139.6372992272435
 10
94.08555770217306
 20
-139.6372992272435
 10
94.08555770217306
 20
-139.6372992272435
 10
93.8612819860833
 20
-139.6372992272435
 10
93.8612819860833
 20
-139.6372992272435
 97
        0
 97
        0
 75
     2
 76
     1
 98
        0
  0
SPLINE
  5
B9
330
B3
100
AcDbEntity
  8
_U+30EC_U+30A4_U+30E4_U+30FC 1
370
     0
100
AcDbSpline
210
0.0
220
0.0
230
1.0
 70
    11
 71
     3
 72
    53
 73
    49
 74
     0
 42
0.0000000001
 43
0.0000000001
 12
1.0
 22
0.0
 32
0.0
 13
1.0
 23
0.0
 33
0.0
 40
0.0
 40
0.0
 40
0.0
 40
0.0
 40
1.0
 40
1.0
 40
1.0
 40
2.0
 40
2.0
 40
2.0
 40
3.0
 40
3.0
 40
3.0
 40
4.0
 40
4.0
 40
4.0
 40
5.0
 40
5.0
 40
5.0
 40
6.0
 40
6.0
 40
6.0
 40
7.0
 40
7.0
 40
7.0
 40
8.0
 40
8.0
 40
8.0
 40
9.0
 40
9.0
 40
9.0
 40
10.0
 40
10.0
 40
10.0
 40
11.0
 40
11.0
 40
11.0
 40
12.0
 40
12.0
 40
12.0
 40
13.0
 40
13.0
 40
13.0
 40
14.0
 40
14.0
 40
14.0
 40
15.0
 40
15.0
 40
15.0
 40
16.0
 40
16.0
 40
16.0
 40
16.0
 10
95.06775442501778
 20
-139.6879421308766
 30
0.0
 10
94.98955075750261
 20
-139.6879421308766
 30
0.0
 10
94.88792044068775
 20
-139.6710611629989
 30
0.0
 10
94.78629012387287
 20
-139.6076714060703
 30
0.0
 10
94.61300182096481
 20
-139.4977728600908
 30
0.0
 10
94.59164222895626
 20
-139.3665147221028
 30
0.0
 10
94.57269420378739
 20
-139.2586832334145
 30
0.0
 10
94.57269420378739
 20
-139.2586832334145
 30
0.0
 10
94.794902862586
 20
-139.2586832334145
 30
0.0
 10
94.794902862586
 20
-139.2586832334145
 30
0.0
 10
94.84967988080147
 20
-139.4574652429134
 30
0.0
 10
94.97680390420719
 20
-139.4870930640866
 30
0.0
 10
95.06982148230894
 20
-139.4870930640866
 30
0.0
 10
95.20934784946155
 20
-139.4870930640866
 30
0.0
 10
95.3616210699096
 20
-139.3875298045629
 30
0.0
 10
95.3616210699096
 20
-139.1549858593085
 30
0.0
 10
95.3616210699096
 20
-138.8990152647544
 30
0.0
 10
95.18178708557956
 20
-138.8290798264038
 30
0.0
 10
95.06120874359581
 20
-138.8290798264038
 30
0.0
 10
95.02951386513152
 20
-138.8290798264038
 30
0.0
 10
94.88792044068775
 20
-138.8290798264038
 30
0.0
 10
94.7990369771683
 20
-138.9582709071007
 30
0.0
 10
94.7990369771683
 20
-138.9582709071007
 30
0.0
 10
94.62333710742055
 20
-138.9393228819318
 30
0.0
 10
94.62333710742055
 20
-138.9393228819318
 30
0.0
 10
94.62333710742055
 20
-138.9393228819318
 30
0.0
 10
94.7439154494043
 20
-138.0928629212059
 30
0.0
 10
94.7439154494043
 20
-138.0928629212059
 30
0.0
 10
94.7439154494043
 20
-138.0928629212059
 30
0.0
 10
95.52250702907077
 20
-138.0928629212059
 30
0.0
 10
95.52250702907077
 20
-138.0928629212059
 30
0.0
 10
95.52250702907077
 20
-138.0928629212059
 30
0.0
 10
95.52250702907077
 20
-138.2875108161226
 30
0.0
 10
95.52250702907077
 20
-138.2875108161226
 30
0.0
 10
95.52250702907077
 20
-138.2875108161226
 30
0.0
 10
94.90686846585662
 20
-138.2875108161226
 30
0.0
 10
94.90686846585662
 20
-138.2875108161226
 30
0.0
 10
94.90686846585662
 20
-138.2875108161226
 30
0.0
 10
94.84141165163688
 20
-138.7105685417112
 30
0.0
 10
94.84141165163688
 20
-138.7105685417112
 30
0.0
 10
94.90273435127432
 20
-138.6768066059558
 30
0.0
 10
94.98507213337179
 20
-138.6364989887784
 30
0.0
 10
95.10358341806439
 20
-138.6364989887784
 30
0.0
 10
95.3574869553273
 20
-138.6364989887784
 30
0.0
 10
95.59450952471249
 20
-138.8228786545304
 30
0.0
 10
95.59450952471249
 20
-139.1360378341396
 30
0.0
 10
95.59450952471249
 20
-139.4533311283311
 30
0.0
 10
95.37023380862273
 20
-139.6879421308766
 30
0.0
 10
95.06775442501778
 20
-139.6879421308766
 30
0.0
  0
HATCH
  5
BA
330
B3
100
AcDbEntity
  8
_U+30EC_U+30A4_U+30E4_U+30FC 1
 62
   179
420
  2234388
100
AcDbHatch
 10
0.0
 20
0.0
 30
0.0
210
0.0
220
0.0
230
1.0
  2
SOLID
 70
     1
 71
     0
 91
        1
 92
        1
 93
        1
 72
     4
 94
        3
 73
     0
 74
     1
 95
       53
 96
       49
 40
0.0
 40
0.0
 40
0.0
 40
0.0
 40
1.0
 40
1.0
 40
1.0
 40
2.0
 40
2.0
 40
2.0
 40
3.0
 40
3.0
 40
3.0
 40
4.0
 40
4.0
 40
4.0
 40
5.0
 40
5.0
 40
5.0
 40
6.0
 40
6.0
 40
6.0
 40
7.0
 40
7.0
 40
7.0
 40
8.0
 40
8.0
 40
8.0
 40
9.0
 40
9.0
 40
9.0
 40
10.0
 40
10.0
 40
10.0
 40
11.0
 40
11.0
 40
11.0
 40
12.0
 40
12.0
 40
12.0
 40
13.0
 40
13.0
 40
13.0
 40
14.0
 40
14.0
 40
14.0
 40
15.0
 40
15.0
 40
15.0
 40
16.0
 40
16.0
 40
16.0
 40
16.0
 10
95.06775442501778
 20
-139.6879421308766
 10
94.98955075750261
 20
-139.6879421308766
 10
94.88792044068775
 20
-139.6710611629989
 10
94.78629012387287
 20
-139.6076714060703
 10
94.61300182096481
 20
-139.4977728600908
 10
94.59164222895626
 20
-139.3665147221028
 10
94.57269420378739
 20
-139.2586832334145
 10
94.57269420378739
 20
-139.2586832334145
 10
94.794902862586
 20
-139.2586832334145
 10
94.794902862586
 20
-139.2586832334145
 10
94.84967988080147
 20
-139.4574652429134
 10
94.97680390420719
 20
-139.4870930640866
 10
95.06982148230894
 20
-139.4870930640866
 10
95.20934784946155
 20
-139.4870930640866
 10
95.3616210699096
 20
-139.3875298045629
 10
95.3616210699096
 20
-139.1549858593085
 10
95.3616210699096
 20
-138.8990152647544
 10
95.18178708557956
 20
-138.8290798264038
 10
95.06120874359581
 20
-138.8290798264038
 10
95.02951386513152
 20
-138.8290798264038
 10
94.88792044068775
 20
-138.8290798264038
 10
94.7990369771683
 20
-138.9582709071007
 10
94.7990369771683
 20
-138.9582709071007
 10
94.62333710742055
 20
-138.9393228819318
 10
94.62333710742055
 20
-138.9393228819318
 10
94.62333710742055
 20
-138.9393228819318
 10
94.7439154494043
 20
-138.0928629212059
 10
94.7439154494043
 20
-138.0928629212059
 10
94.7439154494043
 20
-138.0928629212059
 10
95.52250702907077
 20
-138.0928629212059
 10
95.52250702907077
 20
-138.0928629212059
 10
95.52250702907077
 20
-138.0928629212059
 10
95.52250702907077
 20
-138.2875108161226
 10
95.52250702907077
 20
-138.2875108161226
 10
95.52250702907077
 20
-138.2875108161226
 10
94.90686846585662
 20
-138.2875108161226
 10
94.90686846585662
 20
-138.2875108161226
 10
94.90686846585662
 20
-138.2875108161226
 10
94.84141165163688
 20
-138.7105685417112
 10
94.84141165163688
 20
-138.7105685417112
 10
94.90273435127432
 20
-138.6768066059558
 10
94.98507213337179
 20
-138.6364989887784
 10
95.10358341806439
 20
-138.6364989887784
 10
95.3574869553273
 20
-138.6364989887784
 10
95.59450952471249
 20
-138.8228786545304
 10
95.59450952471249
 20
-139.1360378341396
 10
95.59450952471249
 20
-139.4533311283311
 10
95.37023380862273
 20
-139.6879421308766
 10
95.06775442501778
 20
-139.6879421308766
 97
        0
 97
        0
 75
     2
 76
     1
 98
        0
  0
POLYLINE
  5
BB
330
B3
100
AcDbEntity
  8
_U+30EC_U+30A4_U+30E4_U+30FC 1
370
     0
100
AcDb2dPolyline
 66
     1
 10
0.0
 20
0.0
 30
0.0
  0
VERTEX
  5
BC
330
BB
100
AcDbEntity
  8
_U+30EC_U+30A4_U+30E4_U+30FC 1
370
     0
100
AcDbVertex
100
AcDb2dVertex
 10
95.82360837448161
 20
-139.6372992272435
 30
0.0
  0
VERTEX
  5
BD
330
BB
100
AcDbEntity
  8
_U+30EC_U+30A4_U+30E4_U+30FC 1
370
     0
100
AcDbVertex
100
AcDb2dVertex
 10
95.82360837448161
 20
-139.3854627472717
 30
0.0
  0
VERTEX
  5
BE
330
BB
100
AcDbEntity
  8
_U+30EC_U+30A4_U+30E4_U+30FC 1
370
     0
100
AcDbVertex
100
AcDb2dVertex
 10
96.07544485445337
 20
-139.3854627472717
 30
0.0
  0
VERTEX
  5
BF
330
BB
100
AcDbEntity
  8
_U+30EC_U+30A4_U+30E4_U+30FC 1
370
     0
100
AcDbVertex
100
AcDb2dVertex
 10
96.07544485445337
 20
-139.6372992272435
 30
0.0
  0
VERTEX
  5
C0
330
BB
100
AcDbEntity
  8
_U+30EC_U+30A4_U+30E4_U+30FC 1
370
     0
100
AcDbVertex
100
AcDb2dVertex
 10
95.82360837448161
 20
-139.6372992272435
 30
0.0
  0
SEQEND
  5
C1
330
BB
100
AcDbEntity
  8
_U+30EC_U+30A4_U+30E4_U+30FC 1
370
     0
  0
HATCH
  5
C2
330
B3
100
AcDbEntity
  8
_U+30EC_U+30A4_U+30E4_U+30FC 1
 62
   179
420
  2234388
100
AcDbHatch
 10
0.0
 20
0.0
 30
0.0
210
0.0
220
0.0
230
1.0
  2
SOLID
 70
     1
 71
     0
 91
        1
 92
        1
 93
        4
 72
     1
 10
95.82360837448161
 20
-139.6372992272435
 11
95.82360837448161
 21
-139.3854627472717
 72
     1
 10
95.82360837448161
 20
-139.3854627472717
 11
96.07544485445337
 21
-139.3854627472717
 72
     1
 10
96.07544485445337
 20
-139.3854627472717
 11
96.07544485445337
 21
-139.6372992272435
 72
     1
 10
96.07544485445337
 20
-139.6372992272435
 11
95.82360837448161
 21
-139.6372992272435
 97
        0
 75
     2
 76
     1
 98
        0
  0
SPLINE
  5
C3
330
B3
100
AcDbEntity
  8
_U+30EC_U+30A4_U+30E4_U+30FC 1
370
     0
100
AcDbSpline
210
0.0
220
0.0
230
1.0
 70
    11
 71
     3
 72
    53
 73
    49
 74
     0
 42
0.0000000001
 43
0.0000000001
 12
1.0
 22
0.0
 32
0.0
 13
1.0
 23
0.0
 33
0.0
 40
0.0
 40
0.0
 40
0.0
 40
0.0
 40
1.0
 40
1.0
 40
1.0
 40
2.0
 40
2.0
 40
2.0
 40
3.0
 40
3.0
 40
3.0
 40
4.0
 40
4.0
 40
4.0
 40
5.0
 40
5.0
 40
5.0
 40
6.0
 40
6.0
 40
6.0
 40
7.0
 40
7.0
 40
7.0
 40
8.0
 40
8.0
 40
8.0
 40
9.0
 40
9.0
 40
9.0
 40
10.0
 40
10.0
 40
10.0
 40
11.0
 40
11.0
 40
11.0
 40
12.0
 40
12.0
 40
12.0
 40
13.0
 40
13.0
 40
13.0
 40
14.0
 40
14.0
 40
14.0
 40
15.0
 40
15.0
 40
15.0
 40
16.0
 40
16.0
 40
16.0
 40
16.0
 10
96.79271373448238
 20
-139.6879421308766
 30
0.0
 10
96.71451006696721
 20
-139.6879421308766
 30
0.0
 10
96.61287975015235
 20
-139.6710611629989
 30
0.0
 10
96.51124943333747
 20
-139.6076714060703
 30
0.0
 10
96.3379611304294
 20
-139.4977728600908
 30
0.0
 10
96.31694604796938
 20
-139.3665147221028
 30
0.0
 10
96.29765351325197
 20
-139.2586832334145
 30
0.0
 10
96.29765351325197
 20
-139.2586832334145
 30
0.0
 10
96.5198621720506
 20
-139.2586832334145
 30
0.0
 10
96.5198621720506
 20
-139.2586832334145
 30
0.0
 10
96.5749836998146
 20
-139.4574652429134
 30
0.0
 10
96.70176321367178
 20
-139.4870930640866
 30
0.0
 10
96.79478079177353
 20
-139.4870930640866
 30
0.0
 10
96.93465166847467
 20
-139.4870930640866
 30
0.0
 10
97.08692488892272
 20
-139.3875298045629
 30
0.0
 10
97.08692488892272
 20
-139.1549858593085
 30
0.0
 10
97.08692488892272
 20
-138.8990152647544
 30
0.0
 10
96.90709090459268
 20
-138.8290798264038
 30
0.0
 10
96.78651256260893
 20
-138.8290798264038
 30
0.0
 10
96.75481768414463
 20
-138.8290798264038
 30
0.0
 10
96.61287975015235
 20
-138.8290798264038
 30
0.0
 10
96.5239962866329
 20
-138.9582709071007
 30
0.0
 10
96.5239962866329
 20
-138.9582709071007
 30
0.0
 10
96.34864092643367
 20
-138.9393228819318
 30
0.0
 10
96.34864092643367
 20
-138.9393228819318
 30
0.0
 10
96.34864092643367
 20
-138.9393228819318
 30
0.0
 10
96.46921926841742
 20
-138.0928629212059
 30
0.0
 10
96.46921926841742
 20
-138.0928629212059
 30
0.0
 10
96.46921926841742
 20
-138.0928629212059
 30
0.0
 10
97.24746633853536
 20
-138.0928629212059
 30
0.0
 10
97.24746633853536
 20
-138.0928629212059
 30
0.0
 10
97.24746633853536
 20
-138.0928629212059
 30
0.0
 10
97.24746633853536
 20
-138.2875108161226
 30
0.0
 10
97.24746633853536
 20
-138.2875108161226
 30
0.0
 10
97.24746633853536
 20
-138.2875108161226
 30
0.0
 10
96.63182777532121
 20
-138.2875108161226
 30
0.0
 10
96.63182777532121
 20
-138.2875108161226
 30
0.0
 10
96.63182777532121
 20
-138.2875108161226
 30
0.0
 10
96.56637096110147
 20
-138.7105685417112
 30
0.0
 10
96.56637096110147
 20
-138.7105685417112
 30
0.0
 10
96.62769366073891
 20
-138.6768066059558
 30
0.0
 10
96.71037595238491
 20
-138.6364989887784
 30
0.0
 10
96.82888723707751
 20
-138.6364989887784
 30
0.0
 10
97.0824462647919
 20
-138.6364989887784
 30
0.0
 10
97.31946883417709
 20
-138.8228786545304
 30
0.0
 10
97.31946883417709
 20
-139.1360378341396
 30
0.0
 10
97.31946883417709
 20
-139.4533311283311
 30
0.0
 10
97.09519311808732
 20
-139.6879421308766
 30
0.0
 10
96.79271373448238
 20
-139.6879421308766
 30
0.0
  0
HATCH
  5
C4
330
B3
100
AcDbEntity
  8
_U+30EC_U+30A4_U+30E4_U+30FC 1
 62
   179
420
  2234388
100
AcDbHatch
 10
0.0
 20
0.0
 30
0.0
210
0.0
220
0.0
230
1.0
  2
SOLID
 70
     1
 71
     0
 91
        1
 92
        1
 93
        1
 72
     4
 94
        3
 73
     0
 74
     1
 95
       53
 96
       49
 40
0.0
 40
0.0
 40
0.0
 40
0.0
 40
1.0
 40
1.0
 40
1.0
 40
2.0
 40
2.0
 40
2.0
 40
3.0
 40
3.0
 40
3.0
 40
4.0
 40
4.0
 40
4.0
 40
5.0
 40
5.0
 40
5.0
 40
6.0
 40
6.0
 40
6.0
 40
7.0
 40
7.0
 40
7.0
 40
8.0
 40
8.0
 40
8.0
 40
9.0
 40
9.0
 40
9.0
 40
10.0
 40
10.0
 40
10.0
 40
11.0
 40
11.0
 40
11.0
 40
12.0
 40
12.0
 40
12.0
 40
13.0
 40
13.0
 40
13.0
 40
14.0
 40
14.0
 40
14.0
 40
15.0
 40
15.0
 40
15.0
 40
16.0
 40
16.0
 40
16.0
 40
16.0
 10
96.79271373448238
 20
-139.6879421308766
 10
96.71451006696721
 20
-139.6879421308766
 10
96.61287975015235
 20
-139.6710611629989
 10
96.51124943333747
 20
-139.6076714060703
 10
96.3379611304294
 20
-139.4977728600908
 10
96.31694604796938
 20
-139.3665147221028
 10
96.29765351325197
 20
-139.2586832334145
 10
96.29765351325197
 20
-139.2586832334145
 10
96.5198621720506
 20
-139.2586832334145
 10
96.5198621720506
 20
-139.2586832334145
 10
96.5749836998146
 20
-139.4574652429134
 10
96.70176321367178
 20
-139.4870930640866
 10
96.79478079177353
 20
-139.4870930640866
 10
96.93465166847467
 20
-139.4870930640866
 10
97.08692488892272
 20
-139.3875298045629
 10
97.08692488892272
 20
-139.1549858593085
 10
97.08692488892272
 20
-138.8990152647544
 10
96.90709090459268
 20
-138.8290798264038
 10
96.78651256260893
 20
-138.8290798264038
 10
96.75481768414463
 20
-138.8290798264038
 10
96.61287975015235
 20
-138.8290798264038
 10
96.5239962866329
 20
-138.9582709071007
 10
96.5239962866329
 20
-138.9582709071007
 10
96.34864092643367
 20
-138.9393228819318
 10
96.34864092643367
 20
-138.9393228819318
 10
96.34864092643367
 20
-138.9393228819318
 10
96.46921926841742
 20
-138.0928629212059
 10
96.46921926841742
 20
-138.0928629212059
 10
96.46921926841742
 20
-138.0928629212059
 10
97.24746633853536
 20
-138.0928629212059
 10
97.24746633853536
 20
-138.0928629212059
 10
97.24746633853536
 20
-138.0928629212059
 10
97.24746633853536
 20
-138.2875108161226
 10
97.24746633853536
 20
-138.2875108161226
 10
97.24746633853536
 20
-138.2875108161226
 10
96.63182777532121
 20
-138.2875108161226
 10
96.63182777532121
 20
-138.2875108161226
 10
96.63182777532121
 20
-138.2875108161226
 10
96.56637096110147
 20
-138.7105685417112
 10
96.56637096110147
 20
-138.7105685417112
 10
96.62769366073891
 20
-138.6768066059558
 10
96.71037595238491
 20
-138.6364989887784
 10
96.82888723707751
 20
-138.6364989887784
 10
97.0824462647919
 20
-138.6364989887784
 10
97.31946883417709
 20
-138.8228786545304
 10
97.31946883417709
 20
-139.1360378341396
 10
97.31946883417709
 20
-139.4533311283311
 10
97.09519311808732
 20
-139.6879421308766
 10
96.79271373448238
 20
-139.6879421308766
 97
        0
 97
        0
 75
     2
 76
     1
 98
        0
  0
ENDBLK
  5
B6
330
B3
100
AcDbEntity
  8
0
100
AcDbBlockEnd
  0
ENDSEC
  0
SECTION
  2
ENTITIES
  0
INSERT
  5
42
330
1F
100
AcDbEntity
  8
_U+30EC_U+30A4_U+30E4_U+30FC 1
100
AcDbBlockReference
  2
block 2
 10
0.0
 20
0.0
 30
0.0
  0
ENDSEC
  0
SECTION
  2
OBJECTS
  0
DICTIONARY
  5
C
330
0
100
AcDbDictionary
281
     1
  3
ACAD_GROUP
350
D
  3
ACAD_LAYOUT
350
1A
  3
ACAD_MATERIAL
350
3B
  3
ACAD_MLEADERSTYLE
350
D2
  3
ACAD_MLINESTYLE
350
17
  3
ACAD_PLOTSETTINGS
350
19
  3
ACAD_PLOTSTYLENAME
350
E
  3
ACAD_TABLESTYLE
350
D1
  3
ACAD_VISUALSTYLE
350
2A
  0
SUN
  5
3F
330
29
100
AcDbSun
 90
        1
290
     0
 63
     7
421
 16777215
 40
1.0
291
     1
 91
  2455826
 92
 54000000
292
     0
 70
     2
 71
   256
280
     1
  0
DICTIONARY
  5
D
102
{ACAD_REACTORS
330
C
102
}
330
C
100
AcDbDictionary
281
     1
  0
DICTIONARY
  5
1A
102
{ACAD_REACTORS
330
C
102
}
330
C
100
AcDbDictionary
281
     1
  3
Layout1
350
1E
  3
Layout2
350
26
  3
Model
350
22
  0
DICTIONARY
  5
3B
102
{ACAD_REACTORS
330
C
102
}
330
C
100
AcDbDictionary
281
     1
  3
ByBlock
350
3D
  3
ByLayer
350
3C
  3
Global
350
3E
  0
DICTIONARY
  5
D2
102
{ACAD_REACTORS
330
C
102
}
330
C
100
AcDbDictionary
281
     1
  0
DICTIONARY
  5
17
102
{ACAD_REACTORS
330
C
102
}
330
C
100
AcDbDictionary
281
     1
  3
Standard
350
18
  0
DICTIONARY
  5
19
102
{ACAD_REACTORS
330
C
102
}
330
C
100
AcDbDictionary
281
     1
  0
ACDBDICTIONARYWDFLT
  5
E
102
{ACAD_REACTORS
330
C
102
}
330
C
100
AcDbDictionary
281
     1
  3
Normal
350
F
100
AcDbDictionaryWithDefault
340
F
  0
DICTIONARY
  5
D1
102
{ACAD_REACTORS
330
C
102
}
330
C
100
AcDbDictionary
281
     1
  0
DICTIONARY
  5
2A
102
{ACAD_REACTORS
330
C
102
}
330
C
100
AcDbDictionary
281
     1
  3
2dWireframe
350
2F
  3
3D Hidden
350
31
  3
3dWireframe
350
30
  3
Basic
350
32
  3
Brighten
350
36
  3
ColorChange
350
3A
  3
Conceptual
350
34
  3
Dim
350
35
  3
Facepattern
350
39
  3
Flat
350
2B
  3
FlatWithEdges
350
2C
  3
Gouraud
350
2D
  3
GouraudWithEdges
350
2E
  3
Linepattern
350
38
  3
Realistic
350
33
  3
Thicken
350
37
  0
LAYOUT
  5
1E
102
{ACAD_REACTORS
330
1A
102
}
330
1A
100
AcDbPlotSettings
  1

  2
none_device
  4

  6

 40
0.0
 41
0.0
 42
0.0
 43
0.0
 44
0.0
 45
0.0
 46
0.0
 47
0.0
 48
0.0
 49
0.0
140
0.0
141
0.0
142
1.0
143
1.0
 70
   688
 72
     0
 73
     0
 74
     5
  7

 75
    16
 76
     0
 77
     2
 78
   300
147
1.0
148
0.0
149
0.0
100
AcDbLayout
  1
Layout1
 70
     1
 71
     1
 10
0.0
 20
0.0
 11
12.0
 21
9.0
 12
0.0
 22
0.0
 32
0.0
 14
1.000000000000000E+20
 24
1.000000000000000E+20
 34
1.000000000000000E+20
 15
-1.000000000000000E+20
 25
-1.000000000000000E+20
 35
-1.000000000000000E+20
146
0.0
 13
0.0
 23
0.0
 33
0.0
 16
1.0
 26
0.0
 36
0.0
 17
0.0
 27
1.0
 37
0.0
 76
     0
330
1B
  0
LAYOUT
  5
26
102
{ACAD_REACTORS
330
1A
102
}
330
1A
100
AcDbPlotSettings
  1

  2
none_device
  4

  6

 40
0.0
 41
0.0
 42
0.0
 43
0.0
 44
0.0
 45
0.0
 46
0.0
 47
0.0
 48
0.0
 49
0.0
140
0.0
141
0.0
142
1.0
143
1.0
 70
   688
 72
     0
 73
     0
 74
     5
  7

 75
    16
 76
     0
 77
     2
 78
   300
147
1.0
148
0.0
149
0.0
100
AcDbLayout
  1
Layout2
 70
     1
 71
     2
 10
0.0
 20
0.0
 11
0.0
 21
0.0
 12
0.0
 22
0.0
 32
0.0
 14
0.0
 24
0.0
 34
0.0
 15
0.0
 25
0.0
 35
0.0
146
0.0
 13
0.0
 23
0.0
 33
0.0
 16
1.0
 26
0.0
 36
0.0
 17
0.0
 27
1.0
 37
0.0
 76
     0
330
23
  0
LAYOUT
  5
22
102
{ACAD_REACTORS
330
1A
102
}
330
1A
100
AcDbPlotSettings
  1

  2
none_device
  4

  6

 40
0.0
 41
0.0
 42
0.0
 43
0.0
 44
0.0
 45
0.0
 46
0.0
 47
0.0
 48
0.0
 49
0.0
140
0.0
141
0.0
142
1.0
143
1.0
 70
  1712
 72
     0
 73
     0
 74
     0
  7

 75
     0
 76
     0
 77
     2
 78
   300
147
1.0
148
0.0
149
0.0
100
AcDbLayout
  1
Model
 70
     1
 71
     0
 10
0.0
 20
0.0
 11
12.0
 21
9.0
 12
0.0
 22
0.0
 32
0.0
 14
1.000000000000000E+20
 24
1.000000000000000E+20
 34
1.000000000000000E+20
 15
-1.000000000000000E+20
 25
-1.000000000000000E+20
 35
-1.000000000000000E+20
146
0.0
 13
0.0
 23
0.0
 33
0.0
 16
1.0
 26
0.0
 36
0.0
 17
0.0
 27
1.0
 37
0.0
 76
     0
330
1F
331
29
  0
MATERIAL
  5
3D
102
{ACAD_REACTORS
330
3B
102
}
330
3B
100
AcDbMaterial
  1
ByBlock
 72
     1
 94
      127
  0
MATERIAL
  5
3C
102
{ACAD_REACTORS
330
3B
102
}
330
3B
100
AcDbMaterial
  1
ByLayer
 72
     1
 94
      127
  0
MATERIAL
  5
3E
102
{ACAD_REACTORS
330
3B
102
}
330
3B
100
AcDbMaterial
  1
Global
 72
     1
 94
      127
  0
MLINESTYLE
  5
18
102
{ACAD_REACTORS
330
17
102
}
330
17
100
AcDbMlineStyle
  2
Standard
 70
     0
  3

 62
   256
 51
90.0
 52
90.0
 71
     2
 49
0.5
 62
   256
  6
BYLAYER
 49
-0.5
 62
   256
  6
BYLAYER
  0
ACDBPLACEHOLDER
  5
F
102
{ACAD_REACTORS
330
E
102
}
330
E
  0
VISUALSTYLE
  5
2F
102
{ACAD_REACTORS
330
2A
102
}
330
2A
100
AcDbVisualStyle
  2
2dWireframe
 70
     4
177
     2
291
     0
 71
     0
176
     1
 72
     2
176
     1
 73
     0
176
     1
 90
        0
176
     1
 40
-0.6
176
     1
 41
-30.0
176
     1
 62
     5
 63
     7
421
 16777215
176
     1
 74
     1
176
     1
 91
        4
176
     1
 64
     7
176
     1
 65
   257
176
     1
 75
     1
176
     1
175
     1
176
     1
 42
1.0
176
     1
 92
        0
176
     1
 66
   257
176
     1
 43
1.0
176
     1
 76
     1
176
     1
 77
     6
176
     1
 78
     2
176
     1
 67
     7
176
     1
 79
     5
176
     1
170
     0
176
     1
171
     0
176
     1
290
     0
176
     1
 93
        1
176
     1
 44
0.0
176
     1
173
     0
176
     1
  0
VISUALSTYLE
  5
31
102
{ACAD_REACTORS
330
2A
102
}
330
2A
100
AcDbVisualStyle
  2
3D Hidden
 70
     6
177
     2
291
     0
 71
     1
176
     1
 72
     2
176
     1
 73
     2
176
     1
 90
        0
176
     1
 40
-0.6
176
     1
 41
-30.0
176
     1
 62
     5
 63
     7
421
 16777215
176
     1
 74
     2
176
     1
 91
        2
176
     1
 64
     7
176
     1
 65
   257
176
     1
 75
     2
176
     1
175
     1
176
     1
 42
40.0
176
     1
 92
        0
176
     1
 66
   257
176
     1
 43
1.0
176
     1
 76
     1
176
     1
 77
     6
176
     1
 78
     2
176
     1
 67
     7
176
     1
 79
     3
176
     1
170
     0
176
     1
171
     0
176
     1
290
     0
176
     1
 93
        1
176
     1
 44
0.0
176
     1
173
     0
176
     1
  0
VISUALSTYLE
  5
30
102
{ACAD_REACTORS
330
2A
102
}
330
2A
100
AcDbVisualStyle
  2
3dWireframe
 70
     5
177
     2
291
     0
 71
     0
176
     1
 72
     2
176
     1
 73
     0
176
     1
 90
        0
176
     1
 40
-0.6
176
     1
 41
-30.0
176
     1
 62
     5
 63
     7
421
 16777215
176
     1
 74
     1
176
     1
 91
        4
176
     1
 64
     7
176
     1
 65
   257
176
     1
 75
     1
176
     1
175
     1
176
     1
 42
1.0
176
     1
 92
        0
176
     1
 66
   257
176
     1
 43
1.0
176
     1
 76
     1
176
     1
 77
     6
176
     1
 78
     2
176
     1
 67
     7
176
     1
 79
     5
176
     1
170
     0
176
     1
171
     0
176
     1
290
     0
176
     1
 93
        1
176
     1
 44
0.0
176
     1
173
     0
176
     1
  0
VISUALSTYLE
  5
32
102
{ACAD_REACTORS
330
2A
102
}
330
2A
100
AcDbVisualStyle
  2
Basic
 70
     7
177
     2
291
     1
 71
     1
176
     1
 72
     0
176
     1
 73
     1
176
     1
 90
        0
176
     1
 40
-0.6
176
     1
 41
-30.0
176
     1
 62
     5
 63
     7
421
 16777215
176
     1
 74
     0
176
     1
 91
        4
176
     1
 64
     7
176
     1
 65
   257
176
     1
 75
     1
176
     1
175
     1
176
     1
 42
1.0
176
     1
 92
        8
176
     1
 66
     7
176
     1
 43
1.0
176
     1
 76
     1
176
     1
 77
     6
176
     1
 78
     2
176
     1
 67
     7
176
     1
 79
     5
176
     1
170
     0
176
     1
171
     0
176
     1
290
     0
176
     1
 93
        1
176
     1
 44
0.0
176
     1
173
     0
176
     1
  0
VISUALSTYLE
  5
36
102
{ACAD_REACTORS
330
2A
102
}
330
2A
100
AcDbVisualStyle
  2
Brighten
 70
    12
177
     2
291
     1
 71
     2
176
     1
 72
     2
176
     1
 73
     0
176
     1
 90
        0
176
     1
 40
-0.6
176
     1
 41
-30.0
176
     1
 62
     5
 63
     7
421
 16777215
176
     1
 74
     1
176
     1
 91
        4
176
     1
 64
     7
176
     1
 65
   257
176
     1
 75
     1
176
     1
175
     1
176
     1
 42
1.0
176
     1
 92
        8
176
     1
 66
     7
176
     1
 43
1.0
176
     1
 76
     1
176
     1
 77
     6
176
     1
 78
     2
176
     1
 67
     7
176
     1
 79
     5
176
     1
170
     0
176
     1
171
     0
176
     1
290
     0
176
     1
 93
        1
176
     1
 44
50.0
176
     1
173
     0
176
     1
  0
VISUALSTYLE
  5
3A
102
{ACAD_REACTORS
330
2A
102
}
330
2A
100
AcDbVisualStyle
  2
ColorChange
 70
    16
177
     2
291
     1
 71
     2
176
     1
 72
     2
176
     1
 73
     3
176
     1
 90
        0
176
     1
 40
-0.6
176
     1
 41
-30.0
176
     1
 62
     5
 63
     8
421
  8421504
176
     1
 74
     1
176
     1
 91
        4
176
     1
 64
     7
176
     1
 65
   257
176
     1
 75
     1
176
     1
175
     1
176
     1
 42
1.0
176
     1
 92
        8
176
     1
 66
     8
424
  8421504
176
     1
 43
1.0
176
     1
 76
     1
176
     1
 77
     6
176
     1
 78
     2
176
     1
 67
     7
176
     1
 79
     5
176
     1
170
     0
176
     1
171
     0
176
     1
290
     0
176
     1
 93
        1
176
     1
 44
0.0
176
     1
173
     0
176
     1
  0
VISUALSTYLE
  5
34
102
{ACAD_REACTORS
330
2A
102
}
330
2A
100
AcDbVisualStyle
  2
Conceptual
 70
     9
177
     2
291
     0
 71
     3
176
     1
 72
     2
176
     1
 73
     0
176
     1
 90
        0
176
     1
 40
-0.6
176
     1
 41
-30.0
176
     1
 62
     5
 63
     7
421
 16777215
176
     1
 74
     2
176
     1
 91
        2
176
     1
 64
     7
176
     1
 65
   257
176
     1
 75
     1
176
     1
175
     1
176
     1
 42
40.0
176
     1
 92
        8
176
     1
 66
     7
176
     1
 43
1.0
176
     1
 76
     1
176
     1
 77
     6
176
     1
 78
     2
176
     1
 67
     7
176
     1
 79
     3
176
     1
170
     0
176
     1
171
     0
176
     1
290
     0
176
     1
 93
        1
176
     1
 44
0.0
176
     1
173
     0
176
     1
  0
VISUALSTYLE
  5
35
102
{ACAD_REACTORS
330
2A
102
}
330
2A
100
AcDbVisualStyle
  2
Dim
 70
    11
177
     2
291
     1
 71
     2
176
     1
 72
     2
176
     1
 73
     0
176
     1
 90
        0
176
     1
 40
-0.6
176
     1
 41
-30.0
176
     1
 62
     5
 63
     7
421
 16777215
176
     1
 74
     1
176
     1
 91
        4
176
     1
 64
     7
176
     1
 65
   257
176
     1
 75
     1
176
     1
175
     1
176
     1
 42
1.0
176
     1
 92
        8
176
     1
 66
     7
176
     1
 43
1.0
176
     1
 76
     1
176
     1
 77
     6
176
     1
 78
     2
176
     1
 67
     7
176
     1
 79
     5
176
     1
170
     0
176
     1
171
     0
176
     1
290
     0
176
     1
 93
        1
176
     1
 44
-50.0
176
     1
173
     0
176
     1
  0
VISUALSTYLE
  5
39
102
{ACAD_REACTORS
330
2A
102
}
330
2A
100
AcDbVisualStyle
  2
Facepattern
 70
    15
177
     2
291
     1
 71
     2
176
     1
 72
     2
176
     1
 73
     0
176
     1
 90
        0
176
     1
 40
-0.6
176
     1
 41
-30.0
176
     1
 62
     5
 63
     7
421
 16777215
176
     1
 74
     1
176
     1
 91
        4
176
     1
 64
     7
176
     1
 65
   257
176
     1
 75
     1
176
     1
175
     1
176
     1
 42
1.0
176
     1
 92
        8
176
     1
 66
     7
176
     1
 43
1.0
176
     1
 76
     1
176
     1
 77
     6
176
     1
 78
     2
176
     1
 67
     7
176
     1
 79
     5
176
     1
170
     0
176
     1
171
     0
176
     1
290
     0
176
     1
 93
        1
176
     1
 44
0.0
176
     1
173
     0
176
     1
  0
VISUALSTYLE
  5
2B
102
{ACAD_REACTORS
330
2A
102
}
330
2A
100
AcDbVisualStyle
  2
Flat
 70
     0
177
     2
291
     1
 71
     2
176
     1
 72
     1
176
     1
 73
     1
176
     1
 90
        2
176
     1
 40
-0.6
176
     1
 41
30.0
176
     1
 62
     5
 63
     7
421
 16777215
176
     1
 74
     0
176
     1
 91
        4
176
     1
 64
     7
176
     1
 65
   257
176
     1
 75
     1
176
     1
175
     1
176
     1
 42
1.0
176
     1
 92
        8
176
     1
 66
     7
176
     1
 43
1.0
176
     1
 76
     1
176
     1
 77
     6
176
     1
 78
     2
176
     1
 67
     7
176
     1
 79
     5
176
     1
170
     0
176
     1
171
     0
176
     1
290
     0
176
     1
 93
       13
176
     1
 44
0.0
176
     1
173
     0
176
     1
  0
VISUALSTYLE
  5
2C
102
{ACAD_REACTORS
330
2A
102
}
330
2A
100
AcDbVisualStyle
  2
FlatWithEdges
 70
     1
177
     2
291
     1
 71
     2
176
     1
 72
     1
176
     1
 73
     1
176
     1
 90
        2
176
     1
 40
-0.6
176
     1
 41
30.0
176
     1
 62
     5
 63
     7
421
 16777215
176
     1
 74
     1
176
     1
 91
        4
176
     1
 64
     7
176
     1
 65
   257
176
     1
 75
     1
176
     1
175
     1
176
     1
 42
1.0
176
     1
 92
        0
176
     1
 66
   257
176
     1
 43
1.0
176
     1
 76
     1
176
     1
 77
     6
176
     1
 78
     2
176
     1
 67
     7
176
     1
 79
     5
176
     1
170
     0
176
     1
171
     0
176
     1
290
     0
176
     1
 93
       13
176
     1
 44
0.0
176
     1
173
     0
176
     1
  0
VISUALSTYLE
  5
2D
102
{ACAD_REACTORS
330
2A
102
}
330
2A
100
AcDbVisualStyle
  2
Gouraud
 70
     2
177
     2
291
     1
 71
     2
176
     1
 72
     2
176
     1
 73
     1
176
     1
 90
        2
176
     1
 40
-0.6
176
     1
 41
30.0
176
     1
 62
     5
 63
     7
421
 16777215
176
     1
 74
     0
176
     1
 91
        4
176
     1
 64
     7
176
     1
 65
   257
176
     1
 75
     1
176
     1
175
     1
176
     1
 42
1.0
176
     1
 92
        0
176
     1
 66
     7
176
     1
 43
1.0
176
     1
 76
     1
176
     1
 77
     6
176
     1
 78
     2
176
     1
 67
     7
176
     1
 79
     5
176
     1
170
     0
176
     1
171
     0
176
     1
290
     0
176
     1
 93
       13
176
     1
 44
0.0
176
     1
173
     0
176
     1
  0
VISUALSTYLE
  5
2E
102
{ACAD_REACTORS
330
2A
102
}
330
2A
100
AcDbVisualStyle
  2
GouraudWithEdges
 70
     3
177
     2
291
     1
 71
     2
176
     1
 72
     2
176
     1
 73
     1
176
     1
 90
        2
176
     1
 40
-0.6
176
     1
 41
30.0
176
     1
 62
     5
 63
     7
421
 16777215
176
     1
 74
     1
176
     1
 91
        4
176
     1
 64
     7
176
     1
 65
   257
176
     1
 75
     1
176
     1
175
     1
176
     1
 42
1.0
176
     1
 92
        0
176
     1
 66
   257
176
     1
 43
1.0
176
     1
 76
     1
176
     1
 77
     6
176
     1
 78
     2
176
     1
 67
     7
176
     1
 79
     5
176
     1
170
     0
176
     1
171
     0
176
     1
290
     0
176
     1
 93
       13
176
     1
 44
0.0
176
     1
173
     0
176
     1
  0
VISUALSTYLE
  5
38
102
{ACAD_REACTORS
330
2A
102
}
330
2A
100
AcDbVisualStyle
  2
Linepattern
 70
    14
177
     2
291
     1
 71
     2
176
     1
 72
     2
176
     1
 73
     0
176
     1
 90
        0
176
     1
 40
-0.6
176
     1
 41
-30.0
176
     1
 62
     5
 63
     7
421
 16777215
176
     1
 74
     1
176
     1
 91
        4
176
     1
 64
     7
176
     1
 65
   257
176
     1
 75
     7
176
     1
175
     7
176
     1
 42
1.0
176
     1
 92
        8
176
     1
 66
     7
176
     1
 43
1.0
176
     1
 76
     1
176
     1
 77
     6
176
     1
 78
     2
176
     1
 67
     7
176
     1
 79
     5
176
     1
170
     0
176
     1
171
     0
176
     1
290
     0
176
     1
 93
        1
176
     1
 44
0.0
176
     1
173
     0
176
     1
  0
VISUALSTYLE
  5
33
102
{ACAD_REACTORS
330
2A
102
}
330
2A
100
AcDbVisualStyle
  2
Realistic
 70
     8
177
     2
291
     0
 71
     2
176
     1
 72
     2
176
     1
 73
     0
176
     1
 90
        0
176
     1
 40
-0.6
176
     1
 41
-30.0
176
     1
 62
     5
 63
     7
421
 16777215
176
     1
 74
     1
176
     1
 91
        0
176
     1
 64
     7
176
     1
 65
   257
176
     1
 75
     1
176
     1
175
     1
176
     1
 42
1.0
176
     1
 92
        8
176
     1
 66
     8
424
  7895160
176
     1
 43
1.0
176
     1
 76
     1
176
     1
 77
     6
176
     1
 78
     2
176
     1
 67
     7
176
     1
 79
     5
176
     1
170
     0
176
     1
171
     0
176
     1
290
     0
176
     1
 93
       13
176
     1
 44
0.0
176
     1
173
     0
176
     1
  0
VISUALSTYLE
  5
37
102
{ACAD_REACTORS
330
2A
102
}
330
2A
100
AcDbVisualStyle
  2
Thicken
 70
    13
177
     2
291
     1
 71
     2
176
     1
 72
     2
176
     1
 73
     0
176
     1
 90
        0
176
     1
 40
-0.6
176
     1
 41
-30.0
176
     1
 62
     5
 63
     7
421
 16777215
176
     1
 74
     1
176
     1
 91
        4
176
     1
 64
     7
176
     1
 65
   257
176
     1
 75
     1
176
     1
175
     1
176
     1
 42
1.0
176
     1
 92
       12
176
     1
 66
     7
176
     1
 43
1.0
176
     1
 76
     1
176
     1
 77
     6
176
     1
 78
     2
176
     1
 67
     7
176
     1
 79
     5
176
     1
170
     0
176
     1
171
     0
176
     1
290
     0
176
     1
 93
        1
176
     1
 44
0.0
176
     1
173
     0
176
     1
  0
ENDSEC
  0
EOF
