  0
SECTION
  2
HEADER
  9
$ACADVER
  1
AC1024
  9
$ACADMAINTVER
 70
     6
  9
$DWGCODEPAGE
  3
UNDEFINED
  9
$INSBASE
 10
0.0
 20
0.0
 30
0.0
  9
$EXTMIN
 10
1.000000000000000E+20
 20
1.000000000000000E+20
 30
1.000000000000000E+20
  9
$EXTMAX
 10
-1.000000000000000E+20
 20
-1.000000000000000E+20
 30
-1.000000000000000E+20
  9
$LIMMIN
 10
0.0
 20
0.0
  9
$LIMMAX
 10
12.0
 20
9.0
  9
$ORTHOMODE
 70
     0
  9
$REGENMODE
 70
     1
  9
$FILLMODE
 70
     1
  9
$QTEXTMODE
 70
     0
  9
$MIRRTEXT
 70
     1
  9
$LTSCALE
 40
1.0
  9
$ATTMODE
 70
     1
  9
$TEXTSIZE
 40
0.2
  9
$TRACEWID
 40
0.05
  9
$TEXTSTYLE
  7
Standard
  9
$CLAYER
  8
0
  9
$CELTYPE
  6
ByLayer
  9
$CECOLOR
 62
   256
  9
$CELTSCALE
 40
1.0
  9
$DISPSILH
 70
     0
  9
$DIMSCALE
 40
1.0
  9
$DIMASZ
 40
0.18
  9
$DIMEXO
 40
0.0625
  9
$DIMDLI
 40
0.38
  9
$DIMRND
 40
0.0
  9
$DIMDLE
 40
0.0
  9
$DIMEXE
 40
0.18
  9
$DIMTP
 40
0.0
  9
$DIMTM
 40
0.0
  9
$DIMTXT
 40
0.18
  9
$DIMCEN
 40
0.09
  9
$DIMTSZ
 40
0.0
  9
$DIMTOL
 70
     0
  9
$DIMLIM
 70
     0
  9
$DIMTIH
 70
     1
  9
$DIMTOH
 70
     1
  9
$DIMSE1
 70
     0
  9
$DIMSE2
 70
     0
  9
$DIMTAD
 70
     0
  9
$DIMZIN
 70
     0
  9
$DIMBLK
  1

  9
$DIMASO
 70
     1
  9
$DIMSHO
 70
     1
  9
$DIMPOST
  1

  9
$DIMAPOST
  1

  9
$DIMALT
 70
     0
  9
$DIMALTD
 70
     2
  9
$DIMALTF
 40
25.4
  9
$DIMLFAC
 40
1.0
  9
$DIMTOFL
 70
     0
  9
$DIMTVP
 40
0.0
  9
$DIMTIX
 70
     0
  9
$DIMSOXD
 70
     0
  9
$DIMSAH
 70
     0
  9
$DIMBLK1
  1

  9
$DIMBLK2
  1

  9
$DIMSTYLE
  2
Standard
  9
$DIMCLRD
 70
     0
  9
$DIMCLRE
 70
     0
  9
$DIMCLRT
 70
     0
  9
$DIMTFAC
 40
1.0
  9
$DIMGAP
 40
0.09
  9
$DIMJUST
 70
     0
  9
$DIMSD1
 70
     0
  9
$DIMSD2
 70
     0
  9
$DIMTOLJ
 70
     1
  9
$DIMTZIN
 70
     0
  9
$DIMALTZ
 70
     0
  9
$DIMALTTZ
 70
     0
  9
$DIMUPT
 70
     0
  9
$DIMDEC
 70
     4
  9
$DIMTDEC
 70
     4
  9
$DIMALTU
 70
     2
  9
$DIMALTTD
 70
     2
  9
$DIMTXSTY
  7
Standard
  9
$DIMAUNIT
 70
     0
  9
$DIMADEC
 70
     0
  9
$DIMALTRND
 40
0.0
  9
$DIMAZIN
 70
     0
  9
$DIMDSEP
 70
    46
  9
$DIMATFIT
 70
     3
  9
$DIMFRAC
 70
     0
  9
$DIMLDRBLK
  1

  9
$DIMLUNIT
 70
     2
  9
$DIMLWD
 70
    -2
  9
$DIMLWE
 70
    -2
  9
$DIMTMOVE
 70
     0
  9
$DIMFXL
 40
1.0
  9
$DIMFXLON
 70
     0
  9
$DIMJOGANG
 40
0.7853981633974483
  9
$DIMTFILL
 70
     0
  9
$DIMTFILLCLR
 70
     0
  9
$DIMARCSYM
 70
     0
  9
$DIMLTYPE
  6

  9
$DIMLTEX1
  6

  9
$DIMLTEX2
  6

  9
$DIMTXTDIRECTION
 70
     0
  9
$LUNITS
 70
     2
  9
$LUPREC
 70
     4
  9
$SKETCHINC
 40
0.1
  9
$FILLETRAD
 40
0.5
  9
$AUNITS
 70
     0
  9
$AUPREC
 70
     0
  9
$MENU
  1
.
  9
$ELEVATION
 40
0.0
  9
$PELEVATION
 40
0.0
  9
$THICKNESS
 40
0.0
  9
$LIMCHECK
 70
     0
  9
$CHAMFERA
 40
0.5
  9
$CHAMFERB
 40
0.5
  9
$CHAMFERC
 40
1.0
  9
$CHAMFERD
 40
0.0
  9
$SKPOLY
 70
     0
  9
$TDCREATE
 40
2457917.628761574
  9
$TDUCREATE
 40
2457917.253761574
  9
$TDUPDATE
 40
2457917.628761574
  9
$TDUUPDATE
 40
2457917.253761574
  9
$TDINDWG
 40
0.0000000116
  9
$TDUSRTIMER
 40
0.0000000116
  9
$USRTIMER
 70
     1
  9
$ANGBASE
 50
0.0
  9
$ANGDIR
 70
     0
  9
$PDMODE
 70
     0
  9
$PDSIZE
 40
0.0
  9
$PLINEWID
 40
0.0
  9
$SPLFRAME
 70
     0
  9
$SPLINETYPE
 70
     6
  9
$SPLINESEGS
 70
     8
  9
$HANDSEED
  5
1EF
  9
$SURFTAB1
 70
     6
  9
$SURFTAB2
 70
     6
  9
$SURFTYPE
 70
     6
  9
$SURFU
 70
     6
  9
$SURFV
 70
     6
  9
$UCSBASE
  2

  9
$UCSNAME
  2

  9
$UCSORG
 10
0.0
 20
0.0
 30
0.0
  9
$UCSXDIR
 10
1.0
 20
0.0
 30
0.0
  9
$UCSYDIR
 10
0.0
 20
1.0
 30
0.0
  9
$UCSORTHOREF
  2

  9
$UCSORTHOVIEW
 70
     0
  9
$UCSORGTOP
 10
0.0
 20
0.0
 30
0.0
  9
$UCSORGBOTTOM
 10
0.0
 20
0.0
 30
0.0
  9
$UCSORGLEFT
 10
0.0
 20
0.0
 30
0.0
  9
$UCSORGRIGHT
 10
0.0
 20
0.0
 30
0.0
  9
$UCSORGFRONT
 10
0.0
 20
0.0
 30
0.0
  9
$UCSORGBACK
 10
0.0
 20
0.0
 30
0.0
  9
$PUCSBASE
  2

  9
$PUCSNAME
  2

  9
$PUCSORG
 10
0.0
 20
0.0
 30
0.0
  9
$PUCSXDIR
 10
1.0
 20
0.0
 30
0.0
  9
$PUCSYDIR
 10
0.0
 20
1.0
 30
0.0
  9
$PUCSORTHOREF
  2

  9
$PUCSORTHOVIEW
 70
     0
  9
$PUCSORGTOP
 10
0.0
 20
0.0
 30
0.0
  9
$PUCSORGBOTTOM
 10
0.0
 20
0.0
 30
0.0
  9
$PUCSORGLEFT
 10
0.0
 20
0.0
 30
0.0
  9
$PUCSORGRIGHT
 10
0.0
 20
0.0
 30
0.0
  9
$PUCSORGFRONT
 10
0.0
 20
0.0
 30
0.0
  9
$PUCSORGBACK
 10
0.0
 20
0.0
 30
0.0
  9
$USERI1
 70
     0
  9
$USERI2
 70
     0
  9
$USERI3
 70
     0
  9
$USERI4
 70
     0
  9
$USERI5
 70
     0
  9
$USERR1
 40
0.0
  9
$USERR2
 40
0.0
  9
$USERR3
 40
0.0
  9
$USERR4
 40
0.0
  9
$USERR5
 40
0.0
  9
$WORLDVIEW
 70
     1
  9
$SHADEDGE
 70
     3
  9
$SHADEDIF
 70
    70
  9
$TILEMODE
 70
     1
  9
$MAXACTVP
 70
    64
  9
$PINSBASE
 10
0.0
 20
0.0
 30
0.0
  9
$PLIMCHECK
 70
     0
  9
$PEXTMIN
 10
1.000000000000000E+20
 20
1.000000000000000E+20
 30
1.000000000000000E+20
  9
$PEXTMAX
 10
-1.000000000000000E+20
 20
-1.000000000000000E+20
 30
-1.000000000000000E+20
  9
$PLIMMIN
 10
0.0
 20
0.0
  9
$PLIMMAX
 10
12.0
 20
9.0
  9
$UNITMODE
 70
     0
  9
$VISRETAIN
 70
     1
  9
$PLINEGEN
 70
     0
  9
$PSLTSCALE
 70
     1
  9
$TREEDEPTH
 70
  3020
  9
$CMLSTYLE
  2
Standard
  9
$CMLJUST
 70
     0
  9
$CMLSCALE
 40
1.0
  9
$PROXYGRAPHICS
 70
     1
  9
$MEASUREMENT
 70
     0
  9
$CELWEIGHT
370
    -1
  9
$ENDCAPS
280
     0
  9
$JOINSTYLE
280
     0
  9
$LWDISPLAY
290
     1
  9
$INSUNITS
 70
     1
  9
$HYPERLINKBASE
  1

  9
$STYLESHEET
  1

  9
$XEDIT
290
     1
  9
$CEPSNTYPE
380
     0
  9
$PSTYLEMODE
290
     1
  9
$FINGERPRINTGUID
  2
{98E8EC05-DFBF-FC47-57BB-C21DCA4522F7}
  9
$VERSIONGUID
  2
{FAEB1C32-E019-11D5-929B-00C0DF256EC4}
  9
$EXTNAMES
290
     1
  9
$PSVPSCALE
 40
0.0
  9
$OLESTARTUP
290
     0
  9
$SORTENTS
280
   127
  9
$INDEXCTL
280
     0
  9
$HIDETEXT
280
     1
  9
$XCLIPFRAME
280
     2
  9
$HALOGAP
280
     0
  9
$OBSCOLOR
 70
   257
  9
$OBSLTYPE
280
     0
  9
$INTERSECTIONDISPLAY
280
     0
  9
$INTERSECTIONCOLOR
 70
   257
  9
$DIMASSOC
280
     2
  9
$PROJECTNAME
  1

  9
$CAMERADISPLAY
290
     0
  9
$LENSLENGTH
 40
50.0
  9
$CAMERAHEIGHT
 40
0.0
  9
$STEPSPERSEC
 40
2.0
  9
$STEPSIZE
 40
6.0
  9
$3DDWFPREC
 40
2.0
  9
$PSOLWIDTH
 40
0.25
  9
$PSOLHEIGHT
 40
4.0
  9
$LOFTANG1
 40
1.570796326794897
  9
$LOFTANG2
 40
1.570796326794897
  9
$LOFTMAG1
 40
0.0
  9
$LOFTMAG2
 40
0.0
  9
$LOFTPARAM
 70
     7
  9
$LOFTNORMALS
280
     1
  9
$LATITUDE
 40
37.795
  9
$LONGITUDE
 40
-122.394
  9
$NORTHDIRECTION
 40
0.0
  9
$TIMEZONE
 70
 -8000
  9
$LIGHTGLYPHDISPLAY
280
     1
  9
$TILEMODELIGHTSYNCH
280
     1
  9
$CMATERIAL
347
3C
  9
$SOLIDHIST
280
     1
  9
$SHOWHIST
280
     1
  9
$DWFFRAME
280
     2
  9
$DGNFRAME
280
     2
  9
$REALWORLDSCALE
290
     1
  9
$INTERFERECOLOR
 62
   256
  9
$CSHADOW
280
     0
  9
$SHADOWPLANELOCATION
 40
0.0
  0
ENDSEC
  0
SECTION
  2
CLASSES
  0
CLASS
  1
ACDBDICTIONARYWDFLT
  2
AcDbDictionaryWithDefault
  3
ObjectDBX Classes
 90
        0
 91
        4
280
     0
281
     0
  0
CLASS
  1
VISUALSTYLE
  2
AcDbVisualStyle
  3
ObjectDBX Classes
 90
     4095
 91
        4
280
     0
281
     0
  0
CLASS
  1
MATERIAL
  2
AcDbMaterial
  3
ObjectDBX Classes
 90
     1153
 91
        4
280
     0
281
     0
  0
CLASS
  1
SUN
  2
AcDbSun
  3
SCENEOE
 90
     1024
 91
        4
280
     0
281
     0
  0
ENDSEC
  0
SECTION
  2
TABLES
  0
TABLE
  2
VPORT
  5
8
330
0
100
AcDbSymbolTable
 70
     1
  0
VPORT
  5
29
330
8
100
AcDbSymbolTableRecord
100
AcDbViewportTableRecord
  2
*Active
 70
     0
 10
0.0
 20
0.0
 11
1.0
 21
1.0
 12
0.0
 22
0.0
 13
0.0
 23
0.0
 14
0.5
 24
0.5
 15
0.5
 25
0.5
 16
0.0
 26
0.0
 36
1.0
 17
91.00082462281999
 27
-128.4993055234307
 37
0.0
 40
256.9986110468615
 41
0.7081814508812795
 42
50.0
 43
0.0
 44
0.0
 50
0.0
 51
0.0
 71
     0
 72
   100
 73
     1
 74
     3
 75
     0
 76
     0
 77
     0
 78
     0
281
     0
 65
     1
110
0.0
120
0.0
130
0.0
111
1.0
121
0.0
131
0.0
112
0.0
122
1.0
132
0.0
 79
     0
146
0.0
 60
     3
 61
     5
292
     1
282
     1
141
0.0
142
0.0
 63
   250
361
3F
  0
ENDTAB
  0
TABLE
  2
LTYPE
  5
5
330
0
100
AcDbSymbolTable
 70
     1
  0
LTYPE
  5
14
330
5
100
AcDbSymbolTableRecord
100
AcDbLinetypeTableRecord
  2
ByBlock
 70
     0
  3

 72
    65
 73
     0
 40
0.0
  0
LTYPE
  5
15
330
5
100
AcDbSymbolTableRecord
100
AcDbLinetypeTableRecord
  2
ByLayer
 70
     0
  3

 72
    65
 73
     0
 40
0.0
  0
LTYPE
  5
16
330
5
100
AcDbSymbolTableRecord
100
AcDbLinetypeTableRecord
  2
Continuous
 70
     0
  3
Solid line
 72
    65
 73
     0
 40
0.0
  0
ENDTAB
  0
TABLE
  2
LAYER
  5
2
330
0
100
AcDbSymbolTable
 70
     2
  0
LAYER
  5
10
330
2
100
AcDbSymbolTableRecord
100
AcDbLayerTableRecord
  2
0
 70
     0
 62
     7
  6
Continuous
370
    -3
390
F
347
3E
  0
LAYER
  5
40
330
2
100
AcDbSymbolTableRecord
100
AcDbLayerTableRecord
  2
_U+30EC_U+30A4_U+30E4_U+30FC 1
 70
     0
 62
     7
  6
Continuous
370
    -3
390
F
347
3E
  0
ENDTAB
  0
TABLE
  2
STYLE
  5
3
330
0
100
AcDbSymbolTable
 70
     1
  0
STYLE
  5
11
330
3
100
AcDbSymbolTableRecord
100
AcDbTextStyleTableRecord
  2
Standard
 70
     0
 40
0.0
 41
1.0
 50
0.0
 71
     0
 42
0.2
  3
txt
  4

  0
ENDTAB
  0
TABLE
  2
VIEW
  5
6
330
0
100
AcDbSymbolTable
 70
     0
  0
ENDTAB
  0
TABLE
  2
UCS
  5
7
330
0
100
AcDbSymbolTable
 70
     0
  0
ENDTAB
  0
TABLE
  2
APPID
  5
9
330
0
100
AcDbSymbolTable
 70
     1
  0
APPID
  5
12
330
9
100
AcDbSymbolTableRecord
100
AcDbRegAppTableRecord
  2
ACAD
 70
     0
  0
ENDTAB
  0
TABLE
  2
DIMSTYLE
  5
A
330
0
100
AcDbSymbolTable
 70
     1
100
AcDbDimStyleTable
  0
DIMSTYLE
105
27
330
A
100
AcDbSymbolTableRecord
100
AcDbDimStyleTableRecord
  2
Standard
 70
     0
178
     0
340
11
  0
ENDTAB
  0
TABLE
  2
BLOCK_RECORD
  5
1
330
0
100
AcDbSymbolTable
 70
    19
  0
BLOCK_RECORD
  5
1F
330
1
100
AcDbSymbolTableRecord
100
AcDbBlockTableRecord
  2
*Model_Space
340
22
 70
     0
280
     1
281
     0
  0
BLOCK_RECORD
  5
1B
330
1
100
AcDbSymbolTableRecord
100
AcDbBlockTableRecord
  2
*Paper_Space
340
1E
 70
     0
280
     1
281
     0
  0
BLOCK_RECORD
  5
23
330
1
100
AcDbSymbolTableRecord
100
AcDbBlockTableRecord
  2
*Paper_Space0
340
26
 70
     0
280
     1
281
     0
  0
BLOCK_RECORD
  5
CF
330
1
100
AcDbSymbolTableRecord
100
AcDbBlockTableRecord
  2
block 2
340
0
102
{BLKREFS
331
D0
102
}
 70
     0
280
     1
281
     0
  0
BLOCK_RECORD
  5
D8
330
1
100
AcDbSymbolTableRecord
100
AcDbBlockTableRecord
  2
block 3
340
0
102
{BLKREFS
331
D9
102
}
 70
     0
280
     1
281
     0
  0
BLOCK_RECORD
  5
DD
330
1
100
AcDbSymbolTableRecord
100
AcDbBlockTableRecord
  2
block 4
340
0
102
{BLKREFS
331
DE
102
}
 70
     0
280
     1
281
     0
  0
BLOCK_RECORD
  5
E2
330
1
100
AcDbSymbolTableRecord
100
AcDbBlockTableRecord
  2
block 5
340
0
102
{BLKREFS
331
E3
102
}
 70
     0
280
     1
281
     0
  0
BLOCK_RECORD
  5
F3
330
1
100
AcDbSymbolTableRecord
100
AcDbBlockTableRecord
  2
block 6
340
0
102
{BLKREFS
331
F4
102
}
 70
     0
280
     1
281
     0
  0
BLOCK_RECORD
  5
FA
330
1
100
AcDbSymbolTableRecord
100
AcDbBlockTableRecord
  2
block 7
340
0
102
{BLKREFS
331
FB
102
}
 70
     0
280
     1
281
     0
  0
BLOCK_RECORD
  5
107
330
1
100
AcDbSymbolTableRecord
100
AcDbBlockTableRecord
  2
block 8
340
0
102
{BLKREFS
331
108
102
}
 70
     0
280
     1
281
     0
  0
BLOCK_RECORD
  5
10F
330
1
100
AcDbSymbolTableRecord
100
AcDbBlockTableRecord
  2
block 9
340
0
102
{BLKREFS
331
110
102
}
 70
     0
280
     1
281
     0
  0
BLOCK_RECORD
  5
11C
330
1
100
AcDbSymbolTableRecord
100
AcDbBlockTableRecord
  2
block 10
340
0
102
{BLKREFS
331
11D
102
}
 70
     0
280
     1
281
     0
  0
BLOCK_RECORD
  5
123
330
1
100
AcDbSymbolTableRecord
100
AcDbBlockTableRecord
  2
block 11
340
0
102
{BLKREFS
331
124
102
}
 70
     0
280
     1
281
     0
  0
BLOCK_RECORD
  5
134
330
1
100
AcDbSymbolTableRecord
100
AcDbBlockTableRecord
  2
block 12
340
0
102
{BLKREFS
331
135
102
}
 70
     0
280
     1
281
     0
  0
BLOCK_RECORD
  5
13A
330
1
100
AcDbSymbolTableRecord
100
AcDbBlockTableRecord
  2
block 13
340
0
102
{BLKREFS
331
13B
102
}
 70
     0
280
     1
281
     0
  0
BLOCK_RECORD
  5
14B
330
1
100
AcDbSymbolTableRecord
100
AcDbBlockTableRecord
  2
block 14
340
0
102
{BLKREFS
331
14C
102
}
 70
     0
280
     1
281
     0
  0
BLOCK_RECORD
  5
15D
330
1
100
AcDbSymbolTableRecord
100
AcDbBlockTableRecord
  2
block 15
340
0
102
{BLKREFS
331
15E
102
}
 70
     0
280
     1
281
     0
  0
BLOCK_RECORD
  5
1A2
330
1
100
AcDbSymbolTableRecord
100
AcDbBlockTableRecord
  2
block 16
340
0
102
{BLKREFS
331
1A3
102
}
 70
     0
280
     1
281
     0
  0
BLOCK_RECORD
  5
1CC
330
1
100
AcDbSymbolTableRecord
100
AcDbBlockTableRecord
  2
block 17
340
0
102
{BLKREFS
331
1CD
102
}
 70
     0
280
     1
281
     0
  0
BLOCK_RECORD
  5
1D1
330
1
100
AcDbSymbolTableRecord
100
AcDbBlockTableRecord
  2
block 18
340
0
102
{BLKREFS
331
1D2
102
}
 70
     0
280
     1
281
     0
  0
BLOCK_RECORD
  5
1D6
330
1
100
AcDbSymbolTableRecord
100
AcDbBlockTableRecord
  2
block 19
340
0
102
{BLKREFS
331
1D7
102
}
 70
     0
280
     1
281
     0
  0
ENDTAB
  0
ENDSEC
  0
SECTION
  2
BLOCKS
  0
BLOCK
  5
20
330
1F
100
AcDbEntity
  8
0
100
AcDbBlockBegin
  2
*Model_Space
 70
     0
 10
0.0
 20
0.0
 30
0.0
  3
*Model_Space
  1

  0
ENDBLK
  5
21
330
1F
100
AcDbEntity
  8
0
100
AcDbBlockEnd
  0
BLOCK
  5
1C
330
1B
100
AcDbEntity
 67
     1
  8
0
100
AcDbBlockBegin
  2
*Paper_Space
 70
     0
 10
0.0
 20
0.0
 30
0.0
  3
*Paper_Space
  1

  0
ENDBLK
  5
1D
330
1B
100
AcDbEntity
 67
     1
  8
0
100
AcDbBlockEnd
  0
BLOCK
  5
24
330
23
100
AcDbEntity
  8
0
100
AcDbBlockBegin
  2
*Paper_Space0
 70
     0
 10
0.0
 20
0.0
 30
0.0
  3
*Paper_Space0
  1

  0
ENDBLK
  5
25
330
23
100
AcDbEntity
  8
0
100
AcDbBlockEnd
  0
BLOCK
  5
D1
330
CF
100
AcDbEntity
  8
0
100
AcDbBlockBegin
  2
block 2
 70
     0
 10
0.0
 20
0.0
 30
0.0
  3
block 2
  1

  0
SPLINE
  5
D3
330
CF
100
AcDbEntity
  8
_U+30EC_U+30A4_U+30E4_U+30FC 1
370
     0
100
AcDbSpline
210
0.0
220
0.0
230
1.0
 70
    11
 71
     3
 72
    26
 73
    22
 74
     0
 42
0.0000000001
 43
0.0000000001
 12
1.0
 22
0.0
 32
0.0
 13
1.0
 23
0.0
 33
0.0
 40
0.0
 40
0.0
 40
0.0
 40
0.0
 40
1.0
 40
1.0
 40
1.0
 40
2.0
 40
2.0
 40
2.0
 40
3.0
 40
3.0
 40
3.0
 40
4.0
 40
4.0
 40
4.0
 40
5.0
 40
5.0
 40
5.0
 40
6.0
 40
6.0
 40
6.0
 40
7.0
 40
7.0
 40
7.0
 40
7.0
 10
94.3563422073137
 20
-112.5972615278403
 30
0.0
 10
94.3563422073137
 20
-112.5972615278403
 30
0.0
 10
94.3563422073137
 20
-111.4929361700434
 30
0.0
 10
94.3563422073137
 20
-111.4929361700434
 30
0.0
 10
94.3563422073137
 20
-111.4929361700434
 30
0.0
 10
94.02630205982676
 20
-111.4929361700434
 30
0.0
 10
94.02630205982676
 20
-111.4929361700434
 30
0.0
 10
94.02630205982676
 20
-111.4929361700434
 30
0.0
 10
94.02630205982676
 20
-111.344969318952
 30
0.0
 10
94.02630205982676
 20
-111.344969318952
 30
0.0
 10
94.35840926460484
 20
-111.3301554083654
 30
0.0
 10
94.40526256320425
 20
-111.1672023919131
 30
0.0
 10
94.4348903843774
 20
-111.052997476577
 30
0.0
 10
94.4348903843774
 20
-111.052997476577
 30
0.0
 10
94.58061792340347
 20
-111.052997476577
 30
0.0
 10
94.58061792340347
 20
-111.052997476577
 30
0.0
 10
94.58061792340347
 20
-111.052997476577
 30
0.0
 10
94.58061792340347
 20
-112.5972615278403
 30
0.0
 10
94.58061792340347
 20
-112.5972615278403
 30
0.0
 10
94.58061792340347
 20
-112.5972615278403
 30
0.0
 10
94.3563422073137
 20
-112.5972615278403
 30
0.0
 10
94.3563422073137
 20
-112.5972615278403
 30
0.0
  0
HATCH
  5
D4
330
CF
100
AcDbEntity
  8
_U+30EC_U+30A4_U+30E4_U+30FC 1
 62
   179
420
  2234388
100
AcDbHatch
 10
0.0
 20
0.0
 30
0.0
210
0.0
220
0.0
230
1.0
  2
SOLID
 70
     1
 71
     0
 91
        1
 92
        1
 93
        1
 72
     4
 94
        3
 73
     0
 74
     1
 95
       26
 96
       22
 40
0.0
 40
0.0
 40
0.0
 40
0.0
 40
1.0
 40
1.0
 40
1.0
 40
2.0
 40
2.0
 40
2.0
 40
3.0
 40
3.0
 40
3.0
 40
4.0
 40
4.0
 40
4.0
 40
5.0
 40
5.0
 40
5.0
 40
6.0
 40
6.0
 40
6.0
 40
7.0
 40
7.0
 40
7.0
 40
7.0
 10
94.3563422073137
 20
-112.5972615278403
 10
94.3563422073137
 20
-112.5972615278403
 10
94.3563422073137
 20
-111.4929361700434
 10
94.3563422073137
 20
-111.4929361700434
 10
94.3563422073137
 20
-111.4929361700434
 10
94.02630205982676
 20
-111.4929361700434
 10
94.02630205982676
 20
-111.4929361700434
 10
94.02630205982676
 20
-111.4929361700434
 10
94.02630205982676
 20
-111.344969318952
 10
94.02630205982676
 20
-111.344969318952
 10
94.35840926460484
 20
-111.3301554083654
 10
94.40526256320425
 20
-111.1672023919131
 10
94.4348903843774
 20
-111.052997476577
 10
94.4348903843774
 20
-111.052997476577
 10
94.58061792340347
 20
-111.052997476577
 10
94.58061792340347
 20
-111.052997476577
 10
94.58061792340347
 20
-111.052997476577
 10
94.58061792340347
 20
-112.5972615278403
 10
94.58061792340347
 20
-112.5972615278403
 10
94.58061792340347
 20
-112.5972615278403
 10
94.3563422073137
 20
-112.5972615278403
 10
94.3563422073137
 20
-112.5972615278403
 97
        0
 97
        0
 75
     2
 76
     1
 98
        0
  0
SPLINE
  5
D5
330
CF
100
AcDbEntity
  8
_U+30EC_U+30A4_U+30E4_U+30FC 1
370
     0
100
AcDbSpline
210
0.0
220
0.0
230
1.0
 70
    11
 71
     3
 72
    32
 73
    28
 74
     0
 42
0.0000000001
 43
0.0000000001
 12
1.0
 22
0.0
 32
0.0
 13
1.0
 23
0.0
 33
0.0
 40
0.0
 40
0.0
 40
0.0
 40
0.0
 40
1.0
 40
1.0
 40
1.0
 40
2.0
 40
2.0
 40
2.0
 40
3.0
 40
3.0
 40
3.0
 40
4.0
 40
4.0
 40
4.0
 40
5.0
 40
5.0
 40
5.0
 40
6.0
 40
6.0
 40
6.0
 40
7.0
 40
7.0
 40
7.0
 40
8.0
 40
8.0
 40
8.0
 40
9.0
 40
9.0
 40
9.0
 40
9.0
 10
95.5862412955479
 20
-112.6480766862477
 30
0.0
 10
95.07016599185746
 20
-112.6480766862477
 30
0.0
 10
95.06155325314434
 20
-112.093760822671
 30
0.0
 10
95.06155325314434
 20
-111.8801649025855
 30
0.0
 10
95.06155325314434
 20
-111.649515759848
 30
0.0
 10
95.0805012783132
 20
-111.0021823181696
 30
0.0
 10
95.62413734588564
 20
-111.0021823181696
 30
0.0
 10
95.79777015834223
 20
-111.0021823181696
 30
0.0
 10
96.04306095689202
 20
-111.0719455017459
 30
0.0
 10
96.0813015167783
 20
-111.4042249612983
 30
0.0
 10
96.0813015167783
 20
-111.4042249612983
 30
0.0
 10
95.8677055966928
 20
-111.4042249612983
 30
0.0
 10
95.8677055966928
 20
-111.4042249612983
 30
0.0
 10
95.85702580068853
 20
-111.3470363762431
 30
0.0
 10
95.82533092222423
 20
-111.1988972703774
 30
0.0
 10
95.62207028859449
 20
-111.1988972703774
 30
0.0
 10
95.33027070099382
 20
-111.1988972703774
 30
0.0
 10
95.2899630838164
 20
-111.5268703605731
 30
0.0
 10
95.27721623052098
 20
-111.7320257967198
 30
0.0
 10
95.37057831817125
 20
-111.6538221292046
 30
0.0
 10
95.43810218968214
 20
-111.5945664868583
 30
0.0
 10
95.62000323130334
 20
-111.5945664868583
 30
0.0
 10
95.79983721563337
 20
-111.5945664868583
 30
0.0
 10
96.1023165992383
 20
-111.7023979755466
 30
0.0
 10
96.1023165992383
 20
-112.1085747332576
 30
0.0
 10
96.1023165992383
 20
-112.4281073395145
 30
0.0
 10
95.9035345897394
 20
-112.6480766862477
 30
0.0
 10
95.5862412955479
 20
-112.6480766862477
 30
0.0
  0
SPLINE
  5
D6
330
CF
100
AcDbEntity
  8
_U+30EC_U+30A4_U+30E4_U+30FC 1
370
     0
100
AcDbSpline
210
0.0
220
0.0
230
1.0
 70
    11
 71
     3
 72
    17
 73
    13
 74
     0
 42
0.0000000001
 43
0.0000000001
 12
1.0
 22
0.0
 32
0.0
 13
1.0
 23
0.0
 33
0.0
 40
0.0
 40
0.0
 40
0.0
 40
0.0
 40
1.0
 40
1.0
 40
1.0
 40
2.0
 40
2.0
 40
2.0
 40
3.0
 40
3.0
 40
3.0
 40
4.0
 40
4.0
 40
4.0
 40
4.0
 10
95.60312226342562
 20
-111.7892143817749
 30
0.0
 10
95.3409504969981
 20
-111.7892143817749
 30
0.0
 10
95.30270993711183
 20
-112.0007432445693
 30
0.0
 10
95.30270993711183
 20
-112.1170152171964
 30
0.0
 10
95.30270993711183
 20
-112.2927150869442
 30
0.0
 10
95.39779457250472
 20
-112.4554958486222
 30
0.0
 10
95.5821071809656
 20
-112.4554958486222
 30
0.0
 10
95.70268552294934
 20
-112.4554958486222
 30
0.0
 10
95.87804088314854
 20
-112.3962402062759
 30
0.0
 10
95.87804088314854
 20
-112.1106417905487
 30
0.0
 10
95.87804088314854
 20
-111.8865383292332
 30
0.0
 10
95.73851451599593
 20
-111.7892143817749
 30
0.0
 10
95.60312226342562
 20
-111.7892143817749
 30
0.0
  0
HATCH
  5
D7
330
CF
100
AcDbEntity
  8
_U+30EC_U+30A4_U+30E4_U+30FC 1
 62
   179
420
  2234388
100
AcDbHatch
 10
0.0
 20
0.0
 30
0.0
210
0.0
220
0.0
230
1.0
  2
SOLID
 70
     1
 71
     0
 91
        2
 92
        1
 93
        1
 72
     4
 94
        3
 73
     0
 74
     1
 95
       32
 96
       28
 40
0.0
 40
0.0
 40
0.0
 40
0.0
 40
1.0
 40
1.0
 40
1.0
 40
2.0
 40
2.0
 40
2.0
 40
3.0
 40
3.0
 40
3.0
 40
4.0
 40
4.0
 40
4.0
 40
5.0
 40
5.0
 40
5.0
 40
6.0
 40
6.0
 40
6.0
 40
7.0
 40
7.0
 40
7.0
 40
8.0
 40
8.0
 40
8.0
 40
9.0
 40
9.0
 40
9.0
 40
9.0
 10
95.5862412955479
 20
-112.6480766862477
 10
95.07016599185746
 20
-112.6480766862477
 10
95.06155325314434
 20
-112.093760822671
 10
95.06155325314434
 20
-111.8801649025855
 10
95.06155325314434
 20
-111.649515759848
 10
95.0805012783132
 20
-111.0021823181696
 10
95.62413734588564
 20
-111.0021823181696
 10
95.79777015834223
 20
-111.0021823181696
 10
96.04306095689202
 20
-111.0719455017459
 10
96.0813015167783
 20
-111.4042249612983
 10
96.0813015167783
 20
-111.4042249612983
 10
95.8677055966928
 20
-111.4042249612983
 10
95.8677055966928
 20
-111.4042249612983
 10
95.85702580068853
 20
-111.3470363762431
 10
95.82533092222423
 20
-111.1988972703774
 10
95.62207028859449
 20
-111.1988972703774
 10
95.33027070099382
 20
-111.1988972703774
 10
95.2899630838164
 20
-111.5268703605731
 10
95.27721623052098
 20
-111.7320257967198
 10
95.37057831817125
 20
-111.6538221292046
 10
95.43810218968214
 20
-111.5945664868583
 10
95.62000323130334
 20
-111.5945664868583
 10
95.79983721563337
 20
-111.5945664868583
 10
96.1023165992383
 20
-111.7023979755466
 10
96.1023165992383
 20
-112.1085747332576
 10
96.1023165992383
 20
-112.4281073395145
 10
95.9035345897394
 20
-112.6480766862477
 10
95.5862412955479
 20
-112.6480766862477
 97
        0
 97
        0
 92
        1
 93
        1
 72
     4
 94
        3
 73
     0
 74
     1
 95
       17
 96
       13
 40
0.0
 40
0.0
 40
0.0
 40
0.0
 40
1.0
 40
1.0
 40
1.0
 40
2.0
 40
2.0
 40
2.0
 40
3.0
 40
3.0
 40
3.0
 40
4.0
 40
4.0
 40
4.0
 40
4.0
 10
95.60312226342562
 20
-111.7892143817749
 10
95.3409504969981
 20
-111.7892143817749
 10
95.30270993711183
 20
-112.0007432445693
 10
95.30270993711183
 20
-112.1170152171964
 10
95.30270993711183
 20
-112.2927150869442
 10
95.39779457250472
 20
-112.4554958486222
 10
95.5821071809656
 20
-112.4554958486222
 10
95.70268552294934
 20
-112.4554958486222
 10
95.87804088314854
 20
-112.3962402062759
 10
95.87804088314854
 20
-112.1106417905487
 10
95.87804088314854
 20
-111.8865383292332
 10
95.73851451599593
 20
-111.7892143817749
 10
95.60312226342562
 20
-111.7892143817749
 97
        0
 97
        0
 75
     2
 76
     1
 98
        0
  0
ENDBLK
  5
D2
330
CF
100
AcDbEntity
  8
0
100
AcDbBlockEnd
  0
BLOCK
  5
DA
330
D8
100
AcDbEntity
  8
0
100
AcDbBlockBegin
  2
block 3
 70
     0
 10
0.0
 20
0.0
 30
0.0
  3
block 3
  1

  0
SPLINE
  5
DC
330
D8
100
AcDbEntity
  8
_U+30EC_U+30A4_U+30E4_U+30FC 1
 62
   179
420
  2234388
370
    25
100
AcDbSpline
210
0.0
220
0.0
230
1.0
 70
    11
 71
     3
 72
    17
 73
    13
 74
     0
 42
0.0000000001
 43
0.0000000001
 12
1.0
 22
0.0
 32
0.0
 13
1.0
 23
0.0
 33
0.0
 40
0.0
 40
0.0
 40
0.0
 40
0.0
 40
1.0
 40
1.0
 40
1.0
 40
2.0
 40
2.0
 40
2.0
 40
3.0
 40
3.0
 40
3.0
 40
4.0
 40
4.0
 40
4.0
 40
4.0
 10
87.02932305747477
 20
-117.6648296928059
 30
0.0
 10
87.02932305747477
 20
-117.6772121928029
 30
0.0
 10
87.01344805787977
 20
-117.6889244150221
 30
0.0
 10
86.99348083616697
 20
-117.6889244150221
 30
0.0
 10
86.97418608936763
 20
-117.6889244150221
 30
0.0
 10
86.9583441703967
 20
-117.6772121928029
 30
0.0
 10
86.9583441703967
 20
-117.6648296928059
 30
0.0
 10
86.9583441703967
 20
-117.6510360816983
 30
0.0
 10
86.97418608936763
 20
-117.640382192812
 30
0.0
 10
86.99348083616697
 20
-117.640382192812
 30
0.0
 10
87.01344805787977
 20
-117.640382192812
 30
0.0
 10
87.02932305747477
 20
-117.6510360816983
 30
0.0
 10
87.02932305747477
 20
-117.6648296928059
 30
0.0
  0
ENDBLK
  5
DB
330
D8
100
AcDbEntity
  8
0
100
AcDbBlockEnd
  0
BLOCK
  5
DF
330
DD
100
AcDbEntity
  8
0
100
AcDbBlockBegin
  2
block 4
 70
     0
 10
0.0
 20
0.0
 30
0.0
  3
block 4
  1

  0
SPLINE
  5
E1
330
DD
100
AcDbEntity
  8
_U+30EC_U+30A4_U+30E4_U+30FC 1
 62
   179
420
  2234388
370
    25
100
AcDbSpline
210
0.0
220
0.0
230
1.0
 70
    11
 71
     3
 72
    17
 73
    13
 74
     0
 42
0.0000000001
 43
0.0000000001
 12
1.0
 22
0.0
 32
0.0
 13
1.0
 23
0.0
 33
0.0
 40
0.0
 40
0.0
 40
0.0
 40
0.0
 40
1.0
 40
1.0
 40
1.0
 40
2.0
 40
2.0
 40
2.0
 40
3.0
 40
3.0
 40
3.0
 40
4.0
 40
4.0
 40
4.0
 40
4.0
 10
103.0290295937327
 20
-117.6648296928059
 30
0.0
 10
103.0290295937327
 20
-117.6772121928029
 30
0.0
 10
103.0131898719146
 20
-117.6889244150221
 30
0.0
 10
102.9938929279624
 20
-117.6889244150221
 30
0.0
 10
102.9745959840103
 20
-117.6889244150221
 30
0.0
 10
102.9587562621922
 20
-117.6772121928029
 30
0.0
 10
102.9587562621922
 20
-117.6648296928059
 30
0.0
 10
102.9587562621922
 20
-117.6510360816983
 30
0.0
 10
102.9745959840103
 20
-117.640382192812
 30
0.0
 10
102.9938929279624
 20
-117.640382192812
 30
0.0
 10
103.0131898719146
 20
-117.640382192812
 30
0.0
 10
103.0290295937327
 20
-117.6510360816983
 30
0.0
 10
103.0290295937327
 20
-117.6648296928059
 30
0.0
  0
ENDBLK
  5
E0
330
DD
100
AcDbEntity
  8
0
100
AcDbBlockEnd
  0
BLOCK
  5
E4
330
E2
100
AcDbEntity
  8
0
100
AcDbBlockBegin
  2
block 5
 70
     0
 10
0.0
 20
0.0
 30
0.0
  3
block 5
  1

  0
SPLINE
  5
E6
330
E2
100
AcDbEntity
  8
_U+30EC_U+30A4_U+30E4_U+30FC 1
 62
   179
420
  2234388
370
     9
100
AcDbSpline
210
0.0
220
0.0
230
1.0
 70
    11
 71
     3
 72
    17
 73
    13
 74
     0
 42
0.0000000001
 43
0.0000000001
 12
1.0
 22
0.0
 32
0.0
 13
1.0
 23
0.0
 33
0.0
 40
0.0
 40
0.0
 40
0.0
 40
0.0
 40
1.0
 40
1.0
 40
1.0
 40
2.0
 40
2.0
 40
2.0
 40
3.0
 40
3.0
 40
3.0
 40
4.0
 40
4.0
 40
4.0
 40
4.0
 10
103.0290295937327
 20
-112.9698513606466
 30
0.0
 10
103.0290295937327
 20
-112.9895010828638
 30
0.0
 10
103.0131898719146
 20
-113.0049880273043
 30
0.0
 10
102.9938929279624
 20
-113.0049880273043
 30
0.0
 10
102.9745959840103
 20
-113.0049880273043
 30
0.0
 10
102.9587562621922
 20
-112.9895010828638
 30
0.0
 10
102.9587562621922
 20
-112.9698513606466
 30
0.0
 10
102.9587562621922
 20
-112.9502016384293
 30
0.0
 10
102.9745959840103
 20
-112.9347146939885
 30
0.0
 10
102.9938929279624
 20
-112.9347146939885
 30
0.0
 10
103.0131898719146
 20
-112.9347146939885
 30
0.0
 10
103.0290295937327
 20
-112.9502016384293
 30
0.0
 10
103.0290295937327
 20
-112.9698513606466
 30
0.0
  0
ENDBLK
  5
E5
330
E2
100
AcDbEntity
  8
0
100
AcDbBlockEnd
  0
BLOCK
  5
F5
330
F3
100
AcDbEntity
  8
0
100
AcDbBlockBegin
  2
block 6
 70
     0
 10
0.0
 20
0.0
 30
0.0
  3
block 6
  1

  0
SPLINE
  5
F7
330
F3
100
AcDbEntity
  8
_U+30EC_U+30A4_U+30E4_U+30FC 1
370
     0
100
AcDbSpline
210
0.0
220
0.0
230
1.0
 70
    11
 71
     3
 72
    32
 73
    28
 74
     0
 42
0.0000000001
 43
0.0000000001
 12
1.0
 22
0.0
 32
0.0
 13
1.0
 23
0.0
 33
0.0
 40
0.0
 40
0.0
 40
0.0
 40
0.0
 40
1.0
 40
1.0
 40
1.0
 40
2.0
 40
2.0
 40
2.0
 40
3.0
 40
3.0
 40
3.0
 40
4.0
 40
4.0
 40
4.0
 40
5.0
 40
5.0
 40
5.0
 40
6.0
 40
6.0
 40
6.0
 40
7.0
 40
7.0
 40
7.0
 40
8.0
 40
8.0
 40
8.0
 40
9.0
 40
9.0
 40
9.0
 40
9.0
 10
87.99790172496233
 20
-146.0837618992429
 30
0.0
 10
87.48165416649765
 20
-146.0837618992429
 30
0.0
 10
87.47321368255878
 20
-145.5294460356663
 30
0.0
 10
87.47321368255878
 20
-145.3158501155808
 30
0.0
 10
87.47321368255878
 20
-145.0853732276176
 30
0.0
 10
87.49216170772766
 20
-144.4380397859391
 30
0.0
 10
88.03597003007434
 20
-144.4380397859391
 30
0.0
 10
88.20943058775667
 20
-144.4380397859391
 30
0.0
 10
88.45472138630646
 20
-144.5076307147412
 30
0.0
 10
88.49278969141848
 20
-144.8397379195193
 30
0.0
 10
88.49278969141848
 20
-144.8397379195193
 30
0.0
 10
88.27919377133298
 20
-144.8397379195193
 30
0.0
 10
88.27919377133298
 20
-144.8397379195193
 30
0.0
 10
88.26868623010297
 20
-144.7825493344641
 30
0.0
 10
88.23681909686441
 20
-144.6347547381469
 30
0.0
 10
88.03373071800893
 20
-144.6347547381469
 30
0.0
 10
87.74193113040828
 20
-144.6347547381469
 30
0.0
 10
87.70162351323084
 20
-144.9623833187941
 30
0.0
 10
87.68904891470969
 20
-145.167711009715
 30
0.0
 10
87.78206649281144
 20
-145.0895073421999
 30
0.0
 10
87.8497626190966
 20
-145.0302516998536
 30
0.0
 10
88.03166366071778
 20
-145.0302516998536
 30
0.0
 10
88.21149764504783
 20
-145.0302516998536
 30
0.0
 10
88.51397702865276
 20
-145.1380831885419
 30
0.0
 10
88.51397702865276
 20
-145.5442599462528
 30
0.0
 10
88.51397702865276
 20
-145.8636202977355
 30
0.0
 10
88.31519501915385
 20
-146.0837618992429
 30
0.0
 10
87.99790172496233
 20
-146.0837618992429
 30
0.0
  0
SPLINE
  5
F8
330
F3
100
AcDbEntity
  8
_U+30EC_U+30A4_U+30E4_U+30FC 1
370
     0
100
AcDbSpline
210
0.0
220
0.0
230
1.0
 70
    11
 71
     3
 72
    17
 73
    13
 74
     0
 42
0.0000000001
 43
0.0000000001
 12
1.0
 22
0.0
 32
0.0
 13
1.0
 23
0.0
 33
0.0
 40
0.0
 40
0.0
 40
0.0
 40
0.0
 40
1.0
 40
1.0
 40
1.0
 40
2.0
 40
2.0
 40
2.0
 40
3.0
 40
3.0
 40
3.0
 40
4.0
 40
4.0
 40
4.0
 40
4.0
 10
88.01478269284006
 20
-145.2248995947702
 30
0.0
 10
87.75243867163829
 20
-145.2248995947702
 30
0.0
 10
87.71437036652627
 20
-145.4364284575645
 30
0.0
 10
87.71437036652627
 20
-145.552872684966
 30
0.0
 10
87.71437036652627
 20
-145.7282280451652
 30
0.0
 10
87.80962725669343
 20
-145.8911810616175
 30
0.0
 10
87.99359535560578
 20
-145.8911810616175
 30
0.0
 10
88.11417369758952
 20
-145.8911810616175
 30
0.0
 10
88.28987356733725
 20
-145.8319254192712
 30
0.0
 10
88.28987356733725
 20
-145.546327003544
 30
0.0
 10
88.28987356733725
 20
-145.3220512874542
 30
0.0
 10
88.15017494541037
 20
-145.2248995947702
 30
0.0
 10
88.01478269284006
 20
-145.2248995947702
 30
0.0
  0
HATCH
  5
F9
330
F3
100
AcDbEntity
  8
_U+30EC_U+30A4_U+30E4_U+30FC 1
 62
   179
420
  2234388
100
AcDbHatch
 10
0.0
 20
0.0
 30
0.0
210
0.0
220
0.0
230
1.0
  2
SOLID
 70
     1
 71
     0
 91
        2
 92
        1
 93
        1
 72
     4
 94
        3
 73
     0
 74
     1
 95
       32
 96
       28
 40
0.0
 40
0.0
 40
0.0
 40
0.0
 40
1.0
 40
1.0
 40
1.0
 40
2.0
 40
2.0
 40
2.0
 40
3.0
 40
3.0
 40
3.0
 40
4.0
 40
4.0
 40
4.0
 40
5.0
 40
5.0
 40
5.0
 40
6.0
 40
6.0
 40
6.0
 40
7.0
 40
7.0
 40
7.0
 40
8.0
 40
8.0
 40
8.0
 40
9.0
 40
9.0
 40
9.0
 40
9.0
 10
87.99790172496233
 20
-146.0837618992429
 10
87.48165416649765
 20
-146.0837618992429
 10
87.47321368255878
 20
-145.5294460356663
 10
87.47321368255878
 20
-145.3158501155808
 10
87.47321368255878
 20
-145.0853732276176
 10
87.49216170772766
 20
-144.4380397859391
 10
88.03597003007434
 20
-144.4380397859391
 10
88.20943058775667
 20
-144.4380397859391
 10
88.45472138630646
 20
-144.5076307147412
 10
88.49278969141848
 20
-144.8397379195193
 10
88.49278969141848
 20
-144.8397379195193
 10
88.27919377133298
 20
-144.8397379195193
 10
88.27919377133298
 20
-144.8397379195193
 10
88.26868623010297
 20
-144.7825493344641
 10
88.23681909686441
 20
-144.6347547381469
 10
88.03373071800893
 20
-144.6347547381469
 10
87.74193113040828
 20
-144.6347547381469
 10
87.70162351323084
 20
-144.9623833187941
 10
87.68904891470969
 20
-145.167711009715
 10
87.78206649281144
 20
-145.0895073421999
 10
87.8497626190966
 20
-145.0302516998536
 10
88.03166366071778
 20
-145.0302516998536
 10
88.21149764504783
 20
-145.0302516998536
 10
88.51397702865276
 20
-145.1380831885419
 10
88.51397702865276
 20
-145.5442599462528
 10
88.51397702865276
 20
-145.8636202977355
 10
88.31519501915385
 20
-146.0837618992429
 10
87.99790172496233
 20
-146.0837618992429
 97
        0
 97
        0
 92
        1
 93
        1
 72
     4
 94
        3
 73
     0
 74
     1
 95
       17
 96
       13
 40
0.0
 40
0.0
 40
0.0
 40
0.0
 40
1.0
 40
1.0
 40
1.0
 40
2.0
 40
2.0
 40
2.0
 40
3.0
 40
3.0
 40
3.0
 40
4.0
 40
4.0
 40
4.0
 40
4.0
 10
88.01478269284006
 20
-145.2248995947702
 10
87.75243867163829
 20
-145.2248995947702
 10
87.71437036652627
 20
-145.4364284575645
 10
87.71437036652627
 20
-145.552872684966
 10
87.71437036652627
 20
-145.7282280451652
 10
87.80962725669343
 20
-145.8911810616175
 10
87.99359535560578
 20
-145.8911810616175
 10
88.11417369758952
 20
-145.8911810616175
 10
88.28987356733725
 20
-145.8319254192712
 10
88.28987356733725
 20
-145.546327003544
 10
88.28987356733725
 20
-145.3220512874542
 10
88.15017494541037
 20
-145.2248995947702
 10
88.01478269284006
 20
-145.2248995947702
 97
        0
 97
        0
 75
     2
 76
     1
 98
        0
  0
ENDBLK
  5
F6
330
F3
100
AcDbEntity
  8
0
100
AcDbBlockEnd
  0
BLOCK
  5
FC
330
FA
100
AcDbEntity
  8
0
100
AcDbBlockBegin
  2
block 7
 70
     0
 10
0.0
 20
0.0
 30
0.0
  3
block 7
  1

  0
SPLINE
  5
FE
330
FA
100
AcDbEntity
  8
_U+30EC_U+30A4_U+30E4_U+30FC 1
 62
   179
420
  2234388
370
     9
100
AcDbSpline
210
0.0
220
0.0
230
1.0
 70
    11
 71
     3
 72
    17
 73
    13
 74
     0
 42
0.0000000001
 43
0.0000000001
 12
1.0
 22
0.0
 32
0.0
 13
1.0
 23
0.0
 33
0.0
 40
0.0
 40
0.0
 40
0.0
 40
0.0
 40
1.0
 40
1.0
 40
1.0
 40
2.0
 40
2.0
 40
2.0
 40
3.0
 40
3.0
 40
3.0
 40
4.0
 40
4.0
 40
4.0
 40
4.0
 10
91.02908212209908
 20
-146.4058821856206
 30
0.0
 10
91.02908212209908
 20
-146.4251791300605
 30
0.0
 10
91.01320712250408
 20
-146.4410188522783
 30
0.0
 10
90.99391017855194
 20
-146.4410188522783
 30
0.0
 10
90.97394295683914
 20
-146.4410188522783
 30
0.0
 10
90.95877351278169
 20
-146.4251791300605
 30
0.0
 10
90.95877351278169
 20
-146.4058821856206
 30
0.0
 10
90.95877351278169
 20
-146.3865852411814
 30
0.0
 10
90.97394295683914
 20
-146.3707455189629
 30
0.0
 10
90.99391017855194
 20
-146.3707455189629
 30
0.0
 10
91.01320712250408
 20
-146.3707455189629
 30
0.0
 10
91.02908212209908
 20
-146.3865852411814
 30
0.0
 10
91.02908212209908
 20
-146.4058821856206
 30
0.0
  0
ENDBLK
  5
FD
330
FA
100
AcDbEntity
  8
0
100
AcDbBlockEnd
  0
BLOCK
  5
109
330
107
100
AcDbEntity
  8
0
100
AcDbBlockBegin
  2
block 8
 70
     0
 10
0.0
 20
0.0
 30
0.0
  3
block 8
  1

  0
SPLINE
  5
10B
330
107
100
AcDbEntity
  8
_U+30EC_U+30A4_U+30E4_U+30FC 1
370
     0
100
AcDbSpline
210
0.0
220
0.0
230
1.0
 70
    11
 71
     3
 72
    29
 73
    25
 74
     0
 42
0.0000000001
 43
0.0000000001
 12
1.0
 22
0.0
 32
0.0
 13
1.0
 23
0.0
 33
0.0
 40
0.0
 40
0.0
 40
0.0
 40
0.0
 40
1.0
 40
1.0
 40
1.0
 40
2.0
 40
2.0
 40
2.0
 40
3.0
 40
3.0
 40
3.0
 40
4.0
 40
4.0
 40
4.0
 40
5.0
 40
5.0
 40
5.0
 40
6.0
 40
6.0
 40
6.0
 40
7.0
 40
7.0
 40
7.0
 40
8.0
 40
8.0
 40
8.0
 40
8.0
 10
94.99334036253639
 20
-146.0837618992429
 30
0.0
 10
94.72668997197806
 20
-146.0837618992429
 30
0.0
 10
94.47278643471515
 20
-145.9463025893815
 30
0.0
 10
94.47278643471515
 20
-145.5973144167257
 30
0.0
 10
94.47278643471515
 20
-145.3413438221716
 30
0.0
 10
94.61437985915892
 20
-145.2459146772302
 30
0.0
 10
94.72014429055608
 20
-145.1845919775928
 30
0.0
 10
94.59543183399003
 20
-145.1253363352465
 30
0.0
 10
94.51929522376601
 20
-145.0113036746847
 30
0.0
 10
94.51929522376601
 20
-144.8504177155235
 30
0.0
 10
94.51929522376601
 20
-144.5754990958006
 30
0.0
 10
94.71807723326494
 20
-144.4401068432303
 30
0.0
 10
94.99334036253639
 20
-144.4401068432303
 30
0.0
 10
95.27652721142393
 20
-144.4401068432303
 30
0.0
 10
95.46704099175824
 20
-144.5837673249652
 30
0.0
 10
95.46704099175824
 20
-144.8504177155235
 30
0.0
 10
95.46704099175824
 20
-145.0113036746847
 30
0.0
 10
95.38883732424307
 20
-145.1253363352465
 30
0.0
 10
95.26412486767703
 20
-145.1845919775928
 30
0.0
 10
95.35266382164795
 20
-145.2355793907744
 30
0.0
 10
95.51148272351797
 20
-145.3306640261673
 30
0.0
 10
95.51148272351797
 20
-145.5928357925949
 30
0.0
 10
95.51148272351797
 20
-145.9673176718415
 30
0.0
 10
95.2320854796642
 20
-146.0837618992429
 30
0.0
 10
94.99334036253639
 20
-146.0837618992429
 30
0.0
  0
SPLINE
  5
10C
330
107
100
AcDbEntity
  8
_U+30EC_U+30A4_U+30E4_U+30FC 1
370
     0
100
AcDbSpline
210
0.0
220
0.0
230
1.0
 70
    11
 71
     3
 72
    17
 73
    13
 74
     0
 42
0.0000000001
 43
0.0000000001
 12
1.0
 22
0.0
 32
0.0
 13
1.0
 23
0.0
 33
0.0
 40
0.0
 40
0.0
 40
0.0
 40
0.0
 40
1.0
 40
1.0
 40
1.0
 40
2.0
 40
2.0
 40
2.0
 40
3.0
 40
3.0
 40
3.0
 40
4.0
 40
4.0
 40
4.0
 40
4.0
 10
94.99334036253639
 20
-145.2924234662811
 30
0.0
 10
94.84933537125295
 20
-145.2924234662811
 30
0.0
 10
94.69706215080491
 20
-145.3792398725094
 30
0.0
 10
94.69706215080491
 20
-145.5825005061391
 30
0.0
 10
94.69706215080491
 20
-145.7874836875115
 30
0.0
 10
94.8238416646621
 20
-145.8891140043263
 30
0.0
 10
94.99334036253639
 20
-145.8891140043263
 30
0.0
 10
95.17937551873989
 20
-145.8891140043263
 30
0.0
 10
95.28927406471935
 20
-145.7664686050514
 30
0.0
 10
95.28927406471935
 20
-145.5887016780125
 30
0.0
 10
95.28927406471935
 20
-145.3664930192139
 30
0.0
 10
95.12632104826703
 20
-145.2924234662811
 30
0.0
 10
94.99334036253639
 20
-145.2924234662811
 30
0.0
  0
SPLINE
  5
10D
330
107
100
AcDbEntity
  8
_U+30EC_U+30A4_U+30E4_U+30FC 1
370
     0
100
AcDbSpline
210
0.0
220
0.0
230
1.0
 70
    11
 71
     3
 72
    17
 73
    13
 74
     0
 42
0.0000000001
 43
0.0000000001
 12
1.0
 22
0.0
 32
0.0
 13
1.0
 23
0.0
 33
0.0
 40
0.0
 40
0.0
 40
0.0
 40
0.0
 40
1.0
 40
1.0
 40
1.0
 40
2.0
 40
2.0
 40
2.0
 40
3.0
 40
3.0
 40
3.0
 40
4.0
 40
4.0
 40
4.0
 40
4.0
 10
94.99334036253639
 20
-144.6326876808557
 30
0.0
 10
94.82832028879292
 20
-144.6326876808557
 30
0.0
 10
94.74357093985577
 20
-144.7277723162486
 30
0.0
 10
94.74357093985577
 20
-144.8631645688189
 30
0.0
 10
94.74357093985577
 20
-144.9858099680938
 30
0.0
 10
94.8155734354975
 20
-145.1043212527864
 30
0.0
 10
94.99334036253639
 20
-145.1043212527864
 30
0.0
 10
95.17076278002676
 20
-145.1043212527864
 30
0.0
 10
95.24276527566848
 20
-144.9858099680938
 30
0.0
 10
95.24276527566848
 20
-144.8631645688189
 30
0.0
 10
95.24276527566848
 20
-144.7277723162486
 30
0.0
 10
95.15594886944018
 20
-144.6326876808557
 30
0.0
 10
94.99334036253639
 20
-144.6326876808557
 30
0.0
  0
HATCH
  5
10E
330
107
100
AcDbEntity
  8
_U+30EC_U+30A4_U+30E4_U+30FC 1
 62
   179
420
  2234388
100
AcDbHatch
 10
0.0
 20
0.0
 30
0.0
210
0.0
220
0.0
230
1.0
  2
SOLID
 70
     1
 71
     0
 91
        3
 92
        1
 93
        1
 72
     4
 94
        3
 73
     0
 74
     1
 95
       29
 96
       25
 40
0.0
 40
0.0
 40
0.0
 40
0.0
 40
1.0
 40
1.0
 40
1.0
 40
2.0
 40
2.0
 40
2.0
 40
3.0
 40
3.0
 40
3.0
 40
4.0
 40
4.0
 40
4.0
 40
5.0
 40
5.0
 40
5.0
 40
6.0
 40
6.0
 40
6.0
 40
7.0
 40
7.0
 40
7.0
 40
8.0
 40
8.0
 40
8.0
 40
8.0
 10
94.99334036253639
 20
-146.0837618992429
 10
94.72668997197806
 20
-146.0837618992429
 10
94.47278643471515
 20
-145.9463025893815
 10
94.47278643471515
 20
-145.5973144167257
 10
94.47278643471515
 20
-145.3413438221716
 10
94.61437985915892
 20
-145.2459146772302
 10
94.72014429055608
 20
-145.1845919775928
 10
94.59543183399003
 20
-145.1253363352465
 10
94.51929522376601
 20
-145.0113036746847
 10
94.51929522376601
 20
-144.8504177155235
 10
94.51929522376601
 20
-144.5754990958006
 10
94.71807723326494
 20
-144.4401068432303
 10
94.99334036253639
 20
-144.4401068432303
 10
95.27652721142393
 20
-144.4401068432303
 10
95.46704099175824
 20
-144.5837673249652
 10
95.46704099175824
 20
-144.8504177155235
 10
95.46704099175824
 20
-145.0113036746847
 10
95.38883732424307
 20
-145.1253363352465
 10
95.26412486767703
 20
-145.1845919775928
 10
95.35266382164795
 20
-145.2355793907744
 10
95.51148272351797
 20
-145.3306640261673
 10
95.51148272351797
 20
-145.5928357925949
 10
95.51148272351797
 20
-145.9673176718415
 10
95.2320854796642
 20
-146.0837618992429
 10
94.99334036253639
 20
-146.0837618992429
 97
        0
 97
        0
 92
        1
 93
        1
 72
     4
 94
        3
 73
     0
 74
     1
 95
       17
 96
       13
 40
0.0
 40
0.0
 40
0.0
 40
0.0
 40
1.0
 40
1.0
 40
1.0
 40
2.0
 40
2.0
 40
2.0
 40
3.0
 40
3.0
 40
3.0
 40
4.0
 40
4.0
 40
4.0
 40
4.0
 10
94.99334036253639
 20
-145.2924234662811
 10
94.84933537125295
 20
-145.2924234662811
 10
94.69706215080491
 20
-145.3792398725094
 10
94.69706215080491
 20
-145.5825005061391
 10
94.69706215080491
 20
-145.7874836875115
 10
94.8238416646621
 20
-145.8891140043263
 10
94.99334036253639
 20
-145.8891140043263
 10
95.17937551873989
 20
-145.8891140043263
 10
95.28927406471935
 20
-145.7664686050514
 10
95.28927406471935
 20
-145.5887016780125
 10
95.28927406471935
 20
-145.3664930192139
 10
95.12632104826703
 20
-145.2924234662811
 10
94.99334036253639
 20
-145.2924234662811
 97
        0
 97
        0
 92
        1
 93
        1
 72
     4
 94
        3
 73
     0
 74
     1
 95
       17
 96
       13
 40
0.0
 40
0.0
 40
0.0
 40
0.0
 40
1.0
 40
1.0
 40
1.0
 40
2.0
 40
2.0
 40
2.0
 40
3.0
 40
3.0
 40
3.0
 40
4.0
 40
4.0
 40
4.0
 40
4.0
 10
94.99334036253639
 20
-144.6326876808557
 10
94.82832028879292
 20
-144.6326876808557
 10
94.74357093985577
 20
-144.7277723162486
 10
94.74357093985577
 20
-144.8631645688189
 10
94.74357093985577
 20
-144.9858099680938
 10
94.8155734354975
 20
-145.1043212527864
 10
94.99334036253639
 20
-145.1043212527864
 10
95.17076278002676
 20
-145.1043212527864
 10
95.24276527566848
 20
-144.9858099680938
 10
95.24276527566848
 20
-144.8631645688189
 10
95.24276527566848
 20
-144.7277723162486
 10
95.15594886944018
 20
-144.6326876808557
 10
94.99334036253639
 20
-144.6326876808557
 97
        0
 97
        0
 75
     2
 76
     1
 98
        0
  0
ENDBLK
  5
10A
330
107
100
AcDbEntity
  8
0
100
AcDbBlockEnd
  0
BLOCK
  5
111
330
10F
100
AcDbEntity
  8
0
100
AcDbBlockBegin
  2
block 9
 70
     0
 10
0.0
 20
0.0
 30
0.0
  3
block 9
  1

  0
SPLINE
  5
113
330
10F
100
AcDbEntity
  8
_U+30EC_U+30A4_U+30E4_U+30FC 1
 62
   179
420
  2234388
370
     9
100
AcDbSpline
210
0.0
220
0.0
230
1.0
 70
    11
 71
     3
 72
    17
 73
    13
 74
     0
 42
0.0000000001
 43
0.0000000001
 12
1.0
 22
0.0
 32
0.0
 13
1.0
 23
0.0
 33
0.0
 40
0.0
 40
0.0
 40
0.0
 40
0.0
 40
1.0
 40
1.0
 40
1.0
 40
2.0
 40
2.0
 40
2.0
 40
3.0
 40
3.0
 40
3.0
 40
4.0
 40
4.0
 40
4.0
 40
4.0
 10
99.02927052910839
 20
-146.4058821856206
 30
0.0
 10
99.02927052910839
 20
-146.4251791300605
 30
0.0
 10
99.01343330857986
 20
-146.4410188522783
 30
0.0
 10
98.99342830780057
 20
-146.4410188522783
 30
0.0
 10
98.97413136384843
 20
-146.4410188522783
 30
0.0
 10
98.95829164203032
 20
-146.4251791300605
 30
0.0
 10
98.95829164203032
 20
-146.4058821856206
 30
0.0
 10
98.95829164203032
 20
-146.3865852411814
 30
0.0
 10
98.97413136384843
 20
-146.3707455189629
 30
0.0
 10
98.99342830780057
 20
-146.3707455189629
 30
0.0
 10
99.01343330857986
 20
-146.3707455189629
 30
0.0
 10
99.02927052910839
 20
-146.3865852411814
 30
0.0
 10
99.02927052910839
 20
-146.4058821856206
 30
0.0
  0
ENDBLK
  5
112
330
10F
100
AcDbEntity
  8
0
100
AcDbBlockEnd
  0
BLOCK
  5
11E
330
11C
100
AcDbEntity
  8
0
100
AcDbBlockBegin
  2
block 10
 70
     0
 10
0.0
 20
0.0
 30
0.0
  3
block 10
  1

  0
SPLINE
  5
120
330
11C
100
AcDbEntity
  8
_U+30EC_U+30A4_U+30E4_U+30FC 1
370
     0
100
AcDbSpline
210
0.0
220
0.0
230
1.0
 70
    11
 71
     3
 72
    32
 73
    28
 74
     0
 42
0.0000000001
 43
0.0000000001
 12
1.0
 22
0.0
 32
0.0
 13
1.0
 23
0.0
 33
0.0
 40
0.0
 40
0.0
 40
0.0
 40
0.0
 40
1.0
 40
1.0
 40
1.0
 40
2.0
 40
2.0
 40
2.0
 40
3.0
 40
3.0
 40
3.0
 40
4.0
 40
4.0
 40
4.0
 40
5.0
 40
5.0
 40
5.0
 40
6.0
 40
6.0
 40
6.0
 40
7.0
 40
7.0
 40
7.0
 40
8.0
 40
8.0
 40
8.0
 40
9.0
 40
9.0
 40
9.0
 40
9.0
 10
101.9979085031464
 20
-146.0837618992429
 30
0.0
 10
101.4818331994559
 20
-146.0837618992429
 30
0.0
 10
101.4732204607428
 20
-145.5294460356663
 30
0.0
 10
101.4732204607428
 20
-145.3158501155808
 30
0.0
 10
101.4732204607428
 20
-145.0853732276176
 30
0.0
 10
101.4921684859117
 20
-144.4380397859391
 30
0.0
 10
102.0358045534841
 20
-144.4380397859391
 30
0.0
 10
102.2094373659407
 20
-144.4380397859391
 30
0.0
 10
102.4547281644905
 20
-144.5076307147412
 30
0.0
 10
102.4929687243768
 20
-144.8397379195193
 30
0.0
 10
102.4929687243768
 20
-144.8397379195193
 30
0.0
 10
102.2793728042913
 20
-144.8397379195193
 30
0.0
 10
102.2793728042913
 20
-144.8397379195193
 30
0.0
 10
102.268693008287
 20
-144.7825493344641
 30
0.0
 10
102.2369981298227
 20
-144.6347547381469
 30
0.0
 10
102.033737496193
 20
-144.6347547381469
 30
0.0
 10
101.7419379085923
 20
-144.6347547381469
 30
0.0
 10
101.7016302914149
 20
-144.9623833187941
 30
0.0
 10
101.6888834381194
 20
-145.167711009715
 30
0.0
 10
101.7819010162212
 20
-145.0895073421999
 30
0.0
 10
101.8497693972806
 20
-145.0302516998536
 30
0.0
 10
102.0316704389018
 20
-145.0302516998536
 30
0.0
 10
102.2115044232318
 20
-145.0302516998536
 30
0.0
 10
102.5139838068368
 20
-145.1380831885419
 30
0.0
 10
102.5139838068368
 20
-145.5442599462528
 30
0.0
 10
102.5139838068368
 20
-145.8636202977355
 30
0.0
 10
102.3152017973379
 20
-146.0837618992429
 30
0.0
 10
101.9979085031464
 20
-146.0837618992429
 30
0.0
  0
SPLINE
  5
121
330
11C
100
AcDbEntity
  8
_U+30EC_U+30A4_U+30E4_U+30FC 1
370
     0
100
AcDbSpline
210
0.0
220
0.0
230
1.0
 70
    11
 71
     3
 72
    17
 73
    13
 74
     0
 42
0.0000000001
 43
0.0000000001
 12
1.0
 22
0.0
 32
0.0
 13
1.0
 23
0.0
 33
0.0
 40
0.0
 40
0.0
 40
0.0
 40
0.0
 40
1.0
 40
1.0
 40
1.0
 40
2.0
 40
2.0
 40
2.0
 40
3.0
 40
3.0
 40
3.0
 40
4.0
 40
4.0
 40
4.0
 40
4.0
 10
102.0147894710241
 20
-145.2248995947702
 30
0.0
 10
101.7526177045966
 20
-145.2248995947702
 30
0.0
 10
101.7143771447103
 20
-145.4364284575645
 30
0.0
 10
101.7143771447103
 20
-145.552872684966
 30
0.0
 10
101.7143771447103
 20
-145.7282280451652
 30
0.0
 10
101.8094617801032
 20
-145.8911810616175
 30
0.0
 10
101.9937743885641
 20
-145.8911810616175
 30
0.0
 10
102.1143527305478
 20
-145.8911810616175
 30
0.0
 10
102.289708090747
 20
-145.8319254192712
 30
0.0
 10
102.289708090747
 20
-145.546327003544
 30
0.0
 10
102.289708090747
 20
-145.3220512874542
 30
0.0
 10
102.1501817235944
 20
-145.2248995947702
 30
0.0
 10
102.0147894710241
 20
-145.2248995947702
 30
0.0
  0
HATCH
  5
122
330
11C
100
AcDbEntity
  8
_U+30EC_U+30A4_U+30E4_U+30FC 1
 62
   179
420
  2234388
100
AcDbHatch
 10
0.0
 20
0.0
 30
0.0
210
0.0
220
0.0
230
1.0
  2
SOLID
 70
     1
 71
     0
 91
        2
 92
        1
 93
        1
 72
     4
 94
        3
 73
     0
 74
     1
 95
       32
 96
       28
 40
0.0
 40
0.0
 40
0.0
 40
0.0
 40
1.0
 40
1.0
 40
1.0
 40
2.0
 40
2.0
 40
2.0
 40
3.0
 40
3.0
 40
3.0
 40
4.0
 40
4.0
 40
4.0
 40
5.0
 40
5.0
 40
5.0
 40
6.0
 40
6.0
 40
6.0
 40
7.0
 40
7.0
 40
7.0
 40
8.0
 40
8.0
 40
8.0
 40
9.0
 40
9.0
 40
9.0
 40
9.0
 10
101.9979085031464
 20
-146.0837618992429
 10
101.4818331994559
 20
-146.0837618992429
 10
101.4732204607428
 20
-145.5294460356663
 10
101.4732204607428
 20
-145.3158501155808
 10
101.4732204607428
 20
-145.0853732276176
 10
101.4921684859117
 20
-144.4380397859391
 10
102.0358045534841
 20
-144.4380397859391
 10
102.2094373659407
 20
-144.4380397859391
 10
102.4547281644905
 20
-144.5076307147412
 10
102.4929687243768
 20
-144.8397379195193
 10
102.4929687243768
 20
-144.8397379195193
 10
102.2793728042913
 20
-144.8397379195193
 10
102.2793728042913
 20
-144.8397379195193
 10
102.268693008287
 20
-144.7825493344641
 10
102.2369981298227
 20
-144.6347547381469
 10
102.033737496193
 20
-144.6347547381469
 10
101.7419379085923
 20
-144.6347547381469
 10
101.7016302914149
 20
-144.9623833187941
 10
101.6888834381194
 20
-145.167711009715
 10
101.7819010162212
 20
-145.0895073421999
 10
101.8497693972806
 20
-145.0302516998536
 10
102.0316704389018
 20
-145.0302516998536
 10
102.2115044232318
 20
-145.0302516998536
 10
102.5139838068368
 20
-145.1380831885419
 10
102.5139838068368
 20
-145.5442599462528
 10
102.5139838068368
 20
-145.8636202977355
 10
102.3152017973379
 20
-146.0837618992429
 10
101.9979085031464
 20
-146.0837618992429
 97
        0
 97
        0
 92
        1
 93
        1
 72
     4
 94
        3
 73
     0
 74
     1
 95
       17
 96
       13
 40
0.0
 40
0.0
 40
0.0
 40
0.0
 40
1.0
 40
1.0
 40
1.0
 40
2.0
 40
2.0
 40
2.0
 40
3.0
 40
3.0
 40
3.0
 40
4.0
 40
4.0
 40
4.0
 40
4.0
 10
102.0147894710241
 20
-145.2248995947702
 10
101.7526177045966
 20
-145.2248995947702
 10
101.7143771447103
 20
-145.4364284575645
 10
101.7143771447103
 20
-145.552872684966
 10
101.7143771447103
 20
-145.7282280451652
 10
101.8094617801032
 20
-145.8911810616175
 10
101.9937743885641
 20
-145.8911810616175
 10
102.1143527305478
 20
-145.8911810616175
 10
102.289708090747
 20
-145.8319254192712
 10
102.289708090747
 20
-145.546327003544
 10
102.289708090747
 20
-145.3220512874542
 10
102.1501817235944
 20
-145.2248995947702
 10
102.0147894710241
 20
-145.2248995947702
 97
        0
 97
        0
 75
     2
 76
     1
 98
        0
  0
ENDBLK
  5
11F
330
11C
100
AcDbEntity
  8
0
100
AcDbBlockEnd
  0
BLOCK
  5
125
330
123
100
AcDbEntity
  8
0
100
AcDbBlockBegin
  2
block 11
 70
     0
 10
0.0
 20
0.0
 30
0.0
  3
block 11
  1

  0
SPLINE
  5
127
330
123
100
AcDbEntity
  8
_U+30EC_U+30A4_U+30E4_U+30FC 1
 62
   179
420
  2234388
370
     9
100
AcDbSpline
210
0.0
220
0.0
230
1.0
 70
    11
 71
     3
 72
    17
 73
    13
 74
     0
 42
0.0000000001
 43
0.0000000001
 12
1.0
 22
0.0
 32
0.0
 13
1.0
 23
0.0
 33
0.0
 40
0.0
 40
0.0
 40
0.0
 40
0.0
 40
1.0
 40
1.0
 40
1.0
 40
2.0
 40
2.0
 40
2.0
 40
3.0
 40
3.0
 40
3.0
 40
4.0
 40
4.0
 40
4.0
 40
4.0
 10
105.0292442649252
 20
-146.4058821856206
 30
0.0
 10
105.0292442649252
 20
-146.4251791300605
 30
0.0
 10
105.0134045431071
 20
-146.4410188522783
 30
0.0
 10
104.9934020436174
 20
-146.4410188522783
 30
0.0
 10
104.9741403774421
 20
-146.4410188522783
 30
0.0
 10
104.9582653778471
 20
-146.4251791300605
 30
0.0
 10
104.9582653778471
 20
-146.4058821856206
 30
0.0
 10
104.9582653778471
 20
-146.3865852411814
 30
0.0
 10
104.9741403774421
 20
-146.3707455189629
 30
0.0
 10
104.9934020436174
 20
-146.3707455189629
 30
0.0
 10
105.0134045431071
 20
-146.3707455189629
 30
0.0
 10
105.0292442649252
 20
-146.3865852411814
 30
0.0
 10
105.0292442649252
 20
-146.4058821856206
 30
0.0
  0
ENDBLK
  5
126
330
123
100
AcDbEntity
  8
0
100
AcDbBlockEnd
  0
BLOCK
  5
136
330
134
100
AcDbEntity
  8
0
100
AcDbBlockBegin
  2
block 12
 70
     0
 10
0.0
 20
0.0
 30
0.0
  3
block 12
  1

  0
SPLINE
  5
138
330
134
100
AcDbEntity
  8
_U+30EC_U+30A4_U+30E4_U+30FC 1
370
     0
100
AcDbSpline
210
0.0
220
0.0
230
1.0
 70
    11
 71
     3
 72
    44
 73
    40
 74
     0
 42
0.0000000001
 43
0.0000000001
 12
1.0
 22
0.0
 32
0.0
 13
1.0
 23
0.0
 33
0.0
 40
0.0
 40
0.0
 40
0.0
 40
0.0
 40
1.0
 40
1.0
 40
1.0
 40
2.0
 40
2.0
 40
2.0
 40
3.0
 40
3.0
 40
3.0
 40
4.0
 40
4.0
 40
4.0
 40
5.0
 40
5.0
 40
5.0
 40
6.0
 40
6.0
 40
6.0
 40
7.0
 40
7.0
 40
7.0
 40
8.0
 40
8.0
 40
8.0
 40
9.0
 40
9.0
 40
9.0
 40
10.0
 40
10.0
 40
10.0
 40
11.0
 40
11.0
 40
11.0
 40
12.0
 40
12.0
 40
12.0
 40
13.0
 40
13.0
 40
13.0
 40
13.0
 10
80.03955889926095
 20
-141.3191948431424
 30
0.0
 10
80.1982055463567
 20
-141.5372693873587
 30
0.0
 10
80.27227509928957
 20
-141.6302869654605
 30
0.0
 10
80.41610783579875
 20
-141.6788628118025
 30
0.0
 10
80.41610783579875
 20
-141.6788628118025
 30
0.0
 10
80.41610783579875
 20
-140.900271232136
 30
0.0
 10
80.41610783579875
 20
-140.900271232136
 30
0.0
 10
80.41610783579875
 20
-140.900271232136
 30
0.0
 10
80.62126327194538
 20
-140.900271232136
 30
0.0
 10
80.62126327194538
 20
-140.900271232136
 30
0.0
 10
80.62126327194538
 20
-140.900271232136
 30
0.0
 10
80.62126327194538
 20
-141.9286322344831
 30
0.0
 10
80.62126327194538
 20
-141.9286322344831
 30
0.0
 10
80.26383461535072
 20
-141.8969373560188
 30
0.0
 10
80.18545869306128
 20
-141.8311360322506
 30
0.0
 10
79.8872856788129
 20
-141.4463188665482
 30
0.0
 10
79.68833141453973
 20
-141.1903482719941
 30
0.0
 10
79.62063528825456
 20
-141.1245469482258
 30
0.0
 10
79.48317597839309
 20
-141.1245469482258
 30
0.0
 10
79.3646646937005
 20
-141.1245469482258
 30
0.0
 10
79.23357881048675
 20
-141.1965494438675
 30
0.0
 10
79.23357881048675
 20
-141.3932643960753
 30
0.0
 10
79.23357881048675
 20
-141.6537136147602
 30
0.0
 10
79.46405569844997
 20
-141.6619818439248
 30
0.0
 10
79.58049992585141
 20
-141.6661159585071
 30
0.0
 10
79.58049992585141
 20
-141.6661159585071
 30
0.0
 10
79.58049992585141
 20
-141.8903916745969
 30
0.0
 10
79.58049992585141
 20
-141.8903916745969
 30
0.0
 10
79.45354815721996
 20
-141.8821234454323
 30
0.0
 10
79.34141029917507
 20
-141.871443649428
 30
0.0
 10
79.22289901448248
 20
-141.7911729246217
 30
0.0
 10
79.06218531009557
 20
-141.6809298690937
 30
0.0
 10
79.02825111956585
 20
-141.4948947128902
 30
0.0
 10
79.02825111956585
 20
-141.3784504854887
 30
0.0
 10
79.02825111956585
 20
-141.1014648084746
 30
0.0
 10
79.21239147325247
 20
-140.8940700602626
 30
0.0
 10
79.48524303568425
 20
-140.8940700602626
 30
0.0
 10
79.71382512113057
 20
-140.8940700602626
 30
0.0
 10
79.81321612588003
 20
-141.0105142876641
 30
0.0
 10
80.03955889926095
 20
-141.3191948431424
 30
0.0
  0
HATCH
  5
139
330
134
100
AcDbEntity
  8
_U+30EC_U+30A4_U+30E4_U+30FC 1
 62
   179
420
  2234388
100
AcDbHatch
 10
0.0
 20
0.0
 30
0.0
210
0.0
220
0.0
230
1.0
  2
SOLID
 70
     1
 71
     0
 91
        1
 92
        1
 93
        1
 72
     4
 94
        3
 73
     0
 74
     1
 95
       44
 96
       40
 40
0.0
 40
0.0
 40
0.0
 40
0.0
 40
1.0
 40
1.0
 40
1.0
 40
2.0
 40
2.0
 40
2.0
 40
3.0
 40
3.0
 40
3.0
 40
4.0
 40
4.0
 40
4.0
 40
5.0
 40
5.0
 40
5.0
 40
6.0
 40
6.0
 40
6.0
 40
7.0
 40
7.0
 40
7.0
 40
8.0
 40
8.0
 40
8.0
 40
9.0
 40
9.0
 40
9.0
 40
10.0
 40
10.0
 40
10.0
 40
11.0
 40
11.0
 40
11.0
 40
12.0
 40
12.0
 40
12.0
 40
13.0
 40
13.0
 40
13.0
 40
13.0
 10
80.03955889926095
 20
-141.3191948431424
 10
80.1982055463567
 20
-141.5372693873587
 10
80.27227509928957
 20
-141.6302869654605
 10
80.41610783579875
 20
-141.6788628118025
 10
80.41610783579875
 20
-141.6788628118025
 10
80.41610783579875
 20
-140.900271232136
 10
80.41610783579875
 20
-140.900271232136
 10
80.41610783579875
 20
-140.900271232136
 10
80.62126327194538
 20
-140.900271232136
 10
80.62126327194538
 20
-140.900271232136
 10
80.62126327194538
 20
-140.900271232136
 10
80.62126327194538
 20
-141.9286322344831
 10
80.62126327194538
 20
-141.9286322344831
 10
80.26383461535072
 20
-141.8969373560188
 10
80.18545869306128
 20
-141.8311360322506
 10
79.8872856788129
 20
-141.4463188665482
 10
79.68833141453973
 20
-141.1903482719941
 10
79.62063528825456
 20
-141.1245469482258
 10
79.48317597839309
 20
-141.1245469482258
 10
79.3646646937005
 20
-141.1245469482258
 10
79.23357881048675
 20
-141.1965494438675
 10
79.23357881048675
 20
-141.3932643960753
 10
79.23357881048675
 20
-141.6537136147602
 10
79.46405569844997
 20
-141.6619818439248
 10
79.58049992585141
 20
-141.6661159585071
 10
79.58049992585141
 20
-141.6661159585071
 10
79.58049992585141
 20
-141.8903916745969
 10
79.58049992585141
 20
-141.8903916745969
 10
79.45354815721996
 20
-141.8821234454323
 10
79.34141029917507
 20
-141.871443649428
 10
79.22289901448248
 20
-141.7911729246217
 10
79.06218531009557
 20
-141.6809298690937
 10
79.02825111956585
 20
-141.4948947128902
 10
79.02825111956585
 20
-141.3784504854887
 10
79.02825111956585
 20
-141.1014648084746
 10
79.21239147325247
 20
-140.8940700602626
 10
79.48524303568425
 20
-140.8940700602626
 10
79.71382512113057
 20
-140.8940700602626
 10
79.81321612588003
 20
-141.0105142876641
 10
80.03955889926095
 20
-141.3191948431424
 97
        0
 97
        0
 75
     2
 76
     1
 98
        0
  0
ENDBLK
  5
137
330
134
100
AcDbEntity
  8
0
100
AcDbBlockEnd
  0
BLOCK
  5
13C
330
13A
100
AcDbEntity
  8
0
100
AcDbBlockBegin
  2
block 13
 70
     0
 10
0.0
 20
0.0
 30
0.0
  3
block 13
  1

  0
SPLINE
  5
13E
330
13A
100
AcDbEntity
  8
_U+30EC_U+30A4_U+30E4_U+30FC 1
 62
   179
420
  2234388
370
     9
100
AcDbSpline
210
0.0
220
0.0
230
1.0
 70
    11
 71
     3
 72
    17
 73
    13
 74
     0
 42
0.0000000001
 43
0.0000000001
 12
1.0
 22
0.0
 32
0.0
 13
1.0
 23
0.0
 33
0.0
 40
0.0
 40
0.0
 40
0.0
 40
0.0
 40
1.0
 40
1.0
 40
1.0
 40
2.0
 40
2.0
 40
2.0
 40
3.0
 40
3.0
 40
3.0
 40
4.0
 40
4.0
 40
4.0
 40
4.0
 10
81.02934932165796
 20
-140.412117187119
 30
0.0
 10
81.02934932165796
 20
-140.4313788537813
 30
0.0
 10
81.01347432206298
 20
-140.4472538537774
 30
0.0
 10
80.99350710035016
 20
-140.4472538537774
 30
0.0
 10
80.97421015639802
 20
-140.4472538537774
 30
0.0
 10
80.9583704345799
 20
-140.4313788537813
 30
0.0
 10
80.9583704345799
 20
-140.412117187119
 30
0.0
 10
80.9583704345799
 20
-140.3928202426798
 30
0.0
 10
80.97421015639802
 20
-140.3769452426837
 30
0.0
 10
80.99350710035016
 20
-140.3769452426837
 30
0.0
 10
81.01347432206298
 20
-140.3769452426837
 30
0.0
 10
81.02934932165796
 20
-140.3928202426798
 30
0.0
 10
81.02934932165796
 20
-140.412117187119
 30
0.0
  0
ENDBLK
  5
13D
330
13A
100
AcDbEntity
  8
0
100
AcDbBlockEnd
  0
BLOCK
  5
14D
330
14B
100
AcDbEntity
  8
0
100
AcDbBlockBegin
  2
block 14
 70
     0
 10
0.0
 20
0.0
 30
0.0
  3
block 14
  1

  0
SPLINE
  5
14F
330
14B
100
AcDbEntity
  8
_U+30EC_U+30A4_U+30E4_U+30FC 1
370
     0
100
AcDbSpline
210
0.0
220
0.0
230
1.0
 70
    11
 71
     3
 72
    44
 73
    40
 74
     0
 42
0.0000000001
 43
0.0000000001
 12
1.0
 22
0.0
 32
0.0
 13
1.0
 23
0.0
 33
0.0
 40
0.0
 40
0.0
 40
0.0
 40
0.0
 40
1.0
 40
1.0
 40
1.0
 40
2.0
 40
2.0
 40
2.0
 40
3.0
 40
3.0
 40
3.0
 40
4.0
 40
4.0
 40
4.0
 40
5.0
 40
5.0
 40
5.0
 40
6.0
 40
6.0
 40
6.0
 40
7.0
 40
7.0
 40
7.0
 40
8.0
 40
8.0
 40
8.0
 40
9.0
 40
9.0
 40
9.0
 40
10.0
 40
10.0
 40
10.0
 40
11.0
 40
11.0
 40
11.0
 40
12.0
 40
12.0
 40
12.0
 40
13.0
 40
13.0
 40
13.0
 40
13.0
 10
80.0388698801639
 20
-130.5336344074708
 30
0.0
 10
80.19751652725965
 20
-130.7513644421386
 30
0.0
 10
80.27158608019252
 20
-130.8443820202403
 30
0.0
 10
80.4154188167017
 20
-130.8933023761308
 30
0.0
 10
80.4154188167017
 20
-130.8933023761308
 30
0.0
 10
80.4154188167017
 20
-130.1147107964644
 30
0.0
 10
80.4154188167017
 20
-130.1147107964644
 30
0.0
 10
80.4154188167017
 20
-130.1147107964644
 30
0.0
 10
80.62057425284833
 20
-130.1147107964644
 30
0.0
 10
80.62057425284833
 20
-130.1147107964644
 30
0.0
 10
80.62057425284833
 20
-130.1147107964644
 30
0.0
 10
80.62057425284833
 20
-131.1427272892629
 30
0.0
 10
80.62057425284833
 20
-131.1427272892629
 30
0.0
 10
80.26314559625366
 20
-131.1110324107986
 30
0.0
 10
80.18476967396423
 20
-131.0455755965789
 30
0.0
 10
79.88659665971585
 20
-130.6604139213279
 30
0.0
 10
79.68764239544268
 20
-130.4044433267739
 30
0.0
 10
79.61994626915752
 20
-130.3389865125542
 30
0.0
 10
79.48248695929605
 20
-130.3389865125542
 30
0.0
 10
79.36397567460345
 20
-130.3389865125542
 30
0.0
 10
79.2328897913897
 20
-130.4109890081959
 30
0.0
 10
79.2328897913897
 20
-130.6077039604036
 30
0.0
 10
79.2328897913897
 20
-130.86780866954
 30
0.0
 10
79.46336667935292
 20
-130.8760768987046
 30
0.0
 10
79.57981090675436
 20
-130.8805555228354
 30
0.0
 10
79.57981090675436
 20
-130.8805555228354
 30
0.0
 10
79.57981090675436
 20
-131.1048312389252
 30
0.0
 10
79.57981090675436
 20
-131.1048312389252
 30
0.0
 10
79.4528591381229
 20
-131.0962185002121
 30
0.0
 10
79.34072128007801
 20
-131.0855387042078
 30
0.0
 10
79.22220999538543
 20
-131.0052679794015
 30
0.0
 10
79.06149629099852
 20
-130.895369433422
 30
0.0
 10
79.02756210046881
 20
-130.70898976767
 30
0.0
 10
79.02756210046881
 20
-130.5928900498171
 30
0.0
 10
79.02756210046881
 20
-130.3155598632544
 30
0.0
 10
79.21170245415541
 20
-130.1081651150424
 30
0.0
 10
79.4845540165872
 20
-130.1081651150424
 30
0.0
 10
79.71313610203353
 20
-130.1081651150424
 30
0.0
 10
79.81252710678298
 20
-130.2246093424438
 30
0.0
 10
80.0388698801639
 20
-130.5336344074708
 30
0.0
  0
HATCH
  5
150
330
14B
100
AcDbEntity
  8
_U+30EC_U+30A4_U+30E4_U+30FC 1
 62
   179
420
  2234388
100
AcDbHatch
 10
0.0
 20
0.0
 30
0.0
210
0.0
220
0.0
230
1.0
  2
SOLID
 70
     1
 71
     0
 91
        1
 92
        1
 93
        1
 72
     4
 94
        3
 73
     0
 74
     1
 95
       44
 96
       40
 40
0.0
 40
0.0
 40
0.0
 40
0.0
 40
1.0
 40
1.0
 40
1.0
 40
2.0
 40
2.0
 40
2.0
 40
3.0
 40
3.0
 40
3.0
 40
4.0
 40
4.0
 40
4.0
 40
5.0
 40
5.0
 40
5.0
 40
6.0
 40
6.0
 40
6.0
 40
7.0
 40
7.0
 40
7.0
 40
8.0
 40
8.0
 40
8.0
 40
9.0
 40
9.0
 40
9.0
 40
10.0
 40
10.0
 40
10.0
 40
11.0
 40
11.0
 40
11.0
 40
12.0
 40
12.0
 40
12.0
 40
13.0
 40
13.0
 40
13.0
 40
13.0
 10
80.0388698801639
 20
-130.5336344074708
 10
80.19751652725965
 20
-130.7513644421386
 10
80.27158608019252
 20
-130.8443820202403
 10
80.4154188167017
 20
-130.8933023761308
 10
80.4154188167017
 20
-130.8933023761308
 10
80.4154188167017
 20
-130.1147107964644
 10
80.4154188167017
 20
-130.1147107964644
 10
80.4154188167017
 20
-130.1147107964644
 10
80.62057425284833
 20
-130.1147107964644
 10
80.62057425284833
 20
-130.1147107964644
 10
80.62057425284833
 20
-130.1147107964644
 10
80.62057425284833
 20
-131.1427272892629
 10
80.62057425284833
 20
-131.1427272892629
 10
80.26314559625366
 20
-131.1110324107986
 10
80.18476967396423
 20
-131.0455755965789
 10
79.88659665971585
 20
-130.6604139213279
 10
79.68764239544268
 20
-130.4044433267739
 10
79.61994626915752
 20
-130.3389865125542
 10
79.48248695929605
 20
-130.3389865125542
 10
79.36397567460345
 20
-130.3389865125542
 10
79.2328897913897
 20
-130.4109890081959
 10
79.2328897913897
 20
-130.6077039604036
 10
79.2328897913897
 20
-130.86780866954
 10
79.46336667935292
 20
-130.8760768987046
 10
79.57981090675436
 20
-130.8805555228354
 10
79.57981090675436
 20
-130.8805555228354
 10
79.57981090675436
 20
-131.1048312389252
 10
79.57981090675436
 20
-131.1048312389252
 10
79.4528591381229
 20
-131.0962185002121
 10
79.34072128007801
 20
-131.0855387042078
 10
79.22220999538543
 20
-131.0052679794015
 10
79.06149629099852
 20
-130.895369433422
 10
79.02756210046881
 20
-130.70898976767
 10
79.02756210046881
 20
-130.5928900498171
 10
79.02756210046881
 20
-130.3155598632544
 10
79.21170245415541
 20
-130.1081651150424
 10
79.4845540165872
 20
-130.1081651150424
 10
79.71313610203353
 20
-130.1081651150424
 10
79.81252710678298
 20
-130.2246093424438
 10
80.0388698801639
 20
-130.5336344074708
 97
        0
 97
        0
 75
     2
 76
     1
 98
        0
  0
SPLINE
  5
151
330
14B
100
AcDbEntity
  8
_U+30EC_U+30A4_U+30E4_U+30FC 1
370
     0
100
AcDbSpline
210
0.0
220
0.0
230
1.0
 70
    11
 71
     3
 72
    44
 73
    40
 74
     0
 42
0.0000000001
 43
0.0000000001
 12
1.0
 22
0.0
 32
0.0
 13
1.0
 23
0.0
 33
0.0
 40
0.0
 40
0.0
 40
0.0
 40
0.0
 40
1.0
 40
1.0
 40
1.0
 40
2.0
 40
2.0
 40
2.0
 40
3.0
 40
3.0
 40
3.0
 40
4.0
 40
4.0
 40
4.0
 40
5.0
 40
5.0
 40
5.0
 40
6.0
 40
6.0
 40
6.0
 40
7.0
 40
7.0
 40
7.0
 40
8.0
 40
8.0
 40
8.0
 40
9.0
 40
9.0
 40
9.0
 40
10.0
 40
10.0
 40
10.0
 40
11.0
 40
11.0
 40
11.0
 40
12.0
 40
12.0
 40
12.0
 40
13.0
 40
13.0
 40
13.0
 40
13.0
 10
80.0388698801639
 20
-129.3567897897094
 30
0.0
 10
80.19751652725965
 20
-129.5745198243772
 30
0.0
 10
80.27158608019252
 20
-129.667537402479
 30
0.0
 10
80.4154188167017
 20
-129.7164577583695
 30
0.0
 10
80.4154188167017
 20
-129.7164577583695
 30
0.0
 10
80.4154188167017
 20
-128.937866178703
 30
0.0
 10
80.4154188167017
 20
-128.937866178703
 30
0.0
 10
80.4154188167017
 20
-128.937866178703
 30
0.0
 10
80.62057425284833
 20
-128.937866178703
 30
0.0
 10
80.62057425284833
 20
-128.937866178703
 30
0.0
 10
80.62057425284833
 20
-128.937866178703
 30
0.0
 10
80.62057425284833
 20
-129.9658826715016
 30
0.0
 10
80.62057425284833
 20
-129.9658826715016
 30
0.0
 10
80.26314559625366
 20
-129.9341877930373
 30
0.0
 10
80.18476967396423
 20
-129.8687309788176
 30
0.0
 10
79.88659665971585
 20
-129.4835693035666
 30
0.0
 10
79.68764239544268
 20
-129.2275987090125
 30
0.0
 10
79.61994626915752
 20
-129.1621418947928
 30
0.0
 10
79.48248695929605
 20
-129.1621418947928
 30
0.0
 10
79.36397567460345
 20
-129.1621418947928
 30
0.0
 10
79.2328897913897
 20
-129.233799880886
 30
0.0
 10
79.2328897913897
 20
-129.4308593426423
 30
0.0
 10
79.2328897913897
 20
-129.6909640517786
 30
0.0
 10
79.46336667935292
 20
-129.6992322809432
 30
0.0
 10
79.57981090675436
 20
-129.7037109050741
 30
0.0
 10
79.57981090675436
 20
-129.7037109050741
 30
0.0
 10
79.57981090675436
 20
-129.9279866211639
 30
0.0
 10
79.57981090675436
 20
-129.9279866211639
 30
0.0
 10
79.4528591381229
 20
-129.9193738824507
 30
0.0
 10
79.34072128007801
 20
-129.9086940864464
 30
0.0
 10
79.22220999538543
 20
-129.8284233616401
 30
0.0
 10
79.06149629099852
 20
-129.7185248156607
 30
0.0
 10
79.02756210046881
 20
-129.5321451499086
 30
0.0
 10
79.02756210046881
 20
-129.4160454320557
 30
0.0
 10
79.02756210046881
 20
-129.1387152454931
 30
0.0
 10
79.21170245415541
 20
-128.9313204972811
 30
0.0
 10
79.4845540165872
 20
-128.9313204972811
 30
0.0
 10
79.71313610203353
 20
-128.9313204972811
 30
0.0
 10
79.81252710678298
 20
-129.0477647246825
 30
0.0
 10
80.0388698801639
 20
-129.3567897897094
 30
0.0
  0
HATCH
  5
152
330
14B
100
AcDbEntity
  8
_U+30EC_U+30A4_U+30E4_U+30FC 1
 62
   179
420
  2234388
100
AcDbHatch
 10
0.0
 20
0.0
 30
0.0
210
0.0
220
0.0
230
1.0
  2
SOLID
 70
     1
 71
     0
 91
        1
 92
        1
 93
        1
 72
     4
 94
        3
 73
     0
 74
     1
 95
       44
 96
       40
 40
0.0
 40
0.0
 40
0.0
 40
0.0
 40
1.0
 40
1.0
 40
1.0
 40
2.0
 40
2.0
 40
2.0
 40
3.0
 40
3.0
 40
3.0
 40
4.0
 40
4.0
 40
4.0
 40
5.0
 40
5.0
 40
5.0
 40
6.0
 40
6.0
 40
6.0
 40
7.0
 40
7.0
 40
7.0
 40
8.0
 40
8.0
 40
8.0
 40
9.0
 40
9.0
 40
9.0
 40
10.0
 40
10.0
 40
10.0
 40
11.0
 40
11.0
 40
11.0
 40
12.0
 40
12.0
 40
12.0
 40
13.0
 40
13.0
 40
13.0
 40
13.0
 10
80.0388698801639
 20
-129.3567897897094
 10
80.19751652725965
 20
-129.5745198243772
 10
80.27158608019252
 20
-129.667537402479
 10
80.4154188167017
 20
-129.7164577583695
 10
80.4154188167017
 20
-129.7164577583695
 10
80.4154188167017
 20
-128.937866178703
 10
80.4154188167017
 20
-128.937866178703
 10
80.4154188167017
 20
-128.937866178703
 10
80.62057425284833
 20
-128.937866178703
 10
80.62057425284833
 20
-128.937866178703
 10
80.62057425284833
 20
-128.937866178703
 10
80.62057425284833
 20
-129.9658826715016
 10
80.62057425284833
 20
-129.9658826715016
 10
80.26314559625366
 20
-129.9341877930373
 10
80.18476967396423
 20
-129.8687309788176
 10
79.88659665971585
 20
-129.4835693035666
 10
79.68764239544268
 20
-129.2275987090125
 10
79.61994626915752
 20
-129.1621418947928
 10
79.48248695929605
 20
-129.1621418947928
 10
79.36397567460345
 20
-129.1621418947928
 10
79.2328897913897
 20
-129.233799880886
 10
79.2328897913897
 20
-129.4308593426423
 10
79.2328897913897
 20
-129.6909640517786
 10
79.46336667935292
 20
-129.6992322809432
 10
79.57981090675436
 20
-129.7037109050741
 10
79.57981090675436
 20
-129.7037109050741
 10
79.57981090675436
 20
-129.9279866211639
 10
79.57981090675436
 20
-129.9279866211639
 10
79.4528591381229
 20
-129.9193738824507
 10
79.34072128007801
 20
-129.9086940864464
 10
79.22220999538543
 20
-129.8284233616401
 10
79.06149629099852
 20
-129.7185248156607
 10
79.02756210046881
 20
-129.5321451499086
 10
79.02756210046881
 20
-129.4160454320557
 10
79.02756210046881
 20
-129.1387152454931
 10
79.21170245415541
 20
-128.9313204972811
 10
79.4845540165872
 20
-128.9313204972811
 10
79.71313610203353
 20
-128.9313204972811
 10
79.81252710678298
 20
-129.0477647246825
 10
80.0388698801639
 20
-129.3567897897094
 97
        0
 97
        0
 75
     2
 76
     1
 98
        0
  0
POLYLINE
  5
153
330
14B
100
AcDbEntity
  8
_U+30EC_U+30A4_U+30E4_U+30FC 1
370
     0
100
AcDb2dPolyline
 66
     1
 10
0.0
 20
0.0
 30
0.0
  0
VERTEX
  5
154
330
153
100
AcDbEntity
  8
_U+30EC_U+30A4_U+30E4_U+30FC 1
370
     0
100
AcDbVertex
100
AcDb2dVertex
 10
80.62057425284833
 20
-128.7129014435162
 30
0.0
  0
VERTEX
  5
155
330
153
100
AcDbEntity
  8
_U+30EC_U+30A4_U+30E4_U+30FC 1
370
     0
100
AcDbVertex
100
AcDb2dVertex
 10
80.36891002765083
 20
-128.7129014435162
 30
0.0
  0
VERTEX
  5
156
330
153
100
AcDbEntity
  8
_U+30EC_U+30A4_U+30E4_U+30FC 1
370
     0
100
AcDbVertex
100
AcDb2dVertex
 10
80.36891002765083
 20
-128.4612372183187
 30
0.0
  0
VERTEX
  5
157
330
153
100
AcDbEntity
  8
_U+30EC_U+30A4_U+30E4_U+30FC 1
370
     0
100
AcDbVertex
100
AcDb2dVertex
 10
80.62057425284833
 20
-128.4612372183187
 30
0.0
  0
VERTEX
  5
158
330
153
100
AcDbEntity
  8
_U+30EC_U+30A4_U+30E4_U+30FC 1
370
     0
100
AcDbVertex
100
AcDb2dVertex
 10
80.62057425284833
 20
-128.7129014435162
 30
0.0
  0
SEQEND
  5
159
330
153
100
AcDbEntity
  8
_U+30EC_U+30A4_U+30E4_U+30FC 1
370
     0
  0
HATCH
  5
15A
330
14B
100
AcDbEntity
  8
_U+30EC_U+30A4_U+30E4_U+30FC 1
 62
   179
420
  2234388
100
AcDbHatch
 10
0.0
 20
0.0
 30
0.0
210
0.0
220
0.0
230
1.0
  2
SOLID
 70
     1
 71
     0
 91
        1
 92
        1
 93
        4
 72
     1
 10
80.62057425284833
 20
-128.7129014435162
 11
80.36891002765083
 21
-128.7129014435162
 72
     1
 10
80.36891002765083
 20
-128.7129014435162
 11
80.36891002765083
 21
-128.4612372183187
 72
     1
 10
80.36891002765083
 20
-128.4612372183187
 11
80.62057425284833
 21
-128.4612372183187
 72
     1
 10
80.62057425284833
 20
-128.4612372183187
 11
80.62057425284833
 21
-128.7129014435162
 97
        0
 75
     2
 76
     1
 98
        0
  0
SPLINE
  5
15B
330
14B
100
AcDbEntity
  8
_U+30EC_U+30A4_U+30E4_U+30FC 1
370
     0
100
AcDbSpline
210
0.0
220
0.0
230
1.0
 70
    11
 71
     3
 72
    53
 73
    49
 74
     0
 42
0.0000000001
 43
0.0000000001
 12
1.0
 22
0.0
 32
0.0
 13
1.0
 23
0.0
 33
0.0
 40
0.0
 40
0.0
 40
0.0
 40
0.0
 40
1.0
 40
1.0
 40
1.0
 40
2.0
 40
2.0
 40
2.0
 40
3.0
 40
3.0
 40
3.0
 40
4.0
 40
4.0
 40
4.0
 40
5.0
 40
5.0
 40
5.0
 40
6.0
 40
6.0
 40
6.0
 40
7.0
 40
7.0
 40
7.0
 40
8.0
 40
8.0
 40
8.0
 40
9.0
 40
9.0
 40
9.0
 40
10.0
 40
10.0
 40
10.0
 40
11.0
 40
11.0
 40
11.0
 40
12.0
 40
12.0
 40
12.0
 40
13.0
 40
13.0
 40
13.0
 40
14.0
 40
14.0
 40
14.0
 40
15.0
 40
15.0
 40
15.0
 40
16.0
 40
16.0
 40
16.0
 40
16.0
 10
80.67138941125577
 20
-127.7437960835154
 30
0.0
 10
80.67138941125577
 20
-127.8219997510306
 30
0.0
 10
80.65450844337805
 20
-127.9234578130712
 30
0.0
 10
80.59094643167518
 20
-128.0250881298861
 30
0.0
 10
80.48104788569572
 20
-128.1985486875684
 30
0.0
 10
80.34978974770769
 20
-128.2197360248027
 30
0.0
 10
80.24195825901937
 20
-128.2386840499716
 30
0.0
 10
80.24195825901937
 20
-128.2386840499716
 30
0.0
 10
80.24195825901937
 20
-128.0166476459472
 30
0.0
 10
80.24195825901937
 20
-128.0166476459472
 30
0.0
 10
80.4407402685183
 20
-127.9616983729575
 30
0.0
 10
80.47036808969143
 20
-127.834746604326
 30
0.0
 10
80.47036808969143
 20
-127.74155677145
 30
0.0
 10
80.47036808969143
 20
-127.6020304042974
 30
0.0
 10
80.37097708494198
 20
-127.4495849290751
 30
0.0
 10
80.13826088491335
 20
-127.4495849290751
 30
0.0
 10
79.8822902903593
 20
-127.4495849290751
 30
0.0
 10
79.81252710678298
 20
-127.6294189134051
 30
0.0
 10
79.81252710678298
 20
-127.7499972553889
 30
0.0
 10
79.81252710678298
 20
-127.7818643886275
 30
0.0
 10
79.81252710678298
 20
-127.9234578130712
 30
0.0
 10
79.9415459327056
 20
-128.0123412765907
 30
0.0
 10
79.9415459327056
 20
-128.0123412765907
 30
0.0
 10
79.92242565276246
 20
-128.1880411463384
 30
0.0
 10
79.92242565276246
 20
-128.1880411463384
 30
0.0
 10
79.92242565276246
 20
-128.1880411463384
 30
0.0
 10
79.07631020158509
 20
-128.0674628043547
 30
0.0
 10
79.07631020158509
 20
-128.0674628043547
 30
0.0
 10
79.07631020158509
 20
-128.0674628043547
 30
0.0
 10
79.07631020158509
 20
-127.2888712246882
 30
0.0
 10
79.07631020158509
 20
-127.2888712246882
 30
0.0
 10
79.07631020158509
 20
-127.2888712246882
 30
0.0
 10
79.27095809650172
 20
-127.2888712246882
 30
0.0
 10
79.27095809650172
 20
-127.2888712246882
 30
0.0
 10
79.27095809650172
 20
-127.2888712246882
 30
0.0
 10
79.27095809650172
 20
-127.9045097879024
 30
0.0
 10
79.27095809650172
 20
-127.9045097879024
 30
0.0
 10
79.27095809650172
 20
-127.9045097879024
 30
0.0
 10
79.69401582209039
 20
-127.9701388568964
 30
0.0
 10
79.69401582209039
 20
-127.9701388568964
 30
0.0
 10
79.66025388633494
 20
-127.9088161572589
 30
0.0
 10
79.61994626915752
 20
-127.8263061203872
 30
0.0
 10
79.61994626915752
 20
-127.7077948356946
 30
0.0
 10
79.61994626915752
 20
-127.4538912984317
 30
0.0
 10
79.80615368013527
 20
-127.2170409838208
 30
0.0
 10
80.11931285974448
 20
-127.2170409838208
 30
0.0
 10
80.436606153936
 20
-127.2170409838208
 30
0.0
 10
80.67138941125577
 20
-127.4411444451362
 30
0.0
 10
80.67138941125577
 20
-127.7437960835154
 30
0.0
  0
HATCH
  5
15C
330
14B
100
AcDbEntity
  8
_U+30EC_U+30A4_U+30E4_U+30FC 1
 62
   179
420
  2234388
100
AcDbHatch
 10
0.0
 20
0.0
 30
0.0
210
0.0
220
0.0
230
1.0
  2
SOLID
 70
     1
 71
     0
 91
        1
 92
        1
 93
        1
 72
     4
 94
        3
 73
     0
 74
     1
 95
       53
 96
       49
 40
0.0
 40
0.0
 40
0.0
 40
0.0
 40
1.0
 40
1.0
 40
1.0
 40
2.0
 40
2.0
 40
2.0
 40
3.0
 40
3.0
 40
3.0
 40
4.0
 40
4.0
 40
4.0
 40
5.0
 40
5.0
 40
5.0
 40
6.0
 40
6.0
 40
6.0
 40
7.0
 40
7.0
 40
7.0
 40
8.0
 40
8.0
 40
8.0
 40
9.0
 40
9.0
 40
9.0
 40
10.0
 40
10.0
 40
10.0
 40
11.0
 40
11.0
 40
11.0
 40
12.0
 40
12.0
 40
12.0
 40
13.0
 40
13.0
 40
13.0
 40
14.0
 40
14.0
 40
14.0
 40
15.0
 40
15.0
 40
15.0
 40
16.0
 40
16.0
 40
16.0
 40
16.0
 10
80.67138941125577
 20
-127.7437960835154
 10
80.67138941125577
 20
-127.8219997510306
 10
80.65450844337805
 20
-127.9234578130712
 10
80.59094643167518
 20
-128.0250881298861
 10
80.48104788569572
 20
-128.1985486875684
 10
80.34978974770769
 20
-128.2197360248027
 10
80.24195825901937
 20
-128.2386840499716
 10
80.24195825901937
 20
-128.2386840499716
 10
80.24195825901937
 20
-128.0166476459472
 10
80.24195825901937
 20
-128.0166476459472
 10
80.4407402685183
 20
-127.9616983729575
 10
80.47036808969143
 20
-127.834746604326
 10
80.47036808969143
 20
-127.74155677145
 10
80.47036808969143
 20
-127.6020304042974
 10
80.37097708494198
 20
-127.4495849290751
 10
80.13826088491335
 20
-127.4495849290751
 10
79.8822902903593
 20
-127.4495849290751
 10
79.81252710678298
 20
-127.6294189134051
 10
79.81252710678298
 20
-127.7499972553889
 10
79.81252710678298
 20
-127.7818643886275
 10
79.81252710678298
 20
-127.9234578130712
 10
79.9415459327056
 20
-128.0123412765907
 10
79.9415459327056
 20
-128.0123412765907
 10
79.92242565276246
 20
-128.1880411463384
 10
79.92242565276246
 20
-128.1880411463384
 10
79.92242565276246
 20
-128.1880411463384
 10
79.07631020158509
 20
-128.0674628043547
 10
79.07631020158509
 20
-128.0674628043547
 10
79.07631020158509
 20
-128.0674628043547
 10
79.07631020158509
 20
-127.2888712246882
 10
79.07631020158509
 20
-127.2888712246882
 10
79.07631020158509
 20
-127.2888712246882
 10
79.27095809650172
 20
-127.2888712246882
 10
79.27095809650172
 20
-127.2888712246882
 10
79.27095809650172
 20
-127.2888712246882
 10
79.27095809650172
 20
-127.9045097879024
 10
79.27095809650172
 20
-127.9045097879024
 10
79.27095809650172
 20
-127.9045097879024
 10
79.69401582209039
 20
-127.9701388568964
 10
79.69401582209039
 20
-127.9701388568964
 10
79.66025388633494
 20
-127.9088161572589
 10
79.61994626915752
 20
-127.8263061203872
 10
79.61994626915752
 20
-127.7077948356946
 10
79.61994626915752
 20
-127.4538912984317
 10
79.80615368013527
 20
-127.2170409838208
 10
80.11931285974448
 20
-127.2170409838208
 10
80.436606153936
 20
-127.2170409838208
 10
80.67138941125577
 20
-127.4411444451362
 10
80.67138941125577
 20
-127.7437960835154
 97
        0
 97
        0
 75
     2
 76
     1
 98
        0
  0
ENDBLK
  5
14E
330
14B
100
AcDbEntity
  8
0
100
AcDbBlockEnd
  0
BLOCK
  5
15F
330
15D
100
AcDbEntity
  8
0
100
AcDbBlockBegin
  2
block 15
 70
     0
 10
0.0
 20
0.0
 30
0.0
  3
block 15
  1

  0
SPLINE
  5
161
330
15D
100
AcDbEntity
  8
_U+30EC_U+30A4_U+30E4_U+30FC 1
 62
   179
420
  2234388
370
    25
100
AcDbSpline
210
0.0
220
0.0
230
1.0
 70
    11
 71
     3
 72
    17
 73
    13
 74
     0
 42
0.0000000001
 43
0.0000000001
 12
1.0
 22
0.0
 32
0.0
 13
1.0
 23
0.0
 33
0.0
 40
0.0
 40
0.0
 40
0.0
 40
0.0
 40
1.0
 40
1.0
 40
1.0
 40
2.0
 40
2.0
 40
2.0
 40
3.0
 40
3.0
 40
3.0
 40
4.0
 40
4.0
 40
4.0
 40
4.0
 10
87.02932305747477
 20
-117.6648296928059
 30
0.0
 10
87.02932305747477
 20
-117.6772121928029
 30
0.0
 10
87.01344805787977
 20
-117.6889244150221
 30
0.0
 10
86.99348083616697
 20
-117.6889244150221
 30
0.0
 10
86.97418608936763
 20
-117.6889244150221
 30
0.0
 10
86.9583441703967
 20
-117.6772121928029
 30
0.0
 10
86.9583441703967
 20
-117.6648296928059
 30
0.0
 10
86.9583441703967
 20
-117.6510360816983
 30
0.0
 10
86.97418608936763
 20
-117.640382192812
 30
0.0
 10
86.99348083616697
 20
-117.640382192812
 30
0.0
 10
87.01344805787977
 20
-117.640382192812
 30
0.0
 10
87.02932305747477
 20
-117.6510360816983
 30
0.0
 10
87.02932305747477
 20
-117.6648296928059
 30
0.0
  0
ENDBLK
  5
160
330
15D
100
AcDbEntity
  8
0
100
AcDbBlockEnd
  0
BLOCK
  5
1A4
330
1A2
100
AcDbEntity
  8
0
100
AcDbBlockBegin
  2
block 16
 70
     0
 10
0.0
 20
0.0
 30
0.0
  3
block 16
  1

  0
POLYLINE
  5
1A6
330
1A2
100
AcDbEntity
  8
_U+30EC_U+30A4_U+30E4_U+30FC 1
 62
   179
420
  2234388
370
    25
100
AcDb2dPolyline
 66
     1
 10
0.0
 20
0.0
 30
0.0
  0
VERTEX
  5
1A7
330
1A6
100
AcDbEntity
  8
_U+30EC_U+30A4_U+30E4_U+30FC 1
 62
   179
420
  2234388
370
    25
100
AcDbVertex
100
AcDb2dVertex
 10
96.01654838374711
 20
-129.034328301075
 30
0.0
  0
VERTEX
  5
1A8
330
1A6
100
AcDbEntity
  8
_U+30EC_U+30A4_U+30E4_U+30FC 1
 62
   179
420
  2234388
370
    25
100
AcDbVertex
100
AcDb2dVertex
 10
99.92430553057449
 20
-129.034328301075
 30
0.0
  0
SEQEND
  5
1A9
330
1A6
100
AcDbEntity
  8
_U+30EC_U+30A4_U+30E4_U+30FC 1
 62
   179
420
  2234388
370
    25
  0
POLYLINE
  5
1AA
330
1A2
100
AcDbEntity
  8
_U+30EC_U+30A4_U+30E4_U+30FC 1
 62
   179
420
  2234388
370
    25
100
AcDb2dPolyline
 66
     1
 10
0.0
 20
0.0
 30
0.0
  0
VERTEX
  5
1AB
330
1AA
100
AcDbEntity
  8
_U+30EC_U+30A4_U+30E4_U+30FC 1
 62
   179
420
  2234388
370
    25
100
AcDbVertex
100
AcDb2dVertex
 10
89.92386465029553
 20
-129.034328301075
 30
0.0
  0
VERTEX
  5
1AC
330
1AA
100
AcDbEntity
  8
_U+30EC_U+30A4_U+30E4_U+30FC 1
 62
   179
420
  2234388
370
    25
100
AcDbVertex
100
AcDb2dVertex
 10
92.72372068997636
 20
-129.034328301075
 30
0.0
  0
SEQEND
  5
1AD
330
1AA
100
AcDbEntity
  8
_U+30EC_U+30A4_U+30E4_U+30FC 1
 62
   179
420
  2234388
370
    25
  0
POLYLINE
  5
1AE
330
1A2
100
AcDbEntity
  8
_U+30EC_U+30A4_U+30E4_U+30FC 1
 62
   179
420
  2234388
370
    25
100
AcDb2dPolyline
 66
     1
 10
0.0
 20
0.0
 30
0.0
  0
VERTEX
  5
1AF
330
1AE
100
AcDbEntity
  8
_U+30EC_U+30A4_U+30E4_U+30FC 1
 62
   179
420
  2234388
370
    25
100
AcDbVertex
100
AcDb2dVertex
 10
93.86093510540805
 20
-127.3324577459446
 30
0.0
  0
VERTEX
  5
1B0
330
1AE
100
AcDbEntity
  8
_U+30EC_U+30A4_U+30E4_U+30FC 1
 62
   179
420
  2234388
370
    25
100
AcDbVertex
100
AcDb2dVertex
 10
95.98723255116168
 20
-127.3324577459446
 30
0.0
  0
SEQEND
  5
1B1
330
1AE
100
AcDbEntity
  8
_U+30EC_U+30A4_U+30E4_U+30FC 1
 62
   179
420
  2234388
370
    25
  0
POLYLINE
  5
1B2
330
1A2
100
AcDbEntity
  8
_U+30EC_U+30A4_U+30E4_U+30FC 1
 62
   179
420
  2234388
370
    25
100
AcDb2dPolyline
 66
     1
 10
0.0
 20
0.0
 30
0.0
  0
VERTEX
  5
1B3
330
1B2
100
AcDbEntity
  8
_U+30EC_U+30A4_U+30E4_U+30FC 1
 62
   179
420
  2234388
370
    25
100
AcDbVertex
100
AcDb2dVertex
 10
88.92412773135649
 20
-123.1776527469834
 30
0.0
  0
VERTEX
  5
1B4
330
1B2
100
AcDbEntity
  8
_U+30EC_U+30A4_U+30E4_U+30FC 1
 62
   179
420
  2234388
370
    25
100
AcDbVertex
100
AcDb2dVertex
 10
89.67445076776971
 20
-124.5254049688685
 30
0.0
  0
SEQEND
  5
1B5
330
1B2
100
AcDbEntity
  8
_U+30EC_U+30A4_U+30E4_U+30FC 1
 62
   179
420
  2234388
370
    25
  0
POLYLINE
  5
1B6
330
1A2
100
AcDbEntity
  8
_U+30EC_U+30A4_U+30E4_U+30FC 1
 62
   179
420
  2234388
370
    25
100
AcDb2dPolyline
 66
     1
 10
0.0
 20
0.0
 30
0.0
  0
VERTEX
  5
1B7
330
1B6
100
AcDbEntity
  8
_U+30EC_U+30A4_U+30E4_U+30FC 1
 62
   179
420
  2234388
370
    25
100
AcDbVertex
100
AcDb2dVertex
 10
91.36873886604657
 20
-124.1756963578449
 30
0.0
  0
VERTEX
  5
1B8
330
1B6
100
AcDbEntity
  8
_U+30EC_U+30A4_U+30E4_U+30FC 1
 62
   179
420
  2234388
370
    25
100
AcDbVertex
100
AcDb2dVertex
 10
91.17446184061237
 20
-124.5254049688685
 30
0.0
  0
SEQEND
  5
1B9
330
1B6
100
AcDbEntity
  8
_U+30EC_U+30A4_U+30E4_U+30FC 1
 62
   179
420
  2234388
370
    25
  0
POLYLINE
  5
1BA
330
1A2
100
AcDbEntity
  8
_U+30EC_U+30A4_U+30E4_U+30FC 1
 62
   179
420
  2234388
370
    25
100
AcDb2dPolyline
 66
     1
 10
0.0
 20
0.0
 30
0.0
  0
VERTEX
  5
1BB
330
1BA
100
AcDbEntity
  8
_U+30EC_U+30A4_U+30E4_U+30FC 1
 62
   179
420
  2234388
370
    25
100
AcDbVertex
100
AcDb2dVertex
 10
100.924077752547
 20
-123.1776527469834
 30
0.0
  0
VERTEX
  5
1BC
330
1BA
100
AcDbEntity
  8
_U+30EC_U+30A4_U+30E4_U+30FC 1
 62
   179
420
  2234388
370
    25
100
AcDbVertex
100
AcDb2dVertex
 10
100.1744249749567
 20
-124.5254049688685
 30
0.0
  0
SEQEND
  5
1BD
330
1BA
100
AcDbEntity
  8
_U+30EC_U+30A4_U+30E4_U+30FC 1
 62
   179
420
  2234388
370
    25
  0
POLYLINE
  5
1BE
330
1A2
100
AcDbEntity
  8
_U+30EC_U+30A4_U+30E4_U+30FC 1
 62
   179
420
  2234388
370
    25
100
AcDb2dPolyline
 66
     1
 10
0.0
 20
0.0
 30
0.0
  0
VERTEX
  5
1BF
330
1BE
100
AcDbEntity
  8
_U+30EC_U+30A4_U+30E4_U+30FC 1
 62
   179
420
  2234388
370
    25
100
AcDbVertex
100
AcDb2dVertex
 10
98.4794310986915
 20
-124.1756963578449
 30
0.0
  0
VERTEX
  5
1C0
330
1BE
100
AcDbEntity
  8
_U+30EC_U+30A4_U+30E4_U+30FC 1
 62
   179
420
  2234388
370
    25
100
AcDbVertex
100
AcDb2dVertex
 10
98.67441386422041
 20
-124.5254049688685
 30
0.0
  0
SEQEND
  5
1C1
330
1BE
100
AcDbEntity
  8
_U+30EC_U+30A4_U+30E4_U+30FC 1
 62
   179
420
  2234388
370
    25
  0
SPLINE
  5
1C2
330
1A2
100
AcDbEntity
  8
_U+30EC_U+30A4_U+30E4_U+30FC 1
 62
   179
420
  2234388
370
    25
100
AcDbSpline
210
0.0
220
0.0
230
1.0
 70
     8
 71
     3
 72
    17
 73
    13
 74
     0
 42
0.0000000001
 43
0.0000000001
 12
1.0
 22
0.0
 32
0.0
 13
1.0
 23
0.0
 33
0.0
 40
0.0
 40
0.0
 40
0.0
 40
0.0
 40
1.0
 40
1.0
 40
1.0
 40
2.0
 40
2.0
 40
2.0
 40
3.0
 40
3.0
 40
3.0
 40
4.0
 40
4.0
 40
4.0
 40
4.0
 10
89.67445076776971
 20
-124.5254049688685
 30
0.0
 10
88.95651273053029
 20
-124.8774771910029
 30
0.0
 10
88.7111910701223
 20
-125.6584919130298
 30
0.0
 10
89.1253168928904
 20
-126.2689385795439
 30
0.0
 10
89.53940743788162
 20
-126.8794205238356
 30
0.0
 10
90.45648852559606
 20
-127.0885471904502
 30
0.0
 10
91.17446184061237
 20
-126.7364396905383
 30
0.0
 10
91.89172960009111
 20
-126.3840146906261
 30
0.0
 10
92.13768626048291
 20
-125.6029999685992
 30
0.0
 10
91.72292775484719
 20
-124.992870802085
 30
0.0
 10
91.59130405220004
 20
-124.7989135799113
 30
0.0
 10
91.40253266812712
 20
-124.6373413577296
 30
0.0
 10
91.17446184061237
 20
-124.5254049688685
 30
0.0
  0
SPLINE
  5
1C3
330
1A2
100
AcDbEntity
  8
_U+30EC_U+30A4_U+30E4_U+30FC 1
 62
   179
420
  2234388
370
    25
100
AcDbSpline
210
0.0
220
0.0
230
1.0
 70
     8
 71
     3
 72
     8
 73
     4
 74
     0
 42
0.0000000001
 43
0.0000000001
 12
1.0
 22
0.0
 32
0.0
 13
1.0
 23
0.0
 33
0.0
 40
0.0
 40
0.0
 40
0.0
 40
0.0
 40
1.0
 40
1.0
 40
1.0
 40
1.0
 10
93.40274733931962
 20
-126.7371452460935
 30
0.0
 10
93.8540583098697
 20
-125.8583052463134
 30
0.0
 10
93.73689844190582
 20
-124.8426933021226
 30
0.0
 10
93.09406679163915
 20
-124.0547994134307
 30
0.0
  0
SPLINE
  5
1C4
330
1A2
100
AcDbEntity
  8
_U+30EC_U+30A4_U+30E4_U+30FC 1
 62
   179
420
  2234388
370
    25
100
AcDbSpline
210
0.0
220
0.0
230
1.0
 70
     8
 71
     3
 72
    11
 73
     7
 74
     0
 42
0.0000000001
 43
0.0000000001
 12
1.0
 22
0.0
 32
0.0
 13
1.0
 23
0.0
 33
0.0
 40
0.0
 40
0.0
 40
0.0
 40
0.0
 40
1.0
 40
1.0
 40
1.0
 40
2.0
 40
2.0
 40
2.0
 40
2.0
 10
93.09406679163915
 20
-124.0547994134307
 30
0.0
 10
92.7798499768049
 20
-123.6682608024162
 30
0.0
 10
92.15631292667436
 20
-123.5731519135513
 30
0.0
 10
91.7029229382413
 20
-123.8401694134843
 30
0.0
 10
91.55891905302626
 20
-123.9252594134632
 30
0.0
 10
91.44384294485099
 20
-124.0403355245453
 30
0.0
 10
91.36873886604657
 20
-124.1756963578449
 30
0.0
  0
SPLINE
  5
1C5
330
1A2
100
AcDbEntity
  8
_U+30EC_U+30A4_U+30E4_U+30FC 1
 62
   179
420
  2234388
370
    25
100
AcDbSpline
210
0.0
220
0.0
230
1.0
 70
     8
 71
     3
 72
     8
 73
     4
 74
     0
 42
0.0000000001
 43
0.0000000001
 12
1.0
 22
0.0
 32
0.0
 13
1.0
 23
0.0
 33
0.0
 40
0.0
 40
0.0
 40
0.0
 40
0.0
 40
1.0
 40
1.0
 40
1.0
 40
1.0
 10
89.92386465029553
 20
-129.034328301075
 30
0.0
 10
89.37197910881974
 20
-129.034328301075
 30
0.0
 10
88.92412773135649
 20
-129.4150108009795
 30
0.0
 10
88.92412773135649
 20
-129.8849108008622
 30
0.0
  0
SPLINE
  5
1C6
330
1A2
100
AcDbEntity
  8
_U+30EC_U+30A4_U+30E4_U+30FC 1
 62
   179
420
  2234388
370
    25
100
AcDbSpline
210
0.0
220
0.0
230
1.0
 70
     8
 71
     3
 72
    11
 73
     7
 74
     0
 42
0.0000000001
 43
0.0000000001
 12
1.0
 22
0.0
 32
0.0
 13
1.0
 23
0.0
 33
0.0
 40
0.0
 40
0.0
 40
0.0
 40
0.0
 40
1.0
 40
1.0
 40
1.0
 40
2.0
 40
2.0
 40
2.0
 40
2.0
 10
93.40274733931962
 20
-126.7371452460935
 30
0.0
 10
93.2925042865766
 20
-126.9521280238176
 30
0.0
 10
93.40825067251255
 20
-127.2025649681994
 30
0.0
 10
93.66112177717238
 20
-127.2966155237314
 30
0.0
 10
93.72381038668416
 20
-127.3203927459476
 30
0.0
 10
93.79203760716577
 20
-127.3324577459446
 30
0.0
 10
93.86093510540805
 20
-127.3324577459446
 30
0.0
  0
SPLINE
  5
1C7
330
1A2
100
AcDbEntity
  8
_U+30EC_U+30A4_U+30E4_U+30FC 1
 62
   179
420
  2234388
370
    25
100
AcDbSpline
210
0.0
220
0.0
230
1.0
 70
     8
 71
     3
 72
    11
 73
     7
 74
     0
 42
0.0000000001
 43
0.0000000001
 12
1.0
 22
0.0
 32
0.0
 13
1.0
 23
0.0
 33
0.0
 40
0.0
 40
0.0
 40
0.0
 40
0.0
 40
1.0
 40
1.0
 40
1.0
 40
2.0
 40
2.0
 40
2.0
 40
2.0
 10
98.4794310986915
 20
-124.1756963578449
 30
0.0
 10
98.24310527138735
 20
-123.750599135729
 30
0.0
 10
97.64708723103749
 20
-123.5690244135523
 30
0.0
 10
97.14755391044831
 20
-123.7702135801684
 30
0.0
 10
96.98908613671338
 20
-123.8343133023747
 30
0.0
 10
96.85333725128773
 20
-123.9321385801282
 30
0.0
 10
96.75413614270745
 20
-124.0547994134307
 30
0.0
  0
SPLINE
  5
1C8
330
1A2
100
AcDbEntity
  8
_U+30EC_U+30A4_U+30E4_U+30FC 1
 62
   179
420
  2234388
370
    25
100
AcDbSpline
210
0.0
220
0.0
230
1.0
 70
     8
 71
     3
 72
     8
 73
     4
 74
     0
 42
0.0000000001
 43
0.0000000001
 12
1.0
 22
0.0
 32
0.0
 13
1.0
 23
0.0
 33
0.0
 40
0.0
 40
0.0
 40
0.0
 40
0.0
 40
1.0
 40
1.0
 40
1.0
 40
1.0
 10
100.924077752547
 20
-129.8849108008622
 30
0.0
 10
100.924077752547
 20
-129.4150108009795
 30
0.0
 10
100.4762238255269
 20
-129.034328301075
 30
0.0
 10
99.92430553057449
 20
-129.034328301075
 30
0.0
  0
SPLINE
  5
1C9
330
1A2
100
AcDbEntity
  8
_U+30EC_U+30A4_U+30E4_U+30FC 1
 62
   179
420
  2234388
370
    25
100
AcDbSpline
210
0.0
220
0.0
230
1.0
 70
     8
 71
     3
 72
    17
 73
    13
 74
     0
 42
0.0000000001
 43
0.0000000001
 12
1.0
 22
0.0
 32
0.0
 13
1.0
 23
0.0
 33
0.0
 40
0.0
 40
0.0
 40
0.0
 40
0.0
 40
1.0
 40
1.0
 40
1.0
 40
2.0
 40
2.0
 40
2.0
 40
3.0
 40
3.0
 40
3.0
 40
4.0
 40
4.0
 40
4.0
 40
4.0
 10
98.67441386422041
 20
-124.5254049688685
 30
0.0
 10
97.95647333425549
 20
-124.8774771910029
 30
0.0
 10
97.71118695162438
 20
-125.6584919130298
 30
0.0
 10
98.12527749661561
 20
-126.2689385795439
 30
0.0
 10
98.53936804160683
 20
-126.8794205238356
 30
0.0
 10
99.45644912932126
 20
-127.0885471904502
 30
0.0
 10
100.1744249749567
 20
-126.7364396905383
 30
0.0
 10
100.8916902038163
 20
-126.3840146906261
 30
0.0
 10
101.137682141985
 20
-125.6029999685992
 30
0.0
 10
100.7228860414562
 20
-124.992870802085
 30
0.0
 10
100.5912646559253
 20
-124.7989135799113
 30
0.0
 10
100.4024932718523
 20
-124.6373413577296
 30
0.0
 10
100.1744249749567
 20
-124.5254049688685
 30
0.0
  0
SPLINE
  5
1CA
330
1A2
100
AcDbEntity
  8
_U+30EC_U+30A4_U+30E4_U+30FC 1
 62
   179
420
  2234388
370
    25
100
AcDbSpline
210
0.0
220
0.0
230
1.0
 70
     8
 71
     3
 72
     8
 73
     4
 74
     0
 42
0.0000000001
 43
0.0000000001
 12
1.0
 22
0.0
 32
0.0
 13
1.0
 23
0.0
 33
0.0
 40
0.0
 40
0.0
 40
0.0
 40
0.0
 40
1.0
 40
1.0
 40
1.0
 40
1.0
 10
96.75413614270745
 20
-124.0547994134307
 30
0.0
 10
96.1112692146639
 20
-124.8426933021226
 30
0.0
 10
95.9948172731904
 20
-125.8583052463134
 30
0.0
 10
96.445455595027
 20
-126.7371452460935
 30
0.0
  0
SPLINE
  5
1CB
330
1A2
100
AcDbEntity
  8
_U+30EC_U+30A4_U+30E4_U+30FC 1
 62
   179
420
  2234388
370
    25
100
AcDbSpline
210
0.0
220
0.0
230
1.0
 70
     8
 71
     3
 72
    11
 73
     7
 74
     0
 42
0.0000000001
 43
0.0000000001
 12
1.0
 22
0.0
 32
0.0
 13
1.0
 23
0.0
 33
0.0
 40
0.0
 40
0.0
 40
0.0
 40
0.0
 40
1.0
 40
1.0
 40
1.0
 40
2.0
 40
2.0
 40
2.0
 40
2.0
 10
95.98723255116168
 20
-127.3324577459446
 30
0.0
 10
96.26353053148954
 20
-127.3324577459446
 30
0.0
 10
96.48747142728841
 20
-127.1419224682144
 30
0.0
 10
96.48747142728841
 20
-126.9069724682734
 30
0.0
 10
96.48747142728841
 20
-126.8484113571769
 30
0.0
 10
96.47300753876853
 20
-126.7905558016356
 30
0.0
 10
96.445455595027
 20
-126.7371452460935
 30
0.0
  0
ENDBLK
  5
1A5
330
1A2
100
AcDbEntity
  8
0
100
AcDbBlockEnd
  0
BLOCK
  5
1CE
330
1CC
100
AcDbEntity
  8
0
100
AcDbBlockBegin
  2
block 17
 70
     0
 10
0.0
 20
0.0
 30
0.0
  3
block 17
  1

  0
SPLINE
  5
1D0
330
1CC
100
AcDbEntity
  8
_U+30EC_U+30A4_U+30E4_U+30FC 1
 62
   179
420
  2234388
370
    25
100
AcDbSpline
210
0.0
220
0.0
230
1.0
 70
    11
 71
     3
 72
    17
 73
    13
 74
     0
 42
0.0000000001
 43
0.0000000001
 12
1.0
 22
0.0
 32
0.0
 13
1.0
 23
0.0
 33
0.0
 40
0.0
 40
0.0
 40
0.0
 40
0.0
 40
1.0
 40
1.0
 40
1.0
 40
2.0
 40
2.0
 40
2.0
 40
3.0
 40
3.0
 40
3.0
 40
4.0
 40
4.0
 40
4.0
 40
4.0
 10
87.02932305747477
 20
-117.6648296928059
 30
0.0
 10
87.02932305747477
 20
-117.6772121928029
 30
0.0
 10
87.01344805787977
 20
-117.6889244150221
 30
0.0
 10
86.99348083616697
 20
-117.6889244150221
 30
0.0
 10
86.97418608936763
 20
-117.6889244150221
 30
0.0
 10
86.9583441703967
 20
-117.6772121928029
 30
0.0
 10
86.9583441703967
 20
-117.6648296928059
 30
0.0
 10
86.9583441703967
 20
-117.6510360816983
 30
0.0
 10
86.97418608936763
 20
-117.640382192812
 30
0.0
 10
86.99348083616697
 20
-117.640382192812
 30
0.0
 10
87.01344805787977
 20
-117.640382192812
 30
0.0
 10
87.02932305747477
 20
-117.6510360816983
 30
0.0
 10
87.02932305747477
 20
-117.6648296928059
 30
0.0
  0
ENDBLK
  5
1CF
330
1CC
100
AcDbEntity
  8
0
100
AcDbBlockEnd
  0
BLOCK
  5
1D3
330
1D1
100
AcDbEntity
  8
0
100
AcDbBlockBegin
  2
block 18
 70
     0
 10
0.0
 20
0.0
 30
0.0
  3
block 18
  1

  0
SPLINE
  5
1D5
330
1D1
100
AcDbEntity
  8
_U+30EC_U+30A4_U+30E4_U+30FC 1
 62
   179
420
  2234388
370
    25
100
AcDbSpline
210
0.0
220
0.0
230
1.0
 70
    11
 71
     3
 72
    17
 73
    13
 74
     0
 42
0.0000000001
 43
0.0000000001
 12
1.0
 22
0.0
 32
0.0
 13
1.0
 23
0.0
 33
0.0
 40
0.0
 40
0.0
 40
0.0
 40
0.0
 40
1.0
 40
1.0
 40
1.0
 40
2.0
 40
2.0
 40
2.0
 40
3.0
 40
3.0
 40
3.0
 40
4.0
 40
4.0
 40
4.0
 40
4.0
 10
103.0290295937327
 20
-117.6648296928059
 30
0.0
 10
103.0290295937327
 20
-117.6772121928029
 30
0.0
 10
103.0131898719146
 20
-117.6889244150221
 30
0.0
 10
102.9938929279624
 20
-117.6889244150221
 30
0.0
 10
102.9745959840103
 20
-117.6889244150221
 30
0.0
 10
102.9587562621922
 20
-117.6772121928029
 30
0.0
 10
102.9587562621922
 20
-117.6648296928059
 30
0.0
 10
102.9587562621922
 20
-117.6510360816983
 30
0.0
 10
102.9745959840103
 20
-117.640382192812
 30
0.0
 10
102.9938929279624
 20
-117.640382192812
 30
0.0
 10
103.0131898719146
 20
-117.640382192812
 30
0.0
 10
103.0290295937327
 20
-117.6510360816983
 30
0.0
 10
103.0290295937327
 20
-117.6648296928059
 30
0.0
  0
ENDBLK
  5
1D4
330
1D1
100
AcDbEntity
  8
0
100
AcDbBlockEnd
  0
BLOCK
  5
1D8
330
1D6
100
AcDbEntity
  8
0
100
AcDbBlockBegin
  2
block 19
 70
     0
 10
0.0
 20
0.0
 30
0.0
  3
block 19
  1

  0
SPLINE
  5
1DA
330
1D6
100
AcDbEntity
  8
_U+30EC_U+30A4_U+30E4_U+30FC 1
 62
   179
420
  2234388
370
    25
100
AcDbSpline
210
0.0
220
0.0
230
1.0
 70
    11
 71
     3
 72
    17
 73
    13
 74
     0
 42
0.0000000001
 43
0.0000000001
 12
1.0
 22
0.0
 32
0.0
 13
1.0
 23
0.0
 33
0.0
 40
0.0
 40
0.0
 40
0.0
 40
0.0
 40
1.0
 40
1.0
 40
1.0
 40
2.0
 40
2.0
 40
2.0
 40
3.0
 40
3.0
 40
3.0
 40
4.0
 40
4.0
 40
4.0
 40
4.0
 10
87.02932305747477
 20
-117.6648296928059
 30
0.0
 10
87.02932305747477
 20
-117.6772121928029
 30
0.0
 10
87.01344805787977
 20
-117.6889244150221
 30
0.0
 10
86.99348083616697
 20
-117.6889244150221
 30
0.0
 10
86.97418608936763
 20
-117.6889244150221
 30
0.0
 10
86.9583441703967
 20
-117.6772121928029
 30
0.0
 10
86.9583441703967
 20
-117.6648296928059
 30
0.0
 10
86.9583441703967
 20
-117.6510360816983
 30
0.0
 10
86.97418608936763
 20
-117.640382192812
 30
0.0
 10
86.99348083616697
 20
-117.640382192812
 30
0.0
 10
87.01344805787977
 20
-117.640382192812
 30
0.0
 10
87.02932305747477
 20
-117.6510360816983
 30
0.0
 10
87.02932305747477
 20
-117.6648296928059
 30
0.0
  0
ENDBLK
  5
1D9
330
1D6
100
AcDbEntity
  8
0
100
AcDbBlockEnd
  0
ENDSEC
  0
SECTION
  2
ENTITIES
  0
SPLINE
  5
41
330
1F
100
AcDbEntity
  8
_U+30EC_U+30A4_U+30E4_U+30FC 1
370
     0
100
AcDbSpline
210
0.0
220
0.0
230
1.0
 70
    11
 71
     3
 72
   134
 73
   130
 74
     0
 42
0.0000000001
 43
0.0000000001
 12
1.0
 22
0.0
 32
0.0
 13
1.0
 23
0.0
 33
0.0
 40
0.0
 40
0.0
 40
0.0
 40
0.0
 40
1.0
 40
1.0
 40
1.0
 40
2.0
 40
2.0
 40
2.0
 40
3.0
 40
3.0
 40
3.0
 40
4.0
 40
4.0
 40
4.0
 40
5.0
 40
5.0
 40
5.0
 40
6.0
 40
6.0
 40
6.0
 40
7.0
 40
7.0
 40
7.0
 40
8.0
 40
8.0
 40
8.0
 40
9.0
 40
9.0
 40
9.0
 40
10.0
 40
10.0
 40
10.0
 40
11.0
 40
11.0
 40
11.0
 40
12.0
 40
12.0
 40
12.0
 40
13.0
 40
13.0
 40
13.0
 40
14.0
 40
14.0
 40
14.0
 40
15.0
 40
15.0
 40
15.0
 40
16.0
 40
16.0
 40
16.0
 40
17.0
 40
17.0
 40
17.0
 40
18.0
 40
18.0
 40
18.0
 40
19.0
 40
19.0
 40
19.0
 40
20.0
 40
20.0
 40
20.0
 40
21.0
 40
21.0
 40
21.0
 40
22.0
 40
22.0
 40
22.0
 40
23.0
 40
23.0
 40
23.0
 40
24.0
 40
24.0
 40
24.0
 40
25.0
 40
25.0
 40
25.0
 40
26.0
 40
26.0
 40
26.0
 40
27.0
 40
27.0
 40
27.0
 40
28.0
 40
28.0
 40
28.0
 40
29.0
 40
29.0
 40
29.0
 40
30.0
 40
30.0
 40
30.0
 40
31.0
 40
31.0
 40
31.0
 40
32.0
 40
32.0
 40
32.0
 40
33.0
 40
33.0
 40
33.0
 40
34.0
 40
34.0
 40
34.0
 40
35.0
 40
35.0
 40
35.0
 40
36.0
 40
36.0
 40
36.0
 40
37.0
 40
37.0
 40
37.0
 40
38.0
 40
38.0
 40
38.0
 40
39.0
 40
39.0
 40
39.0
 40
40.0
 40
40.0
 40
40.0
 40
41.0
 40
41.0
 40
41.0
 40
42.0
 40
42.0
 40
42.0
 40
43.0
 40
43.0
 40
43.0
 40
43.0
 10
92.68477402430331
 20
-129.0284721899651
 30
0.0
 10
92.68477402430331
 20
-129.0284721899651
 30
0.0
 10
94.6123164751276
 20
-129.0284721899651
 30
0.0
 10
94.6123164751276
 20
-129.0284721899651
 30
0.0
 10
94.6123164751276
 20
-129.0284721899651
 30
0.0
 10
94.98749563222265
 20
-128.3787260790164
 30
0.0
 10
94.98749563222265
 20
-128.3787260790164
 30
0.0
 10
94.98749563222265
 20
-128.3787260790164
 30
0.0
 10
95.36232201154893
 20
-129.0284721899651
 30
0.0
 10
95.36232201154893
 20
-129.0284721899651
 30
0.0
 10
95.36232201154893
 20
-129.0284721899651
 30
0.0
 10
97.29018196236512
 20
-129.0284721899651
 30
0.0
 10
97.29018196236512
 20
-129.0284721899651
 30
0.0
 10
97.29018196236512
 20
-129.0284721899651
 30
0.0
 10
100.2791621638877
 20
-129.0581055232913
 30
0.0
 10
100.2791621638877
 20
-129.0581055232913
 30
0.0
 10
100.2791621638877
 20
-129.0581055232913
 30
0.0
 10
100.984717701443
 20
-129.9758569119503
 30
0.0
 10
100.984717701443
 20
-129.9758569119503
 30
0.0
 10
100.984717701443
 20
-129.9758569119503
 30
0.0
 10
100.9936782567699
 20
-140.4045324648991
 30
0.0
 10
100.9936782567699
 20
-140.4045324648991
 30
0.0
 10
100.9936782567699
 20
-140.4045324648991
 30
0.0
 10
98.99342830780057
 20
-140.4045324648991
 30
0.0
 10
98.99342830780057
 20
-140.4045324648991
 30
0.0
 10
98.99342830780057
 20
-140.4045324648991
 30
0.0
 10
98.99342830780057
 20
-142.4109560755086
 30
0.0
 10
98.99342830780057
 20
-142.4109560755086
 30
0.0
 10
98.99342830780057
 20
-142.4109560755086
 30
0.0
 10
104.9934020436174
 20
-142.4109560755086
 30
0.0
 10
104.9934020436174
 20
-142.4109560755086
 30
0.0
 10
104.9934020436174
 20
-142.4109560755086
 30
0.0
 10
104.9934020436174
 20
-140.4045324648991
 30
0.0
 10
104.9934020436174
 20
-140.4045324648991
 30
0.0
 10
104.9934020436174
 20
-140.4045324648991
 30
0.0
 10
102.9938929279624
 20
-140.4045324648991
 30
0.0
 10
102.9938929279624
 20
-140.4045324648991
 30
0.0
 10
102.9938929279624
 20
-140.4045324648991
 30
0.0
 10
103.0131898719146
 20
-117.7168291372373
 30
0.0
 10
103.0131898719146
 20
-117.7168291372373
 30
0.0
 10
103.0131898719146
 20
-117.7168291372373
 30
0.0
 10
99.13263441536024
 20
-117.7168291372373
 30
0.0
 10
99.13263441536024
 20
-117.7168291372373
 30
0.0
 10
99.13263441536024
 20
-117.7168291372373
 30
0.0
 10
99.04443997316582
 20
-118.8633569147285
 30
0.0
 10
99.04443997316582
 20
-118.8633569147285
 30
0.0
 10
99.04443997316582
 20
-118.8633569147285
 30
0.0
 10
100.984717701443
 20
-119.0397458035733
 30
0.0
 10
100.984717701443
 20
-119.0397458035733
 30
0.0
 10
100.984717701443
 20
-119.0397458035733
 30
0.0
 10
100.984717701443
 20
-123.0966902470035
 30
0.0
 10
100.984717701443
 20
-123.0966902470035
 30
0.0
 10
100.984717701443
 20
-123.0966902470035
 30
0.0
 10
100.1027732794988
 20
-124.331412468917
 30
0.0
 10
100.1027732794988
 20
-124.331412468917
 30
0.0
 10
102.1312454499704
 20
-126.5362735794769
 30
0.0
 10
99.48541218413791
 20
-126.8890513571665
 30
0.0
 10
99.48541218413791
 20
-126.8890513571665
 30
0.0
 10
96.57499559172216
 20
-126.3598846906321
 30
0.0
 10
98.60346776219374
 20
-124.4196069133394
 30
0.0
 10
98.60346776219374
 20
-124.4196069133394
 30
0.0
 10
98.16249555122165
 20
-123.2730791358483
 30
0.0
 10
97.19235668708308
 20
-123.7140513579602
 30
0.0
 10
97.19235668708308
 20
-123.7140513579602
 30
0.0
 10
95.2520789588059
 20
-124.8605791354514
 30
0.0
 10
96.57499559172216
 20
-127.0654402460113
 30
0.0
 10
96.57499559172216
 20
-127.0654402460113
 30
0.0
 10
96.57499559172216
 20
-127.0654402460113
 30
0.0
 10
96.35450948623611
 20
-127.3300235792785
 30
0.0
 10
96.35450948623611
 20
-127.3300235792785
 30
0.0
 10
96.35450948623611
 20
-127.3300235792785
 30
0.0
 10
93.50265400343746
 20
-127.3300235792785
 30
0.0
 10
93.50265400343746
 20
-127.3300235792785
 30
0.0
 10
93.50265400343746
 20
-127.3300235792785
 30
0.0
 10
93.22360678833432
 20
-127.0654402460113
 30
0.0
 10
93.22360678833432
 20
-127.0654402460113
 30
0.0
 10
94.10555121027848
 20
-125.8307180240977
 30
0.0
 10
93.31180123052873
 20
-124.1550235800722
 30
0.0
 10
93.31180123052873
 20
-124.1550235800722
 30
0.0
 10
91.37152350225156
 20
-122.8321069137363
 30
0.0
 10
91.28332906005714
 20
-124.5959958021842
 30
0.0
 10
91.28332906005714
 20
-124.5959958021842
 30
0.0
 10
93.04721790394548
 20
-127.0654402460113
 30
0.0
 10
89.9604124271409
 20
-126.7126624683217
 30
0.0
 10
89.9604124271409
 20
-126.7126624683217
 30
0.0
 10
87.93194025666931
 20
-126.0953013573649
 30
0.0
 10
89.60763465836322
 20
-124.4196069133394
 30
0.0
 10
89.60763465836322
 20
-124.4196069133394
 30
0.0
 10
89.60763465836322
 20
-124.4196069133394
 30
0.0
 10
88.9020791208079
 20
-123.2730791358483
 30
0.0
 10
88.9020791208079
 20
-123.2730791358483
 30
0.0
 10
88.9020791208079
 20
-123.2730791358483
 30
0.0
 10
88.9020791208079
 20
-118.9515513591509
 30
0.0
 10
88.9020791208079
 20
-118.9515513591509
 30
0.0
 10
88.9020791208079
 20
-118.9515513591509
 30
0.0
 10
91.01874573347389
 20
-118.9515513591509
 30
0.0
 10
91.01874573347389
 20
-118.9515513591509
 30
0.0
 10
91.01874573347389
 20
-118.9515513591509
 30
0.0
 10
91.01874573347389
 20
-117.6286346928149
 30
0.0
 10
91.01874573347389
 20
-117.6286346928149
 30
0.0
 10
91.01874573347389
 20
-117.6286346928149
 30
0.0
 10
86.96180139253073
 20
-117.6286346928149
 30
0.0
 10
86.96180139253073
 20
-117.6286346928149
 30
0.0
 10
86.96180139253073
 20
-117.6286346928149
 30
0.0
 10
86.99348083616697
 20
-140.4155391315628
 30
0.0
 10
86.99348083616697
 20
-140.4155391315628
 30
0.0
 10
86.99348083616697
 20
-140.4155391315628
 30
0.0
 10
84.99393644273515
 20
-140.4155391315628
 30
0.0
 10
84.99393644273515
 20
-140.4155391315628
 30
0.0
 10
84.99393644273515
 20
-140.4155391315628
 30
0.0
 10
84.99393644273515
 20
-142.4109560755086
 30
0.0
 10
84.99393644273515
 20
-142.4109560755086
 30
0.0
 10
84.99393644273515
 20
-142.4109560755086
 30
0.0
 10
90.99391017855194
 20
-142.3999141310667
 30
0.0
 10
90.99391017855194
 20
-142.3999141310667
 30
0.0
 10
90.99391017855194
 20
-142.3999141310667
 30
0.0
 10
90.99391017855194
 20
-140.3934905204572
 30
0.0
 10
90.99391017855194
 20
-140.3934905204572
 30
0.0
 10
90.99391017855194
 20
-140.3934905204572
 30
0.0
 10
88.99369550735946
 20
-140.4065785760093
 30
0.0
 10
88.99369550735946
 20
-140.4065785760093
 30
0.0
 10
88.99369550735946
 20
-140.4065785760093
 30
0.0
 10
88.9020791208079
 20
-129.8876624675279
 30
0.0
 10
88.9020791208079
 20
-129.8876624675279
 30
0.0
 10
88.9020791208079
 20
-129.8876624675279
 30
0.0
 10
89.69582910055765
 20
-129.005718023304
 30
0.0
 10
89.69582910055765
 20
-129.005718023304
 30
0.0
 10
89.69582910055765
 20
-129.005718023304
 30
0.0
 10
92.68477402430331
 20
-129.0284721899651
 30
0.0
 10
92.68477402430331
 20
-129.0284721899651
 30
0.0
  0
HATCH
  5
42
330
1F
100
AcDbEntity
  8
_U+30EC_U+30A4_U+30E4_U+30FC 1
 62
   253
420
 11711154
100
AcDbHatch
 10
0.0
 20
0.0
 30
0.0
210
0.0
220
0.0
230
1.0
  2
SOLID
 70
     1
 71
     0
 91
        1
 92
        1
 93
        1
 72
     4
 94
        3
 73
     0
 74
     1
 95
      134
 96
      130
 40
0.0
 40
0.0
 40
0.0
 40
0.0
 40
1.0
 40
1.0
 40
1.0
 40
2.0
 40
2.0
 40
2.0
 40
3.0
 40
3.0
 40
3.0
 40
4.0
 40
4.0
 40
4.0
 40
5.0
 40
5.0
 40
5.0
 40
6.0
 40
6.0
 40
6.0
 40
7.0
 40
7.0
 40
7.0
 40
8.0
 40
8.0
 40
8.0
 40
9.0
 40
9.0
 40
9.0
 40
10.0
 40
10.0
 40
10.0
 40
11.0
 40
11.0
 40
11.0
 40
12.0
 40
12.0
 40
12.0
 40
13.0
 40
13.0
 40
13.0
 40
14.0
 40
14.0
 40
14.0
 40
15.0
 40
15.0
 40
15.0
 40
16.0
 40
16.0
 40
16.0
 40
17.0
 40
17.0
 40
17.0
 40
18.0
 40
18.0
 40
18.0
 40
19.0
 40
19.0
 40
19.0
 40
20.0
 40
20.0
 40
20.0
 40
21.0
 40
21.0
 40
21.0
 40
22.0
 40
22.0
 40
22.0
 40
23.0
 40
23.0
 40
23.0
 40
24.0
 40
24.0
 40
24.0
 40
25.0
 40
25.0
 40
25.0
 40
26.0
 40
26.0
 40
26.0
 40
27.0
 40
27.0
 40
27.0
 40
28.0
 40
28.0
 40
28.0
 40
29.0
 40
29.0
 40
29.0
 40
30.0
 40
30.0
 40
30.0
 40
31.0
 40
31.0
 40
31.0
 40
32.0
 40
32.0
 40
32.0
 40
33.0
 40
33.0
 40
33.0
 40
34.0
 40
34.0
 40
34.0
 40
35.0
 40
35.0
 40
35.0
 40
36.0
 40
36.0
 40
36.0
 40
37.0
 40
37.0
 40
37.0
 40
38.0
 40
38.0
 40
38.0
 40
39.0
 40
39.0
 40
39.0
 40
40.0
 40
40.0
 40
40.0
 40
41.0
 40
41.0
 40
41.0
 40
42.0
 40
42.0
 40
42.0
 40
43.0
 40
43.0
 40
43.0
 40
43.0
 10
92.68477402430331
 20
-129.0284721899651
 10
92.68477402430331
 20
-129.0284721899651
 10
94.6123164751276
 20
-129.0284721899651
 10
94.6123164751276
 20
-129.0284721899651
 10
94.6123164751276
 20
-129.0284721899651
 10
94.98749563222265
 20
-128.3787260790164
 10
94.98749563222265
 20
-128.3787260790164
 10
94.98749563222265
 20
-128.3787260790164
 10
95.36232201154893
 20
-129.0284721899651
 10
95.36232201154893
 20
-129.0284721899651
 10
95.36232201154893
 20
-129.0284721899651
 10
97.29018196236512
 20
-129.0284721899651
 10
97.29018196236512
 20
-129.0284721899651
 10
97.29018196236512
 20
-129.0284721899651
 10
100.2791621638877
 20
-129.0581055232913
 10
100.2791621638877
 20
-129.0581055232913
 10
100.2791621638877
 20
-129.0581055232913
 10
100.984717701443
 20
-129.9758569119503
 10
100.984717701443
 20
-129.9758569119503
 10
100.984717701443
 20
-129.9758569119503
 10
100.9936782567699
 20
-140.4045324648991
 10
100.9936782567699
 20
-140.4045324648991
 10
100.9936782567699
 20
-140.4045324648991
 10
98.99342830780057
 20
-140.4045324648991
 10
98.99342830780057
 20
-140.4045324648991
 10
98.99342830780057
 20
-140.4045324648991
 10
98.99342830780057
 20
-142.4109560755086
 10
98.99342830780057
 20
-142.4109560755086
 10
98.99342830780057
 20
-142.4109560755086
 10
104.9934020436174
 20
-142.4109560755086
 10
104.9934020436174
 20
-142.4109560755086
 10
104.9934020436174
 20
-142.4109560755086
 10
104.9934020436174
 20
-140.4045324648991
 10
104.9934020436174
 20
-140.4045324648991
 10
104.9934020436174
 20
-140.4045324648991
 10
102.9938929279624
 20
-140.4045324648991
 10
102.9938929279624
 20
-140.4045324648991
 10
102.9938929279624
 20
-140.4045324648991
 10
103.0131898719146
 20
-117.7168291372373
 10
103.0131898719146
 20
-117.7168291372373
 10
103.0131898719146
 20
-117.7168291372373
 10
99.13263441536024
 20
-117.7168291372373
 10
99.13263441536024
 20
-117.7168291372373
 10
99.13263441536024
 20
-117.7168291372373
 10
99.04443997316582
 20
-118.8633569147285
 10
99.04443997316582
 20
-118.8633569147285
 10
99.04443997316582
 20
-118.8633569147285
 10
100.984717701443
 20
-119.0397458035733
 10
100.984717701443
 20
-119.0397458035733
 10
100.984717701443
 20
-119.0397458035733
 10
100.984717701443
 20
-123.0966902470035
 10
100.984717701443
 20
-123.0966902470035
 10
100.984717701443
 20
-123.0966902470035
 10
100.1027732794988
 20
-124.331412468917
 10
100.1027732794988
 20
-124.331412468917
 10
102.1312454499704
 20
-126.5362735794769
 10
99.48541218413791
 20
-126.8890513571665
 10
99.48541218413791
 20
-126.8890513571665
 10
96.57499559172216
 20
-126.3598846906321
 10
98.60346776219374
 20
-124.4196069133394
 10
98.60346776219374
 20
-124.4196069133394
 10
98.16249555122165
 20
-123.2730791358483
 10
97.19235668708308
 20
-123.7140513579602
 10
97.19235668708308
 20
-123.7140513579602
 10
95.2520789588059
 20
-124.8605791354514
 10
96.57499559172216
 20
-127.0654402460113
 10
96.57499559172216
 20
-127.0654402460113
 10
96.57499559172216
 20
-127.0654402460113
 10
96.35450948623611
 20
-127.3300235792785
 10
96.35450948623611
 20
-127.3300235792785
 10
96.35450948623611
 20
-127.3300235792785
 10
93.50265400343746
 20
-127.3300235792785
 10
93.50265400343746
 20
-127.3300235792785
 10
93.50265400343746
 20
-127.3300235792785
 10
93.22360678833432
 20
-127.0654402460113
 10
93.22360678833432
 20
-127.0654402460113
 10
94.10555121027848
 20
-125.8307180240977
 10
93.31180123052873
 20
-124.1550235800722
 10
93.31180123052873
 20
-124.1550235800722
 10
91.37152350225156
 20
-122.8321069137363
 10
91.28332906005714
 20
-124.5959958021842
 10
91.28332906005714
 20
-124.5959958021842
 10
93.04721790394548
 20
-127.0654402460113
 10
89.9604124271409
 20
-126.7126624683217
 10
89.9604124271409
 20
-126.7126624683217
 10
87.93194025666931
 20
-126.0953013573649
 10
89.60763465836322
 20
-124.4196069133394
 10
89.60763465836322
 20
-124.4196069133394
 10
89.60763465836322
 20
-124.4196069133394
 10
88.9020791208079
 20
-123.2730791358483
 10
88.9020791208079
 20
-123.2730791358483
 10
88.9020791208079
 20
-123.2730791358483
 10
88.9020791208079
 20
-118.9515513591509
 10
88.9020791208079
 20
-118.9515513591509
 10
88.9020791208079
 20
-118.9515513591509
 10
91.01874573347389
 20
-118.9515513591509
 10
91.01874573347389
 20
-118.9515513591509
 10
91.01874573347389
 20
-118.9515513591509
 10
91.01874573347389
 20
-117.6286346928149
 10
91.01874573347389
 20
-117.6286346928149
 10
91.01874573347389
 20
-117.6286346928149
 10
86.96180139253073
 20
-117.6286346928149
 10
86.96180139253073
 20
-117.6286346928149
 10
86.96180139253073
 20
-117.6286346928149
 10
86.99348083616697
 20
-140.4155391315628
 10
86.99348083616697
 20
-140.4155391315628
 10
86.99348083616697
 20
-140.4155391315628
 10
84.99393644273515
 20
-140.4155391315628
 10
84.99393644273515
 20
-140.4155391315628
 10
84.99393644273515
 20
-140.4155391315628
 10
84.99393644273515
 20
-142.4109560755086
 10
84.99393644273515
 20
-142.4109560755086
 10
84.99393644273515
 20
-142.4109560755086
 10
90.99391017855194
 20
-142.3999141310667
 10
90.99391017855194
 20
-142.3999141310667
 10
90.99391017855194
 20
-142.3999141310667
 10
90.99391017855194
 20
-140.3934905204572
 10
90.99391017855194
 20
-140.3934905204572
 10
90.99391017855194
 20
-140.3934905204572
 10
88.99369550735946
 20
-140.4065785760093
 10
88.99369550735946
 20
-140.4065785760093
 10
88.99369550735946
 20
-140.4065785760093
 10
88.9020791208079
 20
-129.8876624675279
 10
88.9020791208079
 20
-129.8876624675279
 10
88.9020791208079
 20
-129.8876624675279
 10
89.69582910055765
 20
-129.005718023304
 10
89.69582910055765
 20
-129.005718023304
 10
89.69582910055765
 20
-129.005718023304
 10
92.68477402430331
 20
-129.0284721899651
 10
92.68477402430331
 20
-129.0284721899651
 97
        0
 97
        0
 75
     2
 76
     1
 98
        0
  0
POLYLINE
  5
43
330
1F
100
AcDbEntity
  8
_U+30EC_U+30A4_U+30E4_U+30FC 1
 62
   179
420
  2234388
370
    25
100
AcDb2dPolyline
 66
     1
 10
0.0
 20
0.0
 30
0.0
  0
VERTEX
  5
44
330
43
100
AcDbEntity
  8
_U+30EC_U+30A4_U+30E4_U+30FC 1
 62
   179
420
  2234388
370
    25
100
AcDbVertex
100
AcDb2dVertex
 10
86.99348083616697
 20
-117.6648296928059
 30
0.0
  0
VERTEX
  5
45
330
43
100
AcDbEntity
  8
_U+30EC_U+30A4_U+30E4_U+30FC 1
 62
   179
420
  2234388
370
    25
100
AcDbVertex
100
AcDb2dVertex
 10
86.99348083616697
 20
-140.4155391315628
 30
0.0
  0
SEQEND
  5
46
330
43
100
AcDbEntity
  8
_U+30EC_U+30A4_U+30E4_U+30FC 1
 62
   179
420
  2234388
370
    25
  0
POLYLINE
  5
47
330
1F
100
AcDbEntity
  8
_U+30EC_U+30A4_U+30E4_U+30FC 1
 62
   179
420
  2234388
370
    25
100
AcDb2dPolyline
 66
     1
 10
0.0
 20
0.0
 30
0.0
  0
VERTEX
  5
48
330
47
100
AcDbEntity
  8
_U+30EC_U+30A4_U+30E4_U+30FC 1
 62
   179
420
  2234388
370
    25
100
AcDbVertex
100
AcDb2dVertex
 10
102.9938929279624
 20
-117.6648296928059
 30
0.0
  0
VERTEX
  5
49
330
47
100
AcDbEntity
  8
_U+30EC_U+30A4_U+30E4_U+30FC 1
 62
   179
420
  2234388
370
    25
100
AcDbVertex
100
AcDb2dVertex
 10
102.9938929279624
 20
-140.4045324648991
 30
0.0
  0
SEQEND
  5
4A
330
47
100
AcDbEntity
  8
_U+30EC_U+30A4_U+30E4_U+30FC 1
 62
   179
420
  2234388
370
    25
  0
POLYLINE
  5
4B
330
1F
100
AcDbEntity
  8
_U+30EC_U+30A4_U+30E4_U+30FC 1
 62
   179
420
  2234388
370
    25
100
AcDb2dPolyline
 66
     1
 10
0.0
 20
0.0
 30
0.0
  0
VERTEX
  5
4C
330
4B
100
AcDbEntity
  8
_U+30EC_U+30A4_U+30E4_U+30FC 1
 62
   179
420
  2234388
370
    25
100
AcDbVertex
100
AcDb2dVertex
 10
86.99348083616697
 20
-117.6648296928059
 30
0.0
  0
VERTEX
  5
4D
330
4B
100
AcDbEntity
  8
_U+30EC_U+30A4_U+30E4_U+30FC 1
 62
   179
420
  2234388
370
    25
100
AcDbVertex
100
AcDb2dVertex
 10
90.99391017855194
 20
-117.6648296928059
 30
0.0
  0
SEQEND
  5
4E
330
4B
100
AcDbEntity
  8
_U+30EC_U+30A4_U+30E4_U+30FC 1
 62
   179
420
  2234388
370
    25
  0
POLYLINE
  5
4F
330
1F
100
AcDbEntity
  8
_U+30EC_U+30A4_U+30E4_U+30FC 1
 62
   179
420
  2234388
370
    25
100
AcDb2dPolyline
 66
     1
 10
0.0
 20
0.0
 30
0.0
  0
VERTEX
  5
50
330
4F
100
AcDbEntity
  8
_U+30EC_U+30A4_U+30E4_U+30FC 1
 62
   179
420
  2234388
370
    25
100
AcDbVertex
100
AcDb2dVertex
 10
84.99393644273515
 20
-140.4155391315628
 30
0.0
  0
VERTEX
  5
51
330
4F
100
AcDbEntity
  8
_U+30EC_U+30A4_U+30E4_U+30FC 1
 62
   179
420
  2234388
370
    25
100
AcDbVertex
100
AcDb2dVertex
 10
86.99348083616697
 20
-140.4155391315628
 30
0.0
  0
SEQEND
  5
52
330
4F
100
AcDbEntity
  8
_U+30EC_U+30A4_U+30E4_U+30FC 1
 62
   179
420
  2234388
370
    25
  0
POLYLINE
  5
53
330
1F
100
AcDbEntity
  8
_U+30EC_U+30A4_U+30E4_U+30FC 1
 62
   179
420
  2234388
370
    25
100
AcDb2dPolyline
 66
     1
 10
0.0
 20
0.0
 30
0.0
  0
VERTEX
  5
54
330
53
100
AcDbEntity
  8
_U+30EC_U+30A4_U+30E4_U+30FC 1
 62
   179
420
  2234388
370
    25
100
AcDbVertex
100
AcDb2dVertex
 10
84.99393644273515
 20
-142.4109560755086
 30
0.0
  0
VERTEX
  5
55
330
53
100
AcDbEntity
  8
_U+30EC_U+30A4_U+30E4_U+30FC 1
 62
   179
420
  2234388
370
    25
100
AcDbVertex
100
AcDb2dVertex
 10
90.99391017855194
 20
-142.3999141310667
 30
0.0
  0
SEQEND
  5
56
330
53
100
AcDbEntity
  8
_U+30EC_U+30A4_U+30E4_U+30FC 1
 62
   179
420
  2234388
370
    25
  0
POLYLINE
  5
57
330
1F
100
AcDbEntity
  8
_U+30EC_U+30A4_U+30E4_U+30FC 1
 62
   179
420
  2234388
370
    25
100
AcDb2dPolyline
 66
     1
 10
0.0
 20
0.0
 30
0.0
  0
VERTEX
  5
58
330
57
100
AcDbEntity
  8
_U+30EC_U+30A4_U+30E4_U+30FC 1
 62
   179
420
  2234388
370
    25
100
AcDbVertex
100
AcDb2dVertex
 10
90.99391017855194
 20
-140.3934905204572
 30
0.0
  0
VERTEX
  5
59
330
57
100
AcDbEntity
  8
_U+30EC_U+30A4_U+30E4_U+30FC 1
 62
   179
420
  2234388
370
    25
100
AcDbVertex
100
AcDb2dVertex
 10
90.99391017855194
 20
-142.3999141310667
 30
0.0
  0
SEQEND
  5
5A
330
57
100
AcDbEntity
  8
_U+30EC_U+30A4_U+30E4_U+30FC 1
 62
   179
420
  2234388
370
    25
  0
POLYLINE
  5
5B
330
1F
100
AcDbEntity
  8
_U+30EC_U+30A4_U+30E4_U+30FC 1
 62
   179
420
  2234388
370
    25
100
AcDb2dPolyline
 66
     1
 10
0.0
 20
0.0
 30
0.0
  0
VERTEX
  5
5C
330
5B
100
AcDbEntity
  8
_U+30EC_U+30A4_U+30E4_U+30FC 1
 62
   179
420
  2234388
370
    25
100
AcDbVertex
100
AcDb2dVertex
 10
98.99342830780057
 20
-140.4045324648991
 30
0.0
  0
VERTEX
  5
5D
330
5B
100
AcDbEntity
  8
_U+30EC_U+30A4_U+30E4_U+30FC 1
 62
   179
420
  2234388
370
    25
100
AcDbVertex
100
AcDb2dVertex
 10
98.99342830780057
 20
-142.4109560755086
 30
0.0
  0
SEQEND
  5
5E
330
5B
100
AcDbEntity
  8
_U+30EC_U+30A4_U+30E4_U+30FC 1
 62
   179
420
  2234388
370
    25
  0
POLYLINE
  5
5F
330
1F
100
AcDbEntity
  8
_U+30EC_U+30A4_U+30E4_U+30FC 1
 62
   179
420
  2234388
370
    25
100
AcDb2dPolyline
 66
     1
 10
0.0
 20
0.0
 30
0.0
  0
VERTEX
  5
60
330
5F
100
AcDbEntity
  8
_U+30EC_U+30A4_U+30E4_U+30FC 1
 62
   179
420
  2234388
370
    25
100
AcDbVertex
100
AcDb2dVertex
 10
84.99393644273515
 20
-140.4155391315628
 30
0.0
  0
VERTEX
  5
61
330
5F
100
AcDbEntity
  8
_U+30EC_U+30A4_U+30E4_U+30FC 1
 62
   179
420
  2234388
370
    25
100
AcDbVertex
100
AcDb2dVertex
 10
84.99393644273515
 20
-142.4109560755086
 30
0.0
  0
SEQEND
  5
62
330
5F
100
AcDbEntity
  8
_U+30EC_U+30A4_U+30E4_U+30FC 1
 62
   179
420
  2234388
370
    25
  0
POLYLINE
  5
63
330
1F
100
AcDbEntity
  8
_U+30EC_U+30A4_U+30E4_U+30FC 1
 62
   179
420
  2234388
370
    25
100
AcDb2dPolyline
 66
     1
 10
0.0
 20
0.0
 30
0.0
  0
VERTEX
  5
64
330
63
100
AcDbEntity
  8
_U+30EC_U+30A4_U+30E4_U+30FC 1
 62
   179
420
  2234388
370
    25
100
AcDbVertex
100
AcDb2dVertex
 10
104.9934020436174
 20
-140.4045324648991
 30
0.0
  0
VERTEX
  5
65
330
63
100
AcDbEntity
  8
_U+30EC_U+30A4_U+30E4_U+30FC 1
 62
   179
420
  2234388
370
    25
100
AcDbVertex
100
AcDb2dVertex
 10
104.9934020436174
 20
-142.4109560755086
 30
0.0
  0
SEQEND
  5
66
330
63
100
AcDbEntity
  8
_U+30EC_U+30A4_U+30E4_U+30FC 1
 62
   179
420
  2234388
370
    25
  0
POLYLINE
  5
67
330
1F
100
AcDbEntity
  8
_U+30EC_U+30A4_U+30E4_U+30FC 1
 62
   179
420
  2234388
370
    25
100
AcDb2dPolyline
 66
     1
 10
0.0
 20
0.0
 30
0.0
  0
VERTEX
  5
68
330
67
100
AcDbEntity
  8
_U+30EC_U+30A4_U+30E4_U+30FC 1
 62
   179
420
  2234388
370
    25
100
AcDbVertex
100
AcDb2dVertex
 10
102.9938929279624
 20
-140.4045324648991
 30
0.0
  0
VERTEX
  5
69
330
67
100
AcDbEntity
  8
_U+30EC_U+30A4_U+30E4_U+30FC 1
 62
   179
420
  2234388
370
    25
100
AcDbVertex
100
AcDb2dVertex
 10
104.9934020436174
 20
-140.4045324648991
 30
0.0
  0
SEQEND
  5
6A
330
67
100
AcDbEntity
  8
_U+30EC_U+30A4_U+30E4_U+30FC 1
 62
   179
420
  2234388
370
    25
  0
POLYLINE
  5
6B
330
1F
100
AcDbEntity
  8
_U+30EC_U+30A4_U+30E4_U+30FC 1
 62
   179
420
  2234388
370
    25
100
AcDb2dPolyline
 66
     1
 10
0.0
 20
0.0
 30
0.0
  0
VERTEX
  5
6C
330
6B
100
AcDbEntity
  8
_U+30EC_U+30A4_U+30E4_U+30FC 1
 62
   179
420
  2234388
370
    25
100
AcDbVertex
100
AcDb2dVertex
 10
98.99342830780057
 20
-142.4109560755086
 30
0.0
  0
VERTEX
  5
6D
330
6B
100
AcDbEntity
  8
_U+30EC_U+30A4_U+30E4_U+30FC 1
 62
   179
420
  2234388
370
    25
100
AcDbVertex
100
AcDb2dVertex
 10
104.9934020436174
 20
-142.4109560755086
 30
0.0
  0
SEQEND
  5
6E
330
6B
100
AcDbEntity
  8
_U+30EC_U+30A4_U+30E4_U+30FC 1
 62
   179
420
  2234388
370
    25
  0
POLYLINE
  5
6F
330
1F
100
AcDbEntity
  8
_U+30EC_U+30A4_U+30E4_U+30FC 1
 62
   179
420
  2234388
370
    25
100
AcDb2dPolyline
 66
     1
 10
0.0
 20
0.0
 30
0.0
  0
VERTEX
  5
70
330
6F
100
AcDbEntity
  8
_U+30EC_U+30A4_U+30E4_U+30FC 1
 62
   179
420
  2234388
370
    25
100
AcDbVertex
100
AcDb2dVertex
 10
98.99342830780057
 20
-140.4045324648991
 30
0.0
  0
VERTEX
  5
71
330
6F
100
AcDbEntity
  8
_U+30EC_U+30A4_U+30E4_U+30FC 1
 62
   179
420
  2234388
370
    25
100
AcDbVertex
100
AcDb2dVertex
 10
100.9936782567699
 20
-140.4045324648991
 30
0.0
  0
SEQEND
  5
72
330
6F
100
AcDbEntity
  8
_U+30EC_U+30A4_U+30E4_U+30FC 1
 62
   179
420
  2234388
370
    25
  0
POLYLINE
  5
73
330
1F
100
AcDbEntity
  8
_U+30EC_U+30A4_U+30E4_U+30FC 1
 62
   179
420
  2234388
370
    25
100
AcDb2dPolyline
 66
     1
 10
0.0
 20
0.0
 30
0.0
  0
VERTEX
  5
74
330
73
100
AcDbEntity
  8
_U+30EC_U+30A4_U+30E4_U+30FC 1
 62
   179
420
  2234388
370
    25
100
AcDbVertex
100
AcDb2dVertex
 10
100.9936782567699
 20
-129.6230791342608
 30
0.0
  0
VERTEX
  5
75
330
73
100
AcDbEntity
  8
_U+30EC_U+30A4_U+30E4_U+30FC 1
 62
   179
420
  2234388
370
    25
100
AcDbVertex
100
AcDb2dVertex
 10
100.9936782567699
 20
-140.4045324648991
 30
0.0
  0
SEQEND
  5
76
330
73
100
AcDbEntity
  8
_U+30EC_U+30A4_U+30E4_U+30FC 1
 62
   179
420
  2234388
370
    25
  0
POLYLINE
  5
77
330
1F
100
AcDbEntity
  8
_U+30EC_U+30A4_U+30E4_U+30FC 1
 62
   179
420
  2234388
370
    25
100
AcDb2dPolyline
 66
     1
 10
0.0
 20
0.0
 30
0.0
  0
VERTEX
  5
78
330
77
100
AcDbEntity
  8
_U+30EC_U+30A4_U+30E4_U+30FC 1
 62
   179
420
  2234388
370
    25
100
AcDbVertex
100
AcDb2dVertex
 10
88.99369550735946
 20
-119.04422608135
 30
0.0
  0
VERTEX
  5
79
330
77
100
AcDbEntity
  8
_U+30EC_U+30A4_U+30E4_U+30FC 1
 62
   179
420
  2234388
370
    25
100
AcDbVertex
100
AcDb2dVertex
 10
88.99369550735946
 20
-123.5080644135674
 30
0.0
  0
SEQEND
  5
7A
330
77
100
AcDbEntity
  8
_U+30EC_U+30A4_U+30E4_U+30FC 1
 62
   179
420
  2234388
370
    25
  0
POLYLINE
  5
7B
330
1F
100
AcDbEntity
  8
_U+30EC_U+30A4_U+30E4_U+30FC 1
 62
   179
420
  2234388
370
    25
100
AcDb2dPolyline
 66
     1
 10
0.0
 20
0.0
 30
0.0
  0
VERTEX
  5
7C
330
7B
100
AcDbEntity
  8
_U+30EC_U+30A4_U+30E4_U+30FC 1
 62
   179
420
  2234388
370
    25
100
AcDbVertex
100
AcDb2dVertex
 10
90.99391017855194
 20
-117.6648296928059
 30
0.0
  0
VERTEX
  5
7D
330
7B
100
AcDbEntity
  8
_U+30EC_U+30A4_U+30E4_U+30FC 1
 62
   179
420
  2234388
370
    25
100
AcDbVertex
100
AcDb2dVertex
 10
90.99391017855194
 20
-119.04422608135
 30
0.0
  0
SEQEND
  5
7E
330
7B
100
AcDbEntity
  8
_U+30EC_U+30A4_U+30E4_U+30FC 1
 62
   179
420
  2234388
370
    25
  0
POLYLINE
  5
7F
330
1F
100
AcDbEntity
  8
_U+30EC_U+30A4_U+30E4_U+30FC 1
 62
   179
420
  2234388
370
    25
100
AcDb2dPolyline
 66
     1
 10
0.0
 20
0.0
 30
0.0
  0
VERTEX
  5
80
330
7F
100
AcDbEntity
  8
_U+30EC_U+30A4_U+30E4_U+30FC 1
 62
   179
420
  2234388
370
    25
100
AcDbVertex
100
AcDb2dVertex
 10
98.99342830780057
 20
-117.6648296928059
 30
0.0
  0
VERTEX
  5
81
330
7F
100
AcDbEntity
  8
_U+30EC_U+30A4_U+30E4_U+30FC 1
 62
   179
420
  2234388
370
    25
100
AcDbVertex
100
AcDb2dVertex
 10
98.99342830780057
 20
-119.04422608135
 30
0.0
  0
SEQEND
  5
82
330
7F
100
AcDbEntity
  8
_U+30EC_U+30A4_U+30E4_U+30FC 1
 62
   179
420
  2234388
370
    25
  0
POLYLINE
  5
83
330
1F
100
AcDbEntity
  8
_U+30EC_U+30A4_U+30E4_U+30FC 1
 62
   179
420
  2234388
370
    25
100
AcDb2dPolyline
 66
     1
 10
0.0
 20
0.0
 30
0.0
  0
VERTEX
  5
84
330
83
100
AcDbEntity
  8
_U+30EC_U+30A4_U+30E4_U+30FC 1
 62
   179
420
  2234388
370
    25
100
AcDbVertex
100
AcDb2dVertex
 10
88.99369550735946
 20
-119.04422608135
 30
0.0
  0
VERTEX
  5
85
330
83
100
AcDbEntity
  8
_U+30EC_U+30A4_U+30E4_U+30FC 1
 62
   179
420
  2234388
370
    25
100
AcDbVertex
100
AcDb2dVertex
 10
90.99391017855194
 20
-119.04422608135
 30
0.0
  0
SEQEND
  5
86
330
83
100
AcDbEntity
  8
_U+30EC_U+30A4_U+30E4_U+30FC 1
 62
   179
420
  2234388
370
    25
  0
POLYLINE
  5
87
330
1F
100
AcDbEntity
  8
_U+30EC_U+30A4_U+30E4_U+30FC 1
 62
   179
420
  2234388
370
    25
100
AcDb2dPolyline
 66
     1
 10
0.0
 20
0.0
 30
0.0
  0
VERTEX
  5
88
330
87
100
AcDbEntity
  8
_U+30EC_U+30A4_U+30E4_U+30FC 1
 62
   179
420
  2234388
370
    25
100
AcDbVertex
100
AcDb2dVertex
 10
98.99342830780057
 20
-117.6648296928059
 30
0.0
  0
VERTEX
  5
89
330
87
100
AcDbEntity
  8
_U+30EC_U+30A4_U+30E4_U+30FC 1
 62
   179
420
  2234388
370
    25
100
AcDbVertex
100
AcDb2dVertex
 10
102.9938929279624
 20
-117.6648296928059
 30
0.0
  0
SEQEND
  5
8A
330
87
100
AcDbEntity
  8
_U+30EC_U+30A4_U+30E4_U+30FC 1
 62
   179
420
  2234388
370
    25
  0
POLYLINE
  5
8B
330
1F
100
AcDbEntity
  8
_U+30EC_U+30A4_U+30E4_U+30FC 1
 62
   179
420
  2234388
370
    25
100
AcDb2dPolyline
 66
     1
 10
0.0
 20
0.0
 30
0.0
  0
VERTEX
  5
8C
330
8B
100
AcDbEntity
  8
_U+30EC_U+30A4_U+30E4_U+30FC 1
 62
   179
420
  2234388
370
    25
100
AcDbVertex
100
AcDb2dVertex
 10
98.99342830780057
 20
-119.04422608135
 30
0.0
  0
VERTEX
  5
8D
330
8B
100
AcDbEntity
  8
_U+30EC_U+30A4_U+30E4_U+30FC 1
 62
   179
420
  2234388
370
    25
100
AcDbVertex
100
AcDb2dVertex
 10
100.9936782567699
 20
-119.04422608135
 30
0.0
  0
SEQEND
  5
8E
330
8B
100
AcDbEntity
  8
_U+30EC_U+30A4_U+30E4_U+30FC 1
 62
   179
420
  2234388
370
    25
  0
POLYLINE
  5
8F
330
1F
100
AcDbEntity
  8
_U+30EC_U+30A4_U+30E4_U+30FC 1
 62
   179
420
  2234388
370
    25
100
AcDb2dPolyline
 66
     1
 10
0.0
 20
0.0
 30
0.0
  0
VERTEX
  5
90
330
8F
100
AcDbEntity
  8
_U+30EC_U+30A4_U+30E4_U+30FC 1
 62
   179
420
  2234388
370
    25
100
AcDbVertex
100
AcDb2dVertex
 10
88.99369550735946
 20
-129.8580644119799
 30
0.0
  0
VERTEX
  5
91
330
8F
100
AcDbEntity
  8
_U+30EC_U+30A4_U+30E4_U+30FC 1
 62
   179
420
  2234388
370
    25
100
AcDbVertex
100
AcDb2dVertex
 10
88.99369550735946
 20
-140.4065785760093
 30
0.0
  0
SEQEND
  5
92
330
8F
100
AcDbEntity
  8
_U+30EC_U+30A4_U+30E4_U+30FC 1
 62
   179
420
  2234388
370
    25
  0
POLYLINE
  5
93
330
1F
100
AcDbEntity
  8
_U+30EC_U+30A4_U+30E4_U+30FC 1
 62
   179
420
  2234388
370
    25
100
AcDb2dPolyline
 66
     1
 10
0.0
 20
0.0
 30
0.0
  0
VERTEX
  5
94
330
93
100
AcDbEntity
  8
_U+30EC_U+30A4_U+30E4_U+30FC 1
 62
   179
420
  2234388
370
    25
100
AcDbVertex
100
AcDb2dVertex
 10
100.9936782567699
 20
-119.04422608135
 30
0.0
  0
VERTEX
  5
95
330
93
100
AcDbEntity
  8
_U+30EC_U+30A4_U+30E4_U+30FC 1
 62
   179
420
  2234388
370
    25
100
AcDbVertex
100
AcDb2dVertex
 10
100.9936782567699
 20
-123.1776527469834
 30
0.0
  0
SEQEND
  5
96
330
93
100
AcDbEntity
  8
_U+30EC_U+30A4_U+30E4_U+30FC 1
 62
   179
420
  2234388
370
    25
  0
POLYLINE
  5
97
330
1F
100
AcDbEntity
  8
_U+30EC_U+30A4_U+30E4_U+30FC 1
 62
   179
420
  2234388
370
    25
100
AcDb2dPolyline
 66
     1
 10
0.0
 20
0.0
 30
0.0
  0
VERTEX
  5
98
330
97
100
AcDbEntity
  8
_U+30EC_U+30A4_U+30E4_U+30FC 1
 62
   179
420
  2234388
370
    25
100
AcDbVertex
100
AcDb2dVertex
 10
99.92430553057449
 20
-129.034328301075
 30
0.0
  0
VERTEX
  5
1EB
330
97
100
AcDbEntity
  8
0
100
AcDbVertex
100
AcDb2dVertex
 10
99.92430553057449
 20
-129.034328301075
 30
0.0
  0
SEQEND
  5
99
330
97
100
AcDbEntity
  8
_U+30EC_U+30A4_U+30E4_U+30FC 1
 62
   179
420
  2234388
370
    25
  0
POLYLINE
  5
9A
330
1F
100
AcDbEntity
  8
_U+30EC_U+30A4_U+30E4_U+30FC 1
 62
   179
420
  2234388
370
    25
100
AcDb2dPolyline
 66
     1
 10
0.0
 20
0.0
 30
0.0
  0
VERTEX
  5
9B
330
9A
100
AcDbEntity
  8
_U+30EC_U+30A4_U+30E4_U+30FC 1
 62
   179
420
  2234388
370
    25
100
AcDbVertex
100
AcDb2dVertex
 10
89.92386465029553
 20
-129.034328301075
 30
0.0
  0
VERTEX
  5
1EC
330
9A
100
AcDbEntity
  8
0
100
AcDbVertex
100
AcDb2dVertex
 10
89.92386465029553
 20
-129.034328301075
 30
0.0
  0
SEQEND
  5
9C
330
9A
100
AcDbEntity
  8
_U+30EC_U+30A4_U+30E4_U+30FC 1
 62
   179
420
  2234388
370
    25
  0
POLYLINE
  5
9D
330
1F
100
AcDbEntity
  8
_U+30EC_U+30A4_U+30E4_U+30FC 1
 62
   179
420
  2234388
370
    25
100
AcDb2dPolyline
 66
     1
 10
0.0
 20
0.0
 30
0.0
  0
VERTEX
  5
9E
330
9D
100
AcDbEntity
  8
_U+30EC_U+30A4_U+30E4_U+30FC 1
 62
   179
420
  2234388
370
    25
100
AcDbVertex
100
AcDb2dVertex
 10
93.86093510540805
 20
-127.3324577459446
 30
0.0
  0
VERTEX
  5
9F
330
9D
100
AcDbEntity
  8
_U+30EC_U+30A4_U+30E4_U+30FC 1
 62
   179
420
  2234388
370
    25
100
AcDbVertex
100
AcDb2dVertex
 10
95.98723255116168
 20
-127.3324577459446
 30
0.0
  0
SEQEND
  5
A0
330
9D
100
AcDbEntity
  8
_U+30EC_U+30A4_U+30E4_U+30FC 1
 62
   179
420
  2234388
370
    25
  0
POLYLINE
  5
A1
330
1F
100
AcDbEntity
  8
_U+30EC_U+30A4_U+30E4_U+30FC 1
 62
   179
420
  2234388
370
    25
100
AcDb2dPolyline
 66
     1
 10
0.0
 20
0.0
 30
0.0
  0
VERTEX
  5
A2
330
A1
100
AcDbEntity
  8
_U+30EC_U+30A4_U+30E4_U+30FC 1
 62
   179
420
  2234388
370
    25
100
AcDbVertex
100
AcDb2dVertex
 10
88.92412773135649
 20
-123.1776527469834
 30
0.0
  0
VERTEX
  5
A3
330
A1
100
AcDbEntity
  8
_U+30EC_U+30A4_U+30E4_U+30FC 1
 62
   179
420
  2234388
370
    25
100
AcDbVertex
100
AcDb2dVertex
 10
89.67445076776971
 20
-124.5254049688685
 30
0.0
  0
SEQEND
  5
A4
330
A1
100
AcDbEntity
  8
_U+30EC_U+30A4_U+30E4_U+30FC 1
 62
   179
420
  2234388
370
    25
  0
POLYLINE
  5
A5
330
1F
100
AcDbEntity
  8
_U+30EC_U+30A4_U+30E4_U+30FC 1
 62
   179
420
  2234388
370
    25
100
AcDb2dPolyline
 66
     1
 10
0.0
 20
0.0
 30
0.0
  0
VERTEX
  5
A6
330
A5
100
AcDbEntity
  8
_U+30EC_U+30A4_U+30E4_U+30FC 1
 62
   179
420
  2234388
370
    25
100
AcDbVertex
100
AcDb2dVertex
 10
91.36873886604657
 20
-124.1756963578449
 30
0.0
  0
VERTEX
  5
A7
330
A5
100
AcDbEntity
  8
_U+30EC_U+30A4_U+30E4_U+30FC 1
 62
   179
420
  2234388
370
    25
100
AcDbVertex
100
AcDb2dVertex
 10
91.17446184061237
 20
-124.5254049688685
 30
0.0
  0
SEQEND
  5
A8
330
A5
100
AcDbEntity
  8
_U+30EC_U+30A4_U+30E4_U+30FC 1
 62
   179
420
  2234388
370
    25
  0
POLYLINE
  5
A9
330
1F
100
AcDbEntity
  8
_U+30EC_U+30A4_U+30E4_U+30FC 1
 62
   179
420
  2234388
370
    25
100
AcDb2dPolyline
 66
     1
 10
0.0
 20
0.0
 30
0.0
  0
VERTEX
  5
AA
330
A9
100
AcDbEntity
  8
_U+30EC_U+30A4_U+30E4_U+30FC 1
 62
   179
420
  2234388
370
    25
100
AcDbVertex
100
AcDb2dVertex
 10
100.924077752547
 20
-123.1776527469834
 30
0.0
  0
VERTEX
  5
AB
330
A9
100
AcDbEntity
  8
_U+30EC_U+30A4_U+30E4_U+30FC 1
 62
   179
420
  2234388
370
    25
100
AcDbVertex
100
AcDb2dVertex
 10
100.1744249749567
 20
-124.5254049688685
 30
0.0
  0
SEQEND
  5
AC
330
A9
100
AcDbEntity
  8
_U+30EC_U+30A4_U+30E4_U+30FC 1
 62
   179
420
  2234388
370
    25
  0
POLYLINE
  5
AD
330
1F
100
AcDbEntity
  8
_U+30EC_U+30A4_U+30E4_U+30FC 1
 62
   179
420
  2234388
370
    25
100
AcDb2dPolyline
 66
     1
 10
0.0
 20
0.0
 30
0.0
  0
VERTEX
  5
AE
330
AD
100
AcDbEntity
  8
_U+30EC_U+30A4_U+30E4_U+30FC 1
 62
   179
420
  2234388
370
    25
100
AcDbVertex
100
AcDb2dVertex
 10
98.4794310986915
 20
-124.1756963578449
 30
0.0
  0
VERTEX
  5
AF
330
AD
100
AcDbEntity
  8
_U+30EC_U+30A4_U+30E4_U+30FC 1
 62
   179
420
  2234388
370
    25
100
AcDbVertex
100
AcDb2dVertex
 10
98.67441386422041
 20
-124.5254049688685
 30
0.0
  0
SEQEND
  5
B0
330
AD
100
AcDbEntity
  8
_U+30EC_U+30A4_U+30E4_U+30FC 1
 62
   179
420
  2234388
370
    25
  0
SPLINE
  5
B1
330
1F
100
AcDbEntity
  8
_U+30EC_U+30A4_U+30E4_U+30FC 1
 62
   179
420
  2234388
370
    25
100
AcDbSpline
210
0.0
220
0.0
230
1.0
 70
     8
 71
     3
 72
    17
 73
    13
 74
     0
 42
0.0000000001
 43
0.0000000001
 12
1.0
 22
0.0
 32
0.0
 13
1.0
 23
0.0
 33
0.0
 40
0.0
 40
0.0
 40
0.0
 40
0.0
 40
1.0
 40
1.0
 40
1.0
 40
2.0
 40
2.0
 40
2.0
 40
3.0
 40
3.0
 40
3.0
 40
4.0
 40
4.0
 40
4.0
 40
4.0
 10
89.67445076776971
 20
-124.5254049688685
 30
0.0
 10
88.95651273053029
 20
-124.8774771910029
 30
0.0
 10
88.7111910701223
 20
-125.6584919130298
 30
0.0
 10
89.1253168928904
 20
-126.2689385795439
 30
0.0
 10
89.53940743788162
 20
-126.8794205238356
 30
0.0
 10
90.45648852559606
 20
-127.0885471904502
 30
0.0
 10
91.17446184061237
 20
-126.7364396905383
 30
0.0
 10
91.89172960009111
 20
-126.3840146906261
 30
0.0
 10
92.13768626048291
 20
-125.6029999685992
 30
0.0
 10
91.72292775484719
 20
-124.992870802085
 30
0.0
 10
91.59130405220004
 20
-124.7989135799113
 30
0.0
 10
91.40253266812712
 20
-124.6373413577296
 30
0.0
 10
91.17446184061237
 20
-124.5254049688685
 30
0.0
  0
SPLINE
  5
B2
330
1F
100
AcDbEntity
  8
_U+30EC_U+30A4_U+30E4_U+30FC 1
 62
   179
420
  2234388
370
    25
100
AcDbSpline
210
0.0
220
0.0
230
1.0
 70
     8
 71
     3
 72
     8
 73
     4
 74
     0
 42
0.0000000001
 43
0.0000000001
 12
1.0
 22
0.0
 32
0.0
 13
1.0
 23
0.0
 33
0.0
 40
0.0
 40
0.0
 40
0.0
 40
0.0
 40
1.0
 40
1.0
 40
1.0
 40
1.0
 10
93.40274733931962
 20
-126.7371452460935
 30
0.0
 10
93.8540583098697
 20
-125.8583052463134
 30
0.0
 10
93.73689844190582
 20
-124.8426933021226
 30
0.0
 10
93.09406679163915
 20
-124.0547994134307
 30
0.0
  0
SPLINE
  5
B3
330
1F
100
AcDbEntity
  8
_U+30EC_U+30A4_U+30E4_U+30FC 1
 62
   179
420
  2234388
370
    25
100
AcDbSpline
210
0.0
220
0.0
230
1.0
 70
     8
 71
     3
 72
    11
 73
     7
 74
     0
 42
0.0000000001
 43
0.0000000001
 12
1.0
 22
0.0
 32
0.0
 13
1.0
 23
0.0
 33
0.0
 40
0.0
 40
0.0
 40
0.0
 40
0.0
 40
1.0
 40
1.0
 40
1.0
 40
2.0
 40
2.0
 40
2.0
 40
2.0
 10
93.09406679163915
 20
-124.0547994134307
 30
0.0
 10
92.7798499768049
 20
-123.6682608024162
 30
0.0
 10
92.15631292667436
 20
-123.5731519135513
 30
0.0
 10
91.7029229382413
 20
-123.8401694134843
 30
0.0
 10
91.55891905302626
 20
-123.9252594134632
 30
0.0
 10
91.44384294485099
 20
-124.0403355245453
 30
0.0
 10
91.36873886604657
 20
-124.1756963578449
 30
0.0
  0
SPLINE
  5
B4
330
1F
100
AcDbEntity
  8
_U+30EC_U+30A4_U+30E4_U+30FC 1
 62
   179
420
  2234388
370
    25
100
AcDbSpline
210
0.0
220
0.0
230
1.0
 70
     8
 71
     3
 72
     8
 73
     4
 74
     0
 42
0.0000000001
 43
0.0000000001
 12
1.0
 22
0.0
 32
0.0
 13
1.0
 23
0.0
 33
0.0
 40
0.0
 40
0.0
 40
0.0
 40
0.0
 40
1.0
 40
1.0
 40
1.0
 40
1.0
 10
89.92386465029553
 20
-129.034328301075
 30
0.0
 10
89.37197910881974
 20
-129.034328301075
 30
0.0
 10
88.92412773135649
 20
-129.4150108009795
 30
0.0
 10
88.92412773135649
 20
-129.8849108008622
 30
0.0
  0
SPLINE
  5
B5
330
1F
100
AcDbEntity
  8
_U+30EC_U+30A4_U+30E4_U+30FC 1
 62
   179
420
  2234388
370
    25
100
AcDbSpline
210
0.0
220
0.0
230
1.0
 70
     8
 71
     3
 72
    11
 73
     7
 74
     0
 42
0.0000000001
 43
0.0000000001
 12
1.0
 22
0.0
 32
0.0
 13
1.0
 23
0.0
 33
0.0
 40
0.0
 40
0.0
 40
0.0
 40
0.0
 40
1.0
 40
1.0
 40
1.0
 40
2.0
 40
2.0
 40
2.0
 40
2.0
 10
93.40274733931962
 20
-126.7371452460935
 30
0.0
 10
93.2925042865766
 20
-126.9521280238176
 30
0.0
 10
93.40825067251255
 20
-127.2025649681994
 30
0.0
 10
93.66112177717238
 20
-127.2966155237314
 30
0.0
 10
93.72381038668416
 20
-127.3203927459476
 30
0.0
 10
93.79203760716577
 20
-127.3324577459446
 30
0.0
 10
93.86093510540805
 20
-127.3324577459446
 30
0.0
  0
SPLINE
  5
B6
330
1F
100
AcDbEntity
  8
_U+30EC_U+30A4_U+30E4_U+30FC 1
 62
   179
420
  2234388
370
    25
100
AcDbSpline
210
0.0
220
0.0
230
1.0
 70
     8
 71
     3
 72
    11
 73
     7
 74
     0
 42
0.0000000001
 43
0.0000000001
 12
1.0
 22
0.0
 32
0.0
 13
1.0
 23
0.0
 33
0.0
 40
0.0
 40
0.0
 40
0.0
 40
0.0
 40
1.0
 40
1.0
 40
1.0
 40
2.0
 40
2.0
 40
2.0
 40
2.0
 10
98.4794310986915
 20
-124.1756963578449
 30
0.0
 10
98.24310527138735
 20
-123.750599135729
 30
0.0
 10
97.64708723103749
 20
-123.5690244135523
 30
0.0
 10
97.14755391044831
 20
-123.7702135801684
 30
0.0
 10
96.98908613671338
 20
-123.8343133023747
 30
0.0
 10
96.85333725128773
 20
-123.9321385801282
 30
0.0
 10
96.75413614270745
 20
-124.0547994134307
 30
0.0
  0
SPLINE
  5
B7
330
1F
100
AcDbEntity
  8
_U+30EC_U+30A4_U+30E4_U+30FC 1
 62
   179
420
  2234388
370
    25
100
AcDbSpline
210
0.0
220
0.0
230
1.0
 70
     8
 71
     3
 72
     8
 73
     4
 74
     0
 42
0.0000000001
 43
0.0000000001
 12
1.0
 22
0.0
 32
0.0
 13
1.0
 23
0.0
 33
0.0
 40
0.0
 40
0.0
 40
0.0
 40
0.0
 40
1.0
 40
1.0
 40
1.0
 40
1.0
 10
100.924077752547
 20
-129.8849108008622
 30
0.0
 10
100.924077752547
 20
-129.4150108009795
 30
0.0
 10
100.4762238255269
 20
-129.034328301075
 30
0.0
 10
99.92430553057449
 20
-129.034328301075
 30
0.0
  0
SPLINE
  5
B8
330
1F
100
AcDbEntity
  8
_U+30EC_U+30A4_U+30E4_U+30FC 1
 62
   179
420
  2234388
370
    25
100
AcDbSpline
210
0.0
220
0.0
230
1.0
 70
     8
 71
     3
 72
    17
 73
    13
 74
     0
 42
0.0000000001
 43
0.0000000001
 12
1.0
 22
0.0
 32
0.0
 13
1.0
 23
0.0
 33
0.0
 40
0.0
 40
0.0
 40
0.0
 40
0.0
 40
1.0
 40
1.0
 40
1.0
 40
2.0
 40
2.0
 40
2.0
 40
3.0
 40
3.0
 40
3.0
 40
4.0
 40
4.0
 40
4.0
 40
4.0
 10
98.67441386422041
 20
-124.5254049688685
 30
0.0
 10
97.95647333425549
 20
-124.8774771910029
 30
0.0
 10
97.71118695162438
 20
-125.6584919130298
 30
0.0
 10
98.12527749661561
 20
-126.2689385795439
 30
0.0
 10
98.53936804160683
 20
-126.8794205238356
 30
0.0
 10
99.45644912932126
 20
-127.0885471904502
 30
0.0
 10
100.1744249749567
 20
-126.7364396905383
 30
0.0
 10
100.8916902038163
 20
-126.3840146906261
 30
0.0
 10
101.137682141985
 20
-125.6029999685992
 30
0.0
 10
100.7228860414562
 20
-124.992870802085
 30
0.0
 10
100.5912646559253
 20
-124.7989135799113
 30
0.0
 10
100.4024932718523
 20
-124.6373413577296
 30
0.0
 10
100.1744249749567
 20
-124.5254049688685
 30
0.0
  0
SPLINE
  5
B9
330
1F
100
AcDbEntity
  8
_U+30EC_U+30A4_U+30E4_U+30FC 1
 62
   179
420
  2234388
370
    25
100
AcDbSpline
210
0.0
220
0.0
230
1.0
 70
     8
 71
     3
 72
     8
 73
     4
 74
     0
 42
0.0000000001
 43
0.0000000001
 12
1.0
 22
0.0
 32
0.0
 13
1.0
 23
0.0
 33
0.0
 40
0.0
 40
0.0
 40
0.0
 40
0.0
 40
1.0
 40
1.0
 40
1.0
 40
1.0
 10
96.75413614270745
 20
-124.0547994134307
 30
0.0
 10
96.1112692146639
 20
-124.8426933021226
 30
0.0
 10
95.9948172731904
 20
-125.8583052463134
 30
0.0
 10
96.445455595027
 20
-126.7371452460935
 30
0.0
  0
SPLINE
  5
BA
330
1F
100
AcDbEntity
  8
_U+30EC_U+30A4_U+30E4_U+30FC 1
 62
   179
420
  2234388
370
    25
100
AcDbSpline
210
0.0
220
0.0
230
1.0
 70
     8
 71
     3
 72
    11
 73
     7
 74
     0
 42
0.0000000001
 43
0.0000000001
 12
1.0
 22
0.0
 32
0.0
 13
1.0
 23
0.0
 33
0.0
 40
0.0
 40
0.0
 40
0.0
 40
0.0
 40
1.0
 40
1.0
 40
1.0
 40
2.0
 40
2.0
 40
2.0
 40
2.0
 10
95.98723255116168
 20
-127.3324577459446
 30
0.0
 10
96.26353053148954
 20
-127.3324577459446
 30
0.0
 10
96.48747142728841
 20
-127.1419224682144
 30
0.0
 10
96.48747142728841
 20
-126.9069724682734
 30
0.0
 10
96.48747142728841
 20
-126.8484113571769
 30
0.0
 10
96.47300753876853
 20
-126.7905558016356
 30
0.0
 10
96.445455595027
 20
-126.7371452460935
 30
0.0
  0
SPLINE
  5
BB
330
1F
100
AcDbEntity
  8
_U+30EC_U+30A4_U+30E4_U+30FC 1
 62
   179
420
  2234388
370
     9
100
AcDbSpline
210
0.0
220
0.0
230
1.0
 70
    11
 71
     3
 72
    17
 73
    13
 74
     0
 42
0.0000000001
 43
0.0000000001
 12
1.0
 22
0.0
 32
0.0
 13
1.0
 23
0.0
 33
0.0
 40
0.0
 40
0.0
 40
0.0
 40
0.0
 40
1.0
 40
1.0
 40
1.0
 40
2.0
 40
2.0
 40
2.0
 40
3.0
 40
3.0
 40
3.0
 40
4.0
 40
4.0
 40
4.0
 40
4.0
 10
105.0940142632728
 20
-146.4058821856206
 30
0.0
 10
105.0940142632728
 20
-146.3507430189682
 30
0.0
 10
105.049211486638
 20
-146.305975518979
 30
0.0
 10
104.9934020436174
 20
-146.305975518979
 30
0.0
 10
104.9382981561343
 20
-146.305975518979
 30
0.0
 10
104.8934953794995
 20
-146.3507430189682
 30
0.0
 10
104.8934953794995
 20
-146.4058821856206
 30
0.0
 10
104.8934953794995
 20
-146.4609860744962
 30
0.0
 10
104.9382981561343
 20
-146.5057888522623
 30
0.0
 10
104.9934020436174
 20
-146.5057888522623
 30
0.0
 10
105.049211486638
 20
-146.5057888522623
 30
0.0
 10
105.0940142632728
 20
-146.4609860744962
 30
0.0
 10
105.0940142632728
 20
-146.4058821856206
 30
0.0
  0
SPLINE
  5
BC
330
1F
100
AcDbEntity
  8
_U+30EC_U+30A4_U+30E4_U+30FC 1
 62
   179
420
  2234388
370
     9
100
AcDbSpline
210
0.0
220
0.0
230
1.0
 70
    11
 71
     3
 72
    17
 73
    13
 74
     0
 42
0.0000000001
 43
0.0000000001
 12
1.0
 22
0.0
 32
0.0
 13
1.0
 23
0.0
 33
0.0
 40
0.0
 40
0.0
 40
0.0
 40
0.0
 40
1.0
 40
1.0
 40
1.0
 40
2.0
 40
2.0
 40
2.0
 40
3.0
 40
3.0
 40
3.0
 40
4.0
 40
4.0
 40
4.0
 40
4.0
 10
99.09404052745596
 20
-146.4058821856206
 30
0.0
 10
99.09404052745596
 20
-146.3507430189682
 30
0.0
 10
99.0492377508212
 20
-146.305975518979
 30
0.0
 10
98.99342830780057
 20
-146.305975518979
 30
0.0
 10
98.9383244203175
 20
-146.305975518979
 30
0.0
 10
98.89352164368273
 20
-146.3507430189682
 30
0.0
 10
98.89352164368273
 20
-146.4058821856206
 30
0.0
 10
98.89352164368273
 20
-146.4609860744962
 30
0.0
 10
98.9383244203175
 20
-146.5057888522623
 30
0.0
 10
98.99342830780057
 20
-146.5057888522623
 30
0.0
 10
99.0492377508212
 20
-146.5057888522623
 30
0.0
 10
99.09404052745596
 20
-146.4609860744962
 30
0.0
 10
99.09404052745596
 20
-146.4058821856206
 30
0.0
  0
SPLINE
  5
BD
330
1F
100
AcDbEntity
  8
_U+30EC_U+30A4_U+30E4_U+30FC 1
 62
   179
420
  2234388
370
     9
100
AcDbSpline
210
0.0
220
0.0
230
1.0
 70
    11
 71
     3
 72
    17
 73
    13
 74
     0
 42
0.0000000001
 43
0.0000000001
 12
1.0
 22
0.0
 32
0.0
 13
1.0
 23
0.0
 33
0.0
 40
0.0
 40
0.0
 40
0.0
 40
0.0
 40
1.0
 40
1.0
 40
1.0
 40
2.0
 40
2.0
 40
2.0
 40
3.0
 40
3.0
 40
3.0
 40
4.0
 40
4.0
 40
4.0
 40
4.0
 10
91.09385212044667
 20
-146.4058821856206
 30
0.0
 10
91.09385212044667
 20
-146.3507430189682
 30
0.0
 10
91.0490493438119
 20
-146.305975518979
 30
0.0
 10
90.99391017855194
 20
-146.305975518979
 30
0.0
 10
90.93880629106887
 20
-146.305975518979
 30
0.0
 10
90.89400351443412
 20
-146.3507430189682
 30
0.0
 10
90.89400351443412
 20
-146.4058821856206
 30
0.0
 10
90.89400351443412
 20
-146.4609860744962
 30
0.0
 10
90.93880629106887
 20
-146.5057888522623
 30
0.0
 10
90.99391017855194
 20
-146.5057888522623
 30
0.0
 10
91.0490493438119
 20
-146.5057888522623
 30
0.0
 10
91.09385212044667
 20
-146.4609860744962
 30
0.0
 10
91.09385212044667
 20
-146.4058821856206
 30
0.0
  0
SPLINE
  5
BE
330
1F
100
AcDbEntity
  8
_U+30EC_U+30A4_U+30E4_U+30FC 1
 62
   179
420
  2234388
370
     9
100
AcDbSpline
210
0.0
220
0.0
230
1.0
 70
    11
 71
     3
 72
    17
 73
    13
 74
     0
 42
0.0000000001
 43
0.0000000001
 12
1.0
 22
0.0
 32
0.0
 13
1.0
 23
0.0
 33
0.0
 40
0.0
 40
0.0
 40
0.0
 40
0.0
 40
1.0
 40
1.0
 40
1.0
 40
2.0
 40
2.0
 40
2.0
 40
3.0
 40
3.0
 40
3.0
 40
4.0
 40
4.0
 40
4.0
 40
4.0
 10
85.09384310685297
 20
-146.4058821856206
 30
0.0
 10
85.09384310685297
 20
-146.3507430189682
 30
0.0
 10
85.04907775651546
 20
-146.305975518979
 30
0.0
 10
84.99393644273515
 20
-146.305975518979
 30
0.0
 10
84.93883255525208
 20
-146.305975518979
 30
0.0
 10
84.89402977861731
 20
-146.3507430189682
 30
0.0
 10
84.89402977861731
 20
-146.4058821856206
 30
0.0
 10
84.89402977861731
 20
-146.4609860744962
 30
0.0
 10
84.93883255525208
 20
-146.5057888522623
 30
0.0
 10
84.99393644273515
 20
-146.5057888522623
 30
0.0
 10
85.04907775651546
 20
-146.5057888522623
 30
0.0
 10
85.09384310685297
 20
-146.4609860744962
 30
0.0
 10
85.09384310685297
 20
-146.4058821856206
 30
0.0
  0
SPLINE
  5
BF
330
1F
100
AcDbEntity
  8
_U+30EC_U+30A4_U+30E4_U+30FC 1
 62
   179
420
  2234388
370
     9
100
AcDbSpline
210
0.0
220
0.0
230
1.0
 70
    11
 71
     3
 72
    17
 73
    13
 74
     0
 42
0.0000000001
 43
0.0000000001
 12
1.0
 22
0.0
 32
0.0
 13
1.0
 23
0.0
 33
0.0
 40
0.0
 40
0.0
 40
0.0
 40
0.0
 40
1.0
 40
1.0
 40
1.0
 40
2.0
 40
2.0
 40
2.0
 40
3.0
 40
3.0
 40
3.0
 40
4.0
 40
4.0
 40
4.0
 40
4.0
 10
81.093413764468
 20
-142.4123319088415
 30
0.0
 10
81.093413764468
 20
-142.356522464411
 30
0.0
 10
81.04861098783323
 20
-142.3117196866443
 30
0.0
 10
80.99350710035016
 20
-142.3117196866443
 30
0.0
 10
80.9383679350902
 20
-142.3117196866443
 30
0.0
 10
80.89360043623232
 20
-142.356522464411
 30
0.0
 10
80.89360043623232
 20
-142.4123319088415
 30
0.0
 10
80.89360043623232
 20
-142.4674357977163
 30
0.0
 10
80.9383679350902
 20
-142.5122385754831
 30
0.0
 10
80.99350710035016
 20
-142.5122385754831
 30
0.0
 10
81.04861098783323
 20
-142.5122385754831
 30
0.0
 10
81.093413764468
 20
-142.4674357977163
 30
0.0
 10
81.093413764468
 20
-142.4123319088415
 30
0.0
  0
SPLINE
  5
C0
330
1F
100
AcDbEntity
  8
_U+30EC_U+30A4_U+30E4_U+30FC 1
 62
   179
420
  2234388
370
     9
100
AcDbSpline
210
0.0
220
0.0
230
1.0
 70
    11
 71
     3
 72
    17
 73
    13
 74
     0
 42
0.0000000001
 43
0.0000000001
 12
1.0
 22
0.0
 32
0.0
 13
1.0
 23
0.0
 33
0.0
 40
0.0
 40
0.0
 40
0.0
 40
0.0
 40
1.0
 40
1.0
 40
1.0
 40
2.0
 40
2.0
 40
2.0
 40
3.0
 40
3.0
 40
3.0
 40
4.0
 40
4.0
 40
4.0
 40
4.0
 10
81.093413764468
 20
-140.412117187119
 30
0.0
 10
81.093413764468
 20
-140.3569780204666
 30
0.0
 10
81.04861098783323
 20
-140.3122105204774
 30
0.0
 10
80.99350710035016
 20
-140.3122105204774
 30
0.0
 10
80.9383679350902
 20
-140.3122105204774
 30
0.0
 10
80.89360043623232
 20
-140.3569780204666
 30
0.0
 10
80.89360043623232
 20
-140.412117187119
 30
0.0
 10
80.89360043623232
 20
-140.4672210759946
 30
0.0
 10
80.9383679350902
 20
-140.5120238537606
 30
0.0
 10
80.99350710035016
 20
-140.5120238537606
 30
0.0
 10
81.04861098783323
 20
-140.5120238537606
 30
0.0
 10
81.093413764468
 20
-140.4672210759946
 30
0.0
 10
81.093413764468
 20
-140.412117187119
 30
0.0
  0
SPLINE
  5
C1
330
1F
100
AcDbEntity
  8
_U+30EC_U+30A4_U+30E4_U+30FC 1
 62
   179
420
  2234388
370
     9
100
AcDbSpline
210
0.0
220
0.0
230
1.0
 70
    11
 71
     3
 72
    17
 73
    13
 74
     0
 42
0.0000000001
 43
0.0000000001
 12
1.0
 22
0.0
 32
0.0
 13
1.0
 23
0.0
 33
0.0
 40
0.0
 40
0.0
 40
0.0
 40
0.0
 40
1.0
 40
1.0
 40
1.0
 40
2.0
 40
2.0
 40
2.0
 40
3.0
 40
3.0
 40
3.0
 40
4.0
 40
4.0
 40
4.0
 40
4.0
 10
87.09338750028479
 20
-112.9698513606466
 30
0.0
 10
87.09338750028479
 20
-112.9147121939935
 30
0.0
 10
87.04929027918759
 20
-112.8699446940046
 30
0.0
 10
86.99348083616697
 20
-112.8699446940046
 30
0.0
 10
86.9383769486839
 20
-112.8699446940046
 30
0.0
 10
86.89357417204913
 20
-112.9147121939935
 30
0.0
 10
86.89357417204913
 20
-112.9698513606466
 30
0.0
 10
86.89357417204913
 20
-113.0249552495215
 30
0.0
 10
86.9383769486839
 20
-113.0697580272882
 30
0.0
 10
86.99348083616697
 20
-113.0697580272882
 30
0.0
 10
87.04929027918759
 20
-113.0697580272882
 30
0.0
 10
87.09338750028479
 20
-113.0249552495215
 30
0.0
 10
87.09338750028479
 20
-112.9698513606466
 30
0.0
  0
SPLINE
  5
C2
330
1F
100
AcDbEntity
  8
_U+30EC_U+30A4_U+30E4_U+30FC 1
 62
   179
420
  2234388
370
     9
100
AcDbSpline
210
0.0
220
0.0
230
1.0
 70
    11
 71
     3
 72
    17
 73
    13
 74
     0
 42
0.0000000001
 43
0.0000000001
 12
1.0
 22
0.0
 32
0.0
 13
1.0
 23
0.0
 33
0.0
 40
0.0
 40
0.0
 40
0.0
 40
0.0
 40
1.0
 40
1.0
 40
1.0
 40
2.0
 40
2.0
 40
2.0
 40
3.0
 40
3.0
 40
3.0
 40
4.0
 40
4.0
 40
4.0
 40
4.0
 10
103.0937995920803
 20
-112.9698513606466
 30
0.0
 10
103.0937995920803
 20
-112.9147121939935
 30
0.0
 10
103.0489968154455
 20
-112.8699446940046
 30
0.0
 10
102.9938929279624
 20
-112.8699446940046
 30
0.0
 10
102.9387537627025
 20
-112.8699446940046
 30
0.0
 10
102.8939888631653
 20
-112.9147121939935
 30
0.0
 10
102.8939888631653
 20
-112.9698513606466
 30
0.0
 10
102.8939888631653
 20
-113.0249552495215
 30
0.0
 10
102.9387537627025
 20
-113.0697580272882
 30
0.0
 10
102.9938929279624
 20
-113.0697580272882
 30
0.0
 10
103.0489968154455
 20
-113.0697580272882
 30
0.0
 10
103.0937995920803
 20
-113.0249552495215
 30
0.0
 10
103.0937995920803
 20
-112.9698513606466
 30
0.0
  0
POLYLINE
  5
C3
330
1F
100
AcDbEntity
  8
_U+30EC_U+30A4_U+30E4_U+30FC 1
 62
   179
420
  2234388
370
     9
100
AcDb2dPolyline
 66
     1
 10
0.0
 20
0.0
 30
0.0
  0
VERTEX
  5
C4
330
C3
100
AcDbEntity
  8
_U+30EC_U+30A4_U+30E4_U+30FC 1
 62
   179
420
  2234388
370
     9
100
AcDbVertex
100
AcDb2dVertex
 10
86.99348083616697
 20
-112.9698513606466
 30
0.0
  0
VERTEX
  5
C5
330
C3
100
AcDbEntity
  8
_U+30EC_U+30A4_U+30E4_U+30FC 1
 62
   179
420
  2234388
370
     9
100
AcDbVertex
100
AcDb2dVertex
 10
102.9938929279624
 20
-112.9698513606466
 30
0.0
  0
SEQEND
  5
C6
330
C3
100
AcDbEntity
  8
_U+30EC_U+30A4_U+30E4_U+30FC 1
 62
   179
420
  2234388
370
     9
  0
POLYLINE
  5
C7
330
1F
100
AcDbEntity
  8
_U+30EC_U+30A4_U+30E4_U+30FC 1
 62
   179
420
  2234388
370
     9
100
AcDb2dPolyline
 66
     1
 10
0.0
 20
0.0
 30
0.0
  0
VERTEX
  5
C8
330
C7
100
AcDbEntity
  8
_U+30EC_U+30A4_U+30E4_U+30FC 1
 62
   179
420
  2234388
370
     9
100
AcDbVertex
100
AcDb2dVertex
 10
86.99348083616697
 20
-114.4298927491703
 30
0.0
  0
VERTEX
  5
C9
330
C7
100
AcDbEntity
  8
_U+30EC_U+30A4_U+30E4_U+30FC 1
 62
   179
420
  2234388
370
     9
100
AcDbVertex
100
AcDb2dVertex
 10
86.99348083616697
 20
-111.9697263608966
 30
0.0
  0
SEQEND
  5
CA
330
C7
100
AcDbEntity
  8
_U+30EC_U+30A4_U+30E4_U+30FC 1
 62
   179
420
  2234388
370
     9
  0
POLYLINE
  5
CB
330
1F
100
AcDbEntity
  8
_U+30EC_U+30A4_U+30E4_U+30FC 1
 62
   179
420
  2234388
370
     9
100
AcDb2dPolyline
 66
     1
 10
0.0
 20
0.0
 30
0.0
  0
VERTEX
  5
CC
330
CB
100
AcDbEntity
  8
_U+30EC_U+30A4_U+30E4_U+30FC 1
 62
   179
420
  2234388
370
     9
100
AcDbVertex
100
AcDb2dVertex
 10
102.9938929279624
 20
-114.4298927491703
 30
0.0
  0
VERTEX
  5
CD
330
CB
100
AcDbEntity
  8
_U+30EC_U+30A4_U+30E4_U+30FC 1
 62
   179
420
  2234388
370
     9
100
AcDbVertex
100
AcDb2dVertex
 10
102.9938929279624
 20
-111.9697263608966
 30
0.0
  0
SEQEND
  5
CE
330
CB
100
AcDbEntity
  8
_U+30EC_U+30A4_U+30E4_U+30FC 1
 62
   179
420
  2234388
370
     9
  0
INSERT
  5
D0
330
1F
100
AcDbEntity
  8
_U+30EC_U+30A4_U+30E4_U+30FC 1
100
AcDbBlockReference
  2
block 2
 10
0.0
 20
0.0
 30
0.0
  0
INSERT
  5
D9
330
1F
100
AcDbEntity
  8
_U+30EC_U+30A4_U+30E4_U+30FC 1
100
AcDbBlockReference
  2
block 3
 10
0.0
 20
0.0
 30
0.0
  0
INSERT
  5
DE
330
1F
100
AcDbEntity
  8
_U+30EC_U+30A4_U+30E4_U+30FC 1
100
AcDbBlockReference
  2
block 4
 10
0.0
 20
0.0
 30
0.0
  0
INSERT
  5
E3
330
1F
100
AcDbEntity
  8
_U+30EC_U+30A4_U+30E4_U+30FC 1
100
AcDbBlockReference
  2
block 5
 10
0.0
 20
0.0
 30
0.0
  0
POLYLINE
  5
E7
330
1F
100
AcDbEntity
  8
_U+30EC_U+30A4_U+30E4_U+30FC 1
 62
   179
420
  2234388
370
     9
100
AcDb2dPolyline
 66
     1
 10
0.0
 20
0.0
 30
0.0
  0
VERTEX
  5
E8
330
E7
100
AcDbEntity
  8
_U+30EC_U+30A4_U+30E4_U+30FC 1
 62
   179
420
  2234388
370
     9
100
AcDbVertex
100
AcDb2dVertex
 10
84.99393644273515
 20
-146.4058821856206
 30
0.0
  0
VERTEX
  5
E9
330
E7
100
AcDbEntity
  8
_U+30EC_U+30A4_U+30E4_U+30FC 1
 62
   179
420
  2234388
370
     9
100
AcDbVertex
100
AcDb2dVertex
 10
90.99391017855194
 20
-146.4058821856206
 30
0.0
  0
SEQEND
  5
EA
330
E7
100
AcDbEntity
  8
_U+30EC_U+30A4_U+30E4_U+30FC 1
 62
   179
420
  2234388
370
     9
  0
POLYLINE
  5
EB
330
1F
100
AcDbEntity
  8
_U+30EC_U+30A4_U+30E4_U+30FC 1
 62
   179
420
  2234388
370
     9
100
AcDb2dPolyline
 66
     1
 10
0.0
 20
0.0
 30
0.0
  0
VERTEX
  5
EC
330
EB
100
AcDbEntity
  8
_U+30EC_U+30A4_U+30E4_U+30FC 1
 62
   179
420
  2234388
370
     9
100
AcDbVertex
100
AcDb2dVertex
 10
84.99393644273515
 20
-144.9458407970969
 30
0.0
  0
VERTEX
  5
ED
330
EB
100
AcDbEntity
  8
_U+30EC_U+30A4_U+30E4_U+30FC 1
 62
   179
420
  2234388
370
     9
100
AcDbVertex
100
AcDb2dVertex
 10
84.99393644273515
 20
-147.4056544075932
 30
0.0
  0
SEQEND
  5
EE
330
EB
100
AcDbEntity
  8
_U+30EC_U+30A4_U+30E4_U+30FC 1
 62
   179
420
  2234388
370
     9
  0
POLYLINE
  5
EF
330
1F
100
AcDbEntity
  8
_U+30EC_U+30A4_U+30E4_U+30FC 1
 62
   179
420
  2234388
370
     9
100
AcDb2dPolyline
 66
     1
 10
0.0
 20
0.0
 30
0.0
  0
VERTEX
  5
F0
330
EF
100
AcDbEntity
  8
_U+30EC_U+30A4_U+30E4_U+30FC 1
 62
   179
420
  2234388
370
     9
100
AcDbVertex
100
AcDb2dVertex
 10
90.99391017855194
 20
-144.9458407970969
 30
0.0
  0
VERTEX
  5
F1
330
EF
100
AcDbEntity
  8
_U+30EC_U+30A4_U+30E4_U+30FC 1
 62
   179
420
  2234388
370
     9
100
AcDbVertex
100
AcDb2dVertex
 10
90.99391017855194
 20
-147.4056544075932
 30
0.0
  0
SEQEND
  5
F2
330
EF
100
AcDbEntity
  8
_U+30EC_U+30A4_U+30E4_U+30FC 1
 62
   179
420
  2234388
370
     9
  0
INSERT
  5
F4
330
1F
100
AcDbEntity
  8
_U+30EC_U+30A4_U+30E4_U+30FC 1
100
AcDbBlockReference
  2
block 6
 10
0.0
 20
0.0
 30
0.0
  0
INSERT
  5
FB
330
1F
100
AcDbEntity
  8
_U+30EC_U+30A4_U+30E4_U+30FC 1
100
AcDbBlockReference
  2
block 7
 10
0.0
 20
0.0
 30
0.0
  0
POLYLINE
  5
FF
330
1F
100
AcDbEntity
  8
_U+30EC_U+30A4_U+30E4_U+30FC 1
 62
   179
420
  2234388
370
     9
100
AcDb2dPolyline
 66
     1
 10
0.0
 20
0.0
 30
0.0
  0
VERTEX
  5
100
330
FF
100
AcDbEntity
  8
_U+30EC_U+30A4_U+30E4_U+30FC 1
 62
   179
420
  2234388
370
     9
100
AcDbVertex
100
AcDb2dVertex
 10
90.99391017855194
 20
-146.4058821856206
 30
0.0
  0
VERTEX
  5
101
330
FF
100
AcDbEntity
  8
_U+30EC_U+30A4_U+30E4_U+30FC 1
 62
   179
420
  2234388
370
     9
100
AcDbVertex
100
AcDb2dVertex
 10
98.99342830780057
 20
-146.4058821856206
 30
0.0
  0
SEQEND
  5
102
330
FF
100
AcDbEntity
  8
_U+30EC_U+30A4_U+30E4_U+30FC 1
 62
   179
420
  2234388
370
     9
  0
POLYLINE
  5
103
330
1F
100
AcDbEntity
  8
_U+30EC_U+30A4_U+30E4_U+30FC 1
 62
   179
420
  2234388
370
     9
100
AcDb2dPolyline
 66
     1
 10
0.0
 20
0.0
 30
0.0
  0
VERTEX
  5
104
330
103
100
AcDbEntity
  8
_U+30EC_U+30A4_U+30E4_U+30FC 1
 62
   179
420
  2234388
370
     9
100
AcDbVertex
100
AcDb2dVertex
 10
98.99342830780057
 20
-144.9458407970969
 30
0.0
  0
VERTEX
  5
105
330
103
100
AcDbEntity
  8
_U+30EC_U+30A4_U+30E4_U+30FC 1
 62
   179
420
  2234388
370
     9
100
AcDbVertex
100
AcDb2dVertex
 10
98.99342830780057
 20
-147.4056544075932
 30
0.0
  0
SEQEND
  5
106
330
103
100
AcDbEntity
  8
_U+30EC_U+30A4_U+30E4_U+30FC 1
 62
   179
420
  2234388
370
     9
  0
INSERT
  5
108
330
1F
100
AcDbEntity
  8
_U+30EC_U+30A4_U+30E4_U+30FC 1
100
AcDbBlockReference
  2
block 8
 10
0.0
 20
0.0
 30
0.0
  0
INSERT
  5
110
330
1F
100
AcDbEntity
  8
_U+30EC_U+30A4_U+30E4_U+30FC 1
100
AcDbBlockReference
  2
block 9
 10
0.0
 20
0.0
 30
0.0
  0
POLYLINE
  5
114
330
1F
100
AcDbEntity
  8
_U+30EC_U+30A4_U+30E4_U+30FC 1
 62
   179
420
  2234388
370
     9
100
AcDb2dPolyline
 66
     1
 10
0.0
 20
0.0
 30
0.0
  0
VERTEX
  5
115
330
114
100
AcDbEntity
  8
_U+30EC_U+30A4_U+30E4_U+30FC 1
 62
   179
420
  2234388
370
     9
100
AcDbVertex
100
AcDb2dVertex
 10
98.99342830780057
 20
-146.4058821856206
 30
0.0
  0
VERTEX
  5
116
330
114
100
AcDbEntity
  8
_U+30EC_U+30A4_U+30E4_U+30FC 1
 62
   179
420
  2234388
370
     9
100
AcDbVertex
100
AcDb2dVertex
 10
104.9934020436174
 20
-146.4058821856206
 30
0.0
  0
SEQEND
  5
117
330
114
100
AcDbEntity
  8
_U+30EC_U+30A4_U+30E4_U+30FC 1
 62
   179
420
  2234388
370
     9
  0
POLYLINE
  5
118
330
1F
100
AcDbEntity
  8
_U+30EC_U+30A4_U+30E4_U+30FC 1
 62
   179
420
  2234388
370
     9
100
AcDb2dPolyline
 66
     1
 10
0.0
 20
0.0
 30
0.0
  0
VERTEX
  5
119
330
118
100
AcDbEntity
  8
_U+30EC_U+30A4_U+30E4_U+30FC 1
 62
   179
420
  2234388
370
     9
100
AcDbVertex
100
AcDb2dVertex
 10
104.9934020436174
 20
-144.9458407970969
 30
0.0
  0
VERTEX
  5
11A
330
118
100
AcDbEntity
  8
_U+30EC_U+30A4_U+30E4_U+30FC 1
 62
   179
420
  2234388
370
     9
100
AcDbVertex
100
AcDb2dVertex
 10
104.9934020436174
 20
-147.4056544075932
 30
0.0
  0
SEQEND
  5
11B
330
118
100
AcDbEntity
  8
_U+30EC_U+30A4_U+30E4_U+30FC 1
 62
   179
420
  2234388
370
     9
  0
INSERT
  5
11D
330
1F
100
AcDbEntity
  8
_U+30EC_U+30A4_U+30E4_U+30FC 1
100
AcDbBlockReference
  2
block 10
 10
0.0
 20
0.0
 30
0.0
  0
INSERT
  5
124
330
1F
100
AcDbEntity
  8
_U+30EC_U+30A4_U+30E4_U+30FC 1
100
AcDbBlockReference
  2
block 11
 10
0.0
 20
0.0
 30
0.0
  0
POLYLINE
  5
128
330
1F
100
AcDbEntity
  8
_U+30EC_U+30A4_U+30E4_U+30FC 1
 62
   179
420
  2234388
370
     9
100
AcDb2dPolyline
 66
     1
 10
0.0
 20
0.0
 30
0.0
  0
VERTEX
  5
129
330
128
100
AcDbEntity
  8
_U+30EC_U+30A4_U+30E4_U+30FC 1
 62
   179
420
  2234388
370
     9
100
AcDbVertex
100
AcDb2dVertex
 10
80.99350710035016
 20
-142.4123319088415
 30
0.0
  0
VERTEX
  5
12A
330
128
100
AcDbEntity
  8
_U+30EC_U+30A4_U+30E4_U+30FC 1
 62
   179
420
  2234388
370
     9
100
AcDbVertex
100
AcDb2dVertex
 10
80.99350710035016
 20
-140.412117187119
 30
0.0
  0
SEQEND
  5
12B
330
128
100
AcDbEntity
  8
_U+30EC_U+30A4_U+30E4_U+30FC 1
 62
   179
420
  2234388
370
     9
  0
POLYLINE
  5
12C
330
1F
100
AcDbEntity
  8
_U+30EC_U+30A4_U+30E4_U+30FC 1
 62
   179
420
  2234388
370
     9
100
AcDb2dPolyline
 66
     1
 10
0.0
 20
0.0
 30
0.0
  0
VERTEX
  5
12D
330
12C
100
AcDbEntity
  8
_U+30EC_U+30A4_U+30E4_U+30FC 1
 62
   179
420
  2234388
370
     9
100
AcDbVertex
100
AcDb2dVertex
 10
82.45354845199029
 20
-142.4123319088415
 30
0.0
  0
VERTEX
  5
12E
330
12C
100
AcDbEntity
  8
_U+30EC_U+30A4_U+30E4_U+30FC 1
 62
   179
420
  2234388
370
     9
100
AcDbVertex
100
AcDb2dVertex
 10
79.99373490363425
 20
-142.4123319088415
 30
0.0
  0
SEQEND
  5
12F
330
12C
100
AcDbEntity
  8
_U+30EC_U+30A4_U+30E4_U+30FC 1
 62
   179
420
  2234388
370
     9
  0
POLYLINE
  5
130
330
1F
100
AcDbEntity
  8
_U+30EC_U+30A4_U+30E4_U+30FC 1
 62
   179
420
  2234388
370
     9
100
AcDb2dPolyline
 66
     1
 10
0.0
 20
0.0
 30
0.0
  0
VERTEX
  5
131
330
130
100
AcDbEntity
  8
_U+30EC_U+30A4_U+30E4_U+30FC 1
 62
   179
420
  2234388
370
     9
100
AcDbVertex
100
AcDb2dVertex
 10
82.45354845199029
 20
-140.412117187119
 30
0.0
  0
VERTEX
  5
132
330
130
100
AcDbEntity
  8
_U+30EC_U+30A4_U+30E4_U+30FC 1
 62
   179
420
  2234388
370
     9
100
AcDbVertex
100
AcDb2dVertex
 10
79.99373490363425
 20
-140.412117187119
 30
0.0
  0
SEQEND
  5
133
330
130
100
AcDbEntity
  8
_U+30EC_U+30A4_U+30E4_U+30FC 1
 62
   179
420
  2234388
370
     9
  0
INSERT
  5
135
330
1F
100
AcDbEntity
  8
_U+30EC_U+30A4_U+30E4_U+30FC 1
100
AcDbBlockReference
  2
block 12
 10
0.0
 20
0.0
 30
0.0
  0
INSERT
  5
13B
330
1F
100
AcDbEntity
  8
_U+30EC_U+30A4_U+30E4_U+30FC 1
100
AcDbBlockReference
  2
block 13
 10
0.0
 20
0.0
 30
0.0
  0
POLYLINE
  5
13F
330
1F
100
AcDbEntity
  8
_U+30EC_U+30A4_U+30E4_U+30FC 1
 62
   179
420
  2234388
370
     9
100
AcDb2dPolyline
 66
     1
 10
0.0
 20
0.0
 30
0.0
  0
VERTEX
  5
140
330
13F
100
AcDbEntity
  8
_U+30EC_U+30A4_U+30E4_U+30FC 1
 62
   179
420
  2234388
370
     9
100
AcDbVertex
100
AcDb2dVertex
 10
80.99350710035016
 20
-140.412117187119
 30
0.0
  0
VERTEX
  5
141
330
13F
100
AcDbEntity
  8
_U+30EC_U+30A4_U+30E4_U+30FC 1
 62
   179
420
  2234388
370
     9
100
AcDbVertex
100
AcDb2dVertex
 10
80.99350710035016
 20
-117.8829169149736
 30
0.0
  0
SEQEND
  5
142
330
13F
100
AcDbEntity
  8
_U+30EC_U+30A4_U+30E4_U+30FC 1
 62
   179
420
  2234388
370
     9
  0
POLYLINE
  5
143
330
1F
100
AcDbEntity
  8
_U+30EC_U+30A4_U+30E4_U+30FC 1
 62
   179
420
  2234388
370
     9
100
AcDb2dPolyline
 66
     1
 10
0.0
 20
0.0
 30
0.0
  0
VERTEX
  5
144
330
143
100
AcDbEntity
  8
_U+30EC_U+30A4_U+30E4_U+30FC 1
 62
   179
420
  2234388
370
     9
100
AcDbVertex
100
AcDb2dVertex
 10
82.45354845199029
 20
-140.412117187119
 30
0.0
  0
VERTEX
  5
145
330
143
100
AcDbEntity
  8
_U+30EC_U+30A4_U+30E4_U+30FC 1
 62
   179
420
  2234388
370
     9
100
AcDbVertex
100
AcDb2dVertex
 10
79.99373490363425
 20
-140.412117187119
 30
0.0
  0
SEQEND
  5
146
330
143
100
AcDbEntity
  8
_U+30EC_U+30A4_U+30E4_U+30FC 1
 62
   179
420
  2234388
370
     9
  0
POLYLINE
  5
147
330
1F
100
AcDbEntity
  8
_U+30EC_U+30A4_U+30E4_U+30FC 1
 62
   179
420
  2234388
370
     9
100
AcDb2dPolyline
 66
     1
 10
0.0
 20
0.0
 30
0.0
  0
VERTEX
  5
148
330
147
100
AcDbEntity
  8
_U+30EC_U+30A4_U+30E4_U+30FC 1
 62
   179
420
  2234388
370
     9
100
AcDbVertex
100
AcDb2dVertex
 10
84.45376312318278
 20
-117.9108216371888
 30
0.0
  0
VERTEX
  5
149
330
147
100
AcDbEntity
  8
_U+30EC_U+30A4_U+30E4_U+30FC 1
 62
   179
420
  2234388
370
     9
100
AcDbVertex
100
AcDb2dVertex
 10
79.99373490363425
 20
-117.9108216371888
 30
0.0
  0
SEQEND
  5
14A
330
147
100
AcDbEntity
  8
_U+30EC_U+30A4_U+30E4_U+30FC 1
 62
   179
420
  2234388
370
     9
  0
INSERT
  5
14C
330
1F
100
AcDbEntity
  8
_U+30EC_U+30A4_U+30E4_U+30FC 1
100
AcDbBlockReference
  2
block 14
 10
0.0
 20
0.0
 30
0.0
  0
INSERT
  5
15E
330
1F
100
AcDbEntity
  8
_U+30EC_U+30A4_U+30E4_U+30FC 1
100
AcDbBlockReference
  2
block 15
 10
0.0
 20
0.0
 30
0.0
  0
POLYLINE
  5
162
330
1F
100
AcDbEntity
  8
_U+30EC_U+30A4_U+30E4_U+30FC 1
 62
   179
420
  2234388
370
    25
100
AcDb2dPolyline
 66
     1
 10
0.0
 20
0.0
 30
0.0
  0
VERTEX
  5
163
330
162
100
AcDbEntity
  8
_U+30EC_U+30A4_U+30E4_U+30FC 1
 62
   179
420
  2234388
370
    25
100
AcDbVertex
100
AcDb2dVertex
 10
86.99348083616697
 20
-117.6648296928059
 30
0.0
  0
VERTEX
  5
164
330
162
100
AcDbEntity
  8
_U+30EC_U+30A4_U+30E4_U+30FC 1
 62
   179
420
  2234388
370
    25
100
AcDbVertex
100
AcDb2dVertex
 10
86.99348083616697
 20
-140.4155391315628
 30
0.0
  0
SEQEND
  5
165
330
162
100
AcDbEntity
  8
_U+30EC_U+30A4_U+30E4_U+30FC 1
 62
   179
420
  2234388
370
    25
  0
POLYLINE
  5
166
330
1F
100
AcDbEntity
  8
_U+30EC_U+30A4_U+30E4_U+30FC 1
 62
   179
420
  2234388
370
    25
100
AcDb2dPolyline
 66
     1
 10
0.0
 20
0.0
 30
0.0
  0
VERTEX
  5
167
330
166
100
AcDbEntity
  8
_U+30EC_U+30A4_U+30E4_U+30FC 1
 62
   179
420
  2234388
370
    25
100
AcDbVertex
100
AcDb2dVertex
 10
102.9938929279624
 20
-117.6648296928059
 30
0.0
  0
VERTEX
  5
168
330
166
100
AcDbEntity
  8
_U+30EC_U+30A4_U+30E4_U+30FC 1
 62
   179
420
  2234388
370
    25
100
AcDbVertex
100
AcDb2dVertex
 10
102.9938929279624
 20
-140.4045324648991
 30
0.0
  0
SEQEND
  5
169
330
166
100
AcDbEntity
  8
_U+30EC_U+30A4_U+30E4_U+30FC 1
 62
   179
420
  2234388
370
    25
  0
POLYLINE
  5
16A
330
1F
100
AcDbEntity
  8
_U+30EC_U+30A4_U+30E4_U+30FC 1
 62
   179
420
  2234388
370
    25
100
AcDb2dPolyline
 66
     1
 10
0.0
 20
0.0
 30
0.0
  0
VERTEX
  5
16B
330
16A
100
AcDbEntity
  8
_U+30EC_U+30A4_U+30E4_U+30FC 1
 62
   179
420
  2234388
370
    25
100
AcDbVertex
100
AcDb2dVertex
 10
86.99348083616697
 20
-117.6648296928059
 30
0.0
  0
VERTEX
  5
16C
330
16A
100
AcDbEntity
  8
_U+30EC_U+30A4_U+30E4_U+30FC 1
 62
   179
420
  2234388
370
    25
100
AcDbVertex
100
AcDb2dVertex
 10
90.99391017855194
 20
-117.6648296928059
 30
0.0
  0
SEQEND
  5
16D
330
16A
100
AcDbEntity
  8
_U+30EC_U+30A4_U+30E4_U+30FC 1
 62
   179
420
  2234388
370
    25
  0
POLYLINE
  5
16E
330
1F
100
AcDbEntity
  8
_U+30EC_U+30A4_U+30E4_U+30FC 1
 62
   179
420
  2234388
370
    25
100
AcDb2dPolyline
 66
     1
 10
0.0
 20
0.0
 30
0.0
  0
VERTEX
  5
16F
330
16E
100
AcDbEntity
  8
_U+30EC_U+30A4_U+30E4_U+30FC 1
 62
   179
420
  2234388
370
    25
100
AcDbVertex
100
AcDb2dVertex
 10
84.99393644273515
 20
-140.4155391315628
 30
0.0
  0
VERTEX
  5
170
330
16E
100
AcDbEntity
  8
_U+30EC_U+30A4_U+30E4_U+30FC 1
 62
   179
420
  2234388
370
    25
100
AcDbVertex
100
AcDb2dVertex
 10
86.99348083616697
 20
-140.4155391315628
 30
0.0
  0
SEQEND
  5
171
330
16E
100
AcDbEntity
  8
_U+30EC_U+30A4_U+30E4_U+30FC 1
 62
   179
420
  2234388
370
    25
  0
POLYLINE
  5
172
330
1F
100
AcDbEntity
  8
_U+30EC_U+30A4_U+30E4_U+30FC 1
 62
   179
420
  2234388
370
    25
100
AcDb2dPolyline
 66
     1
 10
0.0
 20
0.0
 30
0.0
  0
VERTEX
  5
173
330
172
100
AcDbEntity
  8
_U+30EC_U+30A4_U+30E4_U+30FC 1
 62
   179
420
  2234388
370
    25
100
AcDbVertex
100
AcDb2dVertex
 10
102.9938929279624
 20
-140.4045324648991
 30
0.0
  0
VERTEX
  5
174
330
172
100
AcDbEntity
  8
_U+30EC_U+30A4_U+30E4_U+30FC 1
 62
   179
420
  2234388
370
    25
100
AcDbVertex
100
AcDb2dVertex
 10
104.9934020436174
 20
-140.4045324648991
 30
0.0
  0
SEQEND
  5
175
330
172
100
AcDbEntity
  8
_U+30EC_U+30A4_U+30E4_U+30FC 1
 62
   179
420
  2234388
370
    25
  0
POLYLINE
  5
176
330
1F
100
AcDbEntity
  8
_U+30EC_U+30A4_U+30E4_U+30FC 1
 62
   179
420
  2234388
370
    25
100
AcDb2dPolyline
 66
     1
 10
0.0
 20
0.0
 30
0.0
  0
VERTEX
  5
177
330
176
100
AcDbEntity
  8
_U+30EC_U+30A4_U+30E4_U+30FC 1
 62
   179
420
  2234388
370
    25
100
AcDbVertex
100
AcDb2dVertex
 10
88.99369550735946
 20
-140.4065785760093
 30
0.0
  0
VERTEX
  5
178
330
176
100
AcDbEntity
  8
_U+30EC_U+30A4_U+30E4_U+30FC 1
 62
   179
420
  2234388
370
    25
100
AcDbVertex
100
AcDb2dVertex
 10
90.99391017855194
 20
-140.4065785760093
 30
0.0
  0
SEQEND
  5
179
330
176
100
AcDbEntity
  8
_U+30EC_U+30A4_U+30E4_U+30FC 1
 62
   179
420
  2234388
370
    25
  0
POLYLINE
  5
17A
330
1F
100
AcDbEntity
  8
_U+30EC_U+30A4_U+30E4_U+30FC 1
 62
   179
420
  2234388
370
    25
100
AcDb2dPolyline
 66
     1
 10
0.0
 20
0.0
 30
0.0
  0
VERTEX
  5
17B
330
17A
100
AcDbEntity
  8
_U+30EC_U+30A4_U+30E4_U+30FC 1
 62
   179
420
  2234388
370
    25
100
AcDbVertex
100
AcDb2dVertex
 10
98.99342830780057
 20
-140.4045324648991
 30
0.0
  0
VERTEX
  5
17C
330
17A
100
AcDbEntity
  8
_U+30EC_U+30A4_U+30E4_U+30FC 1
 62
   179
420
  2234388
370
    25
100
AcDbVertex
100
AcDb2dVertex
 10
100.9936782567699
 20
-140.4045324648991
 30
0.0
  0
SEQEND
  5
17D
330
17A
100
AcDbEntity
  8
_U+30EC_U+30A4_U+30E4_U+30FC 1
 62
   179
420
  2234388
370
    25
  0
POLYLINE
  5
17E
330
1F
100
AcDbEntity
  8
_U+30EC_U+30A4_U+30E4_U+30FC 1
 62
   179
420
  2234388
370
    25
100
AcDb2dPolyline
 66
     1
 10
0.0
 20
0.0
 30
0.0
  0
VERTEX
  5
17F
330
17E
100
AcDbEntity
  8
_U+30EC_U+30A4_U+30E4_U+30FC 1
 62
   179
420
  2234388
370
    25
100
AcDbVertex
100
AcDb2dVertex
 10
100.9936782567699
 20
-129.6230791342608
 30
0.0
  0
VERTEX
  5
180
330
17E
100
AcDbEntity
  8
_U+30EC_U+30A4_U+30E4_U+30FC 1
 62
   179
420
  2234388
370
    25
100
AcDbVertex
100
AcDb2dVertex
 10
100.9936782567699
 20
-140.4045324648991
 30
0.0
  0
SEQEND
  5
181
330
17E
100
AcDbEntity
  8
_U+30EC_U+30A4_U+30E4_U+30FC 1
 62
   179
420
  2234388
370
    25
  0
POLYLINE
  5
182
330
1F
100
AcDbEntity
  8
_U+30EC_U+30A4_U+30E4_U+30FC 1
 62
   179
420
  2234388
370
    25
100
AcDb2dPolyline
 66
     1
 10
0.0
 20
0.0
 30
0.0
  0
VERTEX
  5
183
330
182
100
AcDbEntity
  8
_U+30EC_U+30A4_U+30E4_U+30FC 1
 62
   179
420
  2234388
370
    25
100
AcDbVertex
100
AcDb2dVertex
 10
88.99369550735946
 20
-119.04422608135
 30
0.0
  0
VERTEX
  5
184
330
182
100
AcDbEntity
  8
_U+30EC_U+30A4_U+30E4_U+30FC 1
 62
   179
420
  2234388
370
    25
100
AcDbVertex
100
AcDb2dVertex
 10
88.99369550735946
 20
-123.5080644135674
 30
0.0
  0
SEQEND
  5
185
330
182
100
AcDbEntity
  8
_U+30EC_U+30A4_U+30E4_U+30FC 1
 62
   179
420
  2234388
370
    25
  0
POLYLINE
  5
186
330
1F
100
AcDbEntity
  8
_U+30EC_U+30A4_U+30E4_U+30FC 1
 62
   179
420
  2234388
370
    25
100
AcDb2dPolyline
 66
     1
 10
0.0
 20
0.0
 30
0.0
  0
VERTEX
  5
187
330
186
100
AcDbEntity
  8
_U+30EC_U+30A4_U+30E4_U+30FC 1
 62
   179
420
  2234388
370
    25
100
AcDbVertex
100
AcDb2dVertex
 10
90.99391017855194
 20
-117.6648296928059
 30
0.0
  0
VERTEX
  5
188
330
186
100
AcDbEntity
  8
_U+30EC_U+30A4_U+30E4_U+30FC 1
 62
   179
420
  2234388
370
    25
100
AcDbVertex
100
AcDb2dVertex
 10
90.99391017855194
 20
-119.04422608135
 30
0.0
  0
SEQEND
  5
189
330
186
100
AcDbEntity
  8
_U+30EC_U+30A4_U+30E4_U+30FC 1
 62
   179
420
  2234388
370
    25
  0
POLYLINE
  5
18A
330
1F
100
AcDbEntity
  8
_U+30EC_U+30A4_U+30E4_U+30FC 1
 62
   179
420
  2234388
370
    25
100
AcDb2dPolyline
 66
     1
 10
0.0
 20
0.0
 30
0.0
  0
VERTEX
  5
18B
330
18A
100
AcDbEntity
  8
_U+30EC_U+30A4_U+30E4_U+30FC 1
 62
   179
420
  2234388
370
    25
100
AcDbVertex
100
AcDb2dVertex
 10
98.99342830780057
 20
-117.6648296928059
 30
0.0
  0
VERTEX
  5
18C
330
18A
100
AcDbEntity
  8
_U+30EC_U+30A4_U+30E4_U+30FC 1
 62
   179
420
  2234388
370
    25
100
AcDbVertex
100
AcDb2dVertex
 10
98.99342830780057
 20
-119.04422608135
 30
0.0
  0
SEQEND
  5
18D
330
18A
100
AcDbEntity
  8
_U+30EC_U+30A4_U+30E4_U+30FC 1
 62
   179
420
  2234388
370
    25
  0
POLYLINE
  5
18E
330
1F
100
AcDbEntity
  8
_U+30EC_U+30A4_U+30E4_U+30FC 1
 62
   179
420
  2234388
370
    25
100
AcDb2dPolyline
 66
     1
 10
0.0
 20
0.0
 30
0.0
  0
VERTEX
  5
18F
330
18E
100
AcDbEntity
  8
_U+30EC_U+30A4_U+30E4_U+30FC 1
 62
   179
420
  2234388
370
    25
100
AcDbVertex
100
AcDb2dVertex
 10
88.99369550735946
 20
-119.04422608135
 30
0.0
  0
VERTEX
  5
190
330
18E
100
AcDbEntity
  8
_U+30EC_U+30A4_U+30E4_U+30FC 1
 62
   179
420
  2234388
370
    25
100
AcDbVertex
100
AcDb2dVertex
 10
90.99391017855194
 20
-119.04422608135
 30
0.0
  0
SEQEND
  5
191
330
18E
100
AcDbEntity
  8
_U+30EC_U+30A4_U+30E4_U+30FC 1
 62
   179
420
  2234388
370
    25
  0
POLYLINE
  5
192
330
1F
100
AcDbEntity
  8
_U+30EC_U+30A4_U+30E4_U+30FC 1
 62
   179
420
  2234388
370
    25
100
AcDb2dPolyline
 66
     1
 10
0.0
 20
0.0
 30
0.0
  0
VERTEX
  5
193
330
192
100
AcDbEntity
  8
_U+30EC_U+30A4_U+30E4_U+30FC 1
 62
   179
420
  2234388
370
    25
100
AcDbVertex
100
AcDb2dVertex
 10
98.99342830780057
 20
-117.6648296928059
 30
0.0
  0
VERTEX
  5
194
330
192
100
AcDbEntity
  8
_U+30EC_U+30A4_U+30E4_U+30FC 1
 62
   179
420
  2234388
370
    25
100
AcDbVertex
100
AcDb2dVertex
 10
102.9938929279624
 20
-117.6648296928059
 30
0.0
  0
SEQEND
  5
195
330
192
100
AcDbEntity
  8
_U+30EC_U+30A4_U+30E4_U+30FC 1
 62
   179
420
  2234388
370
    25
  0
POLYLINE
  5
196
330
1F
100
AcDbEntity
  8
_U+30EC_U+30A4_U+30E4_U+30FC 1
 62
   179
420
  2234388
370
    25
100
AcDb2dPolyline
 66
     1
 10
0.0
 20
0.0
 30
0.0
  0
VERTEX
  5
197
330
196
100
AcDbEntity
  8
_U+30EC_U+30A4_U+30E4_U+30FC 1
 62
   179
420
  2234388
370
    25
100
AcDbVertex
100
AcDb2dVertex
 10
98.99342830780057
 20
-119.04422608135
 30
0.0
  0
VERTEX
  5
198
330
196
100
AcDbEntity
  8
_U+30EC_U+30A4_U+30E4_U+30FC 1
 62
   179
420
  2234388
370
    25
100
AcDbVertex
100
AcDb2dVertex
 10
100.9936782567699
 20
-119.04422608135
 30
0.0
  0
SEQEND
  5
199
330
196
100
AcDbEntity
  8
_U+30EC_U+30A4_U+30E4_U+30FC 1
 62
   179
420
  2234388
370
    25
  0
POLYLINE
  5
19A
330
1F
100
AcDbEntity
  8
_U+30EC_U+30A4_U+30E4_U+30FC 1
 62
   179
420
  2234388
370
    25
100
AcDb2dPolyline
 66
     1
 10
0.0
 20
0.0
 30
0.0
  0
VERTEX
  5
19B
330
19A
100
AcDbEntity
  8
_U+30EC_U+30A4_U+30E4_U+30FC 1
 62
   179
420
  2234388
370
    25
100
AcDbVertex
100
AcDb2dVertex
 10
88.99369550735946
 20
-129.8580644119799
 30
0.0
  0
VERTEX
  5
19C
330
19A
100
AcDbEntity
  8
_U+30EC_U+30A4_U+30E4_U+30FC 1
 62
   179
420
  2234388
370
    25
100
AcDbVertex
100
AcDb2dVertex
 10
88.99369550735946
 20
-140.4065785760093
 30
0.0
  0
SEQEND
  5
19D
330
19A
100
AcDbEntity
  8
_U+30EC_U+30A4_U+30E4_U+30FC 1
 62
   179
420
  2234388
370
    25
  0
POLYLINE
  5
19E
330
1F
100
AcDbEntity
  8
_U+30EC_U+30A4_U+30E4_U+30FC 1
 62
   179
420
  2234388
370
    25
100
AcDb2dPolyline
 66
     1
 10
0.0
 20
0.0
 30
0.0
  0
VERTEX
  5
19F
330
19E
100
AcDbEntity
  8
_U+30EC_U+30A4_U+30E4_U+30FC 1
 62
   179
420
  2234388
370
    25
100
AcDbVertex
100
AcDb2dVertex
 10
100.9936782567699
 20
-119.04422608135
 30
0.0
  0
VERTEX
  5
1A0
330
19E
100
AcDbEntity
  8
_U+30EC_U+30A4_U+30E4_U+30FC 1
 62
   179
420
  2234388
370
    25
100
AcDbVertex
100
AcDb2dVertex
 10
100.9936782567699
 20
-123.1776527469834
 30
0.0
  0
SEQEND
  5
1A1
330
19E
100
AcDbEntity
  8
_U+30EC_U+30A4_U+30E4_U+30FC 1
 62
   179
420
  2234388
370
    25
  0
INSERT
  5
1A3
330
1F
100
AcDbEntity
  8
_U+30EC_U+30A4_U+30E4_U+30FC 1
100
AcDbBlockReference
  2
block 16
 10
0.0
 20
0.0
 30
0.0
  0
INSERT
  5
1CD
330
1F
100
AcDbEntity
  8
_U+30EC_U+30A4_U+30E4_U+30FC 1
100
AcDbBlockReference
  2
block 17
 10
0.0
 20
0.0
 30
0.0
  0
INSERT
  5
1D2
330
1F
100
AcDbEntity
  8
_U+30EC_U+30A4_U+30E4_U+30FC 1
100
AcDbBlockReference
  2
block 18
 10
0.0
 20
0.0
 30
0.0
  0
INSERT
  5
1D7
330
1F
100
AcDbEntity
  8
_U+30EC_U+30A4_U+30E4_U+30FC 1
100
AcDbBlockReference
  2
block 19
 10
0.0
 20
0.0
 30
0.0
  0
POLYLINE
  5
1DB
330
1F
100
AcDbEntity
  8
_U+30EC_U+30A4_U+30E4_U+30FC 1
 62
   179
420
  2234388
370
    25
100
AcDb2dPolyline
 66
     1
 10
0.0
 20
0.0
 30
0.0
  0
VERTEX
  5
1DC
330
1DB
100
AcDbEntity
  8
_U+30EC_U+30A4_U+30E4_U+30FC 1
 62
   179
420
  2234388
370
    25
100
AcDbVertex
100
AcDb2dVertex
 10
92.68477402430331
 20
-129.0284721899651
 30
0.0
  0
VERTEX
  5
1DD
330
1DB
100
AcDbEntity
  8
_U+30EC_U+30A4_U+30E4_U+30FC 1
 62
   179
420
  2234388
370
    25
100
AcDbVertex
100
AcDb2dVertex
 10
94.6123164751276
 20
-129.0284721899651
 30
0.0
  0
SEQEND
  5
1DE
330
1DB
100
AcDbEntity
  8
_U+30EC_U+30A4_U+30E4_U+30FC 1
 62
   179
420
  2234388
370
    25
  0
POLYLINE
  5
1DF
330
1F
100
AcDbEntity
  8
_U+30EC_U+30A4_U+30E4_U+30FC 1
 62
   179
420
  2234388
370
    25
100
AcDb2dPolyline
 66
     1
 10
0.0
 20
0.0
 30
0.0
  0
VERTEX
  5
1E0
330
1DF
100
AcDbEntity
  8
_U+30EC_U+30A4_U+30E4_U+30FC 1
 62
   179
420
  2234388
370
    25
100
AcDbVertex
100
AcDb2dVertex
 10
94.6123164751276
 20
-129.0284721899651
 30
0.0
  0
VERTEX
  5
1E1
330
1DF
100
AcDbEntity
  8
_U+30EC_U+30A4_U+30E4_U+30FC 1
 62
   179
420
  2234388
370
    25
100
AcDbVertex
100
AcDb2dVertex
 10
94.98749563222265
 20
-128.3787260790164
 30
0.0
  0
SEQEND
  5
1E2
330
1DF
100
AcDbEntity
  8
_U+30EC_U+30A4_U+30E4_U+30FC 1
 62
   179
420
  2234388
370
    25
  0
POLYLINE
  5
1E3
330
1F
100
AcDbEntity
  8
_U+30EC_U+30A4_U+30E4_U+30FC 1
 62
   179
420
  2234388
370
    25
100
AcDb2dPolyline
 66
     1
 10
0.0
 20
0.0
 30
0.0
  0
VERTEX
  5
1E4
330
1E3
100
AcDbEntity
  8
_U+30EC_U+30A4_U+30E4_U+30FC 1
 62
   179
420
  2234388
370
    25
100
AcDbVertex
100
AcDb2dVertex
 10
94.98749563222265
 20
-128.3787260790164
 30
0.0
  0
VERTEX
  5
1E5
330
1E3
100
AcDbEntity
  8
_U+30EC_U+30A4_U+30E4_U+30FC 1
 62
   179
420
  2234388
370
    25
100
AcDbVertex
100
AcDb2dVertex
 10
95.36232201154893
 20
-129.0284721899651
 30
0.0
  0
SEQEND
  5
1E6
330
1E3
100
AcDbEntity
  8
_U+30EC_U+30A4_U+30E4_U+30FC 1
 62
   179
420
  2234388
370
    25
  0
POLYLINE
  5
1E7
330
1F
100
AcDbEntity
  8
_U+30EC_U+30A4_U+30E4_U+30FC 1
 62
   179
420
  2234388
370
    25
100
AcDb2dPolyline
 66
     1
 10
0.0
 20
0.0
 30
0.0
  0
VERTEX
  5
1E8
330
1E7
100
AcDbEntity
  8
_U+30EC_U+30A4_U+30E4_U+30FC 1
 62
   179
420
  2234388
370
    25
100
AcDbVertex
100
AcDb2dVertex
 10
95.36232201154893
 20
-129.0284721899651
 30
0.0
  0
VERTEX
  5
1E9
330
1E7
100
AcDbEntity
  8
_U+30EC_U+30A4_U+30E4_U+30FC 1
 62
   179
420
  2234388
370
    25
100
AcDbVertex
100
AcDb2dVertex
 10
97.29018196236512
 20
-129.0284721899651
 30
0.0
  0
SEQEND
  5
1EA
330
1E7
100
AcDbEntity
  8
_U+30EC_U+30A4_U+30E4_U+30FC 1
 62
   179
420
  2234388
370
    25
  0
ENDSEC
  0
SECTION
  2
OBJECTS
  0
DICTIONARY
  5
C
330
0
100
AcDbDictionary
281
     1
  3
ACAD_GROUP
350
D
  3
ACAD_LAYOUT
350
1A
  3
ACAD_MATERIAL
350
3B
  3
ACAD_MLEADERSTYLE
350
1EE
  3
ACAD_MLINESTYLE
350
17
  3
ACAD_PLOTSETTINGS
350
19
  3
ACAD_PLOTSTYLENAME
350
E
  3
ACAD_TABLESTYLE
350
1ED
  3
ACAD_VISUALSTYLE
350
2A
  0
SUN
  5
3F
330
29
100
AcDbSun
 90
        1
290
     0
 63
     7
421
 16777215
 40
1.0
291
     1
 91
  2455826
 92
 54000000
292
     0
 70
     2
 71
   256
280
     1
  0
DICTIONARY
  5
D
102
{ACAD_REACTORS
330
C
102
}
330
C
100
AcDbDictionary
281
     1
  0
DICTIONARY
  5
1A
102
{ACAD_REACTORS
330
C
102
}
330
C
100
AcDbDictionary
281
     1
  3
Layout1
350
1E
  3
Layout2
350
26
  3
Model
350
22
  0
DICTIONARY
  5
3B
102
{ACAD_REACTORS
330
C
102
}
330
C
100
AcDbDictionary
281
     1
  3
ByBlock
350
3D
  3
ByLayer
350
3C
  3
Global
350
3E
  0
DICTIONARY
  5
1EE
102
{ACAD_REACTORS
330
C
102
}
330
C
100
AcDbDictionary
281
     1
  0
DICTIONARY
  5
17
102
{ACAD_REACTORS
330
C
102
}
330
C
100
AcDbDictionary
281
     1
  3
Standard
350
18
  0
DICTIONARY
  5
19
102
{ACAD_REACTORS
330
C
102
}
330
C
100
AcDbDictionary
281
     1
  0
ACDBDICTIONARYWDFLT
  5
E
102
{ACAD_REACTORS
330
C
102
}
330
C
100
AcDbDictionary
281
     1
  3
Normal
350
F
100
AcDbDictionaryWithDefault
340
F
  0
DICTIONARY
  5
1ED
102
{ACAD_REACTORS
330
C
102
}
330
C
100
AcDbDictionary
281
     1
  0
DICTIONARY
  5
2A
102
{ACAD_REACTORS
330
C
102
}
330
C
100
AcDbDictionary
281
     1
  3
2dWireframe
350
2F
  3
3D Hidden
350
31
  3
3dWireframe
350
30
  3
Basic
350
32
  3
Brighten
350
36
  3
ColorChange
350
3A
  3
Conceptual
350
34
  3
Dim
350
35
  3
Facepattern
350
39
  3
Flat
350
2B
  3
FlatWithEdges
350
2C
  3
Gouraud
350
2D
  3
GouraudWithEdges
350
2E
  3
Linepattern
350
38
  3
Realistic
350
33
  3
Thicken
350
37
  0
LAYOUT
  5
1E
102
{ACAD_REACTORS
330
1A
102
}
330
1A
100
AcDbPlotSettings
  1

  2
none_device
  4

  6

 40
0.0
 41
0.0
 42
0.0
 43
0.0
 44
0.0
 45
0.0
 46
0.0
 47
0.0
 48
0.0
 49
0.0
140
0.0
141
0.0
142
1.0
143
1.0
 70
   688
 72
     0
 73
     0
 74
     5
  7

 75
    16
 76
     0
 77
     2
 78
   300
147
1.0
148
0.0
149
0.0
100
AcDbLayout
  1
Layout1
 70
     1
 71
     1
 10
0.0
 20
0.0
 11
12.0
 21
9.0
 12
0.0
 22
0.0
 32
0.0
 14
1.000000000000000E+20
 24
1.000000000000000E+20
 34
1.000000000000000E+20
 15
-1.000000000000000E+20
 25
-1.000000000000000E+20
 35
-1.000000000000000E+20
146
0.0
 13
0.0
 23
0.0
 33
0.0
 16
1.0
 26
0.0
 36
0.0
 17
0.0
 27
1.0
 37
0.0
 76
     0
330
1B
  0
LAYOUT
  5
26
102
{ACAD_REACTORS
330
1A
102
}
330
1A
100
AcDbPlotSettings
  1

  2
none_device
  4

  6

 40
0.0
 41
0.0
 42
0.0
 43
0.0
 44
0.0
 45
0.0
 46
0.0
 47
0.0
 48
0.0
 49
0.0
140
0.0
141
0.0
142
1.0
143
1.0
 70
   688
 72
     0
 73
     0
 74
     5
  7

 75
    16
 76
     0
 77
     2
 78
   300
147
1.0
148
0.0
149
0.0
100
AcDbLayout
  1
Layout2
 70
     1
 71
     2
 10
0.0
 20
0.0
 11
0.0
 21
0.0
 12
0.0
 22
0.0
 32
0.0
 14
0.0
 24
0.0
 34
0.0
 15
0.0
 25
0.0
 35
0.0
146
0.0
 13
0.0
 23
0.0
 33
0.0
 16
1.0
 26
0.0
 36
0.0
 17
0.0
 27
1.0
 37
0.0
 76
     0
330
23
  0
LAYOUT
  5
22
102
{ACAD_REACTORS
330
1A
102
}
330
1A
100
AcDbPlotSettings
  1

  2
none_device
  4

  6

 40
0.0
 41
0.0
 42
0.0
 43
0.0
 44
0.0
 45
0.0
 46
0.0
 47
0.0
 48
0.0
 49
0.0
140
0.0
141
0.0
142
1.0
143
1.0
 70
  1712
 72
     0
 73
     0
 74
     0
  7

 75
     0
 76
     0
 77
     2
 78
   300
147
1.0
148
0.0
149
0.0
100
AcDbLayout
  1
Model
 70
     1
 71
     0
 10
0.0
 20
0.0
 11
12.0
 21
9.0
 12
0.0
 22
0.0
 32
0.0
 14
1.000000000000000E+20
 24
1.000000000000000E+20
 34
1.000000000000000E+20
 15
-1.000000000000000E+20
 25
-1.000000000000000E+20
 35
-1.000000000000000E+20
146
0.0
 13
0.0
 23
0.0
 33
0.0
 16
1.0
 26
0.0
 36
0.0
 17
0.0
 27
1.0
 37
0.0
 76
     0
330
1F
331
29
  0
MATERIAL
  5
3D
102
{ACAD_REACTORS
330
3B
102
}
330
3B
100
AcDbMaterial
  1
ByBlock
 72
     1
 94
      127
  0
MATERIAL
  5
3C
102
{ACAD_REACTORS
330
3B
102
}
330
3B
100
AcDbMaterial
  1
ByLayer
 72
     1
 94
      127
  0
MATERIAL
  5
3E
102
{ACAD_REACTORS
330
3B
102
}
330
3B
100
AcDbMaterial
  1
Global
 72
     1
 94
      127
  0
MLINESTYLE
  5
18
102
{ACAD_REACTORS
330
17
102
}
330
17
100
AcDbMlineStyle
  2
Standard
 70
     0
  3

 62
   256
 51
90.0
 52
90.0
 71
     2
 49
0.5
 62
   256
  6
BYLAYER
 49
-0.5
 62
   256
  6
BYLAYER
  0
ACDBPLACEHOLDER
  5
F
102
{ACAD_REACTORS
330
E
102
}
330
E
  0
VISUALSTYLE
  5
2F
102
{ACAD_REACTORS
330
2A
102
}
330
2A
100
AcDbVisualStyle
  2
2dWireframe
 70
     4
177
     2
291
     0
 71
     0
176
     1
 72
     2
176
     1
 73
     0
176
     1
 90
        0
176
     1
 40
-0.6
176
     1
 41
-30.0
176
     1
 62
     5
 63
     7
421
 16777215
176
     1
 74
     1
176
     1
 91
        4
176
     1
 64
     7
176
     1
 65
   257
176
     1
 75
     1
176
     1
175
     1
176
     1
 42
1.0
176
     1
 92
        0
176
     1
 66
   257
176
     1
 43
1.0
176
     1
 76
     1
176
     1
 77
     6
176
     1
 78
     2
176
     1
 67
     7
176
     1
 79
     5
176
     1
170
     0
176
     1
171
     0
176
     1
290
     0
176
     1
 93
        1
176
     1
 44
0.0
176
     1
173
     0
176
     1
  0
VISUALSTYLE
  5
31
102
{ACAD_REACTORS
330
2A
102
}
330
2A
100
AcDbVisualStyle
  2
3D Hidden
 70
     6
177
     2
291
     0
 71
     1
176
     1
 72
     2
176
     1
 73
     2
176
     1
 90
        0
176
     1
 40
-0.6
176
     1
 41
-30.0
176
     1
 62
     5
 63
     7
421
 16777215
176
     1
 74
     2
176
     1
 91
        2
176
     1
 64
     7
176
     1
 65
   257
176
     1
 75
     2
176
     1
175
     1
176
     1
 42
40.0
176
     1
 92
        0
176
     1
 66
   257
176
     1
 43
1.0
176
     1
 76
     1
176
     1
 77
     6
176
     1
 78
     2
176
     1
 67
     7
176
     1
 79
     3
176
     1
170
     0
176
     1
171
     0
176
     1
290
     0
176
     1
 93
        1
176
     1
 44
0.0
176
     1
173
     0
176
     1
  0
VISUALSTYLE
  5
30
102
{ACAD_REACTORS
330
2A
102
}
330
2A
100
AcDbVisualStyle
  2
3dWireframe
 70
     5
177
     2
291
     0
 71
     0
176
     1
 72
     2
176
     1
 73
     0
176
     1
 90
        0
176
     1
 40
-0.6
176
     1
 41
-30.0
176
     1
 62
     5
 63
     7
421
 16777215
176
     1
 74
     1
176
     1
 91
        4
176
     1
 64
     7
176
     1
 65
   257
176
     1
 75
     1
176
     1
175
     1
176
     1
 42
1.0
176
     1
 92
        0
176
     1
 66
   257
176
     1
 43
1.0
176
     1
 76
     1
176
     1
 77
     6
176
     1
 78
     2
176
     1
 67
     7
176
     1
 79
     5
176
     1
170
     0
176
     1
171
     0
176
     1
290
     0
176
     1
 93
        1
176
     1
 44
0.0
176
     1
173
     0
176
     1
  0
VISUALSTYLE
  5
32
102
{ACAD_REACTORS
330
2A
102
}
330
2A
100
AcDbVisualStyle
  2
Basic
 70
     7
177
     2
291
     1
 71
     1
176
     1
 72
     0
176
     1
 73
     1
176
     1
 90
        0
176
     1
 40
-0.6
176
     1
 41
-30.0
176
     1
 62
     5
 63
     7
421
 16777215
176
     1
 74
     0
176
     1
 91
        4
176
     1
 64
     7
176
     1
 65
   257
176
     1
 75
     1
176
     1
175
     1
176
     1
 42
1.0
176
     1
 92
        8
176
     1
 66
     7
176
     1
 43
1.0
176
     1
 76
     1
176
     1
 77
     6
176
     1
 78
     2
176
     1
 67
     7
176
     1
 79
     5
176
     1
170
     0
176
     1
171
     0
176
     1
290
     0
176
     1
 93
        1
176
     1
 44
0.0
176
     1
173
     0
176
     1
  0
VISUALSTYLE
  5
36
102
{ACAD_REACTORS
330
2A
102
}
330
2A
100
AcDbVisualStyle
  2
Brighten
 70
    12
177
     2
291
     1
 71
     2
176
     1
 72
     2
176
     1
 73
     0
176
     1
 90
        0
176
     1
 40
-0.6
176
     1
 41
-30.0
176
     1
 62
     5
 63
     7
421
 16777215
176
     1
 74
     1
176
     1
 91
        4
176
     1
 64
     7
176
     1
 65
   257
176
     1
 75
     1
176
     1
175
     1
176
     1
 42
1.0
176
     1
 92
        8
176
     1
 66
     7
176
     1
 43
1.0
176
     1
 76
     1
176
     1
 77
     6
176
     1
 78
     2
176
     1
 67
     7
176
     1
 79
     5
176
     1
170
     0
176
     1
171
     0
176
     1
290
     0
176
     1
 93
        1
176
     1
 44
50.0
176
     1
173
     0
176
     1
  0
VISUALSTYLE
  5
3A
102
{ACAD_REACTORS
330
2A
102
}
330
2A
100
AcDbVisualStyle
  2
ColorChange
 70
    16
177
     2
291
     1
 71
     2
176
     1
 72
     2
176
     1
 73
     3
176
     1
 90
        0
176
     1
 40
-0.6
176
     1
 41
-30.0
176
     1
 62
     5
 63
     8
421
  8421504
176
     1
 74
     1
176
     1
 91
        4
176
     1
 64
     7
176
     1
 65
   257
176
     1
 75
     1
176
     1
175
     1
176
     1
 42
1.0
176
     1
 92
        8
176
     1
 66
     8
424
  8421504
176
     1
 43
1.0
176
     1
 76
     1
176
     1
 77
     6
176
     1
 78
     2
176
     1
 67
     7
176
     1
 79
     5
176
     1
170
     0
176
     1
171
     0
176
     1
290
     0
176
     1
 93
        1
176
     1
 44
0.0
176
     1
173
     0
176
     1
  0
VISUALSTYLE
  5
34
102
{ACAD_REACTORS
330
2A
102
}
330
2A
100
AcDbVisualStyle
  2
Conceptual
 70
     9
177
     2
291
     0
 71
     3
176
     1
 72
     2
176
     1
 73
     0
176
     1
 90
        0
176
     1
 40
-0.6
176
     1
 41
-30.0
176
     1
 62
     5
 63
     7
421
 16777215
176
     1
 74
     2
176
     1
 91
        2
176
     1
 64
     7
176
     1
 65
   257
176
     1
 75
     1
176
     1
175
     1
176
     1
 42
40.0
176
     1
 92
        8
176
     1
 66
     7
176
     1
 43
1.0
176
     1
 76
     1
176
     1
 77
     6
176
     1
 78
     2
176
     1
 67
     7
176
     1
 79
     3
176
     1
170
     0
176
     1
171
     0
176
     1
290
     0
176
     1
 93
        1
176
     1
 44
0.0
176
     1
173
     0
176
     1
  0
VISUALSTYLE
  5
35
102
{ACAD_REACTORS
330
2A
102
}
330
2A
100
AcDbVisualStyle
  2
Dim
 70
    11
177
     2
291
     1
 71
     2
176
     1
 72
     2
176
     1
 73
     0
176
     1
 90
        0
176
     1
 40
-0.6
176
     1
 41
-30.0
176
     1
 62
     5
 63
     7
421
 16777215
176
     1
 74
     1
176
     1
 91
        4
176
     1
 64
     7
176
     1
 65
   257
176
     1
 75
     1
176
     1
175
     1
176
     1
 42
1.0
176
     1
 92
        8
176
     1
 66
     7
176
     1
 43
1.0
176
     1
 76
     1
176
     1
 77
     6
176
     1
 78
     2
176
     1
 67
     7
176
     1
 79
     5
176
     1
170
     0
176
     1
171
     0
176
     1
290
     0
176
     1
 93
        1
176
     1
 44
-50.0
176
     1
173
     0
176
     1
  0
VISUALSTYLE
  5
39
102
{ACAD_REACTORS
330
2A
102
}
330
2A
100
AcDbVisualStyle
  2
Facepattern
 70
    15
177
     2
291
     1
 71
     2
176
     1
 72
     2
176
     1
 73
     0
176
     1
 90
        0
176
     1
 40
-0.6
176
     1
 41
-30.0
176
     1
 62
     5
 63
     7
421
 16777215
176
     1
 74
     1
176
     1
 91
        4
176
     1
 64
     7
176
     1
 65
   257
176
     1
 75
     1
176
     1
175
     1
176
     1
 42
1.0
176
     1
 92
        8
176
     1
 66
     7
176
     1
 43
1.0
176
     1
 76
     1
176
     1
 77
     6
176
     1
 78
     2
176
     1
 67
     7
176
     1
 79
     5
176
     1
170
     0
176
     1
171
     0
176
     1
290
     0
176
     1
 93
        1
176
     1
 44
0.0
176
     1
173
     0
176
     1
  0
VISUALSTYLE
  5
2B
102
{ACAD_REACTORS
330
2A
102
}
330
2A
100
AcDbVisualStyle
  2
Flat
 70
     0
177
     2
291
     1
 71
     2
176
     1
 72
     1
176
     1
 73
     1
176
     1
 90
        2
176
     1
 40
-0.6
176
     1
 41
30.0
176
     1
 62
     5
 63
     7
421
 16777215
176
     1
 74
     0
176
     1
 91
        4
176
     1
 64
     7
176
     1
 65
   257
176
     1
 75
     1
176
     1
175
     1
176
     1
 42
1.0
176
     1
 92
        8
176
     1
 66
     7
176
     1
 43
1.0
176
     1
 76
     1
176
     1
 77
     6
176
     1
 78
     2
176
     1
 67
     7
176
     1
 79
     5
176
     1
170
     0
176
     1
171
     0
176
     1
290
     0
176
     1
 93
       13
176
     1
 44
0.0
176
     1
173
     0
176
     1
  0
VISUALSTYLE
  5
2C
102
{ACAD_REACTORS
330
2A
102
}
330
2A
100
AcDbVisualStyle
  2
FlatWithEdges
 70
     1
177
     2
291
     1
 71
     2
176
     1
 72
     1
176
     1
 73
     1
176
     1
 90
        2
176
     1
 40
-0.6
176
     1
 41
30.0
176
     1
 62
     5
 63
     7
421
 16777215
176
     1
 74
     1
176
     1
 91
        4
176
     1
 64
     7
176
     1
 65
   257
176
     1
 75
     1
176
     1
175
     1
176
     1
 42
1.0
176
     1
 92
        0
176
     1
 66
   257
176
     1
 43
1.0
176
     1
 76
     1
176
     1
 77
     6
176
     1
 78
     2
176
     1
 67
     7
176
     1
 79
     5
176
     1
170
     0
176
     1
171
     0
176
     1
290
     0
176
     1
 93
       13
176
     1
 44
0.0
176
     1
173
     0
176
     1
  0
VISUALSTYLE
  5
2D
102
{ACAD_REACTORS
330
2A
102
}
330
2A
100
AcDbVisualStyle
  2
Gouraud
 70
     2
177
     2
291
     1
 71
     2
176
     1
 72
     2
176
     1
 73
     1
176
     1
 90
        2
176
     1
 40
-0.6
176
     1
 41
30.0
176
     1
 62
     5
 63
     7
421
 16777215
176
     1
 74
     0
176
     1
 91
        4
176
     1
 64
     7
176
     1
 65
   257
176
     1
 75
     1
176
     1
175
     1
176
     1
 42
1.0
176
     1
 92
        0
176
     1
 66
     7
176
     1
 43
1.0
176
     1
 76
     1
176
     1
 77
     6
176
     1
 78
     2
176
     1
 67
     7
176
     1
 79
     5
176
     1
170
     0
176
     1
171
     0
176
     1
290
     0
176
     1
 93
       13
176
     1
 44
0.0
176
     1
173
     0
176
     1
  0
VISUALSTYLE
  5
2E
102
{ACAD_REACTORS
330
2A
102
}
330
2A
100
AcDbVisualStyle
  2
GouraudWithEdges
 70
     3
177
     2
291
     1
 71
     2
176
     1
 72
     2
176
     1
 73
     1
176
     1
 90
        2
176
     1
 40
-0.6
176
     1
 41
30.0
176
     1
 62
     5
 63
     7
421
 16777215
176
     1
 74
     1
176
     1
 91
        4
176
     1
 64
     7
176
     1
 65
   257
176
     1
 75
     1
176
     1
175
     1
176
     1
 42
1.0
176
     1
 92
        0
176
     1
 66
   257
176
     1
 43
1.0
176
     1
 76
     1
176
     1
 77
     6
176
     1
 78
     2
176
     1
 67
     7
176
     1
 79
     5
176
     1
170
     0
176
     1
171
     0
176
     1
290
     0
176
     1
 93
       13
176
     1
 44
0.0
176
     1
173
     0
176
     1
  0
VISUALSTYLE
  5
38
102
{ACAD_REACTORS
330
2A
102
}
330
2A
100
AcDbVisualStyle
  2
Linepattern
 70
    14
177
     2
291
     1
 71
     2
176
     1
 72
     2
176
     1
 73
     0
176
     1
 90
        0
176
     1
 40
-0.6
176
     1
 41
-30.0
176
     1
 62
     5
 63
     7
421
 16777215
176
     1
 74
     1
176
     1
 91
        4
176
     1
 64
     7
176
     1
 65
   257
176
     1
 75
     7
176
     1
175
     7
176
     1
 42
1.0
176
     1
 92
        8
176
     1
 66
     7
176
     1
 43
1.0
176
     1
 76
     1
176
     1
 77
     6
176
     1
 78
     2
176
     1
 67
     7
176
     1
 79
     5
176
     1
170
     0
176
     1
171
     0
176
     1
290
     0
176
     1
 93
        1
176
     1
 44
0.0
176
     1
173
     0
176
     1
  0
VISUALSTYLE
  5
33
102
{ACAD_REACTORS
330
2A
102
}
330
2A
100
AcDbVisualStyle
  2
Realistic
 70
     8
177
     2
291
     0
 71
     2
176
     1
 72
     2
176
     1
 73
     0
176
     1
 90
        0
176
     1
 40
-0.6
176
     1
 41
-30.0
176
     1
 62
     5
 63
     7
421
 16777215
176
     1
 74
     1
176
     1
 91
        0
176
     1
 64
     7
176
     1
 65
   257
176
     1
 75
     1
176
     1
175
     1
176
     1
 42
1.0
176
     1
 92
        8
176
     1
 66
     8
424
  7895160
176
     1
 43
1.0
176
     1
 76
     1
176
     1
 77
     6
176
     1
 78
     2
176
     1
 67
     7
176
     1
 79
     5
176
     1
170
     0
176
     1
171
     0
176
     1
290
     0
176
     1
 93
       13
176
     1
 44
0.0
176
     1
173
     0
176
     1
  0
VISUALSTYLE
  5
37
102
{ACAD_REACTORS
330
2A
102
}
330
2A
100
AcDbVisualStyle
  2
Thicken
 70
    13
177
     2
291
     1
 71
     2
176
     1
 72
     2
176
     1
 73
     0
176
     1
 90
        0
176
     1
 40
-0.6
176
     1
 41
-30.0
176
     1
 62
     5
 63
     7
421
 16777215
176
     1
 74
     1
176
     1
 91
        4
176
     1
 64
     7
176
     1
 65
   257
176
     1
 75
     1
176
     1
175
     1
176
     1
 42
1.0
176
     1
 92
       12
176
     1
 66
     7
176
     1
 43
1.0
176
     1
 76
     1
176
     1
 77
     6
176
     1
 78
     2
176
     1
 67
     7
176
     1
 79
     5
176
     1
170
     0
176
     1
171
     0
176
     1
290
     0
176
     1
 93
        1
176
     1
 44
0.0
176
     1
173
     0
176
     1
  0
ENDSEC
  0
EOF
