  0
SECTION
  2
HEADER
  9
$ACADVER
  1
AC1024
  9
$ACADMAINTVER
 70
     6
  9
$DWGCODEPAGE
  3
UNDEFINED
  9
$INSBASE
 10
0.0
 20
0.0
 30
0.0
  9
$EXTMIN
 10
1.000000000000000E+20
 20
1.000000000000000E+20
 30
1.000000000000000E+20
  9
$EXTMAX
 10
-1.000000000000000E+20
 20
-1.000000000000000E+20
 30
-1.000000000000000E+20
  9
$LIMMIN
 10
0.0
 20
0.0
  9
$LIMMAX
 10
12.0
 20
9.0
  9
$ORTHOMODE
 70
     0
  9
$REGENMODE
 70
     1
  9
$FILLMODE
 70
     1
  9
$QTEXTMODE
 70
     0
  9
$MIRRTEXT
 70
     1
  9
$LTSCALE
 40
1.0
  9
$ATTMODE
 70
     1
  9
$TEXTSIZE
 40
0.2
  9
$TRACEWID
 40
0.05
  9
$TEXTSTYLE
  7
Standard
  9
$CLAYER
  8
0
  9
$CELTYPE
  6
ByLayer
  9
$CECOLOR
 62
   256
  9
$CELTSCALE
 40
1.0
  9
$DISPSILH
 70
     0
  9
$DIMSCALE
 40
1.0
  9
$DIMASZ
 40
0.18
  9
$DIMEXO
 40
0.0625
  9
$DIMDLI
 40
0.38
  9
$DIMRND
 40
0.0
  9
$DIMDLE
 40
0.0
  9
$DIMEXE
 40
0.18
  9
$DIMTP
 40
0.0
  9
$DIMTM
 40
0.0
  9
$DIMTXT
 40
0.18
  9
$DIMCEN
 40
0.09
  9
$DIMTSZ
 40
0.0
  9
$DIMTOL
 70
     0
  9
$DIMLIM
 70
     0
  9
$DIMTIH
 70
     1
  9
$DIMTOH
 70
     1
  9
$DIMSE1
 70
     0
  9
$DIMSE2
 70
     0
  9
$DIMTAD
 70
     0
  9
$DIMZIN
 70
     0
  9
$DIMBLK
  1

  9
$DIMASO
 70
     1
  9
$DIMSHO
 70
     1
  9
$DIMPOST
  1

  9
$DIMAPOST
  1

  9
$DIMALT
 70
     0
  9
$DIMALTD
 70
     2
  9
$DIMALTF
 40
25.4
  9
$DIMLFAC
 40
1.0
  9
$DIMTOFL
 70
     0
  9
$DIMTVP
 40
0.0
  9
$DIMTIX
 70
     0
  9
$DIMSOXD
 70
     0
  9
$DIMSAH
 70
     0
  9
$DIMBLK1
  1

  9
$DIMBLK2
  1

  9
$DIMSTYLE
  2
Standard
  9
$DIMCLRD
 70
     0
  9
$DIMCLRE
 70
     0
  9
$DIMCLRT
 70
     0
  9
$DIMTFAC
 40
1.0
  9
$DIMGAP
 40
0.09
  9
$DIMJUST
 70
     0
  9
$DIMSD1
 70
     0
  9
$DIMSD2
 70
     0
  9
$DIMTOLJ
 70
     1
  9
$DIMTZIN
 70
     0
  9
$DIMALTZ
 70
     0
  9
$DIMALTTZ
 70
     0
  9
$DIMUPT
 70
     0
  9
$DIMDEC
 70
     4
  9
$DIMTDEC
 70
     4
  9
$DIMALTU
 70
     2
  9
$DIMALTTD
 70
     2
  9
$DIMTXSTY
  7
Standard
  9
$DIMAUNIT
 70
     0
  9
$DIMADEC
 70
     0
  9
$DIMALTRND
 40
0.0
  9
$DIMAZIN
 70
     0
  9
$DIMDSEP
 70
    46
  9
$DIMATFIT
 70
     3
  9
$DIMFRAC
 70
     0
  9
$DIMLDRBLK
  1

  9
$DIMLUNIT
 70
     2
  9
$DIMLWD
 70
    -2
  9
$DIMLWE
 70
    -2
  9
$DIMTMOVE
 70
     0
  9
$DIMFXL
 40
1.0
  9
$DIMFXLON
 70
     0
  9
$DIMJOGANG
 40
0.7853981633974483
  9
$DIMTFILL
 70
     0
  9
$DIMTFILLCLR
 70
     0
  9
$DIMARCSYM
 70
     0
  9
$DIMLTYPE
  6

  9
$DIMLTEX1
  6

  9
$DIMLTEX2
  6

  9
$DIMTXTDIRECTION
 70
     0
  9
$LUNITS
 70
     2
  9
$LUPREC
 70
     4
  9
$SKETCHINC
 40
0.1
  9
$FILLETRAD
 40
0.5
  9
$AUNITS
 70
     0
  9
$AUPREC
 70
     0
  9
$MENU
  1
.
  9
$ELEVATION
 40
0.0
  9
$PELEVATION
 40
0.0
  9
$THICKNESS
 40
0.0
  9
$LIMCHECK
 70
     0
  9
$CHAMFERA
 40
0.5
  9
$CHAMFERB
 40
0.5
  9
$CHAMFERC
 40
1.0
  9
$CHAMFERD
 40
0.0
  9
$SKPOLY
 70
     0
  9
$TDCREATE
 40
2457917.631412037
  9
$TDUCREATE
 40
2457917.256412037
  9
$TDUPDATE
 40
2457917.631412037
  9
$TDUUPDATE
 40
2457917.256412037
  9
$TDINDWG
 40
0.0000000116
  9
$TDUSRTIMER
 40
0.0000000116
  9
$USRTIMER
 70
     1
  9
$ANGBASE
 50
0.0
  9
$ANGDIR
 70
     0
  9
$PDMODE
 70
     0
  9
$PDSIZE
 40
0.0
  9
$PLINEWID
 40
0.0
  9
$SPLFRAME
 70
     0
  9
$SPLINETYPE
 70
     6
  9
$SPLINESEGS
 70
     8
  9
$HANDSEED
  5
254
  9
$SURFTAB1
 70
     6
  9
$SURFTAB2
 70
     6
  9
$SURFTYPE
 70
     6
  9
$SURFU
 70
     6
  9
$SURFV
 70
     6
  9
$UCSBASE
  2

  9
$UCSNAME
  2

  9
$UCSORG
 10
0.0
 20
0.0
 30
0.0
  9
$UCSXDIR
 10
1.0
 20
0.0
 30
0.0
  9
$UCSYDIR
 10
0.0
 20
1.0
 30
0.0
  9
$UCSORTHOREF
  2

  9
$UCSORTHOVIEW
 70
     0
  9
$UCSORGTOP
 10
0.0
 20
0.0
 30
0.0
  9
$UCSORGBOTTOM
 10
0.0
 20
0.0
 30
0.0
  9
$UCSORGLEFT
 10
0.0
 20
0.0
 30
0.0
  9
$UCSORGRIGHT
 10
0.0
 20
0.0
 30
0.0
  9
$UCSORGFRONT
 10
0.0
 20
0.0
 30
0.0
  9
$UCSORGBACK
 10
0.0
 20
0.0
 30
0.0
  9
$PUCSBASE
  2

  9
$PUCSNAME
  2

  9
$PUCSORG
 10
0.0
 20
0.0
 30
0.0
  9
$PUCSXDIR
 10
1.0
 20
0.0
 30
0.0
  9
$PUCSYDIR
 10
0.0
 20
1.0
 30
0.0
  9
$PUCSORTHOREF
  2

  9
$PUCSORTHOVIEW
 70
     0
  9
$PUCSORGTOP
 10
0.0
 20
0.0
 30
0.0
  9
$PUCSORGBOTTOM
 10
0.0
 20
0.0
 30
0.0
  9
$PUCSORGLEFT
 10
0.0
 20
0.0
 30
0.0
  9
$PUCSORGRIGHT
 10
0.0
 20
0.0
 30
0.0
  9
$PUCSORGFRONT
 10
0.0
 20
0.0
 30
0.0
  9
$PUCSORGBACK
 10
0.0
 20
0.0
 30
0.0
  9
$USERI1
 70
     0
  9
$USERI2
 70
     0
  9
$USERI3
 70
     0
  9
$USERI4
 70
     0
  9
$USERI5
 70
     0
  9
$USERR1
 40
0.0
  9
$USERR2
 40
0.0
  9
$USERR3
 40
0.0
  9
$USERR4
 40
0.0
  9
$USERR5
 40
0.0
  9
$WORLDVIEW
 70
     1
  9
$SHADEDGE
 70
     3
  9
$SHADEDIF
 70
    70
  9
$TILEMODE
 70
     1
  9
$MAXACTVP
 70
    64
  9
$PINSBASE
 10
0.0
 20
0.0
 30
0.0
  9
$PLIMCHECK
 70
     0
  9
$PEXTMIN
 10
1.000000000000000E+20
 20
1.000000000000000E+20
 30
1.000000000000000E+20
  9
$PEXTMAX
 10
-1.000000000000000E+20
 20
-1.000000000000000E+20
 30
-1.000000000000000E+20
  9
$PLIMMIN
 10
0.0
 20
0.0
  9
$PLIMMAX
 10
12.0
 20
9.0
  9
$UNITMODE
 70
     0
  9
$VISRETAIN
 70
     1
  9
$PLINEGEN
 70
     0
  9
$PSLTSCALE
 70
     1
  9
$TREEDEPTH
 70
  3020
  9
$CMLSTYLE
  2
Standard
  9
$CMLJUST
 70
     0
  9
$CMLSCALE
 40
1.0
  9
$PROXYGRAPHICS
 70
     1
  9
$MEASUREMENT
 70
     0
  9
$CELWEIGHT
370
    -1
  9
$ENDCAPS
280
     0
  9
$JOINSTYLE
280
     0
  9
$LWDISPLAY
290
     1
  9
$INSUNITS
 70
     1
  9
$HYPERLINKBASE
  1

  9
$STYLESHEET
  1

  9
$XEDIT
290
     1
  9
$CEPSNTYPE
380
     0
  9
$PSTYLEMODE
290
     1
  9
$FINGERPRINTGUID
  2
{58E781DA-8EBA-8F85-1385-D706BB48D2FF}
  9
$VERSIONGUID
  2
{FAEB1C32-E019-11D5-929B-00C0DF256EC4}
  9
$EXTNAMES
290
     1
  9
$PSVPSCALE
 40
0.0
  9
$OLESTARTUP
290
     0
  9
$SORTENTS
280
   127
  9
$INDEXCTL
280
     0
  9
$HIDETEXT
280
     1
  9
$XCLIPFRAME
280
     2
  9
$HALOGAP
280
     0
  9
$OBSCOLOR
 70
   257
  9
$OBSLTYPE
280
     0
  9
$INTERSECTIONDISPLAY
280
     0
  9
$INTERSECTIONCOLOR
 70
   257
  9
$DIMASSOC
280
     2
  9
$PROJECTNAME
  1

  9
$CAMERADISPLAY
290
     0
  9
$LENSLENGTH
 40
50.0
  9
$CAMERAHEIGHT
 40
0.0
  9
$STEPSPERSEC
 40
2.0
  9
$STEPSIZE
 40
6.0
  9
$3DDWFPREC
 40
2.0
  9
$PSOLWIDTH
 40
0.25
  9
$PSOLHEIGHT
 40
4.0
  9
$LOFTANG1
 40
1.570796326794897
  9
$LOFTANG2
 40
1.570796326794897
  9
$LOFTMAG1
 40
0.0
  9
$LOFTMAG2
 40
0.0
  9
$LOFTPARAM
 70
     7
  9
$LOFTNORMALS
280
     1
  9
$LATITUDE
 40
37.795
  9
$LONGITUDE
 40
-122.394
  9
$NORTHDIRECTION
 40
0.0
  9
$TIMEZONE
 70
 -8000
  9
$LIGHTGLYPHDISPLAY
280
     1
  9
$TILEMODELIGHTSYNCH
280
     1
  9
$CMATERIAL
347
3C
  9
$SOLIDHIST
280
     1
  9
$SHOWHIST
280
     1
  9
$DWFFRAME
280
     2
  9
$DGNFRAME
280
     2
  9
$REALWORLDSCALE
290
     1
  9
$INTERFERECOLOR
 62
   256
  9
$CSHADOW
280
     0
  9
$SHADOWPLANELOCATION
 40
0.0
  0
ENDSEC
  0
SECTION
  2
CLASSES
  0
CLASS
  1
ACDBDICTIONARYWDFLT
  2
AcDbDictionaryWithDefault
  3
ObjectDBX Classes
 90
        0
 91
        4
280
     0
281
     0
  0
CLASS
  1
VISUALSTYLE
  2
AcDbVisualStyle
  3
ObjectDBX Classes
 90
     4095
 91
        4
280
     0
281
     0
  0
CLASS
  1
MATERIAL
  2
AcDbMaterial
  3
ObjectDBX Classes
 90
     1153
 91
        4
280
     0
281
     0
  0
CLASS
  1
SUN
  2
AcDbSun
  3
SCENEOE
 90
     1024
 91
        4
280
     0
281
     0
  0
ENDSEC
  0
SECTION
  2
TABLES
  0
TABLE
  2
VPORT
  5
8
330
0
100
AcDbSymbolTable
 70
     1
  0
VPORT
  5
29
330
8
100
AcDbSymbolTableRecord
100
AcDbViewportTableRecord
  2
*Active
 70
     0
 10
0.0
 20
0.0
 11
1.0
 21
1.0
 12
0.0
 22
0.0
 13
0.0
 23
0.0
 14
0.5
 24
0.5
 15
0.5
 25
0.5
 16
0.0
 26
0.0
 36
1.0
 17
91.00082462281999
 27
-128.4993055234307
 37
0.0
 40
256.9986110468615
 41
0.7081814508812795
 42
50.0
 43
0.0
 44
0.0
 50
0.0
 51
0.0
 71
     0
 72
   100
 73
     1
 74
     3
 75
     0
 76
     0
 77
     0
 78
     0
281
     0
 65
     1
110
0.0
120
0.0
130
0.0
111
1.0
121
0.0
131
0.0
112
0.0
122
1.0
132
0.0
 79
     0
146
0.0
 60
     3
 61
     5
292
     1
282
     1
141
0.0
142
0.0
 63
   250
361
3F
  0
ENDTAB
  0
TABLE
  2
LTYPE
  5
5
330
0
100
AcDbSymbolTable
 70
     1
  0
LTYPE
  5
14
330
5
100
AcDbSymbolTableRecord
100
AcDbLinetypeTableRecord
  2
ByBlock
 70
     0
  3

 72
    65
 73
     0
 40
0.0
  0
LTYPE
  5
15
330
5
100
AcDbSymbolTableRecord
100
AcDbLinetypeTableRecord
  2
ByLayer
 70
     0
  3

 72
    65
 73
     0
 40
0.0
  0
LTYPE
  5
16
330
5
100
AcDbSymbolTableRecord
100
AcDbLinetypeTableRecord
  2
Continuous
 70
     0
  3
Solid line
 72
    65
 73
     0
 40
0.0
  0
ENDTAB
  0
TABLE
  2
LAYER
  5
2
330
0
100
AcDbSymbolTable
 70
     2
  0
LAYER
  5
10
330
2
100
AcDbSymbolTableRecord
100
AcDbLayerTableRecord
  2
0
 70
     0
 62
     7
  6
Continuous
370
    -3
390
F
347
3E
  0
LAYER
  5
40
330
2
100
AcDbSymbolTableRecord
100
AcDbLayerTableRecord
  2
_U+30EC_U+30A4_U+30E4_U+30FC 1
 70
     0
 62
     7
  6
Continuous
370
    -3
390
F
347
3E
  0
ENDTAB
  0
TABLE
  2
STYLE
  5
3
330
0
100
AcDbSymbolTable
 70
     1
  0
STYLE
  5
11
330
3
100
AcDbSymbolTableRecord
100
AcDbTextStyleTableRecord
  2
Standard
 70
     0
 40
0.0
 41
1.0
 50
0.0
 71
     0
 42
0.2
  3
txt
  4

  0
ENDTAB
  0
TABLE
  2
VIEW
  5
6
330
0
100
AcDbSymbolTable
 70
     0
  0
ENDTAB
  0
TABLE
  2
UCS
  5
7
330
0
100
AcDbSymbolTable
 70
     0
  0
ENDTAB
  0
TABLE
  2
APPID
  5
9
330
0
100
AcDbSymbolTable
 70
     1
  0
APPID
  5
12
330
9
100
AcDbSymbolTableRecord
100
AcDbRegAppTableRecord
  2
ACAD
 70
     0
  0
ENDTAB
  0
TABLE
  2
DIMSTYLE
  5
A
330
0
100
AcDbSymbolTable
 70
     1
100
AcDbDimStyleTable
  0
DIMSTYLE
105
27
330
A
100
AcDbSymbolTableRecord
100
AcDbDimStyleTableRecord
  2
Standard
 70
     0
178
     0
340
11
  0
ENDTAB
  0
TABLE
  2
BLOCK_RECORD
  5
1
330
0
100
AcDbSymbolTable
 70
    41
  0
BLOCK_RECORD
  5
1F
330
1
100
AcDbSymbolTableRecord
100
AcDbBlockTableRecord
  2
*Model_Space
340
22
 70
     0
280
     1
281
     0
  0
BLOCK_RECORD
  5
1B
330
1
100
AcDbSymbolTableRecord
100
AcDbBlockTableRecord
  2
*Paper_Space
340
1E
 70
     0
280
     1
281
     0
  0
BLOCK_RECORD
  5
23
330
1
100
AcDbSymbolTableRecord
100
AcDbBlockTableRecord
  2
*Paper_Space0
340
26
 70
     0
280
     1
281
     0
  0
BLOCK_RECORD
  5
41
330
1
100
AcDbSymbolTableRecord
100
AcDbBlockTableRecord
  2
block 2
340
0
102
{BLKREFS
331
42
102
}
 70
     0
280
     1
281
     0
  0
BLOCK_RECORD
  5
45
330
1
100
AcDbSymbolTableRecord
100
AcDbBlockTableRecord
  2
block 3
340
0
102
{BLKREFS
331
46
102
}
 70
     0
280
     1
281
     0
  0
BLOCK_RECORD
  5
4B
330
1
100
AcDbSymbolTableRecord
100
AcDbBlockTableRecord
  2
block 4
340
0
102
{BLKREFS
331
4C
102
}
 70
     0
280
     1
281
     0
  0
BLOCK_RECORD
  5
FB
330
1
100
AcDbSymbolTableRecord
100
AcDbBlockTableRecord
  2
block 5
340
0
102
{BLKREFS
331
FC
102
}
 70
     0
280
     1
281
     0
  0
BLOCK_RECORD
  5
10B
330
1
100
AcDbSymbolTableRecord
100
AcDbBlockTableRecord
  2
block 6
340
0
102
{BLKREFS
331
10C
102
}
 70
     0
280
     1
281
     0
  0
BLOCK_RECORD
  5
113
330
1
100
AcDbSymbolTableRecord
100
AcDbBlockTableRecord
  2
block 7
340
0
102
{BLKREFS
331
114
102
}
 70
     0
280
     1
281
     0
  0
BLOCK_RECORD
  5
118
330
1
100
AcDbSymbolTableRecord
100
AcDbBlockTableRecord
  2
block 8
340
0
102
{BLKREFS
331
119
102
}
 70
     0
280
     1
281
     0
  0
BLOCK_RECORD
  5
11D
330
1
100
AcDbSymbolTableRecord
100
AcDbBlockTableRecord
  2
block 9
340
0
102
{BLKREFS
331
11E
102
}
 70
     0
280
     1
281
     0
  0
BLOCK_RECORD
  5
122
330
1
100
AcDbSymbolTableRecord
100
AcDbBlockTableRecord
  2
block 10
340
0
102
{BLKREFS
331
123
102
}
 70
     0
280
     1
281
     0
  0
BLOCK_RECORD
  5
132
330
1
100
AcDbSymbolTableRecord
100
AcDbBlockTableRecord
  2
block 11
340
0
102
{BLKREFS
331
133
102
}
 70
     0
280
     1
281
     0
  0
BLOCK_RECORD
  5
138
330
1
100
AcDbSymbolTableRecord
100
AcDbBlockTableRecord
  2
block 12
340
0
102
{BLKREFS
331
139
102
}
 70
     0
280
     1
281
     0
  0
BLOCK_RECORD
  5
13D
330
1
100
AcDbSymbolTableRecord
100
AcDbBlockTableRecord
  2
block 13
340
0
102
{BLKREFS
331
13E
102
}
 70
     0
280
     1
281
     0
  0
BLOCK_RECORD
  5
142
330
1
100
AcDbSymbolTableRecord
100
AcDbBlockTableRecord
  2
block 14
340
0
102
{BLKREFS
331
143
102
}
 70
     0
280
     1
281
     0
  0
BLOCK_RECORD
  5
147
330
1
100
AcDbSymbolTableRecord
100
AcDbBlockTableRecord
  2
block 15
340
0
102
{BLKREFS
331
148
102
}
 70
     0
280
     1
281
     0
  0
BLOCK_RECORD
  5
153
330
1
100
AcDbSymbolTableRecord
100
AcDbBlockTableRecord
  2
block 16
340
0
102
{BLKREFS
331
154
102
}
 70
     0
280
     1
281
     0
  0
BLOCK_RECORD
  5
15B
330
1
100
AcDbSymbolTableRecord
100
AcDbBlockTableRecord
  2
block 17
340
0
102
{BLKREFS
331
15C
102
}
 70
     0
280
     1
281
     0
  0
BLOCK_RECORD
  5
160
330
1
100
AcDbSymbolTableRecord
100
AcDbBlockTableRecord
  2
block 18
340
0
102
{BLKREFS
331
161
102
}
 70
     0
280
     1
281
     0
  0
BLOCK_RECORD
  5
165
330
1
100
AcDbSymbolTableRecord
100
AcDbBlockTableRecord
  2
block 19
340
0
102
{BLKREFS
331
166
102
}
 70
     0
280
     1
281
     0
  0
BLOCK_RECORD
  5
16A
330
1
100
AcDbSymbolTableRecord
100
AcDbBlockTableRecord
  2
block 20
340
0
102
{BLKREFS
331
16B
102
}
 70
     0
280
     1
281
     0
  0
BLOCK_RECORD
  5
176
330
1
100
AcDbSymbolTableRecord
100
AcDbBlockTableRecord
  2
block 21
340
0
102
{BLKREFS
331
177
102
}
 70
     0
280
     1
281
     0
  0
BLOCK_RECORD
  5
187
330
1
100
AcDbSymbolTableRecord
100
AcDbBlockTableRecord
  2
block 22
340
0
102
{BLKREFS
331
188
102
}
 70
     0
280
     1
281
     0
  0
BLOCK_RECORD
  5
18C
330
1
100
AcDbSymbolTableRecord
100
AcDbBlockTableRecord
  2
block 23
340
0
102
{BLKREFS
331
18D
102
}
 70
     0
280
     1
281
     0
  0
BLOCK_RECORD
  5
191
330
1
100
AcDbSymbolTableRecord
100
AcDbBlockTableRecord
  2
block 24
340
0
102
{BLKREFS
331
192
102
}
 70
     0
280
     1
281
     0
  0
BLOCK_RECORD
  5
196
330
1
100
AcDbSymbolTableRecord
100
AcDbBlockTableRecord
  2
block 25
340
0
102
{BLKREFS
331
197
102
}
 70
     0
280
     1
281
     0
  0
BLOCK_RECORD
  5
1A2
330
1
100
AcDbSymbolTableRecord
100
AcDbBlockTableRecord
  2
block 26
340
0
102
{BLKREFS
331
1A3
102
}
 70
     0
280
     1
281
     0
  0
BLOCK_RECORD
  5
1AB
330
1
100
AcDbSymbolTableRecord
100
AcDbBlockTableRecord
  2
block 27
340
0
102
{BLKREFS
331
1AC
102
}
 70
     0
280
     1
281
     0
  0
BLOCK_RECORD
  5
1B0
330
1
100
AcDbSymbolTableRecord
100
AcDbBlockTableRecord
  2
block 28
340
0
102
{BLKREFS
331
1B1
102
}
 70
     0
280
     1
281
     0
  0
BLOCK_RECORD
  5
1B5
330
1
100
AcDbSymbolTableRecord
100
AcDbBlockTableRecord
  2
block 29
340
0
102
{BLKREFS
331
1B6
102
}
 70
     0
280
     1
281
     0
  0
BLOCK_RECORD
  5
1BA
330
1
100
AcDbSymbolTableRecord
100
AcDbBlockTableRecord
  2
block 30
340
0
102
{BLKREFS
331
1BB
102
}
 70
     0
280
     1
281
     0
  0
BLOCK_RECORD
  5
1CA
330
1
100
AcDbSymbolTableRecord
100
AcDbBlockTableRecord
  2
block 31
340
0
102
{BLKREFS
331
1CB
102
}
 70
     0
280
     1
281
     0
  0
BLOCK_RECORD
  5
1E3
330
1
100
AcDbSymbolTableRecord
100
AcDbBlockTableRecord
  2
block 32
340
0
102
{BLKREFS
331
1E4
102
}
 70
     0
280
     1
281
     0
  0
BLOCK_RECORD
  5
1E8
330
1
100
AcDbSymbolTableRecord
100
AcDbBlockTableRecord
  2
block 33
340
0
102
{BLKREFS
331
1E9
102
}
 70
     0
280
     1
281
     0
  0
BLOCK_RECORD
  5
1ED
330
1
100
AcDbSymbolTableRecord
100
AcDbBlockTableRecord
  2
block 34
340
0
102
{BLKREFS
331
1EE
102
}
 70
     0
280
     1
281
     0
  0
BLOCK_RECORD
  5
1F2
330
1
100
AcDbSymbolTableRecord
100
AcDbBlockTableRecord
  2
block 35
340
0
102
{BLKREFS
331
1F3
102
}
 70
     0
280
     1
281
     0
  0
BLOCK_RECORD
  5
1FE
330
1
100
AcDbSymbolTableRecord
100
AcDbBlockTableRecord
  2
block 36
340
0
102
{BLKREFS
331
1FF
102
}
 70
     0
280
     1
281
     0
  0
BLOCK_RECORD
  5
210
330
1
100
AcDbSymbolTableRecord
100
AcDbBlockTableRecord
  2
block 37
340
0
102
{BLKREFS
331
211
102
}
 70
     0
280
     1
281
     0
  0
BLOCK_RECORD
  5
215
330
1
100
AcDbSymbolTableRecord
100
AcDbBlockTableRecord
  2
block 38
340
0
102
{BLKREFS
331
216
102
}
 70
     0
280
     1
281
     0
  0
BLOCK_RECORD
  5
21A
330
1
100
AcDbSymbolTableRecord
100
AcDbBlockTableRecord
  2
block 39
340
0
102
{BLKREFS
331
21B
102
}
 70
     0
280
     1
281
     0
  0
BLOCK_RECORD
  5
22D
330
1
100
AcDbSymbolTableRecord
100
AcDbBlockTableRecord
  2
block 40
340
0
102
{BLKREFS
331
22E
102
}
 70
     0
280
     1
281
     0
  0
BLOCK_RECORD
  5
23F
330
1
100
AcDbSymbolTableRecord
100
AcDbBlockTableRecord
  2
block 41
340
0
102
{BLKREFS
331
240
102
}
 70
     0
280
     1
281
     0
  0
ENDTAB
  0
ENDSEC
  0
SECTION
  2
BLOCKS
  0
BLOCK
  5
20
330
1F
100
AcDbEntity
  8
0
100
AcDbBlockBegin
  2
*Model_Space
 70
     0
 10
0.0
 20
0.0
 30
0.0
  3
*Model_Space
  1

  0
ENDBLK
  5
21
330
1F
100
AcDbEntity
  8
0
100
AcDbBlockEnd
  0
BLOCK
  5
1C
330
1B
100
AcDbEntity
 67
     1
  8
0
100
AcDbBlockBegin
  2
*Paper_Space
 70
     0
 10
0.0
 20
0.0
 30
0.0
  3
*Paper_Space
  1

  0
ENDBLK
  5
1D
330
1B
100
AcDbEntity
 67
     1
  8
0
100
AcDbBlockEnd
  0
BLOCK
  5
24
330
23
100
AcDbEntity
  8
0
100
AcDbBlockBegin
  2
*Paper_Space0
 70
     0
 10
0.0
 20
0.0
 30
0.0
  3
*Paper_Space0
  1

  0
ENDBLK
  5
25
330
23
100
AcDbEntity
  8
0
100
AcDbBlockEnd
  0
BLOCK
  5
43
330
41
100
AcDbEntity
  8
0
100
AcDbBlockBegin
  2
block 2
 70
     0
 10
0.0
 20
0.0
 30
0.0
  3
block 2
  1

  0
INSERT
  5
46
330
41
100
AcDbEntity
  8
_U+30EC_U+30A4_U+30E4_U+30FC 1
100
AcDbBlockReference
  2
block 3
 10
0.0
 20
0.0
 30
0.0
  0
ENDBLK
  5
44
330
41
100
AcDbEntity
  8
0
100
AcDbBlockEnd
  0
BLOCK
  5
47
330
45
100
AcDbEntity
  8
0
100
AcDbBlockBegin
  2
block 3
 70
     0
 10
0.0
 20
0.0
 30
0.0
  3
block 3
  1

  0
SPLINE
  5
49
330
45
100
AcDbEntity
  8
_U+30EC_U+30A4_U+30E4_U+30FC 1
370
     0
100
AcDbSpline
210
0.0
220
0.0
230
1.0
 70
    11
 71
     3
 72
   188
 73
   184
 74
     0
 42
0.0000000001
 43
0.0000000001
 12
1.0
 22
0.0
 32
0.0
 13
1.0
 23
0.0
 33
0.0
 40
0.0
 40
0.0
 40
0.0
 40
0.0
 40
1.0
 40
1.0
 40
1.0
 40
2.0
 40
2.0
 40
2.0
 40
3.0
 40
3.0
 40
3.0
 40
4.0
 40
4.0
 40
4.0
 40
5.0
 40
5.0
 40
5.0
 40
6.0
 40
6.0
 40
6.0
 40
7.0
 40
7.0
 40
7.0
 40
8.0
 40
8.0
 40
8.0
 40
9.0
 40
9.0
 40
9.0
 40
10.0
 40
10.0
 40
10.0
 40
11.0
 40
11.0
 40
11.0
 40
12.0
 40
12.0
 40
12.0
 40
13.0
 40
13.0
 40
13.0
 40
14.0
 40
14.0
 40
14.0
 40
15.0
 40
15.0
 40
15.0
 40
16.0
 40
16.0
 40
16.0
 40
17.0
 40
17.0
 40
17.0
 40
18.0
 40
18.0
 40
18.0
 40
19.0
 40
19.0
 40
19.0
 40
20.0
 40
20.0
 40
20.0
 40
21.0
 40
21.0
 40
21.0
 40
22.0
 40
22.0
 40
22.0
 40
23.0
 40
23.0
 40
23.0
 40
24.0
 40
24.0
 40
24.0
 40
25.0
 40
25.0
 40
25.0
 40
26.0
 40
26.0
 40
26.0
 40
27.0
 40
27.0
 40
27.0
 40
28.0
 40
28.0
 40
28.0
 40
29.0
 40
29.0
 40
29.0
 40
30.0
 40
30.0
 40
30.0
 40
31.0
 40
31.0
 40
31.0
 40
32.0
 40
32.0
 40
32.0
 40
33.0
 40
33.0
 40
33.0
 40
34.0
 40
34.0
 40
34.0
 40
35.0
 40
35.0
 40
35.0
 40
36.0
 40
36.0
 40
36.0
 40
37.0
 40
37.0
 40
37.0
 40
38.0
 40
38.0
 40
38.0
 40
39.0
 40
39.0
 40
39.0
 40
40.0
 40
40.0
 40
40.0
 40
41.0
 40
41.0
 40
41.0
 40
42.0
 40
42.0
 40
42.0
 40
43.0
 40
43.0
 40
43.0
 40
44.0
 40
44.0
 40
44.0
 40
45.0
 40
45.0
 40
45.0
 40
46.0
 40
46.0
 40
46.0
 40
47.0
 40
47.0
 40
47.0
 40
48.0
 40
48.0
 40
48.0
 40
49.0
 40
49.0
 40
49.0
 40
50.0
 40
50.0
 40
50.0
 40
51.0
 40
51.0
 40
51.0
 40
52.0
 40
52.0
 40
52.0
 40
53.0
 40
53.0
 40
53.0
 40
54.0
 40
54.0
 40
54.0
 40
55.0
 40
55.0
 40
55.0
 40
56.0
 40
56.0
 40
56.0
 40
57.0
 40
57.0
 40
57.0
 40
58.0
 40
58.0
 40
58.0
 40
59.0
 40
59.0
 40
59.0
 40
60.0
 40
60.0
 40
60.0
 40
61.0
 40
61.0
 40
61.0
 40
61.0
 10
105.508104808264
 20
-129.1872927454807
 30
0.0
 10
105.508104808264
 20
-129.1872927454807
 30
0.0
 10
105.508104808264
 20
-116.1875727487308
 30
0.0
 10
105.508104808264
 20
-116.1875727487308
 30
0.0
 10
105.508104808264
 20
-116.1875727487308
 30
0.0
 10
102.0079143420057
 20
-116.1875727487308
 30
0.0
 10
102.0079143420057
 20
-116.1875727487308
 30
0.0
 10
102.0079143420057
 20
-116.1875727487308
 30
0.0
 10
102.0079143420057
 20
-117.187344970703
 30
0.0
 10
102.0079143420057
 20
-117.187344970703
 30
0.0
 10
102.0079143420057
 20
-117.187344970703
 30
0.0
 10
104.5076623337874
 20
-117.187344970703
 30
0.0
 10
104.5076623337874
 20
-117.187344970703
 30
0.0
 10
104.5076623337874
 20
-117.187344970703
 30
0.0
 10
104.5076623337874
 20
-119.9372124700158
 30
0.0
 10
104.5076623337874
 20
-119.9372124700158
 30
0.0
 10
104.5076623337874
 20
-119.9372124700158
 30
0.0
 10
91.50758988766911
 20
-119.9372124700158
 30
0.0
 10
91.50758988766911
 20
-119.9372124700158
 30
0.0
 10
91.50758988766911
 20
-119.9372124700158
 30
0.0
 10
91.50758988766911
 20
-117.187344970703
 30
0.0
 10
91.50758988766911
 20
-117.187344970703
 30
0.0
 10
91.50758988766911
 20
-117.187344970703
 30
0.0
 10
94.00733787945079
 20
-117.187344970703
 30
0.0
 10
94.00733787945079
 20
-117.187344970703
 30
0.0
 10
94.00733787945079
 20
-117.187344970703
 30
0.0
 10
94.00733787945079
 20
-116.1875727487308
 30
0.0
 10
94.00733787945079
 20
-116.1875727487308
 30
0.0
 10
94.00733787945079
 20
-116.1875727487308
 30
0.0
 10
90.5078176909532
 20
-116.1875727487308
 30
0.0
 10
90.5078176909532
 20
-116.1875727487308
 30
0.0
 10
90.5078176909532
 20
-116.1875727487308
 30
0.0
 10
90.5078176909532
 20
-124.6507821910595
 30
0.0
 10
90.5078176909532
 20
-124.6507821910595
 30
0.0
 10
90.5078176909532
 20
-124.7610252465875
 30
0.0
 10
90.41824741546056
 20
-124.8505955243428
 30
0.0
 10
90.30733408495685
 20
-124.8505955243428
 30
0.0
 10
90.30733408495685
 20
-124.8505955243428
 30
0.0
 10
89.25725577841325
 20
-124.8505955243428
 30
0.0
 10
89.25725577841325
 20
-124.8505955243428
 30
0.0
 10
88.98163050766726
 20
-124.8505955243428
 30
0.0
 10
88.75772245782407
 20
-125.0745388576204
 30
0.0
 10
88.75772245782407
 20
-125.3508344131068
 30
0.0
 10
88.75772245782407
 20
-125.5789052463831
 30
0.0
 10
88.9120627316643
 20
-125.7780130241111
 30
0.0
 10
89.13254883715034
 20
-125.8351983018745
 30
0.0
 10
89.89116215112983
 20
-126.0308841351591
 30
0.0
 10
90.37139852776689
 20
-126.7777852460834
 30
0.0
 10
90.234273809043
 20
-127.5494866347793
 30
0.0
 10
90.08959964606728
 20
-128.3652852456865
 30
0.0
 10
89.31098608878335
 20
-128.9089158011059
 30
0.0
 10
88.49518524229974
 20
-128.7642416344757
 30
0.0
 10
87.67938886696903
 20
-128.6195321900673
 30
0.0
 10
87.13575831154932
 20
-127.8402460791511
 30
0.0
 10
87.28046555106759
 20
-127.0251530237991
 30
0.0
 10
87.3286902720595
 20
-126.7529849683117
 30
0.0
 10
87.14746833223842
 20
-126.493234690599
 30
0.0
 10
86.876005839164
 20
-126.4450099683888
 30
0.0
 10
86.60383779055202
 20
-126.3967499684008
 30
0.0
 10
86.3447577971617
 20
-126.5779719128001
 30
0.0
 10
86.29586279840912
 20
-126.8501399682876
 30
0.0
 10
86.19595831178437
 20
-127.4116916348139
 30
0.0
 10
86.29170002073755
 20
-127.9911644124465
 30
0.0
 10
86.56661973594598
 20
-128.490697745655
 30
0.0
 10
86.58249473554098
 20
-128.5203310789812
 30
0.0
 10
86.59145529086793
 20
-128.5533863567505
 30
0.0
 10
86.59145529086793
 20
-128.5871471900754
 30
0.0
 10
86.59145529086793
 20
-128.6980958011589
 30
0.0
 10
86.5018497375984
 20
-128.7876660789142
 30
0.0
 10
86.3909364070947
 20
-128.7876660789142
 30
0.0
 10
86.3909364070947
 20
-128.7876660789142
 30
0.0
 10
86.25726891050485
 20
-128.7876660789142
 30
0.0
 10
86.25726891050485
 20
-128.7876660789142
 30
0.0
 10
86.25726891050485
 20
-128.7876660789142
 30
0.0
 10
86.25726891050485
 20
-137.0510621879596
 30
0.0
 10
86.25726891050485
 20
-137.0510621879596
 30
0.0
 10
86.25726891050485
 20
-137.1613052434876
 30
0.0
 10
86.1676986350122
 20
-137.2508755212429
 30
0.0
 10
86.05745558226917
 20
-137.2508755212429
 30
0.0
 10
86.05745558226917
 20
-137.2508755212429
 30
0.0
 10
85.25749671378894
 20
-137.2508755212429
 30
0.0
 10
85.25749671378894
 20
-137.2508755212429
 30
0.0
 10
84.98120116528227
 20
-137.2508755212429
 30
0.0
 10
84.75725783766221
 20
-137.4748188545202
 30
0.0
 10
84.75725783766221
 20
-137.7511144100066
 30
0.0
 10
84.75725783766221
 20
-137.9784796877276
 30
0.0
 10
84.91159811150244
 20
-138.1776227432335
 30
0.0
 10
85.13278977252604
 20
-138.2348080209969
 30
0.0
 10
85.89140308650553
 20
-138.4311641320589
 30
0.0
 10
86.37164164507362
 20
-139.1780652429835
 30
0.0
 10
86.23451474441869
 20
-139.9497666316794
 30
0.0
 10
86.0891350259054
 20
-140.7655652425866
 30
0.0
 10
85.3105544902131
 20
-141.309195798006
 30
0.0
 10
84.49475589991475
 20
-141.1645216313758
 30
0.0
 10
83.67962758737707
 20
-141.0191419091894
 30
0.0
 10
83.13599704569069
 20
-140.2405260760509
 30
0.0
 10
83.28070648644328
 20
-139.4247274651437
 30
0.0
 10
83.32893331250098
 20
-139.1532649652114
 30
0.0
 10
83.1477092676141
 20
-138.8935146874991
 30
0.0
 10
82.875576496779
 20
-138.8452546875111
 30
0.0
 10
82.60407872592772
 20
-138.7970299653006
 30
0.0
 10
82.34433053496961
 20
-138.9782519097002
 30
0.0
 10
82.29610373378482
 20
-139.2497144096318
 30
0.0
 10
82.1617306816574
 20
-140.0055760761099
 30
0.0
 10
82.38221678714343
 20
-140.7814049648045
 30
0.0
 10
82.8941678851936
 20
-141.3539985757727
 30
0.0
 10
82.92722316212806
 20
-141.3905110757633
 30
0.0
 10
82.94514427278196
 20
-141.4380655201958
 30
0.0
 10
82.94514427278196
 20
-141.4876660757392
 30
0.0
 10
82.94514427278196
 20
-141.5979091312672
 30
0.0
 10
82.85557399728931
 20
-141.6874794090224
 30
0.0
 10
82.7453309445463
 20
-141.6874794090224
 30
0.0
 10
82.7453309445463
 20
-141.6874794090224
 30
0.0
 10
78.75763886919948
 20
-141.6874794090224
 30
0.0
 10
78.75763886919948
 20
-141.6874794090224
 30
0.0
 10
78.75763886919948
 20
-141.6874794090224
 30
0.0
 10
78.75763886919948
 20
-139.6872646873007
 30
0.0
 10
78.75763886919948
 20
-139.6872646873007
 30
0.0
 10
78.75763886919948
 20
-139.6872646873007
 30
0.0
 10
79.75776386894947
 20
-139.6872646873007
 30
0.0
 10
79.75776386894947
 20
-139.6872646873007
 30
0.0
 10
79.75776386894947
 20
-139.6872646873007
 30
0.0
 10
79.75776386894947
 20
-138.6874924653281
 30
0.0
 10
79.75776386894947
 20
-138.6874924653281
 30
0.0
 10
79.75776386894947
 20
-138.6874924653281
 30
0.0
 10
77.75786664722726
 20
-138.6874924653281
 30
0.0
 10
77.75786664722726
 20
-138.6874924653281
 30
0.0
 10
77.75786664722726
 20
-138.6874924653281
 30
0.0
 10
77.75786664722726
 20
-142.687251630995
 30
0.0
 10
77.75786664722726
 20
-142.687251630995
 30
0.0
 10
77.75786664722726
 20
-142.687251630995
 30
0.0
 10
87.75724470557061
 20
-142.687251630995
 30
0.0
 10
87.75724470557061
 20
-142.687251630995
 30
0.0
 10
87.75724470557061
 20
-142.687251630995
 30
0.0
 10
87.75724470557061
 20
-130.1870649674533
 30
0.0
 10
87.75724470557061
 20
-130.1870649674533
 30
0.0
 10
87.75724470557061
 20
-130.1870649674533
 30
0.0
 10
94.25745731751415
 20
-130.1870649674533
 30
0.0
 10
94.25745731751415
 20
-130.1870649674533
 30
0.0
 10
94.25745731751415
 20
-130.1870649674533
 30
0.0
 10
94.25745731751415
 20
-128.1875205235088
 30
0.0
 10
94.25745731751415
 20
-128.1875205235088
 30
0.0
 10
94.25745731751415
 20
-128.1875205235088
 30
0.0
 10
91.50758988766911
 20
-128.1875205235088
 30
0.0
 10
91.50758988766911
 20
-128.1875205235088
 30
0.0
 10
91.50758988766911
 20
-128.1875205235088
 30
0.0
 10
91.50758988766911
 20
-122.4376660805017
 30
0.0
 10
91.50758988766911
 20
-122.4376660805017
 30
0.0
 10
91.50758988766911
 20
-121.8850749695288
 30
0.0
 10
91.95544126513236
 20
-121.4371883029739
 30
0.0
 10
92.50736208438502
 20
-121.4371883029739
 30
0.0
 10
92.50736208438502
 20
-121.4371883029739
 30
0.0
 10
97.75768306154929
 20
-121.4371883029739
 30
0.0
 10
97.75768306154929
 20
-121.4371883029739
 30
0.0
 10
97.75768306154929
 20
-121.4371883029739
 30
0.0
 10
98.00780249961265
 20
-121.0045063586377
 30
0.0
 10
98.00780249961265
 20
-121.0045063586377
 30
0.0
 10
98.00780249961265
 20
-121.0045063586377
 30
0.0
 10
98.25721638213847
 20
-121.4371883029739
 30
0.0
 10
98.25721638213847
 20
-121.4371883029739
 30
0.0
 10
98.25721638213847
 20
-121.4371883029739
 30
0.0
 10
103.5078901370715
 20
-121.4371883029739
 30
0.0
 10
103.5078901370715
 20
-121.4371883029739
 30
0.0
 10
104.0604812340848
 20
-121.4371883029739
 30
0.0
 10
104.5076623337874
 20
-121.8850749695288
 30
0.0
 10
104.5076623337874
 20
-122.4376660805017
 30
0.0
 10
104.5076623337874
 20
-122.4376660805017
 30
0.0
 10
104.5076623337874
 20
-128.1875205235088
 30
0.0
 10
104.5076623337874
 20
-128.1875205235088
 30
0.0
 10
104.5076623337874
 20
-128.1875205235088
 30
0.0
 10
102.2579985022922
 20
-128.1875205235088
 30
0.0
 10
102.2579985022922
 20
-128.1875205235088
 30
0.0
 10
102.2579985022922
 20
-128.1875205235088
 30
0.0
 10
102.2579985022922
 20
-130.1870649674533
 30
0.0
 10
102.2579985022922
 20
-130.1870649674533
 30
0.0
 10
102.2579985022922
 20
-130.1870649674533
 30
0.0
 10
107.2575297636324
 20
-130.1870649674533
 30
0.0
 10
107.2575297636324
 20
-130.1870649674533
 30
0.0
 10
107.2575297636324
 20
-130.1870649674533
 30
0.0
 10
107.2575297636324
 20
-129.1872927454807
 30
0.0
 10
107.2575297636324
 20
-129.1872927454807
 30
0.0
 10
107.2575297636324
 20
-129.1872927454807
 30
0.0
 10
105.508104808264
 20
-129.1872927454807
 30
0.0
 10
105.508104808264
 20
-129.1872927454807
 30
0.0
  0
HATCH
  5
4A
330
45
100
AcDbEntity
  8
_U+30EC_U+30A4_U+30E4_U+30FC 1
 62
   253
420
 11711154
100
AcDbHatch
 10
0.0
 20
0.0
 30
0.0
210
0.0
220
0.0
230
1.0
  2
SOLID
 70
     1
 71
     0
 91
        1
 92
        1
 93
        1
 72
     4
 94
        3
 73
     0
 74
     1
 95
      188
 96
      184
 40
0.0
 40
0.0
 40
0.0
 40
0.0
 40
1.0
 40
1.0
 40
1.0
 40
2.0
 40
2.0
 40
2.0
 40
3.0
 40
3.0
 40
3.0
 40
4.0
 40
4.0
 40
4.0
 40
5.0
 40
5.0
 40
5.0
 40
6.0
 40
6.0
 40
6.0
 40
7.0
 40
7.0
 40
7.0
 40
8.0
 40
8.0
 40
8.0
 40
9.0
 40
9.0
 40
9.0
 40
10.0
 40
10.0
 40
10.0
 40
11.0
 40
11.0
 40
11.0
 40
12.0
 40
12.0
 40
12.0
 40
13.0
 40
13.0
 40
13.0
 40
14.0
 40
14.0
 40
14.0
 40
15.0
 40
15.0
 40
15.0
 40
16.0
 40
16.0
 40
16.0
 40
17.0
 40
17.0
 40
17.0
 40
18.0
 40
18.0
 40
18.0
 40
19.0
 40
19.0
 40
19.0
 40
20.0
 40
20.0
 40
20.0
 40
21.0
 40
21.0
 40
21.0
 40
22.0
 40
22.0
 40
22.0
 40
23.0
 40
23.0
 40
23.0
 40
24.0
 40
24.0
 40
24.0
 40
25.0
 40
25.0
 40
25.0
 40
26.0
 40
26.0
 40
26.0
 40
27.0
 40
27.0
 40
27.0
 40
28.0
 40
28.0
 40
28.0
 40
29.0
 40
29.0
 40
29.0
 40
30.0
 40
30.0
 40
30.0
 40
31.0
 40
31.0
 40
31.0
 40
32.0
 40
32.0
 40
32.0
 40
33.0
 40
33.0
 40
33.0
 40
34.0
 40
34.0
 40
34.0
 40
35.0
 40
35.0
 40
35.0
 40
36.0
 40
36.0
 40
36.0
 40
37.0
 40
37.0
 40
37.0
 40
38.0
 40
38.0
 40
38.0
 40
39.0
 40
39.0
 40
39.0
 40
40.0
 40
40.0
 40
40.0
 40
41.0
 40
41.0
 40
41.0
 40
42.0
 40
42.0
 40
42.0
 40
43.0
 40
43.0
 40
43.0
 40
44.0
 40
44.0
 40
44.0
 40
45.0
 40
45.0
 40
45.0
 40
46.0
 40
46.0
 40
46.0
 40
47.0
 40
47.0
 40
47.0
 40
48.0
 40
48.0
 40
48.0
 40
49.0
 40
49.0
 40
49.0
 40
50.0
 40
50.0
 40
50.0
 40
51.0
 40
51.0
 40
51.0
 40
52.0
 40
52.0
 40
52.0
 40
53.0
 40
53.0
 40
53.0
 40
54.0
 40
54.0
 40
54.0
 40
55.0
 40
55.0
 40
55.0
 40
56.0
 40
56.0
 40
56.0
 40
57.0
 40
57.0
 40
57.0
 40
58.0
 40
58.0
 40
58.0
 40
59.0
 40
59.0
 40
59.0
 40
60.0
 40
60.0
 40
60.0
 40
61.0
 40
61.0
 40
61.0
 40
61.0
 10
105.508104808264
 20
-129.1872927454807
 10
105.508104808264
 20
-129.1872927454807
 10
105.508104808264
 20
-116.1875727487308
 10
105.508104808264
 20
-116.1875727487308
 10
105.508104808264
 20
-116.1875727487308
 10
102.0079143420057
 20
-116.1875727487308
 10
102.0079143420057
 20
-116.1875727487308
 10
102.0079143420057
 20
-116.1875727487308
 10
102.0079143420057
 20
-117.187344970703
 10
102.0079143420057
 20
-117.187344970703
 10
102.0079143420057
 20
-117.187344970703
 10
104.5076623337874
 20
-117.187344970703
 10
104.5076623337874
 20
-117.187344970703
 10
104.5076623337874
 20
-117.187344970703
 10
104.5076623337874
 20
-119.9372124700158
 10
104.5076623337874
 20
-119.9372124700158
 10
104.5076623337874
 20
-119.9372124700158
 10
91.50758988766911
 20
-119.9372124700158
 10
91.50758988766911
 20
-119.9372124700158
 10
91.50758988766911
 20
-119.9372124700158
 10
91.50758988766911
 20
-117.187344970703
 10
91.50758988766911
 20
-117.187344970703
 10
91.50758988766911
 20
-117.187344970703
 10
94.00733787945079
 20
-117.187344970703
 10
94.00733787945079
 20
-117.187344970703
 10
94.00733787945079
 20
-117.187344970703
 10
94.00733787945079
 20
-116.1875727487308
 10
94.00733787945079
 20
-116.1875727487308
 10
94.00733787945079
 20
-116.1875727487308
 10
90.5078176909532
 20
-116.1875727487308
 10
90.5078176909532
 20
-116.1875727487308
 10
90.5078176909532
 20
-116.1875727487308
 10
90.5078176909532
 20
-124.6507821910595
 10
90.5078176909532
 20
-124.6507821910595
 10
90.5078176909532
 20
-124.7610252465875
 10
90.41824741546056
 20
-124.8505955243428
 10
90.30733408495685
 20
-124.8505955243428
 10
90.30733408495685
 20
-124.8505955243428
 10
89.25725577841325
 20
-124.8505955243428
 10
89.25725577841325
 20
-124.8505955243428
 10
88.98163050766726
 20
-124.8505955243428
 10
88.75772245782407
 20
-125.0745388576204
 10
88.75772245782407
 20
-125.3508344131068
 10
88.75772245782407
 20
-125.5789052463831
 10
88.9120627316643
 20
-125.7780130241111
 10
89.13254883715034
 20
-125.8351983018745
 10
89.89116215112983
 20
-126.0308841351591
 10
90.37139852776689
 20
-126.7777852460834
 10
90.234273809043
 20
-127.5494866347793
 10
90.08959964606728
 20
-128.3652852456865
 10
89.31098608878335
 20
-128.9089158011059
 10
88.49518524229974
 20
-128.7642416344757
 10
87.67938886696903
 20
-128.6195321900673
 10
87.13575831154932
 20
-127.8402460791511
 10
87.28046555106759
 20
-127.0251530237991
 10
87.3286902720595
 20
-126.7529849683117
 10
87.14746833223842
 20
-126.493234690599
 10
86.876005839164
 20
-126.4450099683888
 10
86.60383779055202
 20
-126.3967499684008
 10
86.3447577971617
 20
-126.5779719128001
 10
86.29586279840912
 20
-126.8501399682876
 10
86.19595831178437
 20
-127.4116916348139
 10
86.29170002073755
 20
-127.9911644124465
 10
86.56661973594598
 20
-128.490697745655
 10
86.58249473554098
 20
-128.5203310789812
 10
86.59145529086793
 20
-128.5533863567505
 10
86.59145529086793
 20
-128.5871471900754
 10
86.59145529086793
 20
-128.6980958011589
 10
86.5018497375984
 20
-128.7876660789142
 10
86.3909364070947
 20
-128.7876660789142
 10
86.3909364070947
 20
-128.7876660789142
 10
86.25726891050485
 20
-128.7876660789142
 10
86.25726891050485
 20
-128.7876660789142
 10
86.25726891050485
 20
-128.7876660789142
 10
86.25726891050485
 20
-137.0510621879596
 10
86.25726891050485
 20
-137.0510621879596
 10
86.25726891050485
 20
-137.1613052434876
 10
86.1676986350122
 20
-137.2508755212429
 10
86.05745558226917
 20
-137.2508755212429
 10
86.05745558226917
 20
-137.2508755212429
 10
85.25749671378894
 20
-137.2508755212429
 10
85.25749671378894
 20
-137.2508755212429
 10
84.98120116528227
 20
-137.2508755212429
 10
84.75725783766221
 20
-137.4748188545202
 10
84.75725783766221
 20
-137.7511144100066
 10
84.75725783766221
 20
-137.9784796877276
 10
84.91159811150244
 20
-138.1776227432335
 10
85.13278977252604
 20
-138.2348080209969
 10
85.89140308650553
 20
-138.4311641320589
 10
86.37164164507362
 20
-139.1780652429835
 10
86.23451474441869
 20
-139.9497666316794
 10
86.0891350259054
 20
-140.7655652425866
 10
85.3105544902131
 20
-141.309195798006
 10
84.49475589991475
 20
-141.1645216313758
 10
83.67962758737707
 20
-141.0191419091894
 10
83.13599704569069
 20
-140.2405260760509
 10
83.28070648644328
 20
-139.4247274651437
 10
83.32893331250098
 20
-139.1532649652114
 10
83.1477092676141
 20
-138.8935146874991
 10
82.875576496779
 20
-138.8452546875111
 10
82.60407872592772
 20
-138.7970299653006
 10
82.34433053496961
 20
-138.9782519097002
 10
82.29610373378482
 20
-139.2497144096318
 10
82.1617306816574
 20
-140.0055760761099
 10
82.38221678714343
 20
-140.7814049648045
 10
82.8941678851936
 20
-141.3539985757727
 10
82.92722316212806
 20
-141.3905110757633
 10
82.94514427278196
 20
-141.4380655201958
 10
82.94514427278196
 20
-141.4876660757392
 10
82.94514427278196
 20
-141.5979091312672
 10
82.85557399728931
 20
-141.6874794090224
 10
82.7453309445463
 20
-141.6874794090224
 10
82.7453309445463
 20
-141.6874794090224
 10
78.75763886919948
 20
-141.6874794090224
 10
78.75763886919948
 20
-141.6874794090224
 10
78.75763886919948
 20
-141.6874794090224
 10
78.75763886919948
 20
-139.6872646873007
 10
78.75763886919948
 20
-139.6872646873007
 10
78.75763886919948
 20
-139.6872646873007
 10
79.75776386894947
 20
-139.6872646873007
 10
79.75776386894947
 20
-139.6872646873007
 10
79.75776386894947
 20
-139.6872646873007
 10
79.75776386894947
 20
-138.6874924653281
 10
79.75776386894947
 20
-138.6874924653281
 10
79.75776386894947
 20
-138.6874924653281
 10
77.75786664722726
 20
-138.6874924653281
 10
77.75786664722726
 20
-138.6874924653281
 10
77.75786664722726
 20
-138.6874924653281
 10
77.75786664722726
 20
-142.687251630995
 10
77.75786664722726
 20
-142.687251630995
 10
77.75786664722726
 20
-142.687251630995
 10
87.75724470557061
 20
-142.687251630995
 10
87.75724470557061
 20
-142.687251630995
 10
87.75724470557061
 20
-142.687251630995
 10
87.75724470557061
 20
-130.1870649674533
 10
87.75724470557061
 20
-130.1870649674533
 10
87.75724470557061
 20
-130.1870649674533
 10
94.25745731751415
 20
-130.1870649674533
 10
94.25745731751415
 20
-130.1870649674533
 10
94.25745731751415
 20
-130.1870649674533
 10
94.25745731751415
 20
-128.1875205235088
 10
94.25745731751415
 20
-128.1875205235088
 10
94.25745731751415
 20
-128.1875205235088
 10
91.50758988766911
 20
-128.1875205235088
 10
91.50758988766911
 20
-128.1875205235088
 10
91.50758988766911
 20
-128.1875205235088
 10
91.50758988766911
 20
-122.4376660805017
 10
91.50758988766911
 20
-122.4376660805017
 10
91.50758988766911
 20
-121.8850749695288
 10
91.95544126513236
 20
-121.4371883029739
 10
92.50736208438502
 20
-121.4371883029739
 10
92.50736208438502
 20
-121.4371883029739
 10
97.75768306154929
 20
-121.4371883029739
 10
97.75768306154929
 20
-121.4371883029739
 10
97.75768306154929
 20
-121.4371883029739
 10
98.00780249961265
 20
-121.0045063586377
 10
98.00780249961265
 20
-121.0045063586377
 10
98.00780249961265
 20
-121.0045063586377
 10
98.25721638213847
 20
-121.4371883029739
 10
98.25721638213847
 20
-121.4371883029739
 10
98.25721638213847
 20
-121.4371883029739
 10
103.5078901370715
 20
-121.4371883029739
 10
103.5078901370715
 20
-121.4371883029739
 10
104.0604812340848
 20
-121.4371883029739
 10
104.5076623337874
 20
-121.8850749695288
 10
104.5076623337874
 20
-122.4376660805017
 10
104.5076623337874
 20
-122.4376660805017
 10
104.5076623337874
 20
-128.1875205235088
 10
104.5076623337874
 20
-128.1875205235088
 10
104.5076623337874
 20
-128.1875205235088
 10
102.2579985022922
 20
-128.1875205235088
 10
102.2579985022922
 20
-128.1875205235088
 10
102.2579985022922
 20
-128.1875205235088
 10
102.2579985022922
 20
-130.1870649674533
 10
102.2579985022922
 20
-130.1870649674533
 10
102.2579985022922
 20
-130.1870649674533
 10
107.2575297636324
 20
-130.1870649674533
 10
107.2575297636324
 20
-130.1870649674533
 10
107.2575297636324
 20
-130.1870649674533
 10
107.2575297636324
 20
-129.1872927454807
 10
107.2575297636324
 20
-129.1872927454807
 10
107.2575297636324
 20
-129.1872927454807
 10
105.508104808264
 20
-129.1872927454807
 10
105.508104808264
 20
-129.1872927454807
 97
        0
 97
        0
 75
     2
 76
     1
 98
        0
  0
ENDBLK
  5
48
330
45
100
AcDbEntity
  8
0
100
AcDbBlockEnd
  0
BLOCK
  5
4D
330
4B
100
AcDbEntity
  8
0
100
AcDbBlockBegin
  2
block 4
 70
     0
 10
0.0
 20
0.0
 30
0.0
  3
block 4
  1

  0
POLYLINE
  5
4F
330
4B
100
AcDbEntity
  8
_U+30EC_U+30A4_U+30E4_U+30FC 1
 62
   179
420
  2234388
370
    25
100
AcDb2dPolyline
 66
     1
 10
0.0
 20
0.0
 30
0.0
  0
VERTEX
  5
50
330
4F
100
AcDbEntity
  8
_U+30EC_U+30A4_U+30E4_U+30FC 1
 62
   179
420
  2234388
370
    25
100
AcDbVertex
100
AcDb2dVertex
 10
90.5078176909532
 20
-116.1875727487308
 30
0.0
  0
VERTEX
  5
51
330
4F
100
AcDbEntity
  8
_U+30EC_U+30A4_U+30E4_U+30FC 1
 62
   179
420
  2234388
370
    25
100
AcDbVertex
100
AcDb2dVertex
 10
90.5078176909532
 20
-124.6507821910595
 30
0.0
  0
SEQEND
  5
52
330
4F
100
AcDbEntity
  8
_U+30EC_U+30A4_U+30E4_U+30FC 1
 62
   179
420
  2234388
370
    25
  0
POLYLINE
  5
53
330
4B
100
AcDbEntity
  8
_U+30EC_U+30A4_U+30E4_U+30FC 1
 62
   179
420
  2234388
370
    25
100
AcDb2dPolyline
 66
     1
 10
0.0
 20
0.0
 30
0.0
  0
VERTEX
  5
54
330
53
100
AcDbEntity
  8
_U+30EC_U+30A4_U+30E4_U+30FC 1
 62
   179
420
  2234388
370
    25
100
AcDbVertex
100
AcDb2dVertex
 10
87.75724470557061
 20
-130.1870649674533
 30
0.0
  0
VERTEX
  5
55
330
53
100
AcDbEntity
  8
_U+30EC_U+30A4_U+30E4_U+30FC 1
 62
   179
420
  2234388
370
    25
100
AcDbVertex
100
AcDb2dVertex
 10
94.25745731751415
 20
-130.1870649674533
 30
0.0
  0
SEQEND
  5
56
330
53
100
AcDbEntity
  8
_U+30EC_U+30A4_U+30E4_U+30FC 1
 62
   179
420
  2234388
370
    25
  0
POLYLINE
  5
57
330
4B
100
AcDbEntity
  8
_U+30EC_U+30A4_U+30E4_U+30FC 1
 62
   179
420
  2234388
370
    25
100
AcDb2dPolyline
 66
     1
 10
0.0
 20
0.0
 30
0.0
  0
VERTEX
  5
58
330
57
100
AcDbEntity
  8
_U+30EC_U+30A4_U+30E4_U+30FC 1
 62
   179
420
  2234388
370
    25
100
AcDbVertex
100
AcDb2dVertex
 10
90.5078176909532
 20
-116.1875727487308
 30
0.0
  0
VERTEX
  5
59
330
57
100
AcDbEntity
  8
_U+30EC_U+30A4_U+30E4_U+30FC 1
 62
   179
420
  2234388
370
    25
100
AcDbVertex
100
AcDb2dVertex
 10
94.00733787945079
 20
-116.1875727487308
 30
0.0
  0
SEQEND
  5
5A
330
57
100
AcDbEntity
  8
_U+30EC_U+30A4_U+30E4_U+30FC 1
 62
   179
420
  2234388
370
    25
  0
POLYLINE
  5
5B
330
4B
100
AcDbEntity
  8
_U+30EC_U+30A4_U+30E4_U+30FC 1
 62
   179
420
  2234388
370
    25
100
AcDb2dPolyline
 66
     1
 10
0.0
 20
0.0
 30
0.0
  0
VERTEX
  5
5C
330
5B
100
AcDbEntity
  8
_U+30EC_U+30A4_U+30E4_U+30FC 1
 62
   179
420
  2234388
370
    25
100
AcDbVertex
100
AcDb2dVertex
 10
105.508104808264
 20
-116.1875727487308
 30
0.0
  0
VERTEX
  5
5D
330
5B
100
AcDbEntity
  8
_U+30EC_U+30A4_U+30E4_U+30FC 1
 62
   179
420
  2234388
370
    25
100
AcDbVertex
100
AcDb2dVertex
 10
105.508104808264
 20
-129.1872927454807
 30
0.0
  0
SEQEND
  5
5E
330
5B
100
AcDbEntity
  8
_U+30EC_U+30A4_U+30E4_U+30FC 1
 62
   179
420
  2234388
370
    25
  0
POLYLINE
  5
5F
330
4B
100
AcDbEntity
  8
_U+30EC_U+30A4_U+30E4_U+30FC 1
 62
   179
420
  2234388
370
    25
100
AcDb2dPolyline
 66
     1
 10
0.0
 20
0.0
 30
0.0
  0
VERTEX
  5
60
330
5F
100
AcDbEntity
  8
_U+30EC_U+30A4_U+30E4_U+30FC 1
 62
   179
420
  2234388
370
    25
100
AcDbVertex
100
AcDb2dVertex
 10
107.2575297636324
 20
-129.1872927454807
 30
0.0
  0
VERTEX
  5
61
330
5F
100
AcDbEntity
  8
_U+30EC_U+30A4_U+30E4_U+30FC 1
 62
   179
420
  2234388
370
    25
100
AcDbVertex
100
AcDb2dVertex
 10
107.2575297636324
 20
-130.1870649674533
 30
0.0
  0
SEQEND
  5
62
330
5F
100
AcDbEntity
  8
_U+30EC_U+30A4_U+30E4_U+30FC 1
 62
   179
420
  2234388
370
    25
  0
POLYLINE
  5
63
330
4B
100
AcDbEntity
  8
_U+30EC_U+30A4_U+30E4_U+30FC 1
 62
   179
420
  2234388
370
    25
100
AcDb2dPolyline
 66
     1
 10
0.0
 20
0.0
 30
0.0
  0
VERTEX
  5
64
330
63
100
AcDbEntity
  8
_U+30EC_U+30A4_U+30E4_U+30FC 1
 62
   179
420
  2234388
370
    25
100
AcDbVertex
100
AcDb2dVertex
 10
102.2579985022922
 20
-128.1875205235088
 30
0.0
  0
VERTEX
  5
65
330
63
100
AcDbEntity
  8
_U+30EC_U+30A4_U+30E4_U+30FC 1
 62
   179
420
  2234388
370
    25
100
AcDbVertex
100
AcDb2dVertex
 10
102.2579985022922
 20
-130.1870649674533
 30
0.0
  0
SEQEND
  5
66
330
63
100
AcDbEntity
  8
_U+30EC_U+30A4_U+30E4_U+30FC 1
 62
   179
420
  2234388
370
    25
  0
POLYLINE
  5
67
330
4B
100
AcDbEntity
  8
_U+30EC_U+30A4_U+30E4_U+30FC 1
 62
   179
420
  2234388
370
    25
100
AcDb2dPolyline
 66
     1
 10
0.0
 20
0.0
 30
0.0
  0
VERTEX
  5
68
330
67
100
AcDbEntity
  8
_U+30EC_U+30A4_U+30E4_U+30FC 1
 62
   179
420
  2234388
370
    25
100
AcDbVertex
100
AcDb2dVertex
 10
102.2579985022922
 20
-130.1870649674533
 30
0.0
  0
VERTEX
  5
69
330
67
100
AcDbEntity
  8
_U+30EC_U+30A4_U+30E4_U+30FC 1
 62
   179
420
  2234388
370
    25
100
AcDbVertex
100
AcDb2dVertex
 10
107.2575297636324
 20
-130.1870649674533
 30
0.0
  0
SEQEND
  5
6A
330
67
100
AcDbEntity
  8
_U+30EC_U+30A4_U+30E4_U+30FC 1
 62
   179
420
  2234388
370
    25
  0
POLYLINE
  5
6B
330
4B
100
AcDbEntity
  8
_U+30EC_U+30A4_U+30E4_U+30FC 1
 62
   179
420
  2234388
370
    25
100
AcDb2dPolyline
 66
     1
 10
0.0
 20
0.0
 30
0.0
  0
VERTEX
  5
6C
330
6B
100
AcDbEntity
  8
_U+30EC_U+30A4_U+30E4_U+30FC 1
 62
   179
420
  2234388
370
    25
100
AcDbVertex
100
AcDb2dVertex
 10
91.50758988766911
 20
-128.1875205235088
 30
0.0
  0
VERTEX
  5
6D
330
6B
100
AcDbEntity
  8
_U+30EC_U+30A4_U+30E4_U+30FC 1
 62
   179
420
  2234388
370
    25
100
AcDbVertex
100
AcDb2dVertex
 10
94.25745731751415
 20
-128.1875205235088
 30
0.0
  0
SEQEND
  5
6E
330
6B
100
AcDbEntity
  8
_U+30EC_U+30A4_U+30E4_U+30FC 1
 62
   179
420
  2234388
370
    25
  0
POLYLINE
  5
6F
330
4B
100
AcDbEntity
  8
_U+30EC_U+30A4_U+30E4_U+30FC 1
 62
   179
420
  2234388
370
    25
100
AcDb2dPolyline
 66
     1
 10
0.0
 20
0.0
 30
0.0
  0
VERTEX
  5
70
330
6F
100
AcDbEntity
  8
_U+30EC_U+30A4_U+30E4_U+30FC 1
 62
   179
420
  2234388
370
    25
100
AcDbVertex
100
AcDb2dVertex
 10
102.2579985022922
 20
-128.1875205235088
 30
0.0
  0
VERTEX
  5
71
330
6F
100
AcDbEntity
  8
_U+30EC_U+30A4_U+30E4_U+30FC 1
 62
   179
420
  2234388
370
    25
100
AcDbVertex
100
AcDb2dVertex
 10
104.5076623337874
 20
-128.1875205235088
 30
0.0
  0
SEQEND
  5
72
330
6F
100
AcDbEntity
  8
_U+30EC_U+30A4_U+30E4_U+30FC 1
 62
   179
420
  2234388
370
    25
  0
POLYLINE
  5
73
330
4B
100
AcDbEntity
  8
_U+30EC_U+30A4_U+30E4_U+30FC 1
 62
   179
420
  2234388
370
    25
100
AcDb2dPolyline
 66
     1
 10
0.0
 20
0.0
 30
0.0
  0
VERTEX
  5
74
330
73
100
AcDbEntity
  8
_U+30EC_U+30A4_U+30E4_U+30FC 1
 62
   179
420
  2234388
370
    25
100
AcDbVertex
100
AcDb2dVertex
 10
105.508104808264
 20
-129.1872927454807
 30
0.0
  0
VERTEX
  5
75
330
73
100
AcDbEntity
  8
_U+30EC_U+30A4_U+30E4_U+30FC 1
 62
   179
420
  2234388
370
    25
100
AcDbVertex
100
AcDb2dVertex
 10
107.2575297636324
 20
-129.1872927454807
 30
0.0
  0
SEQEND
  5
76
330
73
100
AcDbEntity
  8
_U+30EC_U+30A4_U+30E4_U+30FC 1
 62
   179
420
  2234388
370
    25
  0
POLYLINE
  5
77
330
4B
100
AcDbEntity
  8
_U+30EC_U+30A4_U+30E4_U+30FC 1
 62
   179
420
  2234388
370
    25
100
AcDb2dPolyline
 66
     1
 10
0.0
 20
0.0
 30
0.0
  0
VERTEX
  5
78
330
77
100
AcDbEntity
  8
_U+30EC_U+30A4_U+30E4_U+30FC 1
 62
   179
420
  2234388
370
    25
100
AcDbVertex
100
AcDb2dVertex
 10
104.5076623337874
 20
-117.187344970703
 30
0.0
  0
VERTEX
  5
79
330
77
100
AcDbEntity
  8
_U+30EC_U+30A4_U+30E4_U+30FC 1
 62
   179
420
  2234388
370
    25
100
AcDbVertex
100
AcDb2dVertex
 10
104.5076623337874
 20
-119.9372124700158
 30
0.0
  0
SEQEND
  5
7A
330
77
100
AcDbEntity
  8
_U+30EC_U+30A4_U+30E4_U+30FC 1
 62
   179
420
  2234388
370
    25
  0
POLYLINE
  5
7B
330
4B
100
AcDbEntity
  8
_U+30EC_U+30A4_U+30E4_U+30FC 1
 62
   179
420
  2234388
370
    25
100
AcDb2dPolyline
 66
     1
 10
0.0
 20
0.0
 30
0.0
  0
VERTEX
  5
7C
330
7B
100
AcDbEntity
  8
_U+30EC_U+30A4_U+30E4_U+30FC 1
 62
   179
420
  2234388
370
    25
100
AcDbVertex
100
AcDb2dVertex
 10
91.50758988766911
 20
-117.187344970703
 30
0.0
  0
VERTEX
  5
7D
330
7B
100
AcDbEntity
  8
_U+30EC_U+30A4_U+30E4_U+30FC 1
 62
   179
420
  2234388
370
    25
100
AcDbVertex
100
AcDb2dVertex
 10
94.00733787945079
 20
-117.187344970703
 30
0.0
  0
SEQEND
  5
7E
330
7B
100
AcDbEntity
  8
_U+30EC_U+30A4_U+30E4_U+30FC 1
 62
   179
420
  2234388
370
    25
  0
POLYLINE
  5
7F
330
4B
100
AcDbEntity
  8
_U+30EC_U+30A4_U+30E4_U+30FC 1
 62
   179
420
  2234388
370
    25
100
AcDb2dPolyline
 66
     1
 10
0.0
 20
0.0
 30
0.0
  0
VERTEX
  5
80
330
7F
100
AcDbEntity
  8
_U+30EC_U+30A4_U+30E4_U+30FC 1
 62
   179
420
  2234388
370
    25
100
AcDbVertex
100
AcDb2dVertex
 10
94.00733787945079
 20
-116.1875727487308
 30
0.0
  0
VERTEX
  5
81
330
7F
100
AcDbEntity
  8
_U+30EC_U+30A4_U+30E4_U+30FC 1
 62
   179
420
  2234388
370
    25
100
AcDbVertex
100
AcDb2dVertex
 10
94.00733787945079
 20
-117.187344970703
 30
0.0
  0
SEQEND
  5
82
330
7F
100
AcDbEntity
  8
_U+30EC_U+30A4_U+30E4_U+30FC 1
 62
   179
420
  2234388
370
    25
  0
POLYLINE
  5
83
330
4B
100
AcDbEntity
  8
_U+30EC_U+30A4_U+30E4_U+30FC 1
 62
   179
420
  2234388
370
    25
100
AcDb2dPolyline
 66
     1
 10
0.0
 20
0.0
 30
0.0
  0
VERTEX
  5
84
330
83
100
AcDbEntity
  8
_U+30EC_U+30A4_U+30E4_U+30FC 1
 62
   179
420
  2234388
370
    25
100
AcDbVertex
100
AcDb2dVertex
 10
102.0079143420057
 20
-116.1875727487308
 30
0.0
  0
VERTEX
  5
85
330
83
100
AcDbEntity
  8
_U+30EC_U+30A4_U+30E4_U+30FC 1
 62
   179
420
  2234388
370
    25
100
AcDbVertex
100
AcDb2dVertex
 10
102.0079143420057
 20
-117.187344970703
 30
0.0
  0
SEQEND
  5
86
330
83
100
AcDbEntity
  8
_U+30EC_U+30A4_U+30E4_U+30FC 1
 62
   179
420
  2234388
370
    25
  0
POLYLINE
  5
87
330
4B
100
AcDbEntity
  8
_U+30EC_U+30A4_U+30E4_U+30FC 1
 62
   179
420
  2234388
370
    25
100
AcDb2dPolyline
 66
     1
 10
0.0
 20
0.0
 30
0.0
  0
VERTEX
  5
88
330
87
100
AcDbEntity
  8
_U+30EC_U+30A4_U+30E4_U+30FC 1
 62
   179
420
  2234388
370
    25
100
AcDbVertex
100
AcDb2dVertex
 10
102.0079143420057
 20
-116.1875727487308
 30
0.0
  0
VERTEX
  5
89
330
87
100
AcDbEntity
  8
_U+30EC_U+30A4_U+30E4_U+30FC 1
 62
   179
420
  2234388
370
    25
100
AcDbVertex
100
AcDb2dVertex
 10
105.508104808264
 20
-116.1875727487308
 30
0.0
  0
SEQEND
  5
8A
330
87
100
AcDbEntity
  8
_U+30EC_U+30A4_U+30E4_U+30FC 1
 62
   179
420
  2234388
370
    25
  0
POLYLINE
  5
8B
330
4B
100
AcDbEntity
  8
_U+30EC_U+30A4_U+30E4_U+30FC 1
 62
   179
420
  2234388
370
    25
100
AcDb2dPolyline
 66
     1
 10
0.0
 20
0.0
 30
0.0
  0
VERTEX
  5
8C
330
8B
100
AcDbEntity
  8
_U+30EC_U+30A4_U+30E4_U+30FC 1
 62
   179
420
  2234388
370
    25
100
AcDbVertex
100
AcDb2dVertex
 10
102.0079143420057
 20
-117.187344970703
 30
0.0
  0
VERTEX
  5
8D
330
8B
100
AcDbEntity
  8
_U+30EC_U+30A4_U+30E4_U+30FC 1
 62
   179
420
  2234388
370
    25
100
AcDbVertex
100
AcDb2dVertex
 10
104.5076623337874
 20
-117.187344970703
 30
0.0
  0
SEQEND
  5
8E
330
8B
100
AcDbEntity
  8
_U+30EC_U+30A4_U+30E4_U+30FC 1
 62
   179
420
  2234388
370
    25
  0
POLYLINE
  5
8F
330
4B
100
AcDbEntity
  8
_U+30EC_U+30A4_U+30E4_U+30FC 1
 62
   179
420
  2234388
370
    25
100
AcDb2dPolyline
 66
     1
 10
0.0
 20
0.0
 30
0.0
  0
VERTEX
  5
90
330
8F
100
AcDbEntity
  8
_U+30EC_U+30A4_U+30E4_U+30FC 1
 62
   179
420
  2234388
370
    25
100
AcDbVertex
100
AcDb2dVertex
 10
91.50758988766911
 20
-117.187344970703
 30
0.0
  0
VERTEX
  5
91
330
8F
100
AcDbEntity
  8
_U+30EC_U+30A4_U+30E4_U+30FC 1
 62
   179
420
  2234388
370
    25
100
AcDbVertex
100
AcDb2dVertex
 10
91.50758988766911
 20
-119.9372124700158
 30
0.0
  0
SEQEND
  5
92
330
8F
100
AcDbEntity
  8
_U+30EC_U+30A4_U+30E4_U+30FC 1
 62
   179
420
  2234388
370
    25
  0
POLYLINE
  5
93
330
4B
100
AcDbEntity
  8
_U+30EC_U+30A4_U+30E4_U+30FC 1
 62
   179
420
  2234388
370
    25
100
AcDb2dPolyline
 66
     1
 10
0.0
 20
0.0
 30
0.0
  0
VERTEX
  5
94
330
93
100
AcDbEntity
  8
_U+30EC_U+30A4_U+30E4_U+30FC 1
 62
   179
420
  2234388
370
    25
100
AcDbVertex
100
AcDb2dVertex
 10
86.25726891050485
 20
-128.7876660789142
 30
0.0
  0
VERTEX
  5
95
330
93
100
AcDbEntity
  8
_U+30EC_U+30A4_U+30E4_U+30FC 1
 62
   179
420
  2234388
370
    25
100
AcDbVertex
100
AcDb2dVertex
 10
86.3909364070947
 20
-128.7876660789142
 30
0.0
  0
SEQEND
  5
96
330
93
100
AcDbEntity
  8
_U+30EC_U+30A4_U+30E4_U+30FC 1
 62
   179
420
  2234388
370
    25
  0
POLYLINE
  5
97
330
4B
100
AcDbEntity
  8
_U+30EC_U+30A4_U+30E4_U+30FC 1
 62
   179
420
  2234388
370
    25
100
AcDb2dPolyline
 66
     1
 10
0.0
 20
0.0
 30
0.0
  0
VERTEX
  5
98
330
97
100
AcDbEntity
  8
_U+30EC_U+30A4_U+30E4_U+30FC 1
 62
   179
420
  2234388
370
    25
100
AcDbVertex
100
AcDb2dVertex
 10
91.50758988766911
 20
-119.9372124700158
 30
0.0
  0
VERTEX
  5
99
330
97
100
AcDbEntity
  8
_U+30EC_U+30A4_U+30E4_U+30FC 1
 62
   179
420
  2234388
370
    25
100
AcDbVertex
100
AcDb2dVertex
 10
104.5076623337874
 20
-119.9372124700158
 30
0.0
  0
SEQEND
  5
9A
330
97
100
AcDbEntity
  8
_U+30EC_U+30A4_U+30E4_U+30FC 1
 62
   179
420
  2234388
370
    25
  0
POLYLINE
  5
9B
330
4B
100
AcDbEntity
  8
_U+30EC_U+30A4_U+30E4_U+30FC 1
 62
   179
420
  2234388
370
    25
100
AcDb2dPolyline
 66
     1
 10
0.0
 20
0.0
 30
0.0
  0
VERTEX
  5
9C
330
9B
100
AcDbEntity
  8
_U+30EC_U+30A4_U+30E4_U+30FC 1
 62
   179
420
  2234388
370
    25
100
AcDbVertex
100
AcDb2dVertex
 10
92.50736208438502
 20
-121.4371883029739
 30
0.0
  0
VERTEX
  5
9D
330
9B
100
AcDbEntity
  8
_U+30EC_U+30A4_U+30E4_U+30FC 1
 62
   179
420
  2234388
370
    25
100
AcDbVertex
100
AcDb2dVertex
 10
97.75768306154929
 20
-121.4371883029739
 30
0.0
  0
SEQEND
  5
9E
330
9B
100
AcDbEntity
  8
_U+30EC_U+30A4_U+30E4_U+30FC 1
 62
   179
420
  2234388
370
    25
  0
POLYLINE
  5
9F
330
4B
100
AcDbEntity
  8
_U+30EC_U+30A4_U+30E4_U+30FC 1
 62
   179
420
  2234388
370
    25
100
AcDb2dPolyline
 66
     1
 10
0.0
 20
0.0
 30
0.0
  0
VERTEX
  5
A0
330
9F
100
AcDbEntity
  8
_U+30EC_U+30A4_U+30E4_U+30FC 1
 62
   179
420
  2234388
370
    25
100
AcDbVertex
100
AcDb2dVertex
 10
91.50758988766911
 20
-122.4376660805017
 30
0.0
  0
VERTEX
  5
A1
330
9F
100
AcDbEntity
  8
_U+30EC_U+30A4_U+30E4_U+30FC 1
 62
   179
420
  2234388
370
    25
100
AcDbVertex
100
AcDb2dVertex
 10
91.50758988766911
 20
-128.1875205235088
 30
0.0
  0
SEQEND
  5
A2
330
9F
100
AcDbEntity
  8
_U+30EC_U+30A4_U+30E4_U+30FC 1
 62
   179
420
  2234388
370
    25
  0
POLYLINE
  5
A3
330
4B
100
AcDbEntity
  8
_U+30EC_U+30A4_U+30E4_U+30FC 1
 62
   179
420
  2234388
370
    25
100
AcDb2dPolyline
 66
     1
 10
0.0
 20
0.0
 30
0.0
  0
VERTEX
  5
A4
330
A3
100
AcDbEntity
  8
_U+30EC_U+30A4_U+30E4_U+30FC 1
 62
   179
420
  2234388
370
    25
100
AcDbVertex
100
AcDb2dVertex
 10
104.5076623337874
 20
-122.4376660805017
 30
0.0
  0
VERTEX
  5
A5
330
A3
100
AcDbEntity
  8
_U+30EC_U+30A4_U+30E4_U+30FC 1
 62
   179
420
  2234388
370
    25
100
AcDbVertex
100
AcDb2dVertex
 10
104.5076623337874
 20
-128.1875205235088
 30
0.0
  0
SEQEND
  5
A6
330
A3
100
AcDbEntity
  8
_U+30EC_U+30A4_U+30E4_U+30FC 1
 62
   179
420
  2234388
370
    25
  0
POLYLINE
  5
A7
330
4B
100
AcDbEntity
  8
_U+30EC_U+30A4_U+30E4_U+30FC 1
 62
   179
420
  2234388
370
    25
100
AcDb2dPolyline
 66
     1
 10
0.0
 20
0.0
 30
0.0
  0
VERTEX
  5
A8
330
A7
100
AcDbEntity
  8
_U+30EC_U+30A4_U+30E4_U+30FC 1
 62
   179
420
  2234388
370
    25
100
AcDbVertex
100
AcDb2dVertex
 10
97.75768306154929
 20
-121.4371883029739
 30
0.0
  0
VERTEX
  5
A9
330
A7
100
AcDbEntity
  8
_U+30EC_U+30A4_U+30E4_U+30FC 1
 62
   179
420
  2234388
370
    25
100
AcDbVertex
100
AcDb2dVertex
 10
98.00780249961265
 20
-121.0045063586377
 30
0.0
  0
SEQEND
  5
AA
330
A7
100
AcDbEntity
  8
_U+30EC_U+30A4_U+30E4_U+30FC 1
 62
   179
420
  2234388
370
    25
  0
POLYLINE
  5
AB
330
4B
100
AcDbEntity
  8
_U+30EC_U+30A4_U+30E4_U+30FC 1
 62
   179
420
  2234388
370
    25
100
AcDb2dPolyline
 66
     1
 10
0.0
 20
0.0
 30
0.0
  0
VERTEX
  5
AC
330
AB
100
AcDbEntity
  8
_U+30EC_U+30A4_U+30E4_U+30FC 1
 62
   179
420
  2234388
370
    25
100
AcDbVertex
100
AcDb2dVertex
 10
98.00780249961265
 20
-121.0045063586377
 30
0.0
  0
VERTEX
  5
AD
330
AB
100
AcDbEntity
  8
_U+30EC_U+30A4_U+30E4_U+30FC 1
 62
   179
420
  2234388
370
    25
100
AcDbVertex
100
AcDb2dVertex
 10
98.25721638213847
 20
-121.4371883029739
 30
0.0
  0
SEQEND
  5
AE
330
AB
100
AcDbEntity
  8
_U+30EC_U+30A4_U+30E4_U+30FC 1
 62
   179
420
  2234388
370
    25
  0
POLYLINE
  5
AF
330
4B
100
AcDbEntity
  8
_U+30EC_U+30A4_U+30E4_U+30FC 1
 62
   179
420
  2234388
370
    25
100
AcDb2dPolyline
 66
     1
 10
0.0
 20
0.0
 30
0.0
  0
VERTEX
  5
B0
330
AF
100
AcDbEntity
  8
_U+30EC_U+30A4_U+30E4_U+30FC 1
 62
   179
420
  2234388
370
    25
100
AcDbVertex
100
AcDb2dVertex
 10
98.25721638213847
 20
-121.4371883029739
 30
0.0
  0
VERTEX
  5
B1
330
AF
100
AcDbEntity
  8
_U+30EC_U+30A4_U+30E4_U+30FC 1
 62
   179
420
  2234388
370
    25
100
AcDbVertex
100
AcDb2dVertex
 10
103.5078901370715
 20
-121.4371883029739
 30
0.0
  0
SEQEND
  5
B2
330
AF
100
AcDbEntity
  8
_U+30EC_U+30A4_U+30E4_U+30FC 1
 62
   179
420
  2234388
370
    25
  0
POLYLINE
  5
B3
330
4B
100
AcDbEntity
  8
_U+30EC_U+30A4_U+30E4_U+30FC 1
 62
   179
420
  2234388
370
    25
100
AcDb2dPolyline
 66
     1
 10
0.0
 20
0.0
 30
0.0
  0
VERTEX
  5
B4
330
B3
100
AcDbEntity
  8
_U+30EC_U+30A4_U+30E4_U+30FC 1
 62
   179
420
  2234388
370
    25
100
AcDbVertex
100
AcDb2dVertex
 10
89.25725577841325
 20
-124.8505955243428
 30
0.0
  0
VERTEX
  5
B5
330
B3
100
AcDbEntity
  8
_U+30EC_U+30A4_U+30E4_U+30FC 1
 62
   179
420
  2234388
370
    25
100
AcDbVertex
100
AcDb2dVertex
 10
90.30733408495685
 20
-124.8505955243428
 30
0.0
  0
SEQEND
  5
B6
330
B3
100
AcDbEntity
  8
_U+30EC_U+30A4_U+30E4_U+30FC 1
 62
   179
420
  2234388
370
    25
  0
POLYLINE
  5
B7
330
4B
100
AcDbEntity
  8
_U+30EC_U+30A4_U+30E4_U+30FC 1
 62
   179
420
  2234388
370
    25
100
AcDb2dPolyline
 66
     1
 10
0.0
 20
0.0
 30
0.0
  0
VERTEX
  5
B8
330
B7
100
AcDbEntity
  8
_U+30EC_U+30A4_U+30E4_U+30FC 1
 62
   179
420
  2234388
370
    25
100
AcDbVertex
100
AcDb2dVertex
 10
94.25745731751415
 20
-128.1875205235088
 30
0.0
  0
VERTEX
  5
B9
330
B7
100
AcDbEntity
  8
_U+30EC_U+30A4_U+30E4_U+30FC 1
 62
   179
420
  2234388
370
    25
100
AcDbVertex
100
AcDb2dVertex
 10
94.25745731751415
 20
-130.1870649674533
 30
0.0
  0
SEQEND
  5
BA
330
B7
100
AcDbEntity
  8
_U+30EC_U+30A4_U+30E4_U+30FC 1
 62
   179
420
  2234388
370
    25
  0
POLYLINE
  5
BB
330
4B
100
AcDbEntity
  8
_U+30EC_U+30A4_U+30E4_U+30FC 1
 62
   179
420
  2234388
370
    25
100
AcDb2dPolyline
 66
     1
 10
0.0
 20
0.0
 30
0.0
  0
VERTEX
  5
BC
330
BB
100
AcDbEntity
  8
_U+30EC_U+30A4_U+30E4_U+30FC 1
 62
   179
420
  2234388
370
    25
100
AcDbVertex
100
AcDb2dVertex
 10
87.75724470557061
 20
-130.1870649674533
 30
0.0
  0
VERTEX
  5
BD
330
BB
100
AcDbEntity
  8
_U+30EC_U+30A4_U+30E4_U+30FC 1
 62
   179
420
  2234388
370
    25
100
AcDbVertex
100
AcDb2dVertex
 10
87.75724470557061
 20
-142.687251630995
 30
0.0
  0
SEQEND
  5
BE
330
BB
100
AcDbEntity
  8
_U+30EC_U+30A4_U+30E4_U+30FC 1
 62
   179
420
  2234388
370
    25
  0
POLYLINE
  5
BF
330
4B
100
AcDbEntity
  8
_U+30EC_U+30A4_U+30E4_U+30FC 1
 62
   179
420
  2234388
370
    25
100
AcDb2dPolyline
 66
     1
 10
0.0
 20
0.0
 30
0.0
  0
VERTEX
  5
C0
330
BF
100
AcDbEntity
  8
_U+30EC_U+30A4_U+30E4_U+30FC 1
 62
   179
420
  2234388
370
    25
100
AcDbVertex
100
AcDb2dVertex
 10
77.75786664722726
 20
-138.6874924653281
 30
0.0
  0
VERTEX
  5
C1
330
BF
100
AcDbEntity
  8
_U+30EC_U+30A4_U+30E4_U+30FC 1
 62
   179
420
  2234388
370
    25
100
AcDbVertex
100
AcDb2dVertex
 10
77.75786664722726
 20
-142.687251630995
 30
0.0
  0
SEQEND
  5
C2
330
BF
100
AcDbEntity
  8
_U+30EC_U+30A4_U+30E4_U+30FC 1
 62
   179
420
  2234388
370
    25
  0
POLYLINE
  5
C3
330
4B
100
AcDbEntity
  8
_U+30EC_U+30A4_U+30E4_U+30FC 1
 62
   179
420
  2234388
370
    25
100
AcDb2dPolyline
 66
     1
 10
0.0
 20
0.0
 30
0.0
  0
VERTEX
  5
C4
330
C3
100
AcDbEntity
  8
_U+30EC_U+30A4_U+30E4_U+30FC 1
 62
   179
420
  2234388
370
    25
100
AcDbVertex
100
AcDb2dVertex
 10
77.75786664722726
 20
-138.6874924653281
 30
0.0
  0
VERTEX
  5
C5
330
C3
100
AcDbEntity
  8
_U+30EC_U+30A4_U+30E4_U+30FC 1
 62
   179
420
  2234388
370
    25
100
AcDbVertex
100
AcDb2dVertex
 10
79.75776386894947
 20
-138.6874924653281
 30
0.0
  0
SEQEND
  5
C6
330
C3
100
AcDbEntity
  8
_U+30EC_U+30A4_U+30E4_U+30FC 1
 62
   179
420
  2234388
370
    25
  0
POLYLINE
  5
C7
330
4B
100
AcDbEntity
  8
_U+30EC_U+30A4_U+30E4_U+30FC 1
 62
   179
420
  2234388
370
    25
100
AcDb2dPolyline
 66
     1
 10
0.0
 20
0.0
 30
0.0
  0
VERTEX
  5
C8
330
C7
100
AcDbEntity
  8
_U+30EC_U+30A4_U+30E4_U+30FC 1
 62
   179
420
  2234388
370
    25
100
AcDbVertex
100
AcDb2dVertex
 10
77.75786664722726
 20
-142.687251630995
 30
0.0
  0
VERTEX
  5
C9
330
C7
100
AcDbEntity
  8
_U+30EC_U+30A4_U+30E4_U+30FC 1
 62
   179
420
  2234388
370
    25
100
AcDbVertex
100
AcDb2dVertex
 10
87.75724470557061
 20
-142.687251630995
 30
0.0
  0
SEQEND
  5
CA
330
C7
100
AcDbEntity
  8
_U+30EC_U+30A4_U+30E4_U+30FC 1
 62
   179
420
  2234388
370
    25
  0
POLYLINE
  5
CB
330
4B
100
AcDbEntity
  8
_U+30EC_U+30A4_U+30E4_U+30FC 1
 62
   179
420
  2234388
370
    25
100
AcDb2dPolyline
 66
     1
 10
0.0
 20
0.0
 30
0.0
  0
VERTEX
  5
CC
330
CB
100
AcDbEntity
  8
_U+30EC_U+30A4_U+30E4_U+30FC 1
 62
   179
420
  2234388
370
    25
100
AcDbVertex
100
AcDb2dVertex
 10
86.25726891050485
 20
-128.7876660789142
 30
0.0
  0
VERTEX
  5
CD
330
CB
100
AcDbEntity
  8
_U+30EC_U+30A4_U+30E4_U+30FC 1
 62
   179
420
  2234388
370
    25
100
AcDbVertex
100
AcDb2dVertex
 10
86.25726891050485
 20
-137.0510621879596
 30
0.0
  0
SEQEND
  5
CE
330
CB
100
AcDbEntity
  8
_U+30EC_U+30A4_U+30E4_U+30FC 1
 62
   179
420
  2234388
370
    25
  0
POLYLINE
  5
CF
330
4B
100
AcDbEntity
  8
_U+30EC_U+30A4_U+30E4_U+30FC 1
 62
   179
420
  2234388
370
    25
100
AcDb2dPolyline
 66
     1
 10
0.0
 20
0.0
 30
0.0
  0
VERTEX
  5
D0
330
CF
100
AcDbEntity
  8
_U+30EC_U+30A4_U+30E4_U+30FC 1
 62
   179
420
  2234388
370
    25
100
AcDbVertex
100
AcDb2dVertex
 10
85.25749671378894
 20
-137.2508755212429
 30
0.0
  0
VERTEX
  5
D1
330
CF
100
AcDbEntity
  8
_U+30EC_U+30A4_U+30E4_U+30FC 1
 62
   179
420
  2234388
370
    25
100
AcDbVertex
100
AcDb2dVertex
 10
86.05745558226917
 20
-137.2508755212429
 30
0.0
  0
SEQEND
  5
D2
330
CF
100
AcDbEntity
  8
_U+30EC_U+30A4_U+30E4_U+30FC 1
 62
   179
420
  2234388
370
    25
  0
POLYLINE
  5
D3
330
4B
100
AcDbEntity
  8
_U+30EC_U+30A4_U+30E4_U+30FC 1
 62
   179
420
  2234388
370
    25
100
AcDb2dPolyline
 66
     1
 10
0.0
 20
0.0
 30
0.0
  0
VERTEX
  5
D4
330
D3
100
AcDbEntity
  8
_U+30EC_U+30A4_U+30E4_U+30FC 1
 62
   179
420
  2234388
370
    25
100
AcDbVertex
100
AcDb2dVertex
 10
78.75763886919948
 20
-141.6874794090224
 30
0.0
  0
VERTEX
  5
D5
330
D3
100
AcDbEntity
  8
_U+30EC_U+30A4_U+30E4_U+30FC 1
 62
   179
420
  2234388
370
    25
100
AcDbVertex
100
AcDb2dVertex
 10
82.7453309445463
 20
-141.6874794090224
 30
0.0
  0
SEQEND
  5
D6
330
D3
100
AcDbEntity
  8
_U+30EC_U+30A4_U+30E4_U+30FC 1
 62
   179
420
  2234388
370
    25
  0
POLYLINE
  5
D7
330
4B
100
AcDbEntity
  8
_U+30EC_U+30A4_U+30E4_U+30FC 1
 62
   179
420
  2234388
370
    25
100
AcDb2dPolyline
 66
     1
 10
0.0
 20
0.0
 30
0.0
  0
VERTEX
  5
D8
330
D7
100
AcDbEntity
  8
_U+30EC_U+30A4_U+30E4_U+30FC 1
 62
   179
420
  2234388
370
    25
100
AcDbVertex
100
AcDb2dVertex
 10
78.75763886919948
 20
-139.6872646873007
 30
0.0
  0
VERTEX
  5
D9
330
D7
100
AcDbEntity
  8
_U+30EC_U+30A4_U+30E4_U+30FC 1
 62
   179
420
  2234388
370
    25
100
AcDbVertex
100
AcDb2dVertex
 10
78.75763886919948
 20
-141.6874794090224
 30
0.0
  0
SEQEND
  5
DA
330
D7
100
AcDbEntity
  8
_U+30EC_U+30A4_U+30E4_U+30FC 1
 62
   179
420
  2234388
370
    25
  0
POLYLINE
  5
DB
330
4B
100
AcDbEntity
  8
_U+30EC_U+30A4_U+30E4_U+30FC 1
 62
   179
420
  2234388
370
    25
100
AcDb2dPolyline
 66
     1
 10
0.0
 20
0.0
 30
0.0
  0
VERTEX
  5
DC
330
DB
100
AcDbEntity
  8
_U+30EC_U+30A4_U+30E4_U+30FC 1
 62
   179
420
  2234388
370
    25
100
AcDbVertex
100
AcDb2dVertex
 10
78.75763886919948
 20
-139.6872646873007
 30
0.0
  0
VERTEX
  5
DD
330
DB
100
AcDbEntity
  8
_U+30EC_U+30A4_U+30E4_U+30FC 1
 62
   179
420
  2234388
370
    25
100
AcDbVertex
100
AcDb2dVertex
 10
79.75776386894947
 20
-139.6872646873007
 30
0.0
  0
SEQEND
  5
DE
330
DB
100
AcDbEntity
  8
_U+30EC_U+30A4_U+30E4_U+30FC 1
 62
   179
420
  2234388
370
    25
  0
POLYLINE
  5
DF
330
4B
100
AcDbEntity
  8
_U+30EC_U+30A4_U+30E4_U+30FC 1
 62
   179
420
  2234388
370
    25
100
AcDb2dPolyline
 66
     1
 10
0.0
 20
0.0
 30
0.0
  0
VERTEX
  5
E0
330
DF
100
AcDbEntity
  8
_U+30EC_U+30A4_U+30E4_U+30FC 1
 62
   179
420
  2234388
370
    25
100
AcDbVertex
100
AcDb2dVertex
 10
79.75776386894947
 20
-138.6874924653281
 30
0.0
  0
VERTEX
  5
E1
330
DF
100
AcDbEntity
  8
_U+30EC_U+30A4_U+30E4_U+30FC 1
 62
   179
420
  2234388
370
    25
100
AcDbVertex
100
AcDb2dVertex
 10
79.75776386894947
 20
-139.6872646873007
 30
0.0
  0
SEQEND
  5
E2
330
DF
100
AcDbEntity
  8
_U+30EC_U+30A4_U+30E4_U+30FC 1
 62
   179
420
  2234388
370
    25
  0
SPLINE
  5
E3
330
4B
100
AcDbEntity
  8
_U+30EC_U+30A4_U+30E4_U+30FC 1
 62
   179
420
  2234388
370
    25
100
AcDbSpline
210
0.0
220
0.0
230
1.0
 70
     8
 71
     3
 72
     8
 73
     4
 74
     0
 42
0.0000000001
 43
0.0000000001
 12
1.0
 22
0.0
 32
0.0
 13
1.0
 23
0.0
 33
0.0
 40
0.0
 40
0.0
 40
0.0
 40
0.0
 40
1.0
 40
1.0
 40
1.0
 40
1.0
 10
92.50736208438502
 20
-121.4371883029739
 30
0.0
 10
91.95544126513236
 20
-121.4371883029739
 30
0.0
 10
91.50758988766911
 20
-121.8850749695288
 30
0.0
 10
91.50758988766911
 20
-122.4376660805017
 30
0.0
  0
SPLINE
  5
E4
330
4B
100
AcDbEntity
  8
_U+30EC_U+30A4_U+30E4_U+30FC 1
 62
   179
420
  2234388
370
    25
100
AcDbSpline
210
0.0
220
0.0
230
1.0
 70
     8
 71
     3
 72
     8
 73
     4
 74
     0
 42
0.0000000001
 43
0.0000000001
 12
1.0
 22
0.0
 32
0.0
 13
1.0
 23
0.0
 33
0.0
 40
0.0
 40
0.0
 40
0.0
 40
0.0
 40
1.0
 40
1.0
 40
1.0
 40
1.0
 10
104.5076623337874
 20
-122.4376660805017
 30
0.0
 10
104.5076623337874
 20
-121.8850749695288
 30
0.0
 10
104.0604812340848
 20
-121.4371883029739
 30
0.0
 10
103.5078901370715
 20
-121.4371883029739
 30
0.0
  0
SPLINE
  5
E5
330
4B
100
AcDbEntity
  8
_U+30EC_U+30A4_U+30E4_U+30FC 1
 62
   179
420
  2234388
370
    25
100
AcDbSpline
210
0.0
220
0.0
230
1.0
 70
     8
 71
     3
 72
    14
 73
    10
 74
     0
 42
0.0000000001
 43
0.0000000001
 12
1.0
 22
0.0
 32
0.0
 13
1.0
 23
0.0
 33
0.0
 40
0.0
 40
0.0
 40
0.0
 40
0.0
 40
1.0
 40
1.0
 40
1.0
 40
2.0
 40
2.0
 40
2.0
 40
3.0
 40
3.0
 40
3.0
 40
3.0
 10
87.28046555106759
 20
-127.0251530237991
 30
0.0
 10
87.13575831154932
 20
-127.8402460791511
 30
0.0
 10
87.67938886696903
 20
-128.6195321900673
 30
0.0
 10
88.49518524229974
 20
-128.7642416344757
 30
0.0
 10
89.31098608878335
 20
-128.9089158011059
 30
0.0
 10
90.08959964606728
 20
-128.3652852456865
 30
0.0
 10
90.234273809043
 20
-127.5494866347793
 30
0.0
 10
90.37139852776689
 20
-126.7777852460834
 30
0.0
 10
89.89116215112983
 20
-126.0308841351591
 30
0.0
 10
89.13254883715034
 20
-125.8351983018745
 30
0.0
  0
SPLINE
  5
E6
330
4B
100
AcDbEntity
  8
_U+30EC_U+30A4_U+30E4_U+30FC 1
 62
   179
420
  2234388
370
    25
100
AcDbSpline
210
0.0
220
0.0
230
1.0
 70
     8
 71
     3
 72
     8
 73
     4
 74
     0
 42
0.0000000001
 43
0.0000000001
 12
1.0
 22
0.0
 32
0.0
 13
1.0
 23
0.0
 33
0.0
 40
0.0
 40
0.0
 40
0.0
 40
0.0
 40
1.0
 40
1.0
 40
1.0
 40
1.0
 10
86.29586279840912
 20
-126.8501399682876
 30
0.0
 10
86.19595831178437
 20
-127.4116916348139
 30
0.0
 10
86.29170002073755
 20
-127.9911644124465
 30
0.0
 10
86.56661973594598
 20
-128.490697745655
 30
0.0
  0
SPLINE
  5
E7
330
4B
100
AcDbEntity
  8
_U+30EC_U+30A4_U+30E4_U+30FC 1
 62
   179
420
  2234388
370
    25
100
AcDbSpline
210
0.0
220
0.0
230
1.0
 70
     8
 71
     3
 72
    11
 73
     7
 74
     0
 42
0.0000000001
 43
0.0000000001
 12
1.0
 22
0.0
 32
0.0
 13
1.0
 23
0.0
 33
0.0
 40
0.0
 40
0.0
 40
0.0
 40
0.0
 40
1.0
 40
1.0
 40
1.0
 40
2.0
 40
2.0
 40
2.0
 40
2.0
 10
86.3909364070947
 20
-128.7876660789142
 30
0.0
 10
86.5018497375984
 20
-128.7876660789142
 30
0.0
 10
86.59145529086793
 20
-128.6980958011589
 30
0.0
 10
86.59145529086793
 20
-128.5871471900754
 30
0.0
 10
86.59145529086793
 20
-128.5533863567505
 30
0.0
 10
86.58249473554098
 20
-128.5203310789812
 30
0.0
 10
86.56661973594598
 20
-128.490697745655
 30
0.0
  0
SPLINE
  5
E8
330
4B
100
AcDbEntity
  8
_U+30EC_U+30A4_U+30E4_U+30FC 1
 62
   179
420
  2234388
370
    25
100
AcDbSpline
210
0.0
220
0.0
230
1.0
 70
     8
 71
     3
 72
    11
 73
     7
 74
     0
 42
0.0000000001
 43
0.0000000001
 12
1.0
 22
0.0
 32
0.0
 13
1.0
 23
0.0
 33
0.0
 40
0.0
 40
0.0
 40
0.0
 40
0.0
 40
1.0
 40
1.0
 40
1.0
 40
2.0
 40
2.0
 40
2.0
 40
2.0
 10
89.25725577841325
 20
-124.8505955243428
 30
0.0
 10
88.98163050766726
 20
-124.8505955243428
 30
0.0
 10
88.75772245782407
 20
-125.0745388576204
 30
0.0
 10
88.75772245782407
 20
-125.3508344131068
 30
0.0
 10
88.75772245782407
 20
-125.5789052463831
 30
0.0
 10
88.9120627316643
 20
-125.7780130241111
 30
0.0
 10
89.13254883715034
 20
-125.8351983018745
 30
0.0
  0
SPLINE
  5
E9
330
4B
100
AcDbEntity
  8
_U+30EC_U+30A4_U+30E4_U+30FC 1
 62
   179
420
  2234388
370
    25
100
AcDbSpline
210
0.0
220
0.0
230
1.0
 70
     8
 71
     3
 72
    11
 73
     7
 74
     0
 42
0.0000000001
 43
0.0000000001
 12
1.0
 22
0.0
 32
0.0
 13
1.0
 23
0.0
 33
0.0
 40
0.0
 40
0.0
 40
0.0
 40
0.0
 40
1.0
 40
1.0
 40
1.0
 40
2.0
 40
2.0
 40
2.0
 40
2.0
 10
87.28046555106759
 20
-127.0251530237991
 30
0.0
 10
87.3286902720595
 20
-126.7529849683117
 30
0.0
 10
87.14746833223842
 20
-126.493234690599
 30
0.0
 10
86.876005839164
 20
-126.4450099683888
 30
0.0
 10
86.60383779055202
 20
-126.3967499684008
 30
0.0
 10
86.3447577971617
 20
-126.5779719128001
 30
0.0
 10
86.29586279840912
 20
-126.8501399682876
 30
0.0
  0
SPLINE
  5
EA
330
4B
100
AcDbEntity
  8
_U+30EC_U+30A4_U+30E4_U+30FC 1
 62
   179
420
  2234388
370
    25
100
AcDbSpline
210
0.0
220
0.0
230
1.0
 70
     8
 71
     3
 72
     8
 73
     4
 74
     0
 42
0.0000000001
 43
0.0000000001
 12
1.0
 22
0.0
 32
0.0
 13
1.0
 23
0.0
 33
0.0
 40
0.0
 40
0.0
 40
0.0
 40
0.0
 40
1.0
 40
1.0
 40
1.0
 40
1.0
 10
90.30733408495685
 20
-124.8505955243428
 30
0.0
 10
90.41824741546056
 20
-124.8505955243428
 30
0.0
 10
90.5078176909532
 20
-124.7610252465875
 30
0.0
 10
90.5078176909532
 20
-124.6507821910595
 30
0.0
  0
SPLINE
  5
EB
330
4B
100
AcDbEntity
  8
_U+30EC_U+30A4_U+30E4_U+30FC 1
 62
   179
420
  2234388
370
     9
100
AcDbSpline
210
0.0
220
0.0
230
1.0
 70
    11
 71
     3
 72
    17
 73
    13
 74
     0
 42
0.0000000001
 43
0.0000000001
 12
1.0
 22
0.0
 32
0.0
 13
1.0
 23
0.0
 33
0.0
 40
0.0
 40
0.0
 40
0.0
 40
0.0
 40
1.0
 40
1.0
 40
1.0
 40
2.0
 40
2.0
 40
2.0
 40
3.0
 40
3.0
 40
3.0
 40
4.0
 40
4.0
 40
4.0
 40
4.0
 10
90.60772435507104
 20
-112.1874608052865
 30
0.0
 10
90.60772435507104
 20
-112.1323569164112
 30
0.0
 10
90.56295685621315
 20
-112.0875541386448
 30
0.0
 10
90.5078176909532
 20
-112.0875541386448
 30
0.0
 10
90.45200824793258
 20
-112.0875541386448
 30
0.0
 10
90.40724074907469
 20
-112.1323569164112
 30
0.0
 10
90.40724074907469
 20
-112.1874608052865
 30
0.0
 10
90.40724074907469
 20
-112.2425999719392
 30
0.0
 10
90.45200824793258
 20
-112.2873674719281
 30
0.0
 10
90.5078176909532
 20
-112.2873674719281
 30
0.0
 10
90.56295685621315
 20
-112.2873674719281
 30
0.0
 10
90.60772435507104
 20
-112.2425999719392
 30
0.0
 10
90.60772435507104
 20
-112.1874608052865
 30
0.0
  0
SPLINE
  5
EC
330
4B
100
AcDbEntity
  8
_U+30EC_U+30A4_U+30E4_U+30FC 1
 62
   179
420
  2234388
370
    25
100
AcDbSpline
210
0.0
220
0.0
230
1.0
 70
     8
 71
     3
 72
    14
 73
    10
 74
     0
 42
0.0000000001
 43
0.0000000001
 12
1.0
 22
0.0
 32
0.0
 13
1.0
 23
0.0
 33
0.0
 40
0.0
 40
0.0
 40
0.0
 40
0.0
 40
1.0
 40
1.0
 40
1.0
 40
2.0
 40
2.0
 40
2.0
 40
3.0
 40
3.0
 40
3.0
 40
3.0
 10
83.28070648644328
 20
-139.4247274651437
 30
0.0
 10
83.32893331250098
 20
-139.1532649652114
 30
0.0
 10
83.1477092676141
 20
-138.8935146874991
 30
0.0
 10
82.875576496779
 20
-138.8452546875111
 30
0.0
 10
82.60407872592772
 20
-138.7970299653006
 30
0.0
 10
82.34433053496961
 20
-138.9782519097002
 30
0.0
 10
82.29610373378482
 20
-139.2497144096318
 30
0.0
 10
82.29610373378482
 20
-139.2497144096318
 30
0.0
 10
82.29610373378482
 20
-139.2497144096318
 30
0.0
 10
82.29610373378482
 20
-139.2497144096318
 30
0.0
  0
SPLINE
  5
ED
330
4B
100
AcDbEntity
  8
_U+30EC_U+30A4_U+30E4_U+30FC 1
 62
   179
420
  2234388
370
    25
100
AcDbSpline
210
0.0
220
0.0
230
1.0
 70
     8
 71
     3
 72
     8
 73
     4
 74
     0
 42
0.0000000001
 43
0.0000000001
 12
1.0
 22
0.0
 32
0.0
 13
1.0
 23
0.0
 33
0.0
 40
0.0
 40
0.0
 40
0.0
 40
0.0
 40
1.0
 40
1.0
 40
1.0
 40
1.0
 10
82.29610373378482
 20
-139.2497144096318
 30
0.0
 10
82.1617306816574
 20
-140.0055760761099
 30
0.0
 10
82.38221678714343
 20
-140.7814049648045
 30
0.0
 10
82.8941678851936
 20
-141.3539985757727
 30
0.0
  0
SPLINE
  5
EE
330
4B
100
AcDbEntity
  8
_U+30EC_U+30A4_U+30E4_U+30FC 1
 62
   179
420
  2234388
370
    25
100
AcDbSpline
210
0.0
220
0.0
230
1.0
 70
     8
 71
     3
 72
    11
 73
     7
 74
     0
 42
0.0000000001
 43
0.0000000001
 12
1.0
 22
0.0
 32
0.0
 13
1.0
 23
0.0
 33
0.0
 40
0.0
 40
0.0
 40
0.0
 40
0.0
 40
1.0
 40
1.0
 40
1.0
 40
2.0
 40
2.0
 40
2.0
 40
2.0
 10
85.25749671378894
 20
-137.2508755212429
 30
0.0
 10
84.98120116528227
 20
-137.2508755212429
 30
0.0
 10
84.75725783766221
 20
-137.4748188545202
 30
0.0
 10
84.75725783766221
 20
-137.7511144100066
 30
0.0
 10
84.75725783766221
 20
-137.9784796877276
 30
0.0
 10
84.91159811150244
 20
-138.1776227432335
 30
0.0
 10
85.13278977252604
 20
-138.2348080209969
 30
0.0
  0
SPLINE
  5
EF
330
4B
100
AcDbEntity
  8
_U+30EC_U+30A4_U+30E4_U+30FC 1
 62
   179
420
  2234388
370
    25
100
AcDbSpline
210
0.0
220
0.0
230
1.0
 70
     8
 71
     3
 72
    14
 73
    10
 74
     0
 42
0.0000000001
 43
0.0000000001
 12
1.0
 22
0.0
 32
0.0
 13
1.0
 23
0.0
 33
0.0
 40
0.0
 40
0.0
 40
0.0
 40
0.0
 40
1.0
 40
1.0
 40
1.0
 40
2.0
 40
2.0
 40
2.0
 40
3.0
 40
3.0
 40
3.0
 40
3.0
 10
83.28070648644328
 20
-139.4247274651437
 30
0.0
 10
83.13599704569069
 20
-140.2405260760509
 30
0.0
 10
83.67962758737707
 20
-141.0191419091894
 30
0.0
 10
84.49475589991475
 20
-141.1645216313758
 30
0.0
 10
85.3105544902131
 20
-141.309195798006
 30
0.0
 10
86.0891350259054
 20
-140.7655652425866
 30
0.0
 10
86.23451474441869
 20
-139.9497666316794
 30
0.0
 10
86.37164164507362
 20
-139.1780652429835
 30
0.0
 10
85.89140308650553
 20
-138.4311641320589
 30
0.0
 10
85.13278977252604
 20
-138.2348080209969
 30
0.0
  0
SPLINE
  5
F0
330
4B
100
AcDbEntity
  8
_U+30EC_U+30A4_U+30E4_U+30FC 1
 62
   179
420
  2234388
370
    25
100
AcDbSpline
210
0.0
220
0.0
230
1.0
 70
     8
 71
     3
 72
     8
 73
     4
 74
     0
 42
0.0000000001
 43
0.0000000001
 12
1.0
 22
0.0
 32
0.0
 13
1.0
 23
0.0
 33
0.0
 40
0.0
 40
0.0
 40
0.0
 40
0.0
 40
1.0
 40
1.0
 40
1.0
 40
1.0
 10
86.05745558226917
 20
-137.2508755212429
 30
0.0
 10
86.1676986350122
 20
-137.2508755212429
 30
0.0
 10
86.25726891050485
 20
-137.1613052434876
 30
0.0
 10
86.25726891050485
 20
-137.0510621879596
 30
0.0
  0
SPLINE
  5
F1
330
4B
100
AcDbEntity
  8
_U+30EC_U+30A4_U+30E4_U+30FC 1
 62
   179
420
  2234388
370
    25
100
AcDbSpline
210
0.0
220
0.0
230
1.0
 70
     8
 71
     3
 72
    11
 73
     7
 74
     0
 42
0.0000000001
 43
0.0000000001
 12
1.0
 22
0.0
 32
0.0
 13
1.0
 23
0.0
 33
0.0
 40
0.0
 40
0.0
 40
0.0
 40
0.0
 40
1.0
 40
1.0
 40
1.0
 40
2.0
 40
2.0
 40
2.0
 40
2.0
 10
82.7453309445463
 20
-141.6874794090224
 30
0.0
 10
82.85557399728931
 20
-141.6874794090224
 30
0.0
 10
82.94514427278196
 20
-141.5979091312672
 30
0.0
 10
82.94514427278196
 20
-141.4876660757392
 30
0.0
 10
82.94514427278196
 20
-141.4380655201958
 30
0.0
 10
82.92722316212806
 20
-141.3905110757633
 30
0.0
 10
82.8941678851936
 20
-141.3539985757727
 30
0.0
  0
SPLINE
  5
F2
330
4B
100
AcDbEntity
  8
_U+30EC_U+30A4_U+30E4_U+30FC 1
 62
   179
420
  2234388
370
     9
100
AcDbSpline
210
0.0
220
0.0
230
1.0
 70
    11
 71
     3
 72
    17
 73
    13
 74
     0
 42
0.0000000001
 43
0.0000000001
 12
1.0
 22
0.0
 32
0.0
 13
1.0
 23
0.0
 33
0.0
 40
0.0
 40
0.0
 40
0.0
 40
0.0
 40
1.0
 40
1.0
 40
1.0
 40
2.0
 40
2.0
 40
2.0
 40
3.0
 40
3.0
 40
3.0
 40
4.0
 40
4.0
 40
4.0
 40
4.0
 10
107.3581419832878
 20
-146.6870107966619
 30
0.0
 10
107.3581419832878
 20
-146.6318716300088
 30
0.0
 10
107.3133392066531
 20
-146.5871041300196
 30
0.0
 10
107.2575297636324
 20
-146.5871041300196
 30
0.0
 10
107.2024258761494
 20
-146.5871041300196
 30
0.0
 10
107.1576230995146
 20
-146.6318716300088
 30
0.0
 10
107.1576230995146
 20
-146.6870107966619
 30
0.0
 10
107.1576230995146
 20
-146.7428202410923
 30
0.0
 10
107.2024258761494
 20
-146.7875877410809
 30
0.0
 10
107.2575297636324
 20
-146.7875877410809
 30
0.0
 10
107.3133392066531
 20
-146.7875877410809
 30
0.0
 10
107.3581419832878
 20
-146.7428202410923
 30
0.0
 10
107.3581419832878
 20
-146.6870107966619
 30
0.0
  0
SPLINE
  5
F3
330
4B
100
AcDbEntity
  8
_U+30EC_U+30A4_U+30E4_U+30FC 1
 62
   179
420
  2234388
370
     9
100
AcDbSpline
210
0.0
220
0.0
230
1.0
 70
    11
 71
     3
 72
    17
 73
    13
 74
     0
 42
0.0000000001
 43
0.0000000001
 12
1.0
 22
0.0
 32
0.0
 13
1.0
 23
0.0
 33
0.0
 40
0.0
 40
0.0
 40
0.0
 40
0.0
 40
1.0
 40
1.0
 40
1.0
 40
2.0
 40
2.0
 40
2.0
 40
3.0
 40
3.0
 40
3.0
 40
4.0
 40
4.0
 40
4.0
 40
4.0
 10
102.3579051664101
 20
-146.6870107966619
 30
0.0
 10
102.3579051664101
 20
-146.6318716300088
 30
0.0
 10
102.3131376675522
 20
-146.5871041300196
 30
0.0
 10
102.2579985022922
 20
-146.5871041300196
 30
0.0
 10
102.2028971966718
 20
-146.5871041300196
 30
0.0
 10
102.158094418905
 20
-146.6318716300088
 30
0.0
 10
102.158094418905
 20
-146.6870107966619
 30
0.0
 10
102.158094418905
 20
-146.7428202410923
 30
0.0
 10
102.2028971966718
 20
-146.7875877410809
 30
0.0
 10
102.2579985022922
 20
-146.7875877410809
 30
0.0
 10
102.3131376675522
 20
-146.7875877410809
 30
0.0
 10
102.3579051664101
 20
-146.7428202410923
 30
0.0
 10
102.3579051664101
 20
-146.6870107966619
 30
0.0
  0
SPLINE
  5
F4
330
4B
100
AcDbEntity
  8
_U+30EC_U+30A4_U+30E4_U+30FC 1
 62
   179
420
  2234388
370
     9
100
AcDbSpline
210
0.0
220
0.0
230
1.0
 70
    11
 71
     3
 72
    17
 73
    13
 74
     0
 42
0.0000000001
 43
0.0000000001
 12
1.0
 22
0.0
 32
0.0
 13
1.0
 23
0.0
 33
0.0
 40
0.0
 40
0.0
 40
0.0
 40
0.0
 40
1.0
 40
1.0
 40
1.0
 40
2.0
 40
2.0
 40
2.0
 40
3.0
 40
3.0
 40
3.0
 40
4.0
 40
4.0
 40
4.0
 40
4.0
 10
94.35736398163198
 20
-146.6870107966619
 30
0.0
 10
94.35736398163198
 20
-146.6318716300088
 30
0.0
 10
94.3125964827741
 20
-146.5871041300196
 30
0.0
 10
94.25745731751415
 20
-146.5871041300196
 30
0.0
 10
94.20235343003108
 20
-146.5871041300196
 30
0.0
 10
94.15755065339631
 20
-146.6318716300088
 30
0.0
 10
94.15755065339631
 20
-146.6870107966619
 30
0.0
 10
94.15755065339631
 20
-146.7428202410923
 30
0.0
 10
94.20235343003108
 20
-146.7875877410809
 30
0.0
 10
94.25745731751415
 20
-146.7875877410809
 30
0.0
 10
94.3125964827741
 20
-146.7875877410809
 30
0.0
 10
94.35736398163198
 20
-146.7428202410923
 30
0.0
 10
94.35736398163198
 20
-146.6870107966619
 30
0.0
  0
SPLINE
  5
F5
330
4B
100
AcDbEntity
  8
_U+30EC_U+30A4_U+30E4_U+30FC 1
 62
   179
420
  2234388
370
     9
100
AcDbSpline
210
0.0
220
0.0
230
1.0
 70
    11
 71
     3
 72
    17
 73
    13
 74
     0
 42
0.0000000001
 43
0.0000000001
 12
1.0
 22
0.0
 32
0.0
 13
1.0
 23
0.0
 33
0.0
 40
0.0
 40
0.0
 40
0.0
 40
0.0
 40
1.0
 40
1.0
 40
1.0
 40
2.0
 40
2.0
 40
2.0
 40
3.0
 40
3.0
 40
3.0
 40
4.0
 40
4.0
 40
4.0
 40
4.0
 10
87.857856925226
 20
-146.6870107966619
 30
0.0
 10
87.857856925226
 20
-146.6318716300088
 30
0.0
 10
87.81305414859123
 20
-146.5871041300196
 30
0.0
 10
87.75724470557061
 20
-146.5871041300196
 30
0.0
 10
87.70214081808754
 20
-146.5871041300196
 30
0.0
 10
87.65733804145277
 20
-146.6318716300088
 30
0.0
 10
87.65733804145277
 20
-146.6870107966619
 30
0.0
 10
87.65733804145277
 20
-146.7428202410923
 30
0.0
 10
87.70214081808754
 20
-146.7875877410809
 30
0.0
 10
87.75724470557061
 20
-146.7875877410809
 30
0.0
 10
87.81305414859123
 20
-146.7875877410809
 30
0.0
 10
87.857856925226
 20
-146.7428202410923
 30
0.0
 10
87.857856925226
 20
-146.6870107966619
 30
0.0
  0
SPLINE
  5
F6
330
4B
100
AcDbEntity
  8
_U+30EC_U+30A4_U+30E4_U+30FC 1
 62
   179
420
  2234388
370
     9
100
AcDbSpline
210
0.0
220
0.0
230
1.0
 70
    11
 71
     3
 72
    17
 73
    13
 74
     0
 42
0.0000000001
 43
0.0000000001
 12
1.0
 22
0.0
 32
0.0
 13
1.0
 23
0.0
 33
0.0
 40
0.0
 40
0.0
 40
0.0
 40
0.0
 40
1.0
 40
1.0
 40
1.0
 40
2.0
 40
2.0
 40
2.0
 40
3.0
 40
3.0
 40
3.0
 40
4.0
 40
4.0
 40
4.0
 40
4.0
 10
77.85777134701611
 20
-146.6870107966619
 30
0.0
 10
77.85777134701611
 20
-146.6318716300088
 30
0.0
 10
77.81300384815822
 20
-146.5871041300196
 30
0.0
 10
77.75786664722726
 20
-146.5871041300196
 30
0.0
 10
77.70205523987764
 20
-146.5871041300196
 30
0.0
 10
77.65728774101976
 20
-146.6318716300088
 30
0.0
 10
77.65728774101976
 20
-146.6870107966619
 30
0.0
 10
77.65728774101976
 20
-146.7428202410923
 30
0.0
 10
77.70205523987764
 20
-146.7875877410809
 30
0.0
 10
77.75786664722726
 20
-146.7875877410809
 30
0.0
 10
77.81300384815822
 20
-146.7875877410809
 30
0.0
 10
77.85777134701611
 20
-146.7428202410923
 30
0.0
 10
77.85777134701611
 20
-146.6870107966619
 30
0.0
  0
SPLINE
  5
F7
330
4B
100
AcDbEntity
  8
_U+30EC_U+30A4_U+30E4_U+30FC 1
 62
   179
420
  2234388
370
     9
100
AcDbSpline
210
0.0
220
0.0
230
1.0
 70
    11
 71
     3
 72
    17
 73
    13
 74
     0
 42
0.0000000001
 43
0.0000000001
 12
1.0
 22
0.0
 32
0.0
 13
1.0
 23
0.0
 33
0.0
 40
0.0
 40
0.0
 40
0.0
 40
0.0
 40
1.0
 40
1.0
 40
1.0
 40
2.0
 40
2.0
 40
2.0
 40
3.0
 40
3.0
 40
3.0
 40
4.0
 40
4.0
 40
4.0
 40
4.0
 10
73.85734200463112
 20
-142.687251630995
 30
0.0
 10
73.85734200463112
 20
-142.6321124643419
 30
0.0
 10
73.81253922799635
 20
-142.5873449643533
 30
0.0
 10
73.75743534051328
 20
-142.5873449643533
 30
0.0
 10
73.70229617525334
 20
-142.5873449643533
 30
0.0
 10
73.65753053714106
 20
-142.6321124643419
 30
0.0
 10
73.65753053714106
 20
-142.687251630995
 30
0.0
 10
73.65753053714106
 20
-142.7423555198699
 30
0.0
 10
73.70229617525334
 20
-142.7871582976366
 30
0.0
 10
73.75743534051328
 20
-142.7871582976366
 30
0.0
 10
73.81253922799635
 20
-142.7871582976366
 30
0.0
 10
73.85734200463112
 20
-142.7423555198699
 30
0.0
 10
73.85734200463112
 20
-142.687251630995
 30
0.0
  0
SPLINE
  5
F8
330
4B
100
AcDbEntity
  8
_U+30EC_U+30A4_U+30E4_U+30FC 1
 62
   179
420
  2234388
370
     9
100
AcDbSpline
210
0.0
220
0.0
230
1.0
 70
    11
 71
     3
 72
    17
 73
    13
 74
     0
 42
0.0000000001
 43
0.0000000001
 12
1.0
 22
0.0
 32
0.0
 13
1.0
 23
0.0
 33
0.0
 40
0.0
 40
0.0
 40
0.0
 40
0.0
 40
1.0
 40
1.0
 40
1.0
 40
2.0
 40
2.0
 40
2.0
 40
3.0
 40
3.0
 40
3.0
 40
4.0
 40
4.0
 40
4.0
 40
4.0
 10
73.85734200463112
 20
-138.6874924653281
 30
0.0
 10
73.85734200463112
 20
-138.632353298675
 30
0.0
 10
73.81253922799635
 20
-138.5875857986865
 30
0.0
 10
73.75743534051328
 20
-138.5875857986865
 30
0.0
 10
73.70229617525334
 20
-138.5875857986865
 30
0.0
 10
73.65753053714106
 20
-138.632353298675
 30
0.0
 10
73.65753053714106
 20
-138.6874924653281
 30
0.0
 10
73.65753053714106
 20
-138.742596354203
 30
0.0
 10
73.70229617525334
 20
-138.7873991319697
 30
0.0
 10
73.75743534051328
 20
-138.7873991319697
 30
0.0
 10
73.81253922799635
 20
-138.7873991319697
 30
0.0
 10
73.85734200463112
 20
-138.742596354203
 30
0.0
 10
73.85734200463112
 20
-138.6874924653281
 30
0.0
  0
SPLINE
  5
F9
330
4B
100
AcDbEntity
  8
_U+30EC_U+30A4_U+30E4_U+30FC 1
 62
   179
420
  2234388
370
     9
100
AcDbSpline
210
0.0
220
0.0
230
1.0
 70
    11
 71
     3
 72
    17
 73
    13
 74
     0
 42
0.0000000001
 43
0.0000000001
 12
1.0
 22
0.0
 32
0.0
 13
1.0
 23
0.0
 33
0.0
 40
0.0
 40
0.0
 40
0.0
 40
0.0
 40
1.0
 40
1.0
 40
1.0
 40
2.0
 40
2.0
 40
2.0
 40
3.0
 40
3.0
 40
3.0
 40
4.0
 40
4.0
 40
4.0
 40
4.0
 10
73.85734200463112
 20
-116.1875727487308
 30
0.0
 10
73.85734200463112
 20
-116.1317633043004
 30
0.0
 10
73.81253922799635
 20
-116.0876660820892
 30
0.0
 10
73.75743534051328
 20
-116.0876660820892
 30
0.0
 10
73.70229617525334
 20
-116.0876660820892
 30
0.0
 10
73.65753053714106
 20
-116.1317633043004
 30
0.0
 10
73.65753053714106
 20
-116.1875727487308
 30
0.0
 10
73.65753053714106
 20
-116.242676637606
 30
0.0
 10
73.70229617525334
 20
-116.2874794153724
 30
0.0
 10
73.75743534051328
 20
-116.2874794153724
 30
0.0
 10
73.81253922799635
 20
-116.2874794153724
 30
0.0
 10
73.85734200463112
 20
-116.242676637606
 30
0.0
 10
73.85734200463112
 20
-116.1875727487308
 30
0.0
  0
SPLINE
  5
FA
330
4B
100
AcDbEntity
  8
_U+30EC_U+30A4_U+30E4_U+30FC 1
 62
   179
420
  2234388
370
     9
100
AcDbSpline
210
0.0
220
0.0
230
1.0
 70
    11
 71
     3
 72
    17
 73
    13
 74
     0
 42
0.0000000001
 43
0.0000000001
 12
1.0
 22
0.0
 32
0.0
 13
1.0
 23
0.0
 33
0.0
 40
0.0
 40
0.0
 40
0.0
 40
0.0
 40
1.0
 40
1.0
 40
1.0
 40
2.0
 40
2.0
 40
2.0
 40
3.0
 40
3.0
 40
3.0
 40
4.0
 40
4.0
 40
4.0
 40
4.0
 10
105.6080114723818
 20
-112.1874608052865
 30
0.0
 10
105.6080114723818
 20
-112.1323569164112
 30
0.0
 10
105.5632439735239
 20
-112.0875541386448
 30
0.0
 10
105.508104808264
 20
-112.0875541386448
 30
0.0
 10
105.4522953652434
 20
-112.0875541386448
 30
0.0
 10
105.4081981441462
 20
-112.1323569164112
 30
0.0
 10
105.4081981441462
 20
-112.1874608052865
 30
0.0
 10
105.4081981441462
 20
-112.2425999719392
 30
0.0
 10
105.4522953652434
 20
-112.2873674719281
 30
0.0
 10
105.508104808264
 20
-112.2873674719281
 30
0.0
 10
105.5632439735239
 20
-112.2873674719281
 30
0.0
 10
105.6080114723818
 20
-112.2425999719392
 30
0.0
 10
105.6080114723818
 20
-112.1874608052865
 30
0.0
  0
INSERT
  5
FC
330
4B
100
AcDbEntity
  8
_U+30EC_U+30A4_U+30E4_U+30FC 1
100
AcDbBlockReference
  2
block 5
 10
0.0
 20
0.0
 30
0.0
  0
INSERT
  5
123
330
4B
100
AcDbEntity
  8
_U+30EC_U+30A4_U+30E4_U+30FC 1
100
AcDbBlockReference
  2
block 10
 10
0.0
 20
0.0
 30
0.0
  0
INSERT
  5
148
330
4B
100
AcDbEntity
  8
_U+30EC_U+30A4_U+30E4_U+30FC 1
100
AcDbBlockReference
  2
block 15
 10
0.0
 20
0.0
 30
0.0
  0
INSERT
  5
16B
330
4B
100
AcDbEntity
  8
_U+30EC_U+30A4_U+30E4_U+30FC 1
100
AcDbBlockReference
  2
block 20
 10
0.0
 20
0.0
 30
0.0
  0
INSERT
  5
197
330
4B
100
AcDbEntity
  8
_U+30EC_U+30A4_U+30E4_U+30FC 1
100
AcDbBlockReference
  2
block 25
 10
0.0
 20
0.0
 30
0.0
  0
INSERT
  5
1BB
330
4B
100
AcDbEntity
  8
_U+30EC_U+30A4_U+30E4_U+30FC 1
100
AcDbBlockReference
  2
block 30
 10
0.0
 20
0.0
 30
0.0
  0
INSERT
  5
1F3
330
4B
100
AcDbEntity
  8
_U+30EC_U+30A4_U+30E4_U+30FC 1
100
AcDbBlockReference
  2
block 35
 10
0.0
 20
0.0
 30
0.0
  0
ENDBLK
  5
4E
330
4B
100
AcDbEntity
  8
0
100
AcDbBlockEnd
  0
BLOCK
  5
FD
330
FB
100
AcDbEntity
  8
0
100
AcDbBlockBegin
  2
block 5
 70
     0
 10
0.0
 20
0.0
 30
0.0
  3
block 5
  1

  0
POLYLINE
  5
FF
330
FB
100
AcDbEntity
  8
_U+30EC_U+30A4_U+30E4_U+30FC 1
 62
   179
420
  2234388
370
     9
100
AcDb2dPolyline
 66
     1
 10
0.0
 20
0.0
 30
0.0
  0
VERTEX
  5
100
330
FF
100
AcDbEntity
  8
_U+30EC_U+30A4_U+30E4_U+30FC 1
 62
   179
420
  2234388
370
     9
100
AcDbVertex
100
AcDb2dVertex
 10
90.5078176909532
 20
-112.1874608052865
 30
0.0
  0
VERTEX
  5
101
330
FF
100
AcDbEntity
  8
_U+30EC_U+30A4_U+30E4_U+30FC 1
 62
   179
420
  2234388
370
     9
100
AcDbVertex
100
AcDb2dVertex
 10
105.508104808264
 20
-112.1874608052865
 30
0.0
  0
SEQEND
  5
102
330
FF
100
AcDbEntity
  8
_U+30EC_U+30A4_U+30E4_U+30FC 1
 62
   179
420
  2234388
370
     9
  0
POLYLINE
  5
103
330
FB
100
AcDbEntity
  8
_U+30EC_U+30A4_U+30E4_U+30FC 1
 62
   179
420
  2234388
370
     9
100
AcDb2dPolyline
 66
     1
 10
0.0
 20
0.0
 30
0.0
  0
VERTEX
  5
104
330
103
100
AcDbEntity
  8
_U+30EC_U+30A4_U+30E4_U+30FC 1
 62
   179
420
  2234388
370
     9
100
AcDbVertex
100
AcDb2dVertex
 10
90.5078176909532
 20
-113.6471494160327
 30
0.0
  0
VERTEX
  5
105
330
103
100
AcDbEntity
  8
_U+30EC_U+30A4_U+30E4_U+30FC 1
 62
   179
420
  2234388
370
     9
100
AcDbVertex
100
AcDb2dVertex
 10
90.5078176909532
 20
-111.1870183055366
 30
0.0
  0
SEQEND
  5
106
330
103
100
AcDbEntity
  8
_U+30EC_U+30A4_U+30E4_U+30FC 1
 62
   179
420
  2234388
370
     9
  0
POLYLINE
  5
107
330
FB
100
AcDbEntity
  8
_U+30EC_U+30A4_U+30E4_U+30FC 1
 62
   179
420
  2234388
370
     9
100
AcDb2dPolyline
 66
     1
 10
0.0
 20
0.0
 30
0.0
  0
VERTEX
  5
108
330
107
100
AcDbEntity
  8
_U+30EC_U+30A4_U+30E4_U+30FC 1
 62
   179
420
  2234388
370
     9
100
AcDbVertex
100
AcDb2dVertex
 10
105.508104808264
 20
-113.6471494160327
 30
0.0
  0
VERTEX
  5
109
330
107
100
AcDbEntity
  8
_U+30EC_U+30A4_U+30E4_U+30FC 1
 62
   179
420
  2234388
370
     9
100
AcDbVertex
100
AcDb2dVertex
 10
105.508104808264
 20
-111.1870183055366
 30
0.0
  0
SEQEND
  5
10A
330
107
100
AcDbEntity
  8
_U+30EC_U+30A4_U+30E4_U+30FC 1
 62
   179
420
  2234388
370
     9
  0
INSERT
  5
10C
330
FB
100
AcDbEntity
  8
_U+30EC_U+30A4_U+30E4_U+30FC 1
100
AcDbBlockReference
  2
block 6
 10
0.0
 20
0.0
 30
0.0
  0
INSERT
  5
114
330
FB
100
AcDbEntity
  8
_U+30EC_U+30A4_U+30E4_U+30FC 1
100
AcDbBlockReference
  2
block 7
 10
0.0
 20
0.0
 30
0.0
  0
INSERT
  5
119
330
FB
100
AcDbEntity
  8
_U+30EC_U+30A4_U+30E4_U+30FC 1
100
AcDbBlockReference
  2
block 8
 10
0.0
 20
0.0
 30
0.0
  0
INSERT
  5
11E
330
FB
100
AcDbEntity
  8
_U+30EC_U+30A4_U+30E4_U+30FC 1
100
AcDbBlockReference
  2
block 9
 10
0.0
 20
0.0
 30
0.0
  0
ENDBLK
  5
FE
330
FB
100
AcDbEntity
  8
0
100
AcDbBlockEnd
  0
BLOCK
  5
10D
330
10B
100
AcDbEntity
  8
0
100
AcDbBlockBegin
  2
block 6
 70
     0
 10
0.0
 20
0.0
 30
0.0
  3
block 6
  1

  0
SPLINE
  5
10F
330
10B
100
AcDbEntity
  8
_U+30EC_U+30A4_U+30E4_U+30FC 1
370
     0
100
AcDbSpline
210
0.0
220
0.0
230
1.0
 70
    11
 71
     3
 72
    26
 73
    22
 74
     0
 42
0.0000000001
 43
0.0000000001
 12
1.0
 22
0.0
 32
0.0
 13
1.0
 23
0.0
 33
0.0
 40
0.0
 40
0.0
 40
0.0
 40
0.0
 40
1.0
 40
1.0
 40
1.0
 40
2.0
 40
2.0
 40
2.0
 40
3.0
 40
3.0
 40
3.0
 40
4.0
 40
4.0
 40
4.0
 40
5.0
 40
5.0
 40
5.0
 40
6.0
 40
6.0
 40
6.0
 40
7.0
 40
7.0
 40
7.0
 40
7.0
 10
97.37011173781025
 20
-111.8145358335915
 30
0.0
 10
97.37011173781025
 20
-111.8145358335915
 30
0.0
 10
97.37011173781025
 20
-110.7102104757947
 30
0.0
 10
97.37011173781025
 20
-110.7102104757947
 30
0.0
 10
97.37011173781025
 20
-110.7102104757947
 30
0.0
 10
97.04007159032332
 20
-110.7102104757947
 30
0.0
 10
97.04007159032332
 20
-110.7102104757947
 30
0.0
 10
97.04007159032332
 20
-110.7102104757947
 30
0.0
 10
97.04007159032332
 20
-110.5622436247032
 30
0.0
 10
97.04007159032332
 20
-110.5622436247032
 30
0.0
 10
97.3721787951014
 20
-110.5474297141166
 30
0.0
 10
97.41868758415228
 20
-110.3844766976643
 30
0.0
 10
97.44831540532543
 20
-110.2702717823283
 30
0.0
 10
97.44831540532543
 20
-110.2702717823283
 30
0.0
 10
97.59438745390001
 20
-110.2702717823283
 30
0.0
 10
97.59438745390001
 20
-110.2702717823283
 30
0.0
 10
97.59438745390001
 20
-110.2702717823283
 30
0.0
 10
97.59438745390001
 20
-111.8145358335915
 30
0.0
 10
97.59438745390001
 20
-111.8145358335915
 30
0.0
 10
97.59438745390001
 20
-111.8145358335915
 30
0.0
 10
97.37011173781025
 20
-111.8145358335915
 30
0.0
 10
97.37011173781025
 20
-111.8145358335915
 30
0.0
  0
HATCH
  5
110
330
10B
100
AcDbEntity
  8
_U+30EC_U+30A4_U+30E4_U+30FC 1
 62
   179
420
  2234388
100
AcDbHatch
 10
0.0
 20
0.0
 30
0.0
210
0.0
220
0.0
230
1.0
  2
SOLID
 70
     1
 71
     0
 91
        1
 92
        1
 93
        1
 72
     4
 94
        3
 73
     0
 74
     1
 95
       26
 96
       22
 40
0.0
 40
0.0
 40
0.0
 40
0.0
 40
1.0
 40
1.0
 40
1.0
 40
2.0
 40
2.0
 40
2.0
 40
3.0
 40
3.0
 40
3.0
 40
4.0
 40
4.0
 40
4.0
 40
5.0
 40
5.0
 40
5.0
 40
6.0
 40
6.0
 40
6.0
 40
7.0
 40
7.0
 40
7.0
 40
7.0
 10
97.37011173781025
 20
-111.8145358335915
 10
97.37011173781025
 20
-111.8145358335915
 10
97.37011173781025
 20
-110.7102104757947
 10
97.37011173781025
 20
-110.7102104757947
 10
97.37011173781025
 20
-110.7102104757947
 10
97.04007159032332
 20
-110.7102104757947
 10
97.04007159032332
 20
-110.7102104757947
 10
97.04007159032332
 20
-110.7102104757947
 10
97.04007159032332
 20
-110.5622436247032
 10
97.04007159032332
 20
-110.5622436247032
 10
97.3721787951014
 20
-110.5474297141166
 10
97.41868758415228
 20
-110.3844766976643
 10
97.44831540532543
 20
-110.2702717823283
 10
97.44831540532543
 20
-110.2702717823283
 10
97.59438745390001
 20
-110.2702717823283
 10
97.59438745390001
 20
-110.2702717823283
 10
97.59438745390001
 20
-110.2702717823283
 10
97.59438745390001
 20
-111.8145358335915
 10
97.59438745390001
 20
-111.8145358335915
 10
97.59438745390001
 20
-111.8145358335915
 10
97.37011173781025
 20
-111.8145358335915
 10
97.37011173781025
 20
-111.8145358335915
 97
        0
 97
        0
 75
     2
 76
     1
 98
        0
  0
SPLINE
  5
111
330
10B
100
AcDbEntity
  8
_U+30EC_U+30A4_U+30E4_U+30FC 1
370
     0
100
AcDbSpline
210
0.0
220
0.0
230
1.0
 70
    11
 71
     3
 72
    53
 73
    49
 74
     0
 42
0.0000000001
 43
0.0000000001
 12
1.0
 22
0.0
 32
0.0
 13
1.0
 23
0.0
 33
0.0
 40
0.0
 40
0.0
 40
0.0
 40
0.0
 40
1.0
 40
1.0
 40
1.0
 40
2.0
 40
2.0
 40
2.0
 40
3.0
 40
3.0
 40
3.0
 40
4.0
 40
4.0
 40
4.0
 40
5.0
 40
5.0
 40
5.0
 40
6.0
 40
6.0
 40
6.0
 40
7.0
 40
7.0
 40
7.0
 40
8.0
 40
8.0
 40
8.0
 40
9.0
 40
9.0
 40
9.0
 40
10.0
 40
10.0
 40
10.0
 40
11.0
 40
11.0
 40
11.0
 40
12.0
 40
12.0
 40
12.0
 40
13.0
 40
13.0
 40
13.0
 40
14.0
 40
14.0
 40
14.0
 40
15.0
 40
15.0
 40
15.0
 40
16.0
 40
16.0
 40
16.0
 40
16.0
 10
98.57658417674475
 20
-111.865350991999
 30
0.0
 10
98.49838050922958
 20
-111.865350991999
 30
0.0
 10
98.3967501924147
 20
-111.8484700241212
 30
0.0
 10
98.29511987559984
 20
-111.7849080124184
 30
0.0
 10
98.12183157269178
 20
-111.6750094664389
 30
0.0
 10
98.10047198068322
 20
-111.5437513284509
 30
0.0
 10
98.08152395551434
 20
-111.4359198397625
 30
0.0
 10
98.08152395551434
 20
-111.4359198397625
 30
0.0
 10
98.30373261431296
 20
-111.4359198397625
 30
0.0
 10
98.30373261431296
 20
-111.4359198397625
 30
0.0
 10
98.35850963252844
 20
-111.6347018492615
 30
0.0
 10
98.48563365593415
 20
-111.6643296704346
 30
0.0
 10
98.5786512340359
 20
-111.6643296704346
 30
0.0
 10
98.71817760118851
 20
-111.6643296704346
 30
0.0
 10
98.87045082163655
 20
-111.5649386656852
 30
0.0
 10
98.87045082163655
 20
-111.3322224656565
 30
0.0
 10
98.87045082163655
 20
-111.0762518711025
 30
0.0
 10
98.69061683730652
 20
-111.0064886875262
 30
0.0
 10
98.57003849532278
 20
-111.0064886875262
 30
0.0
 10
98.53834361685847
 20
-111.0064886875262
 30
0.0
 10
98.3967501924147
 20
-111.0064886875262
 30
0.0
 10
98.30786672889526
 20
-111.1355075134488
 30
0.0
 10
98.30786672889526
 20
-111.1355075134488
 30
0.0
 10
98.13216685914752
 20
-111.1163872335056
 30
0.0
 10
98.13216685914752
 20
-111.1163872335056
 30
0.0
 10
98.13216685914752
 20
-111.1163872335056
 30
0.0
 10
98.25274520113126
 20
-110.2702717823283
 30
0.0
 10
98.25274520113126
 20
-110.2702717823283
 30
0.0
 10
98.25274520113126
 20
-110.2702717823283
 30
0.0
 10
99.03133678079773
 20
-110.2702717823283
 30
0.0
 10
99.03133678079773
 20
-110.2702717823283
 30
0.0
 10
99.03133678079773
 20
-110.2702717823283
 30
0.0
 10
99.03133678079773
 20
-110.4649196772449
 30
0.0
 10
99.03133678079773
 20
-110.4649196772449
 30
0.0
 10
99.03133678079773
 20
-110.4649196772449
 30
0.0
 10
98.41569821758358
 20
-110.4649196772449
 30
0.0
 10
98.41569821758358
 20
-110.4649196772449
 30
0.0
 10
98.41569821758358
 20
-110.4649196772449
 30
0.0
 10
98.35024140336384
 20
-110.8879774028336
 30
0.0
 10
98.35024140336384
 20
-110.8879774028336
 30
0.0
 10
98.41156410300128
 20
-110.8542154670781
 30
0.0
 10
98.49390188509875
 20
-110.8139078499007
 30
0.0
 10
98.61241316979135
 20
-110.8139078499007
 30
0.0
 10
98.86631670705425
 20
-110.8139078499007
 30
0.0
 10
99.10333927643944
 20
-111.0001152608784
 30
0.0
 10
99.10333927643944
 20
-111.3132744404877
 30
0.0
 10
99.10333927643944
 20
-111.6305677346792
 30
0.0
 10
98.87906356034968
 20
-111.865350991999
 30
0.0
 10
98.57658417674475
 20
-111.865350991999
 30
0.0
  0
HATCH
  5
112
330
10B
100
AcDbEntity
  8
_U+30EC_U+30A4_U+30E4_U+30FC 1
 62
   179
420
  2234388
100
AcDbHatch
 10
0.0
 20
0.0
 30
0.0
210
0.0
220
0.0
230
1.0
  2
SOLID
 70
     1
 71
     0
 91
        1
 92
        1
 93
        1
 72
     4
 94
        3
 73
     0
 74
     1
 95
       53
 96
       49
 40
0.0
 40
0.0
 40
0.0
 40
0.0
 40
1.0
 40
1.0
 40
1.0
 40
2.0
 40
2.0
 40
2.0
 40
3.0
 40
3.0
 40
3.0
 40
4.0
 40
4.0
 40
4.0
 40
5.0
 40
5.0
 40
5.0
 40
6.0
 40
6.0
 40
6.0
 40
7.0
 40
7.0
 40
7.0
 40
8.0
 40
8.0
 40
8.0
 40
9.0
 40
9.0
 40
9.0
 40
10.0
 40
10.0
 40
10.0
 40
11.0
 40
11.0
 40
11.0
 40
12.0
 40
12.0
 40
12.0
 40
13.0
 40
13.0
 40
13.0
 40
14.0
 40
14.0
 40
14.0
 40
15.0
 40
15.0
 40
15.0
 40
16.0
 40
16.0
 40
16.0
 40
16.0
 10
98.57658417674475
 20
-111.865350991999
 10
98.49838050922958
 20
-111.865350991999
 10
98.3967501924147
 20
-111.8484700241212
 10
98.29511987559984
 20
-111.7849080124184
 10
98.12183157269178
 20
-111.6750094664389
 10
98.10047198068322
 20
-111.5437513284509
 10
98.08152395551434
 20
-111.4359198397625
 10
98.08152395551434
 20
-111.4359198397625
 10
98.30373261431296
 20
-111.4359198397625
 10
98.30373261431296
 20
-111.4359198397625
 10
98.35850963252844
 20
-111.6347018492615
 10
98.48563365593415
 20
-111.6643296704346
 10
98.5786512340359
 20
-111.6643296704346
 10
98.71817760118851
 20
-111.6643296704346
 10
98.87045082163655
 20
-111.5649386656852
 10
98.87045082163655
 20
-111.3322224656565
 10
98.87045082163655
 20
-111.0762518711025
 10
98.69061683730652
 20
-111.0064886875262
 10
98.57003849532278
 20
-111.0064886875262
 10
98.53834361685847
 20
-111.0064886875262
 10
98.3967501924147
 20
-111.0064886875262
 10
98.30786672889526
 20
-111.1355075134488
 10
98.30786672889526
 20
-111.1355075134488
 10
98.13216685914752
 20
-111.1163872335056
 10
98.13216685914752
 20
-111.1163872335056
 10
98.13216685914752
 20
-111.1163872335056
 10
98.25274520113126
 20
-110.2702717823283
 10
98.25274520113126
 20
-110.2702717823283
 10
98.25274520113126
 20
-110.2702717823283
 10
99.03133678079773
 20
-110.2702717823283
 10
99.03133678079773
 20
-110.2702717823283
 10
99.03133678079773
 20
-110.2702717823283
 10
99.03133678079773
 20
-110.4649196772449
 10
99.03133678079773
 20
-110.4649196772449
 10
99.03133678079773
 20
-110.4649196772449
 10
98.41569821758358
 20
-110.4649196772449
 10
98.41569821758358
 20
-110.4649196772449
 10
98.41569821758358
 20
-110.4649196772449
 10
98.35024140336384
 20
-110.8879774028336
 10
98.35024140336384
 20
-110.8879774028336
 10
98.41156410300128
 20
-110.8542154670781
 10
98.49390188509875
 20
-110.8139078499007
 10
98.61241316979135
 20
-110.8139078499007
 10
98.86631670705425
 20
-110.8139078499007
 10
99.10333927643944
 20
-111.0001152608784
 10
99.10333927643944
 20
-111.3132744404877
 10
99.10333927643944
 20
-111.6305677346792
 10
98.87906356034968
 20
-111.865350991999
 10
98.57658417674475
 20
-111.865350991999
 97
        0
 97
        0
 75
     2
 76
     1
 98
        0
  0
ENDBLK
  5
10E
330
10B
100
AcDbEntity
  8
0
100
AcDbBlockEnd
  0
BLOCK
  5
115
330
113
100
AcDbEntity
  8
0
100
AcDbBlockBegin
  2
block 7
 70
     0
 10
0.0
 20
0.0
 30
0.0
  3
block 7
  1

  0
SPLINE
  5
117
330
113
100
AcDbEntity
  8
_U+30EC_U+30A4_U+30E4_U+30FC 1
 62
   179
420
  2234388
370
    25
100
AcDbSpline
210
0.0
220
0.0
230
1.0
 70
    11
 71
     3
 72
    17
 73
    13
 74
     0
 42
0.0000000001
 43
0.0000000001
 12
1.0
 22
0.0
 32
0.0
 13
1.0
 23
0.0
 33
0.0
 40
0.0
 40
0.0
 40
0.0
 40
0.0
 40
1.0
 40
1.0
 40
1.0
 40
2.0
 40
2.0
 40
2.0
 40
3.0
 40
3.0
 40
3.0
 40
4.0
 40
4.0
 40
4.0
 40
4.0
 10
90.54295435672346
 20
-116.1875727487308
 30
0.0
 10
90.54295435672346
 20
-116.2068696931706
 30
0.0
 10
90.52711463490535
 20
-116.2227094153888
 30
0.0
 10
90.5078176909532
 20
-116.2227094153888
 30
0.0
 10
90.48785275515588
 20
-116.2227094153888
 30
0.0
 10
90.47201074742227
 20
-116.2068696931706
 30
0.0
 10
90.47201074742227
 20
-116.1875727487308
 30
0.0
 10
90.47201074742227
 20
-116.1675702487358
 30
0.0
 10
90.48785275515588
 20
-116.1517305265176
 30
0.0
 10
90.5078176909532
 20
-116.1517305265176
 30
0.0
 10
90.52711463490535
 20
-116.1517305265176
 30
0.0
 10
90.54295435672346
 20
-116.1675702487358
 30
0.0
 10
90.54295435672346
 20
-116.1875727487308
 30
0.0
  0
ENDBLK
  5
116
330
113
100
AcDbEntity
  8
0
100
AcDbBlockEnd
  0
BLOCK
  5
11A
330
118
100
AcDbEntity
  8
0
100
AcDbBlockBegin
  2
block 8
 70
     0
 10
0.0
 20
0.0
 30
0.0
  3
block 8
  1

  0
SPLINE
  5
11C
330
118
100
AcDbEntity
  8
_U+30EC_U+30A4_U+30E4_U+30FC 1
 62
   179
420
  2234388
370
    25
100
AcDbSpline
210
0.0
220
0.0
230
1.0
 70
    11
 71
     3
 72
    17
 73
    13
 74
     0
 42
0.0000000001
 43
0.0000000001
 12
1.0
 22
0.0
 32
0.0
 13
1.0
 23
0.0
 33
0.0
 40
0.0
 40
0.0
 40
0.0
 40
0.0
 40
1.0
 40
1.0
 40
1.0
 40
2.0
 40
2.0
 40
2.0
 40
3.0
 40
3.0
 40
3.0
 40
4.0
 40
4.0
 40
4.0
 40
4.0
 10
105.5432414740342
 20
-116.1875727487308
 30
0.0
 10
105.5432414740342
 20
-116.2068696931706
 30
0.0
 10
105.5274017522161
 20
-116.2227094153888
 30
0.0
 10
105.508104808264
 20
-116.2227094153888
 30
0.0
 10
105.4881375865512
 20
-116.2227094153888
 30
0.0
 10
105.4722978647331
 20
-116.2068696931706
 30
0.0
 10
105.4722978647331
 20
-116.1875727487308
 30
0.0
 10
105.4722978647331
 20
-116.1675702487358
 30
0.0
 10
105.4881375865512
 20
-116.1517305265176
 30
0.0
 10
105.508104808264
 20
-116.1517305265176
 30
0.0
 10
105.5274017522161
 20
-116.1517305265176
 30
0.0
 10
105.5432414740342
 20
-116.1675702487358
 30
0.0
 10
105.5432414740342
 20
-116.1875727487308
 30
0.0
  0
ENDBLK
  5
11B
330
118
100
AcDbEntity
  8
0
100
AcDbBlockEnd
  0
BLOCK
  5
11F
330
11D
100
AcDbEntity
  8
0
100
AcDbBlockBegin
  2
block 9
 70
     0
 10
0.0
 20
0.0
 30
0.0
  3
block 9
  1

  0
SPLINE
  5
121
330
11D
100
AcDbEntity
  8
_U+30EC_U+30A4_U+30E4_U+30FC 1
 62
   179
420
  2234388
370
     9
100
AcDbSpline
210
0.0
220
0.0
230
1.0
 70
    11
 71
     3
 72
    17
 73
    13
 74
     0
 42
0.0000000001
 43
0.0000000001
 12
1.0
 22
0.0
 32
0.0
 13
1.0
 23
0.0
 33
0.0
 40
0.0
 40
0.0
 40
0.0
 40
0.0
 40
1.0
 40
1.0
 40
1.0
 40
2.0
 40
2.0
 40
2.0
 40
3.0
 40
3.0
 40
3.0
 40
4.0
 40
4.0
 40
4.0
 40
4.0
 10
105.5432414740342
 20
-112.1874608052865
 30
0.0
 10
105.5432414740342
 20
-112.206757749726
 30
0.0
 10
105.5274017522161
 20
-112.2225974719445
 30
0.0
 10
105.508104808264
 20
-112.2225974719445
 30
0.0
 10
105.4881375865512
 20
-112.2225974719445
 30
0.0
 10
105.4722978647331
 20
-112.206757749726
 30
0.0
 10
105.4722978647331
 20
-112.1874608052865
 30
0.0
 10
105.4722978647331
 20
-112.168163860847
 30
0.0
 10
105.4881375865512
 20
-112.1523241386284
 30
0.0
 10
105.508104808264
 20
-112.1523241386284
 30
0.0
 10
105.5274017522161
 20
-112.1523241386284
 30
0.0
 10
105.5432414740342
 20
-112.168163860847
 30
0.0
 10
105.5432414740342
 20
-112.1874608052865
 30
0.0
  0
ENDBLK
  5
120
330
11D
100
AcDbEntity
  8
0
100
AcDbBlockEnd
  0
BLOCK
  5
124
330
122
100
AcDbEntity
  8
0
100
AcDbBlockBegin
  2
block 10
 70
     0
 10
0.0
 20
0.0
 30
0.0
  3
block 10
  1

  0
POLYLINE
  5
126
330
122
100
AcDbEntity
  8
_U+30EC_U+30A4_U+30E4_U+30FC 1
 62
   179
420
  2234388
370
     9
100
AcDb2dPolyline
 66
     1
 10
0.0
 20
0.0
 30
0.0
  0
VERTEX
  5
127
330
126
100
AcDbEntity
  8
_U+30EC_U+30A4_U+30E4_U+30FC 1
 62
   179
420
  2234388
370
     9
100
AcDbVertex
100
AcDb2dVertex
 10
102.2579985022922
 20
-146.6870107966619
 30
0.0
  0
VERTEX
  5
128
330
126
100
AcDbEntity
  8
_U+30EC_U+30A4_U+30E4_U+30FC 1
 62
   179
420
  2234388
370
     9
100
AcDbVertex
100
AcDb2dVertex
 10
107.2575297636324
 20
-146.6870107966619
 30
0.0
  0
SEQEND
  5
129
330
126
100
AcDbEntity
  8
_U+30EC_U+30A4_U+30E4_U+30FC 1
 62
   179
420
  2234388
370
     9
  0
POLYLINE
  5
12A
330
122
100
AcDbEntity
  8
_U+30EC_U+30A4_U+30E4_U+30FC 1
 62
   179
420
  2234388
370
     9
100
AcDb2dPolyline
 66
     1
 10
0.0
 20
0.0
 30
0.0
  0
VERTEX
  5
12B
330
12A
100
AcDbEntity
  8
_U+30EC_U+30A4_U+30E4_U+30FC 1
 62
   179
420
  2234388
370
     9
100
AcDbVertex
100
AcDb2dVertex
 10
102.2579985022922
 20
-132.7274883001513
 30
0.0
  0
VERTEX
  5
12C
330
12A
100
AcDbEntity
  8
_U+30EC_U+30A4_U+30E4_U+30FC 1
 62
   179
420
  2234388
370
     9
100
AcDbVertex
100
AcDb2dVertex
 10
102.2579985022922
 20
-147.6874532964118
 30
0.0
  0
SEQEND
  5
12D
330
12A
100
AcDbEntity
  8
_U+30EC_U+30A4_U+30E4_U+30FC 1
 62
   179
420
  2234388
370
     9
  0
POLYLINE
  5
12E
330
122
100
AcDbEntity
  8
_U+30EC_U+30A4_U+30E4_U+30FC 1
 62
   179
420
  2234388
370
     9
100
AcDb2dPolyline
 66
     1
 10
0.0
 20
0.0
 30
0.0
  0
VERTEX
  5
12F
330
12E
100
AcDbEntity
  8
_U+30EC_U+30A4_U+30E4_U+30FC 1
 62
   179
420
  2234388
370
     9
100
AcDbVertex
100
AcDb2dVertex
 10
107.2575297636324
 20
-132.7274883001513
 30
0.0
  0
VERTEX
  5
130
330
12E
100
AcDbEntity
  8
_U+30EC_U+30A4_U+30E4_U+30FC 1
 62
   179
420
  2234388
370
     9
100
AcDbVertex
100
AcDb2dVertex
 10
107.2575297636324
 20
-147.6874532964118
 30
0.0
  0
SEQEND
  5
131
330
12E
100
AcDbEntity
  8
_U+30EC_U+30A4_U+30E4_U+30FC 1
 62
   179
420
  2234388
370
     9
  0
INSERT
  5
133
330
122
100
AcDbEntity
  8
_U+30EC_U+30A4_U+30E4_U+30FC 1
100
AcDbBlockReference
  2
block 11
 10
0.0
 20
0.0
 30
0.0
  0
INSERT
  5
139
330
122
100
AcDbEntity
  8
_U+30EC_U+30A4_U+30E4_U+30FC 1
100
AcDbBlockReference
  2
block 12
 10
0.0
 20
0.0
 30
0.0
  0
INSERT
  5
13E
330
122
100
AcDbEntity
  8
_U+30EC_U+30A4_U+30E4_U+30FC 1
100
AcDbBlockReference
  2
block 13
 10
0.0
 20
0.0
 30
0.0
  0
INSERT
  5
143
330
122
100
AcDbEntity
  8
_U+30EC_U+30A4_U+30E4_U+30FC 1
100
AcDbBlockReference
  2
block 14
 10
0.0
 20
0.0
 30
0.0
  0
ENDBLK
  5
125
330
122
100
AcDbEntity
  8
0
100
AcDbBlockEnd
  0
BLOCK
  5
134
330
132
100
AcDbEntity
  8
0
100
AcDbBlockBegin
  2
block 11
 70
     0
 10
0.0
 20
0.0
 30
0.0
  3
block 11
  1

  0
SPLINE
  5
136
330
132
100
AcDbEntity
  8
_U+30EC_U+30A4_U+30E4_U+30FC 1
370
     0
100
AcDbSpline
210
0.0
220
0.0
230
1.0
 70
    11
 71
     3
 72
    53
 73
    49
 74
     0
 42
0.0000000001
 43
0.0000000001
 12
1.0
 22
0.0
 32
0.0
 13
1.0
 23
0.0
 33
0.0
 40
0.0
 40
0.0
 40
0.0
 40
0.0
 40
1.0
 40
1.0
 40
1.0
 40
2.0
 40
2.0
 40
2.0
 40
3.0
 40
3.0
 40
3.0
 40
4.0
 40
4.0
 40
4.0
 40
5.0
 40
5.0
 40
5.0
 40
6.0
 40
6.0
 40
6.0
 40
7.0
 40
7.0
 40
7.0
 40
8.0
 40
8.0
 40
8.0
 40
9.0
 40
9.0
 40
9.0
 40
10.0
 40
10.0
 40
10.0
 40
11.0
 40
11.0
 40
11.0
 40
12.0
 40
12.0
 40
12.0
 40
13.0
 40
13.0
 40
13.0
 40
14.0
 40
14.0
 40
14.0
 40
15.0
 40
15.0
 40
15.0
 40
16.0
 40
16.0
 40
16.0
 40
16.0
 10
104.7384819616626
 20
-146.3655707099364
 30
0.0
 10
104.6602782941474
 20
-146.3655707099364
 30
0.0
 10
104.5586479773326
 20
-146.3486897420587
 30
0.0
 10
104.4570176605177
 20
-146.2852999851301
 30
0.0
 10
104.2837293576096
 20
-146.1750569296021
 30
0.0
 10
104.2623697656011
 20
-146.0441433011626
 30
0.0
 10
104.2434217404322
 20
-145.9359673029257
 30
0.0
 10
104.2434217404322
 20
-145.9359673029257
 30
0.0
 10
104.4656303992308
 20
-145.9359673029257
 30
0.0
 10
104.4656303992308
 20
-145.9359673029257
 30
0.0
 10
104.5204074174463
 20
-146.1350938219732
 30
0.0
 10
104.647531440852
 20
-146.1647216431463
 30
0.0
 10
104.7405490189538
 20
-146.1647216431463
 30
0.0
 10
104.8800753861064
 20
-146.1647216431463
 30
0.0
 10
105.0323486065544
 20
-146.0651583836226
 30
0.0
 10
105.0323486065544
 20
-145.8326144383682
 30
0.0
 10
105.0323486065544
 20
-145.5766438438142
 30
0.0
 10
104.8525146222244
 20
-145.5067084054636
 30
0.0
 10
104.7319362802406
 20
-145.5067084054636
 30
0.0
 10
104.7002414017763
 20
-145.5067084054636
 30
0.0
 10
104.5586479773326
 20
-145.5067084054636
 30
0.0
 10
104.4697645138131
 20
-145.635554976612
 30
0.0
 10
104.4697645138131
 20
-145.635554976612
 30
0.0
 10
104.2940646440654
 20
-145.6166069514431
 30
0.0
 10
104.2940646440654
 20
-145.6166069514431
 30
0.0
 10
104.2940646440654
 20
-145.6166069514431
 30
0.0
 10
104.4146429860491
 20
-144.7704915002657
 30
0.0
 10
104.4146429860491
 20
-144.7704915002657
 30
0.0
 10
104.4146429860491
 20
-144.7704915002657
 30
0.0
 10
105.1932345657156
 20
-144.7704915002657
 30
0.0
 10
105.1932345657156
 20
-144.7704915002657
 30
0.0
 10
105.1932345657156
 20
-144.7704915002657
 30
0.0
 10
105.1932345657156
 20
-144.9651393951823
 30
0.0
 10
105.1932345657156
 20
-144.9651393951823
 30
0.0
 10
105.1932345657156
 20
-144.9651393951823
 30
0.0
 10
104.5775960025014
 20
-144.9651393951823
 30
0.0
 10
104.5775960025014
 20
-144.9651393951823
 30
0.0
 10
104.5775960025014
 20
-144.9651393951823
 30
0.0
 10
104.5121391882817
 20
-145.388197120771
 30
0.0
 10
104.5121391882817
 20
-145.388197120771
 30
0.0
 10
104.5734618879191
 20
-145.3544351850156
 30
0.0
 10
104.6557996700166
 20
-145.3141275678381
 30
0.0
 10
104.7743109547092
 20
-145.3141275678381
 30
0.0
 10
105.0282144919721
 20
-145.3141275678381
 30
0.0
 10
105.2652370613573
 20
-145.5001627240416
 30
0.0
 10
105.2652370613573
 20
-145.8133219036508
 30
0.0
 10
105.2652370613573
 20
-146.1306151978424
 30
0.0
 10
105.0409613452675
 20
-146.3655707099364
 30
0.0
 10
104.7384819616626
 20
-146.3655707099364
 30
0.0
  0
HATCH
  5
137
330
132
100
AcDbEntity
  8
_U+30EC_U+30A4_U+30E4_U+30FC 1
 62
   179
420
  2234388
100
AcDbHatch
 10
0.0
 20
0.0
 30
0.0
210
0.0
220
0.0
230
1.0
  2
SOLID
 70
     1
 71
     0
 91
        1
 92
        1
 93
        1
 72
     4
 94
        3
 73
     0
 74
     1
 95
       53
 96
       49
 40
0.0
 40
0.0
 40
0.0
 40
0.0
 40
1.0
 40
1.0
 40
1.0
 40
2.0
 40
2.0
 40
2.0
 40
3.0
 40
3.0
 40
3.0
 40
4.0
 40
4.0
 40
4.0
 40
5.0
 40
5.0
 40
5.0
 40
6.0
 40
6.0
 40
6.0
 40
7.0
 40
7.0
 40
7.0
 40
8.0
 40
8.0
 40
8.0
 40
9.0
 40
9.0
 40
9.0
 40
10.0
 40
10.0
 40
10.0
 40
11.0
 40
11.0
 40
11.0
 40
12.0
 40
12.0
 40
12.0
 40
13.0
 40
13.0
 40
13.0
 40
14.0
 40
14.0
 40
14.0
 40
15.0
 40
15.0
 40
15.0
 40
16.0
 40
16.0
 40
16.0
 40
16.0
 10
104.7384819616626
 20
-146.3655707099364
 10
104.6602782941474
 20
-146.3655707099364
 10
104.5586479773326
 20
-146.3486897420587
 10
104.4570176605177
 20
-146.2852999851301
 10
104.2837293576096
 20
-146.1750569296021
 10
104.2623697656011
 20
-146.0441433011626
 10
104.2434217404322
 20
-145.9359673029257
 10
104.2434217404322
 20
-145.9359673029257
 10
104.4656303992308
 20
-145.9359673029257
 10
104.4656303992308
 20
-145.9359673029257
 10
104.5204074174463
 20
-146.1350938219732
 10
104.647531440852
 20
-146.1647216431463
 10
104.7405490189538
 20
-146.1647216431463
 10
104.8800753861064
 20
-146.1647216431463
 10
105.0323486065544
 20
-146.0651583836226
 10
105.0323486065544
 20
-145.8326144383682
 10
105.0323486065544
 20
-145.5766438438142
 10
104.8525146222244
 20
-145.5067084054636
 10
104.7319362802406
 20
-145.5067084054636
 10
104.7002414017763
 20
-145.5067084054636
 10
104.5586479773326
 20
-145.5067084054636
 10
104.4697645138131
 20
-145.635554976612
 10
104.4697645138131
 20
-145.635554976612
 10
104.2940646440654
 20
-145.6166069514431
 10
104.2940646440654
 20
-145.6166069514431
 10
104.2940646440654
 20
-145.6166069514431
 10
104.4146429860491
 20
-144.7704915002657
 10
104.4146429860491
 20
-144.7704915002657
 10
104.4146429860491
 20
-144.7704915002657
 10
105.1932345657156
 20
-144.7704915002657
 10
105.1932345657156
 20
-144.7704915002657
 10
105.1932345657156
 20
-144.7704915002657
 10
105.1932345657156
 20
-144.9651393951823
 10
105.1932345657156
 20
-144.9651393951823
 10
105.1932345657156
 20
-144.9651393951823
 10
104.5775960025014
 20
-144.9651393951823
 10
104.5775960025014
 20
-144.9651393951823
 10
104.5775960025014
 20
-144.9651393951823
 10
104.5121391882817
 20
-145.388197120771
 10
104.5121391882817
 20
-145.388197120771
 10
104.5734618879191
 20
-145.3544351850156
 10
104.6557996700166
 20
-145.3141275678381
 10
104.7743109547092
 20
-145.3141275678381
 10
105.0282144919721
 20
-145.3141275678381
 10
105.2652370613573
 20
-145.5001627240416
 10
105.2652370613573
 20
-145.8133219036508
 10
105.2652370613573
 20
-146.1306151978424
 10
105.0409613452675
 20
-146.3655707099364
 10
104.7384819616626
 20
-146.3655707099364
 97
        0
 97
        0
 75
     2
 76
     1
 98
        0
  0
ENDBLK
  5
135
330
132
100
AcDbEntity
  8
0
100
AcDbBlockEnd
  0
BLOCK
  5
13A
330
138
100
AcDbEntity
  8
0
100
AcDbBlockBegin
  2
block 12
 70
     0
 10
0.0
 20
0.0
 30
0.0
  3
block 12
  1

  0
SPLINE
  5
13C
330
138
100
AcDbEntity
  8
_U+30EC_U+30A4_U+30E4_U+30FC 1
 62
   179
420
  2234388
370
    25
100
AcDbSpline
210
0.0
220
0.0
230
1.0
 70
    11
 71
     3
 72
    17
 73
    13
 74
     0
 42
0.0000000001
 43
0.0000000001
 12
1.0
 22
0.0
 32
0.0
 13
1.0
 23
0.0
 33
0.0
 40
0.0
 40
0.0
 40
0.0
 40
0.0
 40
1.0
 40
1.0
 40
1.0
 40
2.0
 40
2.0
 40
2.0
 40
3.0
 40
3.0
 40
3.0
 40
4.0
 40
4.0
 40
4.0
 40
4.0
 10
102.2931351680625
 20
-130.1870649674533
 30
0.0
 10
102.2931351680625
 20
-130.2070321896705
 30
0.0
 10
102.2772954462444
 20
-130.222871911889
 30
0.0
 10
102.2579985022922
 20
-130.222871911889
 30
0.0
 10
102.2387015583401
 20
-130.222871911889
 30
0.0
 10
102.222861836522
 20
-130.2070321896705
 30
0.0
 10
102.222861836522
 20
-130.1870649674533
 30
0.0
 10
102.222861836522
 20
-130.1677680230134
 30
0.0
 10
102.2387015583401
 20
-130.1519283007955
 30
0.0
 10
102.2579985022922
 20
-130.1519283007955
 30
0.0
 10
102.2772954462444
 20
-130.1519283007955
 30
0.0
 10
102.2931351680625
 20
-130.1677680230134
 30
0.0
 10
102.2931351680625
 20
-130.1870649674533
 30
0.0
  0
ENDBLK
  5
13B
330
138
100
AcDbEntity
  8
0
100
AcDbBlockEnd
  0
BLOCK
  5
13F
330
13D
100
AcDbEntity
  8
0
100
AcDbBlockBegin
  2
block 13
 70
     0
 10
0.0
 20
0.0
 30
0.0
  3
block 13
  1

  0
SPLINE
  5
141
330
13D
100
AcDbEntity
  8
_U+30EC_U+30A4_U+30E4_U+30FC 1
 62
   179
420
  2234388
370
    25
100
AcDbSpline
210
0.0
220
0.0
230
1.0
 70
    11
 71
     3
 72
    17
 73
    13
 74
     0
 42
0.0000000001
 43
0.0000000001
 12
1.0
 22
0.0
 32
0.0
 13
1.0
 23
0.0
 33
0.0
 40
0.0
 40
0.0
 40
0.0
 40
0.0
 40
1.0
 40
1.0
 40
1.0
 40
2.0
 40
2.0
 40
2.0
 40
3.0
 40
3.0
 40
3.0
 40
4.0
 40
4.0
 40
4.0
 40
4.0
 10
107.2933719849403
 20
-130.1870649674533
 30
0.0
 10
107.2933719849403
 20
-130.2070321896705
 30
0.0
 10
107.2775322631221
 20
-130.222871911889
 30
0.0
 10
107.2575297636324
 20
-130.222871911889
 30
0.0
 10
107.2382328196803
 20
-130.222871911889
 30
0.0
 10
107.2223930978622
 20
-130.2070321896705
 30
0.0
 10
107.2223930978622
 20
-130.1870649674533
 30
0.0
 10
107.2223930978622
 20
-130.1677680230134
 30
0.0
 10
107.2382328196803
 20
-130.1519283007955
 30
0.0
 10
107.2575297636324
 20
-130.1519283007955
 30
0.0
 10
107.2775322631221
 20
-130.1519283007955
 30
0.0
 10
107.2933719849403
 20
-130.1677680230134
 30
0.0
 10
107.2933719849403
 20
-130.1870649674533
 30
0.0
  0
ENDBLK
  5
140
330
13D
100
AcDbEntity
  8
0
100
AcDbBlockEnd
  0
BLOCK
  5
144
330
142
100
AcDbEntity
  8
0
100
AcDbBlockBegin
  2
block 14
 70
     0
 10
0.0
 20
0.0
 30
0.0
  3
block 14
  1

  0
SPLINE
  5
146
330
142
100
AcDbEntity
  8
_U+30EC_U+30A4_U+30E4_U+30FC 1
 62
   179
420
  2234388
370
     9
100
AcDbSpline
210
0.0
220
0.0
230
1.0
 70
    11
 71
     3
 72
    17
 73
    13
 74
     0
 42
0.0000000001
 43
0.0000000001
 12
1.0
 22
0.0
 32
0.0
 13
1.0
 23
0.0
 33
0.0
 40
0.0
 40
0.0
 40
0.0
 40
0.0
 40
1.0
 40
1.0
 40
1.0
 40
2.0
 40
2.0
 40
2.0
 40
3.0
 40
3.0
 40
3.0
 40
4.0
 40
4.0
 40
4.0
 40
4.0
 10
107.2933719849403
 20
-146.6870107966619
 30
0.0
 10
107.2933719849403
 20
-146.7069780188791
 30
0.0
 10
107.2775322631221
 20
-146.7228177410969
 30
0.0
 10
107.2575297636324
 20
-146.7228177410969
 30
0.0
 10
107.2382328196803
 20
-146.7228177410969
 30
0.0
 10
107.2223930978622
 20
-146.7069780188791
 30
0.0
 10
107.2223930978622
 20
-146.6870107966619
 30
0.0
 10
107.2223930978622
 20
-146.6677138522221
 30
0.0
 10
107.2382328196803
 20
-146.6518741300035
 30
0.0
 10
107.2575297636324
 20
-146.6518741300035
 30
0.0
 10
107.2775322631221
 20
-146.6518741300035
 30
0.0
 10
107.2933719849403
 20
-146.6677138522221
 30
0.0
 10
107.2933719849403
 20
-146.6870107966619
 30
0.0
  0
ENDBLK
  5
145
330
142
100
AcDbEntity
  8
0
100
AcDbBlockEnd
  0
BLOCK
  5
149
330
147
100
AcDbEntity
  8
0
100
AcDbBlockBegin
  2
block 15
 70
     0
 10
0.0
 20
0.0
 30
0.0
  3
block 15
  1

  0
POLYLINE
  5
14B
330
147
100
AcDbEntity
  8
_U+30EC_U+30A4_U+30E4_U+30FC 1
 62
   179
420
  2234388
370
     9
100
AcDb2dPolyline
 66
     1
 10
0.0
 20
0.0
 30
0.0
  0
VERTEX
  5
14C
330
14B
100
AcDbEntity
  8
_U+30EC_U+30A4_U+30E4_U+30FC 1
 62
   179
420
  2234388
370
     9
100
AcDbVertex
100
AcDb2dVertex
 10
94.25745731751415
 20
-146.6870107966619
 30
0.0
  0
VERTEX
  5
14D
330
14B
100
AcDbEntity
  8
_U+30EC_U+30A4_U+30E4_U+30FC 1
 62
   179
420
  2234388
370
     9
100
AcDbVertex
100
AcDb2dVertex
 10
102.2579985022922
 20
-146.6870107966619
 30
0.0
  0
SEQEND
  5
14E
330
14B
100
AcDbEntity
  8
_U+30EC_U+30A4_U+30E4_U+30FC 1
 62
   179
420
  2234388
370
     9
  0
POLYLINE
  5
14F
330
147
100
AcDbEntity
  8
_U+30EC_U+30A4_U+30E4_U+30FC 1
 62
   179
420
  2234388
370
     9
100
AcDb2dPolyline
 66
     1
 10
0.0
 20
0.0
 30
0.0
  0
VERTEX
  5
150
330
14F
100
AcDbEntity
  8
_U+30EC_U+30A4_U+30E4_U+30FC 1
 62
   179
420
  2234388
370
     9
100
AcDbVertex
100
AcDb2dVertex
 10
94.25745731751415
 20
-132.7274883001513
 30
0.0
  0
VERTEX
  5
151
330
14F
100
AcDbEntity
  8
_U+30EC_U+30A4_U+30E4_U+30FC 1
 62
   179
420
  2234388
370
     9
100
AcDbVertex
100
AcDb2dVertex
 10
94.25745731751415
 20
-147.6874532964118
 30
0.0
  0
SEQEND
  5
152
330
14F
100
AcDbEntity
  8
_U+30EC_U+30A4_U+30E4_U+30FC 1
 62
   179
420
  2234388
370
     9
  0
INSERT
  5
154
330
147
100
AcDbEntity
  8
_U+30EC_U+30A4_U+30E4_U+30FC 1
100
AcDbBlockReference
  2
block 16
 10
0.0
 20
0.0
 30
0.0
  0
INSERT
  5
15C
330
147
100
AcDbEntity
  8
_U+30EC_U+30A4_U+30E4_U+30FC 1
100
AcDbBlockReference
  2
block 17
 10
0.0
 20
0.0
 30
0.0
  0
INSERT
  5
161
330
147
100
AcDbEntity
  8
_U+30EC_U+30A4_U+30E4_U+30FC 1
100
AcDbBlockReference
  2
block 18
 10
0.0
 20
0.0
 30
0.0
  0
INSERT
  5
166
330
147
100
AcDbEntity
  8
_U+30EC_U+30A4_U+30E4_U+30FC 1
100
AcDbBlockReference
  2
block 19
 10
0.0
 20
0.0
 30
0.0
  0
ENDBLK
  5
14A
330
147
100
AcDbEntity
  8
0
100
AcDbBlockEnd
  0
BLOCK
  5
155
330
153
100
AcDbEntity
  8
0
100
AcDbBlockBegin
  2
block 16
 70
     0
 10
0.0
 20
0.0
 30
0.0
  3
block 16
  1

  0
SPLINE
  5
157
330
153
100
AcDbEntity
  8
_U+30EC_U+30A4_U+30E4_U+30FC 1
370
     0
100
AcDbSpline
210
0.0
220
0.0
230
1.0
 70
    11
 71
     3
 72
    29
 73
    25
 74
     0
 42
0.0000000001
 43
0.0000000001
 12
1.0
 22
0.0
 32
0.0
 13
1.0
 23
0.0
 33
0.0
 40
0.0
 40
0.0
 40
0.0
 40
0.0
 40
1.0
 40
1.0
 40
1.0
 40
2.0
 40
2.0
 40
2.0
 40
3.0
 40
3.0
 40
3.0
 40
4.0
 40
4.0
 40
4.0
 40
5.0
 40
5.0
 40
5.0
 40
6.0
 40
6.0
 40
6.0
 40
7.0
 40
7.0
 40
7.0
 40
8.0
 40
8.0
 40
8.0
 40
8.0
 10
98.25722382526209
 20
-146.3655707099364
 30
0.0
 10
97.99057343470375
 20
-146.3655707099364
 30
0.0
 10
97.73666989744083
 20
-146.2281114000749
 30
0.0
 10
97.73666989744083
 20
-145.8791232274191
 30
0.0
 10
97.73666989744083
 20
-145.623152632865
 30
0.0
 10
97.87860783143313
 20
-145.5277234879236
 30
0.0
 10
97.9843722628303
 20
-145.4664007882862
 30
0.0
 10
97.85965980626426
 20
-145.4071451459399
 30
0.0
 10
97.78352319604024
 20
-145.2931124853781
 30
0.0
 10
97.78352319604024
 20
-145.132226526217
 30
0.0
 10
97.78352319604024
 20
-144.857307906494
 30
0.0
 10
97.98230520553915
 20
-144.7219156539237
 30
0.0
 10
98.25722382526209
 20
-144.7219156539237
 30
0.0
 10
98.54075518369815
 20
-144.7219156539237
 30
0.0
 10
98.73126896403247
 20
-144.8655761356586
 30
0.0
 10
98.73126896403247
 20
-145.132226526217
 30
0.0
 10
98.73126896403247
 20
-145.2931124853781
 30
0.0
 10
98.65272078696877
 20
-145.4071451459399
 30
0.0
 10
98.52800833040273
 20
-145.4664007882862
 30
0.0
 10
98.61689179392216
 20
-145.5173882014679
 30
0.0
 10
98.77571069579218
 20
-145.6124728368608
 30
0.0
 10
98.77571069579218
 20
-145.8746446032883
 30
0.0
 10
98.77571069579218
 20
-146.2491264825349
 30
0.0
 10
98.49631345193842
 20
-146.3655707099364
 30
0.0
 10
98.25722382526209
 20
-146.3655707099364
 30
0.0
  0
SPLINE
  5
158
330
153
100
AcDbEntity
  8
_U+30EC_U+30A4_U+30E4_U+30FC 1
370
     0
100
AcDbSpline
210
0.0
220
0.0
230
1.0
 70
    11
 71
     3
 72
    17
 73
    13
 74
     0
 42
0.0000000001
 43
0.0000000001
 12
1.0
 22
0.0
 32
0.0
 13
1.0
 23
0.0
 33
0.0
 40
0.0
 40
0.0
 40
0.0
 40
0.0
 40
1.0
 40
1.0
 40
1.0
 40
2.0
 40
2.0
 40
2.0
 40
3.0
 40
3.0
 40
3.0
 40
4.0
 40
4.0
 40
4.0
 40
4.0
 10
98.25722382526209
 20
-145.5742322769745
 30
0.0
 10
98.11356334352718
 20
-145.5742322769745
 30
0.0
 10
97.9609456135306
 20
-145.6610486832028
 30
0.0
 10
97.9609456135306
 20
-145.8643093168325
 30
0.0
 10
97.9609456135306
 20
-146.0692924982049
 30
0.0
 10
98.08806963693632
 20
-146.1709228150198
 30
0.0
 10
98.25722382526209
 20
-146.1709228150198
 30
0.0
 10
98.44325898146558
 20
-146.1709228150198
 30
0.0
 10
98.55350203699358
 20
-146.0482774157449
 30
0.0
 10
98.55350203699358
 20
-145.870510488706
 30
0.0
 10
98.55350203699358
 20
-145.6483018299074
 30
0.0
 10
98.39054902054126
 20
-145.5742322769745
 30
0.0
 10
98.25722382526209
 20
-145.5742322769745
 30
0.0
  0
SPLINE
  5
159
330
153
100
AcDbEntity
  8
_U+30EC_U+30A4_U+30E4_U+30FC 1
370
     0
100
AcDbSpline
210
0.0
220
0.0
230
1.0
 70
    11
 71
     3
 72
    17
 73
    13
 74
     0
 42
0.0000000001
 43
0.0000000001
 12
1.0
 22
0.0
 32
0.0
 13
1.0
 23
0.0
 33
0.0
 40
0.0
 40
0.0
 40
0.0
 40
0.0
 40
1.0
 40
1.0
 40
1.0
 40
2.0
 40
2.0
 40
2.0
 40
3.0
 40
3.0
 40
3.0
 40
4.0
 40
4.0
 40
4.0
 40
4.0
 10
98.25722382526209
 20
-144.9144964915492
 30
0.0
 10
98.09220375151862
 20
-144.9144964915492
 30
0.0
 10
98.00745440258147
 20
-145.0095811269421
 30
0.0
 10
98.00745440258147
 20
-145.1449733795124
 30
0.0
 10
98.00745440258147
 20
-145.2676187787873
 30
0.0
 10
98.0794568982232
 20
-145.3861300634799
 30
0.0
 10
98.25722382526209
 20
-145.3861300634799
 30
0.0
 10
98.43499075230098
 20
-145.3861300634799
 30
0.0
 10
98.5069932479427
 20
-145.2676187787873
 30
0.0
 10
98.5069932479427
 20
-145.1449733795124
 30
0.0
 10
98.5069932479427
 20
-145.0095811269421
 30
0.0
 10
98.42017684171441
 20
-144.9144964915492
 30
0.0
 10
98.25722382526209
 20
-144.9144964915492
 30
0.0
  0
HATCH
  5
15A
330
153
100
AcDbEntity
  8
_U+30EC_U+30A4_U+30E4_U+30FC 1
 62
   179
420
  2234388
100
AcDbHatch
 10
0.0
 20
0.0
 30
0.0
210
0.0
220
0.0
230
1.0
  2
SOLID
 70
     1
 71
     0
 91
        3
 92
        1
 93
        1
 72
     4
 94
        3
 73
     0
 74
     1
 95
       29
 96
       25
 40
0.0
 40
0.0
 40
0.0
 40
0.0
 40
1.0
 40
1.0
 40
1.0
 40
2.0
 40
2.0
 40
2.0
 40
3.0
 40
3.0
 40
3.0
 40
4.0
 40
4.0
 40
4.0
 40
5.0
 40
5.0
 40
5.0
 40
6.0
 40
6.0
 40
6.0
 40
7.0
 40
7.0
 40
7.0
 40
8.0
 40
8.0
 40
8.0
 40
8.0
 10
98.25722382526209
 20
-146.3655707099364
 10
97.99057343470375
 20
-146.3655707099364
 10
97.73666989744083
 20
-146.2281114000749
 10
97.73666989744083
 20
-145.8791232274191
 10
97.73666989744083
 20
-145.623152632865
 10
97.87860783143313
 20
-145.5277234879236
 10
97.9843722628303
 20
-145.4664007882862
 10
97.85965980626426
 20
-145.4071451459399
 10
97.78352319604024
 20
-145.2931124853781
 10
97.78352319604024
 20
-145.132226526217
 10
97.78352319604024
 20
-144.857307906494
 10
97.98230520553915
 20
-144.7219156539237
 10
98.25722382526209
 20
-144.7219156539237
 10
98.54075518369815
 20
-144.7219156539237
 10
98.73126896403247
 20
-144.8655761356586
 10
98.73126896403247
 20
-145.132226526217
 10
98.73126896403247
 20
-145.2931124853781
 10
98.65272078696877
 20
-145.4071451459399
 10
98.52800833040273
 20
-145.4664007882862
 10
98.61689179392216
 20
-145.5173882014679
 10
98.77571069579218
 20
-145.6124728368608
 10
98.77571069579218
 20
-145.8746446032883
 10
98.77571069579218
 20
-146.2491264825349
 10
98.49631345193842
 20
-146.3655707099364
 10
98.25722382526209
 20
-146.3655707099364
 97
        0
 97
        0
 92
        1
 93
        1
 72
     4
 94
        3
 73
     0
 74
     1
 95
       17
 96
       13
 40
0.0
 40
0.0
 40
0.0
 40
0.0
 40
1.0
 40
1.0
 40
1.0
 40
2.0
 40
2.0
 40
2.0
 40
3.0
 40
3.0
 40
3.0
 40
4.0
 40
4.0
 40
4.0
 40
4.0
 10
98.25722382526209
 20
-145.5742322769745
 10
98.11356334352718
 20
-145.5742322769745
 10
97.9609456135306
 20
-145.6610486832028
 10
97.9609456135306
 20
-145.8643093168325
 10
97.9609456135306
 20
-146.0692924982049
 10
98.08806963693632
 20
-146.1709228150198
 10
98.25722382526209
 20
-146.1709228150198
 10
98.44325898146558
 20
-146.1709228150198
 10
98.55350203699358
 20
-146.0482774157449
 10
98.55350203699358
 20
-145.870510488706
 10
98.55350203699358
 20
-145.6483018299074
 10
98.39054902054126
 20
-145.5742322769745
 10
98.25722382526209
 20
-145.5742322769745
 97
        0
 97
        0
 92
        1
 93
        1
 72
     4
 94
        3
 73
     0
 74
     1
 95
       17
 96
       13
 40
0.0
 40
0.0
 40
0.0
 40
0.0
 40
1.0
 40
1.0
 40
1.0
 40
2.0
 40
2.0
 40
2.0
 40
3.0
 40
3.0
 40
3.0
 40
4.0
 40
4.0
 40
4.0
 40
4.0
 10
98.25722382526209
 20
-144.9144964915492
 10
98.09220375151862
 20
-144.9144964915492
 10
98.00745440258147
 20
-145.0095811269421
 10
98.00745440258147
 20
-145.1449733795124
 10
98.00745440258147
 20
-145.2676187787873
 10
98.0794568982232
 20
-145.3861300634799
 10
98.25722382526209
 20
-145.3861300634799
 10
98.43499075230098
 20
-145.3861300634799
 10
98.5069932479427
 20
-145.2676187787873
 10
98.5069932479427
 20
-145.1449733795124
 10
98.5069932479427
 20
-145.0095811269421
 10
98.42017684171441
 20
-144.9144964915492
 10
98.25722382526209
 20
-144.9144964915492
 97
        0
 97
        0
 75
     2
 76
     1
 98
        0
  0
ENDBLK
  5
156
330
153
100
AcDbEntity
  8
0
100
AcDbBlockEnd
  0
BLOCK
  5
15D
330
15B
100
AcDbEntity
  8
0
100
AcDbBlockBegin
  2
block 17
 70
     0
 10
0.0
 20
0.0
 30
0.0
  3
block 17
  1

  0
SPLINE
  5
15F
330
15B
100
AcDbEntity
  8
_U+30EC_U+30A4_U+30E4_U+30FC 1
 62
   179
420
  2234388
370
    25
100
AcDbSpline
210
0.0
220
0.0
230
1.0
 70
    11
 71
     3
 72
    17
 73
    13
 74
     0
 42
0.0000000001
 43
0.0000000001
 12
1.0
 22
0.0
 32
0.0
 13
1.0
 23
0.0
 33
0.0
 40
0.0
 40
0.0
 40
0.0
 40
0.0
 40
1.0
 40
1.0
 40
1.0
 40
2.0
 40
2.0
 40
2.0
 40
3.0
 40
3.0
 40
3.0
 40
4.0
 40
4.0
 40
4.0
 40
4.0
 10
94.2925939832844
 20
-130.1870649674533
 30
0.0
 10
94.2925939832844
 20
-130.2070321896705
 30
0.0
 10
94.27675426146628
 20
-130.222871911889
 30
0.0
 10
94.25745731751415
 20
-130.222871911889
 30
0.0
 10
94.23816037356201
 20
-130.222871911889
 30
0.0
 10
94.22232065174389
 20
-130.2070321896705
 30
0.0
 10
94.22232065174389
 20
-130.1870649674533
 30
0.0
 10
94.22232065174389
 20
-130.1677680230134
 30
0.0
 10
94.23816037356201
 20
-130.1519283007955
 30
0.0
 10
94.25745731751415
 20
-130.1519283007955
 30
0.0
 10
94.27675426146628
 20
-130.1519283007955
 30
0.0
 10
94.2925939832844
 20
-130.1677680230134
 30
0.0
 10
94.2925939832844
 20
-130.1870649674533
 30
0.0
  0
ENDBLK
  5
15E
330
15B
100
AcDbEntity
  8
0
100
AcDbBlockEnd
  0
BLOCK
  5
162
330
160
100
AcDbEntity
  8
0
100
AcDbBlockBegin
  2
block 18
 70
     0
 10
0.0
 20
0.0
 30
0.0
  3
block 18
  1

  0
SPLINE
  5
164
330
160
100
AcDbEntity
  8
_U+30EC_U+30A4_U+30E4_U+30FC 1
 62
   179
420
  2234388
370
    25
100
AcDbSpline
210
0.0
220
0.0
230
1.0
 70
    11
 71
     3
 72
    17
 73
    13
 74
     0
 42
0.0000000001
 43
0.0000000001
 12
1.0
 22
0.0
 32
0.0
 13
1.0
 23
0.0
 33
0.0
 40
0.0
 40
0.0
 40
0.0
 40
0.0
 40
1.0
 40
1.0
 40
1.0
 40
2.0
 40
2.0
 40
2.0
 40
3.0
 40
3.0
 40
3.0
 40
4.0
 40
4.0
 40
4.0
 40
4.0
 10
102.2931351680625
 20
-130.1870649674533
 30
0.0
 10
102.2931351680625
 20
-130.2070321896705
 30
0.0
 10
102.2772954462444
 20
-130.222871911889
 30
0.0
 10
102.2579985022922
 20
-130.222871911889
 30
0.0
 10
102.2387015583401
 20
-130.222871911889
 30
0.0
 10
102.222861836522
 20
-130.2070321896705
 30
0.0
 10
102.222861836522
 20
-130.1870649674533
 30
0.0
 10
102.222861836522
 20
-130.1677680230134
 30
0.0
 10
102.2387015583401
 20
-130.1519283007955
 30
0.0
 10
102.2579985022922
 20
-130.1519283007955
 30
0.0
 10
102.2772954462444
 20
-130.1519283007955
 30
0.0
 10
102.2931351680625
 20
-130.1677680230134
 30
0.0
 10
102.2931351680625
 20
-130.1870649674533
 30
0.0
  0
ENDBLK
  5
163
330
160
100
AcDbEntity
  8
0
100
AcDbBlockEnd
  0
BLOCK
  5
167
330
165
100
AcDbEntity
  8
0
100
AcDbBlockBegin
  2
block 19
 70
     0
 10
0.0
 20
0.0
 30
0.0
  3
block 19
  1

  0
SPLINE
  5
169
330
165
100
AcDbEntity
  8
_U+30EC_U+30A4_U+30E4_U+30FC 1
 62
   179
420
  2234388
370
     9
100
AcDbSpline
210
0.0
220
0.0
230
1.0
 70
    11
 71
     3
 72
    17
 73
    13
 74
     0
 42
0.0000000001
 43
0.0000000001
 12
1.0
 22
0.0
 32
0.0
 13
1.0
 23
0.0
 33
0.0
 40
0.0
 40
0.0
 40
0.0
 40
0.0
 40
1.0
 40
1.0
 40
1.0
 40
2.0
 40
2.0
 40
2.0
 40
3.0
 40
3.0
 40
3.0
 40
4.0
 40
4.0
 40
4.0
 40
4.0
 10
102.2931351680625
 20
-146.6870107966619
 30
0.0
 10
102.2931351680625
 20
-146.7069780188791
 30
0.0
 10
102.2772954462444
 20
-146.7228177410969
 30
0.0
 10
102.2579985022922
 20
-146.7228177410969
 30
0.0
 10
102.2387015583401
 20
-146.7228177410969
 30
0.0
 10
102.222861836522
 20
-146.7069780188791
 30
0.0
 10
102.222861836522
 20
-146.6870107966619
 30
0.0
 10
102.222861836522
 20
-146.6677138522221
 30
0.0
 10
102.2387015583401
 20
-146.6518741300035
 30
0.0
 10
102.2579985022922
 20
-146.6518741300035
 30
0.0
 10
102.2772954462444
 20
-146.6518741300035
 30
0.0
 10
102.2931351680625
 20
-146.6677138522221
 30
0.0
 10
102.2931351680625
 20
-146.6870107966619
 30
0.0
  0
ENDBLK
  5
168
330
165
100
AcDbEntity
  8
0
100
AcDbBlockEnd
  0
BLOCK
  5
16C
330
16A
100
AcDbEntity
  8
0
100
AcDbBlockBegin
  2
block 20
 70
     0
 10
0.0
 20
0.0
 30
0.0
  3
block 20
  1

  0
POLYLINE
  5
16E
330
16A
100
AcDbEntity
  8
_U+30EC_U+30A4_U+30E4_U+30FC 1
 62
   179
420
  2234388
370
     9
100
AcDb2dPolyline
 66
     1
 10
0.0
 20
0.0
 30
0.0
  0
VERTEX
  5
16F
330
16E
100
AcDbEntity
  8
_U+30EC_U+30A4_U+30E4_U+30FC 1
 62
   179
420
  2234388
370
     9
100
AcDbVertex
100
AcDb2dVertex
 10
94.25745731751415
 20
-146.6870107966619
 30
0.0
  0
VERTEX
  5
170
330
16E
100
AcDbEntity
  8
_U+30EC_U+30A4_U+30E4_U+30FC 1
 62
   179
420
  2234388
370
     9
100
AcDbVertex
100
AcDb2dVertex
 10
87.75724470557061
 20
-146.6870107966619
 30
0.0
  0
SEQEND
  5
171
330
16E
100
AcDbEntity
  8
_U+30EC_U+30A4_U+30E4_U+30FC 1
 62
   179
420
  2234388
370
     9
  0
POLYLINE
  5
172
330
16A
100
AcDbEntity
  8
_U+30EC_U+30A4_U+30E4_U+30FC 1
 62
   179
420
  2234388
370
     9
100
AcDb2dPolyline
 66
     1
 10
0.0
 20
0.0
 30
0.0
  0
VERTEX
  5
173
330
172
100
AcDbEntity
  8
_U+30EC_U+30A4_U+30E4_U+30FC 1
 62
   179
420
  2234388
370
     9
100
AcDbVertex
100
AcDb2dVertex
 10
87.75724470557061
 20
-145.2276396859155
 30
0.0
  0
VERTEX
  5
174
330
172
100
AcDbEntity
  8
_U+30EC_U+30A4_U+30E4_U+30FC 1
 62
   179
420
  2234388
370
     9
100
AcDbVertex
100
AcDb2dVertex
 10
87.75724470557061
 20
-147.6874532964118
 30
0.0
  0
SEQEND
  5
175
330
172
100
AcDbEntity
  8
_U+30EC_U+30A4_U+30E4_U+30FC 1
 62
   179
420
  2234388
370
     9
  0
INSERT
  5
177
330
16A
100
AcDbEntity
  8
_U+30EC_U+30A4_U+30E4_U+30FC 1
100
AcDbBlockReference
  2
block 21
 10
0.0
 20
0.0
 30
0.0
  0
INSERT
  5
188
330
16A
100
AcDbEntity
  8
_U+30EC_U+30A4_U+30E4_U+30FC 1
100
AcDbBlockReference
  2
block 22
 10
0.0
 20
0.0
 30
0.0
  0
INSERT
  5
18D
330
16A
100
AcDbEntity
  8
_U+30EC_U+30A4_U+30E4_U+30FC 1
100
AcDbBlockReference
  2
block 23
 10
0.0
 20
0.0
 30
0.0
  0
INSERT
  5
192
330
16A
100
AcDbEntity
  8
_U+30EC_U+30A4_U+30E4_U+30FC 1
100
AcDbBlockReference
  2
block 24
 10
0.0
 20
0.0
 30
0.0
  0
ENDBLK
  5
16D
330
16A
100
AcDbEntity
  8
0
100
AcDbBlockEnd
  0
BLOCK
  5
178
330
176
100
AcDbEntity
  8
0
100
AcDbBlockBegin
  2
block 21
 70
     0
 10
0.0
 20
0.0
 30
0.0
  3
block 21
  1

  0
SPLINE
  5
17A
330
176
100
AcDbEntity
  8
_U+30EC_U+30A4_U+30E4_U+30FC 1
370
     0
100
AcDbSpline
210
0.0
220
0.0
230
1.0
 70
    11
 71
     3
 72
    32
 73
    28
 74
     0
 42
0.0000000001
 43
0.0000000001
 12
1.0
 22
0.0
 32
0.0
 13
1.0
 23
0.0
 33
0.0
 40
0.0
 40
0.0
 40
0.0
 40
0.0
 40
1.0
 40
1.0
 40
1.0
 40
2.0
 40
2.0
 40
2.0
 40
3.0
 40
3.0
 40
3.0
 40
4.0
 40
4.0
 40
4.0
 40
5.0
 40
5.0
 40
5.0
 40
6.0
 40
6.0
 40
6.0
 40
7.0
 40
7.0
 40
7.0
 40
8.0
 40
8.0
 40
8.0
 40
9.0
 40
9.0
 40
9.0
 40
9.0
 10
90.14867483640381
 20
-146.3655707099364
 30
0.0
 10
89.63259953271339
 20
-146.3655707099364
 30
0.0
 10
89.62415904877452
 20
-145.8112548463597
 30
0.0
 10
89.62415904877452
 20
-145.5976589262742
 30
0.0
 10
89.62415904877452
 20
-145.367182038311
 30
0.0
 10
89.6431070739434
 20
-144.7198485966325
 30
0.0
 10
90.18674314151582
 20
-144.7198485966325
 30
0.0
 10
90.36037595397241
 20
-144.7198485966325
 30
0.0
 10
90.6056667525222
 20
-144.7894395254346
 30
0.0
 10
90.6437350576342
 20
-145.1215467302127
 30
0.0
 10
90.6437350576342
 20
-145.1215467302127
 30
0.0
 10
90.43013913754872
 20
-145.1215467302127
 30
0.0
 10
90.43013913754872
 20
-145.1215467302127
 30
0.0
 10
90.41945934154444
 20
-145.0643581451575
 30
0.0
 10
90.38776446308015
 20
-144.9165635488403
 30
0.0
 10
90.18467608422466
 20
-144.9165635488403
 30
0.0
 10
89.89270424184974
 20
-144.9165635488403
 30
0.0
 10
89.85256887944658
 20
-145.2441921294876
 30
0.0
 10
89.83982202615115
 20
-145.4495198204085
 30
0.0
 10
89.93301185902716
 20
-145.3713161528933
 30
0.0
 10
90.00070798531233
 20
-145.312060510547
 30
0.0
 10
90.18260902693352
 20
-145.312060510547
 30
0.0
 10
90.36244301126357
 20
-145.312060510547
 30
0.0
 10
90.6649223948685
 20
-145.4198919992353
 30
0.0
 10
90.6649223948685
 20
-145.8260687569463
 30
0.0
 10
90.6649223948685
 20
-146.1454291084289
 30
0.0
 10
90.46614038536958
 20
-146.3655707099364
 30
0.0
 10
90.14867483640381
 20
-146.3655707099364
 30
0.0
  0
SPLINE
  5
17B
330
176
100
AcDbEntity
  8
_U+30EC_U+30A4_U+30E4_U+30FC 1
370
     0
100
AcDbSpline
210
0.0
220
0.0
230
1.0
 70
    11
 71
     3
 72
    17
 73
    13
 74
     0
 42
0.0000000001
 43
0.0000000001
 12
1.0
 22
0.0
 32
0.0
 13
1.0
 23
0.0
 33
0.0
 40
0.0
 40
0.0
 40
0.0
 40
0.0
 40
1.0
 40
1.0
 40
1.0
 40
2.0
 40
2.0
 40
2.0
 40
3.0
 40
3.0
 40
3.0
 40
4.0
 40
4.0
 40
4.0
 40
4.0
 10
90.1657280590558
 20
-145.5067084054636
 30
0.0
 10
89.90338403785402
 20
-145.5067084054636
 30
0.0
 10
89.865315732742
 20
-145.718237268258
 30
0.0
 10
89.865315732742
 20
-145.8346814956594
 30
0.0
 10
89.865315732742
 20
-146.0100368558586
 30
0.0
 10
89.9604003681349
 20
-146.1729898723109
 30
0.0
 10
90.14454072182151
 20
-146.1729898723109
 30
0.0
 10
90.26511906380526
 20
-146.1729898723109
 30
0.0
 10
90.44064667877873
 20
-146.1137342299646
 30
0.0
 10
90.44064667877873
 20
-145.8281358142374
 30
0.0
 10
90.44064667877873
 20
-145.6038600981477
 30
0.0
 10
90.30112031162611
 20
-145.5067084054636
 30
0.0
 10
90.1657280590558
 20
-145.5067084054636
 30
0.0
  0
HATCH
  5
17C
330
176
100
AcDbEntity
  8
_U+30EC_U+30A4_U+30E4_U+30FC 1
 62
   179
420
  2234388
100
AcDbHatch
 10
0.0
 20
0.0
 30
0.0
210
0.0
220
0.0
230
1.0
  2
SOLID
 70
     1
 71
     0
 91
        2
 92
        1
 93
        1
 72
     4
 94
        3
 73
     0
 74
     1
 95
       32
 96
       28
 40
0.0
 40
0.0
 40
0.0
 40
0.0
 40
1.0
 40
1.0
 40
1.0
 40
2.0
 40
2.0
 40
2.0
 40
3.0
 40
3.0
 40
3.0
 40
4.0
 40
4.0
 40
4.0
 40
5.0
 40
5.0
 40
5.0
 40
6.0
 40
6.0
 40
6.0
 40
7.0
 40
7.0
 40
7.0
 40
8.0
 40
8.0
 40
8.0
 40
9.0
 40
9.0
 40
9.0
 40
9.0
 10
90.14867483640381
 20
-146.3655707099364
 10
89.63259953271339
 20
-146.3655707099364
 10
89.62415904877452
 20
-145.8112548463597
 10
89.62415904877452
 20
-145.5976589262742
 10
89.62415904877452
 20
-145.367182038311
 10
89.6431070739434
 20
-144.7198485966325
 10
90.18674314151582
 20
-144.7198485966325
 10
90.36037595397241
 20
-144.7198485966325
 10
90.6056667525222
 20
-144.7894395254346
 10
90.6437350576342
 20
-145.1215467302127
 10
90.6437350576342
 20
-145.1215467302127
 10
90.43013913754872
 20
-145.1215467302127
 10
90.43013913754872
 20
-145.1215467302127
 10
90.41945934154444
 20
-145.0643581451575
 10
90.38776446308015
 20
-144.9165635488403
 10
90.18467608422466
 20
-144.9165635488403
 10
89.89270424184974
 20
-144.9165635488403
 10
89.85256887944658
 20
-145.2441921294876
 10
89.83982202615115
 20
-145.4495198204085
 10
89.93301185902716
 20
-145.3713161528933
 10
90.00070798531233
 20
-145.312060510547
 10
90.18260902693352
 20
-145.312060510547
 10
90.36244301126357
 20
-145.312060510547
 10
90.6649223948685
 20
-145.4198919992353
 10
90.6649223948685
 20
-145.8260687569463
 10
90.6649223948685
 20
-146.1454291084289
 10
90.46614038536958
 20
-146.3655707099364
 10
90.14867483640381
 20
-146.3655707099364
 97
        0
 97
        0
 92
        1
 93
        1
 72
     4
 94
        3
 73
     0
 74
     1
 95
       17
 96
       13
 40
0.0
 40
0.0
 40
0.0
 40
0.0
 40
1.0
 40
1.0
 40
1.0
 40
2.0
 40
2.0
 40
2.0
 40
3.0
 40
3.0
 40
3.0
 40
4.0
 40
4.0
 40
4.0
 40
4.0
 10
90.1657280590558
 20
-145.5067084054636
 10
89.90338403785402
 20
-145.5067084054636
 10
89.865315732742
 20
-145.718237268258
 10
89.865315732742
 20
-145.8346814956594
 10
89.865315732742
 20
-146.0100368558586
 10
89.9604003681349
 20
-146.1729898723109
 10
90.14454072182151
 20
-146.1729898723109
 10
90.26511906380526
 20
-146.1729898723109
 10
90.44064667877873
 20
-146.1137342299646
 10
90.44064667877873
 20
-145.8281358142374
 10
90.44064667877873
 20
-145.6038600981477
 10
90.30112031162611
 20
-145.5067084054636
 10
90.1657280590558
 20
-145.5067084054636
 97
        0
 97
        0
 75
     2
 76
     1
 98
        0
  0
POLYLINE
  5
17D
330
176
100
AcDbEntity
  8
_U+30EC_U+30A4_U+30E4_U+30FC 1
370
     0
100
AcDb2dPolyline
 66
     1
 10
0.0
 20
0.0
 30
0.0
  0
VERTEX
  5
17E
330
17D
100
AcDbEntity
  8
_U+30EC_U+30A4_U+30E4_U+30FC 1
370
     0
100
AcDbVertex
100
AcDb2dVertex
 10
90.88127439134219
 20
-146.3149278063032
 30
0.0
  0
VERTEX
  5
17F
330
17D
100
AcDbEntity
  8
_U+30EC_U+30A4_U+30E4_U+30FC 1
370
     0
100
AcDbVertex
100
AcDb2dVertex
 10
90.88127439134219
 20
-146.0630913263315
 30
0.0
  0
VERTEX
  5
180
330
17D
100
AcDbEntity
  8
_U+30EC_U+30A4_U+30E4_U+30FC 1
370
     0
100
AcDbVertex
100
AcDb2dVertex
 10
91.13311087131395
 20
-146.0630913263315
 30
0.0
  0
VERTEX
  5
181
330
17D
100
AcDbEntity
  8
_U+30EC_U+30A4_U+30E4_U+30FC 1
370
     0
100
AcDbVertex
100
AcDb2dVertex
 10
91.13311087131395
 20
-146.3149278063032
 30
0.0
  0
VERTEX
  5
182
330
17D
100
AcDbEntity
  8
_U+30EC_U+30A4_U+30E4_U+30FC 1
370
     0
100
AcDbVertex
100
AcDb2dVertex
 10
90.88127439134219
 20
-146.3149278063032
 30
0.0
  0
SEQEND
  5
183
330
17D
100
AcDbEntity
  8
_U+30EC_U+30A4_U+30E4_U+30FC 1
370
     0
  0
HATCH
  5
184
330
176
100
AcDbEntity
  8
_U+30EC_U+30A4_U+30E4_U+30FC 1
 62
   179
420
  2234388
100
AcDbHatch
 10
0.0
 20
0.0
 30
0.0
210
0.0
220
0.0
230
1.0
  2
SOLID
 70
     1
 71
     0
 91
        1
 92
        1
 93
        4
 72
     1
 10
90.88127439134219
 20
-146.3149278063032
 11
90.88127439134219
 21
-146.0630913263315
 72
     1
 10
90.88127439134219
 20
-146.0630913263315
 11
91.13311087131395
 21
-146.0630913263315
 72
     1
 10
91.13311087131395
 20
-146.0630913263315
 11
91.13311087131395
 21
-146.3149278063032
 72
     1
 10
91.13311087131395
 20
-146.3149278063032
 11
90.88127439134219
 21
-146.3149278063032
 97
        0
 75
     2
 76
     1
 98
        0
  0
SPLINE
  5
185
330
176
100
AcDbEntity
  8
_U+30EC_U+30A4_U+30E4_U+30FC 1
370
     0
100
AcDbSpline
210
0.0
220
0.0
230
1.0
 70
    11
 71
     3
 72
    53
 73
    49
 74
     0
 42
0.0000000001
 43
0.0000000001
 12
1.0
 22
0.0
 32
0.0
 13
1.0
 23
0.0
 33
0.0
 40
0.0
 40
0.0
 40
0.0
 40
0.0
 40
1.0
 40
1.0
 40
1.0
 40
2.0
 40
2.0
 40
2.0
 40
3.0
 40
3.0
 40
3.0
 40
4.0
 40
4.0
 40
4.0
 40
5.0
 40
5.0
 40
5.0
 40
6.0
 40
6.0
 40
6.0
 40
7.0
 40
7.0
 40
7.0
 40
8.0
 40
8.0
 40
8.0
 40
9.0
 40
9.0
 40
9.0
 40
10.0
 40
10.0
 40
10.0
 40
11.0
 40
11.0
 40
11.0
 40
12.0
 40
12.0
 40
12.0
 40
13.0
 40
13.0
 40
13.0
 40
14.0
 40
14.0
 40
14.0
 40
15.0
 40
15.0
 40
15.0
 40
16.0
 40
16.0
 40
16.0
 40
16.0
 10
91.85037975134297
 20
-146.3655707099364
 30
0.0
 10
91.77217608382779
 20
-146.3655707099364
 30
0.0
 10
91.67054576701292
 20
-146.3486897420587
 30
0.0
 10
91.56925995974657
 20
-146.2852999851301
 30
0.0
 10
91.39562714728999
 20
-146.1750569296021
 30
0.0
 10
91.37461206482996
 20
-146.0441433011626
 30
0.0
 10
91.35549178488682
 20
-145.9359673029257
 30
0.0
 10
91.35549178488682
 20
-145.9359673029257
 30
0.0
 10
91.57752818891117
 20
-145.9359673029257
 30
0.0
 10
91.57752818891117
 20
-145.9359673029257
 30
0.0
 10
91.63264971667518
 20
-146.1350938219732
 30
0.0
 10
91.75942923053238
 20
-146.1647216431463
 30
0.0
 10
91.85279131818264
 20
-146.1647216431463
 30
0.0
 10
91.99231768533525
 20
-146.1647216431463
 30
0.0
 10
92.1445909057833
 20
-146.0651583836226
 30
0.0
 10
92.1445909057833
 20
-145.8326144383682
 30
0.0
 10
92.1445909057833
 20
-145.5766438438142
 30
0.0
 10
91.96475692145326
 20
-145.5067084054636
 30
0.0
 10
91.84417857946951
 20
-145.5067084054636
 30
0.0
 10
91.81248370100522
 20
-145.5067084054636
 30
0.0
 10
91.67054576701292
 20
-145.5067084054636
 30
0.0
 10
91.582006813042
 20
-145.635554976612
 30
0.0
 10
91.582006813042
 20
-145.635554976612
 30
0.0
 10
91.40630694329425
 20
-145.6166069514431
 30
0.0
 10
91.40630694329425
 20
-145.6166069514431
 30
0.0
 10
91.40630694329425
 20
-145.6166069514431
 30
0.0
 10
91.526885285278
 20
-144.7704915002657
 30
0.0
 10
91.526885285278
 20
-144.7704915002657
 30
0.0
 10
91.526885285278
 20
-144.7704915002657
 30
0.0
 10
92.30547686494447
 20
-144.7704915002657
 30
0.0
 10
92.30547686494447
 20
-144.7704915002657
 30
0.0
 10
92.30547686494447
 20
-144.7704915002657
 30
0.0
 10
92.30547686494447
 20
-144.9651393951823
 30
0.0
 10
92.30547686494447
 20
-144.9651393951823
 30
0.0
 10
92.30547686494447
 20
-144.9651393951823
 30
0.0
 10
91.68983830173032
 20
-144.9651393951823
 30
0.0
 10
91.68983830173032
 20
-144.9651393951823
 30
0.0
 10
91.68983830173032
 20
-144.9651393951823
 30
0.0
 10
91.62403697796205
 20
-145.388197120771
 30
0.0
 10
91.62403697796205
 20
-145.388197120771
 30
0.0
 10
91.6853596775995
 20
-145.3544351850156
 30
0.0
 10
91.76804196924549
 20
-145.3141275678381
 30
0.0
 10
91.88655325393809
 20
-145.3141275678381
 30
0.0
 10
92.140456791201
 20
-145.3141275678381
 30
0.0
 10
92.37713485103767
 20
-145.5001627240416
 30
0.0
 10
92.37713485103767
 20
-145.8133219036508
 30
0.0
 10
92.37713485103767
 20
-146.1306151978424
 30
0.0
 10
92.15320364449643
 20
-146.3655707099364
 30
0.0
 10
91.85037975134297
 20
-146.3655707099364
 30
0.0
  0
HATCH
  5
186
330
176
100
AcDbEntity
  8
_U+30EC_U+30A4_U+30E4_U+30FC 1
 62
   179
420
  2234388
100
AcDbHatch
 10
0.0
 20
0.0
 30
0.0
210
0.0
220
0.0
230
1.0
  2
SOLID
 70
     1
 71
     0
 91
        1
 92
        1
 93
        1
 72
     4
 94
        3
 73
     0
 74
     1
 95
       53
 96
       49
 40
0.0
 40
0.0
 40
0.0
 40
0.0
 40
1.0
 40
1.0
 40
1.0
 40
2.0
 40
2.0
 40
2.0
 40
3.0
 40
3.0
 40
3.0
 40
4.0
 40
4.0
 40
4.0
 40
5.0
 40
5.0
 40
5.0
 40
6.0
 40
6.0
 40
6.0
 40
7.0
 40
7.0
 40
7.0
 40
8.0
 40
8.0
 40
8.0
 40
9.0
 40
9.0
 40
9.0
 40
10.0
 40
10.0
 40
10.0
 40
11.0
 40
11.0
 40
11.0
 40
12.0
 40
12.0
 40
12.0
 40
13.0
 40
13.0
 40
13.0
 40
14.0
 40
14.0
 40
14.0
 40
15.0
 40
15.0
 40
15.0
 40
16.0
 40
16.0
 40
16.0
 40
16.0
 10
91.85037975134297
 20
-146.3655707099364
 10
91.77217608382779
 20
-146.3655707099364
 10
91.67054576701292
 20
-146.3486897420587
 10
91.56925995974657
 20
-146.2852999851301
 10
91.39562714728999
 20
-146.1750569296021
 10
91.37461206482996
 20
-146.0441433011626
 10
91.35549178488682
 20
-145.9359673029257
 10
91.35549178488682
 20
-145.9359673029257
 10
91.57752818891117
 20
-145.9359673029257
 10
91.57752818891117
 20
-145.9359673029257
 10
91.63264971667518
 20
-146.1350938219732
 10
91.75942923053238
 20
-146.1647216431463
 10
91.85279131818264
 20
-146.1647216431463
 10
91.99231768533525
 20
-146.1647216431463
 10
92.1445909057833
 20
-146.0651583836226
 10
92.1445909057833
 20
-145.8326144383682
 10
92.1445909057833
 20
-145.5766438438142
 10
91.96475692145326
 20
-145.5067084054636
 10
91.84417857946951
 20
-145.5067084054636
 10
91.81248370100522
 20
-145.5067084054636
 10
91.67054576701292
 20
-145.5067084054636
 10
91.582006813042
 20
-145.635554976612
 10
91.582006813042
 20
-145.635554976612
 10
91.40630694329425
 20
-145.6166069514431
 10
91.40630694329425
 20
-145.6166069514431
 10
91.40630694329425
 20
-145.6166069514431
 10
91.526885285278
 20
-144.7704915002657
 10
91.526885285278
 20
-144.7704915002657
 10
91.526885285278
 20
-144.7704915002657
 10
92.30547686494447
 20
-144.7704915002657
 10
92.30547686494447
 20
-144.7704915002657
 10
92.30547686494447
 20
-144.7704915002657
 10
92.30547686494447
 20
-144.9651393951823
 10
92.30547686494447
 20
-144.9651393951823
 10
92.30547686494447
 20
-144.9651393951823
 10
91.68983830173032
 20
-144.9651393951823
 10
91.68983830173032
 20
-144.9651393951823
 10
91.68983830173032
 20
-144.9651393951823
 10
91.62403697796205
 20
-145.388197120771
 10
91.62403697796205
 20
-145.388197120771
 10
91.6853596775995
 20
-145.3544351850156
 10
91.76804196924549
 20
-145.3141275678381
 10
91.88655325393809
 20
-145.3141275678381
 10
92.140456791201
 20
-145.3141275678381
 10
92.37713485103767
 20
-145.5001627240416
 10
92.37713485103767
 20
-145.8133219036508
 10
92.37713485103767
 20
-146.1306151978424
 10
92.15320364449643
 20
-146.3655707099364
 10
91.85037975134297
 20
-146.3655707099364
 97
        0
 97
        0
 75
     2
 76
     1
 98
        0
  0
ENDBLK
  5
179
330
176
100
AcDbEntity
  8
0
100
AcDbBlockEnd
  0
BLOCK
  5
189
330
187
100
AcDbEntity
  8
0
100
AcDbBlockBegin
  2
block 22
 70
     0
 10
0.0
 20
0.0
 30
0.0
  3
block 22
  1

  0
SPLINE
  5
18B
330
187
100
AcDbEntity
  8
_U+30EC_U+30A4_U+30E4_U+30FC 1
 62
   179
420
  2234388
370
    25
100
AcDbSpline
210
0.0
220
0.0
230
1.0
 70
    11
 71
     3
 72
    17
 73
    13
 74
     0
 42
0.0000000001
 43
0.0000000001
 12
1.0
 22
0.0
 32
0.0
 13
1.0
 23
0.0
 33
0.0
 40
0.0
 40
0.0
 40
0.0
 40
0.0
 40
1.0
 40
1.0
 40
1.0
 40
2.0
 40
2.0
 40
2.0
 40
3.0
 40
3.0
 40
3.0
 40
4.0
 40
4.0
 40
4.0
 40
4.0
 10
94.2925939832844
 20
-130.1870649674533
 30
0.0
 10
94.2925939832844
 20
-130.2070321896705
 30
0.0
 10
94.27675426146628
 20
-130.222871911889
 30
0.0
 10
94.25745731751415
 20
-130.222871911889
 30
0.0
 10
94.23816037356201
 20
-130.222871911889
 30
0.0
 10
94.22232065174389
 20
-130.2070321896705
 30
0.0
 10
94.22232065174389
 20
-130.1870649674533
 30
0.0
 10
94.22232065174389
 20
-130.1677680230134
 30
0.0
 10
94.23816037356201
 20
-130.1519283007955
 30
0.0
 10
94.25745731751415
 20
-130.1519283007955
 30
0.0
 10
94.27675426146628
 20
-130.1519283007955
 30
0.0
 10
94.2925939832844
 20
-130.1677680230134
 30
0.0
 10
94.2925939832844
 20
-130.1870649674533
 30
0.0
  0
ENDBLK
  5
18A
330
187
100
AcDbEntity
  8
0
100
AcDbBlockEnd
  0
BLOCK
  5
18E
330
18C
100
AcDbEntity
  8
0
100
AcDbBlockBegin
  2
block 23
 70
     0
 10
0.0
 20
0.0
 30
0.0
  3
block 23
  1

  0
SPLINE
  5
190
330
18C
100
AcDbEntity
  8
_U+30EC_U+30A4_U+30E4_U+30FC 1
 62
   179
420
  2234388
370
    25
100
AcDbSpline
210
0.0
220
0.0
230
1.0
 70
    11
 71
     3
 72
    17
 73
    13
 74
     0
 42
0.0000000001
 43
0.0000000001
 12
1.0
 22
0.0
 32
0.0
 13
1.0
 23
0.0
 33
0.0
 40
0.0
 40
0.0
 40
0.0
 40
0.0
 40
1.0
 40
1.0
 40
1.0
 40
2.0
 40
2.0
 40
2.0
 40
3.0
 40
3.0
 40
3.0
 40
4.0
 40
4.0
 40
4.0
 40
4.0
 10
87.79308692687842
 20
-142.687251630995
 30
0.0
 10
87.79308692687842
 20
-142.7065485754342
 30
0.0
 10
87.7772472050603
 20
-142.7223882976527
 30
0.0
 10
87.75724470557061
 20
-142.7223882976527
 30
0.0
 10
87.73798303939535
 20
-142.7223882976527
 30
0.0
 10
87.72210803980036
 20
-142.7065485754342
 30
0.0
 10
87.72210803980036
 20
-142.687251630995
 30
0.0
 10
87.72210803980036
 20
-142.6679546865552
 30
0.0
 10
87.73798303939535
 20
-142.6521149643373
 30
0.0
 10
87.75724470557061
 20
-142.6521149643373
 30
0.0
 10
87.7772472050603
 20
-142.6521149643373
 30
0.0
 10
87.79308692687842
 20
-142.6679546865552
 30
0.0
 10
87.79308692687842
 20
-142.687251630995
 30
0.0
  0
ENDBLK
  5
18F
330
18C
100
AcDbEntity
  8
0
100
AcDbBlockEnd
  0
BLOCK
  5
193
330
191
100
AcDbEntity
  8
0
100
AcDbBlockBegin
  2
block 24
 70
     0
 10
0.0
 20
0.0
 30
0.0
  3
block 24
  1

  0
SPLINE
  5
195
330
191
100
AcDbEntity
  8
_U+30EC_U+30A4_U+30E4_U+30FC 1
 62
   179
420
  2234388
370
     9
100
AcDbSpline
210
0.0
220
0.0
230
1.0
 70
    11
 71
     3
 72
    17
 73
    13
 74
     0
 42
0.0000000001
 43
0.0000000001
 12
1.0
 22
0.0
 32
0.0
 13
1.0
 23
0.0
 33
0.0
 40
0.0
 40
0.0
 40
0.0
 40
0.0
 40
1.0
 40
1.0
 40
1.0
 40
2.0
 40
2.0
 40
2.0
 40
3.0
 40
3.0
 40
3.0
 40
4.0
 40
4.0
 40
4.0
 40
4.0
 10
87.79308692687842
 20
-146.6870107966619
 30
0.0
 10
87.79308692687842
 20
-146.7069780188791
 30
0.0
 10
87.7772472050603
 20
-146.7228177410969
 30
0.0
 10
87.75724470557061
 20
-146.7228177410969
 30
0.0
 10
87.73798303939535
 20
-146.7228177410969
 30
0.0
 10
87.72210803980036
 20
-146.7069780188791
 30
0.0
 10
87.72210803980036
 20
-146.6870107966619
 30
0.0
 10
87.72210803980036
 20
-146.6677138522221
 30
0.0
 10
87.73798303939535
 20
-146.6518741300035
 30
0.0
 10
87.75724470557061
 20
-146.6518741300035
 30
0.0
 10
87.7772472050603
 20
-146.6518741300035
 30
0.0
 10
87.79308692687842
 20
-146.6677138522221
 30
0.0
 10
87.79308692687842
 20
-146.6870107966619
 30
0.0
  0
ENDBLK
  5
194
330
191
100
AcDbEntity
  8
0
100
AcDbBlockEnd
  0
BLOCK
  5
198
330
196
100
AcDbEntity
  8
0
100
AcDbBlockBegin
  2
block 25
 70
     0
 10
0.0
 20
0.0
 30
0.0
  3
block 25
  1

  0
POLYLINE
  5
19A
330
196
100
AcDbEntity
  8
_U+30EC_U+30A4_U+30E4_U+30FC 1
 62
   179
420
  2234388
370
     9
100
AcDb2dPolyline
 66
     1
 10
0.0
 20
0.0
 30
0.0
  0
VERTEX
  5
19B
330
19A
100
AcDbEntity
  8
_U+30EC_U+30A4_U+30E4_U+30FC 1
 62
   179
420
  2234388
370
     9
100
AcDbVertex
100
AcDb2dVertex
 10
77.75786664722726
 20
-146.6870107966619
 30
0.0
  0
VERTEX
  5
19C
330
19A
100
AcDbEntity
  8
_U+30EC_U+30A4_U+30E4_U+30FC 1
 62
   179
420
  2234388
370
     9
100
AcDbVertex
100
AcDb2dVertex
 10
87.75724470557061
 20
-146.6870107966619
 30
0.0
  0
SEQEND
  5
19D
330
19A
100
AcDbEntity
  8
_U+30EC_U+30A4_U+30E4_U+30FC 1
 62
   179
420
  2234388
370
     9
  0
POLYLINE
  5
19E
330
196
100
AcDbEntity
  8
_U+30EC_U+30A4_U+30E4_U+30FC 1
 62
   179
420
  2234388
370
     9
100
AcDb2dPolyline
 66
     1
 10
0.0
 20
0.0
 30
0.0
  0
VERTEX
  5
19F
330
19E
100
AcDbEntity
  8
_U+30EC_U+30A4_U+30E4_U+30FC 1
 62
   179
420
  2234388
370
     9
100
AcDbVertex
100
AcDb2dVertex
 10
77.75786664722726
 20
-145.2276396859155
 30
0.0
  0
VERTEX
  5
1A0
330
19E
100
AcDbEntity
  8
_U+30EC_U+30A4_U+30E4_U+30FC 1
 62
   179
420
  2234388
370
     9
100
AcDbVertex
100
AcDb2dVertex
 10
77.75786664722726
 20
-147.6874532964118
 30
0.0
  0
SEQEND
  5
1A1
330
19E
100
AcDbEntity
  8
_U+30EC_U+30A4_U+30E4_U+30FC 1
 62
   179
420
  2234388
370
     9
  0
INSERT
  5
1A3
330
196
100
AcDbEntity
  8
_U+30EC_U+30A4_U+30E4_U+30FC 1
100
AcDbBlockReference
  2
block 26
 10
0.0
 20
0.0
 30
0.0
  0
INSERT
  5
1AC
330
196
100
AcDbEntity
  8
_U+30EC_U+30A4_U+30E4_U+30FC 1
100
AcDbBlockReference
  2
block 27
 10
0.0
 20
0.0
 30
0.0
  0
INSERT
  5
1B1
330
196
100
AcDbEntity
  8
_U+30EC_U+30A4_U+30E4_U+30FC 1
100
AcDbBlockReference
  2
block 28
 10
0.0
 20
0.0
 30
0.0
  0
INSERT
  5
1B6
330
196
100
AcDbEntity
  8
_U+30EC_U+30A4_U+30E4_U+30FC 1
100
AcDbBlockReference
  2
block 29
 10
0.0
 20
0.0
 30
0.0
  0
ENDBLK
  5
199
330
196
100
AcDbEntity
  8
0
100
AcDbBlockEnd
  0
BLOCK
  5
1A4
330
1A2
100
AcDbEntity
  8
0
100
AcDbBlockBegin
  2
block 26
 70
     0
 10
0.0
 20
0.0
 30
0.0
  3
block 26
  1

  0
SPLINE
  5
1A6
330
1A2
100
AcDbEntity
  8
_U+30EC_U+30A4_U+30E4_U+30FC 1
370
     0
100
AcDbSpline
210
0.0
220
0.0
230
1.0
 70
    11
 71
     3
 72
    26
 73
    22
 74
     0
 42
0.0000000001
 43
0.0000000001
 12
1.0
 22
0.0
 32
0.0
 13
1.0
 23
0.0
 33
0.0
 40
0.0
 40
0.0
 40
0.0
 40
0.0
 40
1.0
 40
1.0
 40
1.0
 40
2.0
 40
2.0
 40
2.0
 40
3.0
 40
3.0
 40
3.0
 40
4.0
 40
4.0
 40
4.0
 40
5.0
 40
5.0
 40
5.0
 40
6.0
 40
6.0
 40
6.0
 40
7.0
 40
7.0
 40
7.0
 40
7.0
 10
82.12005206280332
 20
-146.3149278063032
 30
0.0
 10
82.12005206280332
 20
-146.3149278063032
 30
0.0
 10
82.12005206280332
 20
-145.2104301937321
 30
0.0
 10
82.12005206280332
 20
-145.2104301937321
 30
0.0
 10
82.12005206280332
 20
-145.2104301937321
 30
0.0
 10
81.79001191531638
 20
-145.2104301937321
 30
0.0
 10
81.79001191531638
 20
-145.2104301937321
 30
0.0
 10
81.79001191531638
 20
-145.2104301937321
 30
0.0
 10
81.79001191531638
 20
-145.0622910878664
 30
0.0
 10
81.79001191531638
 20
-145.0622910878664
 30
0.0
 10
82.12211912009447
 20
-145.0474771772798
 30
0.0
 10
82.16862790914534
 20
-144.884868670376
 30
0.0
 10
82.1982557303185
 20
-144.7704915002657
 30
0.0
 10
82.1982557303185
 20
-144.7704915002657
 30
0.0
 10
82.34415552411883
 20
-144.7704915002657
 30
0.0
 10
82.34415552411883
 20
-144.7704915002657
 30
0.0
 10
82.34415552411883
 20
-144.7704915002657
 30
0.0
 10
82.34415552411883
 20
-146.3149278063032
 30
0.0
 10
82.34415552411883
 20
-146.3149278063032
 30
0.0
 10
82.34415552411883
 20
-146.3149278063032
 30
0.0
 10
82.12005206280332
 20
-146.3149278063032
 30
0.0
 10
82.12005206280332
 20
-146.3149278063032
 30
0.0
  0
HATCH
  5
1A7
330
1A2
100
AcDbEntity
  8
_U+30EC_U+30A4_U+30E4_U+30FC 1
 62
   179
420
  2234388
100
AcDbHatch
 10
0.0
 20
0.0
 30
0.0
210
0.0
220
0.0
230
1.0
  2
SOLID
 70
     1
 71
     0
 91
        1
 92
        1
 93
        1
 72
     4
 94
        3
 73
     0
 74
     1
 95
       26
 96
       22
 40
0.0
 40
0.0
 40
0.0
 40
0.0
 40
1.0
 40
1.0
 40
1.0
 40
2.0
 40
2.0
 40
2.0
 40
3.0
 40
3.0
 40
3.0
 40
4.0
 40
4.0
 40
4.0
 40
5.0
 40
5.0
 40
5.0
 40
6.0
 40
6.0
 40
6.0
 40
7.0
 40
7.0
 40
7.0
 40
7.0
 10
82.12005206280332
 20
-146.3149278063032
 10
82.12005206280332
 20
-146.3149278063032
 10
82.12005206280332
 20
-145.2104301937321
 10
82.12005206280332
 20
-145.2104301937321
 10
82.12005206280332
 20
-145.2104301937321
 10
81.79001191531638
 20
-145.2104301937321
 10
81.79001191531638
 20
-145.2104301937321
 10
81.79001191531638
 20
-145.2104301937321
 10
81.79001191531638
 20
-145.0622910878664
 10
81.79001191531638
 20
-145.0622910878664
 10
82.12211912009447
 20
-145.0474771772798
 10
82.16862790914534
 20
-144.884868670376
 10
82.1982557303185
 20
-144.7704915002657
 10
82.1982557303185
 20
-144.7704915002657
 10
82.34415552411883
 20
-144.7704915002657
 10
82.34415552411883
 20
-144.7704915002657
 10
82.34415552411883
 20
-144.7704915002657
 10
82.34415552411883
 20
-146.3149278063032
 10
82.34415552411883
 20
-146.3149278063032
 10
82.34415552411883
 20
-146.3149278063032
 10
82.12005206280332
 20
-146.3149278063032
 10
82.12005206280332
 20
-146.3149278063032
 97
        0
 97
        0
 75
     2
 76
     1
 98
        0
  0
SPLINE
  5
1A8
330
1A2
100
AcDbEntity
  8
_U+30EC_U+30A4_U+30E4_U+30FC 1
370
     0
100
AcDbSpline
210
0.0
220
0.0
230
1.0
 70
    11
 71
     3
 72
    29
 73
    25
 74
     0
 42
0.0000000001
 43
0.0000000001
 12
1.0
 22
0.0
 32
0.0
 13
1.0
 23
0.0
 33
0.0
 40
0.0
 40
0.0
 40
0.0
 40
0.0
 40
1.0
 40
1.0
 40
1.0
 40
2.0
 40
2.0
 40
2.0
 40
3.0
 40
3.0
 40
3.0
 40
4.0
 40
4.0
 40
4.0
 40
5.0
 40
5.0
 40
5.0
 40
6.0
 40
6.0
 40
6.0
 40
7.0
 40
7.0
 40
7.0
 40
8.0
 40
8.0
 40
8.0
 40
8.0
 10
83.74320880067879
 20
-146.1371608792643
 30
0.0
 10
83.63537731199047
 20
-146.3466226847675
 30
0.0
 10
83.46191675430813
 20
-146.3655707099364
 30
0.0
 10
83.34547252690669
 20
-146.3655707099364
 30
0.0
 10
83.18475882251978
 20
-146.3655707099364
 30
0.0
 10
83.04299314330176
 20
-146.3190619208855
 30
0.0
 10
82.9477362531346
 20
-146.1371608792643
 30
0.0
 10
82.84421113380284
 20
-145.9425129843477
 30
0.0
 10
82.8250908538597
 20
-145.7054904149625
 30
0.0
 10
82.8250908538597
 20
-145.5425373985102
 30
0.0
 10
82.8250908538597
 20
-145.3988769167753
 30
0.0
 10
82.84197182173743
 20
-145.1470404368035
 30
0.0
 10
82.9477362531346
 20
-144.9482584273046
 30
0.0
 10
83.05573999659718
 20
-144.7449977936749
 30
0.0
 10
83.21645370098409
 20
-144.7219156539237
 30
0.0
 10
83.34547252690669
 20
-144.7219156539237
 30
0.0
 10
83.50411917400244
 20
-144.7219156539237
 30
0.0
 10
83.64795191051162
 20
-144.7663573856834
 30
0.0
 10
83.74320880067879
 20
-144.9482584273046
 30
0.0
 10
83.84259980542824
 20
-145.1408392649301
 30
0.0
 10
83.86585419995367
 20
-145.3692490956021
 30
0.0
 10
83.86585419995367
 20
-145.5425373985102
 30
0.0
 10
83.86585419995367
 20
-145.7141031536756
 30
0.0
 10
83.84483911749365
 20
-145.9445800416389
 30
0.0
 10
83.74320880067879
 20
-146.1371608792643
 30
0.0
  0
SPLINE
  5
1A9
330
1A2
100
AcDbEntity
  8
_U+30EC_U+30A4_U+30E4_U+30FC 1
370
     0
100
AcDbSpline
210
0.0
220
0.0
230
1.0
 70
    11
 71
     3
 72
    17
 73
    13
 74
     0
 42
0.0000000001
 43
0.0000000001
 12
1.0
 22
0.0
 32
0.0
 13
1.0
 23
0.0
 33
0.0
 40
0.0
 40
0.0
 40
0.0
 40
0.0
 40
1.0
 40
1.0
 40
1.0
 40
2.0
 40
2.0
 40
2.0
 40
3.0
 40
3.0
 40
3.0
 40
4.0
 40
4.0
 40
4.0
 40
4.0
 10
83.34547252690669
 20
-144.9144964915492
 30
0.0
 10
83.09587535900035
 20
-144.9144964915492
 30
0.0
 10
83.04936656994947
 20
-145.1976833404367
 30
0.0
 10
83.04936656994947
 20
-145.5425373985102
 30
0.0
 10
83.04936656994947
 20
-145.8618977499929
 30
0.0
 10
83.08536781777033
 20
-146.1709228150198
 30
0.0
 10
83.34547252690669
 20
-146.1709228150198
 30
0.0
 10
83.59300263752189
 20
-146.1709228150198
 30
0.0
 10
83.64175073863818
 20
-145.8894585138749
 30
0.0
 10
83.64175073863818
 20
-145.5425373985102
 30
0.0
 10
83.64175073863818
 20
-145.2231770470275
 30
0.0
 10
83.6035101787519
 20
-144.9144964915492
 30
0.0
 10
83.34547252690669
 20
-144.9144964915492
 30
0.0
  0
HATCH
  5
1AA
330
1A2
100
AcDbEntity
  8
_U+30EC_U+30A4_U+30E4_U+30FC 1
 62
   179
420
  2234388
100
AcDbHatch
 10
0.0
 20
0.0
 30
0.0
210
0.0
220
0.0
230
1.0
  2
SOLID
 70
     1
 71
     0
 91
        2
 92
        1
 93
        1
 72
     4
 94
        3
 73
     0
 74
     1
 95
       29
 96
       25
 40
0.0
 40
0.0
 40
0.0
 40
0.0
 40
1.0
 40
1.0
 40
1.0
 40
2.0
 40
2.0
 40
2.0
 40
3.0
 40
3.0
 40
3.0
 40
4.0
 40
4.0
 40
4.0
 40
5.0
 40
5.0
 40
5.0
 40
6.0
 40
6.0
 40
6.0
 40
7.0
 40
7.0
 40
7.0
 40
8.0
 40
8.0
 40
8.0
 40
8.0
 10
83.74320880067879
 20
-146.1371608792643
 10
83.63537731199047
 20
-146.3466226847675
 10
83.46191675430813
 20
-146.3655707099364
 10
83.34547252690669
 20
-146.3655707099364
 10
83.18475882251978
 20
-146.3655707099364
 10
83.04299314330176
 20
-146.3190619208855
 10
82.9477362531346
 20
-146.1371608792643
 10
82.84421113380284
 20
-145.9425129843477
 10
82.8250908538597
 20
-145.7054904149625
 10
82.8250908538597
 20
-145.5425373985102
 10
82.8250908538597
 20
-145.3988769167753
 10
82.84197182173743
 20
-145.1470404368035
 10
82.9477362531346
 20
-144.9482584273046
 10
83.05573999659718
 20
-144.7449977936749
 10
83.21645370098409
 20
-144.7219156539237
 10
83.34547252690669
 20
-144.7219156539237
 10
83.50411917400244
 20
-144.7219156539237
 10
83.64795191051162
 20
-144.7663573856834
 10
83.74320880067879
 20
-144.9482584273046
 10
83.84259980542824
 20
-145.1408392649301
 10
83.86585419995367
 20
-145.3692490956021
 10
83.86585419995367
 20
-145.5425373985102
 10
83.86585419995367
 20
-145.7141031536756
 10
83.84483911749365
 20
-145.9445800416389
 10
83.74320880067879
 20
-146.1371608792643
 97
        0
 97
        0
 92
        1
 93
        1
 72
     4
 94
        3
 73
     0
 74
     1
 95
       17
 96
       13
 40
0.0
 40
0.0
 40
0.0
 40
0.0
 40
1.0
 40
1.0
 40
1.0
 40
2.0
 40
2.0
 40
2.0
 40
3.0
 40
3.0
 40
3.0
 40
4.0
 40
4.0
 40
4.0
 40
4.0
 10
83.34547252690669
 20
-144.9144964915492
 10
83.09587535900035
 20
-144.9144964915492
 10
83.04936656994947
 20
-145.1976833404367
 10
83.04936656994947
 20
-145.5425373985102
 10
83.04936656994947
 20
-145.8618977499929
 10
83.08536781777033
 20
-146.1709228150198
 10
83.34547252690669
 20
-146.1709228150198
 10
83.59300263752189
 20
-146.1709228150198
 10
83.64175073863818
 20
-145.8894585138749
 10
83.64175073863818
 20
-145.5425373985102
 10
83.64175073863818
 20
-145.2231770470275
 10
83.6035101787519
 20
-144.9144964915492
 10
83.34547252690669
 20
-144.9144964915492
 97
        0
 97
        0
 75
     2
 76
     1
 98
        0
  0
ENDBLK
  5
1A5
330
1A2
100
AcDbEntity
  8
0
100
AcDbBlockEnd
  0
BLOCK
  5
1AD
330
1AB
100
AcDbEntity
  8
0
100
AcDbBlockBegin
  2
block 27
 70
     0
 10
0.0
 20
0.0
 30
0.0
  3
block 27
  1

  0
SPLINE
  5
1AF
330
1AB
100
AcDbEntity
  8
_U+30EC_U+30A4_U+30E4_U+30FC 1
 62
   179
420
  2234388
370
    25
100
AcDbSpline
210
0.0
220
0.0
230
1.0
 70
    11
 71
     3
 72
    17
 73
    13
 74
     0
 42
0.0000000001
 43
0.0000000001
 12
1.0
 22
0.0
 32
0.0
 13
1.0
 23
0.0
 33
0.0
 40
0.0
 40
0.0
 40
0.0
 40
0.0
 40
1.0
 40
1.0
 40
1.0
 40
2.0
 40
2.0
 40
2.0
 40
3.0
 40
3.0
 40
3.0
 40
4.0
 40
4.0
 40
4.0
 40
4.0
 10
77.79300134866853
 20
-142.687251630995
 30
0.0
 10
77.79300134866853
 20
-142.7065485754342
 30
0.0
 10
77.77716162685041
 20
-142.7223882976527
 30
0.0
 10
77.75786664722726
 20
-142.7223882976527
 30
0.0
 10
77.73789746118545
 20
-142.7223882976527
 30
0.0
 10
77.72205773936733
 20
-142.7065485754342
 30
0.0
 10
77.72205773936733
 20
-142.687251630995
 30
0.0
 10
77.72205773936733
 20
-142.6679546865552
 30
0.0
 10
77.73789746118545
 20
-142.6521149643373
 30
0.0
 10
77.75786664722726
 20
-142.6521149643373
 30
0.0
 10
77.77716162685041
 20
-142.6521149643373
 30
0.0
 10
77.79300134866853
 20
-142.6679546865552
 30
0.0
 10
77.79300134866853
 20
-142.687251630995
 30
0.0
  0
ENDBLK
  5
1AE
330
1AB
100
AcDbEntity
  8
0
100
AcDbBlockEnd
  0
BLOCK
  5
1B2
330
1B0
100
AcDbEntity
  8
0
100
AcDbBlockBegin
  2
block 28
 70
     0
 10
0.0
 20
0.0
 30
0.0
  3
block 28
  1

  0
SPLINE
  5
1B4
330
1B0
100
AcDbEntity
  8
_U+30EC_U+30A4_U+30E4_U+30FC 1
 62
   179
420
  2234388
370
    25
100
AcDbSpline
210
0.0
220
0.0
230
1.0
 70
    11
 71
     3
 72
    17
 73
    13
 74
     0
 42
0.0000000001
 43
0.0000000001
 12
1.0
 22
0.0
 32
0.0
 13
1.0
 23
0.0
 33
0.0
 40
0.0
 40
0.0
 40
0.0
 40
0.0
 40
1.0
 40
1.0
 40
1.0
 40
2.0
 40
2.0
 40
2.0
 40
3.0
 40
3.0
 40
3.0
 40
4.0
 40
4.0
 40
4.0
 40
4.0
 10
87.79308692687842
 20
-142.687251630995
 30
0.0
 10
87.79308692687842
 20
-142.7065485754342
 30
0.0
 10
87.7772472050603
 20
-142.7223882976527
 30
0.0
 10
87.75724470557061
 20
-142.7223882976527
 30
0.0
 10
87.73798303939535
 20
-142.7223882976527
 30
0.0
 10
87.72210803980036
 20
-142.7065485754342
 30
0.0
 10
87.72210803980036
 20
-142.687251630995
 30
0.0
 10
87.72210803980036
 20
-142.6679546865552
 30
0.0
 10
87.73798303939535
 20
-142.6521149643373
 30
0.0
 10
87.75724470557061
 20
-142.6521149643373
 30
0.0
 10
87.7772472050603
 20
-142.6521149643373
 30
0.0
 10
87.79308692687842
 20
-142.6679546865552
 30
0.0
 10
87.79308692687842
 20
-142.687251630995
 30
0.0
  0
ENDBLK
  5
1B3
330
1B0
100
AcDbEntity
  8
0
100
AcDbBlockEnd
  0
BLOCK
  5
1B7
330
1B5
100
AcDbEntity
  8
0
100
AcDbBlockBegin
  2
block 29
 70
     0
 10
0.0
 20
0.0
 30
0.0
  3
block 29
  1

  0
SPLINE
  5
1B9
330
1B5
100
AcDbEntity
  8
_U+30EC_U+30A4_U+30E4_U+30FC 1
 62
   179
420
  2234388
370
     9
100
AcDbSpline
210
0.0
220
0.0
230
1.0
 70
    11
 71
     3
 72
    17
 73
    13
 74
     0
 42
0.0000000001
 43
0.0000000001
 12
1.0
 22
0.0
 32
0.0
 13
1.0
 23
0.0
 33
0.0
 40
0.0
 40
0.0
 40
0.0
 40
0.0
 40
1.0
 40
1.0
 40
1.0
 40
2.0
 40
2.0
 40
2.0
 40
3.0
 40
3.0
 40
3.0
 40
4.0
 40
4.0
 40
4.0
 40
4.0
 10
87.79308692687842
 20
-146.6870107966619
 30
0.0
 10
87.79308692687842
 20
-146.7069780188791
 30
0.0
 10
87.7772472050603
 20
-146.7228177410969
 30
0.0
 10
87.75724470557061
 20
-146.7228177410969
 30
0.0
 10
87.73798303939535
 20
-146.7228177410969
 30
0.0
 10
87.72210803980036
 20
-146.7069780188791
 30
0.0
 10
87.72210803980036
 20
-146.6870107966619
 30
0.0
 10
87.72210803980036
 20
-146.6677138522221
 30
0.0
 10
87.73798303939535
 20
-146.6518741300035
 30
0.0
 10
87.75724470557061
 20
-146.6518741300035
 30
0.0
 10
87.7772472050603
 20
-146.6518741300035
 30
0.0
 10
87.79308692687842
 20
-146.6677138522221
 30
0.0
 10
87.79308692687842
 20
-146.6870107966619
 30
0.0
  0
ENDBLK
  5
1B8
330
1B5
100
AcDbEntity
  8
0
100
AcDbBlockEnd
  0
BLOCK
  5
1BC
330
1BA
100
AcDbEntity
  8
0
100
AcDbBlockBegin
  2
block 30
 70
     0
 10
0.0
 20
0.0
 30
0.0
  3
block 30
  1

  0
POLYLINE
  5
1BE
330
1BA
100
AcDbEntity
  8
_U+30EC_U+30A4_U+30E4_U+30FC 1
 62
   179
420
  2234388
370
     9
100
AcDb2dPolyline
 66
     1
 10
0.0
 20
0.0
 30
0.0
  0
VERTEX
  5
1BF
330
1BE
100
AcDbEntity
  8
_U+30EC_U+30A4_U+30E4_U+30FC 1
 62
   179
420
  2234388
370
     9
100
AcDbVertex
100
AcDb2dVertex
 10
73.75743534051328
 20
-138.6874924653281
 30
0.0
  0
VERTEX
  5
1C0
330
1BE
100
AcDbEntity
  8
_U+30EC_U+30A4_U+30E4_U+30FC 1
 62
   179
420
  2234388
370
     9
100
AcDbVertex
100
AcDb2dVertex
 10
73.75743534051328
 20
-142.687251630995
 30
0.0
  0
SEQEND
  5
1C1
330
1BE
100
AcDbEntity
  8
_U+30EC_U+30A4_U+30E4_U+30FC 1
 62
   179
420
  2234388
370
     9
  0
POLYLINE
  5
1C2
330
1BA
100
AcDbEntity
  8
_U+30EC_U+30A4_U+30E4_U+30FC 1
 62
   179
420
  2234388
370
     9
100
AcDb2dPolyline
 66
     1
 10
0.0
 20
0.0
 30
0.0
  0
VERTEX
  5
1C3
330
1C2
100
AcDbEntity
  8
_U+30EC_U+30A4_U+30E4_U+30FC 1
 62
   179
420
  2234388
370
     9
100
AcDbVertex
100
AcDb2dVertex
 10
75.21744141437654
 20
-138.6874924653281
 30
0.0
  0
VERTEX
  5
1C4
330
1C2
100
AcDbEntity
  8
_U+30EC_U+30A4_U+30E4_U+30FC 1
 62
   179
420
  2234388
370
     9
100
AcDbVertex
100
AcDb2dVertex
 10
72.75766314379737
 20
-138.6874924653281
 30
0.0
  0
SEQEND
  5
1C5
330
1C2
100
AcDbEntity
  8
_U+30EC_U+30A4_U+30E4_U+30FC 1
 62
   179
420
  2234388
370
     9
  0
POLYLINE
  5
1C6
330
1BA
100
AcDbEntity
  8
_U+30EC_U+30A4_U+30E4_U+30FC 1
 62
   179
420
  2234388
370
     9
100
AcDb2dPolyline
 66
     1
 10
0.0
 20
0.0
 30
0.0
  0
VERTEX
  5
1C7
330
1C6
100
AcDbEntity
  8
_U+30EC_U+30A4_U+30E4_U+30FC 1
 62
   179
420
  2234388
370
     9
100
AcDbVertex
100
AcDb2dVertex
 10
75.21744141437654
 20
-142.687251630995
 30
0.0
  0
VERTEX
  5
1C8
330
1C6
100
AcDbEntity
  8
_U+30EC_U+30A4_U+30E4_U+30FC 1
 62
   179
420
  2234388
370
     9
100
AcDbVertex
100
AcDb2dVertex
 10
72.75766314379737
 20
-142.687251630995
 30
0.0
  0
SEQEND
  5
1C9
330
1C6
100
AcDbEntity
  8
_U+30EC_U+30A4_U+30E4_U+30FC 1
 62
   179
420
  2234388
370
     9
  0
INSERT
  5
1CB
330
1BA
100
AcDbEntity
  8
_U+30EC_U+30A4_U+30E4_U+30FC 1
100
AcDbBlockReference
  2
block 31
 10
0.0
 20
0.0
 30
0.0
  0
INSERT
  5
1E4
330
1BA
100
AcDbEntity
  8
_U+30EC_U+30A4_U+30E4_U+30FC 1
100
AcDbBlockReference
  2
block 32
 10
0.0
 20
0.0
 30
0.0
  0
INSERT
  5
1E9
330
1BA
100
AcDbEntity
  8
_U+30EC_U+30A4_U+30E4_U+30FC 1
100
AcDbBlockReference
  2
block 33
 10
0.0
 20
0.0
 30
0.0
  0
INSERT
  5
1EE
330
1BA
100
AcDbEntity
  8
_U+30EC_U+30A4_U+30E4_U+30FC 1
100
AcDbBlockReference
  2
block 34
 10
0.0
 20
0.0
 30
0.0
  0
ENDBLK
  5
1BD
330
1BA
100
AcDbEntity
  8
0
100
AcDbBlockEnd
  0
BLOCK
  5
1CC
330
1CA
100
AcDbEntity
  8
0
100
AcDbBlockBegin
  2
block 31
 70
     0
 10
0.0
 20
0.0
 30
0.0
  3
block 31
  1

  0
POLYLINE
  5
1CE
330
1CA
100
AcDbEntity
  8
_U+30EC_U+30A4_U+30E4_U+30FC 1
370
     0
100
AcDb2dPolyline
 66
     1
 10
0.0
 20
0.0
 30
0.0
  0
VERTEX
  5
1CF
330
1CE
100
AcDbEntity
  8
_U+30EC_U+30A4_U+30E4_U+30FC 1
370
     0
100
AcDbVertex
100
AcDb2dVertex
 10
73.0380913445877
 20
-140.3552571263695
 30
0.0
  0
VERTEX
  5
1D0
330
1CE
100
AcDbEntity
  8
_U+30EC_U+30A4_U+30E4_U+30FC 1
370
     0
100
AcDbVertex
100
AcDb2dVertex
 10
73.38501245995236
 20
-140.3552571263695
 30
0.0
  0
VERTEX
  5
1D1
330
1CE
100
AcDbEntity
  8
_U+30EC_U+30A4_U+30E4_U+30FC 1
370
     0
100
AcDbVertex
100
AcDb2dVertex
 10
73.38501245995236
 20
-140.5733316705858
 30
0.0
  0
VERTEX
  5
1D2
330
1CE
100
AcDbEntity
  8
_U+30EC_U+30A4_U+30E4_U+30FC 1
370
     0
100
AcDbVertex
100
AcDb2dVertex
 10
73.0380913445877
 20
-140.5733316705858
 30
0.0
  0
VERTEX
  5
1D3
330
1CE
100
AcDbEntity
  8
_U+30EC_U+30A4_U+30E4_U+30FC 1
370
     0
100
AcDbVertex
100
AcDb2dVertex
 10
73.0380913445877
 20
-141.2289333414289
 30
0.0
  0
VERTEX
  5
1D4
330
1CE
100
AcDbEntity
  8
_U+30EC_U+30A4_U+30E4_U+30FC 1
370
     0
100
AcDbVertex
100
AcDb2dVertex
 10
72.81381562849793
 20
-141.2289333414289
 30
0.0
  0
VERTEX
  5
1D5
330
1CE
100
AcDbEntity
  8
_U+30EC_U+30A4_U+30E4_U+30FC 1
370
     0
100
AcDbVertex
100
AcDb2dVertex
 10
71.84074840868912
 20
-140.5499050212862
 30
0.0
  0
VERTEX
  5
1D6
330
1CE
100
AcDbEntity
  8
_U+30EC_U+30A4_U+30E4_U+30FC 1
370
     0
100
AcDbVertex
100
AcDb2dVertex
 10
71.84074840868912
 20
-140.3552571263695
 30
0.0
  0
VERTEX
  5
1D7
330
1CE
100
AcDbEntity
  8
_U+30EC_U+30A4_U+30E4_U+30FC 1
370
     0
100
AcDbVertex
100
AcDb2dVertex
 10
72.83930933508879
 20
-140.3552571263695
 30
0.0
  0
VERTEX
  5
1D8
330
1CE
100
AcDbEntity
  8
_U+30EC_U+30A4_U+30E4_U+30FC 1
370
     0
100
AcDbVertex
100
AcDb2dVertex
 10
72.83930933508879
 20
-140.148206887706
 30
0.0
  0
VERTEX
  5
1D9
330
1CE
100
AcDbEntity
  8
_U+30EC_U+30A4_U+30E4_U+30FC 1
370
     0
100
AcDbVertex
100
AcDb2dVertex
 10
73.0380913445877
 20
-140.148206887706
 30
0.0
  0
VERTEX
  5
1DA
330
1CE
100
AcDbEntity
  8
_U+30EC_U+30A4_U+30E4_U+30FC 1
370
     0
100
AcDbVertex
100
AcDb2dVertex
 10
73.0380913445877
 20
-140.3552571263695
 30
0.0
  0
SEQEND
  5
1DB
330
1CE
100
AcDbEntity
  8
_U+30EC_U+30A4_U+30E4_U+30FC 1
370
     0
  0
POLYLINE
  5
1DC
330
1CA
100
AcDbEntity
  8
_U+30EC_U+30A4_U+30E4_U+30FC 1
370
     0
100
AcDb2dPolyline
 66
     1
 10
0.0
 20
0.0
 30
0.0
  0
VERTEX
  5
1DD
330
1DC
100
AcDbEntity
  8
_U+30EC_U+30A4_U+30E4_U+30FC 1
370
     0
100
AcDbVertex
100
AcDb2dVertex
 10
72.18336315469722
 20
-140.5733316705858
 30
0.0
  0
VERTEX
  5
1DE
330
1DC
100
AcDbEntity
  8
_U+30EC_U+30A4_U+30E4_U+30FC 1
370
     0
100
AcDbVertex
100
AcDb2dVertex
 10
72.83930933508879
 20
-141.03015133193
 30
0.0
  0
VERTEX
  5
1DF
330
1DC
100
AcDbEntity
  8
_U+30EC_U+30A4_U+30E4_U+30FC 1
370
     0
100
AcDbVertex
100
AcDb2dVertex
 10
72.83930933508879
 20
-140.5733316705858
 30
0.0
  0
VERTEX
  5
1E0
330
1DC
100
AcDbEntity
  8
_U+30EC_U+30A4_U+30E4_U+30FC 1
370
     0
100
AcDbVertex
100
AcDb2dVertex
 10
72.18336315469722
 20
-140.5733316705858
 30
0.0
  0
SEQEND
  5
1E1
330
1DC
100
AcDbEntity
  8
_U+30EC_U+30A4_U+30E4_U+30FC 1
370
     0
  0
HATCH
  5
1E2
330
1CA
100
AcDbEntity
  8
_U+30EC_U+30A4_U+30E4_U+30FC 1
 62
   179
420
  2234388
100
AcDbHatch
 10
0.0
 20
0.0
 30
0.0
210
0.0
220
0.0
230
1.0
  2
SOLID
 70
     1
 71
     0
 91
        2
 92
        1
 93
       11
 72
     1
 10
73.0380913445877
 20
-140.3552571263695
 11
73.38501245995236
 21
-140.3552571263695
 72
     1
 10
73.38501245995236
 20
-140.3552571263695
 11
73.38501245995236
 21
-140.5733316705858
 72
     1
 10
73.38501245995236
 20
-140.5733316705858
 11
73.0380913445877
 21
-140.5733316705858
 72
     1
 10
73.0380913445877
 20
-140.5733316705858
 11
73.0380913445877
 21
-141.2289333414289
 72
     1
 10
73.0380913445877
 20
-141.2289333414289
 11
72.81381562849793
 21
-141.2289333414289
 72
     1
 10
72.81381562849793
 20
-141.2289333414289
 11
71.84074840868912
 21
-140.5499050212862
 72
     1
 10
71.84074840868912
 20
-140.5499050212862
 11
71.84074840868912
 21
-140.3552571263695
 72
     1
 10
71.84074840868912
 20
-140.3552571263695
 11
72.83930933508879
 21
-140.3552571263695
 72
     1
 10
72.83930933508879
 20
-140.3552571263695
 11
72.83930933508879
 21
-140.148206887706
 72
     1
 10
72.83930933508879
 20
-140.148206887706
 11
73.0380913445877
 21
-140.148206887706
 72
     1
 10
73.0380913445877
 20
-140.148206887706
 11
73.0380913445877
 21
-140.3552571263695
 97
        0
 92
        1
 93
        3
 72
     1
 10
72.18336315469722
 20
-140.5733316705858
 11
72.83930933508879
 21
-141.03015133193
 72
     1
 10
72.83930933508879
 20
-141.03015133193
 11
72.83930933508879
 21
-140.5733316705858
 72
     1
 10
72.83930933508879
 20
-140.5733316705858
 11
72.18336315469722
 21
-140.5733316705858
 97
        0
 75
     2
 76
     1
 98
        0
  0
ENDBLK
  5
1CD
330
1CA
100
AcDbEntity
  8
0
100
AcDbBlockEnd
  0
BLOCK
  5
1E5
330
1E3
100
AcDbEntity
  8
0
100
AcDbBlockBegin
  2
block 32
 70
     0
 10
0.0
 20
0.0
 30
0.0
  3
block 32
  1

  0
SPLINE
  5
1E7
330
1E3
100
AcDbEntity
  8
_U+30EC_U+30A4_U+30E4_U+30FC 1
 62
   179
420
  2234388
370
    25
100
AcDbSpline
210
0.0
220
0.0
230
1.0
 70
    11
 71
     3
 72
    17
 73
    13
 74
     0
 42
0.0000000001
 43
0.0000000001
 12
1.0
 22
0.0
 32
0.0
 13
1.0
 23
0.0
 33
0.0
 40
0.0
 40
0.0
 40
0.0
 40
0.0
 40
1.0
 40
1.0
 40
1.0
 40
2.0
 40
2.0
 40
2.0
 40
3.0
 40
3.0
 40
3.0
 40
4.0
 40
4.0
 40
4.0
 40
4.0
 10
77.79300134866853
 20
-138.6874924653281
 30
0.0
 10
77.79300134866853
 20
-138.7067894097679
 30
0.0
 10
77.77716162685041
 20
-138.7226291319858
 30
0.0
 10
77.75786664722726
 20
-138.7226291319858
 30
0.0
 10
77.73789746118545
 20
-138.7226291319858
 30
0.0
 10
77.72205773936733
 20
-138.7067894097679
 30
0.0
 10
77.72205773936733
 20
-138.6874924653281
 30
0.0
 10
77.72205773936733
 20
-138.6674899653334
 30
0.0
 10
77.73789746118545
 20
-138.6523557986704
 30
0.0
 10
77.75786664722726
 20
-138.6523557986704
 30
0.0
 10
77.77716162685041
 20
-138.6523557986704
 30
0.0
 10
77.79300134866853
 20
-138.6674899653334
 30
0.0
 10
77.79300134866853
 20
-138.6874924653281
 30
0.0
  0
ENDBLK
  5
1E6
330
1E3
100
AcDbEntity
  8
0
100
AcDbBlockEnd
  0
BLOCK
  5
1EA
330
1E8
100
AcDbEntity
  8
0
100
AcDbBlockBegin
  2
block 33
 70
     0
 10
0.0
 20
0.0
 30
0.0
  3
block 33
  1

  0
SPLINE
  5
1EC
330
1E8
100
AcDbEntity
  8
_U+30EC_U+30A4_U+30E4_U+30FC 1
 62
   179
420
  2234388
370
    25
100
AcDbSpline
210
0.0
220
0.0
230
1.0
 70
    11
 71
     3
 72
    17
 73
    13
 74
     0
 42
0.0000000001
 43
0.0000000001
 12
1.0
 22
0.0
 32
0.0
 13
1.0
 23
0.0
 33
0.0
 40
0.0
 40
0.0
 40
0.0
 40
0.0
 40
1.0
 40
1.0
 40
1.0
 40
2.0
 40
2.0
 40
2.0
 40
3.0
 40
3.0
 40
3.0
 40
4.0
 40
4.0
 40
4.0
 40
4.0
 10
77.79300134866853
 20
-142.687251630995
 30
0.0
 10
77.79300134866853
 20
-142.7065485754342
 30
0.0
 10
77.77716162685041
 20
-142.7223882976527
 30
0.0
 10
77.75786664722726
 20
-142.7223882976527
 30
0.0
 10
77.73789746118545
 20
-142.7223882976527
 30
0.0
 10
77.72205773936733
 20
-142.7065485754342
 30
0.0
 10
77.72205773936733
 20
-142.687251630995
 30
0.0
 10
77.72205773936733
 20
-142.6679546865552
 30
0.0
 10
77.73789746118545
 20
-142.6521149643373
 30
0.0
 10
77.75786664722726
 20
-142.6521149643373
 30
0.0
 10
77.77716162685041
 20
-142.6521149643373
 30
0.0
 10
77.79300134866853
 20
-142.6679546865552
 30
0.0
 10
77.79300134866853
 20
-142.687251630995
 30
0.0
  0
ENDBLK
  5
1EB
330
1E8
100
AcDbEntity
  8
0
100
AcDbBlockEnd
  0
BLOCK
  5
1EF
330
1ED
100
AcDbEntity
  8
0
100
AcDbBlockBegin
  2
block 34
 70
     0
 10
0.0
 20
0.0
 30
0.0
  3
block 34
  1

  0
SPLINE
  5
1F1
330
1ED
100
AcDbEntity
  8
_U+30EC_U+30A4_U+30E4_U+30FC 1
 62
   179
420
  2234388
370
     9
100
AcDbSpline
210
0.0
220
0.0
230
1.0
 70
    11
 71
     3
 72
    17
 73
    13
 74
     0
 42
0.0000000001
 43
0.0000000001
 12
1.0
 22
0.0
 32
0.0
 13
1.0
 23
0.0
 33
0.0
 40
0.0
 40
0.0
 40
0.0
 40
0.0
 40
1.0
 40
1.0
 40
1.0
 40
2.0
 40
2.0
 40
2.0
 40
3.0
 40
3.0
 40
3.0
 40
4.0
 40
4.0
 40
4.0
 40
4.0
 10
73.79257200628354
 20
-142.687251630995
 30
0.0
 10
73.79257200628354
 20
-142.7065485754342
 30
0.0
 10
73.77673228446542
 20
-142.7223882976527
 30
0.0
 10
73.75743534051328
 20
-142.7223882976527
 30
0.0
 10
73.73813839656114
 20
-142.7223882976527
 30
0.0
 10
73.72229867474303
 20
-142.7065485754342
 30
0.0
 10
73.72229867474303
 20
-142.687251630995
 30
0.0
 10
73.72229867474303
 20
-142.6679546865552
 30
0.0
 10
73.73813839656114
 20
-142.6521149643373
 30
0.0
 10
73.75743534051328
 20
-142.6521149643373
 30
0.0
 10
73.77673228446542
 20
-142.6521149643373
 30
0.0
 10
73.79257200628354
 20
-142.6679546865552
 30
0.0
 10
73.79257200628354
 20
-142.687251630995
 30
0.0
  0
ENDBLK
  5
1F0
330
1ED
100
AcDbEntity
  8
0
100
AcDbBlockEnd
  0
BLOCK
  5
1F4
330
1F2
100
AcDbEntity
  8
0
100
AcDbBlockBegin
  2
block 35
 70
     0
 10
0.0
 20
0.0
 30
0.0
  3
block 35
  1

  0
POLYLINE
  5
1F6
330
1F2
100
AcDbEntity
  8
_U+30EC_U+30A4_U+30E4_U+30FC 1
 62
   179
420
  2234388
370
     9
100
AcDb2dPolyline
 66
     1
 10
0.0
 20
0.0
 30
0.0
  0
VERTEX
  5
1F7
330
1F6
100
AcDbEntity
  8
_U+30EC_U+30A4_U+30E4_U+30FC 1
 62
   179
420
  2234388
370
     9
100
AcDbVertex
100
AcDb2dVertex
 10
73.75743534051328
 20
-138.6874924653281
 30
0.0
  0
VERTEX
  5
1F8
330
1F6
100
AcDbEntity
  8
_U+30EC_U+30A4_U+30E4_U+30FC 1
 62
   179
420
  2234388
370
     9
100
AcDbVertex
100
AcDb2dVertex
 10
73.75743534051328
 20
-116.1875727487308
 30
0.0
  0
SEQEND
  5
1F9
330
1F6
100
AcDbEntity
  8
_U+30EC_U+30A4_U+30E4_U+30FC 1
 62
   179
420
  2234388
370
     9
  0
POLYLINE
  5
1FA
330
1F2
100
AcDbEntity
  8
_U+30EC_U+30A4_U+30E4_U+30FC 1
 62
   179
420
  2234388
370
     9
100
AcDb2dPolyline
 66
     1
 10
0.0
 20
0.0
 30
0.0
  0
VERTEX
  5
1FB
330
1FA
100
AcDbEntity
  8
_U+30EC_U+30A4_U+30E4_U+30FC 1
 62
   179
420
  2234388
370
     9
100
AcDbVertex
100
AcDb2dVertex
 10
87.96739442243147
 20
-116.1875727487308
 30
0.0
  0
VERTEX
  5
1FC
330
1FA
100
AcDbEntity
  8
_U+30EC_U+30A4_U+30E4_U+30FC 1
 62
   179
420
  2234388
370
     9
100
AcDbVertex
100
AcDb2dVertex
 10
72.75766314379737
 20
-116.1875727487308
 30
0.0
  0
SEQEND
  5
1FD
330
1FA
100
AcDbEntity
  8
_U+30EC_U+30A4_U+30E4_U+30FC 1
 62
   179
420
  2234388
370
     9
  0
INSERT
  5
1FF
330
1F2
100
AcDbEntity
  8
_U+30EC_U+30A4_U+30E4_U+30FC 1
100
AcDbBlockReference
  2
block 36
 10
0.0
 20
0.0
 30
0.0
  0
INSERT
  5
211
330
1F2
100
AcDbEntity
  8
_U+30EC_U+30A4_U+30E4_U+30FC 1
100
AcDbBlockReference
  2
block 37
 10
0.0
 20
0.0
 30
0.0
  0
INSERT
  5
216
330
1F2
100
AcDbEntity
  8
_U+30EC_U+30A4_U+30E4_U+30FC 1
100
AcDbBlockReference
  2
block 38
 10
0.0
 20
0.0
 30
0.0
  0
INSERT
  5
21B
330
1F2
100
AcDbEntity
  8
_U+30EC_U+30A4_U+30E4_U+30FC 1
100
AcDbBlockReference
  2
block 39
 10
0.0
 20
0.0
 30
0.0
  0
ENDBLK
  5
1F5
330
1F2
100
AcDbEntity
  8
0
100
AcDbBlockEnd
  0
BLOCK
  5
200
330
1FE
100
AcDbEntity
  8
0
100
AcDbBlockBegin
  2
block 36
 70
     0
 10
0.0
 20
0.0
 30
0.0
  3
block 36
  1

  0
SPLINE
  5
202
330
1FE
100
AcDbEntity
  8
_U+30EC_U+30A4_U+30E4_U+30FC 1
370
     0
100
AcDbSpline
210
0.0
220
0.0
230
1.0
 70
    11
 71
     3
 72
    44
 73
    40
 74
     0
 42
0.0000000001
 43
0.0000000001
 12
1.0
 22
0.0
 32
0.0
 13
1.0
 23
0.0
 33
0.0
 40
0.0
 40
0.0
 40
0.0
 40
0.0
 40
1.0
 40
1.0
 40
1.0
 40
2.0
 40
2.0
 40
2.0
 40
3.0
 40
3.0
 40
3.0
 40
4.0
 40
4.0
 40
4.0
 40
5.0
 40
5.0
 40
5.0
 40
6.0
 40
6.0
 40
6.0
 40
7.0
 40
7.0
 40
7.0
 40
8.0
 40
8.0
 40
8.0
 40
9.0
 40
9.0
 40
9.0
 40
10.0
 40
10.0
 40
10.0
 40
11.0
 40
11.0
 40
11.0
 40
12.0
 40
12.0
 40
12.0
 40
13.0
 40
13.0
 40
13.0
 40
13.0
 10
72.80330808726792
 20
-128.7952392256137
 30
0.0
 10
72.96195473436369
 20
-129.01331376983
 30
0.0
 10
73.03602428729656
 20
-129.1063313479318
 30
0.0
 10
73.17985702380574
 20
-129.1549071942738
 30
0.0
 10
73.17985702380574
 20
-129.1549071942738
 30
0.0
 10
73.17985702380574
 20
-128.3764878693816
 30
0.0
 10
73.17985702380574
 20
-128.3764878693816
 30
0.0
 10
73.17985702380574
 20
-128.3764878693816
 30
0.0
 10
73.38501245995236
 20
-128.3764878693816
 30
0.0
 10
73.38501245995236
 20
-128.3764878693816
 30
0.0
 10
73.38501245995236
 20
-128.3764878693816
 30
0.0
 10
73.38501245995236
 20
-129.4046766169544
 30
0.0
 10
73.38501245995236
 20
-129.4046766169544
 30
0.0
 10
73.02758380335769
 20
-129.3729817384901
 30
0.0
 10
72.94920788106826
 20
-129.3071804147218
 30
0.0
 10
72.65103486681988
 20
-128.9223632490194
 30
0.0
 10
72.4520806025467
 20
-128.6663926544653
 30
0.0
 10
72.38438447626154
 20
-128.6007635854714
 30
0.0
 10
72.24692516640008
 20
-128.6007635854714
 30
0.0
 10
72.12841388170749
 20
-128.6007635854714
 30
0.0
 10
71.99732799849373
 20
-128.6727660811131
 30
0.0
 10
71.99732799849373
 20
-128.8693087785466
 30
0.0
 10
71.99732799849373
 20
-129.1297579972315
 30
0.0
 10
72.22780488645694
 20
-129.1380262263961
 30
0.0
 10
72.34424911385838
 20
-129.1421603409784
 30
0.0
 10
72.34424911385838
 20
-129.1421603409784
 30
0.0
 10
72.34424911385838
 20
-129.3664360570681
 30
0.0
 10
72.34424911385838
 20
-129.3664360570681
 30
0.0
 10
72.21729734522692
 20
-129.3581678279035
 30
0.0
 10
72.10515948718205
 20
-129.3474880318992
 30
0.0
 10
71.98664820248945
 20
-129.2672173070929
 30
0.0
 10
71.82593449810254
 20
-129.1569742515649
 30
0.0
 10
71.79200030757283
 20
-128.9709390953614
 30
0.0
 10
71.79200030757283
 20
-128.85449486796
 30
0.0
 10
71.79200030757283
 20
-128.5775091909459
 30
0.0
 10
71.97614066125944
 20
-128.3701144427339
 30
0.0
 10
72.24899222369123
 20
-128.3701144427339
 30
0.0
 10
72.47757430913755
 20
-128.3701144427339
 30
0.0
 10
72.57696531388702
 20
-128.4865586701353
 30
0.0
 10
72.80330808726792
 20
-128.7952392256137
 30
0.0
  0
HATCH
  5
203
330
1FE
100
AcDbEntity
  8
_U+30EC_U+30A4_U+30E4_U+30FC 1
 62
   179
420
  2234388
100
AcDbHatch
 10
0.0
 20
0.0
 30
0.0
210
0.0
220
0.0
230
1.0
  2
SOLID
 70
     1
 71
     0
 91
        1
 92
        1
 93
        1
 72
     4
 94
        3
 73
     0
 74
     1
 95
       44
 96
       40
 40
0.0
 40
0.0
 40
0.0
 40
0.0
 40
1.0
 40
1.0
 40
1.0
 40
2.0
 40
2.0
 40
2.0
 40
3.0
 40
3.0
 40
3.0
 40
4.0
 40
4.0
 40
4.0
 40
5.0
 40
5.0
 40
5.0
 40
6.0
 40
6.0
 40
6.0
 40
7.0
 40
7.0
 40
7.0
 40
8.0
 40
8.0
 40
8.0
 40
9.0
 40
9.0
 40
9.0
 40
10.0
 40
10.0
 40
10.0
 40
11.0
 40
11.0
 40
11.0
 40
12.0
 40
12.0
 40
12.0
 40
13.0
 40
13.0
 40
13.0
 40
13.0
 10
72.80330808726792
 20
-128.7952392256137
 10
72.96195473436369
 20
-129.01331376983
 10
73.03602428729656
 20
-129.1063313479318
 10
73.17985702380574
 20
-129.1549071942738
 10
73.17985702380574
 20
-129.1549071942738
 10
73.17985702380574
 20
-128.3764878693816
 10
73.17985702380574
 20
-128.3764878693816
 10
73.17985702380574
 20
-128.3764878693816
 10
73.38501245995236
 20
-128.3764878693816
 10
73.38501245995236
 20
-128.3764878693816
 10
73.38501245995236
 20
-128.3764878693816
 10
73.38501245995236
 20
-129.4046766169544
 10
73.38501245995236
 20
-129.4046766169544
 10
73.02758380335769
 20
-129.3729817384901
 10
72.94920788106826
 20
-129.3071804147218
 10
72.65103486681988
 20
-128.9223632490194
 10
72.4520806025467
 20
-128.6663926544653
 10
72.38438447626154
 20
-128.6007635854714
 10
72.24692516640008
 20
-128.6007635854714
 10
72.12841388170749
 20
-128.6007635854714
 10
71.99732799849373
 20
-128.6727660811131
 10
71.99732799849373
 20
-128.8693087785466
 10
71.99732799849373
 20
-129.1297579972315
 10
72.22780488645694
 20
-129.1380262263961
 10
72.34424911385838
 20
-129.1421603409784
 10
72.34424911385838
 20
-129.1421603409784
 10
72.34424911385838
 20
-129.3664360570681
 10
72.34424911385838
 20
-129.3664360570681
 10
72.21729734522692
 20
-129.3581678279035
 10
72.10515948718205
 20
-129.3474880318992
 10
71.98664820248945
 20
-129.2672173070929
 10
71.82593449810254
 20
-129.1569742515649
 10
71.79200030757283
 20
-128.9709390953614
 10
71.79200030757283
 20
-128.85449486796
 10
71.79200030757283
 20
-128.5775091909459
 10
71.97614066125944
 20
-128.3701144427339
 10
72.24899222369123
 20
-128.3701144427339
 10
72.47757430913755
 20
-128.3701144427339
 10
72.57696531388702
 20
-128.4865586701353
 10
72.80330808726792
 20
-128.7952392256137
 97
        0
 97
        0
 75
     2
 76
     1
 98
        0
  0
SPLINE
  5
204
330
1FE
100
AcDbEntity
  8
_U+30EC_U+30A4_U+30E4_U+30FC 1
370
     0
100
AcDbSpline
210
0.0
220
0.0
230
1.0
 70
    11
 71
     3
 72
    44
 73
    40
 74
     0
 42
0.0000000001
 43
0.0000000001
 12
1.0
 22
0.0
 32
0.0
 13
1.0
 23
0.0
 33
0.0
 40
0.0
 40
0.0
 40
0.0
 40
0.0
 40
1.0
 40
1.0
 40
1.0
 40
2.0
 40
2.0
 40
2.0
 40
3.0
 40
3.0
 40
3.0
 40
4.0
 40
4.0
 40
4.0
 40
5.0
 40
5.0
 40
5.0
 40
6.0
 40
6.0
 40
6.0
 40
7.0
 40
7.0
 40
7.0
 40
8.0
 40
8.0
 40
8.0
 40
9.0
 40
9.0
 40
9.0
 40
10.0
 40
10.0
 40
10.0
 40
11.0
 40
11.0
 40
11.0
 40
12.0
 40
12.0
 40
12.0
 40
13.0
 40
13.0
 40
13.0
 40
13.0
 10
72.80330808726792
 20
-127.6185668626266
 30
0.0
 10
72.96195473436369
 20
-127.8364691520687
 30
0.0
 10
73.03602428729656
 20
-127.9294867301704
 30
0.0
 10
73.17985702380574
 20
-127.9782348312867
 30
0.0
 10
73.17985702380574
 20
-127.9782348312867
 30
0.0
 10
73.17985702380574
 20
-127.1996432516202
 30
0.0
 10
73.17985702380574
 20
-127.1996432516202
 30
0.0
 10
73.17985702380574
 20
-127.1996432516202
 30
0.0
 10
73.38501245995236
 20
-127.1996432516202
 30
0.0
 10
73.38501245995236
 20
-127.1996432516202
 30
0.0
 10
73.38501245995236
 20
-127.1996432516202
 30
0.0
 10
73.38501245995236
 20
-128.2278319991931
 30
0.0
 10
73.38501245995236
 20
-128.2278319991931
 30
0.0
 10
73.02758380335769
 20
-128.1961371207287
 30
0.0
 10
72.94920788106826
 20
-128.1305080517348
 30
0.0
 10
72.65103486681988
 20
-127.7455186312581
 30
0.0
 10
72.4520806025467
 20
-127.489548036704
 30
0.0
 10
72.38438447626154
 20
-127.42391896771
 30
0.0
 10
72.24692516640008
 20
-127.42391896771
 30
0.0
 10
72.12841388170749
 20
-127.42391896771
 30
0.0
 10
71.99732799849373
 20
-127.4957492085775
 30
0.0
 10
71.99732799849373
 20
-127.6926364155595
 30
0.0
 10
71.99732799849373
 20
-127.9527411246958
 30
0.0
 10
72.22780488645694
 20
-127.9611816086347
 30
0.0
 10
72.34424911385838
 20
-127.9654879779913
 30
0.0
 10
72.34424911385838
 20
-127.9654879779913
 30
0.0
 10
72.34424911385838
 20
-128.189763694081
 30
0.0
 10
72.34424911385838
 20
-128.189763694081
 30
0.0
 10
72.21729734522692
 20
-128.1813232101422
 30
0.0
 10
72.10515948718205
 20
-128.1706434141379
 30
0.0
 10
71.98664820248945
 20
-128.0902004345573
 30
0.0
 10
71.82593449810254
 20
-127.9803018885778
 30
0.0
 10
71.79200030757283
 20
-127.7940944776001
 30
0.0
 10
71.79200030757283
 20
-127.6778225049729
 30
0.0
 10
71.79200030757283
 20
-127.4006645731846
 30
0.0
 10
71.97614066125944
 20
-127.1932698249725
 30
0.0
 10
72.24899222369123
 20
-127.1932698249725
 30
0.0
 10
72.47757430913755
 20
-127.1932698249725
 30
0.0
 10
72.57696531388702
 20
-127.309714052374
 30
0.0
 10
72.80330808726792
 20
-127.6185668626266
 30
0.0
  0
HATCH
  5
205
330
1FE
100
AcDbEntity
  8
_U+30EC_U+30A4_U+30E4_U+30FC 1
 62
   179
420
  2234388
100
AcDbHatch
 10
0.0
 20
0.0
 30
0.0
210
0.0
220
0.0
230
1.0
  2
SOLID
 70
     1
 71
     0
 91
        1
 92
        1
 93
        1
 72
     4
 94
        3
 73
     0
 74
     1
 95
       44
 96
       40
 40
0.0
 40
0.0
 40
0.0
 40
0.0
 40
1.0
 40
1.0
 40
1.0
 40
2.0
 40
2.0
 40
2.0
 40
3.0
 40
3.0
 40
3.0
 40
4.0
 40
4.0
 40
4.0
 40
5.0
 40
5.0
 40
5.0
 40
6.0
 40
6.0
 40
6.0
 40
7.0
 40
7.0
 40
7.0
 40
8.0
 40
8.0
 40
8.0
 40
9.0
 40
9.0
 40
9.0
 40
10.0
 40
10.0
 40
10.0
 40
11.0
 40
11.0
 40
11.0
 40
12.0
 40
12.0
 40
12.0
 40
13.0
 40
13.0
 40
13.0
 40
13.0
 10
72.80330808726792
 20
-127.6185668626266
 10
72.96195473436369
 20
-127.8364691520687
 10
73.03602428729656
 20
-127.9294867301704
 10
73.17985702380574
 20
-127.9782348312867
 10
73.17985702380574
 20
-127.9782348312867
 10
73.17985702380574
 20
-127.1996432516202
 10
73.17985702380574
 20
-127.1996432516202
 10
73.17985702380574
 20
-127.1996432516202
 10
73.38501245995236
 20
-127.1996432516202
 10
73.38501245995236
 20
-127.1996432516202
 10
73.38501245995236
 20
-127.1996432516202
 10
73.38501245995236
 20
-128.2278319991931
 10
73.38501245995236
 20
-128.2278319991931
 10
73.02758380335769
 20
-128.1961371207287
 10
72.94920788106826
 20
-128.1305080517348
 10
72.65103486681988
 20
-127.7455186312581
 10
72.4520806025467
 20
-127.489548036704
 10
72.38438447626154
 20
-127.42391896771
 10
72.24692516640008
 20
-127.42391896771
 10
72.12841388170749
 20
-127.42391896771
 10
71.99732799849373
 20
-127.4957492085775
 10
71.99732799849373
 20
-127.6926364155595
 10
71.99732799849373
 20
-127.9527411246958
 10
72.22780488645694
 20
-127.9611816086347
 10
72.34424911385838
 20
-127.9654879779913
 10
72.34424911385838
 20
-127.9654879779913
 10
72.34424911385838
 20
-128.189763694081
 10
72.34424911385838
 20
-128.189763694081
 10
72.21729734522692
 20
-128.1813232101422
 10
72.10515948718205
 20
-128.1706434141379
 10
71.98664820248945
 20
-128.0902004345573
 10
71.82593449810254
 20
-127.9803018885778
 10
71.79200030757283
 20
-127.7940944776001
 10
71.79200030757283
 20
-127.6778225049729
 10
71.79200030757283
 20
-127.4006645731846
 10
71.97614066125944
 20
-127.1932698249725
 10
72.24899222369123
 20
-127.1932698249725
 10
72.47757430913755
 20
-127.1932698249725
 10
72.57696531388702
 20
-127.309714052374
 10
72.80330808726792
 20
-127.6185668626266
 97
        0
 97
        0
 75
     2
 76
     1
 98
        0
  0
POLYLINE
  5
206
330
1FE
100
AcDbEntity
  8
_U+30EC_U+30A4_U+30E4_U+30FC 1
370
     0
100
AcDb2dPolyline
 66
     1
 10
0.0
 20
0.0
 30
0.0
  0
VERTEX
  5
207
330
206
100
AcDbEntity
  8
_U+30EC_U+30A4_U+30E4_U+30FC 1
370
     0
100
AcDbVertex
100
AcDb2dVertex
 10
73.38501245995236
 20
-126.9746785164334
 30
0.0
  0
VERTEX
  5
208
330
206
100
AcDbEntity
  8
_U+30EC_U+30A4_U+30E4_U+30FC 1
370
     0
100
AcDbVertex
100
AcDb2dVertex
 10
73.13334823475486
 20
-126.9746785164334
 30
0.0
  0
VERTEX
  5
209
330
206
100
AcDbEntity
  8
_U+30EC_U+30A4_U+30E4_U+30FC 1
370
     0
100
AcDbVertex
100
AcDb2dVertex
 10
73.13334823475486
 20
-126.7230142912359
 30
0.0
  0
VERTEX
  5
20A
330
206
100
AcDbEntity
  8
_U+30EC_U+30A4_U+30E4_U+30FC 1
370
     0
100
AcDbVertex
100
AcDb2dVertex
 10
73.38501245995236
 20
-126.7230142912359
 30
0.0
  0
VERTEX
  5
20B
330
206
100
AcDbEntity
  8
_U+30EC_U+30A4_U+30E4_U+30FC 1
370
     0
100
AcDbVertex
100
AcDb2dVertex
 10
73.38501245995236
 20
-126.9746785164334
 30
0.0
  0
SEQEND
  5
20C
330
206
100
AcDbEntity
  8
_U+30EC_U+30A4_U+30E4_U+30FC 1
370
     0
  0
HATCH
  5
20D
330
1FE
100
AcDbEntity
  8
_U+30EC_U+30A4_U+30E4_U+30FC 1
 62
   179
420
  2234388
100
AcDbHatch
 10
0.0
 20
0.0
 30
0.0
210
0.0
220
0.0
230
1.0
  2
SOLID
 70
     1
 71
     0
 91
        1
 92
        1
 93
        4
 72
     1
 10
73.38501245995236
 20
-126.9746785164334
 11
73.13334823475486
 21
-126.9746785164334
 72
     1
 10
73.13334823475486
 20
-126.9746785164334
 11
73.13334823475486
 21
-126.7230142912359
 72
     1
 10
73.13334823475486
 20
-126.7230142912359
 11
73.38501245995236
 21
-126.7230142912359
 72
     1
 10
73.38501245995236
 20
-126.7230142912359
 11
73.38501245995236
 21
-126.9746785164334
 97
        0
 75
     2
 76
     1
 98
        0
  0
SPLINE
  5
20E
330
1FE
100
AcDbEntity
  8
_U+30EC_U+30A4_U+30E4_U+30FC 1
370
     0
100
AcDbSpline
210
0.0
220
0.0
230
1.0
 70
    11
 71
     3
 72
    53
 73
    49
 74
     0
 42
0.0000000001
 43
0.0000000001
 12
1.0
 22
0.0
 32
0.0
 13
1.0
 23
0.0
 33
0.0
 40
0.0
 40
0.0
 40
0.0
 40
0.0
 40
1.0
 40
1.0
 40
1.0
 40
2.0
 40
2.0
 40
2.0
 40
3.0
 40
3.0
 40
3.0
 40
4.0
 40
4.0
 40
4.0
 40
5.0
 40
5.0
 40
5.0
 40
6.0
 40
6.0
 40
6.0
 40
7.0
 40
7.0
 40
7.0
 40
8.0
 40
8.0
 40
8.0
 40
9.0
 40
9.0
 40
9.0
 40
10.0
 40
10.0
 40
10.0
 40
11.0
 40
11.0
 40
11.0
 40
12.0
 40
12.0
 40
12.0
 40
13.0
 40
13.0
 40
13.0
 40
14.0
 40
14.0
 40
14.0
 40
15.0
 40
15.0
 40
15.0
 40
16.0
 40
16.0
 40
16.0
 40
16.0
 10
73.4358276183598
 20
-126.0055731564326
 30
0.0
 10
73.4358276183598
 20
-126.0837768239478
 30
0.0
 10
73.41894665048207
 20
-126.1854071407627
 30
0.0
 10
73.35538463877921
 20
-126.2868652028033
 30
0.0
 10
73.24548609279974
 20
-126.4604980152599
 30
0.0
 10
73.11422795481172
 20
-126.4815130977199
 30
0.0
 10
73.0063964661234
 20
-126.500633377663
 30
0.0
 10
73.0063964661234
 20
-126.500633377663
 30
0.0
 10
73.0063964661234
 20
-126.2784247188644
 30
0.0
 10
73.0063964661234
 20
-126.2784247188644
 30
0.0
 10
73.20517847562232
 20
-126.2234754458747
 30
0.0
 10
73.23480629679547
 20
-126.0965236772432
 30
0.0
 10
73.23480629679547
 20
-126.0035060991415
 30
0.0
 10
73.23480629679547
 20
-125.8638074772146
 30
0.0
 10
73.135415292046
 20
-125.7115342567666
 30
0.0
 10
72.90269909201739
 20
-125.7115342567666
 30
0.0
 10
72.64672849746331
 20
-125.7115342567666
 30
0.0
 10
72.57696531388702
 20
-125.8913682410966
 30
0.0
 10
72.57696531388702
 20
-126.0119465830804
 30
0.0
 10
72.57696531388702
 20
-126.0436414615447
 30
0.0
 10
72.57696531388702
 20
-126.1854071407627
 30
0.0
 10
72.70598413980962
 20
-126.2742906042821
 30
0.0
 10
72.70598413980962
 20
-126.2742906042821
 30
0.0
 10
72.68686385986648
 20
-126.4498182192556
 30
0.0
 10
72.68686385986648
 20
-126.4498182192556
 30
0.0
 10
72.68686385986648
 20
-126.4498182192556
 30
0.0
 10
71.84074840868912
 20
-126.3292398772719
 30
0.0
 10
71.84074840868912
 20
-126.3292398772719
 30
0.0
 10
71.84074840868912
 20
-126.3292398772719
 30
0.0
 10
71.84074840868912
 20
-125.5508205523797
 30
0.0
 10
71.84074840868912
 20
-125.5508205523797
 30
0.0
 10
71.84074840868912
 20
-125.5508205523797
 30
0.0
 10
72.03539630360574
 20
-125.5508205523797
 30
0.0
 10
72.03539630360574
 20
-125.5508205523797
 30
0.0
 10
72.03539630360574
 20
-125.5508205523797
 30
0.0
 10
72.03539630360574
 20
-126.1662868608195
 30
0.0
 10
72.03539630360574
 20
-126.1662868608195
 30
0.0
 10
72.03539630360574
 20
-126.1662868608195
 30
0.0
 10
72.45845402919441
 20
-126.2319159298136
 30
0.0
 10
72.45845402919441
 20
-126.2319159298136
 30
0.0
 10
72.42451983866471
 20
-126.1705932301761
 30
0.0
 10
72.38438447626154
 20
-126.0880831933044
 30
0.0
 10
72.38438447626154
 20
-125.9695719086118
 30
0.0
 10
72.38438447626154
 20
-125.7158406261231
 30
0.0
 10
72.5705918872393
 20
-125.4788180567379
 30
0.0
 10
72.8837510668485
 20
-125.4788180567379
 30
0.0
 10
73.20104436104002
 20
-125.4788180567379
 30
0.0
 10
73.4358276183598
 20
-125.7030937728277
 30
0.0
 10
73.4358276183598
 20
-126.0055731564326
 30
0.0
  0
HATCH
  5
20F
330
1FE
100
AcDbEntity
  8
_U+30EC_U+30A4_U+30E4_U+30FC 1
 62
   179
420
  2234388
100
AcDbHatch
 10
0.0
 20
0.0
 30
0.0
210
0.0
220
0.0
230
1.0
  2
SOLID
 70
     1
 71
     0
 91
        1
 92
        1
 93
        1
 72
     4
 94
        3
 73
     0
 74
     1
 95
       53
 96
       49
 40
0.0
 40
0.0
 40
0.0
 40
0.0
 40
1.0
 40
1.0
 40
1.0
 40
2.0
 40
2.0
 40
2.0
 40
3.0
 40
3.0
 40
3.0
 40
4.0
 40
4.0
 40
4.0
 40
5.0
 40
5.0
 40
5.0
 40
6.0
 40
6.0
 40
6.0
 40
7.0
 40
7.0
 40
7.0
 40
8.0
 40
8.0
 40
8.0
 40
9.0
 40
9.0
 40
9.0
 40
10.0
 40
10.0
 40
10.0
 40
11.0
 40
11.0
 40
11.0
 40
12.0
 40
12.0
 40
12.0
 40
13.0
 40
13.0
 40
13.0
 40
14.0
 40
14.0
 40
14.0
 40
15.0
 40
15.0
 40
15.0
 40
16.0
 40
16.0
 40
16.0
 40
16.0
 10
73.4358276183598
 20
-126.0055731564326
 10
73.4358276183598
 20
-126.0837768239478
 10
73.41894665048207
 20
-126.1854071407627
 10
73.35538463877921
 20
-126.2868652028033
 10
73.24548609279974
 20
-126.4604980152599
 10
73.11422795481172
 20
-126.4815130977199
 10
73.0063964661234
 20
-126.500633377663
 10
73.0063964661234
 20
-126.500633377663
 10
73.0063964661234
 20
-126.2784247188644
 10
73.0063964661234
 20
-126.2784247188644
 10
73.20517847562232
 20
-126.2234754458747
 10
73.23480629679547
 20
-126.0965236772432
 10
73.23480629679547
 20
-126.0035060991415
 10
73.23480629679547
 20
-125.8638074772146
 10
73.135415292046
 20
-125.7115342567666
 10
72.90269909201739
 20
-125.7115342567666
 10
72.64672849746331
 20
-125.7115342567666
 10
72.57696531388702
 20
-125.8913682410966
 10
72.57696531388702
 20
-126.0119465830804
 10
72.57696531388702
 20
-126.0436414615447
 10
72.57696531388702
 20
-126.1854071407627
 10
72.70598413980962
 20
-126.2742906042821
 10
72.70598413980962
 20
-126.2742906042821
 10
72.68686385986648
 20
-126.4498182192556
 10
72.68686385986648
 20
-126.4498182192556
 10
72.68686385986648
 20
-126.4498182192556
 10
71.84074840868912
 20
-126.3292398772719
 10
71.84074840868912
 20
-126.3292398772719
 10
71.84074840868912
 20
-126.3292398772719
 10
71.84074840868912
 20
-125.5508205523797
 10
71.84074840868912
 20
-125.5508205523797
 10
71.84074840868912
 20
-125.5508205523797
 10
72.03539630360574
 20
-125.5508205523797
 10
72.03539630360574
 20
-125.5508205523797
 10
72.03539630360574
 20
-125.5508205523797
 10
72.03539630360574
 20
-126.1662868608195
 10
72.03539630360574
 20
-126.1662868608195
 10
72.03539630360574
 20
-126.1662868608195
 10
72.45845402919441
 20
-126.2319159298136
 10
72.45845402919441
 20
-126.2319159298136
 10
72.42451983866471
 20
-126.1705932301761
 10
72.38438447626154
 20
-126.0880831933044
 10
72.38438447626154
 20
-125.9695719086118
 10
72.38438447626154
 20
-125.7158406261231
 10
72.5705918872393
 20
-125.4788180567379
 10
72.8837510668485
 20
-125.4788180567379
 10
73.20104436104002
 20
-125.4788180567379
 10
73.4358276183598
 20
-125.7030937728277
 10
73.4358276183598
 20
-126.0055731564326
 97
        0
 97
        0
 75
     2
 76
     1
 98
        0
  0
ENDBLK
  5
201
330
1FE
100
AcDbEntity
  8
0
100
AcDbBlockEnd
  0
BLOCK
  5
212
330
210
100
AcDbEntity
  8
0
100
AcDbBlockBegin
  2
block 37
 70
     0
 10
0.0
 20
0.0
 30
0.0
  3
block 37
  1

  0
SPLINE
  5
214
330
210
100
AcDbEntity
  8
_U+30EC_U+30A4_U+30E4_U+30FC 1
 62
   179
420
  2234388
370
    25
100
AcDbSpline
210
0.0
220
0.0
230
1.0
 70
    11
 71
     3
 72
    17
 73
    13
 74
     0
 42
0.0000000001
 43
0.0000000001
 12
1.0
 22
0.0
 32
0.0
 13
1.0
 23
0.0
 33
0.0
 40
0.0
 40
0.0
 40
0.0
 40
0.0
 40
1.0
 40
1.0
 40
1.0
 40
2.0
 40
2.0
 40
2.0
 40
3.0
 40
3.0
 40
3.0
 40
4.0
 40
4.0
 40
4.0
 40
4.0
 10
77.79300134866853
 20
-138.6874924653281
 30
0.0
 10
77.79300134866853
 20
-138.7067894097679
 30
0.0
 10
77.77716162685041
 20
-138.7226291319858
 30
0.0
 10
77.75786664722726
 20
-138.7226291319858
 30
0.0
 10
77.73789746118545
 20
-138.7226291319858
 30
0.0
 10
77.72205773936733
 20
-138.7067894097679
 30
0.0
 10
77.72205773936733
 20
-138.6874924653281
 30
0.0
 10
77.72205773936733
 20
-138.6674899653334
 30
0.0
 10
77.73789746118545
 20
-138.6523557986704
 30
0.0
 10
77.75786664722726
 20
-138.6523557986704
 30
0.0
 10
77.77716162685041
 20
-138.6523557986704
 30
0.0
 10
77.79300134866853
 20
-138.6674899653334
 30
0.0
 10
77.79300134866853
 20
-138.6874924653281
 30
0.0
  0
ENDBLK
  5
213
330
210
100
AcDbEntity
  8
0
100
AcDbBlockEnd
  0
BLOCK
  5
217
330
215
100
AcDbEntity
  8
0
100
AcDbBlockBegin
  2
block 38
 70
     0
 10
0.0
 20
0.0
 30
0.0
  3
block 38
  1

  0
SPLINE
  5
219
330
215
100
AcDbEntity
  8
_U+30EC_U+30A4_U+30E4_U+30FC 1
 62
   179
420
  2234388
370
    25
100
AcDbSpline
210
0.0
220
0.0
230
1.0
 70
    11
 71
     3
 72
    17
 73
    13
 74
     0
 42
0.0000000001
 43
0.0000000001
 12
1.0
 22
0.0
 32
0.0
 13
1.0
 23
0.0
 33
0.0
 40
0.0
 40
0.0
 40
0.0
 40
0.0
 40
1.0
 40
1.0
 40
1.0
 40
2.0
 40
2.0
 40
2.0
 40
3.0
 40
3.0
 40
3.0
 40
4.0
 40
4.0
 40
4.0
 40
4.0
 10
90.54295435672346
 20
-116.1875727487308
 30
0.0
 10
90.54295435672346
 20
-116.2068696931706
 30
0.0
 10
90.52711463490535
 20
-116.2227094153888
 30
0.0
 10
90.5078176909532
 20
-116.2227094153888
 30
0.0
 10
90.48785275515588
 20
-116.2227094153888
 30
0.0
 10
90.47201074742227
 20
-116.2068696931706
 30
0.0
 10
90.47201074742227
 20
-116.1875727487308
 30
0.0
 10
90.47201074742227
 20
-116.1675702487358
 30
0.0
 10
90.48785275515588
 20
-116.1517305265176
 30
0.0
 10
90.5078176909532
 20
-116.1517305265176
 30
0.0
 10
90.52711463490535
 20
-116.1517305265176
 30
0.0
 10
90.54295435672346
 20
-116.1675702487358
 30
0.0
 10
90.54295435672346
 20
-116.1875727487308
 30
0.0
  0
ENDBLK
  5
218
330
215
100
AcDbEntity
  8
0
100
AcDbBlockEnd
  0
BLOCK
  5
21C
330
21A
100
AcDbEntity
  8
0
100
AcDbBlockBegin
  2
block 39
 70
     0
 10
0.0
 20
0.0
 30
0.0
  3
block 39
  1

  0
SPLINE
  5
21E
330
21A
100
AcDbEntity
  8
_U+30EC_U+30A4_U+30E4_U+30FC 1
 62
   179
420
  2234388
370
     9
100
AcDbSpline
210
0.0
220
0.0
230
1.0
 70
    11
 71
     3
 72
    17
 73
    13
 74
     0
 42
0.0000000001
 43
0.0000000001
 12
1.0
 22
0.0
 32
0.0
 13
1.0
 23
0.0
 33
0.0
 40
0.0
 40
0.0
 40
0.0
 40
0.0
 40
1.0
 40
1.0
 40
1.0
 40
2.0
 40
2.0
 40
2.0
 40
3.0
 40
3.0
 40
3.0
 40
4.0
 40
4.0
 40
4.0
 40
4.0
 10
73.79257200628354
 20
-116.1875727487308
 30
0.0
 10
73.79257200628354
 20
-116.2068696931706
 30
0.0
 10
73.77673228446542
 20
-116.2227094153888
 30
0.0
 10
73.75743534051328
 20
-116.2227094153888
 30
0.0
 10
73.73813839656114
 20
-116.2227094153888
 30
0.0
 10
73.72229867474303
 20
-116.2068696931706
 30
0.0
 10
73.72229867474303
 20
-116.1875727487308
 30
0.0
 10
73.72229867474303
 20
-116.1675702487358
 30
0.0
 10
73.73813839656114
 20
-116.1517305265176
 30
0.0
 10
73.75743534051328
 20
-116.1517305265176
 30
0.0
 10
73.77673228446542
 20
-116.1517305265176
 30
0.0
 10
73.79257200628354
 20
-116.1675702487358
 30
0.0
 10
73.79257200628354
 20
-116.1875727487308
 30
0.0
  0
ENDBLK
  5
21D
330
21A
100
AcDbEntity
  8
0
100
AcDbBlockEnd
  0
BLOCK
  5
22F
330
22D
100
AcDbEntity
  8
0
100
AcDbBlockBegin
  2
block 40
 70
     0
 10
0.0
 20
0.0
 30
0.0
  3
block 40
  1

  0
SPLINE
  5
231
330
22D
100
AcDbEntity
  8
_U+30EC_U+30A4_U+30E4_U+30FC 1
370
     0
100
AcDbSpline
210
0.0
220
0.0
230
1.0
 70
    11
 71
     3
 72
    26
 73
    22
 74
     0
 42
0.0000000001
 43
0.0000000001
 12
1.0
 22
0.0
 32
0.0
 13
1.0
 23
0.0
 33
0.0
 40
0.0
 40
0.0
 40
0.0
 40
0.0
 40
1.0
 40
1.0
 40
1.0
 40
2.0
 40
2.0
 40
2.0
 40
3.0
 40
3.0
 40
3.0
 40
4.0
 40
4.0
 40
4.0
 40
5.0
 40
5.0
 40
5.0
 40
6.0
 40
6.0
 40
6.0
 40
7.0
 40
7.0
 40
7.0
 40
7.0
 10
110.1359130584035
 20
-123.8253444785923
 30
0.0
 10
110.1359130584035
 20
-123.8253444785923
 30
0.0
 10
109.0314154458324
 20
-123.8253444785923
 30
0.0
 10
109.0314154458324
 20
-123.8253444785923
 30
0.0
 10
109.0314154458324
 20
-123.8253444785923
 30
0.0
 10
109.0314154458324
 20
-124.155212371305
 30
0.0
 10
109.0314154458324
 20
-124.155212371305
 30
0.0
 10
109.0314154458324
 20
-124.155212371305
 30
0.0
 10
108.8832763399667
 20
-124.155212371305
 30
0.0
 10
108.8832763399667
 20
-124.155212371305
 30
0.0
 10
108.8684624293801
 20
-123.8231051665269
 30
0.0
 10
108.7058539224763
 20
-123.776596377476
 30
0.0
 10
108.591476752366
 20
-123.7469685563028
 30
0.0
 10
108.591476752366
 20
-123.7469685563028
 30
0.0
 10
108.591476752366
 20
-123.6010687625025
 30
0.0
 10
108.591476752366
 20
-123.6010687625025
 30
0.0
 10
108.591476752366
 20
-123.6010687625025
 30
0.0
 10
110.1359130584035
 20
-123.6010687625025
 30
0.0
 10
110.1359130584035
 20
-123.6010687625025
 30
0.0
 10
110.1359130584035
 20
-123.6010687625025
 30
0.0
 10
110.1359130584035
 20
-123.8253444785923
 30
0.0
 10
110.1359130584035
 20
-123.8253444785923
 30
0.0
  0
HATCH
  5
232
330
22D
100
AcDbEntity
  8
_U+30EC_U+30A4_U+30E4_U+30FC 1
 62
   179
420
  2234388
100
AcDbHatch
 10
0.0
 20
0.0
 30
0.0
210
0.0
220
0.0
230
1.0
  2
SOLID
 70
     1
 71
     0
 91
        1
 92
        1
 93
        1
 72
     4
 94
        3
 73
     0
 74
     1
 95
       26
 96
       22
 40
0.0
 40
0.0
 40
0.0
 40
0.0
 40
1.0
 40
1.0
 40
1.0
 40
2.0
 40
2.0
 40
2.0
 40
3.0
 40
3.0
 40
3.0
 40
4.0
 40
4.0
 40
4.0
 40
5.0
 40
5.0
 40
5.0
 40
6.0
 40
6.0
 40
6.0
 40
7.0
 40
7.0
 40
7.0
 40
7.0
 10
110.1359130584035
 20
-123.8253444785923
 10
110.1359130584035
 20
-123.8253444785923
 10
109.0314154458324
 20
-123.8253444785923
 10
109.0314154458324
 20
-123.8253444785923
 10
109.0314154458324
 20
-123.8253444785923
 10
109.0314154458324
 20
-124.155212371305
 10
109.0314154458324
 20
-124.155212371305
 10
109.0314154458324
 20
-124.155212371305
 10
108.8832763399667
 20
-124.155212371305
 10
108.8832763399667
 20
-124.155212371305
 10
108.8684624293801
 20
-123.8231051665269
 10
108.7058539224763
 20
-123.776596377476
 10
108.591476752366
 20
-123.7469685563028
 10
108.591476752366
 20
-123.7469685563028
 10
108.591476752366
 20
-123.6010687625025
 10
108.591476752366
 20
-123.6010687625025
 10
108.591476752366
 20
-123.6010687625025
 10
110.1359130584035
 20
-123.6010687625025
 10
110.1359130584035
 20
-123.6010687625025
 10
110.1359130584035
 20
-123.6010687625025
 10
110.1359130584035
 20
-123.8253444785923
 10
110.1359130584035
 20
-123.8253444785923
 97
        0
 97
        0
 75
     2
 76
     1
 98
        0
  0
SPLINE
  5
233
330
22D
100
AcDbEntity
  8
_U+30EC_U+30A4_U+30E4_U+30FC 1
370
     0
100
AcDbSpline
210
0.0
220
0.0
230
1.0
 70
    11
 71
     3
 72
    53
 73
    49
 74
     0
 42
0.0000000001
 43
0.0000000001
 12
1.0
 22
0.0
 32
0.0
 13
1.0
 23
0.0
 33
0.0
 40
0.0
 40
0.0
 40
0.0
 40
0.0
 40
1.0
 40
1.0
 40
1.0
 40
2.0
 40
2.0
 40
2.0
 40
3.0
 40
3.0
 40
3.0
 40
4.0
 40
4.0
 40
4.0
 40
5.0
 40
5.0
 40
5.0
 40
6.0
 40
6.0
 40
6.0
 40
7.0
 40
7.0
 40
7.0
 40
8.0
 40
8.0
 40
8.0
 40
9.0
 40
9.0
 40
9.0
 40
10.0
 40
10.0
 40
10.0
 40
11.0
 40
11.0
 40
11.0
 40
12.0
 40
12.0
 40
12.0
 40
13.0
 40
13.0
 40
13.0
 40
14.0
 40
14.0
 40
14.0
 40
15.0
 40
15.0
 40
15.0
 40
16.0
 40
16.0
 40
16.0
 40
16.0
 10
110.1865559620367
 20
-122.6186997848835
 30
0.0
 10
110.1865559620367
 20
-122.697075707173
 30
0.0
 10
110.169674994159
 20
-122.7985337692136
 30
0.0
 10
110.1062852372304
 20
-122.9001640860284
 30
0.0
 10
109.9960421817024
 20
-123.0736246437108
 30
0.0
 10
109.8651285532629
 20
-123.0948119809451
 30
0.0
 10
109.756952555026
 20
-123.1137600061139
 30
0.0
 10
109.756952555026
 20
-123.1137600061139
 30
0.0
 10
109.756952555026
 20
-122.8917236020896
 30
0.0
 10
109.756952555026
 20
-122.8917236020896
 30
0.0
 10
109.9560790740735
 20
-122.8366020743256
 30
0.0
 10
109.9857068952466
 20
-122.7098225604684
 30
0.0
 10
109.9857068952466
 20
-122.6166327275924
 30
0.0
 10
109.9857068952466
 20
-122.4771063604398
 30
0.0
 10
109.8861436357229
 20
-122.3246608852175
 30
0.0
 10
109.6535996904686
 20
-122.3246608852175
 30
0.0
 10
109.3976290959145
 20
-122.3246608852175
 30
0.0
 10
109.3276936575639
 20
-122.5044948695475
 30
0.0
 10
109.3276936575639
 20
-122.6250732115312
 30
0.0
 10
109.3276936575639
 20
-122.6569403447698
 30
0.0
 10
109.3276936575639
 20
-122.7985337692136
 30
0.0
 10
109.4565402287123
 20
-122.887417232733
 30
0.0
 10
109.4565402287123
 20
-122.887417232733
 30
0.0
 10
109.4375922035434
 20
-123.0631171024808
 30
0.0
 10
109.4375922035434
 20
-123.0631171024808
 30
0.0
 10
109.4375922035434
 20
-123.0631171024808
 30
0.0
 10
108.591476752366
 20
-122.9423665057227
 30
0.0
 10
108.591476752366
 20
-122.9423665057227
 30
0.0
 10
108.591476752366
 20
-122.9423665057227
 30
0.0
 10
108.591476752366
 20
-122.1639471808305
 30
0.0
 10
108.591476752366
 20
-122.1639471808305
 30
0.0
 10
108.591476752366
 20
-122.1639471808305
 30
0.0
 10
108.7861246472826
 20
-122.1639471808305
 30
0.0
 10
108.7861246472826
 20
-122.1639471808305
 30
0.0
 10
108.7861246472826
 20
-122.1639471808305
 30
0.0
 10
108.7861246472826
 20
-122.7795857440447
 30
0.0
 10
108.7861246472826
 20
-122.7795857440447
 30
0.0
 10
108.7861246472826
 20
-122.7795857440447
 30
0.0
 10
109.2091823728713
 20
-122.8452148130387
 30
0.0
 10
109.2091823728713
 20
-122.8452148130387
 30
0.0
 10
109.1754204371159
 20
-122.783719858627
 30
0.0
 10
109.1351128199384
 20
-122.7012098217553
 30
0.0
 10
109.1351128199384
 20
-122.5828707918369
 30
0.0
 10
109.1351128199384
 20
-122.328967254574
 30
0.0
 10
109.3211479761419
 20
-122.0919446851888
 30
0.0
 10
109.6343071557511
 20
-122.0919446851888
 30
0.0
 10
109.9516004499427
 20
-122.0919446851888
 30
0.0
 10
110.1865559620367
 20
-122.3162204012786
 30
0.0
 10
110.1865559620367
 20
-122.6186997848835
 30
0.0
  0
HATCH
  5
234
330
22D
100
AcDbEntity
  8
_U+30EC_U+30A4_U+30E4_U+30FC 1
 62
   179
420
  2234388
100
AcDbHatch
 10
0.0
 20
0.0
 30
0.0
210
0.0
220
0.0
230
1.0
  2
SOLID
 70
     1
 71
     0
 91
        1
 92
        1
 93
        1
 72
     4
 94
        3
 73
     0
 74
     1
 95
       53
 96
       49
 40
0.0
 40
0.0
 40
0.0
 40
0.0
 40
1.0
 40
1.0
 40
1.0
 40
2.0
 40
2.0
 40
2.0
 40
3.0
 40
3.0
 40
3.0
 40
4.0
 40
4.0
 40
4.0
 40
5.0
 40
5.0
 40
5.0
 40
6.0
 40
6.0
 40
6.0
 40
7.0
 40
7.0
 40
7.0
 40
8.0
 40
8.0
 40
8.0
 40
9.0
 40
9.0
 40
9.0
 40
10.0
 40
10.0
 40
10.0
 40
11.0
 40
11.0
 40
11.0
 40
12.0
 40
12.0
 40
12.0
 40
13.0
 40
13.0
 40
13.0
 40
14.0
 40
14.0
 40
14.0
 40
15.0
 40
15.0
 40
15.0
 40
16.0
 40
16.0
 40
16.0
 40
16.0
 10
110.1865559620367
 20
-122.6186997848835
 10
110.1865559620367
 20
-122.697075707173
 10
110.169674994159
 20
-122.7985337692136
 10
110.1062852372304
 20
-122.9001640860284
 10
109.9960421817024
 20
-123.0736246437108
 10
109.8651285532629
 20
-123.0948119809451
 10
109.756952555026
 20
-123.1137600061139
 10
109.756952555026
 20
-123.1137600061139
 10
109.756952555026
 20
-122.8917236020896
 10
109.756952555026
 20
-122.8917236020896
 10
109.9560790740735
 20
-122.8366020743256
 10
109.9857068952466
 20
-122.7098225604684
 10
109.9857068952466
 20
-122.6166327275924
 10
109.9857068952466
 20
-122.4771063604398
 10
109.8861436357229
 20
-122.3246608852175
 10
109.6535996904686
 20
-122.3246608852175
 10
109.3976290959145
 20
-122.3246608852175
 10
109.3276936575639
 20
-122.5044948695475
 10
109.3276936575639
 20
-122.6250732115312
 10
109.3276936575639
 20
-122.6569403447698
 10
109.3276936575639
 20
-122.7985337692136
 10
109.4565402287123
 20
-122.887417232733
 10
109.4565402287123
 20
-122.887417232733
 10
109.4375922035434
 20
-123.0631171024808
 10
109.4375922035434
 20
-123.0631171024808
 10
109.4375922035434
 20
-123.0631171024808
 10
108.591476752366
 20
-122.9423665057227
 10
108.591476752366
 20
-122.9423665057227
 10
108.591476752366
 20
-122.9423665057227
 10
108.591476752366
 20
-122.1639471808305
 10
108.591476752366
 20
-122.1639471808305
 10
108.591476752366
 20
-122.1639471808305
 10
108.7861246472826
 20
-122.1639471808305
 10
108.7861246472826
 20
-122.1639471808305
 10
108.7861246472826
 20
-122.1639471808305
 10
108.7861246472826
 20
-122.7795857440447
 10
108.7861246472826
 20
-122.7795857440447
 10
108.7861246472826
 20
-122.7795857440447
 10
109.2091823728713
 20
-122.8452148130387
 10
109.2091823728713
 20
-122.8452148130387
 10
109.1754204371159
 20
-122.783719858627
 10
109.1351128199384
 20
-122.7012098217553
 10
109.1351128199384
 20
-122.5828707918369
 10
109.1351128199384
 20
-122.328967254574
 10
109.3211479761419
 20
-122.0919446851888
 10
109.6343071557511
 20
-122.0919446851888
 10
109.9516004499427
 20
-122.0919446851888
 10
110.1865559620367
 20
-122.3162204012786
 10
110.1865559620367
 20
-122.6186997848835
 97
        0
 97
        0
 75
     2
 76
     1
 98
        0
  0
ENDBLK
  5
230
330
22D
100
AcDbEntity
  8
0
100
AcDbBlockEnd
  0
BLOCK
  5
241
330
23F
100
AcDbEntity
  8
0
100
AcDbBlockBegin
  2
block 41
 70
     0
 10
0.0
 20
0.0
 30
0.0
  3
block 41
  1

  0
SPLINE
  5
243
330
23F
100
AcDbEntity
  8
_U+30EC_U+30A4_U+30E4_U+30FC 1
370
     0
100
AcDbSpline
210
0.0
220
0.0
230
1.0
 70
    11
 71
     3
 72
    26
 73
    22
 74
     0
 42
0.0000000001
 43
0.0000000001
 12
1.0
 22
0.0
 32
0.0
 13
1.0
 23
0.0
 33
0.0
 40
0.0
 40
0.0
 40
0.0
 40
0.0
 40
1.0
 40
1.0
 40
1.0
 40
2.0
 40
2.0
 40
2.0
 40
3.0
 40
3.0
 40
3.0
 40
4.0
 40
4.0
 40
4.0
 40
5.0
 40
5.0
 40
5.0
 40
6.0
 40
6.0
 40
6.0
 40
7.0
 40
7.0
 40
7.0
 40
7.0
 10
110.1359130584035
 20
-137.9378336243697
 30
0.0
 10
110.1359130584035
 20
-137.9378336243697
 30
0.0
 10
109.0314154458324
 20
-137.9378336243697
 30
0.0
 10
109.0314154458324
 20
-137.9378336243697
 30
0.0
 10
109.0314154458324
 20
-137.9378336243697
 30
0.0
 10
109.0314154458324
 20
-138.2678737718566
 30
0.0
 10
109.0314154458324
 20
-138.2678737718566
 30
0.0
 10
109.0314154458324
 20
-138.2678737718566
 30
0.0
 10
108.8832763399667
 20
-138.2678737718566
 30
0.0
 10
108.8832763399667
 20
-138.2678737718566
 30
0.0
 10
108.8684624293801
 20
-137.9357665670786
 30
0.0
 10
108.7058539224763
 20
-137.8892577780277
 30
0.0
 10
108.591476752366
 20
-137.8596299568545
 30
0.0
 10
108.591476752366
 20
-137.8596299568545
 30
0.0
 10
108.591476752366
 20
-137.7135579082799
 30
0.0
 10
108.591476752366
 20
-137.7135579082799
 30
0.0
 10
108.591476752366
 20
-137.7135579082799
 30
0.0
 10
110.1359130584035
 20
-137.7135579082799
 30
0.0
 10
110.1359130584035
 20
-137.7135579082799
 30
0.0
 10
110.1359130584035
 20
-137.7135579082799
 30
0.0
 10
110.1359130584035
 20
-137.9378336243697
 30
0.0
 10
110.1359130584035
 20
-137.9378336243697
 30
0.0
  0
HATCH
  5
244
330
23F
100
AcDbEntity
  8
_U+30EC_U+30A4_U+30E4_U+30FC 1
 62
   179
420
  2234388
100
AcDbHatch
 10
0.0
 20
0.0
 30
0.0
210
0.0
220
0.0
230
1.0
  2
SOLID
 70
     1
 71
     0
 91
        1
 92
        1
 93
        1
 72
     4
 94
        3
 73
     0
 74
     1
 95
       26
 96
       22
 40
0.0
 40
0.0
 40
0.0
 40
0.0
 40
1.0
 40
1.0
 40
1.0
 40
2.0
 40
2.0
 40
2.0
 40
3.0
 40
3.0
 40
3.0
 40
4.0
 40
4.0
 40
4.0
 40
5.0
 40
5.0
 40
5.0
 40
6.0
 40
6.0
 40
6.0
 40
7.0
 40
7.0
 40
7.0
 40
7.0
 10
110.1359130584035
 20
-137.9378336243697
 10
110.1359130584035
 20
-137.9378336243697
 10
109.0314154458324
 20
-137.9378336243697
 10
109.0314154458324
 20
-137.9378336243697
 10
109.0314154458324
 20
-137.9378336243697
 10
109.0314154458324
 20
-138.2678737718566
 10
109.0314154458324
 20
-138.2678737718566
 10
109.0314154458324
 20
-138.2678737718566
 10
108.8832763399667
 20
-138.2678737718566
 10
108.8832763399667
 20
-138.2678737718566
 10
108.8684624293801
 20
-137.9357665670786
 10
108.7058539224763
 20
-137.8892577780277
 10
108.591476752366
 20
-137.8596299568545
 10
108.591476752366
 20
-137.8596299568545
 10
108.591476752366
 20
-137.7135579082799
 10
108.591476752366
 20
-137.7135579082799
 10
108.591476752366
 20
-137.7135579082799
 10
110.1359130584035
 20
-137.7135579082799
 10
110.1359130584035
 20
-137.7135579082799
 10
110.1359130584035
 20
-137.7135579082799
 10
110.1359130584035
 20
-137.9378336243697
 10
110.1359130584035
 20
-137.9378336243697
 97
        0
 97
        0
 75
     2
 76
     1
 98
        0
  0
SPLINE
  5
245
330
23F
100
AcDbEntity
  8
_U+30EC_U+30A4_U+30E4_U+30FC 1
370
     0
100
AcDbSpline
210
0.0
220
0.0
230
1.0
 70
    11
 71
     3
 72
    26
 73
    22
 74
     0
 42
0.0000000001
 43
0.0000000001
 12
1.0
 22
0.0
 32
0.0
 13
1.0
 23
0.0
 33
0.0
 40
0.0
 40
0.0
 40
0.0
 40
0.0
 40
1.0
 40
1.0
 40
1.0
 40
2.0
 40
2.0
 40
2.0
 40
3.0
 40
3.0
 40
3.0
 40
4.0
 40
4.0
 40
4.0
 40
5.0
 40
5.0
 40
5.0
 40
6.0
 40
6.0
 40
6.0
 40
7.0
 40
7.0
 40
7.0
 40
7.0
 10
110.1359130584035
 20
-136.7609890066084
 30
0.0
 10
110.1359130584035
 20
-136.7609890066084
 30
0.0
 10
109.0314154458324
 20
-136.7609890066084
 30
0.0
 10
109.0314154458324
 20
-136.7609890066084
 30
0.0
 10
109.0314154458324
 20
-136.7609890066084
 30
0.0
 10
109.0314154458324
 20
-137.0910291540953
 30
0.0
 10
109.0314154458324
 20
-137.0910291540953
 30
0.0
 10
109.0314154458324
 20
-137.0910291540953
 30
0.0
 10
108.8832763399667
 20
-137.0910291540953
 30
0.0
 10
108.8832763399667
 20
-137.0910291540953
 30
0.0
 10
108.8684624293801
 20
-136.7589219493172
 30
0.0
 10
108.7058539224763
 20
-136.7124131602664
 30
0.0
 10
108.591476752366
 20
-136.6827853390932
 30
0.0
 10
108.591476752366
 20
-136.6827853390932
 30
0.0
 10
108.591476752366
 20
-136.5367132905186
 30
0.0
 10
108.591476752366
 20
-136.5367132905186
 30
0.0
 10
108.591476752366
 20
-136.5367132905186
 30
0.0
 10
110.1359130584035
 20
-136.5367132905186
 30
0.0
 10
110.1359130584035
 20
-136.5367132905186
 30
0.0
 10
110.1359130584035
 20
-136.5367132905186
 30
0.0
 10
110.1359130584035
 20
-136.7609890066084
 30
0.0
 10
110.1359130584035
 20
-136.7609890066084
 30
0.0
  0
HATCH
  5
246
330
23F
100
AcDbEntity
  8
_U+30EC_U+30A4_U+30E4_U+30FC 1
 62
   179
420
  2234388
100
AcDbHatch
 10
0.0
 20
0.0
 30
0.0
210
0.0
220
0.0
230
1.0
  2
SOLID
 70
     1
 71
     0
 91
        1
 92
        1
 93
        1
 72
     4
 94
        3
 73
     0
 74
     1
 95
       26
 96
       22
 40
0.0
 40
0.0
 40
0.0
 40
0.0
 40
1.0
 40
1.0
 40
1.0
 40
2.0
 40
2.0
 40
2.0
 40
3.0
 40
3.0
 40
3.0
 40
4.0
 40
4.0
 40
4.0
 40
5.0
 40
5.0
 40
5.0
 40
6.0
 40
6.0
 40
6.0
 40
7.0
 40
7.0
 40
7.0
 40
7.0
 10
110.1359130584035
 20
-136.7609890066084
 10
110.1359130584035
 20
-136.7609890066084
 10
109.0314154458324
 20
-136.7609890066084
 10
109.0314154458324
 20
-136.7609890066084
 10
109.0314154458324
 20
-136.7609890066084
 10
109.0314154458324
 20
-137.0910291540953
 10
109.0314154458324
 20
-137.0910291540953
 10
109.0314154458324
 20
-137.0910291540953
 10
108.8832763399667
 20
-137.0910291540953
 10
108.8832763399667
 20
-137.0910291540953
 10
108.8684624293801
 20
-136.7589219493172
 10
108.7058539224763
 20
-136.7124131602664
 10
108.591476752366
 20
-136.6827853390932
 10
108.591476752366
 20
-136.6827853390932
 10
108.591476752366
 20
-136.5367132905186
 10
108.591476752366
 20
-136.5367132905186
 10
108.591476752366
 20
-136.5367132905186
 10
110.1359130584035
 20
-136.5367132905186
 10
110.1359130584035
 20
-136.5367132905186
 10
110.1359130584035
 20
-136.5367132905186
 10
110.1359130584035
 20
-136.7609890066084
 10
110.1359130584035
 20
-136.7609890066084
 97
        0
 97
        0
 75
     2
 76
     1
 98
        0
  0
POLYLINE
  5
247
330
23F
100
AcDbEntity
  8
_U+30EC_U+30A4_U+30E4_U+30FC 1
370
     0
100
AcDb2dPolyline
 66
     1
 10
0.0
 20
0.0
 30
0.0
  0
VERTEX
  5
248
330
247
100
AcDbEntity
  8
_U+30EC_U+30A4_U+30E4_U+30FC 1
370
     0
100
AcDbVertex
100
AcDb2dVertex
 10
110.1359130584035
 20
-135.9755072359714
 30
0.0
  0
VERTEX
  5
249
330
247
100
AcDbEntity
  8
_U+30EC_U+30A4_U+30E4_U+30FC 1
370
     0
100
AcDbVertex
100
AcDb2dVertex
 10
109.8840765784318
 20
-135.9755072359714
 30
0.0
  0
VERTEX
  5
24A
330
247
100
AcDbEntity
  8
_U+30EC_U+30A4_U+30E4_U+30FC 1
370
     0
100
AcDbVertex
100
AcDb2dVertex
 10
109.8840765784318
 20
-135.7236707559996
 30
0.0
  0
VERTEX
  5
24B
330
247
100
AcDbEntity
  8
_U+30EC_U+30A4_U+30E4_U+30FC 1
370
     0
100
AcDbVertex
100
AcDb2dVertex
 10
110.1359130584035
 20
-135.7236707559996
 30
0.0
  0
VERTEX
  5
24C
330
247
100
AcDbEntity
  8
_U+30EC_U+30A4_U+30E4_U+30FC 1
370
     0
100
AcDbVertex
100
AcDb2dVertex
 10
110.1359130584035
 20
-135.9755072359714
 30
0.0
  0
SEQEND
  5
24D
330
247
100
AcDbEntity
  8
_U+30EC_U+30A4_U+30E4_U+30FC 1
370
     0
  0
HATCH
  5
24E
330
23F
100
AcDbEntity
  8
_U+30EC_U+30A4_U+30E4_U+30FC 1
 62
   179
420
  2234388
100
AcDbHatch
 10
0.0
 20
0.0
 30
0.0
210
0.0
220
0.0
230
1.0
  2
SOLID
 70
     1
 71
     0
 91
        1
 92
        1
 93
        4
 72
     1
 10
110.1359130584035
 20
-135.9755072359714
 11
109.8840765784318
 21
-135.9755072359714
 72
     1
 10
109.8840765784318
 20
-135.9755072359714
 11
109.8840765784318
 21
-135.7236707559996
 72
     1
 10
109.8840765784318
 20
-135.7236707559996
 11
110.1359130584035
 21
-135.7236707559996
 72
     1
 10
110.1359130584035
 20
-135.7236707559996
 11
110.1359130584035
 21
-135.9755072359714
 97
        0
 75
     2
 76
     1
 98
        0
  0
SPLINE
  5
24F
330
23F
100
AcDbEntity
  8
_U+30EC_U+30A4_U+30E4_U+30FC 1
370
     0
100
AcDbSpline
210
0.0
220
0.0
230
1.0
 70
    11
 71
     3
 72
    53
 73
    49
 74
     0
 42
0.0000000001
 43
0.0000000001
 12
1.0
 22
0.0
 32
0.0
 13
1.0
 23
0.0
 33
0.0
 40
0.0
 40
0.0
 40
0.0
 40
0.0
 40
1.0
 40
1.0
 40
1.0
 40
2.0
 40
2.0
 40
2.0
 40
3.0
 40
3.0
 40
3.0
 40
4.0
 40
4.0
 40
4.0
 40
5.0
 40
5.0
 40
5.0
 40
6.0
 40
6.0
 40
6.0
 40
7.0
 40
7.0
 40
7.0
 40
8.0
 40
8.0
 40
8.0
 40
9.0
 40
9.0
 40
9.0
 40
10.0
 40
10.0
 40
10.0
 40
11.0
 40
11.0
 40
11.0
 40
12.0
 40
12.0
 40
12.0
 40
13.0
 40
13.0
 40
13.0
 40
14.0
 40
14.0
 40
14.0
 40
15.0
 40
15.0
 40
15.0
 40
16.0
 40
16.0
 40
16.0
 40
16.0
 10
110.1865559620367
 20
-135.0064018759706
 30
0.0
 10
110.1865559620367
 20
-135.0846055434858
 30
0.0
 10
110.169674994159
 20
-135.1862358603007
 30
0.0
 10
110.1062852372304
 20
-135.287521667567
 30
0.0
 10
109.9960421817024
 20
-135.4611544800236
 30
0.0
 10
109.8651285532629
 20
-135.4821695624836
 30
0.0
 10
109.756952555026
 20
-135.501462097201
 30
0.0
 10
109.756952555026
 20
-135.501462097201
 30
0.0
 10
109.756952555026
 20
-135.2792534384024
 30
0.0
 10
109.756952555026
 20
-135.2792534384024
 30
0.0
 10
109.9560790740735
 20
-135.2241319106384
 30
0.0
 10
109.9857068952466
 20
-135.0973523967812
 30
0.0
 10
109.9857068952466
 20
-135.003990309131
 30
0.0
 10
109.9857068952466
 20
-134.8644639419783
 30
0.0
 10
109.8861436357229
 20
-134.7121907215303
 30
0.0
 10
109.6535996904686
 20
-134.7121907215303
 30
0.0
 10
109.3976290959145
 20
-134.7121907215303
 30
0.0
 10
109.3276936575639
 20
-134.8920247058603
 30
0.0
 10
109.3276936575639
 20
-135.0126030478441
 30
0.0
 10
109.3276936575639
 20
-135.0442979263084
 30
0.0
 10
109.3276936575639
 20
-135.1862358603007
 30
0.0
 10
109.4565402287123
 20
-135.2747748142716
 30
0.0
 10
109.4565402287123
 20
-135.2747748142716
 30
0.0
 10
109.4375922035434
 20
-135.4504746840193
 30
0.0
 10
109.4375922035434
 20
-135.4504746840193
 30
0.0
 10
109.4375922035434
 20
-135.4504746840193
 30
0.0
 10
108.591476752366
 20
-135.3298963420356
 30
0.0
 10
108.591476752366
 20
-135.3298963420356
 30
0.0
 10
108.591476752366
 20
-135.3298963420356
 30
0.0
 10
108.591476752366
 20
-134.5513047623691
 30
0.0
 10
108.591476752366
 20
-134.5513047623691
 30
0.0
 10
108.591476752366
 20
-134.5513047623691
 30
0.0
 10
108.7861246472826
 20
-134.5513047623691
 30
0.0
 10
108.7861246472826
 20
-134.5513047623691
 30
0.0
 10
108.7861246472826
 20
-134.5513047623691
 30
0.0
 10
108.7861246472826
 20
-135.1669433255833
 30
0.0
 10
108.7861246472826
 20
-135.1669433255833
 30
0.0
 10
108.7861246472826
 20
-135.1669433255833
 30
0.0
 10
109.2091823728713
 20
-135.2327446493515
 30
0.0
 10
109.2091823728713
 20
-135.2327446493515
 30
0.0
 10
109.1754204371159
 20
-135.1714219497141
 30
0.0
 10
109.1351128199384
 20
-135.0887396580681
 30
0.0
 10
109.1351128199384
 20
-134.9702283733755
 30
0.0
 10
109.1351128199384
 20
-134.7163248361126
 30
0.0
 10
109.3211479761419
 20
-134.4796467762759
 30
0.0
 10
109.6343071557511
 20
-134.4796467762759
 30
0.0
 10
109.9516004499427
 20
-134.4796467762759
 30
0.0
 10
110.1865559620367
 20
-134.7035779828172
 30
0.0
 10
110.1865559620367
 20
-135.0064018759706
 30
0.0
  0
HATCH
  5
250
330
23F
100
AcDbEntity
  8
_U+30EC_U+30A4_U+30E4_U+30FC 1
 62
   179
420
  2234388
100
AcDbHatch
 10
0.0
 20
0.0
 30
0.0
210
0.0
220
0.0
230
1.0
  2
SOLID
 70
     1
 71
     0
 91
        1
 92
        1
 93
        1
 72
     4
 94
        3
 73
     0
 74
     1
 95
       53
 96
       49
 40
0.0
 40
0.0
 40
0.0
 40
0.0
 40
1.0
 40
1.0
 40
1.0
 40
2.0
 40
2.0
 40
2.0
 40
3.0
 40
3.0
 40
3.0
 40
4.0
 40
4.0
 40
4.0
 40
5.0
 40
5.0
 40
5.0
 40
6.0
 40
6.0
 40
6.0
 40
7.0
 40
7.0
 40
7.0
 40
8.0
 40
8.0
 40
8.0
 40
9.0
 40
9.0
 40
9.0
 40
10.0
 40
10.0
 40
10.0
 40
11.0
 40
11.0
 40
11.0
 40
12.0
 40
12.0
 40
12.0
 40
13.0
 40
13.0
 40
13.0
 40
14.0
 40
14.0
 40
14.0
 40
15.0
 40
15.0
 40
15.0
 40
16.0
 40
16.0
 40
16.0
 40
16.0
 10
110.1865559620367
 20
-135.0064018759706
 10
110.1865559620367
 20
-135.0846055434858
 10
110.169674994159
 20
-135.1862358603007
 10
110.1062852372304
 20
-135.287521667567
 10
109.9960421817024
 20
-135.4611544800236
 10
109.8651285532629
 20
-135.4821695624836
 10
109.756952555026
 20
-135.501462097201
 10
109.756952555026
 20
-135.501462097201
 10
109.756952555026
 20
-135.2792534384024
 10
109.756952555026
 20
-135.2792534384024
 10
109.9560790740735
 20
-135.2241319106384
 10
109.9857068952466
 20
-135.0973523967812
 10
109.9857068952466
 20
-135.003990309131
 10
109.9857068952466
 20
-134.8644639419783
 10
109.8861436357229
 20
-134.7121907215303
 10
109.6535996904686
 20
-134.7121907215303
 10
109.3976290959145
 20
-134.7121907215303
 10
109.3276936575639
 20
-134.8920247058603
 10
109.3276936575639
 20
-135.0126030478441
 10
109.3276936575639
 20
-135.0442979263084
 10
109.3276936575639
 20
-135.1862358603007
 10
109.4565402287123
 20
-135.2747748142716
 10
109.4565402287123
 20
-135.2747748142716
 10
109.4375922035434
 20
-135.4504746840193
 10
109.4375922035434
 20
-135.4504746840193
 10
109.4375922035434
 20
-135.4504746840193
 10
108.591476752366
 20
-135.3298963420356
 10
108.591476752366
 20
-135.3298963420356
 10
108.591476752366
 20
-135.3298963420356
 10
108.591476752366
 20
-134.5513047623691
 10
108.591476752366
 20
-134.5513047623691
 10
108.591476752366
 20
-134.5513047623691
 10
108.7861246472826
 20
-134.5513047623691
 10
108.7861246472826
 20
-134.5513047623691
 10
108.7861246472826
 20
-134.5513047623691
 10
108.7861246472826
 20
-135.1669433255833
 10
108.7861246472826
 20
-135.1669433255833
 10
108.7861246472826
 20
-135.1669433255833
 10
109.2091823728713
 20
-135.2327446493515
 10
109.2091823728713
 20
-135.2327446493515
 10
109.1754204371159
 20
-135.1714219497141
 10
109.1351128199384
 20
-135.0887396580681
 10
109.1351128199384
 20
-134.9702283733755
 10
109.1351128199384
 20
-134.7163248361126
 10
109.3211479761419
 20
-134.4796467762759
 10
109.6343071557511
 20
-134.4796467762759
 10
109.9516004499427
 20
-134.4796467762759
 10
110.1865559620367
 20
-134.7035779828172
 10
110.1865559620367
 20
-135.0064018759706
 97
        0
 97
        0
 75
     2
 76
     1
 98
        0
  0
ENDBLK
  5
242
330
23F
100
AcDbEntity
  8
0
100
AcDbBlockEnd
  0
ENDSEC
  0
SECTION
  2
ENTITIES
  0
INSERT
  5
42
330
1F
100
AcDbEntity
  8
_U+30EC_U+30A4_U+30E4_U+30FC 1
100
AcDbBlockReference
  2
block 2
 10
0.0
 20
0.0
 30
0.0
  0
INSERT
  5
4C
330
1F
100
AcDbEntity
  8
_U+30EC_U+30A4_U+30E4_U+30FC 1
100
AcDbBlockReference
  2
block 4
 10
0.0
 20
0.0
 30
0.0
  0
SPLINE
  5
21F
330
1F
100
AcDbEntity
  8
_U+30EC_U+30A4_U+30E4_U+30FC 1
 62
   179
420
  2234388
370
     9
100
AcDbSpline
210
0.0
220
0.0
230
1.0
 70
    11
 71
     3
 72
    17
 73
    13
 74
     0
 42
0.0000000001
 43
0.0000000001
 12
1.0
 22
0.0
 32
0.0
 13
1.0
 23
0.0
 33
0.0
 40
0.0
 40
0.0
 40
0.0
 40
0.0
 40
1.0
 40
1.0
 40
1.0
 40
2.0
 40
2.0
 40
2.0
 40
3.0
 40
3.0
 40
3.0
 40
4.0
 40
4.0
 40
4.0
 40
4.0
 10
110.6085657892515
 20
-130.1870649674533
 30
0.0
 10
110.6085657892515
 20
-130.1319258008002
 30
0.0
 10
110.5637982903936
 20
-130.0871583008116
 30
0.0
 10
110.5086591251337
 20
-130.0871583008116
 30
0.0
 10
110.4535552376506
 20
-130.0871583008116
 30
0.0
 10
110.4087524610158
 20
-130.1319258008002
 30
0.0
 10
110.4087524610158
 20
-130.1870649674533
 30
0.0
 10
110.4087524610158
 20
-130.2421688563282
 30
0.0
 10
110.4535552376506
 20
-130.2869716340949
 30
0.0
 10
110.5086591251337
 20
-130.2869716340949
 30
0.0
 10
110.5637982903936
 20
-130.2869716340949
 30
0.0
 10
110.6085657892515
 20
-130.2421688563282
 30
0.0
 10
110.6085657892515
 20
-130.1870649674533
 30
0.0
  0
SPLINE
  5
220
330
1F
100
AcDbEntity
  8
_U+30EC_U+30A4_U+30E4_U+30FC 1
 62
   179
420
  2234388
370
     9
100
AcDbSpline
210
0.0
220
0.0
230
1.0
 70
    11
 71
     3
 72
    17
 73
    13
 74
     0
 42
0.0000000001
 43
0.0000000001
 12
1.0
 22
0.0
 32
0.0
 13
1.0
 23
0.0
 33
0.0
 40
0.0
 40
0.0
 40
0.0
 40
0.0
 40
1.0
 40
1.0
 40
1.0
 40
2.0
 40
2.0
 40
2.0
 40
3.0
 40
3.0
 40
3.0
 40
4.0
 40
4.0
 40
4.0
 40
4.0
 10
110.6085657892515
 20
-116.1875727487308
 30
0.0
 10
110.6085657892515
 20
-116.1324335820781
 30
0.0
 10
110.5637982903936
 20
-116.0876660820892
 30
0.0
 10
110.5086591251337
 20
-116.0876660820892
 30
0.0
 10
110.4535552376506
 20
-116.0876660820892
 30
0.0
 10
110.4087524610158
 20
-116.1324335820781
 30
0.0
 10
110.4087524610158
 20
-116.1875727487308
 30
0.0
 10
110.4087524610158
 20
-116.242676637606
 30
0.0
 10
110.4535552376506
 20
-116.2874794153724
 30
0.0
 10
110.5086591251337
 20
-116.2874794153724
 30
0.0
 10
110.5637982903936
 20
-116.2874794153724
 30
0.0
 10
110.6085657892515
 20
-116.242676637606
 30
0.0
 10
110.6085657892515
 20
-116.1875727487308
 30
0.0
  0
POLYLINE
  5
221
330
1F
100
AcDbEntity
  8
_U+30EC_U+30A4_U+30E4_U+30FC 1
 62
   179
420
  2234388
370
     9
100
AcDb2dPolyline
 66
     1
 10
0.0
 20
0.0
 30
0.0
  0
VERTEX
  5
222
330
221
100
AcDbEntity
  8
_U+30EC_U+30A4_U+30E4_U+30FC 1
 62
   179
420
  2234388
370
     9
100
AcDbVertex
100
AcDb2dVertex
 10
110.5086591251337
 20
-116.1875727487308
 30
0.0
  0
VERTEX
  5
223
330
221
100
AcDbEntity
  8
_U+30EC_U+30A4_U+30E4_U+30FC 1
 62
   179
420
  2234388
370
     9
100
AcDbVertex
100
AcDb2dVertex
 10
110.5086591251337
 20
-130.1870649674533
 30
0.0
  0
SEQEND
  5
224
330
221
100
AcDbEntity
  8
_U+30EC_U+30A4_U+30E4_U+30FC 1
 62
   179
420
  2234388
370
     9
  0
POLYLINE
  5
225
330
1F
100
AcDbEntity
  8
_U+30EC_U+30A4_U+30E4_U+30FC 1
 62
   179
420
  2234388
370
     9
100
AcDb2dPolyline
 66
     1
 10
0.0
 20
0.0
 30
0.0
  0
VERTEX
  5
226
330
225
100
AcDbEntity
  8
_U+30EC_U+30A4_U+30E4_U+30FC 1
 62
   179
420
  2234388
370
     9
100
AcDbVertex
100
AcDb2dVertex
 10
109.0486530512704
 20
-116.1875727487308
 30
0.0
  0
VERTEX
  5
227
330
225
100
AcDbEntity
  8
_U+30EC_U+30A4_U+30E4_U+30FC 1
 62
   179
420
  2234388
370
     9
100
AcDbVertex
100
AcDb2dVertex
 10
111.5087840996184
 20
-116.1875727487308
 30
0.0
  0
SEQEND
  5
228
330
225
100
AcDbEntity
  8
_U+30EC_U+30A4_U+30E4_U+30FC 1
 62
   179
420
  2234388
370
     9
  0
POLYLINE
  5
229
330
1F
100
AcDbEntity
  8
_U+30EC_U+30A4_U+30E4_U+30FC 1
 62
   179
420
  2234388
370
     9
100
AcDb2dPolyline
 66
     1
 10
0.0
 20
0.0
 30
0.0
  0
VERTEX
  5
22A
330
229
100
AcDbEntity
  8
_U+30EC_U+30A4_U+30E4_U+30FC 1
 62
   179
420
  2234388
370
     9
100
AcDbVertex
100
AcDb2dVertex
 10
109.0486530512704
 20
-130.1870649674533
 30
0.0
  0
VERTEX
  5
22B
330
229
100
AcDbEntity
  8
_U+30EC_U+30A4_U+30E4_U+30FC 1
 62
   179
420
  2234388
370
     9
100
AcDbVertex
100
AcDb2dVertex
 10
111.5087840996184
 20
-130.1870649674533
 30
0.0
  0
SEQEND
  5
22C
330
229
100
AcDbEntity
  8
_U+30EC_U+30A4_U+30E4_U+30FC 1
 62
   179
420
  2234388
370
     9
  0
INSERT
  5
22E
330
1F
100
AcDbEntity
  8
_U+30EC_U+30A4_U+30E4_U+30FC 1
100
AcDbBlockReference
  2
block 40
 10
0.0
 20
0.0
 30
0.0
  0
SPLINE
  5
235
330
1F
100
AcDbEntity
  8
_U+30EC_U+30A4_U+30E4_U+30FC 1
 62
   179
420
  2234388
370
     9
100
AcDbSpline
210
0.0
220
0.0
230
1.0
 70
    11
 71
     3
 72
    17
 73
    13
 74
     0
 42
0.0000000001
 43
0.0000000001
 12
1.0
 22
0.0
 32
0.0
 13
1.0
 23
0.0
 33
0.0
 40
0.0
 40
0.0
 40
0.0
 40
0.0
 40
1.0
 40
1.0
 40
1.0
 40
2.0
 40
2.0
 40
2.0
 40
3.0
 40
3.0
 40
3.0
 40
4.0
 40
4.0
 40
4.0
 40
4.0
 10
110.5437957909039
 20
-130.1870649674533
 30
0.0
 10
110.5437957909039
 20
-130.2063619118931
 30
0.0
 10
110.5283088468546
 20
-130.222201634111
 30
0.0
 10
110.5086591251337
 20
-130.222201634111
 30
0.0
 10
110.4893621811815
 20
-130.222201634111
 30
0.0
 10
110.4735224593634
 20
-130.2063619118931
 30
0.0
 10
110.4735224593634
 20
-130.1870649674533
 30
0.0
 10
110.4735224593634
 20
-130.1677680230134
 30
0.0
 10
110.4893621811815
 20
-130.1519283007955
 30
0.0
 10
110.5086591251337
 20
-130.1519283007955
 30
0.0
 10
110.5283088468546
 20
-130.1519283007955
 30
0.0
 10
110.5437957909039
 20
-130.1677680230134
 30
0.0
 10
110.5437957909039
 20
-130.1870649674533
 30
0.0
  0
SPLINE
  5
236
330
1F
100
AcDbEntity
  8
_U+30EC_U+30A4_U+30E4_U+30FC 1
 62
   179
420
  2234388
370
     9
100
AcDbSpline
210
0.0
220
0.0
230
1.0
 70
    11
 71
     3
 72
    17
 73
    13
 74
     0
 42
0.0000000001
 43
0.0000000001
 12
1.0
 22
0.0
 32
0.0
 13
1.0
 23
0.0
 33
0.0
 40
0.0
 40
0.0
 40
0.0
 40
0.0
 40
1.0
 40
1.0
 40
1.0
 40
2.0
 40
2.0
 40
2.0
 40
3.0
 40
3.0
 40
3.0
 40
4.0
 40
4.0
 40
4.0
 40
4.0
 10
110.6085657892515
 20
-142.687251630995
 30
0.0
 10
110.6085657892515
 20
-142.6321124643419
 30
0.0
 10
110.5637982903936
 20
-142.5873449643533
 30
0.0
 10
110.5086591251337
 20
-142.5873449643533
 30
0.0
 10
110.4535552376506
 20
-142.5873449643533
 30
0.0
 10
110.4087524610158
 20
-142.6321124643419
 30
0.0
 10
110.4087524610158
 20
-142.687251630995
 30
0.0
 10
110.4087524610158
 20
-142.7423555198699
 30
0.0
 10
110.4535552376506
 20
-142.7871582976366
 30
0.0
 10
110.5086591251337
 20
-142.7871582976366
 30
0.0
 10
110.5637982903936
 20
-142.7871582976366
 30
0.0
 10
110.6085657892515
 20
-142.7423555198699
 30
0.0
 10
110.6085657892515
 20
-142.687251630995
 30
0.0
  0
POLYLINE
  5
237
330
1F
100
AcDbEntity
  8
_U+30EC_U+30A4_U+30E4_U+30FC 1
 62
   179
420
  2234388
370
     9
100
AcDb2dPolyline
 66
     1
 10
0.0
 20
0.0
 30
0.0
  0
VERTEX
  5
238
330
237
100
AcDbEntity
  8
_U+30EC_U+30A4_U+30E4_U+30FC 1
 62
   179
420
  2234388
370
     9
100
AcDbVertex
100
AcDb2dVertex
 10
110.5086591251337
 20
-130.187417745231
 30
0.0
  0
VERTEX
  5
239
330
237
100
AcDbEntity
  8
_U+30EC_U+30A4_U+30E4_U+30FC 1
 62
   179
420
  2234388
370
     9
100
AcDbVertex
100
AcDb2dVertex
 10
110.5086591251337
 20
-142.687251630995
 30
0.0
  0
SEQEND
  5
23A
330
237
100
AcDbEntity
  8
_U+30EC_U+30A4_U+30E4_U+30FC 1
 62
   179
420
  2234388
370
     9
  0
POLYLINE
  5
23B
330
1F
100
AcDbEntity
  8
_U+30EC_U+30A4_U+30E4_U+30FC 1
 62
   179
420
  2234388
370
     9
100
AcDb2dPolyline
 66
     1
 10
0.0
 20
0.0
 30
0.0
  0
VERTEX
  5
23C
330
23B
100
AcDbEntity
  8
_U+30EC_U+30A4_U+30E4_U+30FC 1
 62
   179
420
  2234388
370
     9
100
AcDbVertex
100
AcDb2dVertex
 10
109.0486530512704
 20
-142.687251630995
 30
0.0
  0
VERTEX
  5
23D
330
23B
100
AcDbEntity
  8
_U+30EC_U+30A4_U+30E4_U+30FC 1
 62
   179
420
  2234388
370
     9
100
AcDbVertex
100
AcDb2dVertex
 10
111.5087840996184
 20
-142.687251630995
 30
0.0
  0
SEQEND
  5
23E
330
23B
100
AcDbEntity
  8
_U+30EC_U+30A4_U+30E4_U+30FC 1
 62
   179
420
  2234388
370
     9
  0
INSERT
  5
240
330
1F
100
AcDbEntity
  8
_U+30EC_U+30A4_U+30E4_U+30FC 1
100
AcDbBlockReference
  2
block 41
 10
0.0
 20
0.0
 30
0.0
  0
SPLINE
  5
251
330
1F
100
AcDbEntity
  8
_U+30EC_U+30A4_U+30E4_U+30FC 1
 62
   179
420
  2234388
370
     9
100
AcDbSpline
210
0.0
220
0.0
230
1.0
 70
    11
 71
     3
 72
    17
 73
    13
 74
     0
 42
0.0000000001
 43
0.0000000001
 12
1.0
 22
0.0
 32
0.0
 13
1.0
 23
0.0
 33
0.0
 40
0.0
 40
0.0
 40
0.0
 40
0.0
 40
1.0
 40
1.0
 40
1.0
 40
2.0
 40
2.0
 40
2.0
 40
3.0
 40
3.0
 40
3.0
 40
4.0
 40
4.0
 40
4.0
 40
4.0
 10
110.5437957909039
 20
-142.687251630995
 30
0.0
 10
110.5437957909039
 20
-142.7065485754342
 30
0.0
 10
110.5283088468546
 20
-142.7223882976527
 30
0.0
 10
110.5086591251337
 20
-142.7223882976527
 30
0.0
 10
110.4893621811815
 20
-142.7223882976527
 30
0.0
 10
110.4735224593634
 20
-142.7065485754342
 30
0.0
 10
110.4735224593634
 20
-142.687251630995
 30
0.0
 10
110.4735224593634
 20
-142.6679546865552
 30
0.0
 10
110.4893621811815
 20
-142.6521149643373
 30
0.0
 10
110.5086591251337
 20
-142.6521149643373
 30
0.0
 10
110.5283088468546
 20
-142.6521149643373
 30
0.0
 10
110.5437957909039
 20
-142.6679546865552
 30
0.0
 10
110.5437957909039
 20
-142.687251630995
 30
0.0
  0
ENDSEC
  0
SECTION
  2
OBJECTS
  0
DICTIONARY
  5
C
330
0
100
AcDbDictionary
281
     1
  3
ACAD_GROUP
350
D
  3
ACAD_LAYOUT
350
1A
  3
ACAD_MATERIAL
350
3B
  3
ACAD_MLEADERSTYLE
350
253
  3
ACAD_MLINESTYLE
350
17
  3
ACAD_PLOTSETTINGS
350
19
  3
ACAD_PLOTSTYLENAME
350
E
  3
ACAD_TABLESTYLE
350
252
  3
ACAD_VISUALSTYLE
350
2A
  0
SUN
  5
3F
330
29
100
AcDbSun
 90
        1
290
     0
 63
     7
421
 16777215
 40
1.0
291
     1
 91
  2455826
 92
 54000000
292
     0
 70
     2
 71
   256
280
     1
  0
DICTIONARY
  5
D
102
{ACAD_REACTORS
330
C
102
}
330
C
100
AcDbDictionary
281
     1
  0
DICTIONARY
  5
1A
102
{ACAD_REACTORS
330
C
102
}
330
C
100
AcDbDictionary
281
     1
  3
Layout1
350
1E
  3
Layout2
350
26
  3
Model
350
22
  0
DICTIONARY
  5
3B
102
{ACAD_REACTORS
330
C
102
}
330
C
100
AcDbDictionary
281
     1
  3
ByBlock
350
3D
  3
ByLayer
350
3C
  3
Global
350
3E
  0
DICTIONARY
  5
253
102
{ACAD_REACTORS
330
C
102
}
330
C
100
AcDbDictionary
281
     1
  0
DICTIONARY
  5
17
102
{ACAD_REACTORS
330
C
102
}
330
C
100
AcDbDictionary
281
     1
  3
Standard
350
18
  0
DICTIONARY
  5
19
102
{ACAD_REACTORS
330
C
102
}
330
C
100
AcDbDictionary
281
     1
  0
ACDBDICTIONARYWDFLT
  5
E
102
{ACAD_REACTORS
330
C
102
}
330
C
100
AcDbDictionary
281
     1
  3
Normal
350
F
100
AcDbDictionaryWithDefault
340
F
  0
DICTIONARY
  5
252
102
{ACAD_REACTORS
330
C
102
}
330
C
100
AcDbDictionary
281
     1
  0
DICTIONARY
  5
2A
102
{ACAD_REACTORS
330
C
102
}
330
C
100
AcDbDictionary
281
     1
  3
2dWireframe
350
2F
  3
3D Hidden
350
31
  3
3dWireframe
350
30
  3
Basic
350
32
  3
Brighten
350
36
  3
ColorChange
350
3A
  3
Conceptual
350
34
  3
Dim
350
35
  3
Facepattern
350
39
  3
Flat
350
2B
  3
FlatWithEdges
350
2C
  3
Gouraud
350
2D
  3
GouraudWithEdges
350
2E
  3
Linepattern
350
38
  3
Realistic
350
33
  3
Thicken
350
37
  0
LAYOUT
  5
1E
102
{ACAD_REACTORS
330
1A
102
}
330
1A
100
AcDbPlotSettings
  1

  2
none_device
  4

  6

 40
0.0
 41
0.0
 42
0.0
 43
0.0
 44
0.0
 45
0.0
 46
0.0
 47
0.0
 48
0.0
 49
0.0
140
0.0
141
0.0
142
1.0
143
1.0
 70
   688
 72
     0
 73
     0
 74
     5
  7

 75
    16
 76
     0
 77
     2
 78
   300
147
1.0
148
0.0
149
0.0
100
AcDbLayout
  1
Layout1
 70
     1
 71
     1
 10
0.0
 20
0.0
 11
12.0
 21
9.0
 12
0.0
 22
0.0
 32
0.0
 14
1.000000000000000E+20
 24
1.000000000000000E+20
 34
1.000000000000000E+20
 15
-1.000000000000000E+20
 25
-1.000000000000000E+20
 35
-1.000000000000000E+20
146
0.0
 13
0.0
 23
0.0
 33
0.0
 16
1.0
 26
0.0
 36
0.0
 17
0.0
 27
1.0
 37
0.0
 76
     0
330
1B
  0
LAYOUT
  5
26
102
{ACAD_REACTORS
330
1A
102
}
330
1A
100
AcDbPlotSettings
  1

  2
none_device
  4

  6

 40
0.0
 41
0.0
 42
0.0
 43
0.0
 44
0.0
 45
0.0
 46
0.0
 47
0.0
 48
0.0
 49
0.0
140
0.0
141
0.0
142
1.0
143
1.0
 70
   688
 72
     0
 73
     0
 74
     5
  7

 75
    16
 76
     0
 77
     2
 78
   300
147
1.0
148
0.0
149
0.0
100
AcDbLayout
  1
Layout2
 70
     1
 71
     2
 10
0.0
 20
0.0
 11
0.0
 21
0.0
 12
0.0
 22
0.0
 32
0.0
 14
0.0
 24
0.0
 34
0.0
 15
0.0
 25
0.0
 35
0.0
146
0.0
 13
0.0
 23
0.0
 33
0.0
 16
1.0
 26
0.0
 36
0.0
 17
0.0
 27
1.0
 37
0.0
 76
     0
330
23
  0
LAYOUT
  5
22
102
{ACAD_REACTORS
330
1A
102
}
330
1A
100
AcDbPlotSettings
  1

  2
none_device
  4

  6

 40
0.0
 41
0.0
 42
0.0
 43
0.0
 44
0.0
 45
0.0
 46
0.0
 47
0.0
 48
0.0
 49
0.0
140
0.0
141
0.0
142
1.0
143
1.0
 70
  1712
 72
     0
 73
     0
 74
     0
  7

 75
     0
 76
     0
 77
     2
 78
   300
147
1.0
148
0.0
149
0.0
100
AcDbLayout
  1
Model
 70
     1
 71
     0
 10
0.0
 20
0.0
 11
12.0
 21
9.0
 12
0.0
 22
0.0
 32
0.0
 14
1.000000000000000E+20
 24
1.000000000000000E+20
 34
1.000000000000000E+20
 15
-1.000000000000000E+20
 25
-1.000000000000000E+20
 35
-1.000000000000000E+20
146
0.0
 13
0.0
 23
0.0
 33
0.0
 16
1.0
 26
0.0
 36
0.0
 17
0.0
 27
1.0
 37
0.0
 76
     0
330
1F
331
29
  0
MATERIAL
  5
3D
102
{ACAD_REACTORS
330
3B
102
}
330
3B
100
AcDbMaterial
  1
ByBlock
 72
     1
 94
      127
  0
MATERIAL
  5
3C
102
{ACAD_REACTORS
330
3B
102
}
330
3B
100
AcDbMaterial
  1
ByLayer
 72
     1
 94
      127
  0
MATERIAL
  5
3E
102
{ACAD_REACTORS
330
3B
102
}
330
3B
100
AcDbMaterial
  1
Global
 72
     1
 94
      127
  0
MLINESTYLE
  5
18
102
{ACAD_REACTORS
330
17
102
}
330
17
100
AcDbMlineStyle
  2
Standard
 70
     0
  3

 62
   256
 51
90.0
 52
90.0
 71
     2
 49
0.5
 62
   256
  6
BYLAYER
 49
-0.5
 62
   256
  6
BYLAYER
  0
ACDBPLACEHOLDER
  5
F
102
{ACAD_REACTORS
330
E
102
}
330
E
  0
VISUALSTYLE
  5
2F
102
{ACAD_REACTORS
330
2A
102
}
330
2A
100
AcDbVisualStyle
  2
2dWireframe
 70
     4
177
     2
291
     0
 71
     0
176
     1
 72
     2
176
     1
 73
     0
176
     1
 90
        0
176
     1
 40
-0.6
176
     1
 41
-30.0
176
     1
 62
     5
 63
     7
421
 16777215
176
     1
 74
     1
176
     1
 91
        4
176
     1
 64
     7
176
     1
 65
   257
176
     1
 75
     1
176
     1
175
     1
176
     1
 42
1.0
176
     1
 92
        0
176
     1
 66
   257
176
     1
 43
1.0
176
     1
 76
     1
176
     1
 77
     6
176
     1
 78
     2
176
     1
 67
     7
176
     1
 79
     5
176
     1
170
     0
176
     1
171
     0
176
     1
290
     0
176
     1
 93
        1
176
     1
 44
0.0
176
     1
173
     0
176
     1
  0
VISUALSTYLE
  5
31
102
{ACAD_REACTORS
330
2A
102
}
330
2A
100
AcDbVisualStyle
  2
3D Hidden
 70
     6
177
     2
291
     0
 71
     1
176
     1
 72
     2
176
     1
 73
     2
176
     1
 90
        0
176
     1
 40
-0.6
176
     1
 41
-30.0
176
     1
 62
     5
 63
     7
421
 16777215
176
     1
 74
     2
176
     1
 91
        2
176
     1
 64
     7
176
     1
 65
   257
176
     1
 75
     2
176
     1
175
     1
176
     1
 42
40.0
176
     1
 92
        0
176
     1
 66
   257
176
     1
 43
1.0
176
     1
 76
     1
176
     1
 77
     6
176
     1
 78
     2
176
     1
 67
     7
176
     1
 79
     3
176
     1
170
     0
176
     1
171
     0
176
     1
290
     0
176
     1
 93
        1
176
     1
 44
0.0
176
     1
173
     0
176
     1
  0
VISUALSTYLE
  5
30
102
{ACAD_REACTORS
330
2A
102
}
330
2A
100
AcDbVisualStyle
  2
3dWireframe
 70
     5
177
     2
291
     0
 71
     0
176
     1
 72
     2
176
     1
 73
     0
176
     1
 90
        0
176
     1
 40
-0.6
176
     1
 41
-30.0
176
     1
 62
     5
 63
     7
421
 16777215
176
     1
 74
     1
176
     1
 91
        4
176
     1
 64
     7
176
     1
 65
   257
176
     1
 75
     1
176
     1
175
     1
176
     1
 42
1.0
176
     1
 92
        0
176
     1
 66
   257
176
     1
 43
1.0
176
     1
 76
     1
176
     1
 77
     6
176
     1
 78
     2
176
     1
 67
     7
176
     1
 79
     5
176
     1
170
     0
176
     1
171
     0
176
     1
290
     0
176
     1
 93
        1
176
     1
 44
0.0
176
     1
173
     0
176
     1
  0
VISUALSTYLE
  5
32
102
{ACAD_REACTORS
330
2A
102
}
330
2A
100
AcDbVisualStyle
  2
Basic
 70
     7
177
     2
291
     1
 71
     1
176
     1
 72
     0
176
     1
 73
     1
176
     1
 90
        0
176
     1
 40
-0.6
176
     1
 41
-30.0
176
     1
 62
     5
 63
     7
421
 16777215
176
     1
 74
     0
176
     1
 91
        4
176
     1
 64
     7
176
     1
 65
   257
176
     1
 75
     1
176
     1
175
     1
176
     1
 42
1.0
176
     1
 92
        8
176
     1
 66
     7
176
     1
 43
1.0
176
     1
 76
     1
176
     1
 77
     6
176
     1
 78
     2
176
     1
 67
     7
176
     1
 79
     5
176
     1
170
     0
176
     1
171
     0
176
     1
290
     0
176
     1
 93
        1
176
     1
 44
0.0
176
     1
173
     0
176
     1
  0
VISUALSTYLE
  5
36
102
{ACAD_REACTORS
330
2A
102
}
330
2A
100
AcDbVisualStyle
  2
Brighten
 70
    12
177
     2
291
     1
 71
     2
176
     1
 72
     2
176
     1
 73
     0
176
     1
 90
        0
176
     1
 40
-0.6
176
     1
 41
-30.0
176
     1
 62
     5
 63
     7
421
 16777215
176
     1
 74
     1
176
     1
 91
        4
176
     1
 64
     7
176
     1
 65
   257
176
     1
 75
     1
176
     1
175
     1
176
     1
 42
1.0
176
     1
 92
        8
176
     1
 66
     7
176
     1
 43
1.0
176
     1
 76
     1
176
     1
 77
     6
176
     1
 78
     2
176
     1
 67
     7
176
     1
 79
     5
176
     1
170
     0
176
     1
171
     0
176
     1
290
     0
176
     1
 93
        1
176
     1
 44
50.0
176
     1
173
     0
176
     1
  0
VISUALSTYLE
  5
3A
102
{ACAD_REACTORS
330
2A
102
}
330
2A
100
AcDbVisualStyle
  2
ColorChange
 70
    16
177
     2
291
     1
 71
     2
176
     1
 72
     2
176
     1
 73
     3
176
     1
 90
        0
176
     1
 40
-0.6
176
     1
 41
-30.0
176
     1
 62
     5
 63
     8
421
  8421504
176
     1
 74
     1
176
     1
 91
        4
176
     1
 64
     7
176
     1
 65
   257
176
     1
 75
     1
176
     1
175
     1
176
     1
 42
1.0
176
     1
 92
        8
176
     1
 66
     8
424
  8421504
176
     1
 43
1.0
176
     1
 76
     1
176
     1
 77
     6
176
     1
 78
     2
176
     1
 67
     7
176
     1
 79
     5
176
     1
170
     0
176
     1
171
     0
176
     1
290
     0
176
     1
 93
        1
176
     1
 44
0.0
176
     1
173
     0
176
     1
  0
VISUALSTYLE
  5
34
102
{ACAD_REACTORS
330
2A
102
}
330
2A
100
AcDbVisualStyle
  2
Conceptual
 70
     9
177
     2
291
     0
 71
     3
176
     1
 72
     2
176
     1
 73
     0
176
     1
 90
        0
176
     1
 40
-0.6
176
     1
 41
-30.0
176
     1
 62
     5
 63
     7
421
 16777215
176
     1
 74
     2
176
     1
 91
        2
176
     1
 64
     7
176
     1
 65
   257
176
     1
 75
     1
176
     1
175
     1
176
     1
 42
40.0
176
     1
 92
        8
176
     1
 66
     7
176
     1
 43
1.0
176
     1
 76
     1
176
     1
 77
     6
176
     1
 78
     2
176
     1
 67
     7
176
     1
 79
     3
176
     1
170
     0
176
     1
171
     0
176
     1
290
     0
176
     1
 93
        1
176
     1
 44
0.0
176
     1
173
     0
176
     1
  0
VISUALSTYLE
  5
35
102
{ACAD_REACTORS
330
2A
102
}
330
2A
100
AcDbVisualStyle
  2
Dim
 70
    11
177
     2
291
     1
 71
     2
176
     1
 72
     2
176
     1
 73
     0
176
     1
 90
        0
176
     1
 40
-0.6
176
     1
 41
-30.0
176
     1
 62
     5
 63
     7
421
 16777215
176
     1
 74
     1
176
     1
 91
        4
176
     1
 64
     7
176
     1
 65
   257
176
     1
 75
     1
176
     1
175
     1
176
     1
 42
1.0
176
     1
 92
        8
176
     1
 66
     7
176
     1
 43
1.0
176
     1
 76
     1
176
     1
 77
     6
176
     1
 78
     2
176
     1
 67
     7
176
     1
 79
     5
176
     1
170
     0
176
     1
171
     0
176
     1
290
     0
176
     1
 93
        1
176
     1
 44
-50.0
176
     1
173
     0
176
     1
  0
VISUALSTYLE
  5
39
102
{ACAD_REACTORS
330
2A
102
}
330
2A
100
AcDbVisualStyle
  2
Facepattern
 70
    15
177
     2
291
     1
 71
     2
176
     1
 72
     2
176
     1
 73
     0
176
     1
 90
        0
176
     1
 40
-0.6
176
     1
 41
-30.0
176
     1
 62
     5
 63
     7
421
 16777215
176
     1
 74
     1
176
     1
 91
        4
176
     1
 64
     7
176
     1
 65
   257
176
     1
 75
     1
176
     1
175
     1
176
     1
 42
1.0
176
     1
 92
        8
176
     1
 66
     7
176
     1
 43
1.0
176
     1
 76
     1
176
     1
 77
     6
176
     1
 78
     2
176
     1
 67
     7
176
     1
 79
     5
176
     1
170
     0
176
     1
171
     0
176
     1
290
     0
176
     1
 93
        1
176
     1
 44
0.0
176
     1
173
     0
176
     1
  0
VISUALSTYLE
  5
2B
102
{ACAD_REACTORS
330
2A
102
}
330
2A
100
AcDbVisualStyle
  2
Flat
 70
     0
177
     2
291
     1
 71
     2
176
     1
 72
     1
176
     1
 73
     1
176
     1
 90
        2
176
     1
 40
-0.6
176
     1
 41
30.0
176
     1
 62
     5
 63
     7
421
 16777215
176
     1
 74
     0
176
     1
 91
        4
176
     1
 64
     7
176
     1
 65
   257
176
     1
 75
     1
176
     1
175
     1
176
     1
 42
1.0
176
     1
 92
        8
176
     1
 66
     7
176
     1
 43
1.0
176
     1
 76
     1
176
     1
 77
     6
176
     1
 78
     2
176
     1
 67
     7
176
     1
 79
     5
176
     1
170
     0
176
     1
171
     0
176
     1
290
     0
176
     1
 93
       13
176
     1
 44
0.0
176
     1
173
     0
176
     1
  0
VISUALSTYLE
  5
2C
102
{ACAD_REACTORS
330
2A
102
}
330
2A
100
AcDbVisualStyle
  2
FlatWithEdges
 70
     1
177
     2
291
     1
 71
     2
176
     1
 72
     1
176
     1
 73
     1
176
     1
 90
        2
176
     1
 40
-0.6
176
     1
 41
30.0
176
     1
 62
     5
 63
     7
421
 16777215
176
     1
 74
     1
176
     1
 91
        4
176
     1
 64
     7
176
     1
 65
   257
176
     1
 75
     1
176
     1
175
     1
176
     1
 42
1.0
176
     1
 92
        0
176
     1
 66
   257
176
     1
 43
1.0
176
     1
 76
     1
176
     1
 77
     6
176
     1
 78
     2
176
     1
 67
     7
176
     1
 79
     5
176
     1
170
     0
176
     1
171
     0
176
     1
290
     0
176
     1
 93
       13
176
     1
 44
0.0
176
     1
173
     0
176
     1
  0
VISUALSTYLE
  5
2D
102
{ACAD_REACTORS
330
2A
102
}
330
2A
100
AcDbVisualStyle
  2
Gouraud
 70
     2
177
     2
291
     1
 71
     2
176
     1
 72
     2
176
     1
 73
     1
176
     1
 90
        2
176
     1
 40
-0.6
176
     1
 41
30.0
176
     1
 62
     5
 63
     7
421
 16777215
176
     1
 74
     0
176
     1
 91
        4
176
     1
 64
     7
176
     1
 65
   257
176
     1
 75
     1
176
     1
175
     1
176
     1
 42
1.0
176
     1
 92
        0
176
     1
 66
     7
176
     1
 43
1.0
176
     1
 76
     1
176
     1
 77
     6
176
     1
 78
     2
176
     1
 67
     7
176
     1
 79
     5
176
     1
170
     0
176
     1
171
     0
176
     1
290
     0
176
     1
 93
       13
176
     1
 44
0.0
176
     1
173
     0
176
     1
  0
VISUALSTYLE
  5
2E
102
{ACAD_REACTORS
330
2A
102
}
330
2A
100
AcDbVisualStyle
  2
GouraudWithEdges
 70
     3
177
     2
291
     1
 71
     2
176
     1
 72
     2
176
     1
 73
     1
176
     1
 90
        2
176
     1
 40
-0.6
176
     1
 41
30.0
176
     1
 62
     5
 63
     7
421
 16777215
176
     1
 74
     1
176
     1
 91
        4
176
     1
 64
     7
176
     1
 65
   257
176
     1
 75
     1
176
     1
175
     1
176
     1
 42
1.0
176
     1
 92
        0
176
     1
 66
   257
176
     1
 43
1.0
176
     1
 76
     1
176
     1
 77
     6
176
     1
 78
     2
176
     1
 67
     7
176
     1
 79
     5
176
     1
170
     0
176
     1
171
     0
176
     1
290
     0
176
     1
 93
       13
176
     1
 44
0.0
176
     1
173
     0
176
     1
  0
VISUALSTYLE
  5
38
102
{ACAD_REACTORS
330
2A
102
}
330
2A
100
AcDbVisualStyle
  2
Linepattern
 70
    14
177
     2
291
     1
 71
     2
176
     1
 72
     2
176
     1
 73
     0
176
     1
 90
        0
176
     1
 40
-0.6
176
     1
 41
-30.0
176
     1
 62
     5
 63
     7
421
 16777215
176
     1
 74
     1
176
     1
 91
        4
176
     1
 64
     7
176
     1
 65
   257
176
     1
 75
     7
176
     1
175
     7
176
     1
 42
1.0
176
     1
 92
        8
176
     1
 66
     7
176
     1
 43
1.0
176
     1
 76
     1
176
     1
 77
     6
176
     1
 78
     2
176
     1
 67
     7
176
     1
 79
     5
176
     1
170
     0
176
     1
171
     0
176
     1
290
     0
176
     1
 93
        1
176
     1
 44
0.0
176
     1
173
     0
176
     1
  0
VISUALSTYLE
  5
33
102
{ACAD_REACTORS
330
2A
102
}
330
2A
100
AcDbVisualStyle
  2
Realistic
 70
     8
177
     2
291
     0
 71
     2
176
     1
 72
     2
176
     1
 73
     0
176
     1
 90
        0
176
     1
 40
-0.6
176
     1
 41
-30.0
176
     1
 62
     5
 63
     7
421
 16777215
176
     1
 74
     1
176
     1
 91
        0
176
     1
 64
     7
176
     1
 65
   257
176
     1
 75
     1
176
     1
175
     1
176
     1
 42
1.0
176
     1
 92
        8
176
     1
 66
     8
424
  7895160
176
     1
 43
1.0
176
     1
 76
     1
176
     1
 77
     6
176
     1
 78
     2
176
     1
 67
     7
176
     1
 79
     5
176
     1
170
     0
176
     1
171
     0
176
     1
290
     0
176
     1
 93
       13
176
     1
 44
0.0
176
     1
173
     0
176
     1
  0
VISUALSTYLE
  5
37
102
{ACAD_REACTORS
330
2A
102
}
330
2A
100
AcDbVisualStyle
  2
Thicken
 70
    13
177
     2
291
     1
 71
     2
176
     1
 72
     2
176
     1
 73
     0
176
     1
 90
        0
176
     1
 40
-0.6
176
     1
 41
-30.0
176
     1
 62
     5
 63
     7
421
 16777215
176
     1
 74
     1
176
     1
 91
        4
176
     1
 64
     7
176
     1
 65
   257
176
     1
 75
     1
176
     1
175
     1
176
     1
 42
1.0
176
     1
 92
       12
176
     1
 66
     7
176
     1
 43
1.0
176
     1
 76
     1
176
     1
 77
     6
176
     1
 78
     2
176
     1
 67
     7
176
     1
 79
     5
176
     1
170
     0
176
     1
171
     0
176
     1
290
     0
176
     1
 93
        1
176
     1
 44
0.0
176
     1
173
     0
176
     1
  0
ENDSEC
  0
EOF
