  0
SECTION
  2
HEADER
  9
$ACADVER
  1
AC1024
  9
$ACADMAINTVER
 70
     6
  9
$DWGCODEPAGE
  3
UNDEFINED
  9
$INSBASE
 10
0.0
 20
0.0
 30
0.0
  9
$EXTMIN
 10
1.000000000000000E+20
 20
1.000000000000000E+20
 30
1.000000000000000E+20
  9
$EXTMAX
 10
-1.000000000000000E+20
 20
-1.000000000000000E+20
 30
-1.000000000000000E+20
  9
$LIMMIN
 10
0.0
 20
0.0
  9
$LIMMAX
 10
12.0
 20
9.0
  9
$ORTHOMODE
 70
     0
  9
$REGENMODE
 70
     1
  9
$FILLMODE
 70
     1
  9
$QTEXTMODE
 70
     0
  9
$MIRRTEXT
 70
     1
  9
$LTSCALE
 40
1.0
  9
$ATTMODE
 70
     1
  9
$TEXTSIZE
 40
0.2
  9
$TRACEWID
 40
0.05
  9
$TEXTSTYLE
  7
Standard
  9
$CLAYER
  8
0
  9
$CELTYPE
  6
ByLayer
  9
$CECOLOR
 62
   256
  9
$CELTSCALE
 40
1.0
  9
$DISPSILH
 70
     0
  9
$DIMSCALE
 40
1.0
  9
$DIMASZ
 40
0.18
  9
$DIMEXO
 40
0.0625
  9
$DIMDLI
 40
0.38
  9
$DIMRND
 40
0.0
  9
$DIMDLE
 40
0.0
  9
$DIMEXE
 40
0.18
  9
$DIMTP
 40
0.0
  9
$DIMTM
 40
0.0
  9
$DIMTXT
 40
0.18
  9
$DIMCEN
 40
0.09
  9
$DIMTSZ
 40
0.0
  9
$DIMTOL
 70
     0
  9
$DIMLIM
 70
     0
  9
$DIMTIH
 70
     1
  9
$DIMTOH
 70
     1
  9
$DIMSE1
 70
     0
  9
$DIMSE2
 70
     0
  9
$DIMTAD
 70
     0
  9
$DIMZIN
 70
     0
  9
$DIMBLK
  1

  9
$DIMASO
 70
     1
  9
$DIMSHO
 70
     1
  9
$DIMPOST
  1

  9
$DIMAPOST
  1

  9
$DIMALT
 70
     0
  9
$DIMALTD
 70
     2
  9
$DIMALTF
 40
25.4
  9
$DIMLFAC
 40
1.0
  9
$DIMTOFL
 70
     0
  9
$DIMTVP
 40
0.0
  9
$DIMTIX
 70
     0
  9
$DIMSOXD
 70
     0
  9
$DIMSAH
 70
     0
  9
$DIMBLK1
  1

  9
$DIMBLK2
  1

  9
$DIMSTYLE
  2
Standard
  9
$DIMCLRD
 70
     0
  9
$DIMCLRE
 70
     0
  9
$DIMCLRT
 70
     0
  9
$DIMTFAC
 40
1.0
  9
$DIMGAP
 40
0.09
  9
$DIMJUST
 70
     0
  9
$DIMSD1
 70
     0
  9
$DIMSD2
 70
     0
  9
$DIMTOLJ
 70
     1
  9
$DIMTZIN
 70
     0
  9
$DIMALTZ
 70
     0
  9
$DIMALTTZ
 70
     0
  9
$DIMUPT
 70
     0
  9
$DIMDEC
 70
     4
  9
$DIMTDEC
 70
     4
  9
$DIMALTU
 70
     2
  9
$DIMALTTD
 70
     2
  9
$DIMTXSTY
  7
Standard
  9
$DIMAUNIT
 70
     0
  9
$DIMADEC
 70
     0
  9
$DIMALTRND
 40
0.0
  9
$DIMAZIN
 70
     0
  9
$DIMDSEP
 70
    46
  9
$DIMATFIT
 70
     3
  9
$DIMFRAC
 70
     0
  9
$DIMLDRBLK
  1

  9
$DIMLUNIT
 70
     2
  9
$DIMLWD
 70
    -2
  9
$DIMLWE
 70
    -2
  9
$DIMTMOVE
 70
     0
  9
$DIMFXL
 40
1.0
  9
$DIMFXLON
 70
     0
  9
$DIMJOGANG
 40
0.7853981633974483
  9
$DIMTFILL
 70
     0
  9
$DIMTFILLCLR
 70
     0
  9
$DIMARCSYM
 70
     0
  9
$DIMLTYPE
  6

  9
$DIMLTEX1
  6

  9
$DIMLTEX2
  6

  9
$DIMTXTDIRECTION
 70
     0
  9
$LUNITS
 70
     2
  9
$LUPREC
 70
     4
  9
$SKETCHINC
 40
0.1
  9
$FILLETRAD
 40
0.5
  9
$AUNITS
 70
     0
  9
$AUPREC
 70
     0
  9
$MENU
  1
.
  9
$ELEVATION
 40
0.0
  9
$PELEVATION
 40
0.0
  9
$THICKNESS
 40
0.0
  9
$LIMCHECK
 70
     0
  9
$CHAMFERA
 40
0.5
  9
$CHAMFERB
 40
0.5
  9
$CHAMFERC
 40
1.0
  9
$CHAMFERD
 40
0.0
  9
$SKPOLY
 70
     0
  9
$TDCREATE
 40
2457917.628738426
  9
$TDUCREATE
 40
2457917.253738426
  9
$TDUPDATE
 40
2457917.628738426
  9
$TDUUPDATE
 40
2457917.253738426
  9
$TDINDWG
 40
0.0000000116
  9
$TDUSRTIMER
 40
0.0000000116
  9
$USRTIMER
 70
     1
  9
$ANGBASE
 50
0.0
  9
$ANGDIR
 70
     0
  9
$PDMODE
 70
     0
  9
$PDSIZE
 40
0.0
  9
$PLINEWID
 40
0.0
  9
$SPLFRAME
 70
     0
  9
$SPLINETYPE
 70
     6
  9
$SPLINESEGS
 70
     8
  9
$HANDSEED
  5
1E0
  9
$SURFTAB1
 70
     6
  9
$SURFTAB2
 70
     6
  9
$SURFTYPE
 70
     6
  9
$SURFU
 70
     6
  9
$SURFV
 70
     6
  9
$UCSBASE
  2

  9
$UCSNAME
  2

  9
$UCSORG
 10
0.0
 20
0.0
 30
0.0
  9
$UCSXDIR
 10
1.0
 20
0.0
 30
0.0
  9
$UCSYDIR
 10
0.0
 20
1.0
 30
0.0
  9
$UCSORTHOREF
  2

  9
$UCSORTHOVIEW
 70
     0
  9
$UCSORGTOP
 10
0.0
 20
0.0
 30
0.0
  9
$UCSORGBOTTOM
 10
0.0
 20
0.0
 30
0.0
  9
$UCSORGLEFT
 10
0.0
 20
0.0
 30
0.0
  9
$UCSORGRIGHT
 10
0.0
 20
0.0
 30
0.0
  9
$UCSORGFRONT
 10
0.0
 20
0.0
 30
0.0
  9
$UCSORGBACK
 10
0.0
 20
0.0
 30
0.0
  9
$PUCSBASE
  2

  9
$PUCSNAME
  2

  9
$PUCSORG
 10
0.0
 20
0.0
 30
0.0
  9
$PUCSXDIR
 10
1.0
 20
0.0
 30
0.0
  9
$PUCSYDIR
 10
0.0
 20
1.0
 30
0.0
  9
$PUCSORTHOREF
  2

  9
$PUCSORTHOVIEW
 70
     0
  9
$PUCSORGTOP
 10
0.0
 20
0.0
 30
0.0
  9
$PUCSORGBOTTOM
 10
0.0
 20
0.0
 30
0.0
  9
$PUCSORGLEFT
 10
0.0
 20
0.0
 30
0.0
  9
$PUCSORGRIGHT
 10
0.0
 20
0.0
 30
0.0
  9
$PUCSORGFRONT
 10
0.0
 20
0.0
 30
0.0
  9
$PUCSORGBACK
 10
0.0
 20
0.0
 30
0.0
  9
$USERI1
 70
     0
  9
$USERI2
 70
     0
  9
$USERI3
 70
     0
  9
$USERI4
 70
     0
  9
$USERI5
 70
     0
  9
$USERR1
 40
0.0
  9
$USERR2
 40
0.0
  9
$USERR3
 40
0.0
  9
$USERR4
 40
0.0
  9
$USERR5
 40
0.0
  9
$WORLDVIEW
 70
     1
  9
$SHADEDGE
 70
     3
  9
$SHADEDIF
 70
    70
  9
$TILEMODE
 70
     1
  9
$MAXACTVP
 70
    64
  9
$PINSBASE
 10
0.0
 20
0.0
 30
0.0
  9
$PLIMCHECK
 70
     0
  9
$PEXTMIN
 10
1.000000000000000E+20
 20
1.000000000000000E+20
 30
1.000000000000000E+20
  9
$PEXTMAX
 10
-1.000000000000000E+20
 20
-1.000000000000000E+20
 30
-1.000000000000000E+20
  9
$PLIMMIN
 10
0.0
 20
0.0
  9
$PLIMMAX
 10
12.0
 20
9.0
  9
$UNITMODE
 70
     0
  9
$VISRETAIN
 70
     1
  9
$PLINEGEN
 70
     0
  9
$PSLTSCALE
 70
     1
  9
$TREEDEPTH
 70
  3020
  9
$CMLSTYLE
  2
Standard
  9
$CMLJUST
 70
     0
  9
$CMLSCALE
 40
1.0
  9
$PROXYGRAPHICS
 70
     1
  9
$MEASUREMENT
 70
     0
  9
$CELWEIGHT
370
    -1
  9
$ENDCAPS
280
     0
  9
$JOINSTYLE
280
     0
  9
$LWDISPLAY
290
     1
  9
$INSUNITS
 70
     1
  9
$HYPERLINKBASE
  1

  9
$STYLESHEET
  1

  9
$XEDIT
290
     1
  9
$CEPSNTYPE
380
     0
  9
$PSTYLEMODE
290
     1
  9
$FINGERPRINTGUID
  2
{41B22CA5-D76C-27C0-F9DC-C6FF6A2C4C0E}
  9
$VERSIONGUID
  2
{FAEB1C32-E019-11D5-929B-00C0DF256EC4}
  9
$EXTNAMES
290
     1
  9
$PSVPSCALE
 40
0.0
  9
$OLESTARTUP
290
     0
  9
$SORTENTS
280
   127
  9
$INDEXCTL
280
     0
  9
$HIDETEXT
280
     1
  9
$XCLIPFRAME
280
     2
  9
$HALOGAP
280
     0
  9
$OBSCOLOR
 70
   257
  9
$OBSLTYPE
280
     0
  9
$INTERSECTIONDISPLAY
280
     0
  9
$INTERSECTIONCOLOR
 70
   257
  9
$DIMASSOC
280
     2
  9
$PROJECTNAME
  1

  9
$CAMERADISPLAY
290
     0
  9
$LENSLENGTH
 40
50.0
  9
$CAMERAHEIGHT
 40
0.0
  9
$STEPSPERSEC
 40
2.0
  9
$STEPSIZE
 40
6.0
  9
$3DDWFPREC
 40
2.0
  9
$PSOLWIDTH
 40
0.25
  9
$PSOLHEIGHT
 40
4.0
  9
$LOFTANG1
 40
1.570796326794897
  9
$LOFTANG2
 40
1.570796326794897
  9
$LOFTMAG1
 40
0.0
  9
$LOFTMAG2
 40
0.0
  9
$LOFTPARAM
 70
     7
  9
$LOFTNORMALS
280
     1
  9
$LATITUDE
 40
37.795
  9
$LONGITUDE
 40
-122.394
  9
$NORTHDIRECTION
 40
0.0
  9
$TIMEZONE
 70
 -8000
  9
$LIGHTGLYPHDISPLAY
280
     1
  9
$TILEMODELIGHTSYNCH
280
     1
  9
$CMATERIAL
347
3C
  9
$SOLIDHIST
280
     1
  9
$SHOWHIST
280
     1
  9
$DWFFRAME
280
     2
  9
$DGNFRAME
280
     2
  9
$REALWORLDSCALE
290
     1
  9
$INTERFERECOLOR
 62
   256
  9
$CSHADOW
280
     0
  9
$SHADOWPLANELOCATION
 40
0.0
  0
ENDSEC
  0
SECTION
  2
CLASSES
  0
CLASS
  1
ACDBDICTIONARYWDFLT
  2
AcDbDictionaryWithDefault
  3
ObjectDBX Classes
 90
        0
 91
        4
280
     0
281
     0
  0
CLASS
  1
VISUALSTYLE
  2
AcDbVisualStyle
  3
ObjectDBX Classes
 90
     4095
 91
        4
280
     0
281
     0
  0
CLASS
  1
MATERIAL
  2
AcDbMaterial
  3
ObjectDBX Classes
 90
     1153
 91
        4
280
     0
281
     0
  0
CLASS
  1
SUN
  2
AcDbSun
  3
SCENEOE
 90
     1024
 91
        4
280
     0
281
     0
  0
ENDSEC
  0
SECTION
  2
TABLES
  0
TABLE
  2
VPORT
  5
8
330
0
100
AcDbSymbolTable
 70
     1
  0
VPORT
  5
29
330
8
100
AcDbSymbolTableRecord
100
AcDbViewportTableRecord
  2
*Active
 70
     0
 10
0.0
 20
0.0
 11
1.0
 21
1.0
 12
0.0
 22
0.0
 13
0.0
 23
0.0
 14
0.5
 24
0.5
 15
0.5
 25
0.5
 16
0.0
 26
0.0
 36
1.0
 17
91.00082462281999
 27
-128.4993055234307
 37
0.0
 40
256.9986110468615
 41
0.7081814508812795
 42
50.0
 43
0.0
 44
0.0
 50
0.0
 51
0.0
 71
     0
 72
   100
 73
     1
 74
     3
 75
     0
 76
     0
 77
     0
 78
     0
281
     0
 65
     1
110
0.0
120
0.0
130
0.0
111
1.0
121
0.0
131
0.0
112
0.0
122
1.0
132
0.0
 79
     0
146
0.0
 60
     3
 61
     5
292
     1
282
     1
141
0.0
142
0.0
 63
   250
361
3F
  0
ENDTAB
  0
TABLE
  2
LTYPE
  5
5
330
0
100
AcDbSymbolTable
 70
     3
  0
LTYPE
  5
14
330
5
100
AcDbSymbolTableRecord
100
AcDbLinetypeTableRecord
  2
ByBlock
 70
     0
  3

 72
    65
 73
     0
 40
0.0
  0
LTYPE
  5
15
330
5
100
AcDbSymbolTableRecord
100
AcDbLinetypeTableRecord
  2
ByLayer
 70
     0
  3

 72
    65
 73
     0
 40
0.0
  0
LTYPE
  5
16
330
5
100
AcDbSymbolTableRecord
100
AcDbLinetypeTableRecord
  2
Continuous
 70
     0
  3
Solid line
 72
    65
 73
     0
 40
0.0
  0
LTYPE
  5
189
330
5
100
AcDbSymbolTableRecord
100
AcDbLinetypeTableRecord
  2
AI-Linetype-1
 70
     0
  3
Adobe Illustrator Linetype No. 1
 72
    65
 73
     2
 40
0.7055555553791667
 49
0.3527777776895833
 74
     0
 49
-0.3527777776895833
 74
     0
  0
LTYPE
  5
1DB
330
5
100
AcDbSymbolTableRecord
100
AcDbLinetypeTableRecord
  2
AI-Linetype-2
 70
     0
  3
Adobe Illustrator Linetype No. 2
 72
    65
 73
     2
 40
0.7055555553791667
 49
0.3527777776895833
 74
     0
 49
-0.3527777776895833
 74
     0
  0
ENDTAB
  0
TABLE
  2
LAYER
  5
2
330
0
100
AcDbSymbolTable
 70
     2
  0
LAYER
  5
10
330
2
100
AcDbSymbolTableRecord
100
AcDbLayerTableRecord
  2
0
 70
     0
 62
     7
  6
Continuous
370
    -3
390
F
347
3E
  0
LAYER
  5
40
330
2
100
AcDbSymbolTableRecord
100
AcDbLayerTableRecord
  2
_U+30EC_U+30A4_U+30E4_U+30FC 1
 70
     0
 62
     7
  6
Continuous
370
    -3
390
F
347
3E
  0
ENDTAB
  0
TABLE
  2
STYLE
  5
3
330
0
100
AcDbSymbolTable
 70
     1
  0
STYLE
  5
11
330
3
100
AcDbSymbolTableRecord
100
AcDbTextStyleTableRecord
  2
Standard
 70
     0
 40
0.0
 41
1.0
 50
0.0
 71
     0
 42
0.2
  3
txt
  4

  0
ENDTAB
  0
TABLE
  2
VIEW
  5
6
330
0
100
AcDbSymbolTable
 70
     0
  0
ENDTAB
  0
TABLE
  2
UCS
  5
7
330
0
100
AcDbSymbolTable
 70
     0
  0
ENDTAB
  0
TABLE
  2
APPID
  5
9
330
0
100
AcDbSymbolTable
 70
     1
  0
APPID
  5
12
330
9
100
AcDbSymbolTableRecord
100
AcDbRegAppTableRecord
  2
ACAD
 70
     0
  0
ENDTAB
  0
TABLE
  2
DIMSTYLE
  5
A
330
0
100
AcDbSymbolTable
 70
     1
100
AcDbDimStyleTable
  0
DIMSTYLE
105
27
330
A
100
AcDbSymbolTableRecord
100
AcDbDimStyleTableRecord
  2
Standard
 70
     0
178
     0
340
11
  0
ENDTAB
  0
TABLE
  2
BLOCK_RECORD
  5
1
330
0
100
AcDbSymbolTable
 70
    12
  0
BLOCK_RECORD
  5
1F
330
1
100
AcDbSymbolTableRecord
100
AcDbBlockTableRecord
  2
*Model_Space
340
22
 70
     0
280
     1
281
     0
  0
BLOCK_RECORD
  5
1B
330
1
100
AcDbSymbolTableRecord
100
AcDbBlockTableRecord
  2
*Paper_Space
340
1E
 70
     0
280
     1
281
     0
  0
BLOCK_RECORD
  5
23
330
1
100
AcDbSymbolTableRecord
100
AcDbBlockTableRecord
  2
*Paper_Space0
340
26
 70
     0
280
     1
281
     0
  0
BLOCK_RECORD
  5
5C
330
1
100
AcDbSymbolTableRecord
100
AcDbBlockTableRecord
  2
block 2
340
0
102
{BLKREFS
331
5D
102
}
 70
     0
280
     1
281
     0
  0
BLOCK_RECORD
  5
6F
330
1
100
AcDbSymbolTableRecord
100
AcDbBlockTableRecord
  2
block 3
340
0
102
{BLKREFS
331
70
102
}
 70
     0
280
     1
281
     0
  0
BLOCK_RECORD
  5
77
330
1
100
AcDbSymbolTableRecord
100
AcDbBlockTableRecord
  2
block 4
340
0
102
{BLKREFS
331
78
102
}
 70
     0
280
     1
281
     0
  0
BLOCK_RECORD
  5
8E
330
1
100
AcDbSymbolTableRecord
100
AcDbBlockTableRecord
  2
block 5
340
0
102
{BLKREFS
331
8F
102
}
 70
     0
280
     1
281
     0
  0
BLOCK_RECORD
  5
AA
330
1
100
AcDbSymbolTableRecord
100
AcDbBlockTableRecord
  2
block 6
340
0
102
{BLKREFS
331
AB
102
}
 70
     0
280
     1
281
     0
  0
BLOCK_RECORD
  5
CD
330
1
100
AcDbSymbolTableRecord
100
AcDbBlockTableRecord
  2
block 7
340
0
102
{BLKREFS
331
CE
102
}
 70
     0
280
     1
281
     0
  0
BLOCK_RECORD
  5
DD
330
1
100
AcDbSymbolTableRecord
100
AcDbBlockTableRecord
  2
block 8
340
0
102
{BLKREFS
331
DE
102
}
 70
     0
280
     1
281
     0
  0
BLOCK_RECORD
  5
106
330
1
100
AcDbSymbolTableRecord
100
AcDbBlockTableRecord
  2
block 9
340
0
102
{BLKREFS
331
107
102
}
 70
     0
280
     1
281
     0
  0
BLOCK_RECORD
  5
127
330
1
100
AcDbSymbolTableRecord
100
AcDbBlockTableRecord
  2
block 10
340
0
102
{BLKREFS
331
128
102
}
 70
     0
280
     1
281
     0
  0
BLOCK_RECORD
  5
14A
330
1
100
AcDbSymbolTableRecord
100
AcDbBlockTableRecord
  2
block 11
340
0
102
{BLKREFS
331
14B
102
}
 70
     0
280
     1
281
     0
  0
BLOCK_RECORD
  5
161
330
1
100
AcDbSymbolTableRecord
100
AcDbBlockTableRecord
  2
block 12
340
0
102
{BLKREFS
331
162
102
}
 70
     0
280
     1
281
     0
  0
ENDTAB
  0
ENDSEC
  0
SECTION
  2
BLOCKS
  0
BLOCK
  5
20
330
1F
100
AcDbEntity
  8
0
100
AcDbBlockBegin
  2
*Model_Space
 70
     0
 10
0.0
 20
0.0
 30
0.0
  3
*Model_Space
  1

  0
ENDBLK
  5
21
330
1F
100
AcDbEntity
  8
0
100
AcDbBlockEnd
  0
BLOCK
  5
1C
330
1B
100
AcDbEntity
 67
     1
  8
0
100
AcDbBlockBegin
  2
*Paper_Space
 70
     0
 10
0.0
 20
0.0
 30
0.0
  3
*Paper_Space
  1

  0
ENDBLK
  5
1D
330
1B
100
AcDbEntity
 67
     1
  8
0
100
AcDbBlockEnd
  0
BLOCK
  5
24
330
23
100
AcDbEntity
  8
0
100
AcDbBlockBegin
  2
*Paper_Space0
 70
     0
 10
0.0
 20
0.0
 30
0.0
  3
*Paper_Space0
  1

  0
ENDBLK
  5
25
330
23
100
AcDbEntity
  8
0
100
AcDbBlockEnd
  0
BLOCK
  5
5E
330
5C
100
AcDbEntity
  8
0
100
AcDbBlockBegin
  2
block 2
 70
     0
 10
0.0
 20
0.0
 30
0.0
  3
block 2
  1

  0
SPLINE
  5
60
330
5C
100
AcDbEntity
  8
_U+30EC_U+30A4_U+30E4_U+30FC 1
370
     0
100
AcDbSpline
210
0.0
220
0.0
230
1.0
 70
    11
 71
     3
 72
    62
 73
    58
 74
     0
 42
0.0000000001
 43
0.0000000001
 12
1.0
 22
0.0
 32
0.0
 13
1.0
 23
0.0
 33
0.0
 40
0.0
 40
0.0
 40
0.0
 40
0.0
 40
1.0
 40
1.0
 40
1.0
 40
2.0
 40
2.0
 40
2.0
 40
3.0
 40
3.0
 40
3.0
 40
4.0
 40
4.0
 40
4.0
 40
5.0
 40
5.0
 40
5.0
 40
6.0
 40
6.0
 40
6.0
 40
7.0
 40
7.0
 40
7.0
 40
8.0
 40
8.0
 40
8.0
 40
9.0
 40
9.0
 40
9.0
 40
10.0
 40
10.0
 40
10.0
 40
11.0
 40
11.0
 40
11.0
 40
12.0
 40
12.0
 40
12.0
 40
13.0
 40
13.0
 40
13.0
 40
14.0
 40
14.0
 40
14.0
 40
15.0
 40
15.0
 40
15.0
 40
16.0
 40
16.0
 40
16.0
 40
17.0
 40
17.0
 40
17.0
 40
18.0
 40
18.0
 40
18.0
 40
19.0
 40
19.0
 40
19.0
 40
19.0
 10
96.77411021886203
 20
-130.8419704534006
 30
0.0
 10
96.77411021886203
 20
-130.937399598342
 30
0.0
 10
96.75309513640201
 20
-131.1551296330098
 30
0.0
 10
96.56705998019852
 20
-131.2801865991244
 30
0.0
 10
96.45474986737938
 20
-131.3542561520573
 30
0.0
 10
96.35553111740418
 20
-131.3583902666396
 30
0.0
 10
96.27078176846703
 20
-131.3625243812219
 30
0.0
 10
96.27078176846703
 20
-131.3625243812219
 30
0.0
 10
96.27078176846703
 20
-131.1423827797144
 30
0.0
 10
96.27078176846703
 20
-131.1423827797144
 30
0.0
 10
96.3448513213999
 20
-131.1403157224233
 30
0.0
 10
96.57946232394542
 20
-131.1299804359675
 30
0.0
 10
96.57946232394542
 20
-130.8464490775314
 30
0.0
 10
96.57946232394542
 20
-130.70898976767
 30
0.0
 10
96.50987139514336
 20
-130.5563720376734
 30
0.0
 10
96.2814615644713
 20
-130.5563720376734
 30
0.0
 10
96.16501733706986
 20
-130.5563720376734
 30
0.0
 10
96.11644149072784
 20
-130.5946125975597
 30
0.0
 10
96.08474661226354
 20
-130.626307476024
 30
0.0
 10
96.01067705933067
 20
-130.7003770289569
 30
0.0
 10
95.99793020603525
 20
-130.8168212563583
 30
0.0
 10
95.99793020603525
 20
-130.8715982745738
 30
0.0
 10
95.99793020603525
 20
-130.8908908092912
 30
0.0
 10
95.99999726332639
 20
-130.9267198023378
 30
0.0
 10
96.00413137790869
 20
-130.9542805662198
 30
0.0
 10
96.00413137790869
 20
-130.9542805662198
 30
0.0
 10
95.80948348299208
 20
-130.9542805662198
 30
0.0
 10
95.80948348299208
 20
-130.9542805662198
 30
0.0
 10
95.81602916441405
 20
-130.9160400063335
 30
0.0
 10
95.8180962217052
 20
-130.8740098414135
 30
0.0
 10
95.8180962217052
 20
-130.8674641599915
 30
0.0
 10
95.8180962217052
 20
-130.8020073457717
 30
0.0
 10
95.79673662969665
 20
-130.6032253362728
 30
0.0
 10
95.56005856985999
 20
-130.6032253362728
 30
0.0
 10
95.3822916428211
 20
-130.6032253362728
 30
0.0
 10
95.3271701150571
 20
-130.7341389647123
 30
0.0
 10
95.3271701150571
 20
-130.8443820202403
 30
0.0
 10
95.3271701150571
 20
-131.108620843959
 30
0.0
 10
95.56005856985999
 20
-131.1172335826721
 30
0.0
 10
95.63171655595319
 20
-131.1213676972544
 30
0.0
 10
95.63171655595319
 20
-131.1213676972544
 30
0.0
 10
95.63171655595319
 20
-131.3246283308841
 30
0.0
 10
95.63171655595319
 20
-131.3246283308841
 30
0.0
 10
95.50700409938715
 20
-131.316015592171
 30
0.0
 10
95.13045516284933
 20
-131.288454828289
 30
0.0
 10
95.13045516284933
 20
-130.8316351669449
 30
0.0
 10
95.13045516284933
 20
-130.6073594508551
 30
0.0
 10
95.25757918625506
 20
-130.3662027668876
 30
0.0
 10
95.55351288843802
 20
-130.3662027668876
 30
0.0
 10
95.73989255419004
 20
-130.3662027668876
 30
0.0
 10
95.8222303362875
 20
-130.4612874022805
 30
0.0
 10
95.88355303592495
 20
-130.5608506618042
 30
0.0
 10
95.91111379980696
 20
-130.4995279621668
 30
0.0
 10
95.99138452461327
 20
-130.3176269205456
 30
0.0
 10
96.26871471117587
 20
-130.3176269205456
 30
0.0
 10
96.60702308782741
 20
-130.3176269205456
 30
0.0
 10
96.77411021886203
 20
-130.5649847763865
 30
0.0
 10
96.77411021886203
 20
-130.8419704534006
 30
0.0
  0
HATCH
  5
61
330
5C
100
AcDbEntity
  8
_U+30EC_U+30A4_U+30E4_U+30FC 1
 62
   179
420
  2234388
100
AcDbHatch
 10
0.0
 20
0.0
 30
0.0
210
0.0
220
0.0
230
1.0
  2
SOLID
 70
     1
 71
     0
 91
        1
 92
        1
 93
        1
 72
     4
 94
        3
 73
     0
 74
     1
 95
       62
 96
       58
 40
0.0
 40
0.0
 40
0.0
 40
0.0
 40
1.0
 40
1.0
 40
1.0
 40
2.0
 40
2.0
 40
2.0
 40
3.0
 40
3.0
 40
3.0
 40
4.0
 40
4.0
 40
4.0
 40
5.0
 40
5.0
 40
5.0
 40
6.0
 40
6.0
 40
6.0
 40
7.0
 40
7.0
 40
7.0
 40
8.0
 40
8.0
 40
8.0
 40
9.0
 40
9.0
 40
9.0
 40
10.0
 40
10.0
 40
10.0
 40
11.0
 40
11.0
 40
11.0
 40
12.0
 40
12.0
 40
12.0
 40
13.0
 40
13.0
 40
13.0
 40
14.0
 40
14.0
 40
14.0
 40
15.0
 40
15.0
 40
15.0
 40
16.0
 40
16.0
 40
16.0
 40
17.0
 40
17.0
 40
17.0
 40
18.0
 40
18.0
 40
18.0
 40
19.0
 40
19.0
 40
19.0
 40
19.0
 10
96.77411021886203
 20
-130.8419704534006
 10
96.77411021886203
 20
-130.937399598342
 10
96.75309513640201
 20
-131.1551296330098
 10
96.56705998019852
 20
-131.2801865991244
 10
96.45474986737938
 20
-131.3542561520573
 10
96.35553111740418
 20
-131.3583902666396
 10
96.27078176846703
 20
-131.3625243812219
 10
96.27078176846703
 20
-131.3625243812219
 10
96.27078176846703
 20
-131.1423827797144
 10
96.27078176846703
 20
-131.1423827797144
 10
96.3448513213999
 20
-131.1403157224233
 10
96.57946232394542
 20
-131.1299804359675
 10
96.57946232394542
 20
-130.8464490775314
 10
96.57946232394542
 20
-130.70898976767
 10
96.50987139514336
 20
-130.5563720376734
 10
96.2814615644713
 20
-130.5563720376734
 10
96.16501733706986
 20
-130.5563720376734
 10
96.11644149072784
 20
-130.5946125975597
 10
96.08474661226354
 20
-130.626307476024
 10
96.01067705933067
 20
-130.7003770289569
 10
95.99793020603525
 20
-130.8168212563583
 10
95.99793020603525
 20
-130.8715982745738
 10
95.99793020603525
 20
-130.8908908092912
 10
95.99999726332639
 20
-130.9267198023378
 10
96.00413137790869
 20
-130.9542805662198
 10
96.00413137790869
 20
-130.9542805662198
 10
95.80948348299208
 20
-130.9542805662198
 10
95.80948348299208
 20
-130.9542805662198
 10
95.81602916441405
 20
-130.9160400063335
 10
95.8180962217052
 20
-130.8740098414135
 10
95.8180962217052
 20
-130.8674641599915
 10
95.8180962217052
 20
-130.8020073457717
 10
95.79673662969665
 20
-130.6032253362728
 10
95.56005856985999
 20
-130.6032253362728
 10
95.3822916428211
 20
-130.6032253362728
 10
95.3271701150571
 20
-130.7341389647123
 10
95.3271701150571
 20
-130.8443820202403
 10
95.3271701150571
 20
-131.108620843959
 10
95.56005856985999
 20
-131.1172335826721
 10
95.63171655595319
 20
-131.1213676972544
 10
95.63171655595319
 20
-131.1213676972544
 10
95.63171655595319
 20
-131.3246283308841
 10
95.63171655595319
 20
-131.3246283308841
 10
95.50700409938715
 20
-131.316015592171
 10
95.13045516284933
 20
-131.288454828289
 10
95.13045516284933
 20
-130.8316351669449
 10
95.13045516284933
 20
-130.6073594508551
 10
95.25757918625506
 20
-130.3662027668876
 10
95.55351288843802
 20
-130.3662027668876
 10
95.73989255419004
 20
-130.3662027668876
 10
95.8222303362875
 20
-130.4612874022805
 10
95.88355303592495
 20
-130.5608506618042
 10
95.91111379980696
 20
-130.4995279621668
 10
95.99138452461327
 20
-130.3176269205456
 10
96.26871471117587
 20
-130.3176269205456
 10
96.60702308782741
 20
-130.3176269205456
 10
96.77411021886203
 20
-130.5649847763865
 10
96.77411021886203
 20
-130.8419704534006
 97
        0
 97
        0
 75
     2
 76
     1
 98
        0
  0
SPLINE
  5
62
330
5C
100
AcDbEntity
  8
_U+30EC_U+30A4_U+30E4_U+30FC 1
370
     0
100
AcDbSpline
210
0.0
220
0.0
230
1.0
 70
    11
 71
     3
 72
    44
 73
    40
 74
     0
 42
0.0000000001
 43
0.0000000001
 12
1.0
 22
0.0
 32
0.0
 13
1.0
 23
0.0
 33
0.0
 40
0.0
 40
0.0
 40
0.0
 40
0.0
 40
1.0
 40
1.0
 40
1.0
 40
2.0
 40
2.0
 40
2.0
 40
3.0
 40
3.0
 40
3.0
 40
4.0
 40
4.0
 40
4.0
 40
5.0
 40
5.0
 40
5.0
 40
6.0
 40
6.0
 40
6.0
 40
7.0
 40
7.0
 40
7.0
 40
8.0
 40
8.0
 40
8.0
 40
9.0
 40
9.0
 40
9.0
 40
10.0
 40
10.0
 40
10.0
 40
11.0
 40
11.0
 40
11.0
 40
12.0
 40
12.0
 40
12.0
 40
13.0
 40
13.0
 40
13.0
 40
13.0
 10
96.14159068777016
 20
-129.5638400283729
 30
0.0
 10
96.30040958964018
 20
-129.7815700630407
 30
0.0
 10
96.37447914257305
 20
-129.8745876411425
 30
0.0
 10
96.51813962430796
 20
-129.923507997033
 30
0.0
 10
96.51813962430796
 20
-129.923507997033
 30
0.0
 10
96.51813962430796
 20
-129.1449164173665
 30
0.0
 10
96.51813962430796
 20
-129.1449164173665
 30
0.0
 10
96.51813962430796
 20
-129.1449164173665
 30
0.0
 10
96.72346731522886
 20
-129.1449164173665
 30
0.0
 10
96.72346731522886
 20
-129.1449164173665
 30
0.0
 10
96.72346731522886
 20
-129.1449164173665
 30
0.0
 10
96.72346731522886
 20
-130.1729329101651
 30
0.0
 10
96.72346731522886
 20
-130.1729329101651
 30
0.0
 10
96.36586640385993
 20
-130.1412380317008
 30
0.0
 10
96.28766273634476
 20
-130.0757812174811
 30
0.0
 10
95.98931746732212
 20
-129.6906195422301
 30
0.0
 10
95.79053545782321
 20
-129.4346489476761
 30
0.0
 10
95.72266707676378
 20
-129.3691921334563
 30
0.0
 10
95.58520776690231
 20
-129.3691921334563
 30
0.0
 10
95.46669648220971
 20
-129.3691921334563
 30
0.0
 10
95.33578285377023
 20
-129.441194629098
 30
0.0
 10
95.33578285377023
 20
-129.6379095813058
 30
0.0
 10
95.33578285377023
 20
-129.8980142904422
 30
0.0
 10
95.56625974173343
 20
-129.9066270291553
 30
0.0
 10
95.68270396913488
 20
-129.9107611437376
 30
0.0
 10
95.68270396913488
 20
-129.9107611437376
 30
0.0
 10
95.68270396913488
 20
-130.1350368598274
 30
0.0
 10
95.68270396913488
 20
-130.1350368598274
 30
0.0
 10
95.55557994572916
 20
-130.1264241211142
 30
0.0
 10
95.44361434245855
 20
-130.11574432511
 30
0.0
 10
95.32510305776596
 20
-130.0354736003036
 30
0.0
 10
95.16421709860478
 20
-129.9255750543242
 30
0.0
 10
95.13045516284933
 20
-129.7391953885721
 30
0.0
 10
95.13045516284933
 20
-129.6230956707192
 30
0.0
 10
95.13045516284933
 20
-129.3457654841566
 30
0.0
 10
95.31442326176168
 20
-129.1383707359446
 30
0.0
 10
95.58727482419346
 20
-129.1383707359446
 30
0.0
 10
95.81602916441405
 20
-129.1383707359446
 30
0.0
 10
95.91524791438925
 20
-129.254814963346
 30
0.0
 10
96.14159068777016
 20
-129.5638400283729
 30
0.0
  0
HATCH
  5
63
330
5C
100
AcDbEntity
  8
_U+30EC_U+30A4_U+30E4_U+30FC 1
 62
   179
420
  2234388
100
AcDbHatch
 10
0.0
 20
0.0
 30
0.0
210
0.0
220
0.0
230
1.0
  2
SOLID
 70
     1
 71
     0
 91
        1
 92
        1
 93
        1
 72
     4
 94
        3
 73
     0
 74
     1
 95
       44
 96
       40
 40
0.0
 40
0.0
 40
0.0
 40
0.0
 40
1.0
 40
1.0
 40
1.0
 40
2.0
 40
2.0
 40
2.0
 40
3.0
 40
3.0
 40
3.0
 40
4.0
 40
4.0
 40
4.0
 40
5.0
 40
5.0
 40
5.0
 40
6.0
 40
6.0
 40
6.0
 40
7.0
 40
7.0
 40
7.0
 40
8.0
 40
8.0
 40
8.0
 40
9.0
 40
9.0
 40
9.0
 40
10.0
 40
10.0
 40
10.0
 40
11.0
 40
11.0
 40
11.0
 40
12.0
 40
12.0
 40
12.0
 40
13.0
 40
13.0
 40
13.0
 40
13.0
 10
96.14159068777016
 20
-129.5638400283729
 10
96.30040958964018
 20
-129.7815700630407
 10
96.37447914257305
 20
-129.8745876411425
 10
96.51813962430796
 20
-129.923507997033
 10
96.51813962430796
 20
-129.923507997033
 10
96.51813962430796
 20
-129.1449164173665
 10
96.51813962430796
 20
-129.1449164173665
 10
96.51813962430796
 20
-129.1449164173665
 10
96.72346731522886
 20
-129.1449164173665
 10
96.72346731522886
 20
-129.1449164173665
 10
96.72346731522886
 20
-129.1449164173665
 10
96.72346731522886
 20
-130.1729329101651
 10
96.72346731522886
 20
-130.1729329101651
 10
96.36586640385993
 20
-130.1412380317008
 10
96.28766273634476
 20
-130.0757812174811
 10
95.98931746732212
 20
-129.6906195422301
 10
95.79053545782321
 20
-129.4346489476761
 10
95.72266707676378
 20
-129.3691921334563
 10
95.58520776690231
 20
-129.3691921334563
 10
95.46669648220971
 20
-129.3691921334563
 10
95.33578285377023
 20
-129.441194629098
 10
95.33578285377023
 20
-129.6379095813058
 10
95.33578285377023
 20
-129.8980142904422
 10
95.56625974173343
 20
-129.9066270291553
 10
95.68270396913488
 20
-129.9107611437376
 10
95.68270396913488
 20
-129.9107611437376
 10
95.68270396913488
 20
-130.1350368598274
 10
95.68270396913488
 20
-130.1350368598274
 10
95.55557994572916
 20
-130.1264241211142
 10
95.44361434245855
 20
-130.11574432511
 10
95.32510305776596
 20
-130.0354736003036
 10
95.16421709860478
 20
-129.9255750543242
 10
95.13045516284933
 20
-129.7391953885721
 10
95.13045516284933
 20
-129.6230956707192
 10
95.13045516284933
 20
-129.3457654841566
 10
95.31442326176168
 20
-129.1383707359446
 10
95.58727482419346
 20
-129.1383707359446
 10
95.81602916441405
 20
-129.1383707359446
 10
95.91524791438925
 20
-129.254814963346
 10
96.14159068777016
 20
-129.5638400283729
 97
        0
 97
        0
 75
     2
 76
     1
 98
        0
  0
ENDBLK
  5
5F
330
5C
100
AcDbEntity
  8
0
100
AcDbBlockEnd
  0
BLOCK
  5
71
330
6F
100
AcDbEntity
  8
0
100
AcDbBlockBegin
  2
block 3
 70
     0
 10
0.0
 20
0.0
 30
0.0
  3
block 3
  1

  0
SPLINE
  5
73
330
6F
100
AcDbEntity
  8
_U+30EC_U+30A4_U+30E4_U+30FC 1
370
     0
100
AcDbSpline
210
0.0
220
0.0
230
1.0
 70
    11
 71
     3
 72
    26
 73
    22
 74
     0
 42
0.0000000001
 43
0.0000000001
 12
1.0
 22
0.0
 32
0.0
 13
1.0
 23
0.0
 33
0.0
 40
0.0
 40
0.0
 40
0.0
 40
0.0
 40
1.0
 40
1.0
 40
1.0
 40
2.0
 40
2.0
 40
2.0
 40
3.0
 40
3.0
 40
3.0
 40
4.0
 40
4.0
 40
4.0
 40
5.0
 40
5.0
 40
5.0
 40
6.0
 40
6.0
 40
6.0
 40
7.0
 40
7.0
 40
7.0
 40
7.0
 10
99.29695364271049
 20
-126.7877820863586
 30
0.0
 10
99.29695364271049
 20
-126.7877820863586
 30
0.0
 10
98.19280053968791
 20
-126.7877820863586
 30
0.0
 10
98.19280053968791
 20
-126.7877820863586
 30
0.0
 10
98.19280053968791
 20
-126.7877820863586
 30
0.0
 10
98.19280053968791
 20
-127.1178222338455
 30
0.0
 10
98.19280053968791
 20
-127.1178222338455
 30
0.0
 10
98.19280053968791
 20
-127.1178222338455
 30
0.0
 10
98.04466143382217
 20
-127.1178222338455
 30
0.0
 10
98.04466143382217
 20
-127.1178222338455
 30
0.0
 10
98.0298475232356
 20
-126.7857150290675
 30
0.0
 10
97.86689450678328
 20
-126.7392062400166
 30
0.0
 10
97.75251733667298
 20
-126.7095784188434
 30
0.0
 10
97.75251733667298
 20
-126.7095784188434
 30
0.0
 10
97.75251733667298
 20
-126.5635063702689
 30
0.0
 10
97.75251733667298
 20
-126.5635063702689
 30
0.0
 10
97.75251733667298
 20
-126.5635063702689
 30
0.0
 10
99.29695364271049
 20
-126.5635063702689
 30
0.0
 10
99.29695364271049
 20
-126.5635063702689
 30
0.0
 10
99.29695364271049
 20
-126.5635063702689
 30
0.0
 10
99.29695364271049
 20
-126.7877820863586
 30
0.0
 10
99.29695364271049
 20
-126.7877820863586
 30
0.0
  0
HATCH
  5
74
330
6F
100
AcDbEntity
  8
_U+30EC_U+30A4_U+30E4_U+30FC 1
 62
   179
420
  2234388
100
AcDbHatch
 10
0.0
 20
0.0
 30
0.0
210
0.0
220
0.0
230
1.0
  2
SOLID
 70
     1
 71
     0
 91
        1
 92
        1
 93
        1
 72
     4
 94
        3
 73
     0
 74
     1
 95
       26
 96
       22
 40
0.0
 40
0.0
 40
0.0
 40
0.0
 40
1.0
 40
1.0
 40
1.0
 40
2.0
 40
2.0
 40
2.0
 40
3.0
 40
3.0
 40
3.0
 40
4.0
 40
4.0
 40
4.0
 40
5.0
 40
5.0
 40
5.0
 40
6.0
 40
6.0
 40
6.0
 40
7.0
 40
7.0
 40
7.0
 40
7.0
 10
99.29695364271049
 20
-126.7877820863586
 10
99.29695364271049
 20
-126.7877820863586
 10
98.19280053968791
 20
-126.7877820863586
 10
98.19280053968791
 20
-126.7877820863586
 10
98.19280053968791
 20
-126.7877820863586
 10
98.19280053968791
 20
-127.1178222338455
 10
98.19280053968791
 20
-127.1178222338455
 10
98.19280053968791
 20
-127.1178222338455
 10
98.04466143382217
 20
-127.1178222338455
 10
98.04466143382217
 20
-127.1178222338455
 10
98.0298475232356
 20
-126.7857150290675
 10
97.86689450678328
 20
-126.7392062400166
 10
97.75251733667298
 20
-126.7095784188434
 10
97.75251733667298
 20
-126.7095784188434
 10
97.75251733667298
 20
-126.5635063702689
 10
97.75251733667298
 20
-126.5635063702689
 10
97.75251733667298
 20
-126.5635063702689
 10
99.29695364271049
 20
-126.5635063702689
 10
99.29695364271049
 20
-126.5635063702689
 10
99.29695364271049
 20
-126.5635063702689
 10
99.29695364271049
 20
-126.7877820863586
 10
99.29695364271049
 20
-126.7877820863586
 97
        0
 97
        0
 75
     2
 76
     1
 98
        0
  0
SPLINE
  5
75
330
6F
100
AcDbEntity
  8
_U+30EC_U+30A4_U+30E4_U+30FC 1
370
     0
100
AcDbSpline
210
0.0
220
0.0
230
1.0
 70
    11
 71
     3
 72
    53
 73
    49
 74
     0
 42
0.0000000001
 43
0.0000000001
 12
1.0
 22
0.0
 32
0.0
 13
1.0
 23
0.0
 33
0.0
 40
0.0
 40
0.0
 40
0.0
 40
0.0
 40
1.0
 40
1.0
 40
1.0
 40
2.0
 40
2.0
 40
2.0
 40
3.0
 40
3.0
 40
3.0
 40
4.0
 40
4.0
 40
4.0
 40
5.0
 40
5.0
 40
5.0
 40
6.0
 40
6.0
 40
6.0
 40
7.0
 40
7.0
 40
7.0
 40
8.0
 40
8.0
 40
8.0
 40
9.0
 40
9.0
 40
9.0
 40
10.0
 40
10.0
 40
10.0
 40
11.0
 40
11.0
 40
11.0
 40
12.0
 40
12.0
 40
12.0
 40
13.0
 40
13.0
 40
13.0
 40
14.0
 40
14.0
 40
14.0
 40
15.0
 40
15.0
 40
15.0
 40
16.0
 40
16.0
 40
16.0
 40
16.0
 10
99.34759654634367
 20
-125.5813096474241
 30
0.0
 10
99.34759654634367
 20
-125.6595133149393
 30
0.0
 10
99.33071557846594
 20
-125.7611436317542
 30
0.0
 10
99.26732582153734
 20
-125.862773948569
 30
0.0
 10
99.15742727555786
 20
-126.0360622514771
 30
0.0
 10
99.02616913756985
 20
-126.0574218434857
 30
0.0
 10
98.91833764888153
 20
-126.0763698686545
 30
0.0
 10
98.91833764888153
 20
-126.0763698686545
 30
0.0
 10
98.91833764888153
 20
-125.8541612098559
 30
0.0
 10
98.91833764888153
 20
-125.8541612098559
 30
0.0
 10
99.11711965838045
 20
-125.7993841916404
 30
0.0
 10
99.1467474795536
 20
-125.6722601682347
 30
0.0
 10
99.1467474795536
 20
-125.579242590133
 30
0.0
 10
99.1467474795536
 20
-125.4397162229804
 30
0.0
 10
99.04718422002988
 20
-125.2874430025323
 30
0.0
 10
98.81464027477551
 20
-125.2874430025323
 30
0.0
 10
98.55866968022144
 20
-125.2874430025323
 30
0.0
 10
98.48873424187087
 20
-125.4672769868624
 30
0.0
 10
98.48873424187087
 20
-125.5878553288461
 30
0.0
 10
98.48873424187087
 20
-125.6195502073104
 30
0.0
 10
98.48873424187087
 20
-125.7611436317542
 30
0.0
 10
98.61792532256774
 20
-125.8500270952736
 30
0.0
 10
98.61792532256774
 20
-125.8500270952736
 30
0.0
 10
98.59897729739887
 20
-126.0257269650213
 30
0.0
 10
98.59897729739887
 20
-126.0257269650213
 30
0.0
 10
98.59897729739887
 20
-126.0257269650213
 30
0.0
 10
97.75251733667298
 20
-125.9051486230376
 30
0.0
 10
97.75251733667298
 20
-125.9051486230376
 30
0.0
 10
97.75251733667298
 20
-125.9051486230376
 30
0.0
 10
97.75251733667298
 20
-125.1265570433712
 30
0.0
 10
97.75251733667298
 20
-125.1265570433712
 30
0.0
 10
97.75251733667298
 20
-125.1265570433712
 30
0.0
 10
97.94716523158961
 20
-125.1265570433712
 30
0.0
 10
97.94716523158961
 20
-125.1265570433712
 30
0.0
 10
97.94716523158961
 20
-125.1265570433712
 30
0.0
 10
97.94716523158961
 20
-125.7421956065853
 30
0.0
 10
97.94716523158961
 20
-125.7421956065853
 30
0.0
 10
97.94716523158961
 20
-125.7421956065853
 30
0.0
 10
98.37022295717829
 20
-125.807652420805
 30
0.0
 10
98.37022295717829
 20
-125.807652420805
 30
0.0
 10
98.33646102142283
 20
-125.7463297211676
 30
0.0
 10
98.29615340424542
 20
-125.6639919390701
 30
0.0
 10
98.29615340424542
 20
-125.5454806543775
 30
0.0
 10
98.29615340424542
 20
-125.2915771171146
 30
0.0
 10
98.48253306999743
 20
-125.0545545477294
 30
0.0
 10
98.79569224960663
 20
-125.0545545477294
 30
0.0
 10
99.11298554379815
 20
-125.0545545477294
 30
0.0
 10
99.34759654634367
 20
-125.2788302638192
 30
0.0
 10
99.34759654634367
 20
-125.5813096474241
 30
0.0
  0
HATCH
  5
76
330
6F
100
AcDbEntity
  8
_U+30EC_U+30A4_U+30E4_U+30FC 1
 62
   179
420
  2234388
100
AcDbHatch
 10
0.0
 20
0.0
 30
0.0
210
0.0
220
0.0
230
1.0
  2
SOLID
 70
     1
 71
     0
 91
        1
 92
        1
 93
        1
 72
     4
 94
        3
 73
     0
 74
     1
 95
       53
 96
       49
 40
0.0
 40
0.0
 40
0.0
 40
0.0
 40
1.0
 40
1.0
 40
1.0
 40
2.0
 40
2.0
 40
2.0
 40
3.0
 40
3.0
 40
3.0
 40
4.0
 40
4.0
 40
4.0
 40
5.0
 40
5.0
 40
5.0
 40
6.0
 40
6.0
 40
6.0
 40
7.0
 40
7.0
 40
7.0
 40
8.0
 40
8.0
 40
8.0
 40
9.0
 40
9.0
 40
9.0
 40
10.0
 40
10.0
 40
10.0
 40
11.0
 40
11.0
 40
11.0
 40
12.0
 40
12.0
 40
12.0
 40
13.0
 40
13.0
 40
13.0
 40
14.0
 40
14.0
 40
14.0
 40
15.0
 40
15.0
 40
15.0
 40
16.0
 40
16.0
 40
16.0
 40
16.0
 10
99.34759654634367
 20
-125.5813096474241
 10
99.34759654634367
 20
-125.6595133149393
 10
99.33071557846594
 20
-125.7611436317542
 10
99.26732582153734
 20
-125.862773948569
 10
99.15742727555786
 20
-126.0360622514771
 10
99.02616913756985
 20
-126.0574218434857
 10
98.91833764888153
 20
-126.0763698686545
 10
98.91833764888153
 20
-126.0763698686545
 10
98.91833764888153
 20
-125.8541612098559
 10
98.91833764888153
 20
-125.8541612098559
 10
99.11711965838045
 20
-125.7993841916404
 10
99.1467474795536
 20
-125.6722601682347
 10
99.1467474795536
 20
-125.579242590133
 10
99.1467474795536
 20
-125.4397162229804
 10
99.04718422002988
 20
-125.2874430025323
 10
98.81464027477551
 20
-125.2874430025323
 10
98.55866968022144
 20
-125.2874430025323
 10
98.48873424187087
 20
-125.4672769868624
 10
98.48873424187087
 20
-125.5878553288461
 10
98.48873424187087
 20
-125.6195502073104
 10
98.48873424187087
 20
-125.7611436317542
 10
98.61792532256774
 20
-125.8500270952736
 10
98.61792532256774
 20
-125.8500270952736
 10
98.59897729739887
 20
-126.0257269650213
 10
98.59897729739887
 20
-126.0257269650213
 10
98.59897729739887
 20
-126.0257269650213
 10
97.75251733667298
 20
-125.9051486230376
 10
97.75251733667298
 20
-125.9051486230376
 10
97.75251733667298
 20
-125.9051486230376
 10
97.75251733667298
 20
-125.1265570433712
 10
97.75251733667298
 20
-125.1265570433712
 10
97.75251733667298
 20
-125.1265570433712
 10
97.94716523158961
 20
-125.1265570433712
 10
97.94716523158961
 20
-125.1265570433712
 10
97.94716523158961
 20
-125.1265570433712
 10
97.94716523158961
 20
-125.7421956065853
 10
97.94716523158961
 20
-125.7421956065853
 10
97.94716523158961
 20
-125.7421956065853
 10
98.37022295717829
 20
-125.807652420805
 10
98.37022295717829
 20
-125.807652420805
 10
98.33646102142283
 20
-125.7463297211676
 10
98.29615340424542
 20
-125.6639919390701
 10
98.29615340424542
 20
-125.5454806543775
 10
98.29615340424542
 20
-125.2915771171146
 10
98.48253306999743
 20
-125.0545545477294
 10
98.79569224960663
 20
-125.0545545477294
 10
99.11298554379815
 20
-125.0545545477294
 10
99.34759654634367
 20
-125.2788302638192
 10
99.34759654634367
 20
-125.5813096474241
 97
        0
 97
        0
 75
     2
 76
     1
 98
        0
  0
ENDBLK
  5
72
330
6F
100
AcDbEntity
  8
0
100
AcDbBlockEnd
  0
BLOCK
  5
79
330
77
100
AcDbEntity
  8
0
100
AcDbBlockBegin
  2
block 4
 70
     0
 10
0.0
 20
0.0
 30
0.0
  3
block 4
  1

  0
SPLINE
  5
7B
330
77
100
AcDbEntity
  8
_U+30EC_U+30A4_U+30E4_U+30FC 1
370
     0
100
AcDbSpline
210
0.0
220
0.0
230
1.0
 70
    11
 71
     3
 72
    26
 73
    22
 74
     0
 42
0.0000000001
 43
0.0000000001
 12
1.0
 22
0.0
 32
0.0
 13
1.0
 23
0.0
 33
0.0
 40
0.0
 40
0.0
 40
0.0
 40
0.0
 40
1.0
 40
1.0
 40
1.0
 40
2.0
 40
2.0
 40
2.0
 40
3.0
 40
3.0
 40
3.0
 40
4.0
 40
4.0
 40
4.0
 40
5.0
 40
5.0
 40
5.0
 40
6.0
 40
6.0
 40
6.0
 40
7.0
 40
7.0
 40
7.0
 40
7.0
 10
99.29695364271049
 20
-134.2315999013379
 30
0.0
 10
99.29695364271049
 20
-134.2315999013379
 30
0.0
 10
98.19280053968791
 20
-134.2315999013379
 30
0.0
 10
98.19280053968791
 20
-134.2315999013379
 30
0.0
 10
98.19280053968791
 20
-134.2315999013379
 30
0.0
 10
98.19280053968791
 20
-134.5616400488249
 30
0.0
 10
98.19280053968791
 20
-134.5616400488249
 30
0.0
 10
98.19280053968791
 20
-134.5616400488249
 30
0.0
 10
98.04466143382217
 20
-134.5616400488249
 30
0.0
 10
98.04466143382217
 20
-134.5616400488249
 30
0.0
 10
98.0298475232356
 20
-134.2295328440468
 30
0.0
 10
97.86689450678328
 20
-134.1830240549959
 30
0.0
 10
97.75251733667298
 20
-134.1533962338228
 30
0.0
 10
97.75251733667298
 20
-134.1533962338228
 30
0.0
 10
97.75251733667298
 20
-134.0073241852482
 30
0.0
 10
97.75251733667298
 20
-134.0073241852482
 30
0.0
 10
97.75251733667298
 20
-134.0073241852482
 30
0.0
 10
99.29695364271049
 20
-134.0073241852482
 30
0.0
 10
99.29695364271049
 20
-134.0073241852482
 30
0.0
 10
99.29695364271049
 20
-134.0073241852482
 30
0.0
 10
99.29695364271049
 20
-134.2315999013379
 30
0.0
 10
99.29695364271049
 20
-134.2315999013379
 30
0.0
  0
HATCH
  5
7C
330
77
100
AcDbEntity
  8
_U+30EC_U+30A4_U+30E4_U+30FC 1
 62
   179
420
  2234388
100
AcDbHatch
 10
0.0
 20
0.0
 30
0.0
210
0.0
220
0.0
230
1.0
  2
SOLID
 70
     1
 71
     0
 91
        1
 92
        1
 93
        1
 72
     4
 94
        3
 73
     0
 74
     1
 95
       26
 96
       22
 40
0.0
 40
0.0
 40
0.0
 40
0.0
 40
1.0
 40
1.0
 40
1.0
 40
2.0
 40
2.0
 40
2.0
 40
3.0
 40
3.0
 40
3.0
 40
4.0
 40
4.0
 40
4.0
 40
5.0
 40
5.0
 40
5.0
 40
6.0
 40
6.0
 40
6.0
 40
7.0
 40
7.0
 40
7.0
 40
7.0
 10
99.29695364271049
 20
-134.2315999013379
 10
99.29695364271049
 20
-134.2315999013379
 10
98.19280053968791
 20
-134.2315999013379
 10
98.19280053968791
 20
-134.2315999013379
 10
98.19280053968791
 20
-134.2315999013379
 10
98.19280053968791
 20
-134.5616400488249
 10
98.19280053968791
 20
-134.5616400488249
 10
98.19280053968791
 20
-134.5616400488249
 10
98.04466143382217
 20
-134.5616400488249
 10
98.04466143382217
 20
-134.5616400488249
 10
98.0298475232356
 20
-134.2295328440468
 10
97.86689450678328
 20
-134.1830240549959
 10
97.75251733667298
 20
-134.1533962338228
 10
97.75251733667298
 20
-134.1533962338228
 10
97.75251733667298
 20
-134.0073241852482
 10
97.75251733667298
 20
-134.0073241852482
 10
97.75251733667298
 20
-134.0073241852482
 10
99.29695364271049
 20
-134.0073241852482
 10
99.29695364271049
 20
-134.0073241852482
 10
99.29695364271049
 20
-134.0073241852482
 10
99.29695364271049
 20
-134.2315999013379
 10
99.29695364271049
 20
-134.2315999013379
 97
        0
 97
        0
 75
     2
 76
     1
 98
        0
  0
SPLINE
  5
7D
330
77
100
AcDbEntity
  8
_U+30EC_U+30A4_U+30E4_U+30FC 1
370
     0
100
AcDbSpline
210
0.0
220
0.0
230
1.0
 70
    11
 71
     3
 72
    26
 73
    22
 74
     0
 42
0.0000000001
 43
0.0000000001
 12
1.0
 22
0.0
 32
0.0
 13
1.0
 23
0.0
 33
0.0
 40
0.0
 40
0.0
 40
0.0
 40
0.0
 40
1.0
 40
1.0
 40
1.0
 40
2.0
 40
2.0
 40
2.0
 40
3.0
 40
3.0
 40
3.0
 40
4.0
 40
4.0
 40
4.0
 40
5.0
 40
5.0
 40
5.0
 40
6.0
 40
6.0
 40
6.0
 40
7.0
 40
7.0
 40
7.0
 40
7.0
 10
99.29695364271049
 20
-133.095062900754
 30
0.0
 10
99.29695364271049
 20
-133.095062900754
 30
0.0
 10
99.29695364271049
 20
-133.3320854701392
 30
0.0
 10
99.29695364271049
 20
-133.3320854701392
 30
0.0
 10
98.98792857768358
 20
-133.3065917635484
 30
0.0
 10
98.469786216702
 20
-133.1140109259229
 30
0.0
 10
97.96404619946733
 20
-132.7078341682119
 30
0.0
 10
97.96404619946733
 20
-132.7078341682119
 30
0.0
 10
97.96404619946733
 20
-133.5456813902247
 30
0.0
 10
97.96404619946733
 20
-133.5456813902247
 30
0.0
 10
97.96404619946733
 20
-133.5456813902247
 30
0.0
 10
97.75251733667298
 20
-133.5456813902247
 30
0.0
 10
97.75251733667298
 20
-133.5456813902247
 30
0.0
 10
97.75251733667298
 20
-133.5456813902247
 30
0.0
 10
97.75251733667298
 20
-132.4708115988267
 30
0.0
 10
97.75251733667298
 20
-132.4708115988267
 30
0.0
 10
97.75251733667298
 20
-132.4708115988267
 30
0.0
 10
97.96404619946733
 20
-132.4708115988267
 30
0.0
 10
97.96404619946733
 20
-132.4708115988267
 30
0.0
 10
98.25412323932537
 20
-132.7946505744402
 30
0.0
 10
98.8463351532398
 20
-133.0613009649986
 30
0.0
 10
99.29695364271049
 20
-133.095062900754
 30
0.0
  0
HATCH
  5
7E
330
77
100
AcDbEntity
  8
_U+30EC_U+30A4_U+30E4_U+30FC 1
 62
   179
420
  2234388
100
AcDbHatch
 10
0.0
 20
0.0
 30
0.0
210
0.0
220
0.0
230
1.0
  2
SOLID
 70
     1
 71
     0
 91
        1
 92
        1
 93
        1
 72
     4
 94
        3
 73
     0
 74
     1
 95
       26
 96
       22
 40
0.0
 40
0.0
 40
0.0
 40
0.0
 40
1.0
 40
1.0
 40
1.0
 40
2.0
 40
2.0
 40
2.0
 40
3.0
 40
3.0
 40
3.0
 40
4.0
 40
4.0
 40
4.0
 40
5.0
 40
5.0
 40
5.0
 40
6.0
 40
6.0
 40
6.0
 40
7.0
 40
7.0
 40
7.0
 40
7.0
 10
99.29695364271049
 20
-133.095062900754
 10
99.29695364271049
 20
-133.095062900754
 10
99.29695364271049
 20
-133.3320854701392
 10
99.29695364271049
 20
-133.3320854701392
 10
98.98792857768358
 20
-133.3065917635484
 10
98.469786216702
 20
-133.1140109259229
 10
97.96404619946733
 20
-132.7078341682119
 10
97.96404619946733
 20
-132.7078341682119
 10
97.96404619946733
 20
-133.5456813902247
 10
97.96404619946733
 20
-133.5456813902247
 10
97.96404619946733
 20
-133.5456813902247
 10
97.75251733667298
 20
-133.5456813902247
 10
97.75251733667298
 20
-133.5456813902247
 10
97.75251733667298
 20
-133.5456813902247
 10
97.75251733667298
 20
-132.4708115988267
 10
97.75251733667298
 20
-132.4708115988267
 10
97.75251733667298
 20
-132.4708115988267
 10
97.96404619946733
 20
-132.4708115988267
 10
97.96404619946733
 20
-132.4708115988267
 10
98.25412323932537
 20
-132.7946505744402
 10
98.8463351532398
 20
-133.0613009649986
 10
99.29695364271049
 20
-133.095062900754
 97
        0
 97
        0
 75
     2
 76
     1
 98
        0
  0
ENDBLK
  5
7A
330
77
100
AcDbEntity
  8
0
100
AcDbBlockEnd
  0
BLOCK
  5
90
330
8E
100
AcDbEntity
  8
0
100
AcDbBlockBegin
  2
block 5
 70
     0
 10
0.0
 20
0.0
 30
0.0
  3
block 5
  1

  0
SPLINE
  5
92
330
8E
100
AcDbEntity
  8
_U+30EC_U+30A4_U+30E4_U+30FC 1
370
     0
100
AcDbSpline
210
0.0
220
0.0
230
1.0
 70
    11
 71
     3
 72
    35
 73
    31
 74
     0
 42
0.0000000001
 43
0.0000000001
 12
1.0
 22
0.0
 32
0.0
 13
1.0
 23
0.0
 33
0.0
 40
0.0
 40
0.0
 40
0.0
 40
0.0
 40
1.0
 40
1.0
 40
1.0
 40
2.0
 40
2.0
 40
2.0
 40
3.0
 40
3.0
 40
3.0
 40
4.0
 40
4.0
 40
4.0
 40
5.0
 40
5.0
 40
5.0
 40
6.0
 40
6.0
 40
6.0
 40
7.0
 40
7.0
 40
7.0
 40
8.0
 40
8.0
 40
8.0
 40
9.0
 40
9.0
 40
9.0
 40
10.0
 40
10.0
 40
10.0
 40
10.0
 10
103.6860052909188
 20
-117.1609795171507
 30
0.0
 10
103.6860052909188
 20
-117.1609795171507
 30
0.0
 10
103.6353623872856
 20
-117.4253905956437
 30
0.0
 10
103.6353623872856
 20
-117.4253905956437
 30
0.0
 10
103.7748887544382
 20
-117.4381374489391
 30
0.0
 10
104.102861844634
 20
-117.5290879697497
 30
0.0
 10
104.102861844634
 20
-117.9204508168741
 30
0.0
 10
104.102861844634
 20
-118.3984578154525
 30
0.0
 10
103.6966850869231
 20
-118.5233425267928
 30
0.0
 10
103.4214219576516
 20
-118.5233425267928
 30
0.0
 10
103.4214219576516
 20
-118.5233425267928
 30
0.0
 10
103.3538980861407
 20
-118.8766370688052
 30
0.0
 10
103.3538980861407
 20
-118.8766370688052
 30
0.0
 10
103.3538980861407
 20
-118.8766370688052
 30
0.0
 10
103.1465033379286
 20
-118.8766370688052
 30
0.0
 10
103.1465033379286
 20
-118.8766370688052
 30
0.0
 10
103.1465033379286
 20
-118.8766370688052
 30
0.0
 10
103.2185058335704
 20
-118.5085286162062
 30
0.0
 10
103.2185058335704
 20
-118.5085286162062
 30
0.0
 10
103.1106743448821
 20
-118.4894083362631
 30
0.0
 10
102.7592746053866
 20
-118.4280856366256
 30
0.0
 10
102.7592746053866
 20
-118.0114013376847
 30
0.0
 10
102.7592746053866
 20
-117.5628499055051
 30
0.0
 10
103.1148084594644
 20
-117.4126437423482
 30
0.0
 10
103.4300346963647
 20
-117.4126437423482
 30
0.0
 10
103.4300346963647
 20
-117.4126437423482
 30
0.0
 10
103.4786105427067
 20
-117.1609795171507
 30
0.0
 10
103.4786105427067
 20
-117.1609795171507
 30
0.0
 10
103.4786105427067
 20
-117.1609795171507
 30
0.0
 10
103.6860052909188
 20
-117.1609795171507
 30
0.0
 10
103.6860052909188
 20
-117.1609795171507
 30
0.0
  0
SPLINE
  5
93
330
8E
100
AcDbEntity
  8
_U+30EC_U+30A4_U+30E4_U+30FC 1
370
     0
100
AcDbSpline
210
0.0
220
0.0
230
1.0
 70
    11
 71
     3
 72
    14
 73
    10
 74
     0
 42
0.0000000001
 43
0.0000000001
 12
1.0
 22
0.0
 32
0.0
 13
1.0
 23
0.0
 33
0.0
 40
0.0
 40
0.0
 40
0.0
 40
0.0
 40
1.0
 40
1.0
 40
1.0
 40
2.0
 40
2.0
 40
2.0
 40
3.0
 40
3.0
 40
3.0
 40
3.0
 10
103.3962727606093
 20
-117.5861043000306
 30
0.0
 10
103.2756944186255
 20
-117.5945447839694
 30
0.0
 10
102.9814832641852
 20
-117.6179714332691
 30
0.0
 10
102.9814832641852
 20
-118.015535452267
 30
0.0
 10
102.9814832641852
 20
-118.0790974639698
 30
0.0
 10
102.9814832641852
 20
-118.2926933840553
 30
0.0
 10
103.2502007120347
 20
-118.337135115815
 30
0.0
 10
103.2502007120347
 20
-118.337135115815
 30
0.0
 10
103.3962727606093
 20
-117.5861043000306
 30
0.0
 10
103.3962727606093
 20
-117.5861043000306
 30
0.0
  0
SPLINE
  5
94
330
8E
100
AcDbEntity
  8
_U+30EC_U+30A4_U+30E4_U+30FC 1
370
     0
100
AcDbSpline
210
0.0
220
0.0
230
1.0
 70
    11
 71
     3
 72
    14
 73
    10
 74
     0
 42
0.0000000001
 43
0.0000000001
 12
1.0
 22
0.0
 32
0.0
 13
1.0
 23
0.0
 33
0.0
 40
0.0
 40
0.0
 40
0.0
 40
0.0
 40
1.0
 40
1.0
 40
1.0
 40
2.0
 40
2.0
 40
2.0
 40
3.0
 40
3.0
 40
3.0
 40
3.0
 10
103.4575954602467
 20
-118.3455755997539
 30
0.0
 10
103.6394965018679
 20
-118.3414414851716
 30
0.0
 10
103.8827202431265
 20
-118.260998505591
 30
0.0
 10
103.8827202431265
 20
-117.9056369062875
 30
0.0
 10
103.8827202431265
 20
-117.8124470734115
 30
0.0
 10
103.8699733898311
 20
-117.6241726051426
 30
0.0
 10
103.5991888846905
 20
-117.5967840960348
 30
0.0
 10
103.5991888846905
 20
-117.5967840960348
 30
0.0
 10
103.4575954602467
 20
-118.3455755997539
 30
0.0
 10
103.4575954602467
 20
-118.3455755997539
 30
0.0
  0
HATCH
  5
95
330
8E
100
AcDbEntity
  8
_U+30EC_U+30A4_U+30E4_U+30FC 1
 62
   179
420
  2234388
100
AcDbHatch
 10
0.0
 20
0.0
 30
0.0
210
0.0
220
0.0
230
1.0
  2
SOLID
 70
     1
 71
     0
 91
        3
 92
        1
 93
        1
 72
     4
 94
        3
 73
     0
 74
     1
 95
       35
 96
       31
 40
0.0
 40
0.0
 40
0.0
 40
0.0
 40
1.0
 40
1.0
 40
1.0
 40
2.0
 40
2.0
 40
2.0
 40
3.0
 40
3.0
 40
3.0
 40
4.0
 40
4.0
 40
4.0
 40
5.0
 40
5.0
 40
5.0
 40
6.0
 40
6.0
 40
6.0
 40
7.0
 40
7.0
 40
7.0
 40
8.0
 40
8.0
 40
8.0
 40
9.0
 40
9.0
 40
9.0
 40
10.0
 40
10.0
 40
10.0
 40
10.0
 10
103.6860052909188
 20
-117.1609795171507
 10
103.6860052909188
 20
-117.1609795171507
 10
103.6353623872856
 20
-117.4253905956437
 10
103.6353623872856
 20
-117.4253905956437
 10
103.7748887544382
 20
-117.4381374489391
 10
104.102861844634
 20
-117.5290879697497
 10
104.102861844634
 20
-117.9204508168741
 10
104.102861844634
 20
-118.3984578154525
 10
103.6966850869231
 20
-118.5233425267928
 10
103.4214219576516
 20
-118.5233425267928
 10
103.4214219576516
 20
-118.5233425267928
 10
103.3538980861407
 20
-118.8766370688052
 10
103.3538980861407
 20
-118.8766370688052
 10
103.3538980861407
 20
-118.8766370688052
 10
103.1465033379286
 20
-118.8766370688052
 10
103.1465033379286
 20
-118.8766370688052
 10
103.1465033379286
 20
-118.8766370688052
 10
103.2185058335704
 20
-118.5085286162062
 10
103.2185058335704
 20
-118.5085286162062
 10
103.1106743448821
 20
-118.4894083362631
 10
102.7592746053866
 20
-118.4280856366256
 10
102.7592746053866
 20
-118.0114013376847
 10
102.7592746053866
 20
-117.5628499055051
 10
103.1148084594644
 20
-117.4126437423482
 10
103.4300346963647
 20
-117.4126437423482
 10
103.4300346963647
 20
-117.4126437423482
 10
103.4786105427067
 20
-117.1609795171507
 10
103.4786105427067
 20
-117.1609795171507
 10
103.4786105427067
 20
-117.1609795171507
 10
103.6860052909188
 20
-117.1609795171507
 10
103.6860052909188
 20
-117.1609795171507
 97
        0
 97
        0
 92
        1
 93
        1
 72
     4
 94
        3
 73
     0
 74
     1
 95
       14
 96
       10
 40
0.0
 40
0.0
 40
0.0
 40
0.0
 40
1.0
 40
1.0
 40
1.0
 40
2.0
 40
2.0
 40
2.0
 40
3.0
 40
3.0
 40
3.0
 40
3.0
 10
103.3962727606093
 20
-117.5861043000306
 10
103.2756944186255
 20
-117.5945447839694
 10
102.9814832641852
 20
-117.6179714332691
 10
102.9814832641852
 20
-118.015535452267
 10
102.9814832641852
 20
-118.0790974639698
 10
102.9814832641852
 20
-118.2926933840553
 10
103.2502007120347
 20
-118.337135115815
 10
103.2502007120347
 20
-118.337135115815
 10
103.3962727606093
 20
-117.5861043000306
 10
103.3962727606093
 20
-117.5861043000306
 97
        0
 97
        0
 92
        1
 93
        1
 72
     4
 94
        3
 73
     0
 74
     1
 95
       14
 96
       10
 40
0.0
 40
0.0
 40
0.0
 40
0.0
 40
1.0
 40
1.0
 40
1.0
 40
2.0
 40
2.0
 40
2.0
 40
3.0
 40
3.0
 40
3.0
 40
3.0
 10
103.4575954602467
 20
-118.3455755997539
 10
103.6394965018679
 20
-118.3414414851716
 10
103.8827202431265
 20
-118.260998505591
 10
103.8827202431265
 20
-117.9056369062875
 10
103.8827202431265
 20
-117.8124470734115
 10
103.8699733898311
 20
-117.6241726051426
 10
103.5991888846905
 20
-117.5967840960348
 10
103.5991888846905
 20
-117.5967840960348
 10
103.4575954602467
 20
-118.3455755997539
 10
103.4575954602467
 20
-118.3455755997539
 97
        0
 97
        0
 75
     2
 76
     1
 98
        0
  0
SPLINE
  5
96
330
8E
100
AcDbEntity
  8
_U+30EC_U+30A4_U+30E4_U+30FC 1
370
     0
100
AcDbSpline
210
0.0
220
0.0
230
1.0
 70
    11
 71
     3
 72
    26
 73
    22
 74
     0
 42
0.0000000001
 43
0.0000000001
 12
1.0
 22
0.0
 32
0.0
 13
1.0
 23
0.0
 33
0.0
 40
0.0
 40
0.0
 40
0.0
 40
0.0
 40
1.0
 40
1.0
 40
1.0
 40
2.0
 40
2.0
 40
2.0
 40
3.0
 40
3.0
 40
3.0
 40
4.0
 40
4.0
 40
4.0
 40
5.0
 40
5.0
 40
5.0
 40
6.0
 40
6.0
 40
6.0
 40
7.0
 40
7.0
 40
7.0
 40
7.0
 10
104.7660427255446
 20
-118.5317830107316
 30
0.0
 10
104.7660427255446
 20
-118.5317830107316
 30
0.0
 10
104.7660427255446
 20
-117.4274576529348
 30
0.0
 10
104.7660427255446
 20
-117.4274576529348
 30
0.0
 10
104.7660427255446
 20
-117.4274576529348
 30
0.0
 10
104.4360025780577
 20
-117.4274576529348
 30
0.0
 10
104.4360025780577
 20
-117.4274576529348
 30
0.0
 10
104.4360025780577
 20
-117.4274576529348
 30
0.0
 10
104.4360025780577
 20
-117.2793185470691
 30
0.0
 10
104.4360025780577
 20
-117.2793185470691
 30
0.0
 10
104.7681097828358
 20
-117.2646768912568
 30
0.0
 10
104.8146185718866
 20
-117.1017238748044
 30
0.0
 10
104.8442463930598
 20
-116.9875189594684
 30
0.0
 10
104.8442463930598
 20
-116.9875189594684
 30
0.0
 10
104.9903184416344
 20
-116.9875189594684
 30
0.0
 10
104.9903184416344
 20
-116.9875189594684
 30
0.0
 10
104.9903184416344
 20
-116.9875189594684
 30
0.0
 10
104.9903184416344
 20
-118.5317830107316
 30
0.0
 10
104.9903184416344
 20
-118.5317830107316
 30
0.0
 10
104.9903184416344
 20
-118.5317830107316
 30
0.0
 10
104.7660427255446
 20
-118.5317830107316
 30
0.0
 10
104.7660427255446
 20
-118.5317830107316
 30
0.0
  0
HATCH
  5
97
330
8E
100
AcDbEntity
  8
_U+30EC_U+30A4_U+30E4_U+30FC 1
 62
   179
420
  2234388
100
AcDbHatch
 10
0.0
 20
0.0
 30
0.0
210
0.0
220
0.0
230
1.0
  2
SOLID
 70
     1
 71
     0
 91
        1
 92
        1
 93
        1
 72
     4
 94
        3
 73
     0
 74
     1
 95
       26
 96
       22
 40
0.0
 40
0.0
 40
0.0
 40
0.0
 40
1.0
 40
1.0
 40
1.0
 40
2.0
 40
2.0
 40
2.0
 40
3.0
 40
3.0
 40
3.0
 40
4.0
 40
4.0
 40
4.0
 40
5.0
 40
5.0
 40
5.0
 40
6.0
 40
6.0
 40
6.0
 40
7.0
 40
7.0
 40
7.0
 40
7.0
 10
104.7660427255446
 20
-118.5317830107316
 10
104.7660427255446
 20
-118.5317830107316
 10
104.7660427255446
 20
-117.4274576529348
 10
104.7660427255446
 20
-117.4274576529348
 10
104.7660427255446
 20
-117.4274576529348
 10
104.4360025780577
 20
-117.4274576529348
 10
104.4360025780577
 20
-117.4274576529348
 10
104.4360025780577
 20
-117.4274576529348
 10
104.4360025780577
 20
-117.2793185470691
 10
104.4360025780577
 20
-117.2793185470691
 10
104.7681097828358
 20
-117.2646768912568
 10
104.8146185718866
 20
-117.1017238748044
 10
104.8442463930598
 20
-116.9875189594684
 10
104.8442463930598
 20
-116.9875189594684
 10
104.9903184416344
 20
-116.9875189594684
 10
104.9903184416344
 20
-116.9875189594684
 10
104.9903184416344
 20
-116.9875189594684
 10
104.9903184416344
 20
-118.5317830107316
 10
104.9903184416344
 20
-118.5317830107316
 10
104.9903184416344
 20
-118.5317830107316
 10
104.7660427255446
 20
-118.5317830107316
 10
104.7660427255446
 20
-118.5317830107316
 97
        0
 97
        0
 75
     2
 76
     1
 98
        0
  0
SPLINE
  5
98
330
8E
100
AcDbEntity
  8
_U+30EC_U+30A4_U+30E4_U+30FC 1
370
     0
100
AcDbSpline
210
0.0
220
0.0
230
1.0
 70
    11
 71
     3
 72
    29
 73
    25
 74
     0
 42
0.0000000001
 43
0.0000000001
 12
1.0
 22
0.0
 32
0.0
 13
1.0
 23
0.0
 33
0.0
 40
0.0
 40
0.0
 40
0.0
 40
0.0
 40
1.0
 40
1.0
 40
1.0
 40
2.0
 40
2.0
 40
2.0
 40
3.0
 40
3.0
 40
3.0
 40
4.0
 40
4.0
 40
4.0
 40
5.0
 40
5.0
 40
5.0
 40
6.0
 40
6.0
 40
6.0
 40
7.0
 40
7.0
 40
7.0
 40
8.0
 40
8.0
 40
8.0
 40
8.0
 10
106.3893717181943
 20
-118.3540160836928
 30
0.0
 10
106.2811957199575
 20
-118.5634778891959
 30
0.0
 10
106.1079074170494
 20
-118.5825981691391
 30
0.0
 10
105.991463189648
 20
-118.5825981691391
 30
0.0
 10
105.8305772304868
 20
-118.5825981691391
 30
0.0
 10
105.688983806043
 20
-118.5360893800882
 30
0.0
 10
105.5938991706501
 20
-118.3540160836928
 30
0.0
 10
105.4902017965441
 20
-118.1595404435504
 30
0.0
 10
105.4709092618267
 20
-117.9225178741652
 30
0.0
 10
105.4709092618267
 20
-117.7595648577129
 30
0.0
 10
105.4709092618267
 20
-117.6157321212037
 30
0.0
 10
105.488134739253
 20
-117.3640678960062
 30
0.0
 10
105.5938991706501
 20
-117.165113631733
 30
0.0
 10
105.7017306593385
 20
-116.9620252528776
 30
0.0
 10
105.8626166184996
 20
-116.9387708583521
 30
0.0
 10
105.991463189648
 20
-116.9387708583521
 30
0.0
 10
106.150282091518
 20
-116.9387708583521
 30
0.0
 10
106.2939425732529
 20
-116.9832125901118
 30
0.0
 10
106.3893717181943
 20
-117.165113631733
 30
0.0
 10
106.4885904681695
 20
-117.3576944693585
 30
0.0
 10
106.5120171174692
 20
-117.5861043000306
 30
0.0
 10
106.5120171174692
 20
-117.7595648577129
 30
0.0
 10
106.5120171174692
 20
-117.9309583581041
 30
0.0
 10
106.4906575254607
 20
-118.1616075008416
 30
0.0
 10
106.3893717181943
 20
-118.3540160836928
 30
0.0
  0
SPLINE
  5
99
330
8E
100
AcDbEntity
  8
_U+30EC_U+30A4_U+30E4_U+30FC 1
370
     0
100
AcDbSpline
210
0.0
220
0.0
230
1.0
 70
    11
 71
     3
 72
    17
 73
    13
 74
     0
 42
0.0000000001
 43
0.0000000001
 12
1.0
 22
0.0
 32
0.0
 13
1.0
 23
0.0
 33
0.0
 40
0.0
 40
0.0
 40
0.0
 40
0.0
 40
1.0
 40
1.0
 40
1.0
 40
2.0
 40
2.0
 40
2.0
 40
3.0
 40
3.0
 40
3.0
 40
4.0
 40
4.0
 40
4.0
 40
4.0
 10
105.991463189648
 20
-117.1313516959776
 30
0.0
 10
105.7416937669674
 20
-117.1313516959776
 30
0.0
 10
105.6951849779165
 20
-117.4147107996394
 30
0.0
 10
105.6951849779165
 20
-117.7595648577129
 30
0.0
 10
105.6951849779165
 20
-118.0790974639698
 30
0.0
 10
105.7313584805116
 20
-118.3879502742225
 30
0.0
 10
105.991463189648
 20
-118.3879502742225
 30
0.0
 10
106.2391655550374
 20
-118.3879502742225
 30
0.0
 10
106.2877414013795
 20
-118.1064859730776
 30
0.0
 10
106.2877414013795
 20
-117.7595648577129
 30
0.0
 10
106.2877414013795
 20
-117.4402045062302
 30
0.0
 10
106.2495008414932
 20
-117.1313516959776
 30
0.0
 10
105.991463189648
 20
-117.1313516959776
 30
0.0
  0
HATCH
  5
9A
330
8E
100
AcDbEntity
  8
_U+30EC_U+30A4_U+30E4_U+30FC 1
 62
   179
420
  2234388
100
AcDbHatch
 10
0.0
 20
0.0
 30
0.0
210
0.0
220
0.0
230
1.0
  2
SOLID
 70
     1
 71
     0
 91
        2
 92
        1
 93
        1
 72
     4
 94
        3
 73
     0
 74
     1
 95
       29
 96
       25
 40
0.0
 40
0.0
 40
0.0
 40
0.0
 40
1.0
 40
1.0
 40
1.0
 40
2.0
 40
2.0
 40
2.0
 40
3.0
 40
3.0
 40
3.0
 40
4.0
 40
4.0
 40
4.0
 40
5.0
 40
5.0
 40
5.0
 40
6.0
 40
6.0
 40
6.0
 40
7.0
 40
7.0
 40
7.0
 40
8.0
 40
8.0
 40
8.0
 40
8.0
 10
106.3893717181943
 20
-118.3540160836928
 10
106.2811957199575
 20
-118.5634778891959
 10
106.1079074170494
 20
-118.5825981691391
 10
105.991463189648
 20
-118.5825981691391
 10
105.8305772304868
 20
-118.5825981691391
 10
105.688983806043
 20
-118.5360893800882
 10
105.5938991706501
 20
-118.3540160836928
 10
105.4902017965441
 20
-118.1595404435504
 10
105.4709092618267
 20
-117.9225178741652
 10
105.4709092618267
 20
-117.7595648577129
 10
105.4709092618267
 20
-117.6157321212037
 10
105.488134739253
 20
-117.3640678960062
 10
105.5938991706501
 20
-117.165113631733
 10
105.7017306593385
 20
-116.9620252528776
 10
105.8626166184996
 20
-116.9387708583521
 10
105.991463189648
 20
-116.9387708583521
 10
106.150282091518
 20
-116.9387708583521
 10
106.2939425732529
 20
-116.9832125901118
 10
106.3893717181943
 20
-117.165113631733
 10
106.4885904681695
 20
-117.3576944693585
 10
106.5120171174692
 20
-117.5861043000306
 10
106.5120171174692
 20
-117.7595648577129
 10
106.5120171174692
 20
-117.9309583581041
 10
106.4906575254607
 20
-118.1616075008416
 10
106.3893717181943
 20
-118.3540160836928
 97
        0
 97
        0
 92
        1
 93
        1
 72
     4
 94
        3
 73
     0
 74
     1
 95
       17
 96
       13
 40
0.0
 40
0.0
 40
0.0
 40
0.0
 40
1.0
 40
1.0
 40
1.0
 40
2.0
 40
2.0
 40
2.0
 40
3.0
 40
3.0
 40
3.0
 40
4.0
 40
4.0
 40
4.0
 40
4.0
 10
105.991463189648
 20
-117.1313516959776
 10
105.7416937669674
 20
-117.1313516959776
 10
105.6951849779165
 20
-117.4147107996394
 10
105.6951849779165
 20
-117.7595648577129
 10
105.6951849779165
 20
-118.0790974639698
 10
105.7313584805116
 20
-118.3879502742225
 10
105.991463189648
 20
-118.3879502742225
 10
106.2391655550374
 20
-118.3879502742225
 10
106.2877414013795
 20
-118.1064859730776
 10
106.2877414013795
 20
-117.7595648577129
 10
106.2877414013795
 20
-117.4402045062302
 10
106.2495008414932
 20
-117.1313516959776
 10
105.991463189648
 20
-117.1313516959776
 97
        0
 97
        0
 75
     2
 76
     1
 98
        0
  0
ENDBLK
  5
91
330
8E
100
AcDbEntity
  8
0
100
AcDbBlockEnd
  0
BLOCK
  5
AC
330
AA
100
AcDbEntity
  8
0
100
AcDbBlockBegin
  2
block 6
 70
     0
 10
0.0
 20
0.0
 30
0.0
  3
block 6
  1

  0
POLYLINE
  5
AE
330
AA
100
AcDbEntity
  8
_U+30EC_U+30A4_U+30E4_U+30FC 1
370
     0
100
AcDb2dPolyline
 66
     1
 10
0.0
 20
0.0
 30
0.0
  0
VERTEX
  5
AF
330
AE
100
AcDbEntity
  8
_U+30EC_U+30A4_U+30E4_U+30FC 1
370
     0
100
AcDbVertex
100
AcDb2dVertex
 10
74.66968856640203
 20
-116.6762545823761
 30
0.0
  0
VERTEX
  5
B0
330
AE
100
AcDbEntity
  8
_U+30EC_U+30A4_U+30E4_U+30FC 1
370
     0
100
AcDbVertex
100
AcDb2dVertex
 10
74.66968856640203
 20
-117.0231756977407
 30
0.0
  0
VERTEX
  5
B1
330
AE
100
AcDbEntity
  8
_U+30EC_U+30A4_U+30E4_U+30FC 1
370
     0
100
AcDbVertex
100
AcDb2dVertex
 10
74.45195853173423
 20
-117.0231756977407
 30
0.0
  0
VERTEX
  5
B2
330
AE
100
AcDbEntity
  8
_U+30EC_U+30A4_U+30E4_U+30FC 1
370
     0
100
AcDbVertex
100
AcDb2dVertex
 10
74.45195853173423
 20
-116.6762545823761
 30
0.0
  0
VERTEX
  5
B3
330
AE
100
AcDbEntity
  8
_U+30EC_U+30A4_U+30E4_U+30FC 1
370
     0
100
AcDbVertex
100
AcDb2dVertex
 10
73.79601235134267
 20
-116.6762545823761
 30
0.0
  0
VERTEX
  5
B4
330
AE
100
AcDbEntity
  8
_U+30EC_U+30A4_U+30E4_U+30FC 1
370
     0
100
AcDbVertex
100
AcDb2dVertex
 10
73.79601235134267
 20
-116.4519788662863
 30
0.0
  0
VERTEX
  5
B5
330
AE
100
AcDbEntity
  8
_U+30EC_U+30A4_U+30E4_U+30FC 1
370
     0
100
AcDbVertex
100
AcDb2dVertex
 10
74.47504067148542
 20
-115.4789116464775
 30
0.0
  0
VERTEX
  5
B6
330
AE
100
AcDbEntity
  8
_U+30EC_U+30A4_U+30E4_U+30FC 1
370
     0
100
AcDbVertex
100
AcDb2dVertex
 10
74.66968856640203
 20
-115.4789116464775
 30
0.0
  0
VERTEX
  5
B7
330
AE
100
AcDbEntity
  8
_U+30EC_U+30A4_U+30E4_U+30FC 1
370
     0
100
AcDbVertex
100
AcDb2dVertex
 10
74.66968856640203
 20
-116.4773003181029
 30
0.0
  0
VERTEX
  5
B8
330
AE
100
AcDbEntity
  8
_U+30EC_U+30A4_U+30E4_U+30FC 1
370
     0
100
AcDbVertex
100
AcDb2dVertex
 10
74.87708331461407
 20
-116.4773003181029
 30
0.0
  0
VERTEX
  5
B9
330
AE
100
AcDbEntity
  8
_U+30EC_U+30A4_U+30E4_U+30FC 1
370
     0
100
AcDbVertex
100
AcDb2dVertex
 10
74.87708331461407
 20
-116.6762545823761
 30
0.0
  0
VERTEX
  5
BA
330
AE
100
AcDbEntity
  8
_U+30EC_U+30A4_U+30E4_U+30FC 1
370
     0
100
AcDbVertex
100
AcDb2dVertex
 10
74.66968856640203
 20
-116.6762545823761
 30
0.0
  0
SEQEND
  5
BB
330
AE
100
AcDbEntity
  8
_U+30EC_U+30A4_U+30E4_U+30FC 1
370
     0
  0
POLYLINE
  5
BC
330
AA
100
AcDbEntity
  8
_U+30EC_U+30A4_U+30E4_U+30FC 1
370
     0
100
AcDb2dPolyline
 66
     1
 10
0.0
 20
0.0
 30
0.0
  0
VERTEX
  5
BD
330
BC
100
AcDbEntity
  8
_U+30EC_U+30A4_U+30E4_U+30FC 1
370
     0
100
AcDbVertex
100
AcDb2dVertex
 10
74.45195853173423
 20
-115.8215263924856
 30
0.0
  0
VERTEX
  5
BE
330
BC
100
AcDbEntity
  8
_U+30EC_U+30A4_U+30E4_U+30FC 1
370
     0
100
AcDbVertex
100
AcDb2dVertex
 10
73.99479436084158
 20
-116.4773003181029
 30
0.0
  0
VERTEX
  5
BF
330
BC
100
AcDbEntity
  8
_U+30EC_U+30A4_U+30E4_U+30FC 1
370
     0
100
AcDbVertex
100
AcDb2dVertex
 10
74.45195853173423
 20
-116.4773003181029
 30
0.0
  0
VERTEX
  5
C0
330
BC
100
AcDbEntity
  8
_U+30EC_U+30A4_U+30E4_U+30FC 1
370
     0
100
AcDbVertex
100
AcDb2dVertex
 10
74.45195853173423
 20
-115.8215263924856
 30
0.0
  0
SEQEND
  5
C1
330
BC
100
AcDbEntity
  8
_U+30EC_U+30A4_U+30E4_U+30FC 1
370
     0
  0
HATCH
  5
C2
330
AA
100
AcDbEntity
  8
_U+30EC_U+30A4_U+30E4_U+30FC 1
 62
   179
420
  2234388
100
AcDbHatch
 10
0.0
 20
0.0
 30
0.0
210
0.0
220
0.0
230
1.0
  2
SOLID
 70
     1
 71
     0
 91
        2
 92
        1
 93
       11
 72
     1
 10
74.66968856640203
 20
-116.6762545823761
 11
74.66968856640203
 21
-117.0231756977407
 72
     1
 10
74.66968856640203
 20
-117.0231756977407
 11
74.45195853173423
 21
-117.0231756977407
 72
     1
 10
74.45195853173423
 20
-117.0231756977407
 11
74.45195853173423
 21
-116.6762545823761
 72
     1
 10
74.45195853173423
 20
-116.6762545823761
 11
73.79601235134267
 21
-116.6762545823761
 72
     1
 10
73.79601235134267
 20
-116.6762545823761
 11
73.79601235134267
 21
-116.4519788662863
 72
     1
 10
73.79601235134267
 20
-116.4519788662863
 11
74.47504067148542
 21
-115.4789116464775
 72
     1
 10
74.47504067148542
 20
-115.4789116464775
 11
74.66968856640203
 21
-115.4789116464775
 72
     1
 10
74.66968856640203
 20
-115.4789116464775
 11
74.66968856640203
 21
-116.4773003181029
 72
     1
 10
74.66968856640203
 20
-116.4773003181029
 11
74.87708331461407
 21
-116.4773003181029
 72
     1
 10
74.87708331461407
 20
-116.4773003181029
 11
74.87708331461407
 21
-116.6762545823761
 72
     1
 10
74.87708331461407
 20
-116.6762545823761
 11
74.66968856640203
 21
-116.6762545823761
 97
        0
 92
        1
 93
        3
 72
     1
 10
74.45195853173423
 20
-115.8215263924856
 11
73.99479436084158
 21
-116.4773003181029
 72
     1
 10
73.99479436084158
 20
-116.4773003181029
 11
74.45195853173423
 21
-116.4773003181029
 72
     1
 10
74.45195853173423
 20
-116.4773003181029
 11
74.45195853173423
 21
-115.8215263924856
 97
        0
 75
     2
 76
     1
 98
        0
  0
POLYLINE
  5
C3
330
AA
100
AcDbEntity
  8
_U+30EC_U+30A4_U+30E4_U+30FC 1
370
     0
100
AcDb2dPolyline
 66
     1
 10
0.0
 20
0.0
 30
0.0
  0
VERTEX
  5
C4
330
C3
100
AcDbEntity
  8
_U+30EC_U+30A4_U+30E4_U+30FC 1
370
     0
100
AcDbVertex
100
AcDb2dVertex
 10
75.07448728591888
 20
-117.0231756977407
 30
0.0
  0
VERTEX
  5
C5
330
C3
100
AcDbEntity
  8
_U+30EC_U+30A4_U+30E4_U+30FC 1
370
     0
100
AcDbVertex
100
AcDb2dVertex
 10
75.07448728591888
 20
-116.7715114725432
 30
0.0
  0
VERTEX
  5
C6
330
C3
100
AcDbEntity
  8
_U+30EC_U+30A4_U+30E4_U+30FC 1
370
     0
100
AcDbVertex
100
AcDb2dVertex
 10
75.32632376589065
 20
-116.7715114725432
 30
0.0
  0
VERTEX
  5
C7
330
C3
100
AcDbEntity
  8
_U+30EC_U+30A4_U+30E4_U+30FC 1
370
     0
100
AcDbVertex
100
AcDb2dVertex
 10
75.32632376589065
 20
-117.0231756977407
 30
0.0
  0
VERTEX
  5
C8
330
C3
100
AcDbEntity
  8
_U+30EC_U+30A4_U+30E4_U+30FC 1
370
     0
100
AcDbVertex
100
AcDb2dVertex
 10
75.07448728591888
 20
-117.0231756977407
 30
0.0
  0
SEQEND
  5
C9
330
C3
100
AcDbEntity
  8
_U+30EC_U+30A4_U+30E4_U+30FC 1
370
     0
  0
HATCH
  5
CA
330
AA
100
AcDbEntity
  8
_U+30EC_U+30A4_U+30E4_U+30FC 1
 62
   179
420
  2234388
100
AcDbHatch
 10
0.0
 20
0.0
 30
0.0
210
0.0
220
0.0
230
1.0
  2
SOLID
 70
     1
 71
     0
 91
        1
 92
        1
 93
        4
 72
     1
 10
75.07448728591888
 20
-117.0231756977407
 11
75.07448728591888
 21
-116.7715114725432
 72
     1
 10
75.07448728591888
 20
-116.7715114725432
 11
75.32632376589065
 21
-116.7715114725432
 72
     1
 10
75.32632376589065
 20
-116.7715114725432
 11
75.32632376589065
 21
-117.0231756977407
 72
     1
 10
75.32632376589065
 20
-117.0231756977407
 11
75.07448728591888
 21
-117.0231756977407
 97
        0
 75
     2
 76
     1
 98
        0
  0
SPLINE
  5
CB
330
AA
100
AcDbEntity
  8
_U+30EC_U+30A4_U+30E4_U+30FC 1
370
     0
100
AcDbSpline
210
0.0
220
0.0
230
1.0
 70
    11
 71
     3
 72
    26
 73
    22
 74
     0
 42
0.0000000001
 43
0.0000000001
 12
1.0
 22
0.0
 32
0.0
 13
1.0
 23
0.0
 33
0.0
 40
0.0
 40
0.0
 40
0.0
 40
0.0
 40
1.0
 40
1.0
 40
1.0
 40
2.0
 40
2.0
 40
2.0
 40
3.0
 40
3.0
 40
3.0
 40
4.0
 40
4.0
 40
4.0
 40
5.0
 40
5.0
 40
5.0
 40
6.0
 40
6.0
 40
6.0
 40
7.0
 40
7.0
 40
7.0
 40
7.0
 10
76.01396482474651
 20
-117.0231756977407
 30
0.0
 10
76.01396482474651
 20
-117.0231756977407
 30
0.0
 10
76.01396482474651
 20
-115.9188503399439
 30
0.0
 10
76.01396482474651
 20
-115.9188503399439
 30
0.0
 10
76.01396482474651
 20
-115.9188503399439
 30
0.0
 10
75.68392467725958
 20
-115.9188503399439
 30
0.0
 10
75.68392467725958
 20
-115.9188503399439
 30
0.0
 10
75.68392467725958
 20
-115.9188503399439
 30
0.0
 10
75.68392467725958
 20
-115.7707112340782
 30
0.0
 10
75.68392467725958
 20
-115.7707112340782
 30
0.0
 10
76.01603188203767
 20
-115.7560695782659
 30
0.0
 10
76.06254067108854
 20
-115.5931165618135
 30
0.0
 10
76.09216849226168
 20
-115.4789116464775
 30
0.0
 10
76.09216849226168
 20
-115.4789116464775
 30
0.0
 10
76.23824054083627
 20
-115.4789116464775
 30
0.0
 10
76.23824054083627
 20
-115.4789116464775
 30
0.0
 10
76.23824054083627
 20
-115.4789116464775
 30
0.0
 10
76.23824054083627
 20
-117.0231756977407
 30
0.0
 10
76.23824054083627
 20
-117.0231756977407
 30
0.0
 10
76.23824054083627
 20
-117.0231756977407
 30
0.0
 10
76.01396482474651
 20
-117.0231756977407
 30
0.0
 10
76.01396482474651
 20
-117.0231756977407
 30
0.0
  0
HATCH
  5
CC
330
AA
100
AcDbEntity
  8
_U+30EC_U+30A4_U+30E4_U+30FC 1
 62
   179
420
  2234388
100
AcDbHatch
 10
0.0
 20
0.0
 30
0.0
210
0.0
220
0.0
230
1.0
  2
SOLID
 70
     1
 71
     0
 91
        1
 92
        1
 93
        1
 72
     4
 94
        3
 73
     0
 74
     1
 95
       26
 96
       22
 40
0.0
 40
0.0
 40
0.0
 40
0.0
 40
1.0
 40
1.0
 40
1.0
 40
2.0
 40
2.0
 40
2.0
 40
3.0
 40
3.0
 40
3.0
 40
4.0
 40
4.0
 40
4.0
 40
5.0
 40
5.0
 40
5.0
 40
6.0
 40
6.0
 40
6.0
 40
7.0
 40
7.0
 40
7.0
 40
7.0
 10
76.01396482474651
 20
-117.0231756977407
 10
76.01396482474651
 20
-117.0231756977407
 10
76.01396482474651
 20
-115.9188503399439
 10
76.01396482474651
 20
-115.9188503399439
 10
76.01396482474651
 20
-115.9188503399439
 10
75.68392467725958
 20
-115.9188503399439
 10
75.68392467725958
 20
-115.9188503399439
 10
75.68392467725958
 20
-115.9188503399439
 10
75.68392467725958
 20
-115.7707112340782
 10
75.68392467725958
 20
-115.7707112340782
 10
76.01603188203767
 20
-115.7560695782659
 10
76.06254067108854
 20
-115.5931165618135
 10
76.09216849226168
 20
-115.4789116464775
 10
76.09216849226168
 20
-115.4789116464775
 10
76.23824054083627
 20
-115.4789116464775
 10
76.23824054083627
 20
-115.4789116464775
 10
76.23824054083627
 20
-115.4789116464775
 10
76.23824054083627
 20
-117.0231756977407
 10
76.23824054083627
 20
-117.0231756977407
 10
76.23824054083627
 20
-117.0231756977407
 10
76.01396482474651
 20
-117.0231756977407
 10
76.01396482474651
 20
-117.0231756977407
 97
        0
 97
        0
 75
     2
 76
     1
 98
        0
  0
ENDBLK
  5
AD
330
AA
100
AcDbEntity
  8
0
100
AcDbBlockEnd
  0
BLOCK
  5
CF
330
CD
100
AcDbEntity
  8
0
100
AcDbBlockBegin
  2
block 7
 70
     0
 10
0.0
 20
0.0
 30
0.0
  3
block 7
  1

  0
SPLINE
  5
D1
330
CD
100
AcDbEntity
  8
_U+30EC_U+30A4_U+30E4_U+30FC 1
370
     0
100
AcDbSpline
210
0.0
220
0.0
230
1.0
 70
    11
 71
     3
 72
    62
 73
    58
 74
     0
 42
0.0000000001
 43
0.0000000001
 12
1.0
 22
0.0
 32
0.0
 13
1.0
 23
0.0
 33
0.0
 40
0.0
 40
0.0
 40
0.0
 40
0.0
 40
1.0
 40
1.0
 40
1.0
 40
2.0
 40
2.0
 40
2.0
 40
3.0
 40
3.0
 40
3.0
 40
4.0
 40
4.0
 40
4.0
 40
5.0
 40
5.0
 40
5.0
 40
6.0
 40
6.0
 40
6.0
 40
7.0
 40
7.0
 40
7.0
 40
8.0
 40
8.0
 40
8.0
 40
9.0
 40
9.0
 40
9.0
 40
10.0
 40
10.0
 40
10.0
 40
11.0
 40
11.0
 40
11.0
 40
12.0
 40
12.0
 40
12.0
 40
13.0
 40
13.0
 40
13.0
 40
14.0
 40
14.0
 40
14.0
 40
15.0
 40
15.0
 40
15.0
 40
16.0
 40
16.0
 40
16.0
 40
17.0
 40
17.0
 40
17.0
 40
18.0
 40
18.0
 40
18.0
 40
19.0
 40
19.0
 40
19.0
 40
19.0
 10
78.72904457667191
 20
-117.0739908561482
 30
0.0
 10
78.63361543173049
 20
-117.0739908561482
 30
0.0
 10
78.4158853970627
 20
-117.0528035189139
 30
0.0
 10
78.29082843094812
 20
-116.8665961079361
 30
0.0
 10
78.21675887801526
 20
-116.7544582498913
 30
0.0
 10
78.21262476343296
 20
-116.6550672451418
 30
0.0
 10
78.20849064885066
 20
-116.5704901509789
 30
0.0
 10
78.20849064885066
 20
-116.5704901509789
 30
0.0
 10
78.42863225035812
 20
-116.5704901509789
 30
0.0
 10
78.42863225035812
 20
-116.5704901509789
 30
0.0
 10
78.43069930764928
 20
-116.6445597039118
 30
0.0
 10
78.44103459410502
 20
-116.8793429612316
 30
0.0
 10
78.72456595254108
 20
-116.8793429612316
 30
0.0
 10
78.86202526240255
 20
-116.8793429612316
 30
0.0
 10
79.01464299239912
 20
-116.8095797776552
 30
0.0
 10
79.01464299239912
 20
-116.5809976922089
 30
0.0
 10
79.01464299239912
 20
-116.4647257195817
 30
0.0
 10
78.97640243251284
 20
-116.4159776184655
 30
0.0
 10
78.94470755404855
 20
-116.3842827400012
 30
0.0
 10
78.87063800111568
 20
-116.3102131870683
 30
0.0
 10
78.75419377371423
 20
-116.2976385885471
 30
0.0
 10
78.69941675549876
 20
-116.2976385885471
 30
0.0
 10
78.68012422078137
 20
-116.2976385885471
 30
0.0
 10
78.64429522773476
 20
-116.2997056458383
 30
0.0
 10
78.61673446385277
 20
-116.3038397604206
 30
0.0
 10
78.61673446385277
 20
-116.3038397604206
 30
0.0
 10
78.61673446385277
 20
-116.1093641202782
 30
0.0
 10
78.61673446385277
 20
-116.1093641202782
 30
0.0
 10
78.65497502373904
 20
-116.1155652921517
 30
0.0
 10
78.69700518865909
 20
-116.1178046042171
 30
0.0
 10
78.70355087008106
 20
-116.1178046042171
 30
0.0
 10
78.7690076843008
 20
-116.1178046042171
 30
0.0
 10
78.96778969379972
 20
-116.0966172669828
 30
0.0
 10
78.96778969379972
 20
-115.8595946975976
 30
0.0
 10
78.96778969379972
 20
-115.682000025333
 30
0.0
 10
78.83687606536023
 20
-115.626878497569
 30
0.0
 10
78.72663300983224
 20
-115.626878497569
 30
0.0
 10
78.46239418611357
 20
-115.626878497569
 30
0.0
 10
78.45378144740044
 20
-115.8595946975976
 30
0.0
 10
78.44964733281815
 20
-115.9315971932393
 30
0.0
 10
78.44964733281815
 20
-115.9315971932393
 30
0.0
 10
78.2463866991884
 20
-115.9315971932393
 30
0.0
 10
78.2463866991884
 20
-115.9315971932393
 30
0.0
 10
78.25499943790153
 20
-115.806712481899
 30
0.0
 10
78.28256020178353
 20
-115.4301635453612
 30
0.0
 10
78.73937986312765
 20
-115.4301635453612
 30
0.0
 10
78.96365557921742
 20
-115.4301635453612
 30
0.0
 10
79.2048122631849
 20
-115.5571153139927
 30
0.0
 10
79.2048122631849
 20
-115.8532212709499
 30
0.0
 10
79.2048122631849
 20
-116.0394286819276
 30
0.0
 10
79.10972762779201
 20
-116.1219387187994
 30
0.0
 10
79.01016436826829
 20
-116.1832614184368
 30
0.0
 10
79.07148706790575
 20
-116.2108221823188
 30
0.0
 10
79.25338810952694
 20
-116.2912651618994
 30
0.0
 10
79.25338810952694
 20
-116.5684230936878
 30
0.0
 10
79.25338810952694
 20
-116.9069037251136
 30
0.0
 10
79.00603025368599
 20
-117.0739908561482
 30
0.0
 10
78.72904457667191
 20
-117.0739908561482
 30
0.0
  0
HATCH
  5
D2
330
CD
100
AcDbEntity
  8
_U+30EC_U+30A4_U+30E4_U+30FC 1
 62
   179
420
  2234388
100
AcDbHatch
 10
0.0
 20
0.0
 30
0.0
210
0.0
220
0.0
230
1.0
  2
SOLID
 70
     1
 71
     0
 91
        1
 92
        1
 93
        1
 72
     4
 94
        3
 73
     0
 74
     1
 95
       62
 96
       58
 40
0.0
 40
0.0
 40
0.0
 40
0.0
 40
1.0
 40
1.0
 40
1.0
 40
2.0
 40
2.0
 40
2.0
 40
3.0
 40
3.0
 40
3.0
 40
4.0
 40
4.0
 40
4.0
 40
5.0
 40
5.0
 40
5.0
 40
6.0
 40
6.0
 40
6.0
 40
7.0
 40
7.0
 40
7.0
 40
8.0
 40
8.0
 40
8.0
 40
9.0
 40
9.0
 40
9.0
 40
10.0
 40
10.0
 40
10.0
 40
11.0
 40
11.0
 40
11.0
 40
12.0
 40
12.0
 40
12.0
 40
13.0
 40
13.0
 40
13.0
 40
14.0
 40
14.0
 40
14.0
 40
15.0
 40
15.0
 40
15.0
 40
16.0
 40
16.0
 40
16.0
 40
17.0
 40
17.0
 40
17.0
 40
18.0
 40
18.0
 40
18.0
 40
19.0
 40
19.0
 40
19.0
 40
19.0
 10
78.72904457667191
 20
-117.0739908561482
 10
78.63361543173049
 20
-117.0739908561482
 10
78.4158853970627
 20
-117.0528035189139
 10
78.29082843094812
 20
-116.8665961079361
 10
78.21675887801526
 20
-116.7544582498913
 10
78.21262476343296
 20
-116.6550672451418
 10
78.20849064885066
 20
-116.5704901509789
 10
78.20849064885066
 20
-116.5704901509789
 10
78.42863225035812
 20
-116.5704901509789
 10
78.42863225035812
 20
-116.5704901509789
 10
78.43069930764928
 20
-116.6445597039118
 10
78.44103459410502
 20
-116.8793429612316
 10
78.72456595254108
 20
-116.8793429612316
 10
78.86202526240255
 20
-116.8793429612316
 10
79.01464299239912
 20
-116.8095797776552
 10
79.01464299239912
 20
-116.5809976922089
 10
79.01464299239912
 20
-116.4647257195817
 10
78.97640243251284
 20
-116.4159776184655
 10
78.94470755404855
 20
-116.3842827400012
 10
78.87063800111568
 20
-116.3102131870683
 10
78.75419377371423
 20
-116.2976385885471
 10
78.69941675549876
 20
-116.2976385885471
 10
78.68012422078137
 20
-116.2976385885471
 10
78.64429522773476
 20
-116.2997056458383
 10
78.61673446385277
 20
-116.3038397604206
 10
78.61673446385277
 20
-116.3038397604206
 10
78.61673446385277
 20
-116.1093641202782
 10
78.61673446385277
 20
-116.1093641202782
 10
78.65497502373904
 20
-116.1155652921517
 10
78.69700518865909
 20
-116.1178046042171
 10
78.70355087008106
 20
-116.1178046042171
 10
78.7690076843008
 20
-116.1178046042171
 10
78.96778969379972
 20
-116.0966172669828
 10
78.96778969379972
 20
-115.8595946975976
 10
78.96778969379972
 20
-115.682000025333
 10
78.83687606536023
 20
-115.626878497569
 10
78.72663300983224
 20
-115.626878497569
 10
78.46239418611357
 20
-115.626878497569
 10
78.45378144740044
 20
-115.8595946975976
 10
78.44964733281815
 20
-115.9315971932393
 10
78.44964733281815
 20
-115.9315971932393
 10
78.2463866991884
 20
-115.9315971932393
 10
78.2463866991884
 20
-115.9315971932393
 10
78.25499943790153
 20
-115.806712481899
 10
78.28256020178353
 20
-115.4301635453612
 10
78.73937986312765
 20
-115.4301635453612
 10
78.96365557921742
 20
-115.4301635453612
 10
79.2048122631849
 20
-115.5571153139927
 10
79.2048122631849
 20
-115.8532212709499
 10
79.2048122631849
 20
-116.0394286819276
 10
79.10972762779201
 20
-116.1219387187994
 10
79.01016436826829
 20
-116.1832614184368
 10
79.07148706790575
 20
-116.2108221823188
 10
79.25338810952694
 20
-116.2912651618994
 10
79.25338810952694
 20
-116.5684230936878
 10
79.25338810952694
 20
-116.9069037251136
 10
79.00603025368599
 20
-117.0739908561482
 10
78.72904457667191
 20
-117.0739908561482
 97
        0
 97
        0
 75
     2
 76
     1
 98
        0
  0
POLYLINE
  5
D3
330
CD
100
AcDbEntity
  8
_U+30EC_U+30A4_U+30E4_U+30FC 1
370
     0
100
AcDb2dPolyline
 66
     1
 10
0.0
 20
0.0
 30
0.0
  0
VERTEX
  5
D4
330
D3
100
AcDbEntity
  8
_U+30EC_U+30A4_U+30E4_U+30FC 1
370
     0
100
AcDbVertex
100
AcDb2dVertex
 10
79.47421873013145
 20
-117.0231756977407
 30
0.0
  0
VERTEX
  5
D5
330
D3
100
AcDbEntity
  8
_U+30EC_U+30A4_U+30E4_U+30FC 1
370
     0
100
AcDbVertex
100
AcDb2dVertex
 10
79.47421873013145
 20
-116.7715114725432
 30
0.0
  0
VERTEX
  5
D6
330
D3
100
AcDbEntity
  8
_U+30EC_U+30A4_U+30E4_U+30FC 1
370
     0
100
AcDbVertex
100
AcDb2dVertex
 10
79.72605521010321
 20
-116.7715114725432
 30
0.0
  0
VERTEX
  5
D7
330
D3
100
AcDbEntity
  8
_U+30EC_U+30A4_U+30E4_U+30FC 1
370
     0
100
AcDbVertex
100
AcDb2dVertex
 10
79.72605521010321
 20
-117.0231756977407
 30
0.0
  0
VERTEX
  5
D8
330
D3
100
AcDbEntity
  8
_U+30EC_U+30A4_U+30E4_U+30FC 1
370
     0
100
AcDbVertex
100
AcDb2dVertex
 10
79.47421873013145
 20
-117.0231756977407
 30
0.0
  0
SEQEND
  5
D9
330
D3
100
AcDbEntity
  8
_U+30EC_U+30A4_U+30E4_U+30FC 1
370
     0
  0
HATCH
  5
DA
330
CD
100
AcDbEntity
  8
_U+30EC_U+30A4_U+30E4_U+30FC 1
 62
   179
420
  2234388
100
AcDbHatch
 10
0.0
 20
0.0
 30
0.0
210
0.0
220
0.0
230
1.0
  2
SOLID
 70
     1
 71
     0
 91
        1
 92
        1
 93
        4
 72
     1
 10
79.47421873013145
 20
-117.0231756977407
 11
79.47421873013145
 21
-116.7715114725432
 72
     1
 10
79.47421873013145
 20
-116.7715114725432
 11
79.72605521010321
 21
-116.7715114725432
 72
     1
 10
79.72605521010321
 20
-116.7715114725432
 11
79.72605521010321
 21
-117.0231756977407
 72
     1
 10
79.72605521010321
 20
-117.0231756977407
 11
79.47421873013145
 21
-117.0231756977407
 97
        0
 75
     2
 76
     1
 98
        0
  0
SPLINE
  5
DB
330
CD
100
AcDbEntity
  8
_U+30EC_U+30A4_U+30E4_U+30FC 1
370
     0
100
AcDbSpline
210
0.0
220
0.0
230
1.0
 70
    11
 71
     3
 72
    44
 73
    40
 74
     0
 42
0.0000000001
 43
0.0000000001
 12
1.0
 22
0.0
 32
0.0
 13
1.0
 23
0.0
 33
0.0
 40
0.0
 40
0.0
 40
0.0
 40
0.0
 40
1.0
 40
1.0
 40
1.0
 40
2.0
 40
2.0
 40
2.0
 40
3.0
 40
3.0
 40
3.0
 40
4.0
 40
4.0
 40
4.0
 40
5.0
 40
5.0
 40
5.0
 40
6.0
 40
6.0
 40
6.0
 40
7.0
 40
7.0
 40
7.0
 40
8.0
 40
8.0
 40
8.0
 40
9.0
 40
9.0
 40
9.0
 40
10.0
 40
10.0
 40
10.0
 40
11.0
 40
11.0
 40
11.0
 40
12.0
 40
12.0
 40
12.0
 40
13.0
 40
13.0
 40
13.0
 40
13.0
 10
80.55528969340284
 20
-116.4414713250563
 30
0.0
 10
80.33755965873506
 20
-116.6001179721521
 30
0.0
 10
80.24454208063331
 20
-116.6741875250849
 30
0.0
 10
80.19562172474276
 20
-116.8180202615941
 30
0.0
 10
80.19562172474276
 20
-116.8180202615941
 30
0.0
 10
80.97421330440923
 20
-116.8180202615941
 30
0.0
 10
80.97421330440923
 20
-116.8180202615941
 30
0.0
 10
80.97421330440923
 20
-116.8180202615941
 30
0.0
 10
80.97421330440923
 20
-117.0231756977407
 30
0.0
 10
80.97421330440923
 20
-117.0231756977407
 30
0.0
 10
80.97421330440923
 20
-117.0231756977407
 30
0.0
 10
79.94619681161068
 20
-117.0231756977407
 30
0.0
 10
79.94619681161068
 20
-117.0231756977407
 30
0.0
 10
79.97789169007497
 20
-116.6655747863718
 30
0.0
 10
80.04334850429473
 20
-116.5873711188566
 30
0.0
 10
80.42851017954565
 20
-116.289025849834
 30
0.0
 10
80.68448077409971
 20
-116.0902438403351
 30
0.0
 10
80.74993758831947
 20
-116.0225477140499
 30
0.0
 10
80.74993758831947
 20
-115.8850884041885
 30
0.0
 10
80.74993758831947
 20
-115.7665771194959
 30
0.0
 10
80.67793509267774
 20
-115.6353189815078
 30
0.0
 10
80.48122014046997
 20
-115.6353189815078
 30
0.0
 10
80.22111543133362
 20
-115.6353189815078
 30
0.0
 10
80.21284720216902
 20
-115.8659681242453
 30
0.0
 10
80.20836857803819
 20
-115.9824123516468
 30
0.0
 10
80.20836857803819
 20
-115.9824123516468
 30
0.0
 10
79.98409286194843
 20
-115.9824123516468
 30
0.0
 10
79.98409286194843
 20
-115.9824123516468
 30
0.0
 10
79.99270560066155
 20
-115.8554605830153
 30
0.0
 10
80.00338539666582
 20
-115.7433227249704
 30
0.0
 10
80.08365612147215
 20
-115.6248114402778
 30
0.0
 10
80.19355466745162
 20
-115.4640977358909
 30
0.0
 10
80.37993433320364
 20
-115.4301635453612
 30
0.0
 10
80.49603405105655
 20
-115.4301635453612
 30
0.0
 10
80.77336423761916
 20
-115.4301635453612
 30
0.0
 10
80.9807589858312
 20
-115.6143038990478
 30
0.0
 10
80.9807589858312
 20
-115.8871554614796
 30
0.0
 10
80.9807589858312
 20
-116.1155652921517
 30
0.0
 10
80.86431475842976
 20
-116.2151285516754
 30
0.0
 10
80.55528969340284
 20
-116.4414713250563
 30
0.0
  0
HATCH
  5
DC
330
CD
100
AcDbEntity
  8
_U+30EC_U+30A4_U+30E4_U+30FC 1
 62
   179
420
  2234388
100
AcDbHatch
 10
0.0
 20
0.0
 30
0.0
210
0.0
220
0.0
230
1.0
  2
SOLID
 70
     1
 71
     0
 91
        1
 92
        1
 93
        1
 72
     4
 94
        3
 73
     0
 74
     1
 95
       44
 96
       40
 40
0.0
 40
0.0
 40
0.0
 40
0.0
 40
1.0
 40
1.0
 40
1.0
 40
2.0
 40
2.0
 40
2.0
 40
3.0
 40
3.0
 40
3.0
 40
4.0
 40
4.0
 40
4.0
 40
5.0
 40
5.0
 40
5.0
 40
6.0
 40
6.0
 40
6.0
 40
7.0
 40
7.0
 40
7.0
 40
8.0
 40
8.0
 40
8.0
 40
9.0
 40
9.0
 40
9.0
 40
10.0
 40
10.0
 40
10.0
 40
11.0
 40
11.0
 40
11.0
 40
12.0
 40
12.0
 40
12.0
 40
13.0
 40
13.0
 40
13.0
 40
13.0
 10
80.55528969340284
 20
-116.4414713250563
 10
80.33755965873506
 20
-116.6001179721521
 10
80.24454208063331
 20
-116.6741875250849
 10
80.19562172474276
 20
-116.8180202615941
 10
80.19562172474276
 20
-116.8180202615941
 10
80.97421330440923
 20
-116.8180202615941
 10
80.97421330440923
 20
-116.8180202615941
 10
80.97421330440923
 20
-116.8180202615941
 10
80.97421330440923
 20
-117.0231756977407
 10
80.97421330440923
 20
-117.0231756977407
 10
80.97421330440923
 20
-117.0231756977407
 10
79.94619681161068
 20
-117.0231756977407
 10
79.94619681161068
 20
-117.0231756977407
 10
79.97789169007497
 20
-116.6655747863718
 10
80.04334850429473
 20
-116.5873711188566
 10
80.42851017954565
 20
-116.289025849834
 10
80.68448077409971
 20
-116.0902438403351
 10
80.74993758831947
 20
-116.0225477140499
 10
80.74993758831947
 20
-115.8850884041885
 10
80.74993758831947
 20
-115.7665771194959
 10
80.67793509267774
 20
-115.6353189815078
 10
80.48122014046997
 20
-115.6353189815078
 10
80.22111543133362
 20
-115.6353189815078
 10
80.21284720216902
 20
-115.8659681242453
 10
80.20836857803819
 20
-115.9824123516468
 10
80.20836857803819
 20
-115.9824123516468
 10
79.98409286194843
 20
-115.9824123516468
 10
79.98409286194843
 20
-115.9824123516468
 10
79.99270560066155
 20
-115.8554605830153
 10
80.00338539666582
 20
-115.7433227249704
 10
80.08365612147215
 20
-115.6248114402778
 10
80.19355466745162
 20
-115.4640977358909
 10
80.37993433320364
 20
-115.4301635453612
 10
80.49603405105655
 20
-115.4301635453612
 10
80.77336423761916
 20
-115.4301635453612
 10
80.9807589858312
 20
-115.6143038990478
 10
80.9807589858312
 20
-115.8871554614796
 10
80.9807589858312
 20
-116.1155652921517
 10
80.86431475842976
 20
-116.2151285516754
 10
80.55528969340284
 20
-116.4414713250563
 97
        0
 97
        0
 75
     2
 76
     1
 98
        0
  0
ENDBLK
  5
D0
330
CD
100
AcDbEntity
  8
0
100
AcDbBlockEnd
  0
BLOCK
  5
DF
330
DD
100
AcDbEntity
  8
0
100
AcDbBlockBegin
  2
block 8
 70
     0
 10
0.0
 20
0.0
 30
0.0
  3
block 8
  1

  0
SPLINE
  5
E1
330
DD
100
AcDbEntity
  8
_U+30EC_U+30A4_U+30E4_U+30FC 1
370
     0
100
AcDbSpline
210
0.0
220
0.0
230
1.0
 70
    11
 71
     3
 72
    35
 73
    31
 74
     0
 42
0.0000000001
 43
0.0000000001
 12
1.0
 22
0.0
 32
0.0
 13
1.0
 23
0.0
 33
0.0
 40
0.0
 40
0.0
 40
0.0
 40
0.0
 40
1.0
 40
1.0
 40
1.0
 40
2.0
 40
2.0
 40
2.0
 40
3.0
 40
3.0
 40
3.0
 40
4.0
 40
4.0
 40
4.0
 40
5.0
 40
5.0
 40
5.0
 40
6.0
 40
6.0
 40
6.0
 40
7.0
 40
7.0
 40
7.0
 40
8.0
 40
8.0
 40
8.0
 40
9.0
 40
9.0
 40
9.0
 40
10.0
 40
10.0
 40
10.0
 40
10.0
 10
86.48223196622666
 20
-126.2705009992484
 30
0.0
 10
86.48223196622666
 20
-126.2705009992484
 30
0.0
 10
86.4315890625935
 20
-126.5349120777413
 30
0.0
 10
86.4315890625935
 20
-126.5349120777413
 30
0.0
 10
86.57111542974611
 20
-126.5476589310367
 30
0.0
 10
86.8990885199419
 20
-126.6386094518473
 30
0.0
 10
86.8990885199419
 20
-127.0299722989717
 30
0.0
 10
86.8990885199419
 20
-127.5079792975501
 30
0.0
 10
86.49291176223095
 20
-127.6328640088904
 30
0.0
 10
86.21764863295948
 20
-127.6328640088904
 30
0.0
 10
86.21764863295948
 20
-127.6328640088904
 30
0.0
 10
86.15012476144858
 20
-127.9861585509028
 30
0.0
 10
86.15012476144858
 20
-127.9861585509028
 30
0.0
 10
86.15012476144858
 20
-127.9861585509028
 30
0.0
 10
85.94273001323654
 20
-127.9861585509028
 30
0.0
 10
85.94273001323654
 20
-127.9861585509028
 30
0.0
 10
85.94273001323654
 20
-127.9861585509028
 30
0.0
 10
86.01473250887827
 20
-127.6180500983038
 30
0.0
 10
86.01473250887827
 20
-127.6180500983038
 30
0.0
 10
85.90690102018995
 20
-127.5989298183607
 30
0.0
 10
85.55550128069446
 20
-127.5376071187232
 30
0.0
 10
85.55550128069446
 20
-127.1209228197823
 30
0.0
 10
85.55550128069446
 20
-126.6723713876028
 30
0.0
 10
85.91103513477225
 20
-126.5221652244459
 30
0.0
 10
86.2262613716726
 20
-126.5221652244459
 30
0.0
 10
86.2262613716726
 20
-126.5221652244459
 30
0.0
 10
86.27483721801462
 20
-126.2705009992484
 30
0.0
 10
86.27483721801462
 20
-126.2705009992484
 30
0.0
 10
86.27483721801462
 20
-126.2705009992484
 30
0.0
 10
86.48223196622666
 20
-126.2705009992484
 30
0.0
 10
86.48223196622666
 20
-126.2705009992484
 30
0.0
  0
SPLINE
  5
E2
330
DD
100
AcDbEntity
  8
_U+30EC_U+30A4_U+30E4_U+30FC 1
370
     0
100
AcDbSpline
210
0.0
220
0.0
230
1.0
 70
    11
 71
     3
 72
    14
 73
    10
 74
     0
 42
0.0000000001
 43
0.0000000001
 12
1.0
 22
0.0
 32
0.0
 13
1.0
 23
0.0
 33
0.0
 40
0.0
 40
0.0
 40
0.0
 40
0.0
 40
1.0
 40
1.0
 40
1.0
 40
2.0
 40
2.0
 40
2.0
 40
3.0
 40
3.0
 40
3.0
 40
3.0
 10
86.19249943591716
 20
-126.6956257821282
 30
0.0
 10
86.07192109393341
 20
-126.704066266067
 30
0.0
 10
85.77770993949308
 20
-126.7274929153667
 30
0.0
 10
85.77770993949308
 20
-127.1250569343646
 30
0.0
 10
85.77770993949308
 20
-127.1886189460674
 30
0.0
 10
85.77770993949308
 20
-127.4022148661529
 30
0.0
 10
86.04642738734256
 20
-127.4466565979126
 30
0.0
 10
86.04642738734256
 20
-127.4466565979126
 30
0.0
 10
86.19249943591716
 20
-126.6956257821282
 30
0.0
 10
86.19249943591716
 20
-126.6956257821282
 30
0.0
  0
SPLINE
  5
E3
330
DD
100
AcDbEntity
  8
_U+30EC_U+30A4_U+30E4_U+30FC 1
370
     0
100
AcDbSpline
210
0.0
220
0.0
230
1.0
 70
    11
 71
     3
 72
    14
 73
    10
 74
     0
 42
0.0000000001
 43
0.0000000001
 12
1.0
 22
0.0
 32
0.0
 13
1.0
 23
0.0
 33
0.0
 40
0.0
 40
0.0
 40
0.0
 40
0.0
 40
1.0
 40
1.0
 40
1.0
 40
2.0
 40
2.0
 40
2.0
 40
3.0
 40
3.0
 40
3.0
 40
3.0
 10
86.2538221355546
 20
-127.4550970818515
 30
0.0
 10
86.4357231771758
 20
-127.4509629672692
 30
0.0
 10
86.67894691843443
 20
-127.3705199876886
 30
0.0
 10
86.67894691843443
 20
-127.0151583883851
 30
0.0
 10
86.67894691843443
 20
-126.9219685555091
 30
0.0
 10
86.66620006513901
 20
-126.7336940872402
 30
0.0
 10
86.39541555999837
 20
-126.7063055781325
 30
0.0
 10
86.39541555999837
 20
-126.7063055781325
 30
0.0
 10
86.2538221355546
 20
-127.4550970818515
 30
0.0
 10
86.2538221355546
 20
-127.4550970818515
 30
0.0
  0
HATCH
  5
E4
330
DD
100
AcDbEntity
  8
_U+30EC_U+30A4_U+30E4_U+30FC 1
 62
   179
420
  2234388
100
AcDbHatch
 10
0.0
 20
0.0
 30
0.0
210
0.0
220
0.0
230
1.0
  2
SOLID
 70
     1
 71
     0
 91
        3
 92
        1
 93
        1
 72
     4
 94
        3
 73
     0
 74
     1
 95
       35
 96
       31
 40
0.0
 40
0.0
 40
0.0
 40
0.0
 40
1.0
 40
1.0
 40
1.0
 40
2.0
 40
2.0
 40
2.0
 40
3.0
 40
3.0
 40
3.0
 40
4.0
 40
4.0
 40
4.0
 40
5.0
 40
5.0
 40
5.0
 40
6.0
 40
6.0
 40
6.0
 40
7.0
 40
7.0
 40
7.0
 40
8.0
 40
8.0
 40
8.0
 40
9.0
 40
9.0
 40
9.0
 40
10.0
 40
10.0
 40
10.0
 40
10.0
 10
86.48223196622666
 20
-126.2705009992484
 10
86.48223196622666
 20
-126.2705009992484
 10
86.4315890625935
 20
-126.5349120777413
 10
86.4315890625935
 20
-126.5349120777413
 10
86.57111542974611
 20
-126.5476589310367
 10
86.8990885199419
 20
-126.6386094518473
 10
86.8990885199419
 20
-127.0299722989717
 10
86.8990885199419
 20
-127.5079792975501
 10
86.49291176223095
 20
-127.6328640088904
 10
86.21764863295948
 20
-127.6328640088904
 10
86.21764863295948
 20
-127.6328640088904
 10
86.15012476144858
 20
-127.9861585509028
 10
86.15012476144858
 20
-127.9861585509028
 10
86.15012476144858
 20
-127.9861585509028
 10
85.94273001323654
 20
-127.9861585509028
 10
85.94273001323654
 20
-127.9861585509028
 10
85.94273001323654
 20
-127.9861585509028
 10
86.01473250887827
 20
-127.6180500983038
 10
86.01473250887827
 20
-127.6180500983038
 10
85.90690102018995
 20
-127.5989298183607
 10
85.55550128069446
 20
-127.5376071187232
 10
85.55550128069446
 20
-127.1209228197823
 10
85.55550128069446
 20
-126.6723713876028
 10
85.91103513477225
 20
-126.5221652244459
 10
86.2262613716726
 20
-126.5221652244459
 10
86.2262613716726
 20
-126.5221652244459
 10
86.27483721801462
 20
-126.2705009992484
 10
86.27483721801462
 20
-126.2705009992484
 10
86.27483721801462
 20
-126.2705009992484
 10
86.48223196622666
 20
-126.2705009992484
 10
86.48223196622666
 20
-126.2705009992484
 97
        0
 97
        0
 92
        1
 93
        1
 72
     4
 94
        3
 73
     0
 74
     1
 95
       14
 96
       10
 40
0.0
 40
0.0
 40
0.0
 40
0.0
 40
1.0
 40
1.0
 40
1.0
 40
2.0
 40
2.0
 40
2.0
 40
3.0
 40
3.0
 40
3.0
 40
3.0
 10
86.19249943591716
 20
-126.6956257821282
 10
86.07192109393341
 20
-126.704066266067
 10
85.77770993949308
 20
-126.7274929153667
 10
85.77770993949308
 20
-127.1250569343646
 10
85.77770993949308
 20
-127.1886189460674
 10
85.77770993949308
 20
-127.4022148661529
 10
86.04642738734256
 20
-127.4466565979126
 10
86.04642738734256
 20
-127.4466565979126
 10
86.19249943591716
 20
-126.6956257821282
 10
86.19249943591716
 20
-126.6956257821282
 97
        0
 97
        0
 92
        1
 93
        1
 72
     4
 94
        3
 73
     0
 74
     1
 95
       14
 96
       10
 40
0.0
 40
0.0
 40
0.0
 40
0.0
 40
1.0
 40
1.0
 40
1.0
 40
2.0
 40
2.0
 40
2.0
 40
3.0
 40
3.0
 40
3.0
 40
3.0
 10
86.2538221355546
 20
-127.4550970818515
 10
86.4357231771758
 20
-127.4509629672692
 10
86.67894691843443
 20
-127.3705199876886
 10
86.67894691843443
 20
-127.0151583883851
 10
86.67894691843443
 20
-126.9219685555091
 10
86.66620006513901
 20
-126.7336940872402
 10
86.39541555999837
 20
-126.7063055781325
 10
86.39541555999837
 20
-126.7063055781325
 10
86.2538221355546
 20
-127.4550970818515
 10
86.2538221355546
 20
-127.4550970818515
 97
        0
 97
        0
 75
     2
 76
     1
 98
        0
  0
SPLINE
  5
E5
330
DD
100
AcDbEntity
  8
_U+30EC_U+30A4_U+30E4_U+30FC 1
370
     0
100
AcDbSpline
210
0.0
220
0.0
230
1.0
 70
    11
 71
     3
 72
    53
 73
    49
 74
     0
 42
0.0000000001
 43
0.0000000001
 12
1.0
 22
0.0
 32
0.0
 13
1.0
 23
0.0
 33
0.0
 40
0.0
 40
0.0
 40
0.0
 40
0.0
 40
1.0
 40
1.0
 40
1.0
 40
2.0
 40
2.0
 40
2.0
 40
3.0
 40
3.0
 40
3.0
 40
4.0
 40
4.0
 40
4.0
 40
5.0
 40
5.0
 40
5.0
 40
6.0
 40
6.0
 40
6.0
 40
7.0
 40
7.0
 40
7.0
 40
8.0
 40
8.0
 40
8.0
 40
9.0
 40
9.0
 40
9.0
 40
10.0
 40
10.0
 40
10.0
 40
11.0
 40
11.0
 40
11.0
 40
12.0
 40
12.0
 40
12.0
 40
13.0
 40
13.0
 40
13.0
 40
14.0
 40
14.0
 40
14.0
 40
15.0
 40
15.0
 40
15.0
 40
16.0
 40
16.0
 40
16.0
 40
16.0
 10
87.59189722202564
 20
-127.6921196512367
 30
0.0
 10
87.51369355451047
 20
-127.6921196512367
 30
0.0
 10
87.4120632376956
 20
-127.675238683359
 30
0.0
 10
87.31043292088073
 20
-127.6116766716561
 30
0.0
 10
87.13714461797267
 20
-127.5016058709024
 30
0.0
 10
87.11578502596412
 20
-127.3705199876886
 30
0.0
 10
87.09683700079523
 20
-127.2626884990003
 30
0.0
 10
87.09683700079523
 20
-127.2626884990003
 30
0.0
 10
87.31904565959385
 20
-127.2626884990003
 30
0.0
 10
87.31904565959385
 20
-127.2626884990003
 30
0.0
 10
87.37382267780933
 20
-127.4614705084992
 30
0.0
 10
87.50094670121504
 20
-127.4910983296724
 30
0.0
 10
87.5939642793168
 20
-127.4910983296724
 30
0.0
 10
87.7334906464694
 20
-127.4910983296724
 30
0.0
 10
87.88576386691746
 20
-127.3917073249229
 30
0.0
 10
87.88576386691746
 20
-127.1589911248943
 30
0.0
 10
87.88576386691746
 20
-126.9030205303402
 30
0.0
 10
87.70592988258741
 20
-126.8332573467639
 30
0.0
 10
87.58535154060367
 20
-126.8332573467639
 30
0.0
 10
87.55365666213937
 20
-126.8332573467639
 30
0.0
 10
87.4120632376956
 20
-126.8332573467639
 30
0.0
 10
87.32317977417615
 20
-126.9622761726865
 30
0.0
 10
87.32317977417615
 20
-126.9622761726865
 30
0.0
 10
87.14747990442841
 20
-126.9431558927434
 30
0.0
 10
87.14747990442841
 20
-126.9431558927434
 30
0.0
 10
87.14747990442841
 20
-126.9431558927434
 30
0.0
 10
87.26805824641215
 20
-126.097040441566
 30
0.0
 10
87.26805824641215
 20
-126.097040441566
 30
0.0
 10
87.26805824641215
 20
-126.097040441566
 30
0.0
 10
88.04664982607862
 20
-126.097040441566
 30
0.0
 10
88.04664982607862
 20
-126.097040441566
 30
0.0
 10
88.04664982607862
 20
-126.097040441566
 30
0.0
 10
88.04664982607862
 20
-126.2916883364826
 30
0.0
 10
88.04664982607862
 20
-126.2916883364826
 30
0.0
 10
88.04664982607862
 20
-126.2916883364826
 30
0.0
 10
87.43101126286447
 20
-126.2916883364826
 30
0.0
 10
87.43101126286447
 20
-126.2916883364826
 30
0.0
 10
87.43101126286447
 20
-126.2916883364826
 30
0.0
 10
87.36555444864473
 20
-126.7147460620713
 30
0.0
 10
87.36555444864473
 20
-126.7147460620713
 30
0.0
 10
87.42687714828217
 20
-126.6808118715416
 30
0.0
 10
87.50921493037964
 20
-126.6406765091384
 30
0.0
 10
87.62772621507224
 20
-126.6406765091384
 30
0.0
 10
87.88162975233516
 20
-126.6406765091384
 30
0.0
 10
88.11865232172035
 20
-126.8268839201162
 30
0.0
 10
88.11865232172035
 20
-127.1398708449511
 30
0.0
 10
88.11865232172035
 20
-127.4573363939169
 30
0.0
 10
87.89437660563058
 20
-127.6921196512367
 30
0.0
 10
87.59189722202564
 20
-127.6921196512367
 30
0.0
  0
HATCH
  5
E6
330
DD
100
AcDbEntity
  8
_U+30EC_U+30A4_U+30E4_U+30FC 1
 62
   179
420
  2234388
100
AcDbHatch
 10
0.0
 20
0.0
 30
0.0
210
0.0
220
0.0
230
1.0
  2
SOLID
 70
     1
 71
     0
 91
        1
 92
        1
 93
        1
 72
     4
 94
        3
 73
     0
 74
     1
 95
       53
 96
       49
 40
0.0
 40
0.0
 40
0.0
 40
0.0
 40
1.0
 40
1.0
 40
1.0
 40
2.0
 40
2.0
 40
2.0
 40
3.0
 40
3.0
 40
3.0
 40
4.0
 40
4.0
 40
4.0
 40
5.0
 40
5.0
 40
5.0
 40
6.0
 40
6.0
 40
6.0
 40
7.0
 40
7.0
 40
7.0
 40
8.0
 40
8.0
 40
8.0
 40
9.0
 40
9.0
 40
9.0
 40
10.0
 40
10.0
 40
10.0
 40
11.0
 40
11.0
 40
11.0
 40
12.0
 40
12.0
 40
12.0
 40
13.0
 40
13.0
 40
13.0
 40
14.0
 40
14.0
 40
14.0
 40
15.0
 40
15.0
 40
15.0
 40
16.0
 40
16.0
 40
16.0
 40
16.0
 10
87.59189722202564
 20
-127.6921196512367
 10
87.51369355451047
 20
-127.6921196512367
 10
87.4120632376956
 20
-127.675238683359
 10
87.31043292088073
 20
-127.6116766716561
 10
87.13714461797267
 20
-127.5016058709024
 10
87.11578502596412
 20
-127.3705199876886
 10
87.09683700079523
 20
-127.2626884990003
 10
87.09683700079523
 20
-127.2626884990003
 10
87.31904565959385
 20
-127.2626884990003
 10
87.31904565959385
 20
-127.2626884990003
 10
87.37382267780933
 20
-127.4614705084992
 10
87.50094670121504
 20
-127.4910983296724
 10
87.5939642793168
 20
-127.4910983296724
 10
87.7334906464694
 20
-127.4910983296724
 10
87.88576386691746
 20
-127.3917073249229
 10
87.88576386691746
 20
-127.1589911248943
 10
87.88576386691746
 20
-126.9030205303402
 10
87.70592988258741
 20
-126.8332573467639
 10
87.58535154060367
 20
-126.8332573467639
 10
87.55365666213937
 20
-126.8332573467639
 10
87.4120632376956
 20
-126.8332573467639
 10
87.32317977417615
 20
-126.9622761726865
 10
87.32317977417615
 20
-126.9622761726865
 10
87.14747990442841
 20
-126.9431558927434
 10
87.14747990442841
 20
-126.9431558927434
 10
87.14747990442841
 20
-126.9431558927434
 10
87.26805824641215
 20
-126.097040441566
 10
87.26805824641215
 20
-126.097040441566
 10
87.26805824641215
 20
-126.097040441566
 10
88.04664982607862
 20
-126.097040441566
 10
88.04664982607862
 20
-126.097040441566
 10
88.04664982607862
 20
-126.097040441566
 10
88.04664982607862
 20
-126.2916883364826
 10
88.04664982607862
 20
-126.2916883364826
 10
88.04664982607862
 20
-126.2916883364826
 10
87.43101126286447
 20
-126.2916883364826
 10
87.43101126286447
 20
-126.2916883364826
 10
87.43101126286447
 20
-126.2916883364826
 10
87.36555444864473
 20
-126.7147460620713
 10
87.36555444864473
 20
-126.7147460620713
 10
87.42687714828217
 20
-126.6808118715416
 10
87.50921493037964
 20
-126.6406765091384
 10
87.62772621507224
 20
-126.6406765091384
 10
87.88162975233516
 20
-126.6406765091384
 10
88.11865232172035
 20
-126.8268839201162
 10
88.11865232172035
 20
-127.1398708449511
 10
88.11865232172035
 20
-127.4573363939169
 10
87.89437660563058
 20
-127.6921196512367
 10
87.59189722202564
 20
-127.6921196512367
 97
        0
 97
        0
 75
     2
 76
     1
 98
        0
  0
POLYLINE
  5
E7
330
DD
100
AcDbEntity
  8
_U+30EC_U+30A4_U+30E4_U+30FC 1
370
     0
100
AcDb2dPolyline
 66
     1
 10
0.0
 20
0.0
 30
0.0
  0
VERTEX
  5
E8
330
E7
100
AcDbEntity
  8
_U+30EC_U+30A4_U+30E4_U+30FC 1
370
     0
100
AcDbVertex
100
AcDb2dVertex
 10
88.34775117148945
 20
-127.6413044928293
 30
0.0
  0
VERTEX
  5
E9
330
E7
100
AcDbEntity
  8
_U+30EC_U+30A4_U+30E4_U+30FC 1
370
     0
100
AcDbVertex
100
AcDb2dVertex
 10
88.34775117148945
 20
-127.3896402676318
 30
0.0
  0
VERTEX
  5
EA
330
E7
100
AcDbEntity
  8
_U+30EC_U+30A4_U+30E4_U+30FC 1
370
     0
100
AcDbVertex
100
AcDb2dVertex
 10
88.59958765146122
 20
-127.3896402676318
 30
0.0
  0
VERTEX
  5
EB
330
E7
100
AcDbEntity
  8
_U+30EC_U+30A4_U+30E4_U+30FC 1
370
     0
100
AcDbVertex
100
AcDb2dVertex
 10
88.59958765146122
 20
-127.6413044928293
 30
0.0
  0
VERTEX
  5
EC
330
E7
100
AcDbEntity
  8
_U+30EC_U+30A4_U+30E4_U+30FC 1
370
     0
100
AcDbVertex
100
AcDb2dVertex
 10
88.34775117148945
 20
-127.6413044928293
 30
0.0
  0
SEQEND
  5
ED
330
E7
100
AcDbEntity
  8
_U+30EC_U+30A4_U+30E4_U+30FC 1
370
     0
  0
HATCH
  5
EE
330
DD
100
AcDbEntity
  8
_U+30EC_U+30A4_U+30E4_U+30FC 1
 62
   179
420
  2234388
100
AcDbHatch
 10
0.0
 20
0.0
 30
0.0
210
0.0
220
0.0
230
1.0
  2
SOLID
 70
     1
 71
     0
 91
        1
 92
        1
 93
        4
 72
     1
 10
88.34775117148945
 20
-127.6413044928293
 11
88.34775117148945
 21
-127.3896402676318
 72
     1
 10
88.34775117148945
 20
-127.3896402676318
 11
88.59958765146122
 21
-127.3896402676318
 72
     1
 10
88.59958765146122
 20
-127.3896402676318
 11
88.59958765146122
 21
-127.6413044928293
 72
     1
 10
88.59958765146122
 20
-127.6413044928293
 11
88.34775117148945
 21
-127.6413044928293
 97
        0
 75
     2
 76
     1
 98
        0
  0
SPLINE
  5
EF
330
DD
100
AcDbEntity
  8
_U+30EC_U+30A4_U+30E4_U+30FC 1
370
     0
100
AcDbSpline
210
0.0
220
0.0
230
1.0
 70
    11
 71
     3
 72
    53
 73
    49
 74
     0
 42
0.0000000001
 43
0.0000000001
 12
1.0
 22
0.0
 32
0.0
 13
1.0
 23
0.0
 33
0.0
 40
0.0
 40
0.0
 40
0.0
 40
0.0
 40
1.0
 40
1.0
 40
1.0
 40
2.0
 40
2.0
 40
2.0
 40
3.0
 40
3.0
 40
3.0
 40
4.0
 40
4.0
 40
4.0
 40
5.0
 40
5.0
 40
5.0
 40
6.0
 40
6.0
 40
6.0
 40
7.0
 40
7.0
 40
7.0
 40
8.0
 40
8.0
 40
8.0
 40
9.0
 40
9.0
 40
9.0
 40
10.0
 40
10.0
 40
10.0
 40
11.0
 40
11.0
 40
11.0
 40
12.0
 40
12.0
 40
12.0
 40
13.0
 40
13.0
 40
13.0
 40
14.0
 40
14.0
 40
14.0
 40
15.0
 40
15.0
 40
15.0
 40
16.0
 40
16.0
 40
16.0
 40
16.0
 10
89.31685653149023
 20
-127.6921196512367
 30
0.0
 10
89.23865286397506
 20
-127.6921196512367
 30
0.0
 10
89.1370225471602
 20
-127.675238683359
 30
0.0
 10
89.03539223034532
 20
-127.6116766716561
 30
0.0
 10
88.86210392743726
 20
-127.5016058709024
 30
0.0
 10
88.84074433542871
 20
-127.3705199876886
 30
0.0
 10
88.82179631025983
 20
-127.2626884990003
 30
0.0
 10
88.82179631025983
 20
-127.2626884990003
 30
0.0
 10
89.04400496905845
 20
-127.2626884990003
 30
0.0
 10
89.04400496905845
 20
-127.2626884990003
 30
0.0
 10
89.09878198727392
 20
-127.4614705084992
 30
0.0
 10
89.22590601067964
 20
-127.4910983296724
 30
0.0
 10
89.31892358878139
 20
-127.4910983296724
 30
0.0
 10
89.458449955934
 20
-127.4910983296724
 30
0.0
 10
89.61072317638205
 20
-127.3917073249229
 30
0.0
 10
89.61072317638205
 20
-127.1589911248943
 30
0.0
 10
89.61072317638205
 20
-126.9030205303402
 30
0.0
 10
89.430889192052
 20
-126.8332573467639
 30
0.0
 10
89.31031085006826
 20
-126.8332573467639
 30
0.0
 10
89.27861597160395
 20
-126.8332573467639
 30
0.0
 10
89.1370225471602
 20
-126.8332573467639
 30
0.0
 10
89.04813908364075
 20
-126.9622761726865
 30
0.0
 10
89.04813908364075
 20
-126.9622761726865
 30
0.0
 10
88.872439213893
 20
-126.9431558927434
 30
0.0
 10
88.872439213893
 20
-126.9431558927434
 30
0.0
 10
88.872439213893
 20
-126.9431558927434
 30
0.0
 10
88.99301755587675
 20
-126.097040441566
 30
0.0
 10
88.99301755587675
 20
-126.097040441566
 30
0.0
 10
88.99301755587675
 20
-126.097040441566
 30
0.0
 10
89.77160913554322
 20
-126.097040441566
 30
0.0
 10
89.77160913554322
 20
-126.097040441566
 30
0.0
 10
89.77160913554322
 20
-126.097040441566
 30
0.0
 10
89.77160913554322
 20
-126.2916883364826
 30
0.0
 10
89.77160913554322
 20
-126.2916883364826
 30
0.0
 10
89.77160913554322
 20
-126.2916883364826
 30
0.0
 10
89.15597057232907
 20
-126.2916883364826
 30
0.0
 10
89.15597057232907
 20
-126.2916883364826
 30
0.0
 10
89.15597057232907
 20
-126.2916883364826
 30
0.0
 10
89.09051375810932
 20
-126.7147460620713
 30
0.0
 10
89.09051375810932
 20
-126.7147460620713
 30
0.0
 10
89.15183645774677
 20
-126.6808118715416
 30
0.0
 10
89.23417423984424
 20
-126.6406765091384
 30
0.0
 10
89.35268552453684
 20
-126.6406765091384
 30
0.0
 10
89.60658906179975
 20
-126.6406765091384
 30
0.0
 10
89.84361163118493
 20
-126.8268839201162
 30
0.0
 10
89.84361163118493
 20
-127.1398708449511
 30
0.0
 10
89.84361163118493
 20
-127.4573363939169
 30
0.0
 10
89.61933591509516
 20
-127.6921196512367
 30
0.0
 10
89.31685653149023
 20
-127.6921196512367
 30
0.0
  0
HATCH
  5
F0
330
DD
100
AcDbEntity
  8
_U+30EC_U+30A4_U+30E4_U+30FC 1
 62
   179
420
  2234388
100
AcDbHatch
 10
0.0
 20
0.0
 30
0.0
210
0.0
220
0.0
230
1.0
  2
SOLID
 70
     1
 71
     0
 91
        1
 92
        1
 93
        1
 72
     4
 94
        3
 73
     0
 74
     1
 95
       53
 96
       49
 40
0.0
 40
0.0
 40
0.0
 40
0.0
 40
1.0
 40
1.0
 40
1.0
 40
2.0
 40
2.0
 40
2.0
 40
3.0
 40
3.0
 40
3.0
 40
4.0
 40
4.0
 40
4.0
 40
5.0
 40
5.0
 40
5.0
 40
6.0
 40
6.0
 40
6.0
 40
7.0
 40
7.0
 40
7.0
 40
8.0
 40
8.0
 40
8.0
 40
9.0
 40
9.0
 40
9.0
 40
10.0
 40
10.0
 40
10.0
 40
11.0
 40
11.0
 40
11.0
 40
12.0
 40
12.0
 40
12.0
 40
13.0
 40
13.0
 40
13.0
 40
14.0
 40
14.0
 40
14.0
 40
15.0
 40
15.0
 40
15.0
 40
16.0
 40
16.0
 40
16.0
 40
16.0
 10
89.31685653149023
 20
-127.6921196512367
 10
89.23865286397506
 20
-127.6921196512367
 10
89.1370225471602
 20
-127.675238683359
 10
89.03539223034532
 20
-127.6116766716561
 10
88.86210392743726
 20
-127.5016058709024
 10
88.84074433542871
 20
-127.3705199876886
 10
88.82179631025983
 20
-127.2626884990003
 10
88.82179631025983
 20
-127.2626884990003
 10
89.04400496905845
 20
-127.2626884990003
 10
89.04400496905845
 20
-127.2626884990003
 10
89.09878198727392
 20
-127.4614705084992
 10
89.22590601067964
 20
-127.4910983296724
 10
89.31892358878139
 20
-127.4910983296724
 10
89.458449955934
 20
-127.4910983296724
 10
89.61072317638205
 20
-127.3917073249229
 10
89.61072317638205
 20
-127.1589911248943
 10
89.61072317638205
 20
-126.9030205303402
 10
89.430889192052
 20
-126.8332573467639
 10
89.31031085006826
 20
-126.8332573467639
 10
89.27861597160395
 20
-126.8332573467639
 10
89.1370225471602
 20
-126.8332573467639
 10
89.04813908364075
 20
-126.9622761726865
 10
89.04813908364075
 20
-126.9622761726865
 10
88.872439213893
 20
-126.9431558927434
 10
88.872439213893
 20
-126.9431558927434
 10
88.872439213893
 20
-126.9431558927434
 10
88.99301755587675
 20
-126.097040441566
 10
88.99301755587675
 20
-126.097040441566
 10
88.99301755587675
 20
-126.097040441566
 10
89.77160913554322
 20
-126.097040441566
 10
89.77160913554322
 20
-126.097040441566
 10
89.77160913554322
 20
-126.097040441566
 10
89.77160913554322
 20
-126.2916883364826
 10
89.77160913554322
 20
-126.2916883364826
 10
89.77160913554322
 20
-126.2916883364826
 10
89.15597057232907
 20
-126.2916883364826
 10
89.15597057232907
 20
-126.2916883364826
 10
89.15597057232907
 20
-126.2916883364826
 10
89.09051375810932
 20
-126.7147460620713
 10
89.09051375810932
 20
-126.7147460620713
 10
89.15183645774677
 20
-126.6808118715416
 10
89.23417423984424
 20
-126.6406765091384
 10
89.35268552453684
 20
-126.6406765091384
 10
89.60658906179975
 20
-126.6406765091384
 10
89.84361163118493
 20
-126.8268839201162
 10
89.84361163118493
 20
-127.1398708449511
 10
89.84361163118493
 20
-127.4573363939169
 10
89.61933591509516
 20
-127.6921196512367
 10
89.31685653149023
 20
-127.6921196512367
 97
        0
 97
        0
 75
     2
 76
     1
 98
        0
  0
ENDBLK
  5
E0
330
DD
100
AcDbEntity
  8
0
100
AcDbBlockEnd
  0
BLOCK
  5
108
330
106
100
AcDbEntity
  8
0
100
AcDbBlockBegin
  2
block 9
 70
     0
 10
0.0
 20
0.0
 30
0.0
  3
block 9
  1

  0
SPLINE
  5
10A
330
106
100
AcDbEntity
  8
_U+30EC_U+30A4_U+30E4_U+30FC 1
370
     0
100
AcDbSpline
210
0.0
220
0.0
230
1.0
 70
    11
 71
     3
 72
    26
 73
    22
 74
     0
 42
0.0000000001
 43
0.0000000001
 12
1.0
 22
0.0
 32
0.0
 13
1.0
 23
0.0
 33
0.0
 40
0.0
 40
0.0
 40
0.0
 40
0.0
 40
1.0
 40
1.0
 40
1.0
 40
2.0
 40
2.0
 40
2.0
 40
3.0
 40
3.0
 40
3.0
 40
4.0
 40
4.0
 40
4.0
 40
5.0
 40
5.0
 40
5.0
 40
6.0
 40
6.0
 40
6.0
 40
7.0
 40
7.0
 40
7.0
 40
7.0
 10
72.4327880678293
 20
-126.4232909840192
 30
0.0
 10
72.4327880678293
 20
-126.4232909840192
 30
0.0
 10
71.32846271003247
 20
-126.4232909840192
 30
0.0
 10
71.32846271003247
 20
-126.4232909840192
 30
0.0
 10
71.32846271003247
 20
-126.4232909840192
 30
0.0
 10
71.32846271003247
 20
-126.7533311315061
 30
0.0
 10
71.32846271003247
 20
-126.7533311315061
 30
0.0
 10
71.32846271003247
 20
-126.7533311315061
 30
0.0
 10
71.18049585894099
 20
-126.7533311315061
 30
0.0
 10
71.18049585894099
 20
-126.7533311315061
 30
0.0
 10
71.16568194835442
 20
-126.421223926728
 30
0.0
 10
71.0027289319021
 20
-126.3747151376772
 30
0.0
 10
70.88852401656607
 20
-126.345087316504
 30
0.0
 10
70.88852401656607
 20
-126.345087316504
 30
0.0
 10
70.88852401656607
 20
-126.1990152679294
 30
0.0
 10
70.88852401656607
 20
-126.1990152679294
 30
0.0
 10
70.88852401656607
 20
-126.1990152679294
 30
0.0
 10
72.4327880678293
 20
-126.1990152679294
 30
0.0
 10
72.4327880678293
 20
-126.1990152679294
 30
0.0
 10
72.4327880678293
 20
-126.1990152679294
 30
0.0
 10
72.4327880678293
 20
-126.4232909840192
 30
0.0
 10
72.4327880678293
 20
-126.4232909840192
 30
0.0
  0
HATCH
  5
10B
330
106
100
AcDbEntity
  8
_U+30EC_U+30A4_U+30E4_U+30FC 1
 62
   179
420
  2234388
100
AcDbHatch
 10
0.0
 20
0.0
 30
0.0
210
0.0
220
0.0
230
1.0
  2
SOLID
 70
     1
 71
     0
 91
        1
 92
        1
 93
        1
 72
     4
 94
        3
 73
     0
 74
     1
 95
       26
 96
       22
 40
0.0
 40
0.0
 40
0.0
 40
0.0
 40
1.0
 40
1.0
 40
1.0
 40
2.0
 40
2.0
 40
2.0
 40
3.0
 40
3.0
 40
3.0
 40
4.0
 40
4.0
 40
4.0
 40
5.0
 40
5.0
 40
5.0
 40
6.0
 40
6.0
 40
6.0
 40
7.0
 40
7.0
 40
7.0
 40
7.0
 10
72.4327880678293
 20
-126.4232909840192
 10
72.4327880678293
 20
-126.4232909840192
 10
71.32846271003247
 20
-126.4232909840192
 10
71.32846271003247
 20
-126.4232909840192
 10
71.32846271003247
 20
-126.4232909840192
 10
71.32846271003247
 20
-126.7533311315061
 10
71.32846271003247
 20
-126.7533311315061
 10
71.32846271003247
 20
-126.7533311315061
 10
71.18049585894099
 20
-126.7533311315061
 10
71.18049585894099
 20
-126.7533311315061
 10
71.16568194835442
 20
-126.421223926728
 10
71.0027289319021
 20
-126.3747151376772
 10
70.88852401656607
 20
-126.345087316504
 10
70.88852401656607
 20
-126.345087316504
 10
70.88852401656607
 20
-126.1990152679294
 10
70.88852401656607
 20
-126.1990152679294
 10
70.88852401656607
 20
-126.1990152679294
 10
72.4327880678293
 20
-126.1990152679294
 10
72.4327880678293
 20
-126.1990152679294
 10
72.4327880678293
 20
-126.1990152679294
 10
72.4327880678293
 20
-126.4232909840192
 10
72.4327880678293
 20
-126.4232909840192
 97
        0
 97
        0
 75
     2
 76
     1
 98
        0
  0
SPLINE
  5
10C
330
106
100
AcDbEntity
  8
_U+30EC_U+30A4_U+30E4_U+30FC 1
370
     0
100
AcDbSpline
210
0.0
220
0.0
230
1.0
 70
    11
 71
     3
 72
    26
 73
    22
 74
     0
 42
0.0000000001
 43
0.0000000001
 12
1.0
 22
0.0
 32
0.0
 13
1.0
 23
0.0
 33
0.0
 40
0.0
 40
0.0
 40
0.0
 40
0.0
 40
1.0
 40
1.0
 40
1.0
 40
2.0
 40
2.0
 40
2.0
 40
3.0
 40
3.0
 40
3.0
 40
4.0
 40
4.0
 40
4.0
 40
5.0
 40
5.0
 40
5.0
 40
6.0
 40
6.0
 40
6.0
 40
7.0
 40
7.0
 40
7.0
 40
7.0
 10
72.4327880678293
 20
-125.2464463662578
 30
0.0
 10
72.4327880678293
 20
-125.2464463662578
 30
0.0
 10
71.32846271003247
 20
-125.2464463662578
 30
0.0
 10
71.32846271003247
 20
-125.2464463662578
 30
0.0
 10
71.32846271003247
 20
-125.2464463662578
 30
0.0
 10
71.32846271003247
 20
-125.5764865137448
 30
0.0
 10
71.32846271003247
 20
-125.5764865137448
 30
0.0
 10
71.32846271003247
 20
-125.5764865137448
 30
0.0
 10
71.18049585894099
 20
-125.5764865137448
 30
0.0
 10
71.18049585894099
 20
-125.5764865137448
 30
0.0
 10
71.16568194835442
 20
-125.2443793089667
 30
0.0
 10
71.0027289319021
 20
-125.1978705199158
 30
0.0
 10
70.88852401656607
 20
-125.1682426987427
 30
0.0
 10
70.88852401656607
 20
-125.1682426987427
 30
0.0
 10
70.88852401656607
 20
-125.0221706501681
 30
0.0
 10
70.88852401656607
 20
-125.0221706501681
 30
0.0
 10
70.88852401656607
 20
-125.0221706501681
 30
0.0
 10
72.4327880678293
 20
-125.0221706501681
 30
0.0
 10
72.4327880678293
 20
-125.0221706501681
 30
0.0
 10
72.4327880678293
 20
-125.0221706501681
 30
0.0
 10
72.4327880678293
 20
-125.2464463662578
 30
0.0
 10
72.4327880678293
 20
-125.2464463662578
 30
0.0
  0
HATCH
  5
10D
330
106
100
AcDbEntity
  8
_U+30EC_U+30A4_U+30E4_U+30FC 1
 62
   179
420
  2234388
100
AcDbHatch
 10
0.0
 20
0.0
 30
0.0
210
0.0
220
0.0
230
1.0
  2
SOLID
 70
     1
 71
     0
 91
        1
 92
        1
 93
        1
 72
     4
 94
        3
 73
     0
 74
     1
 95
       26
 96
       22
 40
0.0
 40
0.0
 40
0.0
 40
0.0
 40
1.0
 40
1.0
 40
1.0
 40
2.0
 40
2.0
 40
2.0
 40
3.0
 40
3.0
 40
3.0
 40
4.0
 40
4.0
 40
4.0
 40
5.0
 40
5.0
 40
5.0
 40
6.0
 40
6.0
 40
6.0
 40
7.0
 40
7.0
 40
7.0
 40
7.0
 10
72.4327880678293
 20
-125.2464463662578
 10
72.4327880678293
 20
-125.2464463662578
 10
71.32846271003247
 20
-125.2464463662578
 10
71.32846271003247
 20
-125.2464463662578
 10
71.32846271003247
 20
-125.2464463662578
 10
71.32846271003247
 20
-125.5764865137448
 10
71.32846271003247
 20
-125.5764865137448
 10
71.32846271003247
 20
-125.5764865137448
 10
71.18049585894099
 20
-125.5764865137448
 10
71.18049585894099
 20
-125.5764865137448
 10
71.16568194835442
 20
-125.2443793089667
 10
71.0027289319021
 20
-125.1978705199158
 10
70.88852401656607
 20
-125.1682426987427
 10
70.88852401656607
 20
-125.1682426987427
 10
70.88852401656607
 20
-125.0221706501681
 10
70.88852401656607
 20
-125.0221706501681
 10
70.88852401656607
 20
-125.0221706501681
 10
72.4327880678293
 20
-125.0221706501681
 10
72.4327880678293
 20
-125.0221706501681
 10
72.4327880678293
 20
-125.0221706501681
 10
72.4327880678293
 20
-125.2464463662578
 10
72.4327880678293
 20
-125.2464463662578
 97
        0
 97
        0
 75
     2
 76
     1
 98
        0
  0
POLYLINE
  5
10E
330
106
100
AcDbEntity
  8
_U+30EC_U+30A4_U+30E4_U+30FC 1
370
     0
100
AcDb2dPolyline
 66
     1
 10
0.0
 20
0.0
 30
0.0
  0
VERTEX
  5
10F
330
10E
100
AcDbEntity
  8
_U+30EC_U+30A4_U+30E4_U+30FC 1
370
     0
100
AcDbVertex
100
AcDb2dVertex
 10
72.4327880678293
 20
-124.4609645956209
 30
0.0
  0
VERTEX
  5
110
330
10E
100
AcDbEntity
  8
_U+30EC_U+30A4_U+30E4_U+30FC 1
370
     0
100
AcDbVertex
100
AcDb2dVertex
 10
72.1811238426318
 20
-124.4609645956209
 30
0.0
  0
VERTEX
  5
111
330
10E
100
AcDbEntity
  8
_U+30EC_U+30A4_U+30E4_U+30FC 1
370
     0
100
AcDbVertex
100
AcDb2dVertex
 10
72.1811238426318
 20
-124.2091281156491
 30
0.0
  0
VERTEX
  5
112
330
10E
100
AcDbEntity
  8
_U+30EC_U+30A4_U+30E4_U+30FC 1
370
     0
100
AcDbVertex
100
AcDb2dVertex
 10
72.4327880678293
 20
-124.2091281156491
 30
0.0
  0
VERTEX
  5
113
330
10E
100
AcDbEntity
  8
_U+30EC_U+30A4_U+30E4_U+30FC 1
370
     0
100
AcDbVertex
100
AcDb2dVertex
 10
72.4327880678293
 20
-124.4609645956209
 30
0.0
  0
SEQEND
  5
114
330
10E
100
AcDbEntity
  8
_U+30EC_U+30A4_U+30E4_U+30FC 1
370
     0
  0
HATCH
  5
115
330
106
100
AcDbEntity
  8
_U+30EC_U+30A4_U+30E4_U+30FC 1
 62
   179
420
  2234388
100
AcDbHatch
 10
0.0
 20
0.0
 30
0.0
210
0.0
220
0.0
230
1.0
  2
SOLID
 70
     1
 71
     0
 91
        1
 92
        1
 93
        4
 72
     1
 10
72.4327880678293
 20
-124.4609645956209
 11
72.1811238426318
 21
-124.4609645956209
 72
     1
 10
72.1811238426318
 20
-124.4609645956209
 11
72.1811238426318
 21
-124.2091281156491
 72
     1
 10
72.1811238426318
 20
-124.2091281156491
 11
72.4327880678293
 21
-124.2091281156491
 72
     1
 10
72.4327880678293
 20
-124.2091281156491
 11
72.4327880678293
 21
-124.4609645956209
 97
        0
 75
     2
 76
     1
 98
        0
  0
SPLINE
  5
116
330
106
100
AcDbEntity
  8
_U+30EC_U+30A4_U+30E4_U+30FC 1
370
     0
100
AcDbSpline
210
0.0
220
0.0
230
1.0
 70
    11
 71
     3
 72
    53
 73
    49
 74
     0
 42
0.0000000001
 43
0.0000000001
 12
1.0
 22
0.0
 32
0.0
 13
1.0
 23
0.0
 33
0.0
 40
0.0
 40
0.0
 40
0.0
 40
0.0
 40
1.0
 40
1.0
 40
1.0
 40
2.0
 40
2.0
 40
2.0
 40
3.0
 40
3.0
 40
3.0
 40
4.0
 40
4.0
 40
4.0
 40
5.0
 40
5.0
 40
5.0
 40
6.0
 40
6.0
 40
6.0
 40
7.0
 40
7.0
 40
7.0
 40
8.0
 40
8.0
 40
8.0
 40
9.0
 40
9.0
 40
9.0
 40
10.0
 40
10.0
 40
10.0
 40
11.0
 40
11.0
 40
11.0
 40
12.0
 40
12.0
 40
12.0
 40
13.0
 40
13.0
 40
13.0
 40
14.0
 40
14.0
 40
14.0
 40
15.0
 40
15.0
 40
15.0
 40
16.0
 40
16.0
 40
16.0
 40
16.0
 10
72.48360322623674
 20
-123.4918592356201
 30
0.0
 10
72.48360322623674
 20
-123.5700629031353
 30
0.0
 10
72.46655000358476
 20
-123.6716932199501
 30
0.0
 10
72.40316024665616
 20
-123.773323536765
 30
0.0
 10
72.29308944590242
 20
-123.9466118396731
 30
0.0
 10
72.16200356268867
 20
-123.9679714316816
 30
0.0
 10
72.05417207400035
 20
-123.9869194568505
 30
0.0
 10
72.05417207400035
 20
-123.9869194568505
 30
0.0
 10
72.05417207400035
 20
-123.7647107980519
 30
0.0
 10
72.05417207400035
 20
-123.7647107980519
 30
0.0
 10
72.25295408349926
 20
-123.7099337798364
 30
0.0
 10
72.28258190467241
 20
-123.5828097564307
 30
0.0
 10
72.28258190467241
 20
-123.4897921783289
 30
0.0
 10
72.28258190467241
 20
-123.3502658111763
 30
0.0
 10
72.18319089992296
 20
-123.1979925907283
 30
0.0
 10
71.95047469989433
 20
-123.1979925907283
 30
0.0
 10
71.69450410534027
 20
-123.1979925907283
 30
0.0
 10
71.62474092176396
 20
-123.3778265750583
 30
0.0
 10
71.62474092176396
 20
-123.4984049170421
 30
0.0
 10
71.62474092176396
 20
-123.5300997955064
 30
0.0
 10
71.62474092176396
 20
-123.6716932199501
 30
0.0
 10
71.75375974768656
 20
-123.7605766834696
 30
0.0
 10
71.75375974768656
 20
-123.7605766834696
 30
0.0
 10
71.73463946774342
 20
-123.9362765532173
 30
0.0
 10
71.73463946774342
 20
-123.9362765532173
 30
0.0
 10
71.73463946774342
 20
-123.9362765532173
 30
0.0
 10
70.88852401656607
 20
-123.8156982112336
 30
0.0
 10
70.88852401656607
 20
-123.8156982112336
 30
0.0
 10
70.88852401656607
 20
-123.8156982112336
 30
0.0
 10
70.88852401656607
 20
-123.0371066315671
 30
0.0
 10
70.88852401656607
 20
-123.0371066315671
 30
0.0
 10
70.88852401656607
 20
-123.0371066315671
 30
0.0
 10
71.08317191148268
 20
-123.0371066315671
 30
0.0
 10
71.08317191148268
 20
-123.0371066315671
 30
0.0
 10
71.08317191148268
 20
-123.0371066315671
 30
0.0
 10
71.08317191148268
 20
-123.6527451947813
 30
0.0
 10
71.08317191148268
 20
-123.6527451947813
 30
0.0
 10
71.08317191148268
 20
-123.6527451947813
 30
0.0
 10
71.50622963707136
 20
-123.718202009001
 30
0.0
 10
71.50622963707136
 20
-123.718202009001
 30
0.0
 10
71.47229544654165
 20
-123.6568793093636
 30
0.0
 10
71.43216008413849
 20
-123.5745415272661
 30
0.0
 10
71.43216008413849
 20
-123.4560302425735
 30
0.0
 10
71.43216008413849
 20
-123.2021267053106
 30
0.0
 10
71.61836749511625
 20
-122.9651041359254
 30
0.0
 10
71.93135441995119
 20
-122.9651041359254
 30
0.0
 10
72.24881996891696
 20
-122.9651041359254
 30
0.0
 10
72.48360322623674
 20
-123.1893798520152
 30
0.0
 10
72.48360322623674
 20
-123.4918592356201
 30
0.0
  0
HATCH
  5
117
330
106
100
AcDbEntity
  8
_U+30EC_U+30A4_U+30E4_U+30FC 1
 62
   179
420
  2234388
100
AcDbHatch
 10
0.0
 20
0.0
 30
0.0
210
0.0
220
0.0
230
1.0
  2
SOLID
 70
     1
 71
     0
 91
        1
 92
        1
 93
        1
 72
     4
 94
        3
 73
     0
 74
     1
 95
       53
 96
       49
 40
0.0
 40
0.0
 40
0.0
 40
0.0
 40
1.0
 40
1.0
 40
1.0
 40
2.0
 40
2.0
 40
2.0
 40
3.0
 40
3.0
 40
3.0
 40
4.0
 40
4.0
 40
4.0
 40
5.0
 40
5.0
 40
5.0
 40
6.0
 40
6.0
 40
6.0
 40
7.0
 40
7.0
 40
7.0
 40
8.0
 40
8.0
 40
8.0
 40
9.0
 40
9.0
 40
9.0
 40
10.0
 40
10.0
 40
10.0
 40
11.0
 40
11.0
 40
11.0
 40
12.0
 40
12.0
 40
12.0
 40
13.0
 40
13.0
 40
13.0
 40
14.0
 40
14.0
 40
14.0
 40
15.0
 40
15.0
 40
15.0
 40
16.0
 40
16.0
 40
16.0
 40
16.0
 10
72.48360322623674
 20
-123.4918592356201
 10
72.48360322623674
 20
-123.5700629031353
 10
72.46655000358476
 20
-123.6716932199501
 10
72.40316024665616
 20
-123.773323536765
 10
72.29308944590242
 20
-123.9466118396731
 10
72.16200356268867
 20
-123.9679714316816
 10
72.05417207400035
 20
-123.9869194568505
 10
72.05417207400035
 20
-123.9869194568505
 10
72.05417207400035
 20
-123.7647107980519
 10
72.05417207400035
 20
-123.7647107980519
 10
72.25295408349926
 20
-123.7099337798364
 10
72.28258190467241
 20
-123.5828097564307
 10
72.28258190467241
 20
-123.4897921783289
 10
72.28258190467241
 20
-123.3502658111763
 10
72.18319089992296
 20
-123.1979925907283
 10
71.95047469989433
 20
-123.1979925907283
 10
71.69450410534027
 20
-123.1979925907283
 10
71.62474092176396
 20
-123.3778265750583
 10
71.62474092176396
 20
-123.4984049170421
 10
71.62474092176396
 20
-123.5300997955064
 10
71.62474092176396
 20
-123.6716932199501
 10
71.75375974768656
 20
-123.7605766834696
 10
71.75375974768656
 20
-123.7605766834696
 10
71.73463946774342
 20
-123.9362765532173
 10
71.73463946774342
 20
-123.9362765532173
 10
71.73463946774342
 20
-123.9362765532173
 10
70.88852401656607
 20
-123.8156982112336
 10
70.88852401656607
 20
-123.8156982112336
 10
70.88852401656607
 20
-123.8156982112336
 10
70.88852401656607
 20
-123.0371066315671
 10
70.88852401656607
 20
-123.0371066315671
 10
70.88852401656607
 20
-123.0371066315671
 10
71.08317191148268
 20
-123.0371066315671
 10
71.08317191148268
 20
-123.0371066315671
 10
71.08317191148268
 20
-123.0371066315671
 10
71.08317191148268
 20
-123.6527451947813
 10
71.08317191148268
 20
-123.6527451947813
 10
71.08317191148268
 20
-123.6527451947813
 10
71.50622963707136
 20
-123.718202009001
 10
71.50622963707136
 20
-123.718202009001
 10
71.47229544654165
 20
-123.6568793093636
 10
71.43216008413849
 20
-123.5745415272661
 10
71.43216008413849
 20
-123.4560302425735
 10
71.43216008413849
 20
-123.2021267053106
 10
71.61836749511625
 20
-122.9651041359254
 10
71.93135441995119
 20
-122.9651041359254
 10
72.24881996891696
 20
-122.9651041359254
 10
72.48360322623674
 20
-123.1893798520152
 10
72.48360322623674
 20
-123.4918592356201
 97
        0
 97
        0
 75
     2
 76
     1
 98
        0
  0
ENDBLK
  5
109
330
106
100
AcDbEntity
  8
0
100
AcDbBlockEnd
  0
BLOCK
  5
129
330
127
100
AcDbEntity
  8
0
100
AcDbBlockBegin
  2
block 10
 70
     0
 10
0.0
 20
0.0
 30
0.0
  3
block 10
  1

  0
SPLINE
  5
12B
330
127
100
AcDbEntity
  8
_U+30EC_U+30A4_U+30E4_U+30FC 1
370
     0
100
AcDbSpline
210
0.0
220
0.0
230
1.0
 70
    11
 71
     3
 72
    35
 73
    31
 74
     0
 42
0.0000000001
 43
0.0000000001
 12
1.0
 22
0.0
 32
0.0
 13
1.0
 23
0.0
 33
0.0
 40
0.0
 40
0.0
 40
0.0
 40
0.0
 40
1.0
 40
1.0
 40
1.0
 40
2.0
 40
2.0
 40
2.0
 40
3.0
 40
3.0
 40
3.0
 40
4.0
 40
4.0
 40
4.0
 40
5.0
 40
5.0
 40
5.0
 40
6.0
 40
6.0
 40
6.0
 40
7.0
 40
7.0
 40
7.0
 40
8.0
 40
8.0
 40
8.0
 40
9.0
 40
9.0
 40
9.0
 40
10.0
 40
10.0
 40
10.0
 40
10.0
 10
107.2589138186714
 20
-139.2052842533931
 30
0.0
 10
107.2589138186714
 20
-139.2052842533931
 30
0.0
 10
107.2086154245867
 20
-139.4695230771118
 30
0.0
 10
107.2086154245867
 20
-139.4695230771118
 30
0.0
 10
107.3477972821908
 20
-139.4822699304072
 30
0.0
 10
107.6757703723866
 20
-139.5732204512178
 30
0.0
 10
107.6757703723866
 20
-139.9645832983422
 30
0.0
 10
107.6757703723866
 20
-140.4427625516949
 30
0.0
 10
107.2699381242242
 20
-140.5674750082609
 30
0.0
 10
106.9943304854042
 20
-140.5674750082609
 30
0.0
 10
106.9943304854042
 20
-140.5674750082609
 30
0.0
 10
106.9268066138933
 20
-140.9209418050476
 30
0.0
 10
106.9268066138933
 20
-140.9209418050476
 30
0.0
 10
106.9268066138933
 20
-140.9209418050476
 30
0.0
 10
106.7194118656813
 20
-140.9209418050476
 30
0.0
 10
106.7194118656813
 20
-140.9209418050476
 30
0.0
 10
106.7194118656813
 20
-140.9209418050476
 30
0.0
 10
106.7917588708715
 20
-140.5526610976743
 30
0.0
 10
106.7917588708715
 20
-140.5526610976743
 30
0.0
 10
106.6835828726347
 20
-140.5337130725055
 30
0.0
 10
106.3321831331392
 20
-140.472390372868
 30
0.0
 10
106.3321831331392
 20
-140.0555338191528
 30
0.0
 10
106.3321831331392
 20
-139.6073268965218
 30
0.0
 10
106.687716987217
 20
-139.4571207333649
 30
0.0
 10
107.0032877336658
 20
-139.4571207333649
 30
0.0
 10
107.0032877336658
 20
-139.4571207333649
 30
0.0
 10
107.0515190704593
 20
-139.2052842533931
 30
0.0
 10
107.0515190704593
 20
-139.2052842533931
 30
0.0
 10
107.0515190704593
 20
-139.2052842533931
 30
0.0
 10
107.2589138186714
 20
-139.2052842533931
 30
0.0
 10
107.2589138186714
 20
-139.2052842533931
 30
0.0
  0
SPLINE
  5
12C
330
127
100
AcDbEntity
  8
_U+30EC_U+30A4_U+30E4_U+30FC 1
370
     0
100
AcDbSpline
210
0.0
220
0.0
230
1.0
 70
    11
 71
     3
 72
    14
 73
    10
 74
     0
 42
0.0000000001
 43
0.0000000001
 12
1.0
 22
0.0
 32
0.0
 13
1.0
 23
0.0
 33
0.0
 40
0.0
 40
0.0
 40
0.0
 40
0.0
 40
1.0
 40
1.0
 40
1.0
 40
2.0
 40
2.0
 40
2.0
 40
3.0
 40
3.0
 40
3.0
 40
3.0
 10
106.9695257979104
 20
-139.630409036273
 30
0.0
 10
106.8489474559267
 20
-139.6390217749861
 30
0.0
 10
106.5547363014863
 20
-139.6621039147373
 30
0.0
 10
106.5547363014863
 20
-140.0600124432836
 30
0.0
 10
106.5547363014863
 20
-140.1234022002122
 30
0.0
 10
106.5547363014863
 20
-140.3369981202977
 30
0.0
 10
106.8234537493358
 20
-140.3814398520574
 30
0.0
 10
106.8234537493358
 20
-140.3814398520574
 30
0.0
 10
106.9695257979104
 20
-139.630409036273
 30
0.0
 10
106.9695257979104
 20
-139.630409036273
 30
0.0
  0
SPLINE
  5
12D
330
127
100
AcDbEntity
  8
_U+30EC_U+30A4_U+30E4_U+30FC 1
370
     0
100
AcDbSpline
210
0.0
220
0.0
230
1.0
 70
    11
 71
     3
 72
    14
 73
    10
 74
     0
 42
0.0000000001
 43
0.0000000001
 12
1.0
 22
0.0
 32
0.0
 13
1.0
 23
0.0
 33
0.0
 40
0.0
 40
0.0
 40
0.0
 40
0.0
 40
1.0
 40
1.0
 40
1.0
 40
2.0
 40
2.0
 40
2.0
 40
3.0
 40
3.0
 40
3.0
 40
3.0
 10
107.0308484975479
 20
-140.3900525907706
 30
0.0
 10
107.212749539169
 20
-140.3855739666397
 30
0.0
 10
107.4559732804277
 20
-140.3053032418334
 30
0.0
 10
107.4559732804277
 20
-139.9497693877556
 30
0.0
 10
107.4559732804277
 20
-139.8567518096539
 30
0.0
 10
107.4428819175837
 20
-139.6686495961592
 30
0.0
 10
107.1720974124431
 20
-139.6410888322772
 30
0.0
 10
107.1720974124431
 20
-139.6410888322772
 30
0.0
 10
107.0308484975479
 20
-140.3900525907706
 30
0.0
 10
107.0308484975479
 20
-140.3900525907706
 30
0.0
  0
HATCH
  5
12E
330
127
100
AcDbEntity
  8
_U+30EC_U+30A4_U+30E4_U+30FC 1
 62
   179
420
  2234388
100
AcDbHatch
 10
0.0
 20
0.0
 30
0.0
210
0.0
220
0.0
230
1.0
  2
SOLID
 70
     1
 71
     0
 91
        3
 92
        1
 93
        1
 72
     4
 94
        3
 73
     0
 74
     1
 95
       35
 96
       31
 40
0.0
 40
0.0
 40
0.0
 40
0.0
 40
1.0
 40
1.0
 40
1.0
 40
2.0
 40
2.0
 40
2.0
 40
3.0
 40
3.0
 40
3.0
 40
4.0
 40
4.0
 40
4.0
 40
5.0
 40
5.0
 40
5.0
 40
6.0
 40
6.0
 40
6.0
 40
7.0
 40
7.0
 40
7.0
 40
8.0
 40
8.0
 40
8.0
 40
9.0
 40
9.0
 40
9.0
 40
10.0
 40
10.0
 40
10.0
 40
10.0
 10
107.2589138186714
 20
-139.2052842533931
 10
107.2589138186714
 20
-139.2052842533931
 10
107.2086154245867
 20
-139.4695230771118
 10
107.2086154245867
 20
-139.4695230771118
 10
107.3477972821908
 20
-139.4822699304072
 10
107.6757703723866
 20
-139.5732204512178
 10
107.6757703723866
 20
-139.9645832983422
 10
107.6757703723866
 20
-140.4427625516949
 10
107.2699381242242
 20
-140.5674750082609
 10
106.9943304854042
 20
-140.5674750082609
 10
106.9943304854042
 20
-140.5674750082609
 10
106.9268066138933
 20
-140.9209418050476
 10
106.9268066138933
 20
-140.9209418050476
 10
106.9268066138933
 20
-140.9209418050476
 10
106.7194118656813
 20
-140.9209418050476
 10
106.7194118656813
 20
-140.9209418050476
 10
106.7194118656813
 20
-140.9209418050476
 10
106.7917588708715
 20
-140.5526610976743
 10
106.7917588708715
 20
-140.5526610976743
 10
106.6835828726347
 20
-140.5337130725055
 10
106.3321831331392
 20
-140.472390372868
 10
106.3321831331392
 20
-140.0555338191528
 10
106.3321831331392
 20
-139.6073268965218
 10
106.687716987217
 20
-139.4571207333649
 10
107.0032877336658
 20
-139.4571207333649
 10
107.0032877336658
 20
-139.4571207333649
 10
107.0515190704593
 20
-139.2052842533931
 10
107.0515190704593
 20
-139.2052842533931
 10
107.0515190704593
 20
-139.2052842533931
 10
107.2589138186714
 20
-139.2052842533931
 10
107.2589138186714
 20
-139.2052842533931
 97
        0
 97
        0
 92
        1
 93
        1
 72
     4
 94
        3
 73
     0
 74
     1
 95
       14
 96
       10
 40
0.0
 40
0.0
 40
0.0
 40
0.0
 40
1.0
 40
1.0
 40
1.0
 40
2.0
 40
2.0
 40
2.0
 40
3.0
 40
3.0
 40
3.0
 40
3.0
 10
106.9695257979104
 20
-139.630409036273
 10
106.8489474559267
 20
-139.6390217749861
 10
106.5547363014863
 20
-139.6621039147373
 10
106.5547363014863
 20
-140.0600124432836
 10
106.5547363014863
 20
-140.1234022002122
 10
106.5547363014863
 20
-140.3369981202977
 10
106.8234537493358
 20
-140.3814398520574
 10
106.8234537493358
 20
-140.3814398520574
 10
106.9695257979104
 20
-139.630409036273
 10
106.9695257979104
 20
-139.630409036273
 97
        0
 97
        0
 92
        1
 93
        1
 72
     4
 94
        3
 73
     0
 74
     1
 95
       14
 96
       10
 40
0.0
 40
0.0
 40
0.0
 40
0.0
 40
1.0
 40
1.0
 40
1.0
 40
2.0
 40
2.0
 40
2.0
 40
3.0
 40
3.0
 40
3.0
 40
3.0
 10
107.0308484975479
 20
-140.3900525907706
 10
107.212749539169
 20
-140.3855739666397
 10
107.4559732804277
 20
-140.3053032418334
 10
107.4559732804277
 20
-139.9497693877556
 10
107.4559732804277
 20
-139.8567518096539
 10
107.4428819175837
 20
-139.6686495961592
 10
107.1720974124431
 20
-139.6410888322772
 10
107.1720974124431
 20
-139.6410888322772
 10
107.0308484975479
 20
-140.3900525907706
 10
107.0308484975479
 20
-140.3900525907706
 97
        0
 97
        0
 75
     2
 76
     1
 98
        0
  0
SPLINE
  5
12F
330
127
100
AcDbEntity
  8
_U+30EC_U+30A4_U+30E4_U+30FC 1
370
     0
100
AcDbSpline
210
0.0
220
0.0
230
1.0
 70
    11
 71
     3
 72
    62
 73
    58
 74
     0
 42
0.0000000001
 43
0.0000000001
 12
1.0
 22
0.0
 32
0.0
 13
1.0
 23
0.0
 33
0.0
 40
0.0
 40
0.0
 40
0.0
 40
0.0
 40
1.0
 40
1.0
 40
1.0
 40
2.0
 40
2.0
 40
2.0
 40
3.0
 40
3.0
 40
3.0
 40
4.0
 40
4.0
 40
4.0
 40
5.0
 40
5.0
 40
5.0
 40
6.0
 40
6.0
 40
6.0
 40
7.0
 40
7.0
 40
7.0
 40
8.0
 40
8.0
 40
8.0
 40
9.0
 40
9.0
 40
9.0
 40
10.0
 40
10.0
 40
10.0
 40
11.0
 40
11.0
 40
11.0
 40
12.0
 40
12.0
 40
12.0
 40
13.0
 40
13.0
 40
13.0
 40
14.0
 40
14.0
 40
14.0
 40
15.0
 40
15.0
 40
15.0
 40
16.0
 40
16.0
 40
16.0
 40
17.0
 40
17.0
 40
17.0
 40
18.0
 40
18.0
 40
18.0
 40
19.0
 40
19.0
 40
19.0
 40
19.0
 10
108.3792588704746
 20
-140.6267306506072
 30
0.0
 10
108.2841742350817
 20
-140.6267306506072
 30
0.0
 10
108.066444200414
 20
-140.6057155681472
 30
0.0
 10
107.9410427247509
 20
-140.4196804119437
 30
0.0
 10
107.8673176813665
 20
-140.3073702991246
 30
0.0
 10
107.8631835667842
 20
-140.2081515491494
 30
0.0
 10
107.8590494522019
 20
-140.1234022002122
 30
0.0
 10
107.8590494522019
 20
-140.1234022002122
 30
0.0
 10
108.0788465441609
 20
-140.1234022002122
 30
0.0
 10
108.0788465441609
 20
-140.1234022002122
 30
0.0
 10
108.080913601452
 20
-140.1974717531451
 30
0.0
 10
108.0912488879078
 20
-140.4320827556906
 30
0.0
 10
108.3751247558923
 20
-140.4320827556906
 30
0.0
 10
108.5122395562053
 20
-140.4320827556906
 30
0.0
 10
108.6652017957504
 20
-140.3624918268885
 30
0.0
 10
108.6652017957504
 20
-140.1340819962165
 30
0.0
 10
108.6652017957504
 20
-140.017637768815
 30
0.0
 10
108.6266167263156
 20
-139.969061922473
 30
0.0
 10
108.5949218478513
 20
-139.9373670440087
 30
0.0
 10
108.5211968044669
 20
-139.8632974910759
 30
0.0
 10
108.4047525770655
 20
-139.8505506377804
 30
0.0
 10
108.3496310493015
 20
-139.8505506377804
 30
0.0
 10
108.3303385145841
 20
-139.8505506377804
 30
0.0
 10
108.2945095215375
 20
-139.8526176950716
 30
0.0
 10
108.2669487576555
 20
-139.8567518096539
 30
0.0
 10
108.2669487576555
 20
-139.8567518096539
 30
0.0
 10
108.2669487576555
 20
-139.6621039147373
 30
0.0
 10
108.2669487576555
 20
-139.6621039147373
 30
0.0
 10
108.3055338270903
 20
-139.6686495961592
 30
0.0
 10
108.3475639920103
 20
-139.6707166534504
 30
0.0
 10
108.3537651638838
 20
-139.6707166534504
 30
0.0
 10
108.4192219781035
 20
-139.6707166534504
 30
0.0
 10
108.618348497151
 20
-139.6493570614418
 30
0.0
 10
108.618348497151
 20
-139.4126790016052
 30
0.0
 10
108.618348497151
 20
-139.2349120745663
 30
0.0
 10
108.4874348687115
 20
-139.1797905468023
 30
0.0
 10
108.3771918131835
 20
-139.1797905468023
 30
0.0
 10
108.1126084799163
 20
-139.1797905468023
 30
0.0
 10
108.1043402507517
 20
-139.4126790016052
 30
0.0
 10
108.1002061361694
 20
-139.4843369876984
 30
0.0
 10
108.1002061361694
 20
-139.4843369876984
 30
0.0
 10
107.8969455025397
 20
-139.4843369876984
 30
0.0
 10
107.8969455025397
 20
-139.4843369876984
 30
0.0
 10
107.9052137317043
 20
-139.3596245311323
 30
0.0
 10
107.9327744955863
 20
-138.9830755945945
 30
0.0
 10
108.3895941569304
 20
-138.9830755945945
 30
0.0
 10
108.6142143825687
 20
-138.9830755945945
 30
0.0
 10
108.8553710665362
 20
-139.1101996180002
 30
0.0
 10
108.8553710665362
 20
-139.4061333201832
 30
0.0
 10
108.8553710665362
 20
-139.5925129859352
 30
0.0
 10
108.7602864311433
 20
-139.6748507680327
 30
0.0
 10
108.660378662071
 20
-139.7361734676701
 30
0.0
 10
108.7217013617085
 20
-139.7637342315521
 30
0.0
 10
108.9036024033297
 20
-139.8440049563584
 30
0.0
 10
108.9036024033297
 20
-140.1213351429211
 30
0.0
 10
108.9036024033297
 20
-140.4596435195726
 30
0.0
 10
108.6562445474887
 20
-140.6267306506072
 30
0.0
 10
108.3792588704746
 20
-140.6267306506072
 30
0.0
  0
HATCH
  5
130
330
127
100
AcDbEntity
  8
_U+30EC_U+30A4_U+30E4_U+30FC 1
 62
   179
420
  2234388
100
AcDbHatch
 10
0.0
 20
0.0
 30
0.0
210
0.0
220
0.0
230
1.0
  2
SOLID
 70
     1
 71
     0
 91
        1
 92
        1
 93
        1
 72
     4
 94
        3
 73
     0
 74
     1
 95
       62
 96
       58
 40
0.0
 40
0.0
 40
0.0
 40
0.0
 40
1.0
 40
1.0
 40
1.0
 40
2.0
 40
2.0
 40
2.0
 40
3.0
 40
3.0
 40
3.0
 40
4.0
 40
4.0
 40
4.0
 40
5.0
 40
5.0
 40
5.0
 40
6.0
 40
6.0
 40
6.0
 40
7.0
 40
7.0
 40
7.0
 40
8.0
 40
8.0
 40
8.0
 40
9.0
 40
9.0
 40
9.0
 40
10.0
 40
10.0
 40
10.0
 40
11.0
 40
11.0
 40
11.0
 40
12.0
 40
12.0
 40
12.0
 40
13.0
 40
13.0
 40
13.0
 40
14.0
 40
14.0
 40
14.0
 40
15.0
 40
15.0
 40
15.0
 40
16.0
 40
16.0
 40
16.0
 40
17.0
 40
17.0
 40
17.0
 40
18.0
 40
18.0
 40
18.0
 40
19.0
 40
19.0
 40
19.0
 40
19.0
 10
108.3792588704746
 20
-140.6267306506072
 10
108.2841742350817
 20
-140.6267306506072
 10
108.066444200414
 20
-140.6057155681472
 10
107.9410427247509
 20
-140.4196804119437
 10
107.8673176813665
 20
-140.3073702991246
 10
107.8631835667842
 20
-140.2081515491494
 10
107.8590494522019
 20
-140.1234022002122
 10
107.8590494522019
 20
-140.1234022002122
 10
108.0788465441609
 20
-140.1234022002122
 10
108.0788465441609
 20
-140.1234022002122
 10
108.080913601452
 20
-140.1974717531451
 10
108.0912488879078
 20
-140.4320827556906
 10
108.3751247558923
 20
-140.4320827556906
 10
108.5122395562053
 20
-140.4320827556906
 10
108.6652017957504
 20
-140.3624918268885
 10
108.6652017957504
 20
-140.1340819962165
 10
108.6652017957504
 20
-140.017637768815
 10
108.6266167263156
 20
-139.969061922473
 10
108.5949218478513
 20
-139.9373670440087
 10
108.5211968044669
 20
-139.8632974910759
 10
108.4047525770655
 20
-139.8505506377804
 10
108.3496310493015
 20
-139.8505506377804
 10
108.3303385145841
 20
-139.8505506377804
 10
108.2945095215375
 20
-139.8526176950716
 10
108.2669487576555
 20
-139.8567518096539
 10
108.2669487576555
 20
-139.8567518096539
 10
108.2669487576555
 20
-139.6621039147373
 10
108.2669487576555
 20
-139.6621039147373
 10
108.3055338270903
 20
-139.6686495961592
 10
108.3475639920103
 20
-139.6707166534504
 10
108.3537651638838
 20
-139.6707166534504
 10
108.4192219781035
 20
-139.6707166534504
 10
108.618348497151
 20
-139.6493570614418
 10
108.618348497151
 20
-139.4126790016052
 10
108.618348497151
 20
-139.2349120745663
 10
108.4874348687115
 20
-139.1797905468023
 10
108.3771918131835
 20
-139.1797905468023
 10
108.1126084799163
 20
-139.1797905468023
 10
108.1043402507517
 20
-139.4126790016052
 10
108.1002061361694
 20
-139.4843369876984
 10
108.1002061361694
 20
-139.4843369876984
 10
107.8969455025397
 20
-139.4843369876984
 10
107.8969455025397
 20
-139.4843369876984
 10
107.9052137317043
 20
-139.3596245311323
 10
107.9327744955863
 20
-138.9830755945945
 10
108.3895941569304
 20
-138.9830755945945
 10
108.6142143825687
 20
-138.9830755945945
 10
108.8553710665362
 20
-139.1101996180002
 10
108.8553710665362
 20
-139.4061333201832
 10
108.8553710665362
 20
-139.5925129859352
 10
108.7602864311433
 20
-139.6748507680327
 10
108.660378662071
 20
-139.7361734676701
 10
108.7217013617085
 20
-139.7637342315521
 10
108.9036024033297
 20
-139.8440049563584
 10
108.9036024033297
 20
-140.1213351429211
 10
108.9036024033297
 20
-140.4596435195726
 10
108.6562445474887
 20
-140.6267306506072
 10
108.3792588704746
 20
-140.6267306506072
 97
        0
 97
        0
 75
     2
 76
     1
 98
        0
  0
POLYLINE
  5
131
330
127
100
AcDbEntity
  8
_U+30EC_U+30A4_U+30E4_U+30FC 1
370
     0
100
AcDb2dPolyline
 66
     1
 10
0.0
 20
0.0
 30
0.0
  0
VERTEX
  5
132
330
131
100
AcDbEntity
  8
_U+30EC_U+30A4_U+30E4_U+30FC 1
370
     0
100
AcDbVertex
100
AcDb2dVertex
 10
109.1247775334827
 20
-140.5760877469741
 30
0.0
  0
VERTEX
  5
133
330
131
100
AcDbEntity
  8
_U+30EC_U+30A4_U+30E4_U+30FC 1
370
     0
100
AcDbVertex
100
AcDb2dVertex
 10
109.1247775334827
 20
-140.3242512670023
 30
0.0
  0
VERTEX
  5
134
330
131
100
AcDbEntity
  8
_U+30EC_U+30A4_U+30E4_U+30FC 1
370
     0
100
AcDbVertex
100
AcDb2dVertex
 10
109.3762695039059
 20
-140.3242512670023
 30
0.0
  0
VERTEX
  5
135
330
131
100
AcDbEntity
  8
_U+30EC_U+30A4_U+30E4_U+30FC 1
370
     0
100
AcDbVertex
100
AcDb2dVertex
 10
109.3762695039059
 20
-140.5760877469741
 30
0.0
  0
VERTEX
  5
136
330
131
100
AcDbEntity
  8
_U+30EC_U+30A4_U+30E4_U+30FC 1
370
     0
100
AcDbVertex
100
AcDb2dVertex
 10
109.1247775334827
 20
-140.5760877469741
 30
0.0
  0
SEQEND
  5
137
330
131
100
AcDbEntity
  8
_U+30EC_U+30A4_U+30E4_U+30FC 1
370
     0
  0
HATCH
  5
138
330
127
100
AcDbEntity
  8
_U+30EC_U+30A4_U+30E4_U+30FC 1
 62
   179
420
  2234388
100
AcDbHatch
 10
0.0
 20
0.0
 30
0.0
210
0.0
220
0.0
230
1.0
  2
SOLID
 70
     1
 71
     0
 91
        1
 92
        1
 93
        4
 72
     1
 10
109.1247775334827
 20
-140.5760877469741
 11
109.1247775334827
 21
-140.3242512670023
 72
     1
 10
109.1247775334827
 20
-140.3242512670023
 11
109.3762695039059
 21
-140.3242512670023
 72
     1
 10
109.3762695039059
 20
-140.3242512670023
 11
109.3762695039059
 21
-140.5760877469741
 72
     1
 10
109.3762695039059
 20
-140.5760877469741
 11
109.1247775334827
 21
-140.5760877469741
 97
        0
 75
     2
 76
     1
 98
        0
  0
SPLINE
  5
139
330
127
100
AcDbEntity
  8
_U+30EC_U+30A4_U+30E4_U+30FC 1
370
     0
100
AcDbSpline
210
0.0
220
0.0
230
1.0
 70
    11
 71
     3
 72
    53
 73
    49
 74
     0
 42
0.0000000001
 43
0.0000000001
 12
1.0
 22
0.0
 32
0.0
 13
1.0
 23
0.0
 33
0.0
 40
0.0
 40
0.0
 40
0.0
 40
0.0
 40
1.0
 40
1.0
 40
1.0
 40
2.0
 40
2.0
 40
2.0
 40
3.0
 40
3.0
 40
3.0
 40
4.0
 40
4.0
 40
4.0
 40
5.0
 40
5.0
 40
5.0
 40
6.0
 40
6.0
 40
6.0
 40
7.0
 40
7.0
 40
7.0
 40
8.0
 40
8.0
 40
8.0
 40
9.0
 40
9.0
 40
9.0
 40
10.0
 40
10.0
 40
10.0
 40
11.0
 40
11.0
 40
11.0
 40
12.0
 40
12.0
 40
12.0
 40
13.0
 40
13.0
 40
13.0
 40
14.0
 40
14.0
 40
14.0
 40
15.0
 40
15.0
 40
15.0
 40
16.0
 40
16.0
 40
16.0
 40
16.0
 10
110.093538383935
 20
-140.6267306506072
 30
0.0
 10
110.0156792259683
 20
-140.6267306506072
 30
0.0
 10
109.9137043996049
 20
-140.6098496827295
 30
0.0
 10
109.8124185923386
 20
-140.5464599258009
 30
0.0
 10
109.638785779882
 20
-140.4365613798214
 30
0.0
 10
109.6174261878734
 20
-140.3053032418334
 30
0.0
 10
109.5988226722531
 20
-140.1974717531451
 30
0.0
 10
109.5988226722531
 20
-140.1974717531451
 30
0.0
 10
109.8206868215032
 20
-140.1974717531451
 30
0.0
 10
109.8206868215032
 20
-140.1974717531451
 30
0.0
 10
109.8758083492672
 20
-140.396253762644
 30
0.0
 10
110.0025878631244
 20
-140.4258815838172
 30
0.0
 10
110.0956054412261
 20
-140.4258815838172
 30
0.0
 10
110.2354763179273
 20
-140.4258815838172
 30
0.0
 10
110.3877495383753
 20
-140.3263183242934
 30
0.0
 10
110.3877495383753
 20
-140.0937743790391
 30
0.0
 10
110.3877495383753
 20
-139.837803784485
 30
0.0
 10
110.2079155540452
 20
-139.7678683461344
 30
0.0
 10
110.0873372120615
 20
-139.7678683461344
 30
0.0
 10
110.0556423335972
 20
-139.7678683461344
 30
0.0
 10
109.9137043996049
 20
-139.7678683461344
 30
0.0
 10
109.8248209360855
 20
-139.8970594268313
 30
0.0
 10
109.8248209360855
 20
-139.8970594268313
 30
0.0
 10
109.6491210663377
 20
-139.8781114016624
 30
0.0
 10
109.6491210663377
 20
-139.8781114016624
 30
0.0
 10
109.6491210663377
 20
-139.8781114016624
 30
0.0
 10
109.7696994083215
 20
-139.0316514409365
 30
0.0
 10
109.7696994083215
 20
-139.0316514409365
 30
0.0
 10
109.7696994083215
 20
-139.0316514409365
 30
0.0
 10
110.5482909879879
 20
-139.0316514409365
 30
0.0
 10
110.5482909879879
 20
-139.0316514409365
 30
0.0
 10
110.5482909879879
 20
-139.0316514409365
 30
0.0
 10
110.5482909879879
 20
-139.2262993358532
 30
0.0
 10
110.5482909879879
 20
-139.2262993358532
 30
0.0
 10
110.5482909879879
 20
-139.2262993358532
 30
0.0
 10
109.9329969343223
 20
-139.2262993358532
 30
0.0
 10
109.9329969343223
 20
-139.2262993358532
 30
0.0
 10
109.9329969343223
 20
-139.2262993358532
 30
0.0
 10
109.8675401201026
 20
-139.6493570614418
 30
0.0
 10
109.8675401201026
 20
-139.6493570614418
 30
0.0
 10
109.92886281974
 20
-139.6155951256864
 30
0.0
 10
110.010856092289
 20
-139.5752875085089
 30
0.0
 10
110.1293673769815
 20
-139.5752875085089
 30
0.0
 10
110.383615423793
 20
-139.5752875085089
 30
0.0
 10
110.6206379931782
 20
-139.761667174261
 30
0.0
 10
110.6206379931782
 20
-140.0748263538702
 30
0.0
 10
110.6206379931782
 20
-140.3921196480617
 30
0.0
 10
110.3960177675399
 20
-140.6267306506072
 30
0.0
 10
110.093538383935
 20
-140.6267306506072
 30
0.0
  0
HATCH
  5
13A
330
127
100
AcDbEntity
  8
_U+30EC_U+30A4_U+30E4_U+30FC 1
 62
   179
420
  2234388
100
AcDbHatch
 10
0.0
 20
0.0
 30
0.0
210
0.0
220
0.0
230
1.0
  2
SOLID
 70
     1
 71
     0
 91
        1
 92
        1
 93
        1
 72
     4
 94
        3
 73
     0
 74
     1
 95
       53
 96
       49
 40
0.0
 40
0.0
 40
0.0
 40
0.0
 40
1.0
 40
1.0
 40
1.0
 40
2.0
 40
2.0
 40
2.0
 40
3.0
 40
3.0
 40
3.0
 40
4.0
 40
4.0
 40
4.0
 40
5.0
 40
5.0
 40
5.0
 40
6.0
 40
6.0
 40
6.0
 40
7.0
 40
7.0
 40
7.0
 40
8.0
 40
8.0
 40
8.0
 40
9.0
 40
9.0
 40
9.0
 40
10.0
 40
10.0
 40
10.0
 40
11.0
 40
11.0
 40
11.0
 40
12.0
 40
12.0
 40
12.0
 40
13.0
 40
13.0
 40
13.0
 40
14.0
 40
14.0
 40
14.0
 40
15.0
 40
15.0
 40
15.0
 40
16.0
 40
16.0
 40
16.0
 40
16.0
 10
110.093538383935
 20
-140.6267306506072
 10
110.0156792259683
 20
-140.6267306506072
 10
109.9137043996049
 20
-140.6098496827295
 10
109.8124185923386
 20
-140.5464599258009
 10
109.638785779882
 20
-140.4365613798214
 10
109.6174261878734
 20
-140.3053032418334
 10
109.5988226722531
 20
-140.1974717531451
 10
109.5988226722531
 20
-140.1974717531451
 10
109.8206868215032
 20
-140.1974717531451
 10
109.8206868215032
 20
-140.1974717531451
 10
109.8758083492672
 20
-140.396253762644
 10
110.0025878631244
 20
-140.4258815838172
 10
110.0956054412261
 20
-140.4258815838172
 10
110.2354763179273
 20
-140.4258815838172
 10
110.3877495383753
 20
-140.3263183242934
 10
110.3877495383753
 20
-140.0937743790391
 10
110.3877495383753
 20
-139.837803784485
 10
110.2079155540452
 20
-139.7678683461344
 10
110.0873372120615
 20
-139.7678683461344
 10
110.0556423335972
 20
-139.7678683461344
 10
109.9137043996049
 20
-139.7678683461344
 10
109.8248209360855
 20
-139.8970594268313
 10
109.8248209360855
 20
-139.8970594268313
 10
109.6491210663377
 20
-139.8781114016624
 10
109.6491210663377
 20
-139.8781114016624
 10
109.6491210663377
 20
-139.8781114016624
 10
109.7696994083215
 20
-139.0316514409365
 10
109.7696994083215
 20
-139.0316514409365
 10
109.7696994083215
 20
-139.0316514409365
 10
110.5482909879879
 20
-139.0316514409365
 10
110.5482909879879
 20
-139.0316514409365
 10
110.5482909879879
 20
-139.0316514409365
 10
110.5482909879879
 20
-139.2262993358532
 10
110.5482909879879
 20
-139.2262993358532
 10
110.5482909879879
 20
-139.2262993358532
 10
109.9329969343223
 20
-139.2262993358532
 10
109.9329969343223
 20
-139.2262993358532
 10
109.9329969343223
 20
-139.2262993358532
 10
109.8675401201026
 20
-139.6493570614418
 10
109.8675401201026
 20
-139.6493570614418
 10
109.92886281974
 20
-139.6155951256864
 10
110.010856092289
 20
-139.5752875085089
 10
110.1293673769815
 20
-139.5752875085089
 10
110.383615423793
 20
-139.5752875085089
 10
110.6206379931782
 20
-139.761667174261
 10
110.6206379931782
 20
-140.0748263538702
 10
110.6206379931782
 20
-140.3921196480617
 10
110.3960177675399
 20
-140.6267306506072
 10
110.093538383935
 20
-140.6267306506072
 97
        0
 97
        0
 75
     2
 76
     1
 98
        0
  0
ENDBLK
  5
12A
330
127
100
AcDbEntity
  8
0
100
AcDbBlockEnd
  0
BLOCK
  5
14C
330
14A
100
AcDbEntity
  8
0
100
AcDbBlockBegin
  2
block 11
 70
     0
 10
0.0
 20
0.0
 30
0.0
  3
block 11
  1

  0
SPLINE
  5
14E
330
14A
100
AcDbEntity
  8
_U+30EC_U+30A4_U+30E4_U+30FC 1
370
     0
100
AcDbSpline
210
0.0
220
0.0
230
1.0
 70
    11
 71
     3
 72
    26
 73
    22
 74
     0
 42
0.0000000001
 43
0.0000000001
 12
1.0
 22
0.0
 32
0.0
 13
1.0
 23
0.0
 33
0.0
 40
0.0
 40
0.0
 40
0.0
 40
0.0
 40
1.0
 40
1.0
 40
1.0
 40
2.0
 40
2.0
 40
2.0
 40
3.0
 40
3.0
 40
3.0
 40
4.0
 40
4.0
 40
4.0
 40
5.0
 40
5.0
 40
5.0
 40
6.0
 40
6.0
 40
6.0
 40
7.0
 40
7.0
 40
7.0
 40
7.0
 10
83.32669675651208
 20
-141.1968939534161
 30
0.0
 10
83.32669675651208
 20
-141.1968939534161
 30
0.0
 10
83.32669675651208
 20
-140.0927408503935
 30
0.0
 10
83.32669675651208
 20
-140.0927408503935
 30
0.0
 10
83.32669675651208
 20
-140.0927408503935
 30
0.0
 10
83.02628443019829
 20
-140.0927408503935
 30
0.0
 10
83.02628443019829
 20
-140.0927408503935
 30
0.0
 10
83.02628443019829
 20
-140.0927408503935
 30
0.0
 10
83.02628443019829
 20
-139.9446017445277
 30
0.0
 10
83.02628443019829
 20
-139.9446017445277
 30
0.0
 10
83.32876381380323
 20
-139.9297878339412
 30
0.0
 10
83.3711384882718
 20
-139.7668348174888
 30
0.0
 10
83.39801023305675
 20
-139.6524576473786
 30
0.0
 10
83.39801023305675
 20
-139.6524576473786
 30
0.0
 10
83.5309909187874
 20
-139.6524576473786
 30
0.0
 10
83.5309909187874
 20
-139.6524576473786
 30
0.0
 10
83.5309909187874
 20
-139.6524576473786
 30
0.0
 10
83.5309909187874
 20
-141.1968939534161
 30
0.0
 10
83.5309909187874
 20
-141.1968939534161
 30
0.0
 10
83.5309909187874
 20
-141.1968939534161
 30
0.0
 10
83.32669675651208
 20
-141.1968939534161
 30
0.0
 10
83.32669675651208
 20
-141.1968939534161
 30
0.0
  0
HATCH
  5
14F
330
14A
100
AcDbEntity
  8
_U+30EC_U+30A4_U+30E4_U+30FC 1
 62
   179
420
  2234388
100
AcDbHatch
 10
0.0
 20
0.0
 30
0.0
210
0.0
220
0.0
230
1.0
  2
SOLID
 70
     1
 71
     0
 91
        1
 92
        1
 93
        1
 72
     4
 94
        3
 73
     0
 74
     1
 95
       26
 96
       22
 40
0.0
 40
0.0
 40
0.0
 40
0.0
 40
1.0
 40
1.0
 40
1.0
 40
2.0
 40
2.0
 40
2.0
 40
3.0
 40
3.0
 40
3.0
 40
4.0
 40
4.0
 40
4.0
 40
5.0
 40
5.0
 40
5.0
 40
6.0
 40
6.0
 40
6.0
 40
7.0
 40
7.0
 40
7.0
 40
7.0
 10
83.32669675651208
 20
-141.1968939534161
 10
83.32669675651208
 20
-141.1968939534161
 10
83.32669675651208
 20
-140.0927408503935
 10
83.32669675651208
 20
-140.0927408503935
 10
83.32669675651208
 20
-140.0927408503935
 10
83.02628443019829
 20
-140.0927408503935
 10
83.02628443019829
 20
-140.0927408503935
 10
83.02628443019829
 20
-140.0927408503935
 10
83.02628443019829
 20
-139.9446017445277
 10
83.02628443019829
 20
-139.9446017445277
 10
83.32876381380323
 20
-139.9297878339412
 10
83.3711384882718
 20
-139.7668348174888
 10
83.39801023305675
 20
-139.6524576473786
 10
83.39801023305675
 20
-139.6524576473786
 10
83.5309909187874
 20
-139.6524576473786
 10
83.5309909187874
 20
-139.6524576473786
 10
83.5309909187874
 20
-139.6524576473786
 10
83.5309909187874
 20
-141.1968939534161
 10
83.5309909187874
 20
-141.1968939534161
 10
83.5309909187874
 20
-141.1968939534161
 10
83.32669675651208
 20
-141.1968939534161
 10
83.32669675651208
 20
-141.1968939534161
 97
        0
 97
        0
 75
     2
 76
     1
 98
        0
  0
SPLINE
  5
150
330
14A
100
AcDbEntity
  8
_U+30EC_U+30A4_U+30E4_U+30FC 1
370
     0
100
AcDbSpline
210
0.0
220
0.0
230
1.0
 70
    11
 71
     3
 72
    62
 73
    58
 74
     0
 42
0.0000000001
 43
0.0000000001
 12
1.0
 22
0.0
 32
0.0
 13
1.0
 23
0.0
 33
0.0
 40
0.0
 40
0.0
 40
0.0
 40
0.0
 40
1.0
 40
1.0
 40
1.0
 40
2.0
 40
2.0
 40
2.0
 40
3.0
 40
3.0
 40
3.0
 40
4.0
 40
4.0
 40
4.0
 40
5.0
 40
5.0
 40
5.0
 40
6.0
 40
6.0
 40
6.0
 40
7.0
 40
7.0
 40
7.0
 40
8.0
 40
8.0
 40
8.0
 40
9.0
 40
9.0
 40
9.0
 40
10.0
 40
10.0
 40
10.0
 40
11.0
 40
11.0
 40
11.0
 40
12.0
 40
12.0
 40
12.0
 40
13.0
 40
13.0
 40
13.0
 40
14.0
 40
14.0
 40
14.0
 40
15.0
 40
15.0
 40
15.0
 40
16.0
 40
16.0
 40
16.0
 40
17.0
 40
17.0
 40
17.0
 40
18.0
 40
18.0
 40
18.0
 40
19.0
 40
19.0
 40
19.0
 40
19.0
 10
84.43463946456843
 20
-141.2475368570492
 30
0.0
 10
84.34782305834013
 20
-141.2475368570492
 30
0.0
 10
84.14938555838974
 20
-141.2265217745892
 30
0.0
 10
84.0356974073765
 20
-141.0404866183857
 30
0.0
 10
83.9681735358656
 20
-140.9281765055666
 30
0.0
 10
83.96438393083183
 20
-140.8289577555914
 30
0.0
 10
83.96059432579806
 20
-140.7442084066542
 30
0.0
 10
83.96059432579806
 20
-140.7442084066542
 30
0.0
 10
84.16075437349106
 20
-140.7442084066542
 30
0.0
 10
84.16075437349106
 20
-140.7442084066542
 30
0.0
 10
84.16282143078222
 20
-140.8182779595871
 30
0.0
 10
84.17246769814092
 20
-141.0528889621326
 30
0.0
 10
84.43050534998613
 20
-141.0528889621326
 30
0.0
 10
84.55590682564922
 20
-141.0528889621326
 30
0.0
 10
84.69474417370479
 20
-140.9832980333306
 30
0.0
 10
84.69474417370479
 20
-140.7548882026585
 30
0.0
 10
84.69474417370479
 20
-140.6384439752571
 30
0.0
 10
84.65994870930376
 20
-140.589868128915
 30
0.0
 10
84.63100990722766
 20
-140.5581732504507
 30
0.0
 10
84.56348603571678
 20
-140.4841036975179
 30
0.0
 10
84.4577216043196
 20
-140.4713568442224
 30
0.0
 10
84.40742321023495
 20
-140.4713568442224
 30
0.0
 10
84.3901977328087
 20
-140.4713568442224
 30
0.0
 10
84.35746932569883
 20
-140.4734239015136
 30
0.0
 10
84.3323201286565
 20
-140.4775580160959
 30
0.0
 10
84.3323201286565
 20
-140.4775580160959
 30
0.0
 10
84.3323201286565
 20
-140.2829101211793
 30
0.0
 10
84.3323201286565
 20
-140.2829101211793
 30
0.0
 10
84.36711559305753
 20
-140.2894558026013
 30
0.0
 10
84.40570066249232
 20
-140.2915228598924
 30
0.0
 10
84.41155732481725
 20
-140.2915228598924
 30
0.0
 10
84.47115747671208
 20
-140.2915228598924
 30
0.0
 10
84.65236949923622
 20
-140.2701632678838
 30
0.0
 10
84.65236949923622
 20
-140.0334852080472
 30
0.0
 10
84.65236949923622
 20
-139.8557182810083
 30
0.0
 10
84.53282468589805
 20
-139.8005967532443
 30
0.0
 10
84.43257240727728
 20
-139.8005967532443
 30
0.0
 10
84.19176023285831
 20
-139.8005967532443
 30
0.0
 10
84.18383651324224
 20
-140.0334852080472
 30
0.0
 10
84.18004690820847
 20
-140.1051431941404
 30
0.0
 10
84.18004690820847
 20
-140.1051431941404
 30
0.0
 10
83.99504528065054
 20
-140.1051431941404
 30
0.0
 10
83.99504528065054
 20
-140.1051431941404
 30
0.0
 10
84.00296900026662
 20
-139.9804307375744
 30
0.0
 10
84.02777368776042
 20
-139.6038818010365
 30
0.0
 10
84.44428573192712
 20
-139.6038818010365
 30
0.0
 10
84.64857989420244
 20
-139.6038818010365
 30
0.0
 10
84.86803247661285
 20
-139.7310058244423
 30
0.0
 10
84.86803247661285
 20
-140.0269395266252
 30
0.0
 10
84.86803247661285
 20
-140.2133191923772
 30
0.0
 10
84.78156057993309
 20
-140.2956569744747
 30
0.0
 10
84.69095456867102
 20
-140.3569796741122
 30
0.0
 10
84.74676511553206
 20
-140.3845404379942
 30
0.0
 10
84.91247420837259
 20
-140.4648111628005
 30
0.0
 10
84.91247420837259
 20
-140.7421413493631
 30
0.0
 10
84.91247420837259
 20
-141.0804497260146
 30
0.0
 10
84.68682045408872
 20
-141.2475368570492
 30
0.0
 10
84.43463946456843
 20
-141.2475368570492
 30
0.0
  0
HATCH
  5
151
330
14A
100
AcDbEntity
  8
_U+30EC_U+30A4_U+30E4_U+30FC 1
 62
   179
420
  2234388
100
AcDbHatch
 10
0.0
 20
0.0
 30
0.0
210
0.0
220
0.0
230
1.0
  2
SOLID
 70
     1
 71
     0
 91
        1
 92
        1
 93
        1
 72
     4
 94
        3
 73
     0
 74
     1
 95
       62
 96
       58
 40
0.0
 40
0.0
 40
0.0
 40
0.0
 40
1.0
 40
1.0
 40
1.0
 40
2.0
 40
2.0
 40
2.0
 40
3.0
 40
3.0
 40
3.0
 40
4.0
 40
4.0
 40
4.0
 40
5.0
 40
5.0
 40
5.0
 40
6.0
 40
6.0
 40
6.0
 40
7.0
 40
7.0
 40
7.0
 40
8.0
 40
8.0
 40
8.0
 40
9.0
 40
9.0
 40
9.0
 40
10.0
 40
10.0
 40
10.0
 40
11.0
 40
11.0
 40
11.0
 40
12.0
 40
12.0
 40
12.0
 40
13.0
 40
13.0
 40
13.0
 40
14.0
 40
14.0
 40
14.0
 40
15.0
 40
15.0
 40
15.0
 40
16.0
 40
16.0
 40
16.0
 40
17.0
 40
17.0
 40
17.0
 40
18.0
 40
18.0
 40
18.0
 40
19.0
 40
19.0
 40
19.0
 40
19.0
 10
84.43463946456843
 20
-141.2475368570492
 10
84.34782305834013
 20
-141.2475368570492
 10
84.14938555838974
 20
-141.2265217745892
 10
84.0356974073765
 20
-141.0404866183857
 10
83.9681735358656
 20
-140.9281765055666
 10
83.96438393083183
 20
-140.8289577555914
 10
83.96059432579806
 20
-140.7442084066542
 10
83.96059432579806
 20
-140.7442084066542
 10
84.16075437349106
 20
-140.7442084066542
 10
84.16075437349106
 20
-140.7442084066542
 10
84.16282143078222
 20
-140.8182779595871
 10
84.17246769814092
 20
-141.0528889621326
 10
84.43050534998613
 20
-141.0528889621326
 10
84.55590682564922
 20
-141.0528889621326
 10
84.69474417370479
 20
-140.9832980333306
 10
84.69474417370479
 20
-140.7548882026585
 10
84.69474417370479
 20
-140.6384439752571
 10
84.65994870930376
 20
-140.589868128915
 10
84.63100990722766
 20
-140.5581732504507
 10
84.56348603571678
 20
-140.4841036975179
 10
84.4577216043196
 20
-140.4713568442224
 10
84.40742321023495
 20
-140.4713568442224
 10
84.3901977328087
 20
-140.4713568442224
 10
84.35746932569883
 20
-140.4734239015136
 10
84.3323201286565
 20
-140.4775580160959
 10
84.3323201286565
 20
-140.4775580160959
 10
84.3323201286565
 20
-140.2829101211793
 10
84.3323201286565
 20
-140.2829101211793
 10
84.36711559305753
 20
-140.2894558026013
 10
84.40570066249232
 20
-140.2915228598924
 10
84.41155732481725
 20
-140.2915228598924
 10
84.47115747671208
 20
-140.2915228598924
 10
84.65236949923622
 20
-140.2701632678838
 10
84.65236949923622
 20
-140.0334852080472
 10
84.65236949923622
 20
-139.8557182810083
 10
84.53282468589805
 20
-139.8005967532443
 10
84.43257240727728
 20
-139.8005967532443
 10
84.19176023285831
 20
-139.8005967532443
 10
84.18383651324224
 20
-140.0334852080472
 10
84.18004690820847
 20
-140.1051431941404
 10
84.18004690820847
 20
-140.1051431941404
 10
83.99504528065054
 20
-140.1051431941404
 10
83.99504528065054
 20
-140.1051431941404
 10
84.00296900026662
 20
-139.9804307375744
 10
84.02777368776042
 20
-139.6038818010365
 10
84.44428573192712
 20
-139.6038818010365
 10
84.64857989420244
 20
-139.6038818010365
 10
84.86803247661285
 20
-139.7310058244423
 10
84.86803247661285
 20
-140.0269395266252
 10
84.86803247661285
 20
-140.2133191923772
 10
84.78156057993309
 20
-140.2956569744747
 10
84.69095456867102
 20
-140.3569796741122
 10
84.74676511553206
 20
-140.3845404379942
 10
84.91247420837259
 20
-140.4648111628005
 10
84.91247420837259
 20
-140.7421413493631
 10
84.91247420837259
 20
-141.0804497260146
 10
84.68682045408872
 20
-141.2475368570492
 10
84.43463946456843
 20
-141.2475368570492
 97
        0
 97
        0
 75
     2
 76
     1
 98
        0
  0
ENDBLK
  5
14D
330
14A
100
AcDbEntity
  8
0
100
AcDbBlockEnd
  0
BLOCK
  5
163
330
161
100
AcDbEntity
  8
0
100
AcDbBlockBegin
  2
block 12
 70
     0
 10
0.0
 20
0.0
 30
0.0
  3
block 12
  1

  0
SPLINE
  5
165
330
161
100
AcDbEntity
  8
_U+30EC_U+30A4_U+30E4_U+30FC 1
370
     0
100
AcDbSpline
210
0.0
220
0.0
230
1.0
 70
    11
 71
     3
 72
    26
 73
    22
 74
     0
 42
0.0000000001
 43
0.0000000001
 12
1.0
 22
0.0
 32
0.0
 13
1.0
 23
0.0
 33
0.0
 40
0.0
 40
0.0
 40
0.0
 40
0.0
 40
1.0
 40
1.0
 40
1.0
 40
2.0
 40
2.0
 40
2.0
 40
3.0
 40
3.0
 40
3.0
 40
4.0
 40
4.0
 40
4.0
 40
5.0
 40
5.0
 40
5.0
 40
6.0
 40
6.0
 40
6.0
 40
7.0
 40
7.0
 40
7.0
 40
7.0
 10
89.85980357996561
 20
-135.6540798271976
 30
0.0
 10
89.85980357996561
 20
-135.6540798271976
 30
0.0
 10
88.75565047694303
 20
-135.6540798271976
 30
0.0
 10
88.75565047694303
 20
-135.6540798271976
 30
0.0
 10
88.75565047694303
 20
-135.6540798271976
 30
0.0
 10
88.75565047694303
 20
-135.9544921535114
 30
0.0
 10
88.75565047694303
 20
-135.9544921535114
 30
0.0
 10
88.75565047694303
 20
-135.9544921535114
 30
0.0
 10
88.6075113710773
 20
-135.9544921535114
 30
0.0
 10
88.6075113710773
 20
-135.9544921535114
 30
0.0
 10
88.59269746049071
 20
-135.6520127699064
 30
0.0
 10
88.4297444440384
 20
-135.6096380954379
 30
0.0
 10
88.3153672739281
 20
-135.5827663506529
 30
0.0
 10
88.3153672739281
 20
-135.5827663506529
 30
0.0
 10
88.3153672739281
 20
-135.4497856649223
 30
0.0
 10
88.3153672739281
 20
-135.4497856649223
 30
0.0
 10
88.3153672739281
 20
-135.4497856649223
 30
0.0
 10
89.85980357996561
 20
-135.4497856649223
 30
0.0
 10
89.85980357996561
 20
-135.4497856649223
 30
0.0
 10
89.85980357996561
 20
-135.4497856649223
 30
0.0
 10
89.85980357996561
 20
-135.6540798271976
 30
0.0
 10
89.85980357996561
 20
-135.6540798271976
 30
0.0
  0
HATCH
  5
166
330
161
100
AcDbEntity
  8
_U+30EC_U+30A4_U+30E4_U+30FC 1
 62
   179
420
  2234388
100
AcDbHatch
 10
0.0
 20
0.0
 30
0.0
210
0.0
220
0.0
230
1.0
  2
SOLID
 70
     1
 71
     0
 91
        1
 92
        1
 93
        1
 72
     4
 94
        3
 73
     0
 74
     1
 95
       26
 96
       22
 40
0.0
 40
0.0
 40
0.0
 40
0.0
 40
1.0
 40
1.0
 40
1.0
 40
2.0
 40
2.0
 40
2.0
 40
3.0
 40
3.0
 40
3.0
 40
4.0
 40
4.0
 40
4.0
 40
5.0
 40
5.0
 40
5.0
 40
6.0
 40
6.0
 40
6.0
 40
7.0
 40
7.0
 40
7.0
 40
7.0
 10
89.85980357996561
 20
-135.6540798271976
 10
89.85980357996561
 20
-135.6540798271976
 10
88.75565047694303
 20
-135.6540798271976
 10
88.75565047694303
 20
-135.6540798271976
 10
88.75565047694303
 20
-135.6540798271976
 10
88.75565047694303
 20
-135.9544921535114
 10
88.75565047694303
 20
-135.9544921535114
 10
88.75565047694303
 20
-135.9544921535114
 10
88.6075113710773
 20
-135.9544921535114
 10
88.6075113710773
 20
-135.9544921535114
 10
88.59269746049071
 20
-135.6520127699064
 10
88.4297444440384
 20
-135.6096380954379
 10
88.3153672739281
 20
-135.5827663506529
 10
88.3153672739281
 20
-135.5827663506529
 10
88.3153672739281
 20
-135.4497856649223
 10
88.3153672739281
 20
-135.4497856649223
 10
88.3153672739281
 20
-135.4497856649223
 10
89.85980357996561
 20
-135.4497856649223
 10
89.85980357996561
 20
-135.4497856649223
 10
89.85980357996561
 20
-135.4497856649223
 10
89.85980357996561
 20
-135.6540798271976
 10
89.85980357996561
 20
-135.6540798271976
 97
        0
 97
        0
 75
     2
 76
     1
 98
        0
  0
SPLINE
  5
167
330
161
100
AcDbEntity
  8
_U+30EC_U+30A4_U+30E4_U+30FC 1
370
     0
100
AcDbSpline
210
0.0
220
0.0
230
1.0
 70
    11
 71
     3
 72
    44
 73
    40
 74
     0
 42
0.0000000001
 43
0.0000000001
 12
1.0
 22
0.0
 32
0.0
 13
1.0
 23
0.0
 33
0.0
 40
0.0
 40
0.0
 40
0.0
 40
0.0
 40
1.0
 40
1.0
 40
1.0
 40
2.0
 40
2.0
 40
2.0
 40
3.0
 40
3.0
 40
3.0
 40
4.0
 40
4.0
 40
4.0
 40
5.0
 40
5.0
 40
5.0
 40
6.0
 40
6.0
 40
6.0
 40
7.0
 40
7.0
 40
7.0
 40
8.0
 40
8.0
 40
8.0
 40
9.0
 40
9.0
 40
9.0
 40
10.0
 40
10.0
 40
10.0
 40
11.0
 40
11.0
 40
11.0
 40
12.0
 40
12.0
 40
12.0
 40
13.0
 40
13.0
 40
13.0
 40
13.0
 10
89.27792695250692
 20
-134.4538085601366
 30
0.0
 10
89.43674585437692
 20
-134.652246060087
 30
0.0
 10
89.5108154073098
 20
-134.7369954090241
 30
0.0
 10
89.65447588904472
 20
-134.7814371407838
 30
0.0
 10
89.65447588904472
 20
-134.7814371407838
 30
0.0
 10
89.65447588904472
 20
-134.0720919803709
 30
0.0
 10
89.65447588904472
 20
-134.0720919803709
 30
0.0
 10
89.65447588904472
 20
-134.0720919803709
 30
0.0
 10
89.85980357996561
 20
-134.0720919803709
 30
0.0
 10
89.85980357996561
 20
-134.0720919803709
 30
0.0
 10
89.85980357996561
 20
-134.0720919803709
 30
0.0
 10
89.85980357996561
 20
-135.0088134428103
 30
0.0
 10
89.85980357996561
 20
-135.0088134428103
 30
0.0
 10
89.50220266859668
 20
-134.9798746407342
 30
0.0
 10
89.4239990010815
 20
-134.9202744888394
 30
0.0
 10
89.12565373205886
 20
-134.5692192588924
 30
0.0
 10
88.92687172255995
 20
-134.3363308040895
 30
0.0
 10
88.85900334150053
 20
-134.2763861426462
 30
0.0
 10
88.72154403163906
 20
-134.2763861426462
 30
0.0
 10
88.60303274694647
 20
-134.2763861426462
 30
0.0
 10
88.47211911850698
 20
-134.3418429568659
 30
0.0
 10
88.47211911850698
 20
-134.5213324316474
 30
0.0
 10
88.47211911850698
 20
-134.7583550010326
 30
0.0
 10
88.70259600647019
 20
-134.7659342111002
 30
0.0
 10
88.81904023387163
 20
-134.769723816134
 30
0.0
 10
88.81904023387163
 20
-134.769723816134
 30
0.0
 10
88.81904023387163
 20
-134.9740179784093
 30
0.0
 10
88.81904023387163
 20
-134.9740179784093
 30
0.0
 10
88.69191621046592
 20
-134.9664387683417
 30
0.0
 10
88.5799506071953
 20
-134.956792500983
 30
0.0
 10
88.4614393225027
 20
-134.8834119671472
 30
0.0
 10
88.30055336334154
 20
-134.7831596885264
 30
0.0
 10
88.26679142758609
 20
-134.6136609906521
 30
0.0
 10
88.26679142758609
 20
-134.5075520497064
 30
0.0
 10
88.26679142758609
 20
-134.2553710601861
 30
0.0
 10
88.45075952649843
 20
-134.066235318046
 30
0.0
 10
88.72361108893021
 20
-134.066235318046
 30
0.0
 10
88.9523654291508
 20
-134.066235318046
 30
0.0
 10
89.051584179126
 20
-134.1723442589916
 30
0.0
 10
89.27792695250692
 20
-134.4538085601366
 30
0.0
  0
HATCH
  5
168
330
161
100
AcDbEntity
  8
_U+30EC_U+30A4_U+30E4_U+30FC 1
 62
   179
420
  2234388
100
AcDbHatch
 10
0.0
 20
0.0
 30
0.0
210
0.0
220
0.0
230
1.0
  2
SOLID
 70
     1
 71
     0
 91
        1
 92
        1
 93
        1
 72
     4
 94
        3
 73
     0
 74
     1
 95
       44
 96
       40
 40
0.0
 40
0.0
 40
0.0
 40
0.0
 40
1.0
 40
1.0
 40
1.0
 40
2.0
 40
2.0
 40
2.0
 40
3.0
 40
3.0
 40
3.0
 40
4.0
 40
4.0
 40
4.0
 40
5.0
 40
5.0
 40
5.0
 40
6.0
 40
6.0
 40
6.0
 40
7.0
 40
7.0
 40
7.0
 40
8.0
 40
8.0
 40
8.0
 40
9.0
 40
9.0
 40
9.0
 40
10.0
 40
10.0
 40
10.0
 40
11.0
 40
11.0
 40
11.0
 40
12.0
 40
12.0
 40
12.0
 40
13.0
 40
13.0
 40
13.0
 40
13.0
 10
89.27792695250692
 20
-134.4538085601366
 10
89.43674585437692
 20
-134.652246060087
 10
89.5108154073098
 20
-134.7369954090241
 10
89.65447588904472
 20
-134.7814371407838
 10
89.65447588904472
 20
-134.7814371407838
 10
89.65447588904472
 20
-134.0720919803709
 10
89.65447588904472
 20
-134.0720919803709
 10
89.65447588904472
 20
-134.0720919803709
 10
89.85980357996561
 20
-134.0720919803709
 10
89.85980357996561
 20
-134.0720919803709
 10
89.85980357996561
 20
-134.0720919803709
 10
89.85980357996561
 20
-135.0088134428103
 10
89.85980357996561
 20
-135.0088134428103
 10
89.50220266859668
 20
-134.9798746407342
 10
89.4239990010815
 20
-134.9202744888394
 10
89.12565373205886
 20
-134.5692192588924
 10
88.92687172255995
 20
-134.3363308040895
 10
88.85900334150053
 20
-134.2763861426462
 10
88.72154403163906
 20
-134.2763861426462
 10
88.60303274694647
 20
-134.2763861426462
 10
88.47211911850698
 20
-134.3418429568659
 10
88.47211911850698
 20
-134.5213324316474
 10
88.47211911850698
 20
-134.7583550010326
 10
88.70259600647019
 20
-134.7659342111002
 10
88.81904023387163
 20
-134.769723816134
 10
88.81904023387163
 20
-134.769723816134
 10
88.81904023387163
 20
-134.9740179784093
 10
88.81904023387163
 20
-134.9740179784093
 10
88.69191621046592
 20
-134.9664387683417
 10
88.5799506071953
 20
-134.956792500983
 10
88.4614393225027
 20
-134.8834119671472
 10
88.30055336334154
 20
-134.7831596885264
 10
88.26679142758609
 20
-134.6136609906521
 10
88.26679142758609
 20
-134.5075520497064
 10
88.26679142758609
 20
-134.2553710601861
 10
88.45075952649843
 20
-134.066235318046
 10
88.72361108893021
 20
-134.066235318046
 10
88.9523654291508
 20
-134.066235318046
 10
89.051584179126
 20
-134.1723442589916
 10
89.27792695250692
 20
-134.4538085601366
 97
        0
 97
        0
 75
     2
 76
     1
 98
        0
  0
ENDBLK
  5
164
330
161
100
AcDbEntity
  8
0
100
AcDbBlockEnd
  0
ENDSEC
  0
SECTION
  2
ENTITIES
  0
POLYLINE
  5
41
330
1F
100
AcDbEntity
  8
_U+30EC_U+30A4_U+30E4_U+30FC 1
 62
     7
420
 16777215
370
     9
100
AcDb2dPolyline
 66
     1
 10
0.0
 20
0.0
 30
0.0
  0
VERTEX
  5
42
330
41
100
AcDbEntity
  8
_U+30EC_U+30A4_U+30E4_U+30FC 1
 62
     7
420
 16777215
370
     9
100
AcDbVertex
100
AcDb2dVertex
 10
75.96952833963364
 20
-122.047670247266
 30
0.0
  0
VERTEX
  5
43
330
41
100
AcDbEntity
  8
_U+30EC_U+30A4_U+30E4_U+30FC 1
 62
     7
420
 16777215
370
     9
100
AcDbVertex
100
AcDb2dVertex
 10
76.10182000292527
 20
-122.7091285804339
 30
0.0
  0
VERTEX
  5
44
330
41
100
AcDbEntity
  8
_U+30EC_U+30A4_U+30E4_U+30FC 1
 62
     7
420
 16777215
370
     9
100
AcDbVertex
100
AcDb2dVertex
 10
77.3365421936471
 20
-122.7091285804339
 30
0.0
  0
SEQEND
  5
45
330
41
100
AcDbEntity
  8
_U+30EC_U+30A4_U+30E4_U+30FC 1
 62
     7
420
 16777215
370
     9
  0
POLYLINE
  5
46
330
1F
100
AcDbEntity
  8
_U+30EC_U+30A4_U+30E4_U+30FC 1
 62
     7
420
 16777215
370
     9
100
AcDb2dPolyline
 66
     1
 10
0.0
 20
0.0
 30
0.0
  0
VERTEX
  5
47
330
46
100
AcDbEntity
  8
_U+30EC_U+30A4_U+30E4_U+30FC 1
 62
     7
420
 16777215
370
     9
100
AcDbVertex
100
AcDb2dVertex
 10
76.10182000292527
 20
-127.6480174680881
 30
0.0
  0
VERTEX
  5
48
330
46
100
AcDbEntity
  8
_U+30EC_U+30A4_U+30E4_U+30FC 1
 62
     7
420
 16777215
370
     9
100
AcDbVertex
100
AcDb2dVertex
 10
76.14591722402247
 20
-127.0968021904481
 30
0.0
  0
VERTEX
  5
49
330
46
100
AcDbEntity
  8
_U+30EC_U+30A4_U+30E4_U+30FC 1
 62
     7
420
 16777215
370
     9
100
AcDbVertex
100
AcDb2dVertex
 10
77.38063941474431
 20
-127.0968021904481
 30
0.0
  0
SEQEND
  5
4A
330
46
100
AcDbEntity
  8
_U+30EC_U+30A4_U+30E4_U+30FC 1
 62
     7
420
 16777215
370
     9
  0
SPLINE
  5
4B
330
1F
100
AcDbEntity
  8
_U+30EC_U+30A4_U+30E4_U+30FC 1
 62
     7
420
 16777215
370
     9
100
AcDbSpline
210
0.0
220
0.0
230
1.0
 70
     8
 71
     3
 72
     8
 73
     4
 74
     0
 42
0.0000000001
 43
0.0000000001
 12
1.0
 22
0.0
 32
0.0
 13
1.0
 23
0.0
 33
0.0
 40
0.0
 40
0.0
 40
0.0
 40
0.0
 40
1.0
 40
1.0
 40
1.0
 40
1.0
 10
76.10182000292527
 20
-122.7091285804339
 30
0.0
 10
76.10182000292527
 20
-122.7091285804339
 30
0.0
 10
75.2419241915297
 20
-125.3108646908946
 30
0.0
 10
76.14591722402247
 20
-127.0968021904481
 30
0.0
  0
SPLINE
  5
4C
330
1F
100
AcDbEntity
  8
_U+30EC_U+30A4_U+30E4_U+30FC 1
 62
     7
420
 16777215
370
     9
100
AcDbSpline
210
0.0
220
0.0
230
1.0
 70
     8
 71
     3
 72
    35
 73
    31
 74
     0
 42
0.0000000001
 43
0.0000000001
 12
1.0
 22
0.0
 32
0.0
 13
1.0
 23
0.0
 33
0.0
 40
0.0
 40
0.0
 40
0.0
 40
0.0
 40
1.0
 40
1.0
 40
1.0
 40
2.0
 40
2.0
 40
2.0
 40
3.0
 40
3.0
 40
3.0
 40
4.0
 40
4.0
 40
4.0
 40
5.0
 40
5.0
 40
5.0
 40
6.0
 40
6.0
 40
6.0
 40
7.0
 40
7.0
 40
7.0
 40
8.0
 40
8.0
 40
8.0
 40
9.0
 40
9.0
 40
9.0
 40
10.0
 40
10.0
 40
10.0
 40
10.0
 10
82.36362539872886
 20
-129.411906356536
 30
0.0
 10
82.36362539872886
 20
-129.411906356536
 30
0.0
 10
82.36362539872886
 20
-134.6153785774574
 30
0.0
 10
82.36362539872886
 20
-134.6153785774574
 30
0.0
 10
82.36362539872886
 20
-134.6153785774574
 30
0.0
 10
82.5841115042149
 20
-136.1146841326381
 30
0.0
 10
83.86293091603395
 20
-136.1146841326381
 30
0.0
 10
83.86293091603395
 20
-136.1146841326381
 30
0.0
 10
85.2078961594988
 20
-136.0485382993213
 30
0.0
 10
85.40633365443624
 20
-134.9240591329358
 30
0.0
 10
85.40633365443624
 20
-134.9240591329358
 30
0.0
 10
85.40633365443624
 20
-132.6751008001646
 30
0.0
 10
85.40633365443624
 20
-132.6751008001646
 30
0.0
 10
85.40633365443624
 20
-132.6751008001646
 30
0.0
 10
85.42838226498485
 20
-131.8152049670463
 30
0.0
 10
86.15598641308878
 20
-131.7931563559407
 30
0.0
 10
86.15598641308878
 20
-131.7931563559407
 30
0.0
 10
87.03793083503295
 20
-131.7049619115183
 30
0.0
 10
87.10407666667876
 20
-132.7632952445871
 30
0.0
 10
87.10407666667876
 20
-132.7632952445871
 30
0.0
 10
87.10407666667876
 20
-134.7917674663022
 30
0.0
 10
87.10407666667876
 20
-134.7917674663022
 30
0.0
 10
87.10407666667876
 20
-134.7917674663022
 30
0.0
 10
87.05997944558155
 20
-137.5919410767132
 30
0.0
 10
84.1275142426172
 20
-137.8344757988748
 30
0.0
 10
84.1275142426172
 20
-137.8344757988748
 30
0.0
 10
81.32734070294445
 20
-137.9226702432972
 30
0.0
 10
80.64383377593774
 20
-135.0563507995693
 30
0.0
 10
80.64383377593774
 20
-135.0563507995693
 30
0.0
 10
80.59973655484052
 20
-129.4560035787472
 30
0.0
 10
80.59973655484052
 20
-129.4560035787472
 30
0.0
  0
SPLINE
  5
4D
330
1F
100
AcDbEntity
  8
_U+30EC_U+30A4_U+30E4_U+30FC 1
 62
   179
420
  2234388
370
     9
100
AcDbSpline
210
0.0
220
0.0
230
1.0
 70
    11
 71
     3
 72
    17
 73
    13
 74
     0
 42
0.0000000001
 43
0.0000000001
 12
1.0
 22
0.0
 32
0.0
 13
1.0
 23
0.0
 33
0.0
 40
0.0
 40
0.0
 40
0.0
 40
0.0
 40
1.0
 40
1.0
 40
1.0
 40
2.0
 40
2.0
 40
2.0
 40
3.0
 40
3.0
 40
3.0
 40
4.0
 40
4.0
 40
4.0
 40
4.0
 10
97.23334946381503
 20
-121.9643088583977
 30
0.0
 10
97.23334946381503
 20
-121.9360513584048
 30
0.0
 10
97.21130085326644
 20
-121.9140027472992
 30
0.0
 10
97.18371363174802
 20
-121.9140027472992
 30
0.0
 10
97.1554914102458
 20
-121.9140027472992
 30
0.0
 10
97.1334427996972
 20
-121.9360513584048
 30
0.0
 10
97.1334427996972
 20
-121.9643088583977
 30
0.0
 10
97.1334427996972
 20
-121.9918608028355
 30
0.0
 10
97.1554914102458
 20
-122.0139094139411
 30
0.0
 10
97.18371363174802
 20
-122.0139094139411
 30
0.0
 10
97.21130085326644
 20
-122.0139094139411
 30
0.0
 10
97.23334946381503
 20
-121.9918608028355
 30
0.0
 10
97.23334946381503
 20
-121.9643088583977
 30
0.0
  0
SPLINE
  5
4E
330
1F
100
AcDbEntity
  8
_U+30EC_U+30A4_U+30E4_U+30FC 1
 62
   179
420
  2234388
370
     9
100
AcDbSpline
210
0.0
220
0.0
230
1.0
 70
    11
 71
     3
 72
    17
 73
    13
 74
     0
 42
0.0000000001
 43
0.0000000001
 12
1.0
 22
0.0
 32
0.0
 13
1.0
 23
0.0
 33
0.0
 40
0.0
 40
0.0
 40
0.0
 40
0.0
 40
1.0
 40
1.0
 40
1.0
 40
2.0
 40
2.0
 40
2.0
 40
3.0
 40
3.0
 40
3.0
 40
4.0
 40
4.0
 40
4.0
 40
4.0
 10
99.80683053060366
 20
-121.9643088583977
 30
0.0
 10
99.80683053060366
 20
-121.9360513584048
 30
0.0
 10
99.78477939872263
 20
-121.9140027472992
 30
0.0
 10
99.7572274549811
 20
-121.9140027472992
 30
0.0
 10
99.72964023346269
 20
-121.9140027472992
 30
0.0
 10
99.7069213451534
 20
-121.9360513584048
 30
0.0
 10
99.7069213451534
 20
-121.9643088583977
 30
0.0
 10
99.7069213451534
 20
-121.9918608028355
 30
0.0
 10
99.72964023346269
 20
-122.0139094139411
 30
0.0
 10
99.7572274549811
 20
-122.0139094139411
 30
0.0
 10
99.78477939872263
 20
-122.0139094139411
 30
0.0
 10
99.80683053060366
 20
-121.9918608028355
 30
0.0
 10
99.80683053060366
 20
-121.9643088583977
 30
0.0
  0
SPLINE
  5
4F
330
1F
100
AcDbEntity
  8
_U+30EC_U+30A4_U+30E4_U+30FC 1
 62
   179
420
  2234388
370
     9
100
AcDbSpline
210
0.0
220
0.0
230
1.0
 70
    11
 71
     3
 72
    17
 73
    13
 74
     0
 42
0.0000000001
 43
0.0000000001
 12
1.0
 22
0.0
 32
0.0
 13
1.0
 23
0.0
 33
0.0
 40
0.0
 40
0.0
 40
0.0
 40
0.0
 40
1.0
 40
1.0
 40
1.0
 40
2.0
 40
2.0
 40
2.0
 40
3.0
 40
3.0
 40
3.0
 40
4.0
 40
4.0
 40
4.0
 40
4.0
 10
97.23334946381503
 20
-137.8916610766381
 30
0.0
 10
97.23334946381503
 20
-137.8641091322004
 30
0.0
 10
97.21130085326644
 20
-137.8413549655399
 30
0.0
 10
97.18371363174802
 20
-137.8413549655399
 30
0.0
 10
97.1554914102458
 20
-137.8413549655399
 30
0.0
 10
97.1334427996972
 20
-137.8641091322004
 30
0.0
 10
97.1334427996972
 20
-137.8916610766381
 30
0.0
 10
97.1334427996972
 20
-137.9192130210759
 30
0.0
 10
97.1554914102458
 20
-137.9412616321815
 30
0.0
 10
97.18371363174802
 20
-137.9412616321815
 30
0.0
 10
97.21130085326644
 20
-137.9412616321815
 30
0.0
 10
97.23334946381503
 20
-137.9192130210759
 30
0.0
 10
97.23334946381503
 20
-137.8916610766381
 30
0.0
  0
POLYLINE
  5
50
330
1F
100
AcDbEntity
  8
_U+30EC_U+30A4_U+30E4_U+30FC 1
 62
   179
420
  2234388
370
     9
100
AcDb2dPolyline
 66
     1
 10
0.0
 20
0.0
 30
0.0
  0
VERTEX
  5
51
330
50
100
AcDbEntity
  8
_U+30EC_U+30A4_U+30E4_U+30FC 1
 62
   179
420
  2234388
370
     9
100
AcDbVertex
100
AcDb2dVertex
 10
97.18371363174802
 20
-121.96395608062
 30
0.0
  0
VERTEX
  5
52
330
50
100
AcDbEntity
  8
_U+30EC_U+30A4_U+30E4_U+30FC 1
 62
   179
420
  2234388
370
     9
100
AcDbVertex
100
AcDb2dVertex
 10
97.18371363174802
 20
-137.8916610766381
 30
0.0
  0
SEQEND
  5
53
330
50
100
AcDbEntity
  8
_U+30EC_U+30A4_U+30E4_U+30FC 1
 62
   179
420
  2234388
370
     9
  0
POLYLINE
  5
54
330
1F
100
AcDbEntity
  8
_U+30EC_U+30A4_U+30E4_U+30FC 1
 62
   179
420
  2234388
370
     9
100
AcDb2dPolyline
 66
     1
 10
0.0
 20
0.0
 30
0.0
  0
VERTEX
  5
55
330
54
100
AcDbEntity
  8
_U+30EC_U+30A4_U+30E4_U+30FC 1
 62
   179
420
  2234388
370
     9
100
AcDbVertex
100
AcDb2dVertex
 10
101.6216932407479
 20
-121.9643088583977
 30
0.0
  0
VERTEX
  5
56
330
54
100
AcDbEntity
  8
_U+30EC_U+30A4_U+30E4_U+30FC 1
 62
   179
420
  2234388
370
     9
100
AcDbVertex
100
AcDb2dVertex
 10
96.68351003339816
 20
-121.9643088583977
 30
0.0
  0
SEQEND
  5
57
330
54
100
AcDbEntity
  8
_U+30EC_U+30A4_U+30E4_U+30FC 1
 62
   179
420
  2234388
370
     9
  0
POLYLINE
  5
58
330
1F
100
AcDbEntity
  8
_U+30EC_U+30A4_U+30E4_U+30FC 1
 62
   179
420
  2234388
370
     9
100
AcDb2dPolyline
 66
     1
 10
0.0
 20
0.0
 30
0.0
  0
VERTEX
  5
59
330
58
100
AcDbEntity
  8
_U+30EC_U+30A4_U+30E4_U+30FC 1
 62
   179
420
  2234388
370
     9
100
AcDbVertex
100
AcDb2dVertex
 10
101.3550638031058
 20
-137.8916610766381
 30
0.0
  0
VERTEX
  5
5A
330
58
100
AcDbEntity
  8
_U+30EC_U+30A4_U+30E4_U+30FC 1
 62
   179
420
  2234388
370
     9
100
AcDbVertex
100
AcDb2dVertex
 10
96.68351003339816
 20
-137.8916610766381
 30
0.0
  0
SEQEND
  5
5B
330
58
100
AcDbEntity
  8
_U+30EC_U+30A4_U+30E4_U+30FC 1
 62
   179
420
  2234388
370
     9
  0
INSERT
  5
5D
330
1F
100
AcDbEntity
  8
_U+30EC_U+30A4_U+30E4_U+30FC 1
100
AcDbBlockReference
  2
block 2
 10
0.0
 20
0.0
 30
0.0
  0
SPLINE
  5
64
330
1F
100
AcDbEntity
  8
_U+30EC_U+30A4_U+30E4_U+30FC 1
 62
   179
420
  2234388
370
     9
100
AcDbSpline
210
0.0
220
0.0
230
1.0
 70
    11
 71
     3
 72
    17
 73
    13
 74
     0
 42
0.0000000001
 43
0.0000000001
 12
1.0
 22
0.0
 32
0.0
 13
1.0
 23
0.0
 33
0.0
 40
0.0
 40
0.0
 40
0.0
 40
0.0
 40
1.0
 40
1.0
 40
1.0
 40
2.0
 40
2.0
 40
2.0
 40
3.0
 40
3.0
 40
3.0
 40
4.0
 40
4.0
 40
4.0
 40
4.0
 10
97.20096446464125
 20
-137.8916610766381
 30
0.0
 10
97.20096446464125
 20
-137.9013271877471
 30
0.0
 10
97.19337974261252
 20
-137.9089119099671
 30
0.0
 10
97.18371363174802
 20
-137.9089119099671
 30
0.0
 10
97.17337724312283
 20
-137.9089119099671
 30
0.0
 10
97.16582779887099
 20
-137.9013271877471
 30
0.0
 10
97.16582779887099
 20
-137.8916610766381
 30
0.0
 10
97.16582779887099
 20
-137.8820302433073
 30
0.0
 10
97.17337724312283
 20
-137.8737399655318
 30
0.0
 10
97.18371363174802
 20
-137.8737399655318
 30
0.0
 10
97.19337974261252
 20
-137.8737399655318
 30
0.0
 10
97.20096446464125
 20
-137.8820302433073
 30
0.0
 10
97.20096446464125
 20
-137.8916610766381
 30
0.0
  0
SPLINE
  5
65
330
1F
100
AcDbEntity
  8
_U+30EC_U+30A4_U+30E4_U+30FC 1
 62
   179
420
  2234388
370
     9
100
AcDbSpline
210
0.0
220
0.0
230
1.0
 70
    11
 71
     3
 72
    17
 73
    13
 74
     0
 42
0.0000000001
 43
0.0000000001
 12
1.0
 22
0.0
 32
0.0
 13
1.0
 23
0.0
 33
0.0
 40
0.0
 40
0.0
 40
0.0
 40
0.0
 40
1.0
 40
1.0
 40
1.0
 40
2.0
 40
2.0
 40
2.0
 40
3.0
 40
3.0
 40
3.0
 40
4.0
 40
4.0
 40
4.0
 40
4.0
 10
99.80683053060366
 20
-137.8916610766381
 30
0.0
 10
99.80683053060366
 20
-137.8641091322004
 30
0.0
 10
99.78477939872263
 20
-137.8413549655399
 30
0.0
 10
99.7572274549811
 20
-137.8413549655399
 30
0.0
 10
99.72896995570201
 20
-137.8413549655399
 30
0.0
 10
99.7069213451534
 20
-137.8641091322004
 30
0.0
 10
99.7069213451534
 20
-137.8916610766381
 30
0.0
 10
99.7069213451534
 20
-137.9192130210759
 30
0.0
 10
99.72896995570201
 20
-137.9412616321815
 30
0.0
 10
99.7572274549811
 20
-137.9412616321815
 30
0.0
 10
99.78477939872263
 20
-137.9412616321815
 30
0.0
 10
99.80683053060366
 20
-137.9192130210759
 30
0.0
 10
99.80683053060366
 20
-137.8916610766381
 30
0.0
  0
POLYLINE
  5
66
330
1F
100
AcDbEntity
  8
_U+30EC_U+30A4_U+30E4_U+30FC 1
 62
   179
420
  2234388
370
     9
100
AcDb2dPolyline
 66
     1
 10
0.0
 20
0.0
 30
0.0
  0
VERTEX
  5
67
330
66
100
AcDbEntity
  8
_U+30EC_U+30A4_U+30E4_U+30FC 1
 62
   179
420
  2234388
370
     9
100
AcDbVertex
100
AcDb2dVertex
 10
99.7572274549811
 20
-121.96395608062
 30
0.0
  0
VERTEX
  5
68
330
66
100
AcDbEntity
  8
_U+30EC_U+30A4_U+30E4_U+30FC 1
 62
   179
420
  2234388
370
     9
100
AcDbVertex
100
AcDb2dVertex
 10
99.7572274549811
 20
-137.8916610766381
 30
0.0
  0
SEQEND
  5
69
330
66
100
AcDbEntity
  8
_U+30EC_U+30A4_U+30E4_U+30FC 1
 62
   179
420
  2234388
370
     9
  0
SPLINE
  5
6A
330
1F
100
AcDbEntity
  8
_U+30EC_U+30A4_U+30E4_U+30FC 1
 62
   179
420
  2234388
370
     9
100
AcDbSpline
210
0.0
220
0.0
230
1.0
 70
    11
 71
     3
 72
    17
 73
    13
 74
     0
 42
0.0000000001
 43
0.0000000001
 12
1.0
 22
0.0
 32
0.0
 13
1.0
 23
0.0
 33
0.0
 40
0.0
 40
0.0
 40
0.0
 40
0.0
 40
1.0
 40
1.0
 40
1.0
 40
2.0
 40
2.0
 40
2.0
 40
3.0
 40
3.0
 40
3.0
 40
4.0
 40
4.0
 40
4.0
 40
4.0
 10
99.80683053060366
 20
-129.5035580231797
 30
0.0
 10
99.80683053060366
 20
-129.475300523187
 30
0.0
 10
99.78477939872263
 20
-129.4532519120814
 30
0.0
 10
99.7572274549811
 20
-129.4532519120814
 30
0.0
 10
99.72896995570201
 20
-129.4532519120814
 30
0.0
 10
99.7069213451534
 20
-129.475300523187
 30
0.0
 10
99.7069213451534
 20
-129.5035580231797
 30
0.0
 10
99.7069213451534
 20
-129.5311099676175
 30
0.0
 10
99.72896995570201
 20
-129.5531585787231
 30
0.0
 10
99.7572274549811
 20
-129.5531585787231
 30
0.0
 10
99.78477939872263
 20
-129.5531585787231
 30
0.0
 10
99.80683053060366
 20
-129.5311099676175
 30
0.0
 10
99.80683053060366
 20
-129.5035580231797
 30
0.0
  0
POLYLINE
  5
6B
330
1F
100
AcDbEntity
  8
_U+30EC_U+30A4_U+30E4_U+30FC 1
 62
   179
420
  2234388
370
     9
100
AcDb2dPolyline
 66
     1
 10
0.0
 20
0.0
 30
0.0
  0
VERTEX
  5
6C
330
6B
100
AcDbEntity
  8
_U+30EC_U+30A4_U+30E4_U+30FC 1
 62
   179
420
  2234388
370
     9
100
AcDbVertex
100
AcDb2dVertex
 10
100.3545860508523
 20
-129.5035580231797
 30
0.0
  0
VERTEX
  5
6D
330
6B
100
AcDbEntity
  8
_U+30EC_U+30A4_U+30E4_U+30FC 1
 62
   179
420
  2234388
370
     9
100
AcDbVertex
100
AcDb2dVertex
 10
99.25698857885436
 20
-129.5035580231797
 30
0.0
  0
SEQEND
  5
6E
330
6B
100
AcDbEntity
  8
_U+30EC_U+30A4_U+30E4_U+30FC 1
 62
   179
420
  2234388
370
     9
  0
INSERT
  5
70
330
1F
100
AcDbEntity
  8
_U+30EC_U+30A4_U+30E4_U+30FC 1
100
AcDbBlockReference
  2
block 3
 10
0.0
 20
0.0
 30
0.0
  0
INSERT
  5
78
330
1F
100
AcDbEntity
  8
_U+30EC_U+30A4_U+30E4_U+30FC 1
100
AcDbBlockReference
  2
block 4
 10
0.0
 20
0.0
 30
0.0
  0
SPLINE
  5
7F
330
1F
100
AcDbEntity
  8
_U+30EC_U+30A4_U+30E4_U+30FC 1
 62
   179
420
  2234388
370
     9
100
AcDbSpline
210
0.0
220
0.0
230
1.0
 70
    11
 71
     3
 72
    17
 73
    13
 74
     0
 42
0.0000000001
 43
0.0000000001
 12
1.0
 22
0.0
 32
0.0
 13
1.0
 23
0.0
 33
0.0
 40
0.0
 40
0.0
 40
0.0
 40
0.0
 40
1.0
 40
1.0
 40
1.0
 40
2.0
 40
2.0
 40
2.0
 40
3.0
 40
3.0
 40
3.0
 40
4.0
 40
4.0
 40
4.0
 40
4.0
 10
99.77444301009746
 20
-137.8916610766381
 30
0.0
 10
99.77444301009746
 20
-137.9013271877471
 30
0.0
 10
99.76685828806873
 20
-137.9089119099671
 30
0.0
 10
99.7572274549811
 20
-137.9089119099671
 30
0.0
 10
99.74689106635591
 20
-137.9089119099671
 30
0.0
 10
99.73930634432719
 20
-137.9013271877471
 30
0.0
 10
99.73930634432719
 20
-137.8916610766381
 30
0.0
 10
99.73930634432719
 20
-137.8820302433073
 30
0.0
 10
99.74689106635591
 20
-137.8737399655318
 30
0.0
 10
99.7572274549811
 20
-137.8737399655318
 30
0.0
 10
99.76685828806873
 20
-137.8737399655318
 30
0.0
 10
99.77444301009746
 20
-137.8820302433073
 30
0.0
 10
99.77444301009746
 20
-137.8916610766381
 30
0.0
  0
SPLINE
  5
80
330
1F
100
AcDbEntity
  8
_U+30EC_U+30A4_U+30E4_U+30FC 1
 62
   179
420
  2234388
370
     9
100
AcDbSpline
210
0.0
220
0.0
230
1.0
 70
    11
 71
     3
 72
    17
 73
    13
 74
     0
 42
0.0000000001
 43
0.0000000001
 12
1.0
 22
0.0
 32
0.0
 13
1.0
 23
0.0
 33
0.0
 40
0.0
 40
0.0
 40
0.0
 40
0.0
 40
1.0
 40
1.0
 40
1.0
 40
2.0
 40
2.0
 40
2.0
 40
3.0
 40
3.0
 40
3.0
 40
4.0
 40
4.0
 40
4.0
 40
4.0
 10
107.1958642096501
 20
-119.1713671924295
 30
0.0
 10
107.1958642096501
 20
-119.1438152479917
 30
0.0
 10
107.1738155991015
 20
-119.1210610813309
 30
0.0
 10
107.14626365536
 20
-119.1210610813309
 30
0.0
 10
107.1187117116184
 20
-119.1210610813309
 30
0.0
 10
107.0959575455323
 20
-119.1438152479917
 30
0.0
 10
107.0959575455323
 20
-119.1713671924295
 30
0.0
 10
107.0959575455323
 20
-119.1989191368669
 30
0.0
 10
107.1187117116184
 20
-119.2209677479726
 30
0.0
 10
107.14626365536
 20
-119.2209677479726
 30
0.0
 10
107.1738155991015
 20
-119.2209677479726
 30
0.0
 10
107.1958642096501
 20
-119.1989191368669
 30
0.0
 10
107.1958642096501
 20
-119.1713671924295
 30
0.0
  0
SPLINE
  5
81
330
1F
100
AcDbEntity
  8
_U+30EC_U+30A4_U+30E4_U+30FC 1
 62
   179
420
  2234388
370
     9
100
AcDbSpline
210
0.0
220
0.0
230
1.0
 70
    11
 71
     3
 72
    17
 73
    13
 74
     0
 42
0.0000000001
 43
0.0000000001
 12
1.0
 22
0.0
 32
0.0
 13
1.0
 23
0.0
 33
0.0
 40
0.0
 40
0.0
 40
0.0
 40
0.0
 40
1.0
 40
1.0
 40
1.0
 40
2.0
 40
2.0
 40
2.0
 40
3.0
 40
3.0
 40
3.0
 40
4.0
 40
4.0
 40
4.0
 40
4.0
 10
102.2493907247341
 20
-119.1713671924295
 30
0.0
 10
102.2493907247341
 20
-119.1438152479917
 30
0.0
 10
102.2273421141854
 20
-119.1210610813309
 30
0.0
 10
102.1997901704439
 20
-119.1210610813309
 30
0.0
 10
102.1715326711648
 20
-119.1210610813309
 30
0.0
 10
102.1494840606162
 20
-119.1438152479917
 30
0.0
 10
102.1494840606162
 20
-119.1713671924295
 30
0.0
 10
102.1494840606162
 20
-119.1989191368669
 30
0.0
 10
102.1715326711648
 20
-119.2209677479726
 30
0.0
 10
102.1997901704439
 20
-119.2209677479726
 30
0.0
 10
102.2273421141854
 20
-119.2209677479726
 30
0.0
 10
102.2493907247341
 20
-119.1989191368669
 30
0.0
 10
102.2493907247341
 20
-119.1713671924295
 30
0.0
  0
POLYLINE
  5
82
330
1F
100
AcDbEntity
  8
_U+30EC_U+30A4_U+30E4_U+30FC 1
 62
   179
420
  2234388
370
     9
100
AcDb2dPolyline
 66
     1
 10
0.0
 20
0.0
 30
0.0
  0
VERTEX
  5
83
330
82
100
AcDbEntity
  8
_U+30EC_U+30A4_U+30E4_U+30FC 1
 62
   179
420
  2234388
370
     9
100
AcDbVertex
100
AcDb2dVertex
 10
102.1997901704439
 20
-119.1713671924295
 30
0.0
  0
VERTEX
  5
84
330
82
100
AcDbEntity
  8
_U+30EC_U+30A4_U+30E4_U+30FC 1
 62
   179
420
  2234388
370
     9
100
AcDbVertex
100
AcDb2dVertex
 10
107.1455580998224
 20
-119.1713671924295
 30
0.0
  0
SEQEND
  5
85
330
82
100
AcDbEntity
  8
_U+30EC_U+30A4_U+30E4_U+30FC 1
 62
   179
420
  2234388
370
     9
  0
POLYLINE
  5
86
330
1F
100
AcDbEntity
  8
_U+30EC_U+30A4_U+30E4_U+30FC 1
 62
   179
420
  2234388
370
     9
100
AcDb2dPolyline
 66
     1
 10
0.0
 20
0.0
 30
0.0
  0
VERTEX
  5
87
330
86
100
AcDbEntity
  8
_U+30EC_U+30A4_U+30E4_U+30FC 1
 62
   179
420
  2234388
370
     9
100
AcDbVertex
100
AcDb2dVertex
 10
102.1997901704439
 20
-121.5264410807296
 30
0.0
  0
VERTEX
  5
88
330
86
100
AcDbEntity
  8
_U+30EC_U+30A4_U+30E4_U+30FC 1
 62
   179
420
  2234388
370
     9
100
AcDbVertex
100
AcDb2dVertex
 10
102.1997901704439
 20
-118.6711283036655
 30
0.0
  0
SEQEND
  5
89
330
86
100
AcDbEntity
  8
_U+30EC_U+30A4_U+30E4_U+30FC 1
 62
   179
420
  2234388
370
     9
  0
POLYLINE
  5
8A
330
1F
100
AcDbEntity
  8
_U+30EC_U+30A4_U+30E4_U+30FC 1
 62
   179
420
  2234388
370
     9
100
AcDb2dPolyline
 66
     1
 10
0.0
 20
0.0
 30
0.0
  0
VERTEX
  5
8B
330
8A
100
AcDbEntity
  8
_U+30EC_U+30A4_U+30E4_U+30FC 1
 62
   179
420
  2234388
370
     9
100
AcDbVertex
100
AcDb2dVertex
 10
107.14626365536
 20
-121.5264410807296
 30
0.0
  0
VERTEX
  5
8C
330
8A
100
AcDbEntity
  8
_U+30EC_U+30A4_U+30E4_U+30FC 1
 62
   179
420
  2234388
370
     9
100
AcDbVertex
100
AcDb2dVertex
 10
107.14626365536
 20
-118.6711283036655
 30
0.0
  0
SEQEND
  5
8D
330
8A
100
AcDbEntity
  8
_U+30EC_U+30A4_U+30E4_U+30FC 1
 62
   179
420
  2234388
370
     9
  0
INSERT
  5
8F
330
1F
100
AcDbEntity
  8
_U+30EC_U+30A4_U+30E4_U+30FC 1
100
AcDbBlockReference
  2
block 5
 10
0.0
 20
0.0
 30
0.0
  0
SPLINE
  5
9B
330
1F
100
AcDbEntity
  8
_U+30EC_U+30A4_U+30E4_U+30FC 1
 62
   179
420
  2234388
370
     9
100
AcDbSpline
210
0.0
220
0.0
230
1.0
 70
    11
 71
     3
 72
    17
 73
    13
 74
     0
 42
0.0000000001
 43
0.0000000001
 12
1.0
 22
0.0
 32
0.0
 13
1.0
 23
0.0
 33
0.0
 40
0.0
 40
0.0
 40
0.0
 40
0.0
 40
1.0
 40
1.0
 40
1.0
 40
2.0
 40
2.0
 40
2.0
 40
3.0
 40
3.0
 40
3.0
 40
4.0
 40
4.0
 40
4.0
 40
4.0
 10
107.1634792104763
 20
-119.1713671924295
 30
0.0
 10
107.1634792104763
 20
-119.1809980257603
 30
0.0
 10
107.1558971954332
 20
-119.1885827479806
 30
0.0
 10
107.14626365536
 20
-119.1885827479806
 30
0.0
 10
107.1365975444955
 20
-119.1885827479806
 30
0.0
 10
107.1283425447061
 20
-119.1809980257603
 30
0.0
 10
107.1283425447061
 20
-119.1713671924295
 30
0.0
 10
107.1283425447061
 20
-119.1617363590983
 30
0.0
 10
107.1365975444955
 20
-119.1534460813229
 30
0.0
 10
107.14626365536
 20
-119.1534460813229
 30
0.0
 10
107.1558971954332
 20
-119.1534460813229
 30
0.0
 10
107.1634792104763
 20
-119.1617363590983
 30
0.0
 10
107.1634792104763
 20
-119.1713671924295
 30
0.0
  0
SPLINE
  5
9C
330
1F
100
AcDbEntity
  8
_U+30EC_U+30A4_U+30E4_U+30FC 1
 62
   179
420
  2234388
370
     9
100
AcDbSpline
210
0.0
220
0.0
230
1.0
 70
    11
 71
     3
 72
    17
 73
    13
 74
     0
 42
0.0000000001
 43
0.0000000001
 12
1.0
 22
0.0
 32
0.0
 13
1.0
 23
0.0
 33
0.0
 40
0.0
 40
0.0
 40
0.0
 40
0.0
 40
1.0
 40
1.0
 40
1.0
 40
2.0
 40
2.0
 40
2.0
 40
3.0
 40
3.0
 40
3.0
 40
4.0
 40
4.0
 40
4.0
 40
4.0
 10
79.18862547972985
 20
-118.6211749703446
 30
0.0
 10
79.18862547972985
 20
-118.5936230259072
 30
0.0
 10
79.16657686918126
 20
-118.5708688592461
 30
0.0
 10
79.13902492543971
 20
-118.5708688592461
 30
0.0
 10
79.1114377039213
 20
-118.5708688592461
 30
0.0
 10
79.08871881561201
 20
-118.5936230259072
 30
0.0
 10
79.08871881561201
 20
-118.6211749703446
 30
0.0
 10
79.08871881561201
 20
-118.6487269147824
 30
0.0
 10
79.1114377039213
 20
-118.670775525888
 30
0.0
 10
79.13902492543971
 20
-118.670775525888
 30
0.0
 10
79.16657686918126
 20
-118.670775525888
 30
0.0
 10
79.18862547972985
 20
-118.6487269147824
 30
0.0
 10
79.18862547972985
 20
-118.6211749703446
 30
0.0
  0
SPLINE
  5
9D
330
1F
100
AcDbEntity
  8
_U+30EC_U+30A4_U+30E4_U+30FC 1
 62
   179
420
  2234388
370
     9
100
AcDbSpline
210
0.0
220
0.0
230
1.0
 70
    11
 71
     3
 72
    17
 73
    13
 74
     0
 42
0.0000000001
 43
0.0000000001
 12
1.0
 22
0.0
 32
0.0
 13
1.0
 23
0.0
 33
0.0
 40
0.0
 40
0.0
 40
0.0
 40
0.0
 40
1.0
 40
1.0
 40
1.0
 40
2.0
 40
2.0
 40
2.0
 40
3.0
 40
3.0
 40
3.0
 40
4.0
 40
4.0
 40
4.0
 40
4.0
 10
75.42106664781153
 20
-118.6211749703446
 30
0.0
 10
75.42106664781153
 20
-118.5936230259072
 30
0.0
 10
75.3990161319664
 20
-118.5708688592461
 30
0.0
 10
75.37146418822486
 20
-118.5708688592461
 30
0.0
 10
75.34320668894577
 20
-118.5708688592461
 30
0.0
 10
75.32115807839716
 20
-118.5936230259072
 30
0.0
 10
75.32115807839716
 20
-118.6211749703446
 30
0.0
 10
75.32115807839716
 20
-118.6487269147824
 30
0.0
 10
75.34320668894577
 20
-118.670775525888
 30
0.0
 10
75.37146418822486
 20
-118.670775525888
 30
0.0
 10
75.3990161319664
 20
-118.670775525888
 30
0.0
 10
75.42106664781153
 20
-118.6487269147824
 30
0.0
 10
75.42106664781153
 20
-118.6211749703446
 30
0.0
  0
POLYLINE
  5
9E
330
1F
100
AcDbEntity
  8
_U+30EC_U+30A4_U+30E4_U+30FC 1
 62
   179
420
  2234388
370
     9
100
AcDb2dPolyline
 66
     1
 10
0.0
 20
0.0
 30
0.0
  0
VERTEX
  5
9F
330
9E
100
AcDbEntity
  8
_U+30EC_U+30A4_U+30E4_U+30FC 1
 62
   179
420
  2234388
370
     9
100
AcDbVertex
100
AcDb2dVertex
 10
75.37146418822486
 20
-118.6211749703446
 30
0.0
  0
VERTEX
  5
A0
330
9E
100
AcDbEntity
  8
_U+30EC_U+30A4_U+30E4_U+30FC 1
 62
   179
420
  2234388
370
     9
100
AcDbVertex
100
AcDb2dVertex
 10
79.13902492543971
 20
-118.6211749703446
 30
0.0
  0
SEQEND
  5
A1
330
9E
100
AcDbEntity
  8
_U+30EC_U+30A4_U+30E4_U+30FC 1
 62
   179
420
  2234388
370
     9
  0
POLYLINE
  5
A2
330
1F
100
AcDbEntity
  8
_U+30EC_U+30A4_U+30E4_U+30FC 1
 62
   179
420
  2234388
370
     9
100
AcDb2dPolyline
 66
     1
 10
0.0
 20
0.0
 30
0.0
  0
VERTEX
  5
A3
330
A2
100
AcDbEntity
  8
_U+30EC_U+30A4_U+30E4_U+30FC 1
 62
   179
420
  2234388
370
     9
100
AcDbVertex
100
AcDb2dVertex
 10
75.37146418822486
 20
-120.9762488586448
 30
0.0
  0
VERTEX
  5
A4
330
A2
100
AcDbEntity
  8
_U+30EC_U+30A4_U+30E4_U+30FC 1
 62
   179
420
  2234388
370
     9
100
AcDbVertex
100
AcDb2dVertex
 10
75.37146418822486
 20
-118.1209713593588
 30
0.0
  0
SEQEND
  5
A5
330
A2
100
AcDbEntity
  8
_U+30EC_U+30A4_U+30E4_U+30FC 1
 62
   179
420
  2234388
370
     9
  0
POLYLINE
  5
A6
330
1F
100
AcDbEntity
  8
_U+30EC_U+30A4_U+30E4_U+30FC 1
 62
   179
420
  2234388
370
     9
100
AcDb2dPolyline
 66
     1
 10
0.0
 20
0.0
 30
0.0
  0
VERTEX
  5
A7
330
A6
100
AcDbEntity
  8
_U+30EC_U+30A4_U+30E4_U+30FC 1
 62
   179
420
  2234388
370
     9
100
AcDbVertex
100
AcDb2dVertex
 10
79.13902492543971
 20
-120.9762488586448
 30
0.0
  0
VERTEX
  5
A8
330
A6
100
AcDbEntity
  8
_U+30EC_U+30A4_U+30E4_U+30FC 1
 62
   179
420
  2234388
370
     9
100
AcDbVertex
100
AcDb2dVertex
 10
79.13902492543971
 20
-118.1209713593588
 30
0.0
  0
SEQEND
  5
A9
330
A6
100
AcDbEntity
  8
_U+30EC_U+30A4_U+30E4_U+30FC 1
 62
   179
420
  2234388
370
     9
  0
INSERT
  5
AB
330
1F
100
AcDbEntity
  8
_U+30EC_U+30A4_U+30E4_U+30FC 1
100
AcDbBlockReference
  2
block 6
 10
0.0
 20
0.0
 30
0.0
  0
INSERT
  5
CE
330
1F
100
AcDbEntity
  8
_U+30EC_U+30A4_U+30E4_U+30FC 1
100
AcDbBlockReference
  2
block 7
 10
0.0
 20
0.0
 30
0.0
  0
INSERT
  5
DE
330
1F
100
AcDbEntity
  8
_U+30EC_U+30A4_U+30E4_U+30FC 1
100
AcDbBlockReference
  2
block 8
 10
0.0
 20
0.0
 30
0.0
  0
SPLINE
  5
F1
330
1F
100
AcDbEntity
  8
_U+30EC_U+30A4_U+30E4_U+30FC 1
 62
   179
420
  2234388
370
     9
100
AcDbSpline
210
0.0
220
0.0
230
1.0
 70
    11
 71
     3
 72
    17
 73
    13
 74
     0
 42
0.0000000001
 43
0.0000000001
 12
1.0
 22
0.0
 32
0.0
 13
1.0
 23
0.0
 33
0.0
 40
0.0
 40
0.0
 40
0.0
 40
0.0
 40
1.0
 40
1.0
 40
1.0
 40
2.0
 40
2.0
 40
2.0
 40
3.0
 40
3.0
 40
3.0
 40
4.0
 40
4.0
 40
4.0
 40
4.0
 10
79.15624048055606
 20
-118.6211749703446
 30
0.0
 10
79.15624048055606
 20
-118.6308410814533
 30
0.0
 10
79.14865575852734
 20
-118.6384258036736
 30
0.0
 10
79.13902492543971
 20
-118.6384258036736
 30
0.0
 10
79.12935881457521
 20
-118.6384258036736
 30
0.0
 10
79.12110381478581
 20
-118.6308410814533
 30
0.0
 10
79.12110381478581
 20
-118.6211749703446
 30
0.0
 10
79.12110381478581
 20
-118.6115441370138
 30
0.0
 10
79.12935881457521
 20
-118.603253859238
 30
0.0
 10
79.13902492543971
 20
-118.603253859238
 30
0.0
 10
79.14865575852734
 20
-118.603253859238
 30
0.0
 10
79.15624048055606
 20
-118.6115441370138
 30
0.0
 10
79.15624048055606
 20
-118.6211749703446
 30
0.0
  0
SPLINE
  5
F2
330
1F
100
AcDbEntity
  8
_U+30EC_U+30A4_U+30E4_U+30FC 1
 62
   179
420
  2234388
370
     9
100
AcDbSpline
210
0.0
220
0.0
230
1.0
 70
    11
 71
     3
 72
    17
 73
    13
 74
     0
 42
0.0000000001
 43
0.0000000001
 12
1.0
 22
0.0
 32
0.0
 13
1.0
 23
0.0
 33
0.0
 40
0.0
 40
0.0
 40
0.0
 40
0.0
 40
1.0
 40
1.0
 40
1.0
 40
2.0
 40
2.0
 40
2.0
 40
3.0
 40
3.0
 40
3.0
 40
4.0
 40
4.0
 40
4.0
 40
4.0
 10
77.49088246748732
 20
-118.6211749703446
 30
0.0
 10
77.49088246748732
 20
-118.5936230259072
 30
0.0
 10
77.46883385693873
 20
-118.5708688592461
 30
0.0
 10
77.44128191319719
 20
-118.5708688592461
 30
0.0
 10
77.41369469167877
 20
-118.5708688592461
 30
0.0
 10
77.39097775843011
 20
-118.5936230259072
 30
0.0
 10
77.39097775843011
 20
-118.6211749703446
 30
0.0
 10
77.39097775843011
 20
-118.6487269147824
 30
0.0
 10
77.41369469167877
 20
-118.670775525888
 30
0.0
 10
77.44128191319719
 20
-118.670775525888
 30
0.0
 10
77.46883385693873
 20
-118.670775525888
 30
0.0
 10
77.49088246748732
 20
-118.6487269147824
 30
0.0
 10
77.49088246748732
 20
-118.6211749703446
 30
0.0
  0
POLYLINE
  5
F3
330
1F
100
AcDbEntity
  8
_U+30EC_U+30A4_U+30E4_U+30FC 1
 62
   179
420
  2234388
370
     9
100
AcDb2dPolyline
 66
     1
 10
0.0
 20
0.0
 30
0.0
  0
VERTEX
  5
F4
330
F3
100
AcDbEntity
  8
_U+30EC_U+30A4_U+30E4_U+30FC 1
 62
   179
420
  2234388
370
     9
100
AcDbVertex
100
AcDb2dVertex
 10
77.44128191319719
 20
-120.9762488586448
 30
0.0
  0
VERTEX
  5
F5
330
F3
100
AcDbEntity
  8
_U+30EC_U+30A4_U+30E4_U+30FC 1
 62
   179
420
  2234388
370
     9
100
AcDbVertex
100
AcDb2dVertex
 10
77.44128191319719
 20
-118.1209713593588
 30
0.0
  0
SEQEND
  5
F6
330
F3
100
AcDbEntity
  8
_U+30EC_U+30A4_U+30E4_U+30FC 1
 62
   179
420
  2234388
370
     9
  0
SPLINE
  5
F7
330
1F
100
AcDbEntity
  8
_U+30EC_U+30A4_U+30E4_U+30FC 1
 62
   179
420
  2234388
370
     9
100
AcDbSpline
210
0.0
220
0.0
230
1.0
 70
    11
 71
     3
 72
    17
 73
    13
 74
     0
 42
0.0000000001
 43
0.0000000001
 12
1.0
 22
0.0
 32
0.0
 13
1.0
 23
0.0
 33
0.0
 40
0.0
 40
0.0
 40
0.0
 40
0.0
 40
1.0
 40
1.0
 40
1.0
 40
2.0
 40
2.0
 40
2.0
 40
3.0
 40
3.0
 40
3.0
 40
4.0
 40
4.0
 40
4.0
 40
4.0
 10
77.45849746831354
 20
-118.6211749703446
 30
0.0
 10
77.45849746831354
 20
-118.6308410814533
 30
0.0
 10
77.45091274628481
 20
-118.6384258036736
 30
0.0
 10
77.44128191319719
 20
-118.6384258036736
 30
0.0
 10
77.43161580233269
 20
-118.6384258036736
 30
0.0
 10
77.42336080254329
 20
-118.6308410814533
 30
0.0
 10
77.42336080254329
 20
-118.6211749703446
 30
0.0
 10
77.42336080254329
 20
-118.6115441370138
 30
0.0
 10
77.43161580233269
 20
-118.603253859238
 30
0.0
 10
77.44128191319719
 20
-118.603253859238
 30
0.0
 10
77.45091274628481
 20
-118.603253859238
 30
0.0
 10
77.45849746831354
 20
-118.6115441370138
 30
0.0
 10
77.45849746831354
 20
-118.6211749703446
 30
0.0
  0
SPLINE
  5
F8
330
1F
100
AcDbEntity
  8
_U+30EC_U+30A4_U+30E4_U+30FC 1
 62
   179
420
  2234388
370
     9
100
AcDbSpline
210
0.0
220
0.0
230
1.0
 70
    11
 71
     3
 72
    17
 73
    13
 74
     0
 42
0.0000000001
 43
0.0000000001
 12
1.0
 22
0.0
 32
0.0
 13
1.0
 23
0.0
 33
0.0
 40
0.0
 40
0.0
 40
0.0
 40
0.0
 40
1.0
 40
1.0
 40
1.0
 40
2.0
 40
2.0
 40
2.0
 40
3.0
 40
3.0
 40
3.0
 40
4.0
 40
4.0
 40
4.0
 40
4.0
 10
72.71942203366187
 20
-121.8296183028758
 30
0.0
 10
72.69187008992034
 20
-121.8296183028758
 30
0.0
 10
72.66911592383418
 20
-121.8516669139814
 30
0.0
 10
72.66911592383418
 20
-121.8792188584192
 30
0.0
 10
72.66911592383418
 20
-121.9067708028566
 30
0.0
 10
72.69187008992034
 20
-121.9295249695178
 30
0.0
 10
72.71942203366187
 20
-121.9295249695178
 30
0.0
 10
72.74697397740341
 20
-121.9295249695178
 30
0.0
 10
72.76902258795201
 20
-121.9067708028566
 30
0.0
 10
72.76902258795201
 20
-121.8792188584192
 30
0.0
 10
72.76902258795201
 20
-121.8516669139814
 30
0.0
 10
72.74697397740341
 20
-121.8296183028758
 30
0.0
 10
72.71942203366187
 20
-121.8296183028758
 30
0.0
  0
POLYLINE
  5
F9
330
1F
100
AcDbEntity
  8
_U+30EC_U+30A4_U+30E4_U+30FC 1
 62
   179
420
  2234388
370
     9
100
AcDb2dPolyline
 66
     1
 10
0.0
 20
0.0
 30
0.0
  0
VERTEX
  5
FA
330
F9
100
AcDbEntity
  8
_U+30EC_U+30A4_U+30E4_U+30FC 1
 62
   179
420
  2234388
370
     9
100
AcDbVertex
100
AcDb2dVertex
 10
72.71942203366187
 20
-127.8275108013764
 30
0.0
  0
VERTEX
  5
FB
330
F9
100
AcDbEntity
  8
_U+30EC_U+30A4_U+30E4_U+30FC 1
 62
   179
420
  2234388
370
     9
100
AcDbVertex
100
AcDb2dVertex
 10
72.71942203366187
 20
-121.8798891361969
 30
0.0
  0
SEQEND
  5
FC
330
F9
100
AcDbEntity
  8
_U+30EC_U+30A4_U+30E4_U+30FC 1
 62
   179
420
  2234388
370
     9
  0
SPLINE
  5
FD
330
1F
100
AcDbEntity
  8
_U+30EC_U+30A4_U+30E4_U+30FC 1
 62
   179
420
  2234388
370
     9
100
AcDbSpline
210
0.0
220
0.0
230
1.0
 70
    11
 71
     3
 72
    17
 73
    13
 74
     0
 42
0.0000000001
 43
0.0000000001
 12
1.0
 22
0.0
 32
0.0
 13
1.0
 23
0.0
 33
0.0
 40
0.0
 40
0.0
 40
0.0
 40
0.0
 40
1.0
 40
1.0
 40
1.0
 40
2.0
 40
2.0
 40
2.0
 40
3.0
 40
3.0
 40
3.0
 40
4.0
 40
4.0
 40
4.0
 40
4.0
 10
72.71942203366187
 20
-127.6928202458545
 30
0.0
 10
72.69187008992034
 20
-127.6928202458545
 30
0.0
 10
72.66911592383418
 20
-127.7148688569601
 30
0.0
 10
72.66911592383418
 20
-127.7424208013979
 30
0.0
 10
72.66911592383418
 20
-127.7706783013905
 30
0.0
 10
72.69187008992034
 20
-127.7927269124961
 30
0.0
 10
72.71942203366187
 20
-127.7927269124961
 30
0.0
 10
72.74697397740341
 20
-127.7927269124961
 30
0.0
 10
72.76902258795201
 20
-127.7706783013905
 30
0.0
 10
72.76902258795201
 20
-127.7424208013979
 30
0.0
 10
72.76902258795201
 20
-127.7148688569601
 30
0.0
 10
72.74697397740341
 20
-127.6928202458545
 30
0.0
 10
72.71942203366187
 20
-127.6928202458545
 30
0.0
  0
POLYLINE
  5
FE
330
1F
100
AcDbEntity
  8
_U+30EC_U+30A4_U+30E4_U+30FC 1
 62
   179
420
  2234388
370
     9
100
AcDb2dPolyline
 66
     1
 10
0.0
 20
0.0
 30
0.0
  0
VERTEX
  5
FF
330
FE
100
AcDbEntity
  8
_U+30EC_U+30A4_U+30E4_U+30FC 1
 62
   179
420
  2234388
370
     9
100
AcDbVertex
100
AcDb2dVertex
 10
75.07449586246783
 20
-127.7424208013979
 30
0.0
  0
VERTEX
  5
100
330
FE
100
AcDbEntity
  8
_U+30EC_U+30A4_U+30E4_U+30FC 1
 62
   179
420
  2234388
370
     9
100
AcDbVertex
100
AcDb2dVertex
 10
72.21918315753514
 20
-127.7424208013979
 30
0.0
  0
SEQEND
  5
101
330
FE
100
AcDbEntity
  8
_U+30EC_U+30A4_U+30E4_U+30FC 1
 62
   179
420
  2234388
370
     9
  0
POLYLINE
  5
102
330
1F
100
AcDbEntity
  8
_U+30EC_U+30A4_U+30E4_U+30FC 1
 62
   179
420
  2234388
370
     9
100
AcDb2dPolyline
 66
     1
 10
0.0
 20
0.0
 30
0.0
  0
VERTEX
  5
103
330
102
100
AcDbEntity
  8
_U+30EC_U+30A4_U+30E4_U+30FC 1
 62
   179
420
  2234388
370
     9
100
AcDbVertex
100
AcDb2dVertex
 10
75.07449586246783
 20
-121.8792188584192
 30
0.0
  0
VERTEX
  5
104
330
102
100
AcDbEntity
  8
_U+30EC_U+30A4_U+30E4_U+30FC 1
 62
   179
420
  2234388
370
     9
100
AcDbVertex
100
AcDb2dVertex
 10
72.21918315753514
 20
-121.8792188584192
 30
0.0
  0
SEQEND
  5
105
330
102
100
AcDbEntity
  8
_U+30EC_U+30A4_U+30E4_U+30FC 1
 62
   179
420
  2234388
370
     9
  0
INSERT
  5
107
330
1F
100
AcDbEntity
  8
_U+30EC_U+30A4_U+30E4_U+30FC 1
100
AcDbBlockReference
  2
block 9
 10
0.0
 20
0.0
 30
0.0
  0
SPLINE
  5
118
330
1F
100
AcDbEntity
  8
_U+30EC_U+30A4_U+30E4_U+30FC 1
 62
   179
420
  2234388
370
     9
100
AcDbSpline
210
0.0
220
0.0
230
1.0
 70
    11
 71
     3
 72
    17
 73
    13
 74
     0
 42
0.0000000001
 43
0.0000000001
 12
1.0
 22
0.0
 32
0.0
 13
1.0
 23
0.0
 33
0.0
 40
0.0
 40
0.0
 40
0.0
 40
0.0
 40
1.0
 40
1.0
 40
1.0
 40
2.0
 40
2.0
 40
2.0
 40
3.0
 40
3.0
 40
3.0
 40
4.0
 40
4.0
 40
4.0
 40
4.0
 10
72.71942203366187
 20
-121.8619680250899
 30
0.0
 10
72.7290528667495
 20
-121.8619680250899
 30
0.0
 10
72.73663758877822
 20
-121.8695527473105
 30
0.0
 10
72.73663758877822
 20
-121.8792188584192
 30
0.0
 10
72.73663758877822
 20
-121.88884969175
 30
0.0
 10
72.7290528667495
 20
-121.8971399695258
 30
0.0
 10
72.71942203366187
 20
-121.8971399695258
 30
0.0
 10
72.70975592279737
 20
-121.8971399695258
 30
0.0
 10
72.70150275960228
 20
-121.88884969175
 30
0.0
 10
72.70150275960228
 20
-121.8792188584192
 30
0.0
 10
72.70150275960228
 20
-121.8695527473105
 30
0.0
 10
72.70975592279737
 20
-121.8619680250899
 30
0.0
 10
72.71942203366187
 20
-121.8619680250899
 30
0.0
  0
SPLINE
  5
119
330
1F
100
AcDbEntity
  8
_U+30EC_U+30A4_U+30E4_U+30FC 1
 62
   179
420
  2234388
370
     9
100
AcDbSpline
210
0.0
220
0.0
230
1.0
 70
    11
 71
     3
 72
    17
 73
    13
 74
     0
 42
0.0000000001
 43
0.0000000001
 12
1.0
 22
0.0
 32
0.0
 13
1.0
 23
0.0
 33
0.0
 40
0.0
 40
0.0
 40
0.0
 40
0.0
 40
1.0
 40
1.0
 40
1.0
 40
2.0
 40
2.0
 40
2.0
 40
3.0
 40
3.0
 40
3.0
 40
4.0
 40
4.0
 40
4.0
 40
4.0
 10
105.7537439686639
 20
-140.7731499648065
 30
0.0
 10
105.7537439686639
 20
-140.7455980203694
 30
0.0
 10
105.7316953581153
 20
-140.7235494092638
 30
0.0
 10
105.7041434143737
 20
-140.7235494092638
 30
0.0
 10
105.6765914706322
 20
-140.7235494092638
 30
0.0
 10
105.653837304546
 20
-140.7455980203694
 30
0.0
 10
105.653837304546
 20
-140.7731499648065
 30
0.0
 10
105.653837304546
 20
-140.8007019092443
 30
0.0
 10
105.6765914706322
 20
-140.8234560759054
 30
0.0
 10
105.7041434143737
 20
-140.8234560759054
 30
0.0
 10
105.7316953581153
 20
-140.8234560759054
 30
0.0
 10
105.7537439686639
 20
-140.8007019092443
 30
0.0
 10
105.7537439686639
 20
-140.7731499648065
 30
0.0
  0
SPLINE
  5
11A
330
1F
100
AcDbEntity
  8
_U+30EC_U+30A4_U+30E4_U+30FC 1
 62
   179
420
  2234388
370
     9
100
AcDbSpline
210
0.0
220
0.0
230
1.0
 70
    11
 71
     3
 72
    17
 73
    13
 74
     0
 42
0.0000000001
 43
0.0000000001
 12
1.0
 22
0.0
 32
0.0
 13
1.0
 23
0.0
 33
0.0
 40
0.0
 40
0.0
 40
0.0
 40
0.0
 40
1.0
 40
1.0
 40
1.0
 40
2.0
 40
2.0
 40
2.0
 40
3.0
 40
3.0
 40
3.0
 40
4.0
 40
4.0
 40
4.0
 40
4.0
 10
103.7541995752321
 20
-140.7731499648065
 30
0.0
 10
103.7541995752321
 20
-140.7455980203694
 30
0.0
 10
103.7314833074003
 20
-140.7235494092638
 30
0.0
 10
103.7039287431813
 20
-140.7235494092638
 30
0.0
 10
103.6763415216628
 20
-140.7235494092638
 30
0.0
 10
103.6542929111142
 20
-140.7455980203694
 30
0.0
 10
103.6542929111142
 20
-140.7731499648065
 30
0.0
 10
103.6542929111142
 20
-140.8007019092443
 30
0.0
 10
103.6763415216628
 20
-140.8234560759054
 30
0.0
 10
103.7039287431813
 20
-140.8234560759054
 30
0.0
 10
103.7314833074003
 20
-140.8234560759054
 30
0.0
 10
103.7541995752321
 20
-140.8007019092443
 30
0.0
 10
103.7541995752321
 20
-140.7731499648065
 30
0.0
  0
POLYLINE
  5
11B
330
1F
100
AcDbEntity
  8
_U+30EC_U+30A4_U+30E4_U+30FC 1
 62
   179
420
  2234388
370
     9
100
AcDb2dPolyline
 66
     1
 10
0.0
 20
0.0
 30
0.0
  0
VERTEX
  5
11C
330
11B
100
AcDbEntity
  8
_U+30EC_U+30A4_U+30E4_U+30FC 1
 62
   179
420
  2234388
370
     9
100
AcDbVertex
100
AcDb2dVertex
 10
103.7039287431813
 20
-140.7731499648065
 30
0.0
  0
VERTEX
  5
11D
330
11B
100
AcDbEntity
  8
_U+30EC_U+30A4_U+30E4_U+30FC 1
 62
   179
420
  2234388
370
     9
100
AcDbVertex
100
AcDb2dVertex
 10
105.7041434143737
 20
-140.7731499648065
 30
0.0
  0
SEQEND
  5
11E
330
11B
100
AcDbEntity
  8
_U+30EC_U+30A4_U+30E4_U+30FC 1
 62
   179
420
  2234388
370
     9
  0
POLYLINE
  5
11F
330
1F
100
AcDbEntity
  8
_U+30EC_U+30A4_U+30E4_U+30FC 1
 62
   179
420
  2234388
370
     9
100
AcDb2dPolyline
 66
     1
 10
0.0
 20
0.0
 30
0.0
  0
VERTEX
  5
120
330
11F
100
AcDbEntity
  8
_U+30EC_U+30A4_U+30E4_U+30FC 1
 62
   179
420
  2234388
370
     9
100
AcDbVertex
100
AcDb2dVertex
 10
103.7039287431813
 20
-139.5243166317858
 30
0.0
  0
VERTEX
  5
121
330
11F
100
AcDbEntity
  8
_U+30EC_U+30A4_U+30E4_U+30FC 1
 62
   179
420
  2234388
370
     9
100
AcDbVertex
100
AcDb2dVertex
 10
103.7039287431813
 20
-141.2733888535703
 30
0.0
  0
SEQEND
  5
122
330
11F
100
AcDbEntity
  8
_U+30EC_U+30A4_U+30E4_U+30FC 1
 62
   179
420
  2234388
370
     9
  0
POLYLINE
  5
123
330
1F
100
AcDbEntity
  8
_U+30EC_U+30A4_U+30E4_U+30FC 1
 62
   179
420
  2234388
370
     9
100
AcDb2dPolyline
 66
     1
 10
0.0
 20
0.0
 30
0.0
  0
VERTEX
  5
124
330
123
100
AcDbEntity
  8
_U+30EC_U+30A4_U+30E4_U+30FC 1
 62
   179
420
  2234388
370
     9
100
AcDbVertex
100
AcDb2dVertex
 10
105.7041434143737
 20
-139.5243166317858
 30
0.0
  0
VERTEX
  5
125
330
123
100
AcDbEntity
  8
_U+30EC_U+30A4_U+30E4_U+30FC 1
 62
   179
420
  2234388
370
     9
100
AcDbVertex
100
AcDb2dVertex
 10
105.7041434143737
 20
-141.2733888535703
 30
0.0
  0
SEQEND
  5
126
330
123
100
AcDbEntity
  8
_U+30EC_U+30A4_U+30E4_U+30FC 1
 62
   179
420
  2234388
370
     9
  0
INSERT
  5
128
330
1F
100
AcDbEntity
  8
_U+30EC_U+30A4_U+30E4_U+30FC 1
100
AcDbBlockReference
  2
block 10
 10
0.0
 20
0.0
 30
0.0
  0
SPLINE
  5
13B
330
1F
100
AcDbEntity
  8
_U+30EC_U+30A4_U+30E4_U+30FC 1
 62
   179
420
  2234388
370
     9
100
AcDbSpline
210
0.0
220
0.0
230
1.0
 70
    11
 71
     3
 72
    17
 73
    13
 74
     0
 42
0.0000000001
 43
0.0000000001
 12
1.0
 22
0.0
 32
0.0
 13
1.0
 23
0.0
 33
0.0
 40
0.0
 40
0.0
 40
0.0
 40
0.0
 40
1.0
 40
1.0
 40
1.0
 40
2.0
 40
2.0
 40
2.0
 40
3.0
 40
3.0
 40
3.0
 40
4.0
 40
4.0
 40
4.0
 40
4.0
 10
105.7213589694901
 20
-140.7731499648065
 30
0.0
 10
105.7213589694901
 20
-140.7827807981374
 30
0.0
 10
105.7137742474614
 20
-140.7910710759135
 30
0.0
 10
105.7041434143737
 20
-140.7910710759135
 30
0.0
 10
105.6944773035092
 20
-140.7910710759135
 30
0.0
 10
105.6862249735786
 20
-140.7827807981374
 30
0.0
 10
105.6862249735786
 20
-140.7731499648065
 30
0.0
 10
105.6862249735786
 20
-140.7634838536982
 30
0.0
 10
105.6944773035092
 20
-140.7559344092558
 30
0.0
 10
105.7041434143737
 20
-140.7559344092558
 30
0.0
 10
105.7137742474614
 20
-140.7559344092558
 30
0.0
 10
105.7213589694901
 20
-140.7634838536982
 30
0.0
 10
105.7213589694901
 20
-140.7731499648065
 30
0.0
  0
SPLINE
  5
13C
330
1F
100
AcDbEntity
  8
_U+30EC_U+30A4_U+30E4_U+30FC 1
 62
   179
420
  2234388
370
     9
100
AcDbSpline
210
0.0
220
0.0
230
1.0
 70
    11
 71
     3
 72
    17
 73
    13
 74
     0
 42
0.0000000001
 43
0.0000000001
 12
1.0
 22
0.0
 32
0.0
 13
1.0
 23
0.0
 33
0.0
 40
0.0
 40
0.0
 40
0.0
 40
0.0
 40
1.0
 40
1.0
 40
1.0
 40
2.0
 40
2.0
 40
2.0
 40
3.0
 40
3.0
 40
3.0
 40
4.0
 40
4.0
 40
4.0
 40
4.0
 10
87.14334083234371
 20
-141.3939682979846
 30
0.0
 10
87.14334083234371
 20
-141.3663810757693
 30
0.0
 10
87.121294422664
 20
-141.3443324646637
 30
0.0
 10
87.09374027805357
 20
-141.3443324646637
 30
0.0
 10
87.06618833431203
 20
-141.3443324646637
 30
0.0
 10
87.04343416822587
 20
-141.3663810757693
 30
0.0
 10
87.04343416822587
 20
-141.3939682979846
 30
0.0
 10
87.04343416822587
 20
-141.4215202424224
 30
0.0
 10
87.06618833431203
 20
-141.4442391313053
 30
0.0
 10
87.09374027805357
 20
-141.4442391313053
 30
0.0
 10
87.121294422664
 20
-141.4442391313053
 30
0.0
 10
87.14334083234371
 20
-141.4215202424224
 30
0.0
 10
87.14334083234371
 20
-141.3939682979846
 30
0.0
  0
SPLINE
  5
13D
330
1F
100
AcDbEntity
  8
_U+30EC_U+30A4_U+30E4_U+30FC 1
 62
   179
420
  2234388
370
     9
100
AcDbSpline
210
0.0
220
0.0
230
1.0
 70
    11
 71
     3
 72
    17
 73
    13
 74
     0
 42
0.0000000001
 43
0.0000000001
 12
1.0
 22
0.0
 32
0.0
 13
1.0
 23
0.0
 33
0.0
 40
0.0
 40
0.0
 40
0.0
 40
0.0
 40
1.0
 40
1.0
 40
1.0
 40
2.0
 40
2.0
 40
2.0
 40
3.0
 40
3.0
 40
3.0
 40
4.0
 40
4.0
 40
4.0
 40
4.0
 10
80.7271972020403
 20
-141.3939682979846
 30
0.0
 10
80.7271972020403
 20
-141.3663810757693
 30
0.0
 10
80.70514655215129
 20
-141.3443324646637
 30
0.0
 10
80.6768890528722
 20
-141.3443324646637
 30
0.0
 10
80.64933710913066
 20
-141.3443324646637
 30
0.0
 10
80.62728849858206
 20
-141.3663810757693
 30
0.0
 10
80.62728849858206
 20
-141.3939682979846
 30
0.0
 10
80.62728849858206
 20
-141.4215202424224
 30
0.0
 10
80.64933710913066
 20
-141.4442391313053
 30
0.0
 10
80.6768890528722
 20
-141.4442391313053
 30
0.0
 10
80.70514655215129
 20
-141.4442391313053
 30
0.0
 10
80.7271972020403
 20
-141.4215202424224
 30
0.0
 10
80.7271972020403
 20
-141.3939682979846
 30
0.0
  0
POLYLINE
  5
13E
330
1F
100
AcDbEntity
  8
_U+30EC_U+30A4_U+30E4_U+30FC 1
 62
   179
420
  2234388
370
     9
100
AcDb2dPolyline
 66
     1
 10
0.0
 20
0.0
 30
0.0
  0
VERTEX
  5
13F
330
13E
100
AcDbEntity
  8
_U+30EC_U+30A4_U+30E4_U+30FC 1
 62
   179
420
  2234388
370
     9
100
AcDbVertex
100
AcDb2dVertex
 10
80.6768890528722
 20
-141.3939682979846
 30
0.0
  0
VERTEX
  5
140
330
13E
100
AcDbEntity
  8
_U+30EC_U+30A4_U+30E4_U+30FC 1
 62
   179
420
  2234388
370
     9
100
AcDbVertex
100
AcDb2dVertex
 10
87.09303472251602
 20
-141.3939682979846
 30
0.0
  0
SEQEND
  5
141
330
13E
100
AcDbEntity
  8
_U+30EC_U+30A4_U+30E4_U+30FC 1
 62
   179
420
  2234388
370
     9
  0
POLYLINE
  5
142
330
1F
100
AcDbEntity
  8
_U+30EC_U+30A4_U+30E4_U+30FC 1
 62
   179
420
  2234388
370
     9
100
AcDb2dPolyline
 66
     1
 10
0.0
 20
0.0
 30
0.0
  0
VERTEX
  5
143
330
142
100
AcDbEntity
  8
_U+30EC_U+30A4_U+30E4_U+30FC 1
 62
   179
420
  2234388
370
     9
100
AcDbVertex
100
AcDb2dVertex
 10
80.6768890528722
 20
-140.1450996871856
 30
0.0
  0
VERTEX
  5
144
330
142
100
AcDbEntity
  8
_U+30EC_U+30A4_U+30E4_U+30FC 1
 62
   179
420
  2234388
370
     9
100
AcDbVertex
100
AcDb2dVertex
 10
80.6768890528722
 20
-141.8941719089708
 30
0.0
  0
SEQEND
  5
145
330
142
100
AcDbEntity
  8
_U+30EC_U+30A4_U+30E4_U+30FC 1
 62
   179
420
  2234388
370
     9
  0
POLYLINE
  5
146
330
1F
100
AcDbEntity
  8
_U+30EC_U+30A4_U+30E4_U+30FC 1
 62
   179
420
  2234388
370
     9
100
AcDb2dPolyline
 66
     1
 10
0.0
 20
0.0
 30
0.0
  0
VERTEX
  5
147
330
146
100
AcDbEntity
  8
_U+30EC_U+30A4_U+30E4_U+30FC 1
 62
   179
420
  2234388
370
     9
100
AcDbVertex
100
AcDb2dVertex
 10
87.09374027805357
 20
-140.1450996871856
 30
0.0
  0
VERTEX
  5
148
330
146
100
AcDbEntity
  8
_U+30EC_U+30A4_U+30E4_U+30FC 1
 62
   179
420
  2234388
370
     9
100
AcDbVertex
100
AcDb2dVertex
 10
87.09374027805357
 20
-141.8941719089708
 30
0.0
  0
SEQEND
  5
149
330
146
100
AcDbEntity
  8
_U+30EC_U+30A4_U+30E4_U+30FC 1
 62
   179
420
  2234388
370
     9
  0
INSERT
  5
14B
330
1F
100
AcDbEntity
  8
_U+30EC_U+30A4_U+30E4_U+30FC 1
100
AcDbBlockReference
  2
block 11
 10
0.0
 20
0.0
 30
0.0
  0
SPLINE
  5
152
330
1F
100
AcDbEntity
  8
_U+30EC_U+30A4_U+30E4_U+30FC 1
 62
   179
420
  2234388
370
     9
100
AcDbSpline
210
0.0
220
0.0
230
1.0
 70
    11
 71
     3
 72
    17
 73
    13
 74
     0
 42
0.0000000001
 43
0.0000000001
 12
1.0
 22
0.0
 32
0.0
 13
1.0
 23
0.0
 33
0.0
 40
0.0
 40
0.0
 40
0.0
 40
0.0
 40
1.0
 40
1.0
 40
1.0
 40
2.0
 40
2.0
 40
2.0
 40
3.0
 40
3.0
 40
3.0
 40
4.0
 40
4.0
 40
4.0
 40
4.0
 10
87.11095583316992
 20
-141.3939682979846
 30
0.0
 10
87.11095583316992
 20
-141.4035991313161
 30
0.0
 10
87.1033711111412
 20
-141.411854131314
 30
0.0
 10
87.09374027805357
 20
-141.411854131314
 30
0.0
 10
87.08407416718906
 20
-141.411854131314
 30
0.0
 10
87.07581916739967
 20
-141.4035991313161
 30
0.0
 10
87.07581916739967
 20
-141.3939682979846
 30
0.0
 10
87.07581916739967
 20
-141.3843021868762
 30
0.0
 10
87.08407416718906
 20
-141.3767174646557
 30
0.0
 10
87.09374027805357
 20
-141.3767174646557
 30
0.0
 10
87.1033711111412
 20
-141.3767174646557
 30
0.0
 10
87.11095583316992
 20
-141.3843021868762
 30
0.0
 10
87.11095583316992
 20
-141.3939682979846
 30
0.0
  0
SPLINE
  5
153
330
1F
100
AcDbEntity
  8
_U+30EC_U+30A4_U+30E4_U+30FC 1
 62
   179
420
  2234388
370
     9
100
AcDbSpline
210
0.0
220
0.0
230
1.0
 70
    11
 71
     3
 72
    17
 73
    13
 74
     0
 42
0.0000000001
 43
0.0000000001
 12
1.0
 22
0.0
 32
0.0
 13
1.0
 23
0.0
 33
0.0
 40
0.0
 40
0.0
 40
0.0
 40
0.0
 40
1.0
 40
1.0
 40
1.0
 40
2.0
 40
2.0
 40
2.0
 40
3.0
 40
3.0
 40
3.0
 40
4.0
 40
4.0
 40
4.0
 40
4.0
 10
90.05650909135593
 20
-131.8138291337134
 30
0.0
 10
90.02895714761439
 20
-131.8138291337134
 30
0.0
 10
90.0069085370658
 20
-131.835877744819
 30
0.0
 10
90.0069085370658
 20
-131.8634296892562
 30
0.0
 10
90.0069085370658
 20
-131.8910169114714
 30
0.0
 10
90.02895714761439
 20
-131.9137358003551
 30
0.0
 10
90.05650909135593
 20
-131.9137358003551
 30
0.0
 10
90.08406103509746
 20
-131.9137358003551
 30
0.0
 10
90.10681520118362
 20
-131.8910169114714
 30
0.0
 10
90.10681520118362
 20
-131.8634296892562
 30
0.0
 10
90.10681520118362
 20
-131.835877744819
 30
0.0
 10
90.08406103509746
 20
-131.8138291337134
 30
0.0
 10
90.05650909135593
 20
-131.8138291337134
 30
0.0
  0
SPLINE
  5
154
330
1F
100
AcDbEntity
  8
_U+30EC_U+30A4_U+30E4_U+30FC 1
 62
   179
420
  2234388
370
     9
100
AcDbSpline
210
0.0
220
0.0
230
1.0
 70
    11
 71
     3
 72
    17
 73
    13
 74
     0
 42
0.0000000001
 43
0.0000000001
 12
1.0
 22
0.0
 32
0.0
 13
1.0
 23
0.0
 33
0.0
 40
0.0
 40
0.0
 40
0.0
 40
0.0
 40
1.0
 40
1.0
 40
1.0
 40
2.0
 40
2.0
 40
2.0
 40
3.0
 40
3.0
 40
3.0
 40
4.0
 40
4.0
 40
4.0
 40
4.0
 10
90.05721464689348
 20
-137.787979687775
 30
0.0
 10
90.02962742537507
 20
-137.787979687775
 30
0.0
 10
90.00757881482647
 20
-137.8100282988806
 30
0.0
 10
90.00757881482647
 20
-137.8382857988739
 30
0.0
 10
90.00757881482647
 20
-137.8658377433116
 30
0.0
 10
90.02962742537507
 20
-137.8878863544172
 30
0.0
 10
90.05721464689348
 20
-137.8878863544172
 30
0.0
 10
90.08476659063503
 20
-137.8878863544172
 30
0.0
 10
90.10752075672119
 20
-137.8658377433116
 30
0.0
 10
90.10752075672119
 20
-137.8382857988739
 30
0.0
 10
90.10752075672119
 20
-137.8100282988806
 30
0.0
 10
90.08476659063503
 20
-137.787979687775
 30
0.0
 10
90.05721464689348
 20
-137.787979687775
 30
0.0
  0
POLYLINE
  5
155
330
1F
100
AcDbEntity
  8
_U+30EC_U+30A4_U+30E4_U+30FC 1
 62
   179
420
  2234388
370
     9
100
AcDb2dPolyline
 66
     1
 10
0.0
 20
0.0
 30
0.0
  0
VERTEX
  5
156
330
155
100
AcDbEntity
  8
_U+30EC_U+30A4_U+30E4_U+30FC 1
 62
   179
420
  2234388
370
     9
100
AcDbVertex
100
AcDb2dVertex
 10
90.05721464689348
 20
-137.8382857988739
 30
0.0
  0
VERTEX
  5
157
330
155
100
AcDbEntity
  8
_U+30EC_U+30A4_U+30E4_U+30FC 1
 62
   179
420
  2234388
370
     9
100
AcDbVertex
100
AcDb2dVertex
 10
90.05650909135593
 20
-131.8637824670339
 30
0.0
  0
SEQEND
  5
158
330
155
100
AcDbEntity
  8
_U+30EC_U+30A4_U+30E4_U+30FC 1
 62
   179
420
  2234388
370
     9
  0
POLYLINE
  5
159
330
1F
100
AcDbEntity
  8
_U+30EC_U+30A4_U+30E4_U+30FC 1
 62
   179
420
  2234388
370
     9
100
AcDb2dPolyline
 66
     1
 10
0.0
 20
0.0
 30
0.0
  0
VERTEX
  5
15A
330
159
100
AcDbEntity
  8
_U+30EC_U+30A4_U+30E4_U+30FC 1
 62
   179
420
  2234388
370
     9
100
AcDbVertex
100
AcDb2dVertex
 10
88.80802856765177
 20
-137.8382857988739
 30
0.0
  0
VERTEX
  5
15B
330
159
100
AcDbEntity
  8
_U+30EC_U+30A4_U+30E4_U+30FC 1
 62
   179
420
  2234388
370
     9
100
AcDbVertex
100
AcDb2dVertex
 10
90.55741824524334
 20
-137.8382857988739
 30
0.0
  0
SEQEND
  5
15C
330
159
100
AcDbEntity
  8
_U+30EC_U+30A4_U+30E4_U+30FC 1
 62
   179
420
  2234388
370
     9
  0
POLYLINE
  5
15D
330
1F
100
AcDbEntity
  8
_U+30EC_U+30A4_U+30E4_U+30FC 1
 62
   179
420
  2234388
370
     9
100
AcDb2dPolyline
 66
     1
 10
0.0
 20
0.0
 30
0.0
  0
VERTEX
  5
15E
330
15D
100
AcDbEntity
  8
_U+30EC_U+30A4_U+30E4_U+30FC 1
 62
   179
420
  2234388
370
     9
100
AcDbVertex
100
AcDb2dVertex
 10
88.80802856765177
 20
-131.8634296892562
 30
0.0
  0
VERTEX
  5
15F
330
15D
100
AcDbEntity
  8
_U+30EC_U+30A4_U+30E4_U+30FC 1
 62
   179
420
  2234388
370
     9
100
AcDbVertex
100
AcDb2dVertex
 10
90.55674796748266
 20
-131.8634296892562
 30
0.0
  0
SEQEND
  5
160
330
15D
100
AcDbEntity
  8
_U+30EC_U+30A4_U+30E4_U+30FC 1
 62
   179
420
  2234388
370
     9
  0
INSERT
  5
162
330
1F
100
AcDbEntity
  8
_U+30EC_U+30A4_U+30E4_U+30FC 1
100
AcDbBlockReference
  2
block 12
 10
0.0
 20
0.0
 30
0.0
  0
SPLINE
  5
169
330
1F
100
AcDbEntity
  8
_U+30EC_U+30A4_U+30E4_U+30FC 1
 62
   179
420
  2234388
370
     9
100
AcDbSpline
210
0.0
220
0.0
230
1.0
 70
    11
 71
     3
 72
    17
 73
    13
 74
     0
 42
0.0000000001
 43
0.0000000001
 12
1.0
 22
0.0
 32
0.0
 13
1.0
 23
0.0
 33
0.0
 40
0.0
 40
0.0
 40
0.0
 40
0.0
 40
1.0
 40
1.0
 40
1.0
 40
2.0
 40
2.0
 40
2.0
 40
3.0
 40
3.0
 40
3.0
 40
4.0
 40
4.0
 40
4.0
 40
4.0
 10
90.05650909135593
 20
-131.8462141337054
 30
0.0
 10
90.06617520222044
 20
-131.8462141337054
 30
0.0
 10
90.07443020200984
 20
-131.8537988559253
 30
0.0
 10
90.07443020200984
 20
-131.8634296892562
 30
0.0
 10
90.07443020200984
 20
-131.8730958003651
 30
0.0
 10
90.06617520222044
 20
-131.8813508003631
 30
0.0
 10
90.05650909135593
 20
-131.8813508003631
 30
0.0
 10
90.04688053304392
 20
-131.8813508003631
 30
0.0
 10
90.03929353623958
 20
-131.8730958003651
 30
0.0
 10
90.03929353623958
 20
-131.8634296892562
 30
0.0
 10
90.03929353623958
 20
-131.8537988559253
 30
0.0
 10
90.04688053304392
 20
-131.8462141337054
 30
0.0
 10
90.05650909135593
 20
-131.8462141337054
 30
0.0
  0
POLYLINE
  5
16A
330
1F
100
AcDbEntity
  8
_U+30EC_U+30A4_U+30E4_U+30FC 1
 62
     7
420
 16777215
370
     9
100
AcDb2dPolyline
 66
     1
 10
0.0
 20
0.0
 30
0.0
  0
VERTEX
  5
16B
330
16A
100
AcDbEntity
  8
_U+30EC_U+30A4_U+30E4_U+30FC 1
 62
     7
420
 16777215
370
     9
100
AcDbVertex
100
AcDb2dVertex
 10
81.11786126384428
 20
-128.6033396900714
 30
0.0
  0
VERTEX
  5
16C
330
16A
100
AcDbEntity
  8
_U+30EC_U+30A4_U+30E4_U+30FC 1
 62
     7
420
 16777215
370
     9
100
AcDbVertex
100
AcDb2dVertex
 10
81.11786126384428
 20
-126.6630619127786
 30
0.0
  0
SEQEND
  5
16D
330
16A
100
AcDbEntity
  8
_U+30EC_U+30A4_U+30E4_U+30FC 1
 62
     7
420
 16777215
370
     9
  0
POLYLINE
  5
16E
330
1F
100
AcDbEntity
  8
_U+30EC_U+30A4_U+30E4_U+30FC 1
 62
     7
420
 16777215
370
     9
100
AcDb2dPolyline
 66
     1
 10
0.0
 20
0.0
 30
0.0
  0
VERTEX
  5
16F
330
16E
100
AcDbEntity
  8
_U+30EC_U+30A4_U+30E4_U+30FC 1
 62
     7
420
 16777215
370
     9
100
AcDbVertex
100
AcDb2dVertex
 10
81.69112513810799
 20
-126.6630619127786
 30
0.0
  0
VERTEX
  5
170
330
16E
100
AcDbEntity
  8
_U+30EC_U+30A4_U+30E4_U+30FC 1
 62
     7
420
 16777215
370
     9
100
AcDbVertex
100
AcDb2dVertex
 10
81.69112513810799
 20
-128.6033396900714
 30
0.0
  0
SEQEND
  5
171
330
16E
100
AcDbEntity
  8
_U+30EC_U+30A4_U+30E4_U+30FC 1
 62
     7
420
 16777215
370
     9
  0
SPLINE
  5
172
330
1F
100
AcDbEntity
  8
_U+30EC_U+30A4_U+30E4_U+30FC 1
 62
     7
420
 16777215
370
     9
100
AcDbSpline
210
0.0
220
0.0
230
1.0
 70
     8
 71
     3
 72
    11
 73
     7
 74
     0
 42
0.0000000001
 43
0.0000000001
 12
1.0
 22
0.0
 32
0.0
 13
1.0
 23
0.0
 33
0.0
 40
0.0
 40
0.0
 40
0.0
 40
0.0
 40
1.0
 40
1.0
 40
1.0
 40
2.0
 40
2.0
 40
2.0
 40
2.0
 10
81.11786126384428
 20
-126.6520552461149
 30
0.0
 10
81.11786126384428
 20
-126.4939049683767
 30
0.0
 10
81.24602542724121
 20
-126.3654233017421
 30
0.0
 10
81.40449320097613
 20
-126.3654233017421
 30
0.0
 10
81.56296097471106
 20
-126.3654233017421
 30
0.0
 10
81.69112513810799
 20
-126.4939049683767
 30
0.0
 10
81.69112513810799
 20
-126.6520552461149
 30
0.0
  0
SPLINE
  5
173
330
1F
100
AcDbEntity
  8
_U+30EC_U+30A4_U+30E4_U+30FC 1
 62
     7
420
 16777215
370
     9
100
AcDbSpline
210
0.0
220
0.0
230
1.0
 70
     8
 71
     3
 72
    11
 73
     7
 74
     0
 42
0.0000000001
 43
0.0000000001
 12
1.0
 22
0.0
 32
0.0
 13
1.0
 23
0.0
 33
0.0
 40
0.0
 40
0.0
 40
0.0
 40
0.0
 40
1.0
 40
1.0
 40
1.0
 40
2.0
 40
2.0
 40
2.0
 40
2.0
 10
81.69112513810799
 20
-128.6033396900714
 30
0.0
 10
81.69112513810799
 20
-128.7618074678095
 30
0.0
 10
81.56296097471106
 20
-128.8899716344445
 30
0.0
 10
81.40449320097613
 20
-128.8899716344445
 30
0.0
 10
81.24602542724121
 20
-128.8899716344445
 30
0.0
 10
81.11786126384428
 20
-128.7618074678095
 30
0.0
 10
81.11786126384428
 20
-128.6033396900714
 30
0.0
  0
POLYLINE
  5
174
330
1F
100
AcDbEntity
  8
_U+30EC_U+30A4_U+30E4_U+30FC 1
 62
     7
420
 16777215
370
     9
100
AcDb2dPolyline
 66
     1
 10
0.0
 20
0.0
 30
0.0
  0
VERTEX
  5
175
330
174
100
AcDbEntity
  8
_U+30EC_U+30A4_U+30E4_U+30FC 1
 62
     7
420
 16777215
370
     9
100
AcDbVertex
100
AcDb2dVertex
 10
79.52623380445009
 20
-128.6033396900714
 30
0.0
  0
VERTEX
  5
176
330
174
100
AcDbEntity
  8
_U+30EC_U+30A4_U+30E4_U+30FC 1
 62
     7
420
 16777215
370
     9
100
AcDbVertex
100
AcDb2dVertex
 10
79.52623380445009
 20
-126.6630619127786
 30
0.0
  0
SEQEND
  5
177
330
174
100
AcDbEntity
  8
_U+30EC_U+30A4_U+30E4_U+30FC 1
 62
     7
420
 16777215
370
     9
  0
POLYLINE
  5
178
330
1F
100
AcDbEntity
  8
_U+30EC_U+30A4_U+30E4_U+30FC 1
 62
     7
420
 16777215
370
     9
100
AcDb2dPolyline
 66
     1
 10
0.0
 20
0.0
 30
0.0
  0
VERTEX
  5
179
330
178
100
AcDbEntity
  8
_U+30EC_U+30A4_U+30E4_U+30FC 1
 62
     7
420
 16777215
370
     9
100
AcDbVertex
100
AcDb2dVertex
 10
79.96720601542216
 20
-126.6630619127786
 30
0.0
  0
VERTEX
  5
17A
330
178
100
AcDbEntity
  8
_U+30EC_U+30A4_U+30E4_U+30FC 1
 62
     7
420
 16777215
370
     9
100
AcDbVertex
100
AcDb2dVertex
 10
79.96720601542216
 20
-128.6033396900714
 30
0.0
  0
SEQEND
  5
17B
330
178
100
AcDbEntity
  8
_U+30EC_U+30A4_U+30E4_U+30FC 1
 62
     7
420
 16777215
370
     9
  0
SPLINE
  5
17C
330
1F
100
AcDbEntity
  8
_U+30EC_U+30A4_U+30E4_U+30FC 1
 62
     7
420
 16777215
370
     9
100
AcDbSpline
210
0.0
220
0.0
230
1.0
 70
     8
 71
     3
 72
    11
 73
     7
 74
     0
 42
0.0000000001
 43
0.0000000001
 12
1.0
 22
0.0
 32
0.0
 13
1.0
 23
0.0
 33
0.0
 40
0.0
 40
0.0
 40
0.0
 40
0.0
 40
1.0
 40
1.0
 40
1.0
 40
2.0
 40
2.0
 40
2.0
 40
2.0
 10
79.52623380445009
 20
-126.6520552461149
 30
0.0
 10
79.52623380445009
 20
-126.4939049683767
 30
0.0
 10
79.62476664676035
 20
-126.3654233017421
 30
0.0
 10
79.74671990993612
 20
-126.3654233017421
 30
0.0
 10
79.86867518460257
 20
-126.3654233017421
 30
0.0
 10
79.96720601542216
 20
-126.4939049683767
 30
0.0
 10
79.96720601542216
 20
-126.6520552461149
 30
0.0
  0
SPLINE
  5
17D
330
1F
100
AcDbEntity
  8
_U+30EC_U+30A4_U+30E4_U+30FC 1
 62
     7
420
 16777215
370
     9
100
AcDbSpline
210
0.0
220
0.0
230
1.0
 70
     8
 71
     3
 72
    11
 73
     7
 74
     0
 42
0.0000000001
 43
0.0000000001
 12
1.0
 22
0.0
 32
0.0
 13
1.0
 23
0.0
 33
0.0
 40
0.0
 40
0.0
 40
0.0
 40
0.0
 40
1.0
 40
1.0
 40
1.0
 40
2.0
 40
2.0
 40
2.0
 40
2.0
 10
79.96720601542216
 20
-128.6033396900714
 30
0.0
 10
79.96720601542216
 20
-128.7618074678095
 30
0.0
 10
79.86867518460257
 20
-128.8899716344445
 30
0.0
 10
79.74671990993612
 20
-128.8899716344445
 30
0.0
 10
79.62476664676035
 20
-128.8899716344445
 30
0.0
 10
79.52623380445009
 20
-128.7618074678095
 30
0.0
 10
79.52623380445009
 20
-128.6033396900714
 30
0.0
  0
POLYLINE
  5
17E
330
1F
100
AcDbEntity
  8
_U+30EC_U+30A4_U+30E4_U+30FC 1
 62
     7
420
 16777215
370
     9
100
AcDb2dPolyline
 66
     1
 10
0.0
 20
0.0
 30
0.0
  0
VERTEX
  5
17F
330
17E
100
AcDbEntity
  8
_U+30EC_U+30A4_U+30E4_U+30FC 1
 62
     7
420
 16777215
370
     9
100
AcDbVertex
100
AcDb2dVertex
 10
82.98028093855223
 20
-128.6033396900714
 30
0.0
  0
VERTEX
  5
180
330
17E
100
AcDbEntity
  8
_U+30EC_U+30A4_U+30E4_U+30FC 1
 62
     7
420
 16777215
370
     9
100
AcDbVertex
100
AcDb2dVertex
 10
82.98028093855223
 20
-126.6630619127786
 30
0.0
  0
SEQEND
  5
181
330
17E
100
AcDbEntity
  8
_U+30EC_U+30A4_U+30E4_U+30FC 1
 62
     7
420
 16777215
370
     9
  0
POLYLINE
  5
182
330
1F
100
AcDbEntity
  8
_U+30EC_U+30A4_U+30E4_U+30FC 1
 62
     7
420
 16777215
370
     9
100
AcDb2dPolyline
 66
     1
 10
0.0
 20
0.0
 30
0.0
  0
VERTEX
  5
183
330
182
100
AcDbEntity
  8
_U+30EC_U+30A4_U+30E4_U+30FC 1
 62
     7
420
 16777215
370
     9
100
AcDbVertex
100
AcDb2dVertex
 10
83.4212531495243
 20
-126.6630619127786
 30
0.0
  0
VERTEX
  5
184
330
182
100
AcDbEntity
  8
_U+30EC_U+30A4_U+30E4_U+30FC 1
 62
     7
420
 16777215
370
     9
100
AcDbVertex
100
AcDb2dVertex
 10
83.4212531495243
 20
-128.6033396900714
 30
0.0
  0
SEQEND
  5
185
330
182
100
AcDbEntity
  8
_U+30EC_U+30A4_U+30E4_U+30FC 1
 62
     7
420
 16777215
370
     9
  0
SPLINE
  5
186
330
1F
100
AcDbEntity
  8
_U+30EC_U+30A4_U+30E4_U+30FC 1
 62
     7
420
 16777215
370
     9
100
AcDbSpline
210
0.0
220
0.0
230
1.0
 70
     8
 71
     3
 72
    11
 73
     7
 74
     0
 42
0.0000000001
 43
0.0000000001
 12
1.0
 22
0.0
 32
0.0
 13
1.0
 23
0.0
 33
0.0
 40
0.0
 40
0.0
 40
0.0
 40
0.0
 40
1.0
 40
1.0
 40
1.0
 40
2.0
 40
2.0
 40
2.0
 40
2.0
 10
82.98028093855223
 20
-126.6520552461149
 30
0.0
 10
82.98028093855223
 20
-126.4939049683767
 30
0.0
 10
83.07951942367464
 20
-126.3654233017421
 30
0.0
 10
83.20076704403826
 20
-126.3654233017421
 30
0.0
 10
83.3227223187047
 20
-126.3654233017421
 30
0.0
 10
83.4212531495243
 20
-126.4939049683767
 30
0.0
 10
83.4212531495243
 20
-126.6520552461149
 30
0.0
  0
SPLINE
  5
187
330
1F
100
AcDbEntity
  8
_U+30EC_U+30A4_U+30E4_U+30FC 1
 62
     7
420
 16777215
370
     9
100
AcDbSpline
210
0.0
220
0.0
230
1.0
 70
     8
 71
     3
 72
    11
 73
     7
 74
     0
 42
0.0000000001
 43
0.0000000001
 12
1.0
 22
0.0
 32
0.0
 13
1.0
 23
0.0
 33
0.0
 40
0.0
 40
0.0
 40
0.0
 40
0.0
 40
1.0
 40
1.0
 40
1.0
 40
2.0
 40
2.0
 40
2.0
 40
2.0
 10
83.4212531495243
 20
-128.6033396900714
 30
0.0
 10
83.4212531495243
 20
-128.7618074678095
 30
0.0
 10
83.3227223187047
 20
-128.8899716344445
 30
0.0
 10
83.20076704403826
 20
-128.8899716344445
 30
0.0
 10
83.07951942367464
 20
-128.8899716344445
 30
0.0
 10
82.98028093855223
 20
-128.7618074678095
 30
0.0
 10
82.98028093855223
 20
-128.6033396900714
 30
0.0
  0
SPLINE
  5
188
330
1F
100
AcDbEntity
  8
_U+30EC_U+30A4_U+30E4_U+30FC 1
  6
AI-Linetype-1
 62
     7
420
 16777215
370
     9
100
AcDbSpline
210
0.0
220
0.0
230
1.0
 70
    11
 71
     3
 72
    17
 73
    13
 74
     0
 42
0.0000000001
 43
0.0000000001
 12
1.0
 22
0.0
 32
0.0
 13
1.0
 23
0.0
 33
0.0
 40
0.0
 40
0.0
 40
0.0
 40
0.0
 40
1.0
 40
1.0
 40
1.0
 40
2.0
 40
2.0
 40
2.0
 40
3.0
 40
3.0
 40
3.0
 40
4.0
 40
4.0
 40
4.0
 40
4.0
 10
84.59053506413788
 20
-129.8087813564368
 30
0.0
 10
84.59053506413788
 20
-129.0536252455142
 30
0.0
 10
85.20239282630587
 20
-128.4417674678897
 30
0.0
 10
85.95754891815135
 20
-128.4417674678897
 30
0.0
 10
86.71270500999681
 20
-128.4417674678897
 30
0.0
 10
87.3245627721648
 20
-129.0536252455142
 30
0.0
 10
87.3245627721648
 20
-129.8087813564368
 30
0.0
 10
87.3245627721648
 20
-130.5639374673593
 30
0.0
 10
86.71270500999681
 20
-131.1757952449839
 30
0.0
 10
85.95754891815135
 20
-131.1757952449839
 30
0.0
 10
85.20239282630587
 20
-131.1757952449839
 30
0.0
 10
84.59053506413788
 20
-130.5639374673593
 30
0.0
 10
84.59053506413788
 20
-129.8087813564368
 30
0.0
  0
POLYLINE
  5
18A
330
1F
100
AcDbEntity
  8
_U+30EC_U+30A4_U+30E4_U+30FC 1
 62
     7
420
 16777215
370
     9
100
AcDb2dPolyline
 66
     1
 10
0.0
 20
0.0
 30
0.0
  0
VERTEX
  5
18B
330
18A
100
AcDbEntity
  8
_U+30EC_U+30A4_U+30E4_U+30FC 1
 62
     7
420
 16777215
370
     9
100
AcDbVertex
100
AcDb2dVertex
 10
103.8017540184633
 20
-136.7213560769307
 30
0.0
  0
VERTEX
  5
18C
330
18A
100
AcDbEntity
  8
_U+30EC_U+30A4_U+30E4_U+30FC 1
 62
     7
420
 16777215
370
     9
100
AcDbVertex
100
AcDb2dVertex
 10
103.8017540184633
 20
-129.3922919120966
 30
0.0
  0
SEQEND
  5
18D
330
18A
100
AcDbEntity
  8
_U+30EC_U+30A4_U+30E4_U+30FC 1
 62
     7
420
 16777215
370
     9
  0
POLYLINE
  5
18E
330
1F
100
AcDbEntity
  8
_U+30EC_U+30A4_U+30E4_U+30FC 1
 62
     7
420
 16777215
370
     9
100
AcDb2dPolyline
 66
     1
 10
0.0
 20
0.0
 30
0.0
  0
VERTEX
  5
18F
330
18E
100
AcDbEntity
  8
_U+30EC_U+30A4_U+30E4_U+30FC 1
 62
     7
420
 16777215
370
     9
100
AcDbVertex
100
AcDb2dVertex
 10
105.595276194929
 20
-129.4770291342977
 30
0.0
  0
VERTEX
  5
190
330
18E
100
AcDbEntity
  8
_U+30EC_U+30A4_U+30E4_U+30FC 1
 62
     7
420
 16777215
370
     9
100
AcDbVertex
100
AcDb2dVertex
 10
105.595276194929
 20
-136.7213560769307
 30
0.0
  0
SEQEND
  5
191
330
18E
100
AcDbEntity
  8
_U+30EC_U+30A4_U+30E4_U+30FC 1
 62
     7
420
 16777215
370
     9
  0
SPLINE
  5
192
330
1F
100
AcDbEntity
  8
_U+30EC_U+30A4_U+30E4_U+30FC 1
 62
     7
420
 16777215
370
     9
100
AcDbSpline
210
0.0
220
0.0
230
1.0
 70
     8
 71
     3
 72
    11
 73
     7
 74
     0
 42
0.0000000001
 43
0.0000000001
 12
1.0
 22
0.0
 32
0.0
 13
1.0
 23
0.0
 33
0.0
 40
0.0
 40
0.0
 40
0.0
 40
0.0
 40
1.0
 40
1.0
 40
1.0
 40
2.0
 40
2.0
 40
2.0
 40
2.0
 10
105.595276194929
 20
-136.7213560769307
 30
0.0
 10
105.595276194929
 20
-137.3914574656519
 30
0.0
 10
105.1935681496218
 20
-137.9330066321835
 30
0.0
 10
104.6981623289274
 20
-137.9330066321835
 30
0.0
 10
104.2034620637704
 20
-137.9330066321835
 30
0.0
 10
103.8017540184633
 20
-137.3914574656519
 30
0.0
 10
103.8017540184633
 20
-136.7213560769307
 30
0.0
  0
POLYLINE
  5
193
330
1F
100
AcDbEntity
  8
_U+30EC_U+30A4_U+30E4_U+30FC 1
 62
     7
420
 16777215
370
     9
100
AcDb2dPolyline
 66
     1
 10
0.0
 20
0.0
 30
0.0
  0
VERTEX
  5
194
330
193
100
AcDbEntity
  8
_U+30EC_U+30A4_U+30E4_U+30FC 1
 62
     7
420
 16777215
370
     9
100
AcDbVertex
100
AcDb2dVertex
 10
103.8493110851489
 20
-137.0731107990652
 30
0.0
  0
VERTEX
  5
1DD
330
193
100
AcDbEntity
  8
0
100
AcDbVertex
100
AcDb2dVertex
 10
103.8493110851489
 20
-137.0731107990652
 30
0.0
  0
SEQEND
  5
195
330
193
100
AcDbEntity
  8
_U+30EC_U+30A4_U+30E4_U+30FC 1
 62
     7
420
 16777215
370
     9
  0
POLYLINE
  5
196
330
1F
100
AcDbEntity
  8
_U+30EC_U+30A4_U+30E4_U+30FC 1
 62
     7
420
 16777215
370
     9
100
AcDb2dPolyline
 66
     1
 10
0.0
 20
0.0
 30
0.0
  0
VERTEX
  5
197
330
196
100
AcDbEntity
  8
_U+30EC_U+30A4_U+30E4_U+30FC 1
 62
     7
420
 16777215
370
     9
100
AcDbVertex
100
AcDb2dVertex
 10
78.93162687517533
 20
-128.3680369123526
 30
0.0
  0
VERTEX
  5
198
330
196
100
AcDbEntity
  8
_U+30EC_U+30A4_U+30E4_U+30FC 1
 62
     7
420
 16777215
370
     9
100
AcDbVertex
100
AcDb2dVertex
 10
77.96148801103674
 20
-128.3680369123526
 30
0.0
  0
VERTEX
  5
199
330
196
100
AcDbEntity
  8
_U+30EC_U+30A4_U+30E4_U+30FC 1
 62
     7
420
 16777215
370
     9
100
AcDbVertex
100
AcDb2dVertex
 10
77.96148801103674
 20
-121.386211914098
 30
0.0
  0
VERTEX
  5
19A
330
196
100
AcDbEntity
  8
_U+30EC_U+30A4_U+30E4_U+30FC 1
 62
     7
420
 16777215
370
     9
100
AcDbVertex
100
AcDb2dVertex
 10
78.93162687517533
 20
-121.386211914098
 30
0.0
  0
VERTEX
  5
19B
330
196
100
AcDbEntity
  8
_U+30EC_U+30A4_U+30E4_U+30FC 1
 62
     7
420
 16777215
370
     9
100
AcDbVertex
100
AcDb2dVertex
 10
78.93162687517533
 20
-128.3680369123526
 30
0.0
  0
SEQEND
  5
19C
330
196
100
AcDbEntity
  8
_U+30EC_U+30A4_U+30E4_U+30FC 1
 62
     7
420
 16777215
370
     9
  0
POLYLINE
  5
19D
330
1F
100
AcDbEntity
  8
_U+30EC_U+30A4_U+30E4_U+30FC 1
 62
     7
420
 16777215
370
     9
100
AcDb2dPolyline
 66
     1
 10
0.0
 20
0.0
 30
0.0
  0
VERTEX
  5
19E
330
19D
100
AcDbEntity
  8
_U+30EC_U+30A4_U+30E4_U+30FC 1
 62
     7
420
 16777215
370
     9
100
AcDbVertex
100
AcDb2dVertex
 10
83.95871008025708
 20
-129.411906356536
 30
0.0
  0
VERTEX
  5
19F
330
19D
100
AcDbEntity
  8
_U+30EC_U+30A4_U+30E4_U+30FC 1
 62
     7
420
 16777215
370
     9
100
AcDbVertex
100
AcDb2dVertex
 10
78.93162687517533
 20
-129.411906356536
 30
0.0
  0
VERTEX
  5
1A0
330
19D
100
AcDbEntity
  8
_U+30EC_U+30A4_U+30E4_U+30FC 1
 62
     7
420
 16777215
370
     9
100
AcDbVertex
100
AcDb2dVertex
 10
78.93162687517533
 20
-121.9153785806324
 30
0.0
  0
VERTEX
  5
1A1
330
19D
100
AcDbEntity
  8
_U+30EC_U+30A4_U+30E4_U+30FC 1
 62
     7
420
 16777215
370
     9
100
AcDbVertex
100
AcDb2dVertex
 10
83.95871008025708
 20
-121.9153785806324
 30
0.0
  0
VERTEX
  5
1A2
330
19D
100
AcDbEntity
  8
_U+30EC_U+30A4_U+30E4_U+30FC 1
 62
     7
420
 16777215
370
     9
100
AcDbVertex
100
AcDb2dVertex
 10
83.95871008025708
 20
-129.411906356536
 30
0.0
  0
SEQEND
  5
1A3
330
19D
100
AcDbEntity
  8
_U+30EC_U+30A4_U+30E4_U+30FC 1
 62
     7
420
 16777215
370
     9
  0
POLYLINE
  5
1A4
330
1F
100
AcDbEntity
  8
_U+30EC_U+30A4_U+30E4_U+30FC 1
 62
     7
420
 16777215
370
     9
100
AcDb2dPolyline
 66
     1
 10
0.0
 20
0.0
 30
0.0
  0
VERTEX
  5
1A5
330
1A4
100
AcDbEntity
  8
_U+30EC_U+30A4_U+30E4_U+30FC 1
 62
     7
420
 16777215
370
     9
100
AcDbVertex
100
AcDb2dVertex
 10
104.2978653946953
 20
-128.6033396900714
 30
0.0
  0
VERTEX
  5
1A6
330
1A4
100
AcDbEntity
  8
_U+30EC_U+30A4_U+30E4_U+30FC 1
 62
     7
420
 16777215
370
     9
100
AcDbVertex
100
AcDb2dVertex
 10
104.2978653946953
 20
-126.6630619127786
 30
0.0
  0
SEQEND
  5
1A7
330
1A4
100
AcDbEntity
  8
_U+30EC_U+30A4_U+30E4_U+30FC 1
 62
     7
420
 16777215
370
     9
  0
POLYLINE
  5
1A8
330
1F
100
AcDbEntity
  8
_U+30EC_U+30A4_U+30E4_U+30FC 1
 62
     7
420
 16777215
370
     9
100
AcDb2dPolyline
 66
     1
 10
0.0
 20
0.0
 30
0.0
  0
VERTEX
  5
1A9
330
1A8
100
AcDbEntity
  8
_U+30EC_U+30A4_U+30E4_U+30FC 1
 62
     7
420
 16777215
370
     9
100
AcDbVertex
100
AcDb2dVertex
 10
104.871129268959
 20
-126.6630619127786
 30
0.0
  0
VERTEX
  5
1AA
330
1A8
100
AcDbEntity
  8
_U+30EC_U+30A4_U+30E4_U+30FC 1
 62
     7
420
 16777215
370
     9
100
AcDbVertex
100
AcDb2dVertex
 10
104.871129268959
 20
-128.6033396900714
 30
0.0
  0
SEQEND
  5
1AB
330
1A8
100
AcDbEntity
  8
_U+30EC_U+30A4_U+30E4_U+30FC 1
 62
     7
420
 16777215
370
     9
  0
SPLINE
  5
1AC
330
1F
100
AcDbEntity
  8
_U+30EC_U+30A4_U+30E4_U+30FC 1
 62
     7
420
 16777215
370
     9
100
AcDbSpline
210
0.0
220
0.0
230
1.0
 70
     8
 71
     3
 72
    11
 73
     7
 74
     0
 42
0.0000000001
 43
0.0000000001
 12
1.0
 22
0.0
 32
0.0
 13
1.0
 23
0.0
 33
0.0
 40
0.0
 40
0.0
 40
0.0
 40
0.0
 40
1.0
 40
1.0
 40
1.0
 40
2.0
 40
2.0
 40
2.0
 40
2.0
 10
104.2978653946953
 20
-126.6520552461149
 30
0.0
 10
104.2978653946953
 20
-126.4939049683767
 30
0.0
 10
104.4259942803154
 20
-126.3654233017421
 30
0.0
 10
104.5844999738536
 20
-126.3654233017421
 30
0.0
 10
104.7429651055621
 20
-126.3654233017421
 30
0.0
 10
104.871129268959
 20
-126.4939049683767
 30
0.0
 10
104.871129268959
 20
-126.6520552461149
 30
0.0
  0
SPLINE
  5
1AD
330
1F
100
AcDbEntity
  8
_U+30EC_U+30A4_U+30E4_U+30FC 1
 62
     7
420
 16777215
370
     9
100
AcDbSpline
210
0.0
220
0.0
230
1.0
 70
     8
 71
     3
 72
    11
 73
     7
 74
     0
 42
0.0000000001
 43
0.0000000001
 12
1.0
 22
0.0
 32
0.0
 13
1.0
 23
0.0
 33
0.0
 40
0.0
 40
0.0
 40
0.0
 40
0.0
 40
1.0
 40
1.0
 40
1.0
 40
2.0
 40
2.0
 40
2.0
 40
2.0
 10
104.871129268959
 20
-128.6033396900714
 30
0.0
 10
104.871129268959
 20
-128.7618074678095
 30
0.0
 10
104.7429651055621
 20
-128.8899716344445
 30
0.0
 10
104.5844999738536
 20
-128.8899716344445
 30
0.0
 10
104.4259942803154
 20
-128.8899716344445
 30
0.0
 10
104.2978653946953
 20
-128.7618074678095
 30
0.0
 10
104.2978653946953
 20
-128.6033396900714
 30
0.0
  0
POLYLINE
  5
1AE
330
1F
100
AcDbEntity
  8
_U+30EC_U+30A4_U+30E4_U+30FC 1
 62
     7
420
 16777215
370
     9
100
AcDb2dPolyline
 66
     1
 10
0.0
 20
0.0
 30
0.0
  0
VERTEX
  5
1AF
330
1AE
100
AcDbEntity
  8
_U+30EC_U+30A4_U+30E4_U+30FC 1
 62
     7
420
 16777215
370
     9
100
AcDbVertex
100
AcDb2dVertex
 10
102.7055323797636
 20
-128.6033396900714
 30
0.0
  0
VERTEX
  5
1B0
330
1AE
100
AcDbEntity
  8
_U+30EC_U+30A4_U+30E4_U+30FC 1
 62
     7
420
 16777215
370
     9
100
AcDbVertex
100
AcDb2dVertex
 10
102.7055323797636
 20
-126.6630619127786
 30
0.0
  0
SEQEND
  5
1B1
330
1AE
100
AcDbEntity
  8
_U+30EC_U+30A4_U+30E4_U+30FC 1
 62
     7
420
 16777215
370
     9
  0
POLYLINE
  5
1B2
330
1F
100
AcDbEntity
  8
_U+30EC_U+30A4_U+30E4_U+30FC 1
 62
     7
420
 16777215
370
     9
100
AcDb2dPolyline
 66
     1
 10
0.0
 20
0.0
 30
0.0
  0
VERTEX
  5
1B3
330
1B2
100
AcDbEntity
  8
_U+30EC_U+30A4_U+30E4_U+30FC 1
 62
     7
420
 16777215
370
     9
100
AcDbVertex
100
AcDb2dVertex
 10
103.1465045907357
 20
-126.6630619127786
 30
0.0
  0
VERTEX
  5
1B4
330
1B2
100
AcDbEntity
  8
_U+30EC_U+30A4_U+30E4_U+30FC 1
 62
     7
420
 16777215
370
     9
100
AcDbVertex
100
AcDb2dVertex
 10
103.1465045907357
 20
-128.6033396900714
 30
0.0
  0
SEQEND
  5
1B5
330
1B2
100
AcDbEntity
  8
_U+30EC_U+30A4_U+30E4_U+30FC 1
 62
     7
420
 16777215
370
     9
  0
SPLINE
  5
1B6
330
1F
100
AcDbEntity
  8
_U+30EC_U+30A4_U+30E4_U+30FC 1
 62
     7
420
 16777215
370
     9
100
AcDbSpline
210
0.0
220
0.0
230
1.0
 70
     8
 71
     3
 72
    11
 73
     7
 74
     0
 42
0.0000000001
 43
0.0000000001
 12
1.0
 22
0.0
 32
0.0
 13
1.0
 23
0.0
 33
0.0
 40
0.0
 40
0.0
 40
0.0
 40
0.0
 40
1.0
 40
1.0
 40
1.0
 40
2.0
 40
2.0
 40
2.0
 40
2.0
 10
102.7055323797636
 20
-126.6520552461149
 30
0.0
 10
102.7055323797636
 20
-126.4939049683767
 30
0.0
 10
102.8047360854102
 20
-126.3654233017421
 30
0.0
 10
102.9260184852496
 20
-126.3654233017421
 30
0.0
 10
103.0479737599161
 20
-126.3654233017421
 30
0.0
 10
103.1465045907357
 20
-126.4939049683767
 30
0.0
 10
103.1465045907357
 20
-126.6520552461149
 30
0.0
  0
SPLINE
  5
1B7
330
1F
100
AcDbEntity
  8
_U+30EC_U+30A4_U+30E4_U+30FC 1
 62
     7
420
 16777215
370
     9
100
AcDbSpline
210
0.0
220
0.0
230
1.0
 70
     8
 71
     3
 72
    11
 73
     7
 74
     0
 42
0.0000000001
 43
0.0000000001
 12
1.0
 22
0.0
 32
0.0
 13
1.0
 23
0.0
 33
0.0
 40
0.0
 40
0.0
 40
0.0
 40
0.0
 40
1.0
 40
1.0
 40
1.0
 40
2.0
 40
2.0
 40
2.0
 40
2.0
 10
103.1465045907357
 20
-128.6033396900714
 30
0.0
 10
103.1465045907357
 20
-128.7618074678095
 30
0.0
 10
103.0479737599161
 20
-128.8899716344445
 30
0.0
 10
102.9260184852496
 20
-128.8899716344445
 30
0.0
 10
102.8047360854102
 20
-128.8899716344445
 30
0.0
 10
102.7055323797636
 20
-128.7618074678095
 30
0.0
 10
102.7055323797636
 20
-128.6033396900714
 30
0.0
  0
POLYLINE
  5
1B8
330
1F
100
AcDbEntity
  8
_U+30EC_U+30A4_U+30E4_U+30FC 1
 62
     7
420
 16777215
370
     9
100
AcDb2dPolyline
 66
     1
 10
0.0
 20
0.0
 30
0.0
  0
VERTEX
  5
1B9
330
1B8
100
AcDbEntity
  8
_U+30EC_U+30A4_U+30E4_U+30FC 1
 62
     7
420
 16777215
370
     9
100
AcDbVertex
100
AcDb2dVertex
 10
106.1602850694033
 20
-128.6033396900714
 30
0.0
  0
VERTEX
  5
1BA
330
1B8
100
AcDbEntity
  8
_U+30EC_U+30A4_U+30E4_U+30FC 1
 62
     7
420
 16777215
370
     9
100
AcDbVertex
100
AcDb2dVertex
 10
106.1602850694033
 20
-126.6630619127786
 30
0.0
  0
SEQEND
  5
1BB
330
1B8
100
AcDbEntity
  8
_U+30EC_U+30A4_U+30E4_U+30FC 1
 62
     7
420
 16777215
370
     9
  0
POLYLINE
  5
1BC
330
1F
100
AcDbEntity
  8
_U+30EC_U+30A4_U+30E4_U+30FC 1
 62
     7
420
 16777215
370
     9
100
AcDb2dPolyline
 66
     1
 10
0.0
 20
0.0
 30
0.0
  0
VERTEX
  5
1BD
330
1BC
100
AcDbEntity
  8
_U+30EC_U+30A4_U+30E4_U+30FC 1
 62
     7
420
 16777215
370
     9
100
AcDbVertex
100
AcDb2dVertex
 10
106.6012572803753
 20
-126.6630619127786
 30
0.0
  0
VERTEX
  5
1BE
330
1BC
100
AcDbEntity
  8
_U+30EC_U+30A4_U+30E4_U+30FC 1
 62
     7
420
 16777215
370
     9
100
AcDbVertex
100
AcDb2dVertex
 10
106.6012572803753
 20
-128.6033396900714
 30
0.0
  0
SEQEND
  5
1BF
330
1BC
100
AcDbEntity
  8
_U+30EC_U+30A4_U+30E4_U+30FC 1
 62
     7
420
 16777215
370
     9
  0
SPLINE
  5
1C0
330
1F
100
AcDbEntity
  8
_U+30EC_U+30A4_U+30E4_U+30FC 1
 62
     7
420
 16777215
370
     9
100
AcDbSpline
210
0.0
220
0.0
230
1.0
 70
     8
 71
     3
 72
    11
 73
     7
 74
     0
 42
0.0000000001
 43
0.0000000001
 12
1.0
 22
0.0
 32
0.0
 13
1.0
 23
0.0
 33
0.0
 40
0.0
 40
0.0
 40
0.0
 40
0.0
 40
1.0
 40
1.0
 40
1.0
 40
2.0
 40
2.0
 40
2.0
 40
2.0
 10
106.1602850694033
 20
-126.6520552461149
 30
0.0
 10
106.1602850694033
 20
-126.4939049683767
 30
0.0
 10
106.2588159002229
 20
-126.3654233017421
 30
0.0
 10
106.3807711748893
 20
-126.3654233017421
 30
0.0
 10
106.5027264495558
 20
-126.3654233017421
 30
0.0
 10
106.6012572803753
 20
-126.4939049683767
 30
0.0
 10
106.6012572803753
 20
-126.6520552461149
 30
0.0
  0
SPLINE
  5
1C1
330
1F
100
AcDbEntity
  8
_U+30EC_U+30A4_U+30E4_U+30FC 1
 62
     7
420
 16777215
370
     9
100
AcDbSpline
210
0.0
220
0.0
230
1.0
 70
     8
 71
     3
 72
    11
 73
     7
 74
     0
 42
0.0000000001
 43
0.0000000001
 12
1.0
 22
0.0
 32
0.0
 13
1.0
 23
0.0
 33
0.0
 40
0.0
 40
0.0
 40
0.0
 40
0.0
 40
1.0
 40
1.0
 40
1.0
 40
2.0
 40
2.0
 40
2.0
 40
2.0
 10
106.6012572803753
 20
-128.6033396900714
 30
0.0
 10
106.6012572803753
 20
-128.7618074678095
 30
0.0
 10
106.5027264495558
 20
-128.8899716344445
 30
0.0
 10
106.3807711748893
 20
-128.8899716344445
 30
0.0
 10
106.2588159002229
 20
-128.8899716344445
 30
0.0
 10
106.1602850694033
 20
-128.7618074678095
 30
0.0
 10
106.1602850694033
 20
-128.6033396900714
 30
0.0
  0
POLYLINE
  5
1C2
330
1F
100
AcDbEntity
  8
_U+30EC_U+30A4_U+30E4_U+30FC 1
 62
     7
420
 16777215
370
     9
100
AcDb2dPolyline
 66
     1
 10
0.0
 20
0.0
 30
0.0
  0
VERTEX
  5
1C3
330
1C2
100
AcDbEntity
  8
_U+30EC_U+30A4_U+30E4_U+30FC 1
 62
     7
420
 16777215
370
     9
100
AcDbVertex
100
AcDb2dVertex
 10
107.1379733777937
 20
-129.411906356536
 30
0.0
  0
VERTEX
  5
1C4
330
1C2
100
AcDbEntity
  8
_U+30EC_U+30A4_U+30E4_U+30FC 1
 62
     7
420
 16777215
370
     9
100
AcDbVertex
100
AcDb2dVertex
 10
102.1108901727119
 20
-129.411906356536
 30
0.0
  0
VERTEX
  5
1C5
330
1C2
100
AcDbEntity
  8
_U+30EC_U+30A4_U+30E4_U+30FC 1
 62
     7
420
 16777215
370
     9
100
AcDbVertex
100
AcDb2dVertex
 10
102.1108901727119
 20
-121.9153785806324
 30
0.0
  0
VERTEX
  5
1C6
330
1C2
100
AcDbEntity
  8
_U+30EC_U+30A4_U+30E4_U+30FC 1
 62
     7
420
 16777215
370
     9
100
AcDbVertex
100
AcDb2dVertex
 10
107.1379733777937
 20
-121.9153785806324
 30
0.0
  0
VERTEX
  5
1C7
330
1C2
100
AcDbEntity
  8
_U+30EC_U+30A4_U+30E4_U+30FC 1
 62
     7
420
 16777215
370
     9
100
AcDbVertex
100
AcDb2dVertex
 10
107.1379733777937
 20
-129.411906356536
 30
0.0
  0
SEQEND
  5
1C8
330
1C2
100
AcDbEntity
  8
_U+30EC_U+30A4_U+30E4_U+30FC 1
 62
     7
420
 16777215
370
     9
  0
POLYLINE
  5
1C9
330
1F
100
AcDbEntity
  8
_U+30EC_U+30A4_U+30E4_U+30FC 1
 62
     7
420
 16777215
370
     9
100
AcDb2dPolyline
 66
     1
 10
0.0
 20
0.0
 30
0.0
  0
VERTEX
  5
1CA
330
1C9
100
AcDbEntity
  8
_U+30EC_U+30A4_U+30E4_U+30FC 1
 62
     7
420
 16777215
370
     9
100
AcDbVertex
100
AcDb2dVertex
 10
77.38063941474431
 20
-123.1721494136515
 30
0.0
  0
VERTEX
  5
1CB
330
1C9
100
AcDbEntity
  8
_U+30EC_U+30A4_U+30E4_U+30FC 1
 62
     7
420
 16777215
370
     9
100
AcDbVertex
100
AcDb2dVertex
 10
78.30668105778568
 20
-123.1721494136515
 30
0.0
  0
SEQEND
  5
1CC
330
1C9
100
AcDbEntity
  8
_U+30EC_U+30A4_U+30E4_U+30FC 1
 62
     7
420
 16777215
370
     9
  0
SPLINE
  5
1CD
330
1F
100
AcDbEntity
  8
_U+30EC_U+30A4_U+30E4_U+30FC 1
 62
     7
420
 16777215
370
     9
100
AcDbSpline
210
0.0
220
0.0
230
1.0
 70
     8
 71
     3
 72
    14
 73
    10
 74
     0
 42
0.0000000001
 43
0.0000000001
 12
1.0
 22
0.0
 32
0.0
 13
1.0
 23
0.0
 33
0.0
 40
0.0
 40
0.0
 40
0.0
 40
0.0
 40
1.0
 40
1.0
 40
1.0
 40
2.0
 40
2.0
 40
2.0
 40
3.0
 40
3.0
 40
3.0
 40
3.0
 10
78.65533331366952
 20
-123.1721494136515
 30
0.0
 10
78.65533331366952
 20
-123.1721494136515
 30
0.0
 10
78.9061210424927
 20
-123.1721494136515
 30
0.0
 10
78.9061210424927
 20
-123.1721494136515
 30
0.0
 10
78.9061210424927
 20
-123.1721494136515
 30
0.0
 10
79.76188935399357
 20
-123.7454133023971
 30
0.0
 10
79.76188935399357
 20
-124.8698924687826
 30
0.0
 10
79.76188935399357
 20
-124.8698924687826
 30
0.0
 10
79.77289602037942
 20
-125.8510733018705
 30
0.0
 10
78.94609076369521
 20
-126.6778785794417
 30
0.0
  0
POLYLINE
  5
1CE
330
1F
100
AcDbEntity
  8
_U+30EC_U+30A4_U+30E4_U+30FC 1
 62
     7
420
 16777215
370
     9
100
AcDb2dPolyline
 66
     1
 10
0.0
 20
0.0
 30
0.0
  0
VERTEX
  5
1CF
330
1CE
100
AcDbEntity
  8
_U+30EC_U+30A4_U+30E4_U+30FC 1
 62
     7
420
 16777215
370
     9
100
AcDbVertex
100
AcDb2dVertex
 10
77.38063941474431
 20
-126.6117327461249
 30
0.0
  0
VERTEX
  5
1D0
330
1CE
100
AcDbEntity
  8
_U+30EC_U+30A4_U+30E4_U+30FC 1
 62
     7
420
 16777215
370
     9
100
AcDbVertex
100
AcDb2dVertex
 10
78.30668105778568
 20
-126.6117327461249
 30
0.0
  0
SEQEND
  5
1D1
330
1CE
100
AcDbEntity
  8
_U+30EC_U+30A4_U+30E4_U+30FC 1
 62
     7
420
 16777215
370
     9
  0
POLYLINE
  5
1D2
330
1F
100
AcDbEntity
  8
_U+30EC_U+30A4_U+30E4_U+30FC 1
 62
     7
420
 16777215
370
     9
100
AcDb2dPolyline
 66
     1
 10
0.0
 20
0.0
 30
0.0
  0
VERTEX
  5
1D3
330
1D2
100
AcDbEntity
  8
_U+30EC_U+30A4_U+30E4_U+30FC 1
 62
     7
420
 16777215
370
     9
100
AcDbVertex
100
AcDb2dVertex
 10
78.63741021601474
 20
-126.6117327461249
 30
0.0
  0
VERTEX
  5
1D4
330
1D2
100
AcDbEntity
  8
_U+30EC_U+30A4_U+30E4_U+30FC 1
 62
     7
420
 16777215
370
     9
100
AcDbVertex
100
AcDb2dVertex
 10
78.9681393742438
 20
-126.6117327461249
 30
0.0
  0
SEQEND
  5
1D5
330
1D2
100
AcDbEntity
  8
_U+30EC_U+30A4_U+30E4_U+30FC 1
 62
     7
420
 16777215
370
     9
  0
SPLINE
  5
1D6
330
1F
100
AcDbEntity
  8
_U+30EC_U+30A4_U+30E4_U+30FC 1
 62
     7
420
 16777215
370
     9
100
AcDbSpline
210
0.0
220
0.0
230
1.0
 70
    11
 71
     3
 72
    17
 73
    13
 74
     0
 42
0.0000000001
 43
0.0000000001
 12
1.0
 22
0.0
 32
0.0
 13
1.0
 23
0.0
 33
0.0
 40
0.0
 40
0.0
 40
0.0
 40
0.0
 40
1.0
 40
1.0
 40
1.0
 40
2.0
 40
2.0
 40
2.0
 40
3.0
 40
3.0
 40
3.0
 40
4.0
 40
4.0
 40
4.0
 40
4.0
 10
75.96952833963364
 20
-122.047670247266
 30
0.0
 10
75.96952833963364
 20
-122.047670247266
 30
0.0
 10
77.3585908041957
 20
-122.047670247266
 30
0.0
 10
77.3585908041957
 20
-122.047670247266
 30
0.0
 10
77.3585908041957
 20
-122.047670247266
 30
0.0
 10
77.3585908041957
 20
-127.7141633014049
 30
0.0
 10
77.3585908041957
 20
-127.7141633014049
 30
0.0
 10
77.3585908041957
 20
-127.7141633014049
 30
0.0
 10
76.14591722402247
 20
-127.7141633014049
 30
0.0
 10
76.14591722402247
 20
-127.7141633014049
 30
0.0
 10
76.14591722402247
 20
-127.7141633014049
 30
0.0
 10
74.42612560123135
 20
-126.170760524013
 30
0.0
 10
75.96952833963364
 20
-122.047670247266
 30
0.0
  0
SPLINE
  5
1D7
330
1F
100
AcDbEntity
  8
_U+30EC_U+30A4_U+30E4_U+30FC 1
 62
     7
420
 16777215
370
     9
100
AcDbSpline
210
0.0
220
0.0
230
1.0
 70
     8
 71
     3
 72
    11
 73
     7
 74
     0
 42
0.0000000001
 43
0.0000000001
 12
1.0
 22
0.0
 32
0.0
 13
1.0
 23
0.0
 33
0.0
 40
0.0
 40
0.0
 40
0.0
 40
0.0
 40
1.0
 40
1.0
 40
1.0
 40
2.0
 40
2.0
 40
2.0
 40
2.0
 10
102.0833382289704
 20
-127.57841441255
 30
0.0
 10
101.4322163011375
 20
-126.9276452460458
 30
0.0
 10
101.0291324225321
 20
-126.028132468493
 30
0.0
 10
101.0291324225321
 20
-125.0349219131856
 30
0.0
 10
101.0291324225321
 20
-124.0634071912064
 30
0.0
 10
101.4142951904836
 20
-123.1821330247601
 30
0.0
 10
102.0406194189342
 20
-122.535173858255
 30
0.0
  0
SPLINE
  5
1D8
330
1F
100
AcDbEntity
  8
_U+30EC_U+30A4_U+30E4_U+30FC 1
 62
     7
420
 16777215
370
     9
100
AcDbSpline
210
0.0
220
0.0
230
1.0
 70
     8
 71
     3
 72
    11
 73
     7
 74
     0
 42
0.0000000001
 43
0.0000000001
 12
1.0
 22
0.0
 32
0.0
 13
1.0
 23
0.0
 33
0.0
 40
0.0
 40
0.0
 40
0.0
 40
0.0
 40
1.0
 40
1.0
 40
1.0
 40
2.0
 40
2.0
 40
2.0
 40
2.0
 10
107.1662308770728
 20
-122.4917469138215
 30
0.0
 10
107.8173555286012
 20
-123.1425160803256
 30
0.0
 10
108.2204366835111
 20
-124.0413585801008
 30
0.0
 10
108.2204366835111
 20
-125.0349219131856
 30
0.0
 10
108.2204366835111
 20
-126.0491580240432
 30
0.0
 10
107.8001372497894
 20
-126.9655335793696
 30
0.0
 10
107.1242150448114
 20
-127.6194424680952
 30
0.0
  0
SPLINE
  5
1D9
330
1F
100
AcDbEntity
  8
_U+30EC_U+30A4_U+30E4_U+30FC 1
 62
     7
420
 16777215
370
     9
100
AcDbSpline
210
0.0
220
0.0
230
1.0
 70
     8
 71
     3
 72
    14
 73
    10
 74
     0
 42
0.0000000001
 43
0.0000000001
 12
1.0
 22
0.0
 32
0.0
 13
1.0
 23
0.0
 33
0.0
 40
0.0
 40
0.0
 40
0.0
 40
0.0
 40
1.0
 40
1.0
 40
1.0
 40
2.0
 40
2.0
 40
2.0
 40
3.0
 40
3.0
 40
3.0
 40
3.0
 10
102.8481604316804
 20
-121.9467405250689
 30
0.0
 10
103.4317606945693
 20
-121.5370949696159
 30
0.0
 10
103.8575634614839
 20
-121.4392696918623
 30
0.0
 10
104.6244317752528
 20
-121.4392696918623
 30
0.0
 10
105.3541173121925
 20
-121.4392696918623
 30
0.0
 10
105.8770777513084
 20
-121.5736427473843
 30
0.0
 10
106.4434597844011
 20
-121.9467405250689
 30
0.0
 10
106.4592995062192
 20
-121.9570769139552
 30
0.0
 10
106.3008317324843
 20
-121.851314136204
 30
0.0
 10
106.3166714543024
 20
-121.8619680250899
 30
0.0
  0
SPLINE
  5
1DA
330
1F
100
AcDbEntity
  8
_U+30EC_U+30A4_U+30E4_U+30FC 1
  6
AI-Linetype-2
 62
     7
420
 16777215
370
     9
100
AcDbSpline
210
0.0
220
0.0
230
1.0
 70
     8
 71
     3
 72
    11
 73
     7
 74
     0
 42
0.0000000001
 43
0.0000000001
 12
1.0
 22
0.0
 32
0.0
 13
1.0
 23
0.0
 33
0.0
 40
0.0
 40
0.0
 40
0.0
 40
0.0
 40
1.0
 40
1.0
 40
1.0
 40
2.0
 40
2.0
 40
2.0
 40
2.0
 10
103.8499787394552
 20
-137.0138441324135
 30
0.0
 10
103.8499787394552
 20
-136.5387935769764
 30
0.0
 10
104.2351415074067
 20
-136.1539482992951
 30
0.0
 10
104.7098745508508
 20
-136.1539482992951
 30
0.0
 10
105.1846075942949
 20
-136.1539482992951
 30
0.0
 10
105.5691027513856
 20
-136.5387935769764
 30
0.0
 10
105.5691027513856
 20
-137.0138441324135
 30
0.0
  0
SPLINE
  5
1DC
330
1F
100
AcDbEntity
  8
_U+30EC_U+30A4_U+30E4_U+30FC 1
 62
     7
420
 16777215
370
     9
100
AcDbSpline
210
0.0
220
0.0
230
1.0
 70
     8
 71
     3
 72
    11
 73
     7
 74
     0
 42
0.0000000001
 43
0.0000000001
 12
1.0
 22
0.0
 32
0.0
 13
1.0
 23
0.0
 33
0.0
 40
0.0
 40
0.0
 40
0.0
 40
0.0
 40
1.0
 40
1.0
 40
1.0
 40
2.0
 40
2.0
 40
2.0
 40
2.0
 10
103.805881518358
 20
-132.9279719112126
 30
0.0
 10
103.805881518358
 20
-132.4249813557825
 30
0.0
 10
104.2137984523956
 20
-132.0167469114402
 30
0.0
 10
104.7167916404872
 20
-132.0167469114402
 30
0.0
 10
105.2197442600651
 20
-132.0167469114402
 30
0.0
 10
105.6283314718634
 20
-132.4249813557825
 30
0.0
 10
105.6283314718634
 20
-132.9279719112126
 30
0.0
  0
ENDSEC
  0
SECTION
  2
OBJECTS
  0
DICTIONARY
  5
C
330
0
100
AcDbDictionary
281
     1
  3
ACAD_GROUP
350
D
  3
ACAD_LAYOUT
350
1A
  3
ACAD_MATERIAL
350
3B
  3
ACAD_MLEADERSTYLE
350
1DF
  3
ACAD_MLINESTYLE
350
17
  3
ACAD_PLOTSETTINGS
350
19
  3
ACAD_PLOTSTYLENAME
350
E
  3
ACAD_TABLESTYLE
350
1DE
  3
ACAD_VISUALSTYLE
350
2A
  0
SUN
  5
3F
330
29
100
AcDbSun
 90
        1
290
     0
 63
     7
421
 16777215
 40
1.0
291
     1
 91
  2455826
 92
 54000000
292
     0
 70
     2
 71
   256
280
     1
  0
DICTIONARY
  5
D
102
{ACAD_REACTORS
330
C
102
}
330
C
100
AcDbDictionary
281
     1
  0
DICTIONARY
  5
1A
102
{ACAD_REACTORS
330
C
102
}
330
C
100
AcDbDictionary
281
     1
  3
Layout1
350
1E
  3
Layout2
350
26
  3
Model
350
22
  0
DICTIONARY
  5
3B
102
{ACAD_REACTORS
330
C
102
}
330
C
100
AcDbDictionary
281
     1
  3
ByBlock
350
3D
  3
ByLayer
350
3C
  3
Global
350
3E
  0
DICTIONARY
  5
1DF
102
{ACAD_REACTORS
330
C
102
}
330
C
100
AcDbDictionary
281
     1
  0
DICTIONARY
  5
17
102
{ACAD_REACTORS
330
C
102
}
330
C
100
AcDbDictionary
281
     1
  3
Standard
350
18
  0
DICTIONARY
  5
19
102
{ACAD_REACTORS
330
C
102
}
330
C
100
AcDbDictionary
281
     1
  0
ACDBDICTIONARYWDFLT
  5
E
102
{ACAD_REACTORS
330
C
102
}
330
C
100
AcDbDictionary
281
     1
  3
Normal
350
F
100
AcDbDictionaryWithDefault
340
F
  0
DICTIONARY
  5
1DE
102
{ACAD_REACTORS
330
C
102
}
330
C
100
AcDbDictionary
281
     1
  0
DICTIONARY
  5
2A
102
{ACAD_REACTORS
330
C
102
}
330
C
100
AcDbDictionary
281
     1
  3
2dWireframe
350
2F
  3
3D Hidden
350
31
  3
3dWireframe
350
30
  3
Basic
350
32
  3
Brighten
350
36
  3
ColorChange
350
3A
  3
Conceptual
350
34
  3
Dim
350
35
  3
Facepattern
350
39
  3
Flat
350
2B
  3
FlatWithEdges
350
2C
  3
Gouraud
350
2D
  3
GouraudWithEdges
350
2E
  3
Linepattern
350
38
  3
Realistic
350
33
  3
Thicken
350
37
  0
LAYOUT
  5
1E
102
{ACAD_REACTORS
330
1A
102
}
330
1A
100
AcDbPlotSettings
  1

  2
none_device
  4

  6

 40
0.0
 41
0.0
 42
0.0
 43
0.0
 44
0.0
 45
0.0
 46
0.0
 47
0.0
 48
0.0
 49
0.0
140
0.0
141
0.0
142
1.0
143
1.0
 70
   688
 72
     0
 73
     0
 74
     5
  7

 75
    16
 76
     0
 77
     2
 78
   300
147
1.0
148
0.0
149
0.0
100
AcDbLayout
  1
Layout1
 70
     1
 71
     1
 10
0.0
 20
0.0
 11
12.0
 21
9.0
 12
0.0
 22
0.0
 32
0.0
 14
1.000000000000000E+20
 24
1.000000000000000E+20
 34
1.000000000000000E+20
 15
-1.000000000000000E+20
 25
-1.000000000000000E+20
 35
-1.000000000000000E+20
146
0.0
 13
0.0
 23
0.0
 33
0.0
 16
1.0
 26
0.0
 36
0.0
 17
0.0
 27
1.0
 37
0.0
 76
     0
330
1B
  0
LAYOUT
  5
26
102
{ACAD_REACTORS
330
1A
102
}
330
1A
100
AcDbPlotSettings
  1

  2
none_device
  4

  6

 40
0.0
 41
0.0
 42
0.0
 43
0.0
 44
0.0
 45
0.0
 46
0.0
 47
0.0
 48
0.0
 49
0.0
140
0.0
141
0.0
142
1.0
143
1.0
 70
   688
 72
     0
 73
     0
 74
     5
  7

 75
    16
 76
     0
 77
     2
 78
   300
147
1.0
148
0.0
149
0.0
100
AcDbLayout
  1
Layout2
 70
     1
 71
     2
 10
0.0
 20
0.0
 11
0.0
 21
0.0
 12
0.0
 22
0.0
 32
0.0
 14
0.0
 24
0.0
 34
0.0
 15
0.0
 25
0.0
 35
0.0
146
0.0
 13
0.0
 23
0.0
 33
0.0
 16
1.0
 26
0.0
 36
0.0
 17
0.0
 27
1.0
 37
0.0
 76
     0
330
23
  0
LAYOUT
  5
22
102
{ACAD_REACTORS
330
1A
102
}
330
1A
100
AcDbPlotSettings
  1

  2
none_device
  4

  6

 40
0.0
 41
0.0
 42
0.0
 43
0.0
 44
0.0
 45
0.0
 46
0.0
 47
0.0
 48
0.0
 49
0.0
140
0.0
141
0.0
142
1.0
143
1.0
 70
  1712
 72
     0
 73
     0
 74
     0
  7

 75
     0
 76
     0
 77
     2
 78
   300
147
1.0
148
0.0
149
0.0
100
AcDbLayout
  1
Model
 70
     1
 71
     0
 10
0.0
 20
0.0
 11
12.0
 21
9.0
 12
0.0
 22
0.0
 32
0.0
 14
1.000000000000000E+20
 24
1.000000000000000E+20
 34
1.000000000000000E+20
 15
-1.000000000000000E+20
 25
-1.000000000000000E+20
 35
-1.000000000000000E+20
146
0.0
 13
0.0
 23
0.0
 33
0.0
 16
1.0
 26
0.0
 36
0.0
 17
0.0
 27
1.0
 37
0.0
 76
     0
330
1F
331
29
  0
MATERIAL
  5
3D
102
{ACAD_REACTORS
330
3B
102
}
330
3B
100
AcDbMaterial
  1
ByBlock
 72
     1
 94
      127
  0
MATERIAL
  5
3C
102
{ACAD_REACTORS
330
3B
102
}
330
3B
100
AcDbMaterial
  1
ByLayer
 72
     1
 94
      127
  0
MATERIAL
  5
3E
102
{ACAD_REACTORS
330
3B
102
}
330
3B
100
AcDbMaterial
  1
Global
 72
     1
 94
      127
  0
MLINESTYLE
  5
18
102
{ACAD_REACTORS
330
17
102
}
330
17
100
AcDbMlineStyle
  2
Standard
 70
     0
  3

 62
   256
 51
90.0
 52
90.0
 71
     2
 49
0.5
 62
   256
  6
BYLAYER
 49
-0.5
 62
   256
  6
BYLAYER
  0
ACDBPLACEHOLDER
  5
F
102
{ACAD_REACTORS
330
E
102
}
330
E
  0
VISUALSTYLE
  5
2F
102
{ACAD_REACTORS
330
2A
102
}
330
2A
100
AcDbVisualStyle
  2
2dWireframe
 70
     4
177
     2
291
     0
 71
     0
176
     1
 72
     2
176
     1
 73
     0
176
     1
 90
        0
176
     1
 40
-0.6
176
     1
 41
-30.0
176
     1
 62
     5
 63
     7
421
 16777215
176
     1
 74
     1
176
     1
 91
        4
176
     1
 64
     7
176
     1
 65
   257
176
     1
 75
     1
176
     1
175
     1
176
     1
 42
1.0
176
     1
 92
        0
176
     1
 66
   257
176
     1
 43
1.0
176
     1
 76
     1
176
     1
 77
     6
176
     1
 78
     2
176
     1
 67
     7
176
     1
 79
     5
176
     1
170
     0
176
     1
171
     0
176
     1
290
     0
176
     1
 93
        1
176
     1
 44
0.0
176
     1
173
     0
176
     1
  0
VISUALSTYLE
  5
31
102
{ACAD_REACTORS
330
2A
102
}
330
2A
100
AcDbVisualStyle
  2
3D Hidden
 70
     6
177
     2
291
     0
 71
     1
176
     1
 72
     2
176
     1
 73
     2
176
     1
 90
        0
176
     1
 40
-0.6
176
     1
 41
-30.0
176
     1
 62
     5
 63
     7
421
 16777215
176
     1
 74
     2
176
     1
 91
        2
176
     1
 64
     7
176
     1
 65
   257
176
     1
 75
     2
176
     1
175
     1
176
     1
 42
40.0
176
     1
 92
        0
176
     1
 66
   257
176
     1
 43
1.0
176
     1
 76
     1
176
     1
 77
     6
176
     1
 78
     2
176
     1
 67
     7
176
     1
 79
     3
176
     1
170
     0
176
     1
171
     0
176
     1
290
     0
176
     1
 93
        1
176
     1
 44
0.0
176
     1
173
     0
176
     1
  0
VISUALSTYLE
  5
30
102
{ACAD_REACTORS
330
2A
102
}
330
2A
100
AcDbVisualStyle
  2
3dWireframe
 70
     5
177
     2
291
     0
 71
     0
176
     1
 72
     2
176
     1
 73
     0
176
     1
 90
        0
176
     1
 40
-0.6
176
     1
 41
-30.0
176
     1
 62
     5
 63
     7
421
 16777215
176
     1
 74
     1
176
     1
 91
        4
176
     1
 64
     7
176
     1
 65
   257
176
     1
 75
     1
176
     1
175
     1
176
     1
 42
1.0
176
     1
 92
        0
176
     1
 66
   257
176
     1
 43
1.0
176
     1
 76
     1
176
     1
 77
     6
176
     1
 78
     2
176
     1
 67
     7
176
     1
 79
     5
176
     1
170
     0
176
     1
171
     0
176
     1
290
     0
176
     1
 93
        1
176
     1
 44
0.0
176
     1
173
     0
176
     1
  0
VISUALSTYLE
  5
32
102
{ACAD_REACTORS
330
2A
102
}
330
2A
100
AcDbVisualStyle
  2
Basic
 70
     7
177
     2
291
     1
 71
     1
176
     1
 72
     0
176
     1
 73
     1
176
     1
 90
        0
176
     1
 40
-0.6
176
     1
 41
-30.0
176
     1
 62
     5
 63
     7
421
 16777215
176
     1
 74
     0
176
     1
 91
        4
176
     1
 64
     7
176
     1
 65
   257
176
     1
 75
     1
176
     1
175
     1
176
     1
 42
1.0
176
     1
 92
        8
176
     1
 66
     7
176
     1
 43
1.0
176
     1
 76
     1
176
     1
 77
     6
176
     1
 78
     2
176
     1
 67
     7
176
     1
 79
     5
176
     1
170
     0
176
     1
171
     0
176
     1
290
     0
176
     1
 93
        1
176
     1
 44
0.0
176
     1
173
     0
176
     1
  0
VISUALSTYLE
  5
36
102
{ACAD_REACTORS
330
2A
102
}
330
2A
100
AcDbVisualStyle
  2
Brighten
 70
    12
177
     2
291
     1
 71
     2
176
     1
 72
     2
176
     1
 73
     0
176
     1
 90
        0
176
     1
 40
-0.6
176
     1
 41
-30.0
176
     1
 62
     5
 63
     7
421
 16777215
176
     1
 74
     1
176
     1
 91
        4
176
     1
 64
     7
176
     1
 65
   257
176
     1
 75
     1
176
     1
175
     1
176
     1
 42
1.0
176
     1
 92
        8
176
     1
 66
     7
176
     1
 43
1.0
176
     1
 76
     1
176
     1
 77
     6
176
     1
 78
     2
176
     1
 67
     7
176
     1
 79
     5
176
     1
170
     0
176
     1
171
     0
176
     1
290
     0
176
     1
 93
        1
176
     1
 44
50.0
176
     1
173
     0
176
     1
  0
VISUALSTYLE
  5
3A
102
{ACAD_REACTORS
330
2A
102
}
330
2A
100
AcDbVisualStyle
  2
ColorChange
 70
    16
177
     2
291
     1
 71
     2
176
     1
 72
     2
176
     1
 73
     3
176
     1
 90
        0
176
     1
 40
-0.6
176
     1
 41
-30.0
176
     1
 62
     5
 63
     8
421
  8421504
176
     1
 74
     1
176
     1
 91
        4
176
     1
 64
     7
176
     1
 65
   257
176
     1
 75
     1
176
     1
175
     1
176
     1
 42
1.0
176
     1
 92
        8
176
     1
 66
     8
424
  8421504
176
     1
 43
1.0
176
     1
 76
     1
176
     1
 77
     6
176
     1
 78
     2
176
     1
 67
     7
176
     1
 79
     5
176
     1
170
     0
176
     1
171
     0
176
     1
290
     0
176
     1
 93
        1
176
     1
 44
0.0
176
     1
173
     0
176
     1
  0
VISUALSTYLE
  5
34
102
{ACAD_REACTORS
330
2A
102
}
330
2A
100
AcDbVisualStyle
  2
Conceptual
 70
     9
177
     2
291
     0
 71
     3
176
     1
 72
     2
176
     1
 73
     0
176
     1
 90
        0
176
     1
 40
-0.6
176
     1
 41
-30.0
176
     1
 62
     5
 63
     7
421
 16777215
176
     1
 74
     2
176
     1
 91
        2
176
     1
 64
     7
176
     1
 65
   257
176
     1
 75
     1
176
     1
175
     1
176
     1
 42
40.0
176
     1
 92
        8
176
     1
 66
     7
176
     1
 43
1.0
176
     1
 76
     1
176
     1
 77
     6
176
     1
 78
     2
176
     1
 67
     7
176
     1
 79
     3
176
     1
170
     0
176
     1
171
     0
176
     1
290
     0
176
     1
 93
        1
176
     1
 44
0.0
176
     1
173
     0
176
     1
  0
VISUALSTYLE
  5
35
102
{ACAD_REACTORS
330
2A
102
}
330
2A
100
AcDbVisualStyle
  2
Dim
 70
    11
177
     2
291
     1
 71
     2
176
     1
 72
     2
176
     1
 73
     0
176
     1
 90
        0
176
     1
 40
-0.6
176
     1
 41
-30.0
176
     1
 62
     5
 63
     7
421
 16777215
176
     1
 74
     1
176
     1
 91
        4
176
     1
 64
     7
176
     1
 65
   257
176
     1
 75
     1
176
     1
175
     1
176
     1
 42
1.0
176
     1
 92
        8
176
     1
 66
     7
176
     1
 43
1.0
176
     1
 76
     1
176
     1
 77
     6
176
     1
 78
     2
176
     1
 67
     7
176
     1
 79
     5
176
     1
170
     0
176
     1
171
     0
176
     1
290
     0
176
     1
 93
        1
176
     1
 44
-50.0
176
     1
173
     0
176
     1
  0
VISUALSTYLE
  5
39
102
{ACAD_REACTORS
330
2A
102
}
330
2A
100
AcDbVisualStyle
  2
Facepattern
 70
    15
177
     2
291
     1
 71
     2
176
     1
 72
     2
176
     1
 73
     0
176
     1
 90
        0
176
     1
 40
-0.6
176
     1
 41
-30.0
176
     1
 62
     5
 63
     7
421
 16777215
176
     1
 74
     1
176
     1
 91
        4
176
     1
 64
     7
176
     1
 65
   257
176
     1
 75
     1
176
     1
175
     1
176
     1
 42
1.0
176
     1
 92
        8
176
     1
 66
     7
176
     1
 43
1.0
176
     1
 76
     1
176
     1
 77
     6
176
     1
 78
     2
176
     1
 67
     7
176
     1
 79
     5
176
     1
170
     0
176
     1
171
     0
176
     1
290
     0
176
     1
 93
        1
176
     1
 44
0.0
176
     1
173
     0
176
     1
  0
VISUALSTYLE
  5
2B
102
{ACAD_REACTORS
330
2A
102
}
330
2A
100
AcDbVisualStyle
  2
Flat
 70
     0
177
     2
291
     1
 71
     2
176
     1
 72
     1
176
     1
 73
     1
176
     1
 90
        2
176
     1
 40
-0.6
176
     1
 41
30.0
176
     1
 62
     5
 63
     7
421
 16777215
176
     1
 74
     0
176
     1
 91
        4
176
     1
 64
     7
176
     1
 65
   257
176
     1
 75
     1
176
     1
175
     1
176
     1
 42
1.0
176
     1
 92
        8
176
     1
 66
     7
176
     1
 43
1.0
176
     1
 76
     1
176
     1
 77
     6
176
     1
 78
     2
176
     1
 67
     7
176
     1
 79
     5
176
     1
170
     0
176
     1
171
     0
176
     1
290
     0
176
     1
 93
       13
176
     1
 44
0.0
176
     1
173
     0
176
     1
  0
VISUALSTYLE
  5
2C
102
{ACAD_REACTORS
330
2A
102
}
330
2A
100
AcDbVisualStyle
  2
FlatWithEdges
 70
     1
177
     2
291
     1
 71
     2
176
     1
 72
     1
176
     1
 73
     1
176
     1
 90
        2
176
     1
 40
-0.6
176
     1
 41
30.0
176
     1
 62
     5
 63
     7
421
 16777215
176
     1
 74
     1
176
     1
 91
        4
176
     1
 64
     7
176
     1
 65
   257
176
     1
 75
     1
176
     1
175
     1
176
     1
 42
1.0
176
     1
 92
        0
176
     1
 66
   257
176
     1
 43
1.0
176
     1
 76
     1
176
     1
 77
     6
176
     1
 78
     2
176
     1
 67
     7
176
     1
 79
     5
176
     1
170
     0
176
     1
171
     0
176
     1
290
     0
176
     1
 93
       13
176
     1
 44
0.0
176
     1
173
     0
176
     1
  0
VISUALSTYLE
  5
2D
102
{ACAD_REACTORS
330
2A
102
}
330
2A
100
AcDbVisualStyle
  2
Gouraud
 70
     2
177
     2
291
     1
 71
     2
176
     1
 72
     2
176
     1
 73
     1
176
     1
 90
        2
176
     1
 40
-0.6
176
     1
 41
30.0
176
     1
 62
     5
 63
     7
421
 16777215
176
     1
 74
     0
176
     1
 91
        4
176
     1
 64
     7
176
     1
 65
   257
176
     1
 75
     1
176
     1
175
     1
176
     1
 42
1.0
176
     1
 92
        0
176
     1
 66
     7
176
     1
 43
1.0
176
     1
 76
     1
176
     1
 77
     6
176
     1
 78
     2
176
     1
 67
     7
176
     1
 79
     5
176
     1
170
     0
176
     1
171
     0
176
     1
290
     0
176
     1
 93
       13
176
     1
 44
0.0
176
     1
173
     0
176
     1
  0
VISUALSTYLE
  5
2E
102
{ACAD_REACTORS
330
2A
102
}
330
2A
100
AcDbVisualStyle
  2
GouraudWithEdges
 70
     3
177
     2
291
     1
 71
     2
176
     1
 72
     2
176
     1
 73
     1
176
     1
 90
        2
176
     1
 40
-0.6
176
     1
 41
30.0
176
     1
 62
     5
 63
     7
421
 16777215
176
     1
 74
     1
176
     1
 91
        4
176
     1
 64
     7
176
     1
 65
   257
176
     1
 75
     1
176
     1
175
     1
176
     1
 42
1.0
176
     1
 92
        0
176
     1
 66
   257
176
     1
 43
1.0
176
     1
 76
     1
176
     1
 77
     6
176
     1
 78
     2
176
     1
 67
     7
176
     1
 79
     5
176
     1
170
     0
176
     1
171
     0
176
     1
290
     0
176
     1
 93
       13
176
     1
 44
0.0
176
     1
173
     0
176
     1
  0
VISUALSTYLE
  5
38
102
{ACAD_REACTORS
330
2A
102
}
330
2A
100
AcDbVisualStyle
  2
Linepattern
 70
    14
177
     2
291
     1
 71
     2
176
     1
 72
     2
176
     1
 73
     0
176
     1
 90
        0
176
     1
 40
-0.6
176
     1
 41
-30.0
176
     1
 62
     5
 63
     7
421
 16777215
176
     1
 74
     1
176
     1
 91
        4
176
     1
 64
     7
176
     1
 65
   257
176
     1
 75
     7
176
     1
175
     7
176
     1
 42
1.0
176
     1
 92
        8
176
     1
 66
     7
176
     1
 43
1.0
176
     1
 76
     1
176
     1
 77
     6
176
     1
 78
     2
176
     1
 67
     7
176
     1
 79
     5
176
     1
170
     0
176
     1
171
     0
176
     1
290
     0
176
     1
 93
        1
176
     1
 44
0.0
176
     1
173
     0
176
     1
  0
VISUALSTYLE
  5
33
102
{ACAD_REACTORS
330
2A
102
}
330
2A
100
AcDbVisualStyle
  2
Realistic
 70
     8
177
     2
291
     0
 71
     2
176
     1
 72
     2
176
     1
 73
     0
176
     1
 90
        0
176
     1
 40
-0.6
176
     1
 41
-30.0
176
     1
 62
     5
 63
     7
421
 16777215
176
     1
 74
     1
176
     1
 91
        0
176
     1
 64
     7
176
     1
 65
   257
176
     1
 75
     1
176
     1
175
     1
176
     1
 42
1.0
176
     1
 92
        8
176
     1
 66
     8
424
  7895160
176
     1
 43
1.0
176
     1
 76
     1
176
     1
 77
     6
176
     1
 78
     2
176
     1
 67
     7
176
     1
 79
     5
176
     1
170
     0
176
     1
171
     0
176
     1
290
     0
176
     1
 93
       13
176
     1
 44
0.0
176
     1
173
     0
176
     1
  0
VISUALSTYLE
  5
37
102
{ACAD_REACTORS
330
2A
102
}
330
2A
100
AcDbVisualStyle
  2
Thicken
 70
    13
177
     2
291
     1
 71
     2
176
     1
 72
     2
176
     1
 73
     0
176
     1
 90
        0
176
     1
 40
-0.6
176
     1
 41
-30.0
176
     1
 62
     5
 63
     7
421
 16777215
176
     1
 74
     1
176
     1
 91
        4
176
     1
 64
     7
176
     1
 65
   257
176
     1
 75
     1
176
     1
175
     1
176
     1
 42
1.0
176
     1
 92
       12
176
     1
 66
     7
176
     1
 43
1.0
176
     1
 76
     1
176
     1
 77
     6
176
     1
 78
     2
176
     1
 67
     7
176
     1
 79
     5
176
     1
170
     0
176
     1
171
     0
176
     1
290
     0
176
     1
 93
        1
176
     1
 44
0.0
176
     1
173
     0
176
     1
  0
ENDSEC
  0
EOF
