  0
SECTION
  2
HEADER
  9
$ACADVER
  1
AC1024
  9
$ACADMAINTVER
 70
     6
  9
$DWGCODEPAGE
  3
UNDEFINED
  9
$INSBASE
 10
0.0
 20
0.0
 30
0.0
  9
$EXTMIN
 10
1.000000000000000E+20
 20
1.000000000000000E+20
 30
1.000000000000000E+20
  9
$EXTMAX
 10
-1.000000000000000E+20
 20
-1.000000000000000E+20
 30
-1.000000000000000E+20
  9
$LIMMIN
 10
0.0
 20
0.0
  9
$LIMMAX
 10
12.0
 20
9.0
  9
$ORTHOMODE
 70
     0
  9
$REGENMODE
 70
     1
  9
$FILLMODE
 70
     1
  9
$QTEXTMODE
 70
     0
  9
$MIRRTEXT
 70
     1
  9
$LTSCALE
 40
1.0
  9
$ATTMODE
 70
     1
  9
$TEXTSIZE
 40
0.2
  9
$TRACEWID
 40
0.05
  9
$TEXTSTYLE
  7
Standard
  9
$CLAYER
  8
0
  9
$CELTYPE
  6
ByLayer
  9
$CECOLOR
 62
   256
  9
$CELTSCALE
 40
1.0
  9
$DISPSILH
 70
     0
  9
$DIMSCALE
 40
1.0
  9
$DIMASZ
 40
0.18
  9
$DIMEXO
 40
0.0625
  9
$DIMDLI
 40
0.38
  9
$DIMRND
 40
0.0
  9
$DIMDLE
 40
0.0
  9
$DIMEXE
 40
0.18
  9
$DIMTP
 40
0.0
  9
$DIMTM
 40
0.0
  9
$DIMTXT
 40
0.18
  9
$DIMCEN
 40
0.09
  9
$DIMTSZ
 40
0.0
  9
$DIMTOL
 70
     0
  9
$DIMLIM
 70
     0
  9
$DIMTIH
 70
     1
  9
$DIMTOH
 70
     1
  9
$DIMSE1
 70
     0
  9
$DIMSE2
 70
     0
  9
$DIMTAD
 70
     0
  9
$DIMZIN
 70
     0
  9
$DIMBLK
  1

  9
$DIMASO
 70
     1
  9
$DIMSHO
 70
     1
  9
$DIMPOST
  1

  9
$DIMAPOST
  1

  9
$DIMALT
 70
     0
  9
$DIMALTD
 70
     2
  9
$DIMALTF
 40
25.4
  9
$DIMLFAC
 40
1.0
  9
$DIMTOFL
 70
     0
  9
$DIMTVP
 40
0.0
  9
$DIMTIX
 70
     0
  9
$DIMSOXD
 70
     0
  9
$DIMSAH
 70
     0
  9
$DIMBLK1
  1

  9
$DIMBLK2
  1

  9
$DIMSTYLE
  2
Standard
  9
$DIMCLRD
 70
     0
  9
$DIMCLRE
 70
     0
  9
$DIMCLRT
 70
     0
  9
$DIMTFAC
 40
1.0
  9
$DIMGAP
 40
0.09
  9
$DIMJUST
 70
     0
  9
$DIMSD1
 70
     0
  9
$DIMSD2
 70
     0
  9
$DIMTOLJ
 70
     1
  9
$DIMTZIN
 70
     0
  9
$DIMALTZ
 70
     0
  9
$DIMALTTZ
 70
     0
  9
$DIMUPT
 70
     0
  9
$DIMDEC
 70
     4
  9
$DIMTDEC
 70
     4
  9
$DIMALTU
 70
     2
  9
$DIMALTTD
 70
     2
  9
$DIMTXSTY
  7
Standard
  9
$DIMAUNIT
 70
     0
  9
$DIMADEC
 70
     0
  9
$DIMALTRND
 40
0.0
  9
$DIMAZIN
 70
     0
  9
$DIMDSEP
 70
    46
  9
$DIMATFIT
 70
     3
  9
$DIMFRAC
 70
     0
  9
$DIMLDRBLK
  1

  9
$DIMLUNIT
 70
     2
  9
$DIMLWD
 70
    -2
  9
$DIMLWE
 70
    -2
  9
$DIMTMOVE
 70
     0
  9
$DIMFXL
 40
1.0
  9
$DIMFXLON
 70
     0
  9
$DIMJOGANG
 40
0.7853981633974483
  9
$DIMTFILL
 70
     0
  9
$DIMTFILLCLR
 70
     0
  9
$DIMARCSYM
 70
     0
  9
$DIMLTYPE
  6

  9
$DIMLTEX1
  6

  9
$DIMLTEX2
  6

  9
$DIMTXTDIRECTION
 70
     0
  9
$LUNITS
 70
     2
  9
$LUPREC
 70
     4
  9
$SKETCHINC
 40
0.1
  9
$FILLETRAD
 40
0.5
  9
$AUNITS
 70
     0
  9
$AUPREC
 70
     0
  9
$MENU
  1
.
  9
$ELEVATION
 40
0.0
  9
$PELEVATION
 40
0.0
  9
$THICKNESS
 40
0.0
  9
$LIMCHECK
 70
     0
  9
$CHAMFERA
 40
0.5
  9
$CHAMFERB
 40
0.5
  9
$CHAMFERC
 40
1.0
  9
$CHAMFERD
 40
0.0
  9
$SKPOLY
 70
     0
  9
$TDCREATE
 40
2457917.628692118
  9
$TDUCREATE
 40
2457917.25369213
  9
$TDUPDATE
 40
2457917.628692118
  9
$TDUUPDATE
 40
2457917.25369213
  9
$TDINDWG
 40
0.0000000116
  9
$TDUSRTIMER
 40
0.0000000116
  9
$USRTIMER
 70
     1
  9
$ANGBASE
 50
0.0
  9
$ANGDIR
 70
     0
  9
$PDMODE
 70
     0
  9
$PDSIZE
 40
0.0
  9
$PLINEWID
 40
0.0
  9
$SPLFRAME
 70
     0
  9
$SPLINETYPE
 70
     6
  9
$SPLINESEGS
 70
     8
  9
$HANDSEED
  5
1D6
  9
$SURFTAB1
 70
     6
  9
$SURFTAB2
 70
     6
  9
$SURFTYPE
 70
     6
  9
$SURFU
 70
     6
  9
$SURFV
 70
     6
  9
$UCSBASE
  2

  9
$UCSNAME
  2

  9
$UCSORG
 10
0.0
 20
0.0
 30
0.0
  9
$UCSXDIR
 10
1.0
 20
0.0
 30
0.0
  9
$UCSYDIR
 10
0.0
 20
1.0
 30
0.0
  9
$UCSORTHOREF
  2

  9
$UCSORTHOVIEW
 70
     0
  9
$UCSORGTOP
 10
0.0
 20
0.0
 30
0.0
  9
$UCSORGBOTTOM
 10
0.0
 20
0.0
 30
0.0
  9
$UCSORGLEFT
 10
0.0
 20
0.0
 30
0.0
  9
$UCSORGRIGHT
 10
0.0
 20
0.0
 30
0.0
  9
$UCSORGFRONT
 10
0.0
 20
0.0
 30
0.0
  9
$UCSORGBACK
 10
0.0
 20
0.0
 30
0.0
  9
$PUCSBASE
  2

  9
$PUCSNAME
  2

  9
$PUCSORG
 10
0.0
 20
0.0
 30
0.0
  9
$PUCSXDIR
 10
1.0
 20
0.0
 30
0.0
  9
$PUCSYDIR
 10
0.0
 20
1.0
 30
0.0
  9
$PUCSORTHOREF
  2

  9
$PUCSORTHOVIEW
 70
     0
  9
$PUCSORGTOP
 10
0.0
 20
0.0
 30
0.0
  9
$PUCSORGBOTTOM
 10
0.0
 20
0.0
 30
0.0
  9
$PUCSORGLEFT
 10
0.0
 20
0.0
 30
0.0
  9
$PUCSORGRIGHT
 10
0.0
 20
0.0
 30
0.0
  9
$PUCSORGFRONT
 10
0.0
 20
0.0
 30
0.0
  9
$PUCSORGBACK
 10
0.0
 20
0.0
 30
0.0
  9
$USERI1
 70
     0
  9
$USERI2
 70
     0
  9
$USERI3
 70
     0
  9
$USERI4
 70
     0
  9
$USERI5
 70
     0
  9
$USERR1
 40
0.0
  9
$USERR2
 40
0.0
  9
$USERR3
 40
0.0
  9
$USERR4
 40
0.0
  9
$USERR5
 40
0.0
  9
$WORLDVIEW
 70
     1
  9
$SHADEDGE
 70
     3
  9
$SHADEDIF
 70
    70
  9
$TILEMODE
 70
     1
  9
$MAXACTVP
 70
    64
  9
$PINSBASE
 10
0.0
 20
0.0
 30
0.0
  9
$PLIMCHECK
 70
     0
  9
$PEXTMIN
 10
1.000000000000000E+20
 20
1.000000000000000E+20
 30
1.000000000000000E+20
  9
$PEXTMAX
 10
-1.000000000000000E+20
 20
-1.000000000000000E+20
 30
-1.000000000000000E+20
  9
$PLIMMIN
 10
0.0
 20
0.0
  9
$PLIMMAX
 10
12.0
 20
9.0
  9
$UNITMODE
 70
     0
  9
$VISRETAIN
 70
     1
  9
$PLINEGEN
 70
     0
  9
$PSLTSCALE
 70
     1
  9
$TREEDEPTH
 70
  3020
  9
$CMLSTYLE
  2
Standard
  9
$CMLJUST
 70
     0
  9
$CMLSCALE
 40
1.0
  9
$PROXYGRAPHICS
 70
     1
  9
$MEASUREMENT
 70
     0
  9
$CELWEIGHT
370
    -1
  9
$ENDCAPS
280
     0
  9
$JOINSTYLE
280
     0
  9
$LWDISPLAY
290
     1
  9
$INSUNITS
 70
     1
  9
$HYPERLINKBASE
  1

  9
$STYLESHEET
  1

  9
$XEDIT
290
     1
  9
$CEPSNTYPE
380
     0
  9
$PSTYLEMODE
290
     1
  9
$FINGERPRINTGUID
  2
{B48A3827-8784-DD85-88A3-89DAE33FC7DD}
  9
$VERSIONGUID
  2
{FAEB1C32-E019-11D5-929B-00C0DF256EC4}
  9
$EXTNAMES
290
     1
  9
$PSVPSCALE
 40
0.0
  9
$OLESTARTUP
290
     0
  9
$SORTENTS
280
   127
  9
$INDEXCTL
280
     0
  9
$HIDETEXT
280
     1
  9
$XCLIPFRAME
280
     2
  9
$HALOGAP
280
     0
  9
$OBSCOLOR
 70
   257
  9
$OBSLTYPE
280
     0
  9
$INTERSECTIONDISPLAY
280
     0
  9
$INTERSECTIONCOLOR
 70
   257
  9
$DIMASSOC
280
     2
  9
$PROJECTNAME
  1

  9
$CAMERADISPLAY
290
     0
  9
$LENSLENGTH
 40
50.0
  9
$CAMERAHEIGHT
 40
0.0
  9
$STEPSPERSEC
 40
2.0
  9
$STEPSIZE
 40
6.0
  9
$3DDWFPREC
 40
2.0
  9
$PSOLWIDTH
 40
0.25
  9
$PSOLHEIGHT
 40
4.0
  9
$LOFTANG1
 40
1.570796326794897
  9
$LOFTANG2
 40
1.570796326794897
  9
$LOFTMAG1
 40
0.0
  9
$LOFTMAG2
 40
0.0
  9
$LOFTPARAM
 70
     7
  9
$LOFTNORMALS
280
     1
  9
$LATITUDE
 40
37.795
  9
$LONGITUDE
 40
-122.394
  9
$NORTHDIRECTION
 40
0.0
  9
$TIMEZONE
 70
 -8000
  9
$LIGHTGLYPHDISPLAY
280
     1
  9
$TILEMODELIGHTSYNCH
280
     1
  9
$CMATERIAL
347
3C
  9
$SOLIDHIST
280
     1
  9
$SHOWHIST
280
     1
  9
$DWFFRAME
280
     2
  9
$DGNFRAME
280
     2
  9
$REALWORLDSCALE
290
     1
  9
$INTERFERECOLOR
 62
   256
  9
$CSHADOW
280
     0
  9
$SHADOWPLANELOCATION
 40
0.0
  0
ENDSEC
  0
SECTION
  2
CLASSES
  0
CLASS
  1
ACDBDICTIONARYWDFLT
  2
AcDbDictionaryWithDefault
  3
ObjectDBX Classes
 90
        0
 91
        4
280
     0
281
     0
  0
CLASS
  1
VISUALSTYLE
  2
AcDbVisualStyle
  3
ObjectDBX Classes
 90
     4095
 91
        4
280
     0
281
     0
  0
CLASS
  1
MATERIAL
  2
AcDbMaterial
  3
ObjectDBX Classes
 90
     1153
 91
        4
280
     0
281
     0
  0
CLASS
  1
SUN
  2
AcDbSun
  3
SCENEOE
 90
     1024
 91
        4
280
     0
281
     0
  0
ENDSEC
  0
SECTION
  2
TABLES
  0
TABLE
  2
VPORT
  5
8
330
0
100
AcDbSymbolTable
 70
     1
  0
VPORT
  5
29
330
8
100
AcDbSymbolTableRecord
100
AcDbViewportTableRecord
  2
*Active
 70
     0
 10
0.0
 20
0.0
 11
1.0
 21
1.0
 12
0.0
 22
0.0
 13
0.0
 23
0.0
 14
0.5
 24
0.5
 15
0.5
 25
0.5
 16
0.0
 26
0.0
 36
1.0
 17
91.00082462281999
 27
-128.4993055234307
 37
0.0
 40
256.9986110468615
 41
0.7081814508812795
 42
50.0
 43
0.0
 44
0.0
 50
0.0
 51
0.0
 71
     0
 72
   100
 73
     1
 74
     3
 75
     0
 76
     0
 77
     0
 78
     0
281
     0
 65
     1
110
0.0
120
0.0
130
0.0
111
1.0
121
0.0
131
0.0
112
0.0
122
1.0
132
0.0
 79
     0
146
0.0
 60
     3
 61
     5
292
     1
282
     1
141
0.0
142
0.0
 63
   250
361
3F
  0
ENDTAB
  0
TABLE
  2
LTYPE
  5
5
330
0
100
AcDbSymbolTable
 70
     1
  0
LTYPE
  5
14
330
5
100
AcDbSymbolTableRecord
100
AcDbLinetypeTableRecord
  2
ByBlock
 70
     0
  3

 72
    65
 73
     0
 40
0.0
  0
LTYPE
  5
15
330
5
100
AcDbSymbolTableRecord
100
AcDbLinetypeTableRecord
  2
ByLayer
 70
     0
  3

 72
    65
 73
     0
 40
0.0
  0
LTYPE
  5
16
330
5
100
AcDbSymbolTableRecord
100
AcDbLinetypeTableRecord
  2
Continuous
 70
     0
  3
Solid line
 72
    65
 73
     0
 40
0.0
  0
ENDTAB
  0
TABLE
  2
LAYER
  5
2
330
0
100
AcDbSymbolTable
 70
     2
  0
LAYER
  5
10
330
2
100
AcDbSymbolTableRecord
100
AcDbLayerTableRecord
  2
0
 70
     0
 62
     7
  6
Continuous
370
    -3
390
F
347
3E
  0
LAYER
  5
40
330
2
100
AcDbSymbolTableRecord
100
AcDbLayerTableRecord
  2
_U+30EC_U+30A4_U+30E4_U+30FC 1
 70
     0
 62
     7
  6
Continuous
370
    -3
390
F
347
3E
  0
ENDTAB
  0
TABLE
  2
STYLE
  5
3
330
0
100
AcDbSymbolTable
 70
     1
  0
STYLE
  5
11
330
3
100
AcDbSymbolTableRecord
100
AcDbTextStyleTableRecord
  2
Standard
 70
     0
 40
0.0
 41
1.0
 50
0.0
 71
     0
 42
0.2
  3
txt
  4

  0
ENDTAB
  0
TABLE
  2
VIEW
  5
6
330
0
100
AcDbSymbolTable
 70
     0
  0
ENDTAB
  0
TABLE
  2
UCS
  5
7
330
0
100
AcDbSymbolTable
 70
     0
  0
ENDTAB
  0
TABLE
  2
APPID
  5
9
330
0
100
AcDbSymbolTable
 70
     1
  0
APPID
  5
12
330
9
100
AcDbSymbolTableRecord
100
AcDbRegAppTableRecord
  2
ACAD
 70
     0
  0
ENDTAB
  0
TABLE
  2
DIMSTYLE
  5
A
330
0
100
AcDbSymbolTable
 70
     1
100
AcDbDimStyleTable
  0
DIMSTYLE
105
27
330
A
100
AcDbSymbolTableRecord
100
AcDbDimStyleTableRecord
  2
Standard
 70
     0
178
     0
340
11
  0
ENDTAB
  0
TABLE
  2
BLOCK_RECORD
  5
1
330
0
100
AcDbSymbolTable
 70
    11
  0
BLOCK_RECORD
  5
1F
330
1
100
AcDbSymbolTableRecord
100
AcDbBlockTableRecord
  2
*Model_Space
340
22
 70
     0
280
     1
281
     0
  0
BLOCK_RECORD
  5
1B
330
1
100
AcDbSymbolTableRecord
100
AcDbBlockTableRecord
  2
*Paper_Space
340
1E
 70
     0
280
     1
281
     0
  0
BLOCK_RECORD
  5
23
330
1
100
AcDbSymbolTableRecord
100
AcDbBlockTableRecord
  2
*Paper_Space0
340
26
 70
     0
280
     1
281
     0
  0
BLOCK_RECORD
  5
E3
330
1
100
AcDbSymbolTableRecord
100
AcDbBlockTableRecord
  2
block 2
340
0
102
{BLKREFS
331
E4
102
}
 70
     0
280
     1
281
     0
  0
BLOCK_RECORD
  5
FC
330
1
100
AcDbSymbolTableRecord
100
AcDbBlockTableRecord
  2
block 3
340
0
102
{BLKREFS
331
FD
102
}
 70
     0
280
     1
281
     0
  0
BLOCK_RECORD
  5
117
330
1
100
AcDbSymbolTableRecord
100
AcDbBlockTableRecord
  2
block 4
340
0
102
{BLKREFS
331
118
102
}
 70
     0
280
     1
281
     0
  0
BLOCK_RECORD
  5
12A
330
1
100
AcDbSymbolTableRecord
100
AcDbBlockTableRecord
  2
block 5
340
0
102
{BLKREFS
331
12B
102
}
 70
     0
280
     1
281
     0
  0
BLOCK_RECORD
  5
154
330
1
100
AcDbSymbolTableRecord
100
AcDbBlockTableRecord
  2
block 6
340
0
102
{BLKREFS
331
155
102
}
 70
     0
280
     1
281
     0
  0
BLOCK_RECORD
  5
16C
330
1
100
AcDbSymbolTableRecord
100
AcDbBlockTableRecord
  2
block 7
340
0
102
{BLKREFS
331
16D
102
}
 70
     0
280
     1
281
     0
  0
BLOCK_RECORD
  5
18E
330
1
100
AcDbSymbolTableRecord
100
AcDbBlockTableRecord
  2
block 8
340
0
102
{BLKREFS
331
18F
102
}
 70
     0
280
     1
281
     0
  0
BLOCK_RECORD
  5
19E
330
1
100
AcDbSymbolTableRecord
100
AcDbBlockTableRecord
  2
block 9
340
0
102
{BLKREFS
331
19F
102
}
 70
     0
280
     1
281
     0
  0
BLOCK_RECORD
  5
1A3
330
1
100
AcDbSymbolTableRecord
100
AcDbBlockTableRecord
  2
block 10
340
0
102
{BLKREFS
331
1A4
102
}
 70
     0
280
     1
281
     0
  0
BLOCK_RECORD
  5
1A8
330
1
100
AcDbSymbolTableRecord
100
AcDbBlockTableRecord
  2
block 11
340
0
102
{BLKREFS
331
1A9
102
}
 70
     0
280
     1
281
     0
  0
ENDTAB
  0
ENDSEC
  0
SECTION
  2
BLOCKS
  0
BLOCK
  5
20
330
1F
100
AcDbEntity
  8
0
100
AcDbBlockBegin
  2
*Model_Space
 70
     0
 10
0.0
 20
0.0
 30
0.0
  3
*Model_Space
  1

  0
ENDBLK
  5
21
330
1F
100
AcDbEntity
  8
0
100
AcDbBlockEnd
  0
BLOCK
  5
1C
330
1B
100
AcDbEntity
 67
     1
  8
0
100
AcDbBlockBegin
  2
*Paper_Space
 70
     0
 10
0.0
 20
0.0
 30
0.0
  3
*Paper_Space
  1

  0
ENDBLK
  5
1D
330
1B
100
AcDbEntity
 67
     1
  8
0
100
AcDbBlockEnd
  0
BLOCK
  5
24
330
23
100
AcDbEntity
  8
0
100
AcDbBlockBegin
  2
*Paper_Space0
 70
     0
 10
0.0
 20
0.0
 30
0.0
  3
*Paper_Space0
  1

  0
ENDBLK
  5
25
330
23
100
AcDbEntity
  8
0
100
AcDbBlockEnd
  0
BLOCK
  5
E5
330
E3
100
AcDbEntity
  8
0
100
AcDbBlockBegin
  2
block 2
 70
     0
 10
0.0
 20
0.0
 30
0.0
  3
block 2
  1

  0
POLYLINE
  5
E7
330
E3
100
AcDbEntity
  8
_U+30EC_U+30A4_U+30E4_U+30FC 1
370
     0
100
AcDb2dPolyline
 66
     1
 10
0.0
 20
0.0
 30
0.0
  0
VERTEX
  5
E8
330
E7
100
AcDbEntity
  8
_U+30EC_U+30A4_U+30E4_U+30FC 1
370
     0
100
AcDbVertex
100
AcDb2dVertex
 10
103.7500840669444
 20
-143.7765814527711
 30
0.0
  0
VERTEX
  5
E9
330
E7
100
AcDbEntity
  8
_U+30EC_U+30A4_U+30E4_U+30FC 1
370
     0
100
AcDbVertex
100
AcDb2dVertex
 10
103.7500840669444
 20
-144.1235025681358
 30
0.0
  0
VERTEX
  5
EA
330
E7
100
AcDbEntity
  8
_U+30EC_U+30A4_U+30E4_U+30FC 1
370
     0
100
AcDbVertex
100
AcDb2dVertex
 10
103.5320095227281
 20
-144.1235025681358
 30
0.0
  0
VERTEX
  5
EB
330
E7
100
AcDbEntity
  8
_U+30EC_U+30A4_U+30E4_U+30FC 1
370
     0
100
AcDbVertex
100
AcDb2dVertex
 10
103.5320095227281
 20
-143.7765814527711
 30
0.0
  0
VERTEX
  5
EC
330
E7
100
AcDbEntity
  8
_U+30EC_U+30A4_U+30E4_U+30FC 1
370
     0
100
AcDbVertex
100
AcDb2dVertex
 10
102.8764078518851
 20
-143.7765814527711
 30
0.0
  0
VERTEX
  5
ED
330
E7
100
AcDbEntity
  8
_U+30EC_U+30A4_U+30E4_U+30FC 1
370
     0
100
AcDbVertex
100
AcDb2dVertex
 10
102.8764078518851
 20
-143.5523057366814
 30
0.0
  0
VERTEX
  5
EE
330
E7
100
AcDbEntity
  8
_U+30EC_U+30A4_U+30E4_U+30FC 1
370
     0
100
AcDbVertex
100
AcDb2dVertex
 10
103.5554361720278
 20
-142.5790662620983
 30
0.0
  0
VERTEX
  5
EF
330
E7
100
AcDbEntity
  8
_U+30EC_U+30A4_U+30E4_U+30FC 1
370
     0
100
AcDbVertex
100
AcDb2dVertex
 10
103.7500840669444
 20
-142.5790662620983
 30
0.0
  0
VERTEX
  5
F0
330
E7
100
AcDbEntity
  8
_U+30EC_U+30A4_U+30E4_U+30FC 1
370
     0
100
AcDbVertex
100
AcDb2dVertex
 10
103.7500840669444
 20
-143.5774549337237
 30
0.0
  0
VERTEX
  5
F1
330
E7
100
AcDbEntity
  8
_U+30EC_U+30A4_U+30E4_U+30FC 1
370
     0
100
AcDbVertex
100
AcDb2dVertex
 10
103.9571343056079
 20
-143.5774549337237
 30
0.0
  0
VERTEX
  5
F2
330
E7
100
AcDbEntity
  8
_U+30EC_U+30A4_U+30E4_U+30FC 1
370
     0
100
AcDbVertex
100
AcDb2dVertex
 10
103.9571343056079
 20
-143.7765814527711
 30
0.0
  0
VERTEX
  5
F3
330
E7
100
AcDbEntity
  8
_U+30EC_U+30A4_U+30E4_U+30FC 1
370
     0
100
AcDbVertex
100
AcDb2dVertex
 10
103.7500840669444
 20
-143.7765814527711
 30
0.0
  0
SEQEND
  5
F4
330
E7
100
AcDbEntity
  8
_U+30EC_U+30A4_U+30E4_U+30FC 1
370
     0
  0
POLYLINE
  5
F5
330
E3
100
AcDbEntity
  8
_U+30EC_U+30A4_U+30E4_U+30FC 1
370
     0
100
AcDb2dPolyline
 66
     1
 10
0.0
 20
0.0
 30
0.0
  0
VERTEX
  5
F6
330
F5
100
AcDbEntity
  8
_U+30EC_U+30A4_U+30E4_U+30FC 1
370
     0
100
AcDbVertex
100
AcDb2dVertex
 10
103.5320095227281
 20
-142.9218532628807
 30
0.0
  0
VERTEX
  5
F7
330
F5
100
AcDbEntity
  8
_U+30EC_U+30A4_U+30E4_U+30FC 1
370
     0
100
AcDbVertex
100
AcDb2dVertex
 10
103.075189861384
 20
-143.5774549337237
 30
0.0
  0
VERTEX
  5
F8
330
F5
100
AcDbEntity
  8
_U+30EC_U+30A4_U+30E4_U+30FC 1
370
     0
100
AcDbVertex
100
AcDb2dVertex
 10
103.5320095227281
 20
-143.5774549337237
 30
0.0
  0
VERTEX
  5
F9
330
F5
100
AcDbEntity
  8
_U+30EC_U+30A4_U+30E4_U+30FC 1
370
     0
100
AcDbVertex
100
AcDb2dVertex
 10
103.5320095227281
 20
-142.9218532628807
 30
0.0
  0
SEQEND
  5
FA
330
F5
100
AcDbEntity
  8
_U+30EC_U+30A4_U+30E4_U+30FC 1
370
     0
  0
HATCH
  5
FB
330
E3
100
AcDbEntity
  8
_U+30EC_U+30A4_U+30E4_U+30FC 1
 62
   179
420
  2234388
100
AcDbHatch
 10
0.0
 20
0.0
 30
0.0
210
0.0
220
0.0
230
1.0
  2
SOLID
 70
     1
 71
     0
 91
        2
 92
        1
 93
       11
 72
     1
 10
103.7500840669444
 20
-143.7765814527711
 11
103.7500840669444
 21
-144.1235025681358
 72
     1
 10
103.7500840669444
 20
-144.1235025681358
 11
103.5320095227281
 21
-144.1235025681358
 72
     1
 10
103.5320095227281
 20
-144.1235025681358
 11
103.5320095227281
 21
-143.7765814527711
 72
     1
 10
103.5320095227281
 20
-143.7765814527711
 11
102.8764078518851
 21
-143.7765814527711
 72
     1
 10
102.8764078518851
 20
-143.7765814527711
 11
102.8764078518851
 21
-143.5523057366814
 72
     1
 10
102.8764078518851
 20
-143.5523057366814
 11
103.5554361720278
 21
-142.5790662620983
 72
     1
 10
103.5554361720278
 20
-142.5790662620983
 11
103.7500840669444
 21
-142.5790662620983
 72
     1
 10
103.7500840669444
 20
-142.5790662620983
 11
103.7500840669444
 21
-143.5774549337237
 72
     1
 10
103.7500840669444
 20
-143.5774549337237
 11
103.9571343056079
 21
-143.5774549337237
 72
     1
 10
103.9571343056079
 20
-143.5774549337237
 11
103.9571343056079
 21
-143.7765814527711
 72
     1
 10
103.9571343056079
 20
-143.7765814527711
 11
103.7500840669444
 21
-143.7765814527711
 97
        0
 92
        1
 93
        3
 72
     1
 10
103.5320095227281
 20
-142.9218532628807
 11
103.075189861384
 21
-143.5774549337237
 72
     1
 10
103.075189861384
 20
-143.5774549337237
 11
103.5320095227281
 21
-143.5774549337237
 72
     1
 10
103.5320095227281
 20
-143.5774549337237
 11
103.5320095227281
 21
-142.9218532628807
 97
        0
 75
     2
 76
     1
 98
        0
  0
ENDBLK
  5
E6
330
E3
100
AcDbEntity
  8
0
100
AcDbBlockEnd
  0
BLOCK
  5
FE
330
FC
100
AcDbEntity
  8
0
100
AcDbBlockBegin
  2
block 3
 70
     0
 10
0.0
 20
0.0
 30
0.0
  3
block 3
  1

  0
SPLINE
  5
100
330
FC
100
AcDbEntity
  8
_U+30EC_U+30A4_U+30E4_U+30FC 1
370
     0
100
AcDbSpline
210
0.0
220
0.0
230
1.0
 70
    11
 71
     3
 72
    26
 73
    22
 74
     0
 42
0.0000000001
 43
0.0000000001
 12
1.0
 22
0.0
 32
0.0
 13
1.0
 23
0.0
 33
0.0
 40
0.0
 40
0.0
 40
0.0
 40
0.0
 40
1.0
 40
1.0
 40
1.0
 40
2.0
 40
2.0
 40
2.0
 40
3.0
 40
3.0
 40
3.0
 40
4.0
 40
4.0
 40
4.0
 40
5.0
 40
5.0
 40
5.0
 40
6.0
 40
6.0
 40
6.0
 40
7.0
 40
7.0
 40
7.0
 40
7.0
 10
108.3961398383524
 20
-144.1235025681358
 30
0.0
 10
108.3961398383524
 20
-144.1235025681358
 30
0.0
 10
108.3961398383524
 20
-143.0190049555647
 30
0.0
 10
108.3961398383524
 20
-143.0190049555647
 30
0.0
 10
108.3961398383524
 20
-143.0190049555647
 30
0.0
 10
108.0660996908654
 20
-143.0190049555647
 30
0.0
 10
108.0660996908654
 20
-143.0190049555647
 30
0.0
 10
108.0660996908654
 20
-143.0190049555647
 30
0.0
 10
108.0660996908654
 20
-142.870865849699
 30
0.0
 10
108.0660996908654
 20
-142.870865849699
 30
0.0
 10
108.3982068956435
 20
-142.8560519391124
 30
0.0
 10
108.4450601942429
 20
-142.6934434322086
 30
0.0
 10
108.474688015416
 20
-142.5790662620983
 30
0.0
 10
108.474688015416
 20
-142.5790662620983
 30
0.0
 10
108.6204155544421
 20
-142.5790662620983
 30
0.0
 10
108.6204155544421
 20
-142.5790662620983
 30
0.0
 10
108.6204155544421
 20
-142.5790662620983
 30
0.0
 10
108.6204155544421
 20
-144.1235025681358
 30
0.0
 10
108.6204155544421
 20
-144.1235025681358
 30
0.0
 10
108.6204155544421
 20
-144.1235025681358
 30
0.0
 10
108.3961398383524
 20
-144.1235025681358
 30
0.0
 10
108.3961398383524
 20
-144.1235025681358
 30
0.0
  0
HATCH
  5
101
330
FC
100
AcDbEntity
  8
_U+30EC_U+30A4_U+30E4_U+30FC 1
 62
   179
420
  2234388
100
AcDbHatch
 10
0.0
 20
0.0
 30
0.0
210
0.0
220
0.0
230
1.0
  2
SOLID
 70
     1
 71
     0
 91
        1
 92
        1
 93
        1
 72
     4
 94
        3
 73
     0
 74
     1
 95
       26
 96
       22
 40
0.0
 40
0.0
 40
0.0
 40
0.0
 40
1.0
 40
1.0
 40
1.0
 40
2.0
 40
2.0
 40
2.0
 40
3.0
 40
3.0
 40
3.0
 40
4.0
 40
4.0
 40
4.0
 40
5.0
 40
5.0
 40
5.0
 40
6.0
 40
6.0
 40
6.0
 40
7.0
 40
7.0
 40
7.0
 40
7.0
 10
108.3961398383524
 20
-144.1235025681358
 10
108.3961398383524
 20
-144.1235025681358
 10
108.3961398383524
 20
-143.0190049555647
 10
108.3961398383524
 20
-143.0190049555647
 10
108.3961398383524
 20
-143.0190049555647
 10
108.0660996908654
 20
-143.0190049555647
 10
108.0660996908654
 20
-143.0190049555647
 10
108.0660996908654
 20
-143.0190049555647
 10
108.0660996908654
 20
-142.870865849699
 10
108.0660996908654
 20
-142.870865849699
 10
108.3982068956435
 20
-142.8560519391124
 10
108.4450601942429
 20
-142.6934434322086
 10
108.474688015416
 20
-142.5790662620983
 10
108.474688015416
 20
-142.5790662620983
 10
108.6204155544421
 20
-142.5790662620983
 10
108.6204155544421
 20
-142.5790662620983
 10
108.6204155544421
 20
-142.5790662620983
 10
108.6204155544421
 20
-144.1235025681358
 10
108.6204155544421
 20
-144.1235025681358
 10
108.6204155544421
 20
-144.1235025681358
 10
108.3961398383524
 20
-144.1235025681358
 10
108.3961398383524
 20
-144.1235025681358
 97
        0
 97
        0
 75
     2
 76
     1
 98
        0
  0
ENDBLK
  5
FF
330
FC
100
AcDbEntity
  8
0
100
AcDbBlockEnd
  0
BLOCK
  5
119
330
117
100
AcDbEntity
  8
0
100
AcDbBlockBegin
  2
block 4
 70
     0
 10
0.0
 20
0.0
 30
0.0
  3
block 4
  1

  0
SPLINE
  5
11B
330
117
100
AcDbEntity
  8
_U+30EC_U+30A4_U+30E4_U+30FC 1
370
     0
100
AcDbSpline
210
0.0
220
0.0
230
1.0
 70
    11
 71
     3
 72
    29
 73
    25
 74
     0
 42
0.0000000001
 43
0.0000000001
 12
1.0
 22
0.0
 32
0.0
 13
1.0
 23
0.0
 33
0.0
 40
0.0
 40
0.0
 40
0.0
 40
0.0
 40
1.0
 40
1.0
 40
1.0
 40
2.0
 40
2.0
 40
2.0
 40
3.0
 40
3.0
 40
3.0
 40
4.0
 40
4.0
 40
4.0
 40
5.0
 40
5.0
 40
5.0
 40
6.0
 40
6.0
 40
6.0
 40
7.0
 40
7.0
 40
7.0
 40
8.0
 40
8.0
 40
8.0
 40
8.0
 10
97.41799856505523
 20
-144.174145471769
 30
0.0
 10
97.15134817449689
 20
-144.174145471769
 30
0.0
 10
96.89744463723397
 20
-144.0366861619075
 30
0.0
 10
96.89744463723397
 20
-143.6876979892517
 30
0.0
 10
96.89744463723397
 20
-143.4317273946976
 30
0.0
 10
97.03903806167774
 20
-143.3362982497562
 30
0.0
 10
97.14480249307492
 20
-143.2749755501188
 30
0.0
 10
97.02009003650888
 20
-143.2157199077725
 30
0.0
 10
96.94395342628485
 20
-143.1016872472107
 30
0.0
 10
96.94395342628485
 20
-142.9408012880495
 30
0.0
 10
96.94395342628485
 20
-142.6658826683266
 30
0.0
 10
97.14273543578376
 20
-142.5304904157563
 30
0.0
 10
97.41799856505523
 20
-142.5304904157563
 30
0.0
 10
97.70118541394277
 20
-142.5304904157563
 30
0.0
 10
97.89169919427708
 20
-142.6741508974912
 30
0.0
 10
97.89169919427708
 20
-142.9408012880495
 30
0.0
 10
97.89169919427708
 20
-143.1016872472107
 30
0.0
 10
97.81349552676191
 20
-143.2157199077725
 30
0.0
 10
97.68878307019587
 20
-143.2749755501188
 30
0.0
 10
97.77732202416678
 20
-143.3259629633005
 30
0.0
 10
97.9361409260368
 20
-143.4210475986933
 30
0.0
 10
97.9361409260368
 20
-143.6832193651209
 30
0.0
 10
97.9361409260368
 20
-144.0577012443675
 30
0.0
 10
97.65674368218303
 20
-144.174145471769
 30
0.0
 10
97.41799856505523
 20
-144.174145471769
 30
0.0
  0
SPLINE
  5
11C
330
117
100
AcDbEntity
  8
_U+30EC_U+30A4_U+30E4_U+30FC 1
370
     0
100
AcDbSpline
210
0.0
220
0.0
230
1.0
 70
    11
 71
     3
 72
    17
 73
    13
 74
     0
 42
0.0000000001
 43
0.0000000001
 12
1.0
 22
0.0
 32
0.0
 13
1.0
 23
0.0
 33
0.0
 40
0.0
 40
0.0
 40
0.0
 40
0.0
 40
1.0
 40
1.0
 40
1.0
 40
2.0
 40
2.0
 40
2.0
 40
3.0
 40
3.0
 40
3.0
 40
4.0
 40
4.0
 40
4.0
 40
4.0
 10
97.41799856505523
 20
-143.3828070388071
 30
0.0
 10
97.27399357377179
 20
-143.3828070388071
 30
0.0
 10
97.12172035332374
 20
-143.4696234450354
 30
0.0
 10
97.12172035332374
 20
-143.6728840786651
 30
0.0
 10
97.12172035332374
 20
-143.8778672600375
 30
0.0
 10
97.24849986718094
 20
-143.9794975768524
 30
0.0
 10
97.41799856505523
 20
-143.9794975768524
 30
0.0
 10
97.60403372125872
 20
-143.9794975768524
 30
0.0
 10
97.71393226723819
 20
-143.8568521775775
 30
0.0
 10
97.71393226723819
 20
-143.6790852505386
 30
0.0
 10
97.71393226723819
 20
-143.45687659174
 30
0.0
 10
97.55097925078587
 20
-143.3828070388071
 30
0.0
 10
97.41799856505523
 20
-143.3828070388071
 30
0.0
  0
SPLINE
  5
11D
330
117
100
AcDbEntity
  8
_U+30EC_U+30A4_U+30E4_U+30FC 1
370
     0
100
AcDbSpline
210
0.0
220
0.0
230
1.0
 70
    11
 71
     3
 72
    17
 73
    13
 74
     0
 42
0.0000000001
 43
0.0000000001
 12
1.0
 22
0.0
 32
0.0
 13
1.0
 23
0.0
 33
0.0
 40
0.0
 40
0.0
 40
0.0
 40
0.0
 40
1.0
 40
1.0
 40
1.0
 40
2.0
 40
2.0
 40
2.0
 40
3.0
 40
3.0
 40
3.0
 40
4.0
 40
4.0
 40
4.0
 40
4.0
 10
97.41799856505523
 20
-142.7227267438332
 30
0.0
 10
97.25297849131177
 20
-142.7227267438332
 30
0.0
 10
97.16822914237461
 20
-142.8181558887746
 30
0.0
 10
97.16822914237461
 20
-142.953548141345
 30
0.0
 10
97.16822914237461
 20
-143.0761935406198
 30
0.0
 10
97.24023163801634
 20
-143.1947048253124
 30
0.0
 10
97.41799856505523
 20
-143.1947048253124
 30
0.0
 10
97.59542098254559
 20
-143.1947048253124
 30
0.0
 10
97.66742347818732
 20
-143.0761935406198
 30
0.0
 10
97.66742347818732
 20
-142.953548141345
 30
0.0
 10
97.66742347818732
 20
-142.8181558887746
 30
0.0
 10
97.58060707195902
 20
-142.7227267438332
 30
0.0
 10
97.41799856505523
 20
-142.7227267438332
 30
0.0
  0
HATCH
  5
11E
330
117
100
AcDbEntity
  8
_U+30EC_U+30A4_U+30E4_U+30FC 1
 62
   179
420
  2234388
100
AcDbHatch
 10
0.0
 20
0.0
 30
0.0
210
0.0
220
0.0
230
1.0
  2
SOLID
 70
     1
 71
     0
 91
        3
 92
        1
 93
        1
 72
     4
 94
        3
 73
     0
 74
     1
 95
       29
 96
       25
 40
0.0
 40
0.0
 40
0.0
 40
0.0
 40
1.0
 40
1.0
 40
1.0
 40
2.0
 40
2.0
 40
2.0
 40
3.0
 40
3.0
 40
3.0
 40
4.0
 40
4.0
 40
4.0
 40
5.0
 40
5.0
 40
5.0
 40
6.0
 40
6.0
 40
6.0
 40
7.0
 40
7.0
 40
7.0
 40
8.0
 40
8.0
 40
8.0
 40
8.0
 10
97.41799856505523
 20
-144.174145471769
 10
97.15134817449689
 20
-144.174145471769
 10
96.89744463723397
 20
-144.0366861619075
 10
96.89744463723397
 20
-143.6876979892517
 10
96.89744463723397
 20
-143.4317273946976
 10
97.03903806167774
 20
-143.3362982497562
 10
97.14480249307492
 20
-143.2749755501188
 10
97.02009003650888
 20
-143.2157199077725
 10
96.94395342628485
 20
-143.1016872472107
 10
96.94395342628485
 20
-142.9408012880495
 10
96.94395342628485
 20
-142.6658826683266
 10
97.14273543578376
 20
-142.5304904157563
 10
97.41799856505523
 20
-142.5304904157563
 10
97.70118541394277
 20
-142.5304904157563
 10
97.89169919427708
 20
-142.6741508974912
 10
97.89169919427708
 20
-142.9408012880495
 10
97.89169919427708
 20
-143.1016872472107
 10
97.81349552676191
 20
-143.2157199077725
 10
97.68878307019587
 20
-143.2749755501188
 10
97.77732202416678
 20
-143.3259629633005
 10
97.9361409260368
 20
-143.4210475986933
 10
97.9361409260368
 20
-143.6832193651209
 10
97.9361409260368
 20
-144.0577012443675
 10
97.65674368218303
 20
-144.174145471769
 10
97.41799856505523
 20
-144.174145471769
 97
        0
 97
        0
 92
        1
 93
        1
 72
     4
 94
        3
 73
     0
 74
     1
 95
       17
 96
       13
 40
0.0
 40
0.0
 40
0.0
 40
0.0
 40
1.0
 40
1.0
 40
1.0
 40
2.0
 40
2.0
 40
2.0
 40
3.0
 40
3.0
 40
3.0
 40
4.0
 40
4.0
 40
4.0
 40
4.0
 10
97.41799856505523
 20
-143.3828070388071
 10
97.27399357377179
 20
-143.3828070388071
 10
97.12172035332374
 20
-143.4696234450354
 10
97.12172035332374
 20
-143.6728840786651
 10
97.12172035332374
 20
-143.8778672600375
 10
97.24849986718094
 20
-143.9794975768524
 10
97.41799856505523
 20
-143.9794975768524
 10
97.60403372125872
 20
-143.9794975768524
 10
97.71393226723819
 20
-143.8568521775775
 10
97.71393226723819
 20
-143.6790852505386
 10
97.71393226723819
 20
-143.45687659174
 10
97.55097925078587
 20
-143.3828070388071
 10
97.41799856505523
 20
-143.3828070388071
 97
        0
 97
        0
 92
        1
 93
        1
 72
     4
 94
        3
 73
     0
 74
     1
 95
       17
 96
       13
 40
0.0
 40
0.0
 40
0.0
 40
0.0
 40
1.0
 40
1.0
 40
1.0
 40
2.0
 40
2.0
 40
2.0
 40
3.0
 40
3.0
 40
3.0
 40
4.0
 40
4.0
 40
4.0
 40
4.0
 10
97.41799856505523
 20
-142.7227267438332
 10
97.25297849131177
 20
-142.7227267438332
 10
97.16822914237461
 20
-142.8181558887746
 10
97.16822914237461
 20
-142.953548141345
 10
97.16822914237461
 20
-143.0761935406198
 10
97.24023163801634
 20
-143.1947048253124
 10
97.41799856505523
 20
-143.1947048253124
 10
97.59542098254559
 20
-143.1947048253124
 10
97.66742347818732
 20
-143.0761935406198
 10
97.66742347818732
 20
-142.953548141345
 10
97.66742347818732
 20
-142.8181558887746
 10
97.58060707195902
 20
-142.7227267438332
 10
97.41799856505523
 20
-142.7227267438332
 97
        0
 97
        0
 75
     2
 76
     1
 98
        0
  0
ENDBLK
  5
11A
330
117
100
AcDbEntity
  8
0
100
AcDbBlockEnd
  0
BLOCK
  5
12C
330
12A
100
AcDbEntity
  8
0
100
AcDbBlockBegin
  2
block 5
 70
     0
 10
0.0
 20
0.0
 30
0.0
  3
block 5
  1

  0
SPLINE
  5
12E
330
12A
100
AcDbEntity
  8
_U+30EC_U+30A4_U+30E4_U+30FC 1
370
     0
100
AcDbSpline
210
0.0
220
0.0
230
1.0
 70
    11
 71
     3
 72
    26
 73
    22
 74
     0
 42
0.0000000001
 43
0.0000000001
 12
1.0
 22
0.0
 32
0.0
 13
1.0
 23
0.0
 33
0.0
 40
0.0
 40
0.0
 40
0.0
 40
0.0
 40
1.0
 40
1.0
 40
1.0
 40
2.0
 40
2.0
 40
2.0
 40
3.0
 40
3.0
 40
3.0
 40
4.0
 40
4.0
 40
4.0
 40
5.0
 40
5.0
 40
5.0
 40
6.0
 40
6.0
 40
6.0
 40
7.0
 40
7.0
 40
7.0
 40
7.0
 10
85.7808105254298
 20
-144.1235025681358
 30
0.0
 10
85.7808105254298
 20
-144.1235025681358
 30
0.0
 10
85.7808105254298
 20
-143.0190049555647
 30
0.0
 10
85.7808105254298
 20
-143.0190049555647
 30
0.0
 10
85.7808105254298
 20
-143.0190049555647
 30
0.0
 10
85.45077037794287
 20
-143.0190049555647
 30
0.0
 10
85.45077037794287
 20
-143.0190049555647
 30
0.0
 10
85.45077037794287
 20
-143.0190049555647
 30
0.0
 10
85.45077037794287
 20
-142.870865849699
 30
0.0
 10
85.45077037794287
 20
-142.870865849699
 30
0.0
 10
85.78287758272096
 20
-142.8560519391124
 30
0.0
 10
85.82938637177182
 20
-142.6934434322086
 30
0.0
 10
85.85901419294497
 20
-142.5790662620983
 30
0.0
 10
85.85901419294497
 20
-142.5790662620983
 30
0.0
 10
86.00491398674531
 20
-142.5790662620983
 30
0.0
 10
86.00491398674531
 20
-142.5790662620983
 30
0.0
 10
86.00491398674531
 20
-142.5790662620983
 30
0.0
 10
86.00491398674531
 20
-144.1235025681358
 30
0.0
 10
86.00491398674531
 20
-144.1235025681358
 30
0.0
 10
86.00491398674531
 20
-144.1235025681358
 30
0.0
 10
85.7808105254298
 20
-144.1235025681358
 30
0.0
 10
85.7808105254298
 20
-144.1235025681358
 30
0.0
  0
HATCH
  5
12F
330
12A
100
AcDbEntity
  8
_U+30EC_U+30A4_U+30E4_U+30FC 1
 62
   179
420
  2234388
100
AcDbHatch
 10
0.0
 20
0.0
 30
0.0
210
0.0
220
0.0
230
1.0
  2
SOLID
 70
     1
 71
     0
 91
        1
 92
        1
 93
        1
 72
     4
 94
        3
 73
     0
 74
     1
 95
       26
 96
       22
 40
0.0
 40
0.0
 40
0.0
 40
0.0
 40
1.0
 40
1.0
 40
1.0
 40
2.0
 40
2.0
 40
2.0
 40
3.0
 40
3.0
 40
3.0
 40
4.0
 40
4.0
 40
4.0
 40
5.0
 40
5.0
 40
5.0
 40
6.0
 40
6.0
 40
6.0
 40
7.0
 40
7.0
 40
7.0
 40
7.0
 10
85.7808105254298
 20
-144.1235025681358
 10
85.7808105254298
 20
-144.1235025681358
 10
85.7808105254298
 20
-143.0190049555647
 10
85.7808105254298
 20
-143.0190049555647
 10
85.7808105254298
 20
-143.0190049555647
 10
85.45077037794287
 20
-143.0190049555647
 10
85.45077037794287
 20
-143.0190049555647
 10
85.45077037794287
 20
-143.0190049555647
 10
85.45077037794287
 20
-142.870865849699
 10
85.45077037794287
 20
-142.870865849699
 10
85.78287758272096
 20
-142.8560519391124
 10
85.82938637177182
 20
-142.6934434322086
 10
85.85901419294497
 20
-142.5790662620983
 10
85.85901419294497
 20
-142.5790662620983
 10
86.00491398674531
 20
-142.5790662620983
 10
86.00491398674531
 20
-142.5790662620983
 10
86.00491398674531
 20
-142.5790662620983
 10
86.00491398674531
 20
-144.1235025681358
 10
86.00491398674531
 20
-144.1235025681358
 10
86.00491398674531
 20
-144.1235025681358
 10
85.7808105254298
 20
-144.1235025681358
 10
85.7808105254298
 20
-144.1235025681358
 97
        0
 97
        0
 75
     2
 76
     1
 98
        0
  0
POLYLINE
  5
130
330
12A
100
AcDbEntity
  8
_U+30EC_U+30A4_U+30E4_U+30FC 1
370
     0
100
AcDb2dPolyline
 66
     1
 10
0.0
 20
0.0
 30
0.0
  0
VERTEX
  5
131
330
130
100
AcDbEntity
  8
_U+30EC_U+30A4_U+30E4_U+30FC 1
370
     0
100
AcDbVertex
100
AcDb2dVertex
 10
87.33833819431125
 20
-143.7765814527711
 30
0.0
  0
VERTEX
  5
132
330
130
100
AcDbEntity
  8
_U+30EC_U+30A4_U+30E4_U+30FC 1
370
     0
100
AcDbVertex
100
AcDb2dVertex
 10
87.33833819431125
 20
-144.1235025681358
 30
0.0
  0
VERTEX
  5
133
330
130
100
AcDbEntity
  8
_U+30EC_U+30A4_U+30E4_U+30FC 1
370
     0
100
AcDbVertex
100
AcDb2dVertex
 10
87.1204359048692
 20
-144.1235025681358
 30
0.0
  0
VERTEX
  5
134
330
130
100
AcDbEntity
  8
_U+30EC_U+30A4_U+30E4_U+30FC 1
370
     0
100
AcDbVertex
100
AcDb2dVertex
 10
87.1204359048692
 20
-143.7765814527711
 30
0.0
  0
VERTEX
  5
135
330
130
100
AcDbEntity
  8
_U+30EC_U+30A4_U+30E4_U+30FC 1
370
     0
100
AcDbVertex
100
AcDb2dVertex
 10
86.4646619792519
 20
-143.7765814527711
 30
0.0
  0
VERTEX
  5
136
330
130
100
AcDbEntity
  8
_U+30EC_U+30A4_U+30E4_U+30FC 1
370
     0
100
AcDbVertex
100
AcDb2dVertex
 10
86.4646619792519
 20
-143.5523057366814
 30
0.0
  0
VERTEX
  5
137
330
130
100
AcDbEntity
  8
_U+30EC_U+30A4_U+30E4_U+30FC 1
370
     0
100
AcDbVertex
100
AcDb2dVertex
 10
87.14369029939463
 20
-142.5790662620983
 30
0.0
  0
VERTEX
  5
138
330
130
100
AcDbEntity
  8
_U+30EC_U+30A4_U+30E4_U+30FC 1
370
     0
100
AcDbVertex
100
AcDb2dVertex
 10
87.33833819431125
 20
-142.5790662620983
 30
0.0
  0
VERTEX
  5
139
330
130
100
AcDbEntity
  8
_U+30EC_U+30A4_U+30E4_U+30FC 1
370
     0
100
AcDbVertex
100
AcDb2dVertex
 10
87.33833819431125
 20
-143.5774549337237
 30
0.0
  0
VERTEX
  5
13A
330
130
100
AcDbEntity
  8
_U+30EC_U+30A4_U+30E4_U+30FC 1
370
     0
100
AcDbVertex
100
AcDb2dVertex
 10
87.54573294252329
 20
-143.5774549337237
 30
0.0
  0
VERTEX
  5
13B
330
130
100
AcDbEntity
  8
_U+30EC_U+30A4_U+30E4_U+30FC 1
370
     0
100
AcDbVertex
100
AcDb2dVertex
 10
87.54573294252329
 20
-143.7765814527711
 30
0.0
  0
VERTEX
  5
13C
330
130
100
AcDbEntity
  8
_U+30EC_U+30A4_U+30E4_U+30FC 1
370
     0
100
AcDbVertex
100
AcDb2dVertex
 10
87.33833819431125
 20
-143.7765814527711
 30
0.0
  0
SEQEND
  5
13D
330
130
100
AcDbEntity
  8
_U+30EC_U+30A4_U+30E4_U+30FC 1
370
     0
  0
POLYLINE
  5
13E
330
12A
100
AcDbEntity
  8
_U+30EC_U+30A4_U+30E4_U+30FC 1
370
     0
100
AcDb2dPolyline
 66
     1
 10
0.0
 20
0.0
 30
0.0
  0
VERTEX
  5
13F
330
13E
100
AcDbEntity
  8
_U+30EC_U+30A4_U+30E4_U+30FC 1
370
     0
100
AcDbVertex
100
AcDb2dVertex
 10
87.1204359048692
 20
-142.9218532628807
 30
0.0
  0
VERTEX
  5
140
330
13E
100
AcDbEntity
  8
_U+30EC_U+30A4_U+30E4_U+30FC 1
370
     0
100
AcDbVertex
100
AcDb2dVertex
 10
86.66361624352507
 20
-143.5774549337237
 30
0.0
  0
VERTEX
  5
141
330
13E
100
AcDbEntity
  8
_U+30EC_U+30A4_U+30E4_U+30FC 1
370
     0
100
AcDbVertex
100
AcDb2dVertex
 10
87.1204359048692
 20
-143.5774549337237
 30
0.0
  0
VERTEX
  5
142
330
13E
100
AcDbEntity
  8
_U+30EC_U+30A4_U+30E4_U+30FC 1
370
     0
100
AcDbVertex
100
AcDb2dVertex
 10
87.1204359048692
 20
-142.9218532628807
 30
0.0
  0
SEQEND
  5
143
330
13E
100
AcDbEntity
  8
_U+30EC_U+30A4_U+30E4_U+30FC 1
370
     0
  0
HATCH
  5
144
330
12A
100
AcDbEntity
  8
_U+30EC_U+30A4_U+30E4_U+30FC 1
 62
   179
420
  2234388
100
AcDbHatch
 10
0.0
 20
0.0
 30
0.0
210
0.0
220
0.0
230
1.0
  2
SOLID
 70
     1
 71
     0
 91
        2
 92
        1
 93
       11
 72
     1
 10
87.33833819431125
 20
-143.7765814527711
 11
87.33833819431125
 21
-144.1235025681358
 72
     1
 10
87.33833819431125
 20
-144.1235025681358
 11
87.1204359048692
 21
-144.1235025681358
 72
     1
 10
87.1204359048692
 20
-144.1235025681358
 11
87.1204359048692
 21
-143.7765814527711
 72
     1
 10
87.1204359048692
 20
-143.7765814527711
 11
86.4646619792519
 21
-143.7765814527711
 72
     1
 10
86.4646619792519
 20
-143.7765814527711
 11
86.4646619792519
 21
-143.5523057366814
 72
     1
 10
86.4646619792519
 20
-143.5523057366814
 11
87.14369029939463
 21
-142.5790662620983
 72
     1
 10
87.14369029939463
 20
-142.5790662620983
 11
87.33833819431125
 21
-142.5790662620983
 72
     1
 10
87.33833819431125
 20
-142.5790662620983
 11
87.33833819431125
 21
-143.5774549337237
 72
     1
 10
87.33833819431125
 20
-143.5774549337237
 11
87.54573294252329
 21
-143.5774549337237
 72
     1
 10
87.54573294252329
 20
-143.5774549337237
 11
87.54573294252329
 21
-143.7765814527711
 72
     1
 10
87.54573294252329
 20
-143.7765814527711
 11
87.33833819431125
 21
-143.7765814527711
 97
        0
 92
        1
 93
        3
 72
     1
 10
87.1204359048692
 20
-142.9218532628807
 11
86.66361624352507
 21
-143.5774549337237
 72
     1
 10
86.66361624352507
 20
-143.5774549337237
 11
87.1204359048692
 21
-143.5774549337237
 72
     1
 10
87.1204359048692
 20
-143.5774549337237
 11
87.1204359048692
 21
-142.9218532628807
 97
        0
 75
     2
 76
     1
 98
        0
  0
ENDBLK
  5
12D
330
12A
100
AcDbEntity
  8
0
100
AcDbBlockEnd
  0
BLOCK
  5
156
330
154
100
AcDbEntity
  8
0
100
AcDbBlockBegin
  2
block 6
 70
     0
 10
0.0
 20
0.0
 30
0.0
  3
block 6
  1

  0
SPLINE
  5
158
330
154
100
AcDbEntity
  8
_U+30EC_U+30A4_U+30E4_U+30FC 1
370
     0
100
AcDbSpline
210
0.0
220
0.0
230
1.0
 70
    11
 71
     3
 72
    26
 73
    22
 74
     0
 42
0.0000000001
 43
0.0000000001
 12
1.0
 22
0.0
 32
0.0
 13
1.0
 23
0.0
 33
0.0
 40
0.0
 40
0.0
 40
0.0
 40
0.0
 40
1.0
 40
1.0
 40
1.0
 40
2.0
 40
2.0
 40
2.0
 40
3.0
 40
3.0
 40
3.0
 40
4.0
 40
4.0
 40
4.0
 40
5.0
 40
5.0
 40
5.0
 40
6.0
 40
6.0
 40
6.0
 40
7.0
 40
7.0
 40
7.0
 40
7.0
 10
96.780655900284
 20
-114.124127846903
 30
0.0
 10
96.780655900284
 20
-114.124127846903
 30
0.0
 10
96.780655900284
 20
-113.0198024891062
 30
0.0
 10
96.780655900284
 20
-113.0198024891062
 30
0.0
 10
96.780655900284
 20
-113.0198024891062
 30
0.0
 10
96.45061575279708
 20
-113.0198024891062
 30
0.0
 10
96.45061575279708
 20
-113.0198024891062
 30
0.0
 10
96.45061575279708
 20
-113.0198024891062
 30
0.0
 10
96.45061575279708
 20
-112.8718356380147
 30
0.0
 10
96.45061575279708
 20
-112.8718356380147
 30
0.0
 10
96.78272295757516
 20
-112.8570217274281
 30
0.0
 10
96.82957625617456
 20
-112.6940687109758
 30
0.0
 10
96.85885956779917
 20
-112.5798637956398
 30
0.0
 10
96.85885956779917
 20
-112.5798637956398
 30
0.0
 10
97.00493161637377
 20
-112.5798637956398
 30
0.0
 10
97.00493161637377
 20
-112.5798637956398
 30
0.0
 10
97.00493161637377
 20
-112.5798637956398
 30
0.0
 10
97.00493161637377
 20
-114.124127846903
 30
0.0
 10
97.00493161637377
 20
-114.124127846903
 30
0.0
 10
97.00493161637377
 20
-114.124127846903
 30
0.0
 10
96.780655900284
 20
-114.124127846903
 30
0.0
 10
96.780655900284
 20
-114.124127846903
 30
0.0
  0
HATCH
  5
159
330
154
100
AcDbEntity
  8
_U+30EC_U+30A4_U+30E4_U+30FC 1
 62
   179
420
  2234388
100
AcDbHatch
 10
0.0
 20
0.0
 30
0.0
210
0.0
220
0.0
230
1.0
  2
SOLID
 70
     1
 71
     0
 91
        1
 92
        1
 93
        1
 72
     4
 94
        3
 73
     0
 74
     1
 95
       26
 96
       22
 40
0.0
 40
0.0
 40
0.0
 40
0.0
 40
1.0
 40
1.0
 40
1.0
 40
2.0
 40
2.0
 40
2.0
 40
3.0
 40
3.0
 40
3.0
 40
4.0
 40
4.0
 40
4.0
 40
5.0
 40
5.0
 40
5.0
 40
6.0
 40
6.0
 40
6.0
 40
7.0
 40
7.0
 40
7.0
 40
7.0
 10
96.780655900284
 20
-114.124127846903
 10
96.780655900284
 20
-114.124127846903
 10
96.780655900284
 20
-113.0198024891062
 10
96.780655900284
 20
-113.0198024891062
 10
96.780655900284
 20
-113.0198024891062
 10
96.45061575279708
 20
-113.0198024891062
 10
96.45061575279708
 20
-113.0198024891062
 10
96.45061575279708
 20
-113.0198024891062
 10
96.45061575279708
 20
-112.8718356380147
 10
96.45061575279708
 20
-112.8718356380147
 10
96.78272295757516
 20
-112.8570217274281
 10
96.82957625617456
 20
-112.6940687109758
 10
96.85885956779917
 20
-112.5798637956398
 10
96.85885956779917
 20
-112.5798637956398
 10
97.00493161637377
 20
-112.5798637956398
 10
97.00493161637377
 20
-112.5798637956398
 10
97.00493161637377
 20
-112.5798637956398
 10
97.00493161637377
 20
-114.124127846903
 10
97.00493161637377
 20
-114.124127846903
 10
97.00493161637377
 20
-114.124127846903
 10
96.780655900284
 20
-114.124127846903
 10
96.780655900284
 20
-114.124127846903
 97
        0
 97
        0
 75
     2
 76
     1
 98
        0
  0
SPLINE
  5
15A
330
154
100
AcDbEntity
  8
_U+30EC_U+30A4_U+30E4_U+30FC 1
370
     0
100
AcDbSpline
210
0.0
220
0.0
230
1.0
 70
    11
 71
     3
 72
    32
 73
    28
 74
     0
 42
0.0000000001
 43
0.0000000001
 12
1.0
 22
0.0
 32
0.0
 13
1.0
 23
0.0
 33
0.0
 40
0.0
 40
0.0
 40
0.0
 40
0.0
 40
1.0
 40
1.0
 40
1.0
 40
2.0
 40
2.0
 40
2.0
 40
3.0
 40
3.0
 40
3.0
 40
4.0
 40
4.0
 40
4.0
 40
5.0
 40
5.0
 40
5.0
 40
6.0
 40
6.0
 40
6.0
 40
7.0
 40
7.0
 40
7.0
 40
8.0
 40
8.0
 40
8.0
 40
9.0
 40
9.0
 40
9.0
 40
9.0
 10
98.0105549885182
 20
-114.1749430053104
 30
0.0
 10
97.49447968482778
 20
-114.1749430053104
 30
0.0
 10
97.48586694611465
 20
-113.6206271417337
 30
0.0
 10
97.48586694611465
 20
-113.4070312216483
 30
0.0
 10
97.48586694611465
 20
-113.1763820789108
 30
0.0
 10
97.50481497128352
 20
-112.5290486372323
 30
0.0
 10
98.04845103885594
 20
-112.5290486372323
 30
0.0
 10
98.22208385131253
 20
-112.5290486372323
 30
0.0
 10
98.46737464986232
 20
-112.5988118208086
 30
0.0
 10
98.5056152097486
 20
-112.931091280361
 30
0.0
 10
98.5056152097486
 20
-112.931091280361
 30
0.0
 10
98.29201928966312
 20
-112.931091280361
 30
0.0
 10
98.29201928966312
 20
-112.931091280361
 30
0.0
 10
98.28133949365883
 20
-112.8739026953058
 30
0.0
 10
98.24964461519454
 20
-112.7257635894401
 30
0.0
 10
98.0463839815648
 20
-112.7257635894401
 30
0.0
 10
97.75458439396414
 20
-112.7257635894401
 30
0.0
 10
97.71427677678672
 20
-113.0537366796359
 30
0.0
 10
97.7015299234913
 20
-113.2588921157825
 30
0.0
 10
97.79489201114156
 20
-113.1806884482673
 30
0.0
 10
97.86241588265246
 20
-113.121432805921
 30
0.0
 10
98.04431692427364
 20
-113.121432805921
 30
0.0
 10
98.22415090860369
 20
-113.121432805921
 30
0.0
 10
98.52663029220862
 20
-113.2292642946094
 30
0.0
 10
98.52663029220862
 20
-113.6354410523203
 30
0.0
 10
98.52663029220862
 20
-113.9549736585772
 30
0.0
 10
98.32784828270971
 20
-114.1749430053104
 30
0.0
 10
98.0105549885182
 20
-114.1749430053104
 30
0.0
  0
SPLINE
  5
15B
330
154
100
AcDbEntity
  8
_U+30EC_U+30A4_U+30E4_U+30FC 1
370
     0
100
AcDbSpline
210
0.0
220
0.0
230
1.0
 70
    11
 71
     3
 72
    17
 73
    13
 74
     0
 42
0.0000000001
 43
0.0000000001
 12
1.0
 22
0.0
 32
0.0
 13
1.0
 23
0.0
 33
0.0
 40
0.0
 40
0.0
 40
0.0
 40
0.0
 40
1.0
 40
1.0
 40
1.0
 40
2.0
 40
2.0
 40
2.0
 40
3.0
 40
3.0
 40
3.0
 40
4.0
 40
4.0
 40
4.0
 40
4.0
 10
98.02743595639592
 20
-113.3160807008376
 30
0.0
 10
97.7652641899684
 20
-113.3160807008376
 30
0.0
 10
97.72702363008214
 20
-113.527609563632
 30
0.0
 10
97.72702363008214
 20
-113.6438815362592
 30
0.0
 10
97.72702363008214
 20
-113.8195814060069
 30
0.0
 10
97.82210826547504
 20
-113.982362167685
 30
0.0
 10
98.0064208739359
 20
-113.982362167685
 30
0.0
 10
98.12699921591964
 20
-113.982362167685
 30
0.0
 10
98.30235457611886
 20
-113.9231065253387
 30
0.0
 10
98.30235457611886
 20
-113.6375081096115
 30
0.0
 10
98.30235457611886
 20
-113.413404648296
 30
0.0
 10
98.16282820896625
 20
-113.3160807008376
 30
0.0
 10
98.02743595639592
 20
-113.3160807008376
 30
0.0
  0
HATCH
  5
15C
330
154
100
AcDbEntity
  8
_U+30EC_U+30A4_U+30E4_U+30FC 1
 62
   179
420
  2234388
100
AcDbHatch
 10
0.0
 20
0.0
 30
0.0
210
0.0
220
0.0
230
1.0
  2
SOLID
 70
     1
 71
     0
 91
        2
 92
        1
 93
        1
 72
     4
 94
        3
 73
     0
 74
     1
 95
       32
 96
       28
 40
0.0
 40
0.0
 40
0.0
 40
0.0
 40
1.0
 40
1.0
 40
1.0
 40
2.0
 40
2.0
 40
2.0
 40
3.0
 40
3.0
 40
3.0
 40
4.0
 40
4.0
 40
4.0
 40
5.0
 40
5.0
 40
5.0
 40
6.0
 40
6.0
 40
6.0
 40
7.0
 40
7.0
 40
7.0
 40
8.0
 40
8.0
 40
8.0
 40
9.0
 40
9.0
 40
9.0
 40
9.0
 10
98.0105549885182
 20
-114.1749430053104
 10
97.49447968482778
 20
-114.1749430053104
 10
97.48586694611465
 20
-113.6206271417337
 10
97.48586694611465
 20
-113.4070312216483
 10
97.48586694611465
 20
-113.1763820789108
 10
97.50481497128352
 20
-112.5290486372323
 10
98.04845103885594
 20
-112.5290486372323
 10
98.22208385131253
 20
-112.5290486372323
 10
98.46737464986232
 20
-112.5988118208086
 10
98.5056152097486
 20
-112.931091280361
 10
98.5056152097486
 20
-112.931091280361
 10
98.29201928966312
 20
-112.931091280361
 10
98.29201928966312
 20
-112.931091280361
 10
98.28133949365883
 20
-112.8739026953058
 10
98.24964461519454
 20
-112.7257635894401
 10
98.0463839815648
 20
-112.7257635894401
 10
97.75458439396414
 20
-112.7257635894401
 10
97.71427677678672
 20
-113.0537366796359
 10
97.7015299234913
 20
-113.2588921157825
 10
97.79489201114156
 20
-113.1806884482673
 10
97.86241588265246
 20
-113.121432805921
 10
98.04431692427364
 20
-113.121432805921
 10
98.22415090860369
 20
-113.121432805921
 10
98.52663029220862
 20
-113.2292642946094
 10
98.52663029220862
 20
-113.6354410523203
 10
98.52663029220862
 20
-113.9549736585772
 10
98.32784828270971
 20
-114.1749430053104
 10
98.0105549885182
 20
-114.1749430053104
 97
        0
 97
        0
 92
        1
 93
        1
 72
     4
 94
        3
 73
     0
 74
     1
 95
       17
 96
       13
 40
0.0
 40
0.0
 40
0.0
 40
0.0
 40
1.0
 40
1.0
 40
1.0
 40
2.0
 40
2.0
 40
2.0
 40
3.0
 40
3.0
 40
3.0
 40
4.0
 40
4.0
 40
4.0
 40
4.0
 10
98.02743595639592
 20
-113.3160807008376
 10
97.7652641899684
 20
-113.3160807008376
 10
97.72702363008214
 20
-113.527609563632
 10
97.72702363008214
 20
-113.6438815362592
 10
97.72702363008214
 20
-113.8195814060069
 10
97.82210826547504
 20
-113.982362167685
 10
98.0064208739359
 20
-113.982362167685
 10
98.12699921591964
 20
-113.982362167685
 10
98.30235457611886
 20
-113.9231065253387
 10
98.30235457611886
 20
-113.6375081096115
 10
98.30235457611886
 20
-113.413404648296
 10
98.16282820896625
 20
-113.3160807008376
 10
98.02743595639592
 20
-113.3160807008376
 97
        0
 97
        0
 75
     2
 76
     1
 98
        0
  0
ENDBLK
  5
157
330
154
100
AcDbEntity
  8
0
100
AcDbBlockEnd
  0
BLOCK
  5
16E
330
16C
100
AcDbEntity
  8
0
100
AcDbBlockBegin
  2
block 7
 70
     0
 10
0.0
 20
0.0
 30
0.0
  3
block 7
  1

  0
SPLINE
  5
170
330
16C
100
AcDbEntity
  8
_U+30EC_U+30A4_U+30E4_U+30FC 1
370
     0
100
AcDbSpline
210
0.0
220
0.0
230
1.0
 70
    11
 71
     3
 72
    26
 73
    22
 74
     0
 42
0.0000000001
 43
0.0000000001
 12
1.0
 22
0.0
 32
0.0
 13
1.0
 23
0.0
 33
0.0
 40
0.0
 40
0.0
 40
0.0
 40
0.0
 40
1.0
 40
1.0
 40
1.0
 40
2.0
 40
2.0
 40
2.0
 40
3.0
 40
3.0
 40
3.0
 40
4.0
 40
4.0
 40
4.0
 40
5.0
 40
5.0
 40
5.0
 40
6.0
 40
6.0
 40
6.0
 40
7.0
 40
7.0
 40
7.0
 40
7.0
 10
73.75225963867999
 20
-129.9961995117718
 30
0.0
 10
73.75225963867999
 20
-129.9961995117718
 30
0.0
 10
72.64793428088316
 20
-129.9961995117718
 30
0.0
 10
72.64793428088316
 20
-129.9961995117718
 30
0.0
 10
72.64793428088316
 20
-129.9961995117718
 30
0.0
 10
72.64793428088316
 20
-130.3262396592587
 30
0.0
 10
72.64793428088316
 20
-130.3262396592587
 30
0.0
 10
72.64793428088316
 20
-130.3262396592587
 30
0.0
 10
72.49996742979168
 20
-130.3262396592587
 30
0.0
 10
72.49996742979168
 20
-130.3262396592587
 30
0.0
 10
72.4851535192051
 20
-129.9941324544806
 30
0.0
 10
72.32220050275279
 20
-129.9476236654298
 30
0.0
 10
72.20799558741676
 20
-129.9179958442566
 30
0.0
 10
72.20799558741676
 20
-129.9179958442566
 30
0.0
 10
72.20799558741676
 20
-129.771923795682
 30
0.0
 10
72.20799558741676
 20
-129.771923795682
 30
0.0
 10
72.20799558741676
 20
-129.771923795682
 30
0.0
 10
73.75225963867999
 20
-129.771923795682
 30
0.0
 10
73.75225963867999
 20
-129.771923795682
 30
0.0
 10
73.75225963867999
 20
-129.771923795682
 30
0.0
 10
73.75225963867999
 20
-129.9961995117718
 30
0.0
 10
73.75225963867999
 20
-129.9961995117718
 30
0.0
  0
HATCH
  5
171
330
16C
100
AcDbEntity
  8
_U+30EC_U+30A4_U+30E4_U+30FC 1
 62
   179
420
  2234388
100
AcDbHatch
 10
0.0
 20
0.0
 30
0.0
210
0.0
220
0.0
230
1.0
  2
SOLID
 70
     1
 71
     0
 91
        1
 92
        1
 93
        1
 72
     4
 94
        3
 73
     0
 74
     1
 95
       26
 96
       22
 40
0.0
 40
0.0
 40
0.0
 40
0.0
 40
1.0
 40
1.0
 40
1.0
 40
2.0
 40
2.0
 40
2.0
 40
3.0
 40
3.0
 40
3.0
 40
4.0
 40
4.0
 40
4.0
 40
5.0
 40
5.0
 40
5.0
 40
6.0
 40
6.0
 40
6.0
 40
7.0
 40
7.0
 40
7.0
 40
7.0
 10
73.75225963867999
 20
-129.9961995117718
 10
73.75225963867999
 20
-129.9961995117718
 10
72.64793428088316
 20
-129.9961995117718
 10
72.64793428088316
 20
-129.9961995117718
 10
72.64793428088316
 20
-129.9961995117718
 10
72.64793428088316
 20
-130.3262396592587
 10
72.64793428088316
 20
-130.3262396592587
 10
72.64793428088316
 20
-130.3262396592587
 10
72.49996742979168
 20
-130.3262396592587
 10
72.49996742979168
 20
-130.3262396592587
 10
72.4851535192051
 20
-129.9941324544806
 10
72.32220050275279
 20
-129.9476236654298
 10
72.20799558741676
 20
-129.9179958442566
 10
72.20799558741676
 20
-129.9179958442566
 10
72.20799558741676
 20
-129.771923795682
 10
72.20799558741676
 20
-129.771923795682
 10
72.20799558741676
 20
-129.771923795682
 10
73.75225963867999
 20
-129.771923795682
 10
73.75225963867999
 20
-129.771923795682
 10
73.75225963867999
 20
-129.771923795682
 10
73.75225963867999
 20
-129.9961995117718
 10
73.75225963867999
 20
-129.9961995117718
 97
        0
 97
        0
 75
     2
 76
     1
 98
        0
  0
SPLINE
  5
172
330
16C
100
AcDbEntity
  8
_U+30EC_U+30A4_U+30E4_U+30FC 1
370
     0
100
AcDbSpline
210
0.0
220
0.0
230
1.0
 70
    11
 71
     3
 72
    32
 73
    28
 74
     0
 42
0.0000000001
 43
0.0000000001
 12
1.0
 22
0.0
 32
0.0
 13
1.0
 23
0.0
 33
0.0
 40
0.0
 40
0.0
 40
0.0
 40
0.0
 40
1.0
 40
1.0
 40
1.0
 40
2.0
 40
2.0
 40
2.0
 40
3.0
 40
3.0
 40
3.0
 40
4.0
 40
4.0
 40
4.0
 40
5.0
 40
5.0
 40
5.0
 40
6.0
 40
6.0
 40
6.0
 40
7.0
 40
7.0
 40
7.0
 40
8.0
 40
8.0
 40
8.0
 40
9.0
 40
9.0
 40
9.0
 40
9.0
 10
73.80307479708743
 20
-128.8128092125885
 30
0.0
 10
73.80307479708743
 20
-128.9864420250451
 30
0.0
 10
73.73331161351112
 20
-129.2317328235949
 30
0.0
 10
73.40120440873304
 20
-129.2699733834811
 30
0.0
 10
73.40120440873304
 20
-129.2699733834811
 30
0.0
 10
73.40120440873304
 20
-129.0563774633956
 30
0.0
 10
73.40120440873304
 20
-129.0563774633956
 30
0.0
 10
73.46028779630507
 20
-129.0456976673914
 30
0.0
 10
73.60842690217082
 20
-129.0140027889271
 30
0.0
 10
73.60842690217082
 20
-128.8107421552973
 30
0.0
 10
73.60842690217082
 20
-128.5189425676967
 30
0.0
 10
73.27838675468388
 20
-128.4808742625846
 30
0.0
 10
73.07323131853725
 20
-128.4681274092892
 30
0.0
 10
73.15367429811783
 20
-128.5590779300998
 30
0.0
 10
73.21069062839872
 20
-128.626774056385
 30
0.0
 10
73.21069062839872
 20
-128.8086750980062
 30
0.0
 10
73.21069062839872
 20
-128.9885090823362
 30
0.0
 10
73.10492619700155
 20
-129.2909884659412
 30
0.0
 10
72.6987494392906
 20
-129.2909884659412
 30
0.0
 10
72.37938908780794
 20
-129.2909884659412
 30
0.0
 10
72.15924748630047
 20
-129.0922064564422
 30
0.0
 10
72.15924748630047
 20
-128.7749131622507
 30
0.0
 10
72.15924748630047
 20
-128.2607326610772
 30
0.0
 10
72.71356334987716
 20
-128.2502251198472
 30
0.0
 10
72.92715926996266
 20
-128.2502251198472
 30
0.0
 10
73.15780841270013
 20
-128.2502251198472
 30
0.0
 10
73.80307479708743
 20
-128.2691731450161
 30
0.0
 10
73.80307479708743
 20
-128.8128092125885
 30
0.0
  0
SPLINE
  5
173
330
16C
100
AcDbEntity
  8
_U+30EC_U+30A4_U+30E4_U+30FC 1
370
     0
100
AcDbSpline
210
0.0
220
0.0
230
1.0
 70
    11
 71
     3
 72
    17
 73
    13
 74
     0
 42
0.0000000001
 43
0.0000000001
 12
1.0
 22
0.0
 32
0.0
 13
1.0
 23
0.0
 33
0.0
 40
0.0
 40
0.0
 40
0.0
 40
0.0
 40
1.0
 40
1.0
 40
1.0
 40
2.0
 40
2.0
 40
2.0
 40
3.0
 40
3.0
 40
3.0
 40
4.0
 40
4.0
 40
4.0
 40
4.0
 10
72.35182832392593
 20
-128.7728461049596
 30
0.0
 10
72.35182832392593
 20
-128.8913573896522
 30
0.0
 10
72.40901690898109
 20
-129.0667127498514
 30
0.0
 10
72.6946153247083
 20
-129.0667127498514
 30
0.0
 10
72.9209580980892
 20
-129.0667127498514
 30
0.0
 10
73.01604273348211
 20
-128.9271863826988
 30
0.0
 10
73.01604273348211
 20
-128.7917941301284
 30
0.0
 10
73.01604273348211
 20
-128.5294501089267
 30
0.0
 10
72.80658092797891
 20
-128.4913818038146
 30
0.0
 10
72.69030895535172
 20
-128.4913818038146
 30
0.0
 10
72.51478134037825
 20
-128.4913818038146
 30
0.0
 10
72.35182832392593
 20
-128.5866386939818
 30
0.0
 10
72.35182832392593
 20
-128.7728461049596
 30
0.0
  0
HATCH
  5
174
330
16C
100
AcDbEntity
  8
_U+30EC_U+30A4_U+30E4_U+30FC 1
 62
   179
420
  2234388
100
AcDbHatch
 10
0.0
 20
0.0
 30
0.0
210
0.0
220
0.0
230
1.0
  2
SOLID
 70
     1
 71
     0
 91
        2
 92
        1
 93
        1
 72
     4
 94
        3
 73
     0
 74
     1
 95
       32
 96
       28
 40
0.0
 40
0.0
 40
0.0
 40
0.0
 40
1.0
 40
1.0
 40
1.0
 40
2.0
 40
2.0
 40
2.0
 40
3.0
 40
3.0
 40
3.0
 40
4.0
 40
4.0
 40
4.0
 40
5.0
 40
5.0
 40
5.0
 40
6.0
 40
6.0
 40
6.0
 40
7.0
 40
7.0
 40
7.0
 40
8.0
 40
8.0
 40
8.0
 40
9.0
 40
9.0
 40
9.0
 40
9.0
 10
73.80307479708743
 20
-128.8128092125885
 10
73.80307479708743
 20
-128.9864420250451
 10
73.73331161351112
 20
-129.2317328235949
 10
73.40120440873304
 20
-129.2699733834811
 10
73.40120440873304
 20
-129.2699733834811
 10
73.40120440873304
 20
-129.0563774633956
 10
73.40120440873304
 20
-129.0563774633956
 10
73.46028779630507
 20
-129.0456976673914
 10
73.60842690217082
 20
-129.0140027889271
 10
73.60842690217082
 20
-128.8107421552973
 10
73.60842690217082
 20
-128.5189425676967
 10
73.27838675468388
 20
-128.4808742625846
 10
73.07323131853725
 20
-128.4681274092892
 10
73.15367429811783
 20
-128.5590779300998
 10
73.21069062839872
 20
-128.626774056385
 10
73.21069062839872
 20
-128.8086750980062
 10
73.21069062839872
 20
-128.9885090823362
 10
73.10492619700155
 20
-129.2909884659412
 10
72.6987494392906
 20
-129.2909884659412
 10
72.37938908780794
 20
-129.2909884659412
 10
72.15924748630047
 20
-129.0922064564422
 10
72.15924748630047
 20
-128.7749131622507
 10
72.15924748630047
 20
-128.2607326610772
 10
72.71356334987716
 20
-128.2502251198472
 10
72.92715926996266
 20
-128.2502251198472
 10
73.15780841270013
 20
-128.2502251198472
 10
73.80307479708743
 20
-128.2691731450161
 10
73.80307479708743
 20
-128.8128092125885
 97
        0
 97
        0
 92
        1
 93
        1
 72
     4
 94
        3
 73
     0
 74
     1
 95
       17
 96
       13
 40
0.0
 40
0.0
 40
0.0
 40
0.0
 40
1.0
 40
1.0
 40
1.0
 40
2.0
 40
2.0
 40
2.0
 40
3.0
 40
3.0
 40
3.0
 40
4.0
 40
4.0
 40
4.0
 40
4.0
 10
72.35182832392593
 20
-128.7728461049596
 10
72.35182832392593
 20
-128.8913573896522
 10
72.40901690898109
 20
-129.0667127498514
 10
72.6946153247083
 20
-129.0667127498514
 10
72.9209580980892
 20
-129.0667127498514
 10
73.01604273348211
 20
-128.9271863826988
 10
73.01604273348211
 20
-128.7917941301284
 10
73.01604273348211
 20
-128.5294501089267
 10
72.80658092797891
 20
-128.4913818038146
 10
72.69030895535172
 20
-128.4913818038146
 10
72.51478134037825
 20
-128.4913818038146
 10
72.35182832392593
 20
-128.5866386939818
 10
72.35182832392593
 20
-128.7728461049596
 97
        0
 97
        0
 75
     2
 76
     1
 98
        0
  0
POLYLINE
  5
175
330
16C
100
AcDbEntity
  8
_U+30EC_U+30A4_U+30E4_U+30FC 1
370
     0
100
AcDb2dPolyline
 66
     1
 10
0.0
 20
0.0
 30
0.0
  0
VERTEX
  5
176
330
175
100
AcDbEntity
  8
_U+30EC_U+30A4_U+30E4_U+30FC 1
370
     0
100
AcDbVertex
100
AcDb2dVertex
 10
73.75225963867999
 20
-128.0337008685992
 30
0.0
  0
VERTEX
  5
177
330
175
100
AcDbEntity
  8
_U+30EC_U+30A4_U+30E4_U+30FC 1
370
     0
100
AcDbVertex
100
AcDb2dVertex
 10
73.5005954134825
 20
-128.0337008685992
 30
0.0
  0
VERTEX
  5
178
330
175
100
AcDbEntity
  8
_U+30EC_U+30A4_U+30E4_U+30FC 1
370
     0
100
AcDbVertex
100
AcDb2dVertex
 10
73.5005954134825
 20
-127.7820366434017
 30
0.0
  0
VERTEX
  5
179
330
175
100
AcDbEntity
  8
_U+30EC_U+30A4_U+30E4_U+30FC 1
370
     0
100
AcDbVertex
100
AcDb2dVertex
 10
73.75225963867999
 20
-127.7820366434017
 30
0.0
  0
VERTEX
  5
17A
330
175
100
AcDbEntity
  8
_U+30EC_U+30A4_U+30E4_U+30FC 1
370
     0
100
AcDbVertex
100
AcDb2dVertex
 10
73.75225963867999
 20
-128.0337008685992
 30
0.0
  0
SEQEND
  5
17B
330
175
100
AcDbEntity
  8
_U+30EC_U+30A4_U+30E4_U+30FC 1
370
     0
  0
HATCH
  5
17C
330
16C
100
AcDbEntity
  8
_U+30EC_U+30A4_U+30E4_U+30FC 1
 62
   179
420
  2234388
100
AcDbHatch
 10
0.0
 20
0.0
 30
0.0
210
0.0
220
0.0
230
1.0
  2
SOLID
 70
     1
 71
     0
 91
        1
 92
        1
 93
        4
 72
     1
 10
73.75225963867999
 20
-128.0337008685992
 11
73.5005954134825
 21
-128.0337008685992
 72
     1
 10
73.5005954134825
 20
-128.0337008685992
 11
73.5005954134825
 21
-127.7820366434017
 72
     1
 10
73.5005954134825
 20
-127.7820366434017
 11
73.75225963867999
 21
-127.7820366434017
 72
     1
 10
73.75225963867999
 20
-127.7820366434017
 11
73.75225963867999
 21
-128.0337008685992
 97
        0
 75
     2
 76
     1
 98
        0
  0
SPLINE
  5
17D
330
16C
100
AcDbEntity
  8
_U+30EC_U+30A4_U+30E4_U+30FC 1
370
     0
100
AcDbSpline
210
0.0
220
0.0
230
1.0
 70
    11
 71
     3
 72
    53
 73
    49
 74
     0
 42
0.0000000001
 43
0.0000000001
 12
1.0
 22
0.0
 32
0.0
 13
1.0
 23
0.0
 33
0.0
 40
0.0
 40
0.0
 40
0.0
 40
0.0
 40
1.0
 40
1.0
 40
1.0
 40
2.0
 40
2.0
 40
2.0
 40
3.0
 40
3.0
 40
3.0
 40
4.0
 40
4.0
 40
4.0
 40
5.0
 40
5.0
 40
5.0
 40
6.0
 40
6.0
 40
6.0
 40
7.0
 40
7.0
 40
7.0
 40
8.0
 40
8.0
 40
8.0
 40
9.0
 40
9.0
 40
9.0
 40
10.0
 40
10.0
 40
10.0
 40
11.0
 40
11.0
 40
11.0
 40
12.0
 40
12.0
 40
12.0
 40
13.0
 40
13.0
 40
13.0
 40
14.0
 40
14.0
 40
14.0
 40
15.0
 40
15.0
 40
15.0
 40
16.0
 40
16.0
 40
16.0
 40
16.0
 10
73.80307479708743
 20
-127.0645955085984
 30
0.0
 10
73.80307479708743
 20
-127.1427991761136
 30
0.0
 10
73.78619382920971
 20
-127.2444294929285
 30
0.0
 10
73.72263181750685
 20
-127.3458875549691
 30
0.0
 10
73.61273327152738
 20
-127.5195203674257
 30
0.0
 10
73.48147513353936
 20
-127.5405354498857
 30
0.0
 10
73.37364364485104
 20
-127.5596557298288
 30
0.0
 10
73.37364364485104
 20
-127.5596557298288
 30
0.0
 10
73.37364364485104
 20
-127.3374470710302
 30
0.0
 10
73.37364364485104
 20
-127.3374470710302
 30
0.0
 10
73.57242565434996
 20
-127.2824977980405
 30
0.0
 10
73.6020534755231
 20
-127.155546029409
 30
0.0
 10
73.6020534755231
 20
-127.0625284513073
 30
0.0
 10
73.6020534755231
 20
-126.9228298293804
 30
0.0
 10
73.50266247077364
 20
-126.7705566089324
 30
0.0
 10
73.26994627074502
 20
-126.7705566089324
 30
0.0
 10
73.01397567619095
 20
-126.7705566089324
 30
0.0
 10
72.94421249261464
 20
-126.9503905932624
 30
0.0
 10
72.94421249261464
 20
-127.0709689352462
 30
0.0
 10
72.94421249261464
 20
-127.1026638137104
 30
0.0
 10
72.94421249261464
 20
-127.2444294929285
 30
0.0
 10
73.07323131853725
 20
-127.3333129564479
 30
0.0
 10
73.07323131853725
 20
-127.3333129564479
 30
0.0
 10
73.05411103859412
 20
-127.5088405714214
 30
0.0
 10
73.05411103859412
 20
-127.5088405714214
 30
0.0
 10
73.05411103859412
 20
-127.5088405714214
 30
0.0
 10
72.20799558741676
 20
-127.3882622294377
 30
0.0
 10
72.20799558741676
 20
-127.3882622294377
 30
0.0
 10
72.20799558741676
 20
-127.3882622294377
 30
0.0
 10
72.20799558741676
 20
-126.6098429045455
 30
0.0
 10
72.20799558741676
 20
-126.6098429045455
 30
0.0
 10
72.20799558741676
 20
-126.6098429045455
 30
0.0
 10
72.40264348233337
 20
-126.6098429045455
 30
0.0
 10
72.40264348233337
 20
-126.6098429045455
 30
0.0
 10
72.40264348233337
 20
-126.6098429045455
 30
0.0
 10
72.40264348233337
 20
-127.2253092129854
 30
0.0
 10
72.40264348233337
 20
-127.2253092129854
 30
0.0
 10
72.40264348233337
 20
-127.2253092129854
 30
0.0
 10
72.82570120792205
 20
-127.2909382819794
 30
0.0
 10
72.82570120792205
 20
-127.2909382819794
 30
0.0
 10
72.79176701739235
 20
-127.2296155823419
 30
0.0
 10
72.75163165498918
 20
-127.1471055454702
 30
0.0
 10
72.75163165498918
 20
-127.0285942607776
 30
0.0
 10
72.75163165498918
 20
-126.7748629782889
 30
0.0
 10
72.93783906596693
 20
-126.5378404089037
 30
0.0
 10
73.25099824557614
 20
-126.5378404089037
 30
0.0
 10
73.56829153976766
 20
-126.5378404089037
 30
0.0
 10
73.80307479708743
 20
-126.7621161249935
 30
0.0
 10
73.80307479708743
 20
-127.0645955085984
 30
0.0
  0
HATCH
  5
17E
330
16C
100
AcDbEntity
  8
_U+30EC_U+30A4_U+30E4_U+30FC 1
 62
   179
420
  2234388
100
AcDbHatch
 10
0.0
 20
0.0
 30
0.0
210
0.0
220
0.0
230
1.0
  2
SOLID
 70
     1
 71
     0
 91
        1
 92
        1
 93
        1
 72
     4
 94
        3
 73
     0
 74
     1
 95
       53
 96
       49
 40
0.0
 40
0.0
 40
0.0
 40
0.0
 40
1.0
 40
1.0
 40
1.0
 40
2.0
 40
2.0
 40
2.0
 40
3.0
 40
3.0
 40
3.0
 40
4.0
 40
4.0
 40
4.0
 40
5.0
 40
5.0
 40
5.0
 40
6.0
 40
6.0
 40
6.0
 40
7.0
 40
7.0
 40
7.0
 40
8.0
 40
8.0
 40
8.0
 40
9.0
 40
9.0
 40
9.0
 40
10.0
 40
10.0
 40
10.0
 40
11.0
 40
11.0
 40
11.0
 40
12.0
 40
12.0
 40
12.0
 40
13.0
 40
13.0
 40
13.0
 40
14.0
 40
14.0
 40
14.0
 40
15.0
 40
15.0
 40
15.0
 40
16.0
 40
16.0
 40
16.0
 40
16.0
 10
73.80307479708743
 20
-127.0645955085984
 10
73.80307479708743
 20
-127.1427991761136
 10
73.78619382920971
 20
-127.2444294929285
 10
73.72263181750685
 20
-127.3458875549691
 10
73.61273327152738
 20
-127.5195203674257
 10
73.48147513353936
 20
-127.5405354498857
 10
73.37364364485104
 20
-127.5596557298288
 10
73.37364364485104
 20
-127.5596557298288
 10
73.37364364485104
 20
-127.3374470710302
 10
73.37364364485104
 20
-127.3374470710302
 10
73.57242565434996
 20
-127.2824977980405
 10
73.6020534755231
 20
-127.155546029409
 10
73.6020534755231
 20
-127.0625284513073
 10
73.6020534755231
 20
-126.9228298293804
 10
73.50266247077364
 20
-126.7705566089324
 10
73.26994627074502
 20
-126.7705566089324
 10
73.01397567619095
 20
-126.7705566089324
 10
72.94421249261464
 20
-126.9503905932624
 10
72.94421249261464
 20
-127.0709689352462
 10
72.94421249261464
 20
-127.1026638137104
 10
72.94421249261464
 20
-127.2444294929285
 10
73.07323131853725
 20
-127.3333129564479
 10
73.07323131853725
 20
-127.3333129564479
 10
73.05411103859412
 20
-127.5088405714214
 10
73.05411103859412
 20
-127.5088405714214
 10
73.05411103859412
 20
-127.5088405714214
 10
72.20799558741676
 20
-127.3882622294377
 10
72.20799558741676
 20
-127.3882622294377
 10
72.20799558741676
 20
-127.3882622294377
 10
72.20799558741676
 20
-126.6098429045455
 10
72.20799558741676
 20
-126.6098429045455
 10
72.20799558741676
 20
-126.6098429045455
 10
72.40264348233337
 20
-126.6098429045455
 10
72.40264348233337
 20
-126.6098429045455
 10
72.40264348233337
 20
-126.6098429045455
 10
72.40264348233337
 20
-127.2253092129854
 10
72.40264348233337
 20
-127.2253092129854
 10
72.40264348233337
 20
-127.2253092129854
 10
72.82570120792205
 20
-127.2909382819794
 10
72.82570120792205
 20
-127.2909382819794
 10
72.79176701739235
 20
-127.2296155823419
 10
72.75163165498918
 20
-127.1471055454702
 10
72.75163165498918
 20
-127.0285942607776
 10
72.75163165498918
 20
-126.7748629782889
 10
72.93783906596693
 20
-126.5378404089037
 10
73.25099824557614
 20
-126.5378404089037
 10
73.56829153976766
 20
-126.5378404089037
 10
73.80307479708743
 20
-126.7621161249935
 10
73.80307479708743
 20
-127.0645955085984
 97
        0
 97
        0
 75
     2
 76
     1
 98
        0
  0
ENDBLK
  5
16F
330
16C
100
AcDbEntity
  8
0
100
AcDbBlockEnd
  0
BLOCK
  5
190
330
18E
100
AcDbEntity
  8
0
100
AcDbBlockBegin
  2
block 8
 70
     0
 10
0.0
 20
0.0
 30
0.0
  3
block 8
  1

  0
SPLINE
  5
192
330
18E
100
AcDbEntity
  8
_U+30EC_U+30A4_U+30E4_U+30FC 1
370
     0
100
AcDbSpline
210
0.0
220
0.0
230
1.0
 70
    11
 71
     3
 72
    44
 73
    40
 74
     0
 42
0.0000000001
 43
0.0000000001
 12
1.0
 22
0.0
 32
0.0
 13
1.0
 23
0.0
 33
0.0
 40
0.0
 40
0.0
 40
0.0
 40
0.0
 40
1.0
 40
1.0
 40
1.0
 40
2.0
 40
2.0
 40
2.0
 40
3.0
 40
3.0
 40
3.0
 40
4.0
 40
4.0
 40
4.0
 40
5.0
 40
5.0
 40
5.0
 40
6.0
 40
6.0
 40
6.0
 40
7.0
 40
7.0
 40
7.0
 40
8.0
 40
8.0
 40
8.0
 40
9.0
 40
9.0
 40
9.0
 40
10.0
 40
10.0
 40
10.0
 40
11.0
 40
11.0
 40
11.0
 40
12.0
 40
12.0
 40
12.0
 40
13.0
 40
13.0
 40
13.0
 40
13.0
 10
73.52316078891089
 20
-140.4124457114247
 30
0.0
 10
73.68180743600664
 20
-140.6301757460925
 30
0.0
 10
73.7558769889395
 20
-140.7231933241942
 30
0.0
 10
73.89970972544869
 20
-140.7721136800847
 30
0.0
 10
73.89970972544869
 20
-140.7721136800847
 30
0.0
 10
73.89970972544869
 20
-139.9935221004183
 30
0.0
 10
73.89970972544869
 20
-139.9935221004183
 30
0.0
 10
73.89970972544869
 20
-139.9935221004183
 30
0.0
 10
74.10486516159531
 20
-139.9935221004183
 30
0.0
 10
74.10486516159531
 20
-139.9935221004183
 30
0.0
 10
74.10486516159531
 20
-139.9935221004183
 30
0.0
 10
74.10486516159531
 20
-141.0215385932168
 30
0.0
 10
74.10486516159531
 20
-141.0215385932168
 30
0.0
 10
73.74743650500065
 20
-140.9898437147525
 30
0.0
 10
73.66906058271121
 20
-140.9243869005328
 30
0.0
 10
73.37088756846283
 20
-140.5392252252819
 30
0.0
 10
73.17193330418966
 20
-140.2832546307278
 30
0.0
 10
73.1042371779045
 20
-140.2177978165081
 30
0.0
 10
72.96677786804302
 20
-140.2177978165081
 30
0.0
 10
72.84826658335044
 20
-140.2177978165081
 30
0.0
 10
72.71718070013668
 20
-140.2898003121498
 30
0.0
 10
72.71718070013668
 20
-140.4865152643575
 30
0.0
 10
72.71718070013668
 20
-140.7466199734939
 30
0.0
 10
72.9476575880999
 20
-140.755232712207
 30
0.0
 10
73.06410181550135
 20
-140.7593668267893
 30
0.0
 10
73.06410181550135
 20
-140.7593668267893
 30
0.0
 10
73.06410181550135
 20
-140.9836425428791
 30
0.0
 10
73.06410181550135
 20
-140.9836425428791
 30
0.0
 10
72.93715004686989
 20
-140.975029804166
 30
0.0
 10
72.825012188825
 20
-140.9646945177102
 30
0.0
 10
72.70650090413241
 20
-140.8840792833554
 30
0.0
 10
72.5457871997455
 20
-140.7741807373759
 30
0.0
 10
72.51185300921578
 20
-140.5878010716239
 30
0.0
 10
72.51185300921578
 20
-140.471701353771
 30
0.0
 10
72.51185300921578
 20
-140.1943711672083
 30
0.0
 10
72.6959933629024
 20
-139.9873209285448
 30
0.0
 10
72.96884492533418
 20
-139.9873209285448
 30
0.0
 10
73.1974270107805
 20
-139.9873209285448
 30
0.0
 10
73.29681801552996
 20
-140.1034206463978
 30
0.0
 10
73.52316078891089
 20
-140.4124457114247
 30
0.0
  0
HATCH
  5
193
330
18E
100
AcDbEntity
  8
_U+30EC_U+30A4_U+30E4_U+30FC 1
 62
   179
420
  2234388
100
AcDbHatch
 10
0.0
 20
0.0
 30
0.0
210
0.0
220
0.0
230
1.0
  2
SOLID
 70
     1
 71
     0
 91
        1
 92
        1
 93
        1
 72
     4
 94
        3
 73
     0
 74
     1
 95
       44
 96
       40
 40
0.0
 40
0.0
 40
0.0
 40
0.0
 40
1.0
 40
1.0
 40
1.0
 40
2.0
 40
2.0
 40
2.0
 40
3.0
 40
3.0
 40
3.0
 40
4.0
 40
4.0
 40
4.0
 40
5.0
 40
5.0
 40
5.0
 40
6.0
 40
6.0
 40
6.0
 40
7.0
 40
7.0
 40
7.0
 40
8.0
 40
8.0
 40
8.0
 40
9.0
 40
9.0
 40
9.0
 40
10.0
 40
10.0
 40
10.0
 40
11.0
 40
11.0
 40
11.0
 40
12.0
 40
12.0
 40
12.0
 40
13.0
 40
13.0
 40
13.0
 40
13.0
 10
73.52316078891089
 20
-140.4124457114247
 10
73.68180743600664
 20
-140.6301757460925
 10
73.7558769889395
 20
-140.7231933241942
 10
73.89970972544869
 20
-140.7721136800847
 10
73.89970972544869
 20
-140.7721136800847
 10
73.89970972544869
 20
-139.9935221004183
 10
73.89970972544869
 20
-139.9935221004183
 10
73.89970972544869
 20
-139.9935221004183
 10
74.10486516159531
 20
-139.9935221004183
 10
74.10486516159531
 20
-139.9935221004183
 10
74.10486516159531
 20
-139.9935221004183
 10
74.10486516159531
 20
-141.0215385932168
 10
74.10486516159531
 20
-141.0215385932168
 10
73.74743650500065
 20
-140.9898437147525
 10
73.66906058271121
 20
-140.9243869005328
 10
73.37088756846283
 20
-140.5392252252819
 10
73.17193330418966
 20
-140.2832546307278
 10
73.1042371779045
 20
-140.2177978165081
 10
72.96677786804302
 20
-140.2177978165081
 10
72.84826658335044
 20
-140.2177978165081
 10
72.71718070013668
 20
-140.2898003121498
 10
72.71718070013668
 20
-140.4865152643575
 10
72.71718070013668
 20
-140.7466199734939
 10
72.9476575880999
 20
-140.755232712207
 10
73.06410181550135
 20
-140.7593668267893
 10
73.06410181550135
 20
-140.7593668267893
 10
73.06410181550135
 20
-140.9836425428791
 10
73.06410181550135
 20
-140.9836425428791
 10
72.93715004686989
 20
-140.975029804166
 10
72.825012188825
 20
-140.9646945177102
 10
72.70650090413241
 20
-140.8840792833554
 10
72.5457871997455
 20
-140.7741807373759
 10
72.51185300921578
 20
-140.5878010716239
 10
72.51185300921578
 20
-140.471701353771
 10
72.51185300921578
 20
-140.1943711672083
 10
72.6959933629024
 20
-139.9873209285448
 10
72.96884492533418
 20
-139.9873209285448
 10
73.1974270107805
 20
-139.9873209285448
 10
73.29681801552996
 20
-140.1034206463978
 10
73.52316078891089
 20
-140.4124457114247
 97
        0
 97
        0
 75
     2
 76
     1
 98
        0
  0
POLYLINE
  5
194
330
18E
100
AcDbEntity
  8
_U+30EC_U+30A4_U+30E4_U+30FC 1
370
     0
100
AcDb2dPolyline
 66
     1
 10
0.0
 20
0.0
 30
0.0
  0
VERTEX
  5
195
330
194
100
AcDbEntity
  8
_U+30EC_U+30A4_U+30E4_U+30FC 1
370
     0
100
AcDbVertex
100
AcDb2dVertex
 10
74.10486516159531
 20
-139.7685573652315
 30
0.0
  0
VERTEX
  5
196
330
194
100
AcDbEntity
  8
_U+30EC_U+30A4_U+30E4_U+30FC 1
370
     0
100
AcDbVertex
100
AcDb2dVertex
 10
73.85320093639781
 20
-139.7685573652315
 30
0.0
  0
VERTEX
  5
197
330
194
100
AcDbEntity
  8
_U+30EC_U+30A4_U+30E4_U+30FC 1
370
     0
100
AcDbVertex
100
AcDb2dVertex
 10
73.85320093639781
 20
-139.5167208852597
 30
0.0
  0
VERTEX
  5
198
330
194
100
AcDbEntity
  8
_U+30EC_U+30A4_U+30E4_U+30FC 1
370
     0
100
AcDbVertex
100
AcDb2dVertex
 10
74.10486516159531
 20
-139.5167208852597
 30
0.0
  0
VERTEX
  5
199
330
194
100
AcDbEntity
  8
_U+30EC_U+30A4_U+30E4_U+30FC 1
370
     0
100
AcDbVertex
100
AcDb2dVertex
 10
74.10486516159531
 20
-139.7685573652315
 30
0.0
  0
SEQEND
  5
19A
330
194
100
AcDbEntity
  8
_U+30EC_U+30A4_U+30E4_U+30FC 1
370
     0
  0
HATCH
  5
19B
330
18E
100
AcDbEntity
  8
_U+30EC_U+30A4_U+30E4_U+30FC 1
 62
   179
420
  2234388
100
AcDbHatch
 10
0.0
 20
0.0
 30
0.0
210
0.0
220
0.0
230
1.0
  2
SOLID
 70
     1
 71
     0
 91
        1
 92
        1
 93
        4
 72
     1
 10
74.10486516159531
 20
-139.7685573652315
 11
73.85320093639781
 21
-139.7685573652315
 72
     1
 10
73.85320093639781
 20
-139.7685573652315
 11
73.85320093639781
 21
-139.5167208852597
 72
     1
 10
73.85320093639781
 20
-139.5167208852597
 11
74.10486516159531
 21
-139.5167208852597
 72
     1
 10
74.10486516159531
 20
-139.5167208852597
 11
74.10486516159531
 21
-139.7685573652315
 97
        0
 75
     2
 76
     1
 98
        0
  0
SPLINE
  5
19C
330
18E
100
AcDbEntity
  8
_U+30EC_U+30A4_U+30E4_U+30FC 1
370
     0
100
AcDbSpline
210
0.0
220
0.0
230
1.0
 70
    11
 71
     3
 72
    53
 73
    49
 74
     0
 42
0.0000000001
 43
0.0000000001
 12
1.0
 22
0.0
 32
0.0
 13
1.0
 23
0.0
 33
0.0
 40
0.0
 40
0.0
 40
0.0
 40
0.0
 40
1.0
 40
1.0
 40
1.0
 40
2.0
 40
2.0
 40
2.0
 40
3.0
 40
3.0
 40
3.0
 40
4.0
 40
4.0
 40
4.0
 40
5.0
 40
5.0
 40
5.0
 40
6.0
 40
6.0
 40
6.0
 40
7.0
 40
7.0
 40
7.0
 40
8.0
 40
8.0
 40
8.0
 40
9.0
 40
9.0
 40
9.0
 40
10.0
 40
10.0
 40
10.0
 40
11.0
 40
11.0
 40
11.0
 40
12.0
 40
12.0
 40
12.0
 40
13.0
 40
13.0
 40
13.0
 40
14.0
 40
14.0
 40
14.0
 40
15.0
 40
15.0
 40
15.0
 40
16.0
 40
16.0
 40
16.0
 40
16.0
 10
74.15568032000274
 20
-138.7994520052307
 30
0.0
 10
74.15568032000274
 20
-138.8776556727459
 30
0.0
 10
74.13879935212502
 20
-138.9792859895607
 30
0.0
 10
74.07523734042216
 20
-139.0809163063756
 30
0.0
 10
73.9653387944427
 20
-139.2542046092837
 30
0.0
 10
73.83408065645467
 20
-139.2755642012922
 30
0.0
 10
73.72624916776635
 20
-139.2945122264611
 30
0.0
 10
73.72624916776635
 20
-139.2945122264611
 30
0.0
 10
73.72624916776635
 20
-139.0723035676625
 30
0.0
 10
73.72624916776635
 20
-139.0723035676625
 30
0.0
 10
73.92503117726527
 20
-139.0171820398985
 30
0.0
 10
73.95465899843842
 20
-138.8904025260413
 30
0.0
 10
73.95465899843842
 20
-138.7973849479395
 30
0.0
 10
73.95465899843842
 20
-138.6578585807869
 30
0.0
 10
73.85526799368897
 20
-138.5052408507904
 30
0.0
 10
73.62255179366034
 20
-138.5052408507904
 30
0.0
 10
73.36658119910628
 20
-138.5052408507904
 30
0.0
 10
73.29681801552996
 20
-138.6850748351204
 30
0.0
 10
73.29681801552996
 20
-138.8056531771041
 30
0.0
 10
73.29681801552996
 20
-138.837692565117
 30
0.0
 10
73.29681801552996
 20
-138.9792859895607
 30
0.0
 10
73.42583684145256
 20
-139.0681694530802
 30
0.0
 10
73.42583684145256
 20
-139.0681694530802
 30
0.0
 10
73.40671656150944
 20
-139.2438693228279
 30
0.0
 10
73.40671656150944
 20
-139.2438693228279
 30
0.0
 10
73.40671656150944
 20
-139.2438693228279
 30
0.0
 10
72.56060111033207
 20
-139.1229464712956
 30
0.0
 10
72.56060111033207
 20
-139.1229464712956
 30
0.0
 10
72.56060111033207
 20
-139.1229464712956
 30
0.0
 10
72.56060111033207
 20
-138.3446994011777
 30
0.0
 10
72.56060111033207
 20
-138.3446994011777
 30
0.0
 10
72.56060111033207
 20
-138.3446994011777
 30
0.0
 10
72.75524900524869
 20
-138.3446994011777
 30
0.0
 10
72.75524900524869
 20
-138.3446994011777
 30
0.0
 10
72.75524900524869
 20
-138.3446994011777
 30
0.0
 10
72.75524900524869
 20
-138.9603379643919
 30
0.0
 10
72.75524900524869
 20
-138.9603379643919
 30
0.0
 10
72.75524900524869
 20
-138.9603379643919
 30
0.0
 10
73.17830673083738
 20
-139.0257947786116
 30
0.0
 10
73.17830673083738
 20
-139.0257947786116
 30
0.0
 10
73.14454479508193
 20
-138.9644720789742
 30
0.0
 10
73.1042371779045
 20
-138.8817897873282
 30
0.0
 10
73.1042371779045
 20
-138.7636230121841
 30
0.0
 10
73.1042371779045
 20
-138.5097194749212
 30
0.0
 10
73.29044458888225
 20
-138.272696905536
 30
0.0
 10
73.60360376849147
 20
-138.272696905536
 30
0.0
 10
73.92089706268297
 20
-138.272696905536
 30
0.0
 10
74.15568032000274
 20
-138.4969726216258
 30
0.0
 10
74.15568032000274
 20
-138.7994520052307
 30
0.0
  0
HATCH
  5
19D
330
18E
100
AcDbEntity
  8
_U+30EC_U+30A4_U+30E4_U+30FC 1
 62
   179
420
  2234388
100
AcDbHatch
 10
0.0
 20
0.0
 30
0.0
210
0.0
220
0.0
230
1.0
  2
SOLID
 70
     1
 71
     0
 91
        1
 92
        1
 93
        1
 72
     4
 94
        3
 73
     0
 74
     1
 95
       53
 96
       49
 40
0.0
 40
0.0
 40
0.0
 40
0.0
 40
1.0
 40
1.0
 40
1.0
 40
2.0
 40
2.0
 40
2.0
 40
3.0
 40
3.0
 40
3.0
 40
4.0
 40
4.0
 40
4.0
 40
5.0
 40
5.0
 40
5.0
 40
6.0
 40
6.0
 40
6.0
 40
7.0
 40
7.0
 40
7.0
 40
8.0
 40
8.0
 40
8.0
 40
9.0
 40
9.0
 40
9.0
 40
10.0
 40
10.0
 40
10.0
 40
11.0
 40
11.0
 40
11.0
 40
12.0
 40
12.0
 40
12.0
 40
13.0
 40
13.0
 40
13.0
 40
14.0
 40
14.0
 40
14.0
 40
15.0
 40
15.0
 40
15.0
 40
16.0
 40
16.0
 40
16.0
 40
16.0
 10
74.15568032000274
 20
-138.7994520052307
 10
74.15568032000274
 20
-138.8776556727459
 10
74.13879935212502
 20
-138.9792859895607
 10
74.07523734042216
 20
-139.0809163063756
 10
73.9653387944427
 20
-139.2542046092837
 10
73.83408065645467
 20
-139.2755642012922
 10
73.72624916776635
 20
-139.2945122264611
 10
73.72624916776635
 20
-139.2945122264611
 10
73.72624916776635
 20
-139.0723035676625
 10
73.72624916776635
 20
-139.0723035676625
 10
73.92503117726527
 20
-139.0171820398985
 10
73.95465899843842
 20
-138.8904025260413
 10
73.95465899843842
 20
-138.7973849479395
 10
73.95465899843842
 20
-138.6578585807869
 10
73.85526799368897
 20
-138.5052408507904
 10
73.62255179366034
 20
-138.5052408507904
 10
73.36658119910628
 20
-138.5052408507904
 10
73.29681801552996
 20
-138.6850748351204
 10
73.29681801552996
 20
-138.8056531771041
 10
73.29681801552996
 20
-138.837692565117
 10
73.29681801552996
 20
-138.9792859895607
 10
73.42583684145256
 20
-139.0681694530802
 10
73.42583684145256
 20
-139.0681694530802
 10
73.40671656150944
 20
-139.2438693228279
 10
73.40671656150944
 20
-139.2438693228279
 10
73.40671656150944
 20
-139.2438693228279
 10
72.56060111033207
 20
-139.1229464712956
 10
72.56060111033207
 20
-139.1229464712956
 10
72.56060111033207
 20
-139.1229464712956
 10
72.56060111033207
 20
-138.3446994011777
 10
72.56060111033207
 20
-138.3446994011777
 10
72.56060111033207
 20
-138.3446994011777
 10
72.75524900524869
 20
-138.3446994011777
 10
72.75524900524869
 20
-138.3446994011777
 10
72.75524900524869
 20
-138.3446994011777
 10
72.75524900524869
 20
-138.9603379643919
 10
72.75524900524869
 20
-138.9603379643919
 10
72.75524900524869
 20
-138.9603379643919
 10
73.17830673083738
 20
-139.0257947786116
 10
73.17830673083738
 20
-139.0257947786116
 10
73.14454479508193
 20
-138.9644720789742
 10
73.1042371779045
 20
-138.8817897873282
 10
73.1042371779045
 20
-138.7636230121841
 10
73.1042371779045
 20
-138.5097194749212
 10
73.29044458888225
 20
-138.272696905536
 10
73.60360376849147
 20
-138.272696905536
 10
73.92089706268297
 20
-138.272696905536
 10
74.15568032000274
 20
-138.4969726216258
 10
74.15568032000274
 20
-138.7994520052307
 97
        0
 97
        0
 75
     2
 76
     1
 98
        0
  0
ENDBLK
  5
191
330
18E
100
AcDbEntity
  8
0
100
AcDbBlockEnd
  0
BLOCK
  5
1A0
330
19E
100
AcDbEntity
  8
0
100
AcDbBlockBegin
  2
block 9
 70
     0
 10
0.0
 20
0.0
 30
0.0
  3
block 9
  1

  0
SPLINE
  5
1A2
330
19E
100
AcDbEntity
  8
_U+30EC_U+30A4_U+30E4_U+30FC 1
 62
   179
420
  2234388
370
    25
100
AcDbSpline
210
0.0
220
0.0
230
1.0
 70
    11
 71
     3
 72
    17
 73
    13
 74
     0
 42
0.0000000001
 43
0.0000000001
 12
1.0
 22
0.0
 32
0.0
 13
1.0
 23
0.0
 33
0.0
 40
0.0
 40
0.0
 40
0.0
 40
0.0
 40
1.0
 40
1.0
 40
1.0
 40
2.0
 40
2.0
 40
2.0
 40
3.0
 40
3.0
 40
3.0
 40
4.0
 40
4.0
 40
4.0
 40
4.0
 10
79.45356158408188
 20
-138.4962869098205
 30
0.0
 10
79.45356158408188
 20
-138.5155838542597
 30
0.0
 10
79.43768658448688
 20
-138.5314235764783
 30
0.0
 10
79.41807214054285
 20
-138.5314235764783
 30
0.0
 10
79.3987751965907
 20
-138.5314235764783
 30
0.0
 10
79.3829354747726
 20
-138.5155838542597
 30
0.0
 10
79.3829354747726
 20
-138.4962869098205
 30
0.0
 10
79.3829354747726
 20
-138.4769899653807
 30
0.0
 10
79.3987751965907
 20
-138.4611502431628
 30
0.0
 10
79.41807214054285
 20
-138.4611502431628
 30
0.0
 10
79.43768658448688
 20
-138.4611502431628
 30
0.0
 10
79.45356158408188
 20
-138.4769899653807
 30
0.0
 10
79.45356158408188
 20
-138.4962869098205
 30
0.0
  0
ENDBLK
  5
1A1
330
19E
100
AcDbEntity
  8
0
100
AcDbBlockEnd
  0
BLOCK
  5
1A5
330
1A3
100
AcDbEntity
  8
0
100
AcDbBlockBegin
  2
block 10
 70
     0
 10
0.0
 20
0.0
 30
0.0
  3
block 10
  1

  0
SPLINE
  5
1A7
330
1A3
100
AcDbEntity
  8
_U+30EC_U+30A4_U+30E4_U+30FC 1
 62
   179
420
  2234388
370
    25
100
AcDbSpline
210
0.0
220
0.0
230
1.0
 70
    11
 71
     3
 72
    17
 73
    13
 74
     0
 42
0.0000000001
 43
0.0000000001
 12
1.0
 22
0.0
 32
0.0
 13
1.0
 23
0.0
 33
0.0
 40
0.0
 40
0.0
 40
0.0
 40
0.0
 40
1.0
 40
1.0
 40
1.0
 40
2.0
 40
2.0
 40
2.0
 40
3.0
 40
3.0
 40
3.0
 40
4.0
 40
4.0
 40
4.0
 40
4.0
 10
79.45356158408188
 20
-140.4965016315423
 30
0.0
 10
79.45356158408188
 20
-140.5157985759822
 30
0.0
 10
79.43768658448688
 20
-140.5316382982007
 30
0.0
 10
79.41807214054285
 20
-140.5316382982007
 30
0.0
 10
79.3987751965907
 20
-140.5316382982007
 30
0.0
 10
79.3829354747726
 20
-140.5157985759822
 30
0.0
 10
79.3829354747726
 20
-140.4965016315423
 30
0.0
 10
79.3829354747726
 20
-140.4765344093252
 30
0.0
 10
79.3987751965907
 20
-140.4613649648846
 30
0.0
 10
79.41807214054285
 20
-140.4613649648846
 30
0.0
 10
79.43768658448688
 20
-140.4613649648846
 30
0.0
 10
79.45356158408188
 20
-140.4765344093252
 30
0.0
 10
79.45356158408188
 20
-140.4965016315423
 30
0.0
  0
ENDBLK
  5
1A6
330
1A3
100
AcDbEntity
  8
0
100
AcDbBlockEnd
  0
BLOCK
  5
1AA
330
1A8
100
AcDbEntity
  8
0
100
AcDbBlockBegin
  2
block 11
 70
     0
 10
0.0
 20
0.0
 30
0.0
  3
block 11
  1

  0
SPLINE
  5
1AC
330
1A8
100
AcDbEntity
  8
_U+30EC_U+30A4_U+30E4_U+30FC 1
 62
   179
420
  2234388
370
     9
100
AcDbSpline
210
0.0
220
0.0
230
1.0
 70
    11
 71
     3
 72
    17
 73
    13
 74
     0
 42
0.0000000001
 43
0.0000000001
 12
1.0
 22
0.0
 32
0.0
 13
1.0
 23
0.0
 33
0.0
 40
0.0
 40
0.0
 40
0.0
 40
0.0
 40
1.0
 40
1.0
 40
1.0
 40
2.0
 40
2.0
 40
2.0
 40
3.0
 40
3.0
 40
3.0
 40
4.0
 40
4.0
 40
4.0
 40
4.0
 10
75.45344974168879
 20
-140.4965016315423
 30
0.0
 10
75.45344974168879
 20
-140.5157985759822
 30
0.0
 10
75.43761001987068
 20
-140.5316382982007
 30
0.0
 10
75.41831307591853
 20
-140.5316382982007
 30
0.0
 10
75.39866335419762
 20
-140.5316382982007
 30
0.0
 10
75.3828236323795
 20
-140.5157985759822
 30
0.0
 10
75.3828236323795
 20
-140.4965016315423
 30
0.0
 10
75.3828236323795
 20
-140.4765344093252
 30
0.0
 10
75.39866335419762
 20
-140.4613649648846
 30
0.0
 10
75.41831307591853
 20
-140.4613649648846
 30
0.0
 10
75.43761001987068
 20
-140.4613649648846
 30
0.0
 10
75.45344974168879
 20
-140.4765344093252
 30
0.0
 10
75.45344974168879
 20
-140.4965016315423
 30
0.0
  0
ENDBLK
  5
1AB
330
1A8
100
AcDbEntity
  8
0
100
AcDbBlockEnd
  0
ENDSEC
  0
SECTION
  2
ENTITIES
  0
SPLINE
  5
41
330
1F
100
AcDbEntity
  8
_U+30EC_U+30A4_U+30E4_U+30FC 1
370
     0
100
AcDbSpline
210
0.0
220
0.0
230
1.0
 70
    11
 71
     3
 72
   131
 73
   127
 74
     0
 42
0.0000000001
 43
0.0000000001
 12
1.0
 22
0.0
 32
0.0
 13
1.0
 23
0.0
 33
0.0
 40
0.0
 40
0.0
 40
0.0
 40
0.0
 40
1.0
 40
1.0
 40
1.0
 40
2.0
 40
2.0
 40
2.0
 40
3.0
 40
3.0
 40
3.0
 40
4.0
 40
4.0
 40
4.0
 40
5.0
 40
5.0
 40
5.0
 40
6.0
 40
6.0
 40
6.0
 40
7.0
 40
7.0
 40
7.0
 40
8.0
 40
8.0
 40
8.0
 40
9.0
 40
9.0
 40
9.0
 40
10.0
 40
10.0
 40
10.0
 40
11.0
 40
11.0
 40
11.0
 40
12.0
 40
12.0
 40
12.0
 40
13.0
 40
13.0
 40
13.0
 40
14.0
 40
14.0
 40
14.0
 40
15.0
 40
15.0
 40
15.0
 40
16.0
 40
16.0
 40
16.0
 40
17.0
 40
17.0
 40
17.0
 40
18.0
 40
18.0
 40
18.0
 40
19.0
 40
19.0
 40
19.0
 40
20.0
 40
20.0
 40
20.0
 40
21.0
 40
21.0
 40
21.0
 40
22.0
 40
22.0
 40
22.0
 40
23.0
 40
23.0
 40
23.0
 40
24.0
 40
24.0
 40
24.0
 40
25.0
 40
25.0
 40
25.0
 40
26.0
 40
26.0
 40
26.0
 40
27.0
 40
27.0
 40
27.0
 40
28.0
 40
28.0
 40
28.0
 40
29.0
 40
29.0
 40
29.0
 40
30.0
 40
30.0
 40
30.0
 40
31.0
 40
31.0
 40
31.0
 40
32.0
 40
32.0
 40
32.0
 40
33.0
 40
33.0
 40
33.0
 40
34.0
 40
34.0
 40
34.0
 40
35.0
 40
35.0
 40
35.0
 40
36.0
 40
36.0
 40
36.0
 40
37.0
 40
37.0
 40
37.0
 40
38.0
 40
38.0
 40
38.0
 40
39.0
 40
39.0
 40
39.0
 40
40.0
 40
40.0
 40
40.0
 40
41.0
 40
41.0
 40
41.0
 40
42.0
 40
42.0
 40
42.0
 40
42.0
 10
101.4181051903864
 20
-120.4966827476538
 30
0.0
 10
101.4181051903864
 20
-120.4966827476538
 30
0.0
 10
103.4183198615789
 20
-120.4966827476538
 30
0.0
 10
103.4183198615789
 20
-120.4966827476538
 30
0.0
 10
103.4183198615789
 20
-120.4966827476538
 30
0.0
 10
103.4183198615789
 20
-126.1838485795651
 30
0.0
 10
103.4183198615789
 20
-126.1838485795651
 30
0.0
 10
101.7057601830477
 20
-125.9254741351853
 30
0.0
 10
100.0786432801144
 20
-127.0148166349131
 30
0.0
 10
99.66522301288389
 20
-128.696719967826
 30
0.0
 10
99.66522301288389
 20
-128.696719967826
 30
0.0
 10
95.17143396086333
 20
-128.696719967826
 30
0.0
 10
95.17143396086333
 20
-128.696719967826
 30
0.0
 10
94.75769619364088
 20
-127.0148166349131
 30
0.0
 10
93.13057929070764
 20
-125.9254741351853
 30
0.0
 10
91.41837238994523
 20
-126.1838485795651
 30
0.0
 10
91.41837238994523
 20
-126.1838485795651
 30
0.0
 10
91.41837238994523
 20
-120.4966827476538
 30
0.0
 10
91.41837238994523
 20
-120.4966827476538
 30
0.0
 10
91.41837238994523
 20
-120.4966827476538
 30
0.0
 10
93.41823428336896
 20
-120.4966827476538
 30
0.0
 10
93.41823428336896
 20
-120.4966827476538
 30
0.0
 10
93.41823428336896
 20
-120.4966827476538
 30
0.0
 10
93.41823428336896
 20
-118.4964680259313
 30
0.0
 10
93.41823428336896
 20
-118.4964680259313
 30
0.0
 10
93.41823428336896
 20
-118.4964680259313
 30
0.0
 10
89.41815771875274
 20
-118.4964680259313
 30
0.0
 10
89.41815771875274
 20
-118.4964680259313
 30
0.0
 10
89.41815771875274
 20
-118.4964680259313
 30
0.0
 10
89.41815771875274
 20
-128.2467871901605
 30
0.0
 10
89.41815771875274
 20
-128.2467871901605
 30
0.0
 10
89.41815771875274
 20
-128.2467871901605
 30
0.0
 10
90.39895275517797
 20
-128.6278224678431
 30
0.0
 10
90.39895275517797
 20
-128.6278224678431
 30
0.0
 10
90.5539963008862
 20
-128.3570302456885
 30
0.0
 10
90.77860990626694
 20
-128.1324166346336
 30
0.0
 10
91.04975489934945
 20
-127.9773708013389
 30
0.0
 10
91.88862515572588
 20
-127.4978046903479
 30
0.0
 10
92.95764997676073
 20
-127.7892696902748
 30
0.0
 10
93.43753122732109
 20
-128.6278224678431
 30
0.0
 10
93.91709732619745
 20
-129.4666927454113
 30
0.0
 10
93.62598511140213
 20
-130.5360327451438
 30
0.0
 10
92.78676207725694
 20
-131.0155988561348
 30
0.0
 10
91.94785654310364
 20
-131.4951649671264
 30
0.0
 10
90.87886934815356
 20
-131.2036999671988
 30
0.0
 10
90.39895275517797
 20
-130.3651824674087
 30
0.0
 10
90.39895275517797
 20
-130.3651824674087
 30
0.0
 10
89.41815771875274
 20
-130.7461824673134
 30
0.0
 10
89.41815771875274
 20
-130.7461824673134
 30
0.0
 10
89.41815771875274
 20
-130.7461824673134
 30
0.0
 10
89.41815771875274
 20
-139.4960591317924
 30
0.0
 10
89.41815771875274
 20
-139.4960591317924
 30
0.0
 10
89.41815771875274
 20
-139.4960591317924
 30
0.0
 10
80.41816386878448
 20
-139.4960591317924
 30
0.0
 10
80.41816386878448
 20
-139.4960591317924
 30
0.0
 10
80.41816386878448
 20
-139.4960591317924
 30
0.0
 10
80.41816386878448
 20
-138.4962869098205
 30
0.0
 10
80.41816386878448
 20
-138.4962869098205
 30
0.0
 10
80.41816386878448
 20
-138.4962869098205
 30
0.0
 10
79.41807214054285
 20
-138.4962869098205
 30
0.0
 10
79.41807214054285
 20
-138.4962869098205
 30
0.0
 10
79.41807214054285
 20
-138.4962869098205
 30
0.0
 10
79.41807214054285
 20
-140.4965016315423
 30
0.0
 10
79.41807214054285
 20
-140.4965016315423
 30
0.0
 10
79.41807214054285
 20
-140.4965016315423
 30
0.0
 10
93.41823428336896
 20
-140.4965016315423
 30
0.0
 10
93.41823428336896
 20
-140.4965016315423
 30
0.0
 10
93.41823428336896
 20
-140.4965016315423
 30
0.0
 10
93.41823428336896
 20
-138.4962869098205
 30
0.0
 10
93.41823428336896
 20
-138.4962869098205
 30
0.0
 10
93.41823428336896
 20
-138.4962869098205
 30
0.0
 10
91.41837238994523
 20
-138.4962869098205
 30
0.0
 10
91.41837238994523
 20
-138.4962869098205
 30
0.0
 10
91.41837238994523
 20
-138.4962869098205
 30
0.0
 10
91.41837238994523
 20
-132.8091210779089
 30
0.0
 10
91.41837238994523
 20
-132.8091210779089
 30
0.0
 10
93.13057929070764
 20
-133.0674955222884
 30
0.0
 10
94.75769619364088
 20
-131.9781530225612
 30
0.0
 10
95.17143396086333
 20
-130.2962849674261
 30
0.0
 10
95.17143396086333
 20
-130.2962849674261
 30
0.0
 10
99.66522301288389
 20
-130.2962849674261
 30
0.0
 10
99.66522301288389
 20
-130.2962849674261
 30
0.0
 10
100.0786432801144
 20
-131.9781530225612
 30
0.0
 10
101.7057601830477
 20
-133.0674955222884
 30
0.0
 10
103.4183198615789
 20
-132.8091210779089
 30
0.0
 10
103.4183198615789
 20
-132.8091210779089
 30
0.0
 10
103.4183198615789
 20
-138.4962869098205
 30
0.0
 10
103.4183198615789
 20
-138.4962869098205
 30
0.0
 10
103.4183198615789
 20
-138.4962869098205
 30
0.0
 10
101.4181051903864
 20
-138.4962869098205
 30
0.0
 10
101.4181051903864
 20
-138.4962869098205
 30
0.0
 10
101.4181051903864
 20
-138.4962869098205
 30
0.0
 10
101.4181051903864
 20
-140.4965016315423
 30
0.0
 10
101.4181051903864
 20
-140.4965016315423
 30
0.0
 10
101.4181051903864
 20
-140.4965016315423
 30
0.0
 10
105.4181817550026
 20
-140.4965016315423
 30
0.0
 10
105.4181817550026
 20
-140.4965016315423
 30
0.0
 10
105.4181817550026
 20
-140.4965016315423
 30
0.0
 10
105.4181817550026
 20
-130.7461824673134
 30
0.0
 10
105.4181817550026
 20
-130.7461824673134
 30
0.0
 10
105.4181817550026
 20
-130.7461824673134
 30
0.0
 10
104.4373916405572
 20
-130.3651824674087
 30
0.0
 10
104.4373916405572
 20
-130.3651824674087
 30
0.0
 10
104.2823431728691
 20
-130.6359394117854
 30
0.0
 10
104.0577295674884
 20
-130.8605883006182
 30
0.0
 10
103.7869373521746
 20
-131.0155988561348
 30
0.0
 10
102.9477143180294
 20
-131.4951649671264
 30
0.0
 10
101.8786944189751
 20
-131.2036999671988
 30
0.0
 10
101.399161024203
 20
-130.3651824674087
 30
0.0
 10
100.9192421475579
 20
-129.5259594120631
 30
0.0
 10
101.210707140122
 20
-128.4569369123302
 30
0.0
 10
102.0495773964984
 20
-127.9773708013389
 30
0.0
 10
102.8888004306436
 20
-127.4978046903479
 30
0.0
 10
103.9578229033705
 20
-127.7892696902748
 30
0.0
 10
104.4373916405572
 20
-128.6278224678431
 30
0.0
 10
104.4373916405572
 20
-128.6278224678431
 30
0.0
 10
105.4181817550026
 20
-128.2467871901605
 30
0.0
 10
105.4181817550026
 20
-128.2467871901605
 30
0.0
 10
105.4181817550026
 20
-128.2467871901605
 30
0.0
 10
105.4181817550026
 20
-118.4964680259313
 30
0.0
 10
105.4181817550026
 20
-118.4964680259313
 30
0.0
 10
105.4181817550026
 20
-118.4964680259313
 30
0.0
 10
101.4181051903864
 20
-118.4964680259313
 30
0.0
 10
101.4181051903864
 20
-118.4964680259313
 30
0.0
 10
101.4181051903864
 20
-118.4964680259313
 30
0.0
 10
101.4181051903864
 20
-120.4966827476538
 30
0.0
 10
101.4181051903864
 20
-120.4966827476538
 30
0.0
  0
HATCH
  5
42
330
1F
100
AcDbEntity
  8
_U+30EC_U+30A4_U+30E4_U+30FC 1
 62
   253
420
 11711154
100
AcDbHatch
 10
0.0
 20
0.0
 30
0.0
210
0.0
220
0.0
230
1.0
  2
SOLID
 70
     1
 71
     0
 91
        1
 92
        1
 93
        1
 72
     4
 94
        3
 73
     0
 74
     1
 95
      131
 96
      127
 40
0.0
 40
0.0
 40
0.0
 40
0.0
 40
1.0
 40
1.0
 40
1.0
 40
2.0
 40
2.0
 40
2.0
 40
3.0
 40
3.0
 40
3.0
 40
4.0
 40
4.0
 40
4.0
 40
5.0
 40
5.0
 40
5.0
 40
6.0
 40
6.0
 40
6.0
 40
7.0
 40
7.0
 40
7.0
 40
8.0
 40
8.0
 40
8.0
 40
9.0
 40
9.0
 40
9.0
 40
10.0
 40
10.0
 40
10.0
 40
11.0
 40
11.0
 40
11.0
 40
12.0
 40
12.0
 40
12.0
 40
13.0
 40
13.0
 40
13.0
 40
14.0
 40
14.0
 40
14.0
 40
15.0
 40
15.0
 40
15.0
 40
16.0
 40
16.0
 40
16.0
 40
17.0
 40
17.0
 40
17.0
 40
18.0
 40
18.0
 40
18.0
 40
19.0
 40
19.0
 40
19.0
 40
20.0
 40
20.0
 40
20.0
 40
21.0
 40
21.0
 40
21.0
 40
22.0
 40
22.0
 40
22.0
 40
23.0
 40
23.0
 40
23.0
 40
24.0
 40
24.0
 40
24.0
 40
25.0
 40
25.0
 40
25.0
 40
26.0
 40
26.0
 40
26.0
 40
27.0
 40
27.0
 40
27.0
 40
28.0
 40
28.0
 40
28.0
 40
29.0
 40
29.0
 40
29.0
 40
30.0
 40
30.0
 40
30.0
 40
31.0
 40
31.0
 40
31.0
 40
32.0
 40
32.0
 40
32.0
 40
33.0
 40
33.0
 40
33.0
 40
34.0
 40
34.0
 40
34.0
 40
35.0
 40
35.0
 40
35.0
 40
36.0
 40
36.0
 40
36.0
 40
37.0
 40
37.0
 40
37.0
 40
38.0
 40
38.0
 40
38.0
 40
39.0
 40
39.0
 40
39.0
 40
40.0
 40
40.0
 40
40.0
 40
41.0
 40
41.0
 40
41.0
 40
42.0
 40
42.0
 40
42.0
 40
42.0
 10
101.4181051903864
 20
-120.4966827476538
 10
101.4181051903864
 20
-120.4966827476538
 10
103.4183198615789
 20
-120.4966827476538
 10
103.4183198615789
 20
-120.4966827476538
 10
103.4183198615789
 20
-120.4966827476538
 10
103.4183198615789
 20
-126.1838485795651
 10
103.4183198615789
 20
-126.1838485795651
 10
101.7057601830477
 20
-125.9254741351853
 10
100.0786432801144
 20
-127.0148166349131
 10
99.66522301288389
 20
-128.696719967826
 10
99.66522301288389
 20
-128.696719967826
 10
95.17143396086333
 20
-128.696719967826
 10
95.17143396086333
 20
-128.696719967826
 10
94.75769619364088
 20
-127.0148166349131
 10
93.13057929070764
 20
-125.9254741351853
 10
91.41837238994523
 20
-126.1838485795651
 10
91.41837238994523
 20
-126.1838485795651
 10
91.41837238994523
 20
-120.4966827476538
 10
91.41837238994523
 20
-120.4966827476538
 10
91.41837238994523
 20
-120.4966827476538
 10
93.41823428336896
 20
-120.4966827476538
 10
93.41823428336896
 20
-120.4966827476538
 10
93.41823428336896
 20
-120.4966827476538
 10
93.41823428336896
 20
-118.4964680259313
 10
93.41823428336896
 20
-118.4964680259313
 10
93.41823428336896
 20
-118.4964680259313
 10
89.41815771875274
 20
-118.4964680259313
 10
89.41815771875274
 20
-118.4964680259313
 10
89.41815771875274
 20
-118.4964680259313
 10
89.41815771875274
 20
-128.2467871901605
 10
89.41815771875274
 20
-128.2467871901605
 10
89.41815771875274
 20
-128.2467871901605
 10
90.39895275517797
 20
-128.6278224678431
 10
90.39895275517797
 20
-128.6278224678431
 10
90.5539963008862
 20
-128.3570302456885
 10
90.77860990626694
 20
-128.1324166346336
 10
91.04975489934945
 20
-127.9773708013389
 10
91.88862515572588
 20
-127.4978046903479
 10
92.95764997676073
 20
-127.7892696902748
 10
93.43753122732109
 20
-128.6278224678431
 10
93.91709732619745
 20
-129.4666927454113
 10
93.62598511140213
 20
-130.5360327451438
 10
92.78676207725694
 20
-131.0155988561348
 10
91.94785654310364
 20
-131.4951649671264
 10
90.87886934815356
 20
-131.2036999671988
 10
90.39895275517797
 20
-130.3651824674087
 10
90.39895275517797
 20
-130.3651824674087
 10
89.41815771875274
 20
-130.7461824673134
 10
89.41815771875274
 20
-130.7461824673134
 10
89.41815771875274
 20
-130.7461824673134
 10
89.41815771875274
 20
-139.4960591317924
 10
89.41815771875274
 20
-139.4960591317924
 10
89.41815771875274
 20
-139.4960591317924
 10
80.41816386878448
 20
-139.4960591317924
 10
80.41816386878448
 20
-139.4960591317924
 10
80.41816386878448
 20
-139.4960591317924
 10
80.41816386878448
 20
-138.4962869098205
 10
80.41816386878448
 20
-138.4962869098205
 10
80.41816386878448
 20
-138.4962869098205
 10
79.41807214054285
 20
-138.4962869098205
 10
79.41807214054285
 20
-138.4962869098205
 10
79.41807214054285
 20
-138.4962869098205
 10
79.41807214054285
 20
-140.4965016315423
 10
79.41807214054285
 20
-140.4965016315423
 10
79.41807214054285
 20
-140.4965016315423
 10
93.41823428336896
 20
-140.4965016315423
 10
93.41823428336896
 20
-140.4965016315423
 10
93.41823428336896
 20
-140.4965016315423
 10
93.41823428336896
 20
-138.4962869098205
 10
93.41823428336896
 20
-138.4962869098205
 10
93.41823428336896
 20
-138.4962869098205
 10
91.41837238994523
 20
-138.4962869098205
 10
91.41837238994523
 20
-138.4962869098205
 10
91.41837238994523
 20
-138.4962869098205
 10
91.41837238994523
 20
-132.8091210779089
 10
91.41837238994523
 20
-132.8091210779089
 10
93.13057929070764
 20
-133.0674955222884
 10
94.75769619364088
 20
-131.9781530225612
 10
95.17143396086333
 20
-130.2962849674261
 10
95.17143396086333
 20
-130.2962849674261
 10
99.66522301288389
 20
-130.2962849674261
 10
99.66522301288389
 20
-130.2962849674261
 10
100.0786432801144
 20
-131.9781530225612
 10
101.7057601830477
 20
-133.0674955222884
 10
103.4183198615789
 20
-132.8091210779089
 10
103.4183198615789
 20
-132.8091210779089
 10
103.4183198615789
 20
-138.4962869098205
 10
103.4183198615789
 20
-138.4962869098205
 10
103.4183198615789
 20
-138.4962869098205
 10
101.4181051903864
 20
-138.4962869098205
 10
101.4181051903864
 20
-138.4962869098205
 10
101.4181051903864
 20
-138.4962869098205
 10
101.4181051903864
 20
-140.4965016315423
 10
101.4181051903864
 20
-140.4965016315423
 10
101.4181051903864
 20
-140.4965016315423
 10
105.4181817550026
 20
-140.4965016315423
 10
105.4181817550026
 20
-140.4965016315423
 10
105.4181817550026
 20
-140.4965016315423
 10
105.4181817550026
 20
-130.7461824673134
 10
105.4181817550026
 20
-130.7461824673134
 10
105.4181817550026
 20
-130.7461824673134
 10
104.4373916405572
 20
-130.3651824674087
 10
104.4373916405572
 20
-130.3651824674087
 10
104.2823431728691
 20
-130.6359394117854
 10
104.0577295674884
 20
-130.8605883006182
 10
103.7869373521746
 20
-131.0155988561348
 10
102.9477143180294
 20
-131.4951649671264
 10
101.8786944189751
 20
-131.2036999671988
 10
101.399161024203
 20
-130.3651824674087
 10
100.9192421475579
 20
-129.5259594120631
 10
101.210707140122
 20
-128.4569369123302
 10
102.0495773964984
 20
-127.9773708013389
 10
102.8888004306436
 20
-127.4978046903479
 10
103.9578229033705
 20
-127.7892696902748
 10
104.4373916405572
 20
-128.6278224678431
 10
104.4373916405572
 20
-128.6278224678431
 10
105.4181817550026
 20
-128.2467871901605
 10
105.4181817550026
 20
-128.2467871901605
 10
105.4181817550026
 20
-128.2467871901605
 10
105.4181817550026
 20
-118.4964680259313
 10
105.4181817550026
 20
-118.4964680259313
 10
105.4181817550026
 20
-118.4964680259313
 10
101.4181051903864
 20
-118.4964680259313
 10
101.4181051903864
 20
-118.4964680259313
 10
101.4181051903864
 20
-118.4964680259313
 10
101.4181051903864
 20
-120.4966827476538
 10
101.4181051903864
 20
-120.4966827476538
 97
        0
 97
        0
 75
     2
 76
     1
 98
        0
  0
POLYLINE
  5
43
330
1F
100
AcDbEntity
  8
_U+30EC_U+30A4_U+30E4_U+30FC 1
370
     0
100
AcDb2dPolyline
 66
     1
 10
0.0
 20
0.0
 30
0.0
  0
VERTEX
  5
44
330
43
100
AcDbEntity
  8
_U+30EC_U+30A4_U+30E4_U+30FC 1
370
     0
100
AcDbVertex
100
AcDb2dVertex
 10
103.4183198615789
 20
-133.004101355638
 30
0.0
  0
VERTEX
  5
45
330
43
100
AcDbEntity
  8
_U+30EC_U+30A4_U+30E4_U+30FC 1
370
     0
100
AcDbVertex
100
AcDb2dVertex
 10
103.4183198615789
 20
-138.4962869098205
 30
0.0
  0
VERTEX
  5
46
330
43
100
AcDbEntity
  8
_U+30EC_U+30A4_U+30E4_U+30FC 1
370
     0
100
AcDbVertex
100
AcDb2dVertex
 10
101.4181051903864
 20
-138.4962869098205
 30
0.0
  0
VERTEX
  5
47
330
43
100
AcDbEntity
  8
_U+30EC_U+30A4_U+30E4_U+30FC 1
370
     0
100
AcDbVertex
100
AcDb2dVertex
 10
101.4181051903864
 20
-140.495831353765
 30
0.0
  0
VERTEX
  5
48
330
43
100
AcDbEntity
  8
_U+30EC_U+30A4_U+30E4_U+30FC 1
370
     0
100
AcDbVertex
100
AcDb2dVertex
 10
105.4181817550026
 20
-140.495831353765
 30
0.0
  0
VERTEX
  5
49
330
43
100
AcDbEntity
  8
_U+30EC_U+30A4_U+30E4_U+30FC 1
370
     0
100
AcDbVertex
100
AcDb2dVertex
 10
105.4181817550026
 20
-136.4960721880981
 30
0.0
  0
VERTEX
  5
4A
330
43
100
AcDbEntity
  8
_U+30EC_U+30A4_U+30E4_U+30FC 1
370
     0
100
AcDbVertex
100
AcDb2dVertex
 10
106.6680733897818
 20
-136.4960721880981
 30
0.0
  0
VERTEX
  5
4B
330
43
100
AcDbEntity
  8
_U+30EC_U+30A4_U+30E4_U+30FC 1
370
     0
100
AcDbVertex
100
AcDb2dVertex
 10
106.6680733897818
 20
-135.246180521744
 30
0.0
  0
VERTEX
  5
4C
330
43
100
AcDbEntity
  8
_U+30EC_U+30A4_U+30E4_U+30FC 1
370
     0
100
AcDbVertex
100
AcDb2dVertex
 10
105.4181817550026
 20
-135.246180521744
 30
0.0
  0
VERTEX
  5
4D
330
43
100
AcDbEntity
  8
_U+30EC_U+30A4_U+30E4_U+30FC 1
370
     0
100
AcDbVertex
100
AcDb2dVertex
 10
105.4181817550026
 20
-130.94119802282
 30
0.0
  0
SEQEND
  5
4F
330
43
100
AcDbEntity
  8
_U+30EC_U+30A4_U+30E4_U+30FC 1
370
     0
  0
HATCH
  5
4E
330
1F
100
AcDbEntity
  8
_U+30EC_U+30A4_U+30E4_U+30FC 1
 62
   253
420
 11711154
100
AcDbHatch
 10
0.0
 20
0.0
 30
0.0
210
0.0
220
0.0
230
1.0
  2
SOLID
 70
     1
 71
     0
 91
        1
 92
        1
 93
       10
 72
     1
 10
103.4183198615789
 20
-133.004101355638
 11
103.4183198615789
 21
-138.4962869098206
 72
     1
 10
103.4183198615789
 20
-138.4962869098205
 11
101.4181051903864
 21
-138.4962869098205
 72
     1
 10
101.4181051903864
 20
-138.4962869098205
 11
101.4181051903864
 21
-140.495831353765
 72
     1
 10
101.4181051903864
 20
-140.495831353765
 11
105.4181817550026
 21
-140.495831353765
 72
     1
 10
105.4181817550026
 20
-140.495831353765
 11
105.4181817550026
 21
-136.4960721880981
 72
     1
 10
105.4181817550026
 20
-136.4960721880981
 11
106.6680733897818
 21
-136.4960721880981
 72
     1
 10
106.6680733897818
 20
-136.4960721880981
 11
106.6680733897818
 21
-135.246180521744
 72
     1
 10
106.6680733897818
 20
-135.246180521744
 11
105.4181817550026
 21
-135.246180521744
 72
     1
 10
105.4181817550026
 20
-135.246180521744
 11
105.4181817550026
 21
-130.94119802282
 72
     1
 10
105.4181817550026
 20
-130.94119802282
 11
103.4183198615789
 21
-133.004101355638
 97
        0
 75
     2
 76
     1
 98
        0
  0
POLYLINE
  5
50
330
1F
100
AcDbEntity
  8
_U+30EC_U+30A4_U+30E4_U+30FC 1
 62
   179
420
  2234388
370
    25
100
AcDb2dPolyline
 66
     1
 10
0.0
 20
0.0
 30
0.0
  0
VERTEX
  5
51
330
50
100
AcDbEntity
  8
_U+30EC_U+30A4_U+30E4_U+30FC 1
 62
   179
420
  2234388
370
    25
100
AcDbVertex
100
AcDb2dVertex
 10
105.4181817550026
 20
-118.4964680259313
 30
0.0
  0
VERTEX
  5
52
330
50
100
AcDbEntity
  8
_U+30EC_U+30A4_U+30E4_U+30FC 1
 62
   179
420
  2234388
370
    25
100
AcDbVertex
100
AcDb2dVertex
 10
105.4181817550026
 20
-128.2467871901605
 30
0.0
  0
SEQEND
  5
53
330
50
100
AcDbEntity
  8
_U+30EC_U+30A4_U+30E4_U+30FC 1
 62
   179
420
  2234388
370
    25
  0
POLYLINE
  5
54
330
1F
100
AcDbEntity
  8
_U+30EC_U+30A4_U+30E4_U+30FC 1
 62
   179
420
  2234388
370
    25
100
AcDb2dPolyline
 66
     1
 10
0.0
 20
0.0
 30
0.0
  0
VERTEX
  5
55
330
54
100
AcDbEntity
  8
_U+30EC_U+30A4_U+30E4_U+30FC 1
 62
   179
420
  2234388
370
    25
100
AcDbVertex
100
AcDb2dVertex
 10
101.4181051903864
 20
-138.4962869098205
 30
0.0
  0
VERTEX
  5
56
330
54
100
AcDbEntity
  8
_U+30EC_U+30A4_U+30E4_U+30FC 1
 62
   179
420
  2234388
370
    25
100
AcDbVertex
100
AcDb2dVertex
 10
101.4181051903864
 20
-140.4965016315423
 30
0.0
  0
SEQEND
  5
57
330
54
100
AcDbEntity
  8
_U+30EC_U+30A4_U+30E4_U+30FC 1
 62
   179
420
  2234388
370
    25
  0
POLYLINE
  5
58
330
1F
100
AcDbEntity
  8
_U+30EC_U+30A4_U+30E4_U+30FC 1
 62
   179
420
  2234388
370
    25
100
AcDb2dPolyline
 66
     1
 10
0.0
 20
0.0
 30
0.0
  0
VERTEX
  5
59
330
58
100
AcDbEntity
  8
_U+30EC_U+30A4_U+30E4_U+30FC 1
 62
   179
420
  2234388
370
    25
100
AcDbVertex
100
AcDb2dVertex
 10
101.4181051903864
 20
-140.4965016315423
 30
0.0
  0
VERTEX
  5
5A
330
58
100
AcDbEntity
  8
_U+30EC_U+30A4_U+30E4_U+30FC 1
 62
   179
420
  2234388
370
    25
100
AcDbVertex
100
AcDb2dVertex
 10
105.4181817550026
 20
-140.4965016315423
 30
0.0
  0
SEQEND
  5
5B
330
58
100
AcDbEntity
  8
_U+30EC_U+30A4_U+30E4_U+30FC 1
 62
   179
420
  2234388
370
    25
  0
POLYLINE
  5
5C
330
1F
100
AcDbEntity
  8
_U+30EC_U+30A4_U+30E4_U+30FC 1
 62
   179
420
  2234388
370
    25
100
AcDb2dPolyline
 66
     1
 10
0.0
 20
0.0
 30
0.0
  0
VERTEX
  5
5D
330
5C
100
AcDbEntity
  8
_U+30EC_U+30A4_U+30E4_U+30FC 1
 62
   179
420
  2234388
370
    25
100
AcDbVertex
100
AcDb2dVertex
 10
101.4181051903864
 20
-138.4962869098205
 30
0.0
  0
VERTEX
  5
5E
330
5C
100
AcDbEntity
  8
_U+30EC_U+30A4_U+30E4_U+30FC 1
 62
   179
420
  2234388
370
    25
100
AcDbVertex
100
AcDb2dVertex
 10
103.4183198615789
 20
-138.4962869098205
 30
0.0
  0
SEQEND
  5
5F
330
5C
100
AcDbEntity
  8
_U+30EC_U+30A4_U+30E4_U+30FC 1
 62
   179
420
  2234388
370
    25
  0
POLYLINE
  5
60
330
1F
100
AcDbEntity
  8
_U+30EC_U+30A4_U+30E4_U+30FC 1
 62
   179
420
  2234388
370
    25
100
AcDb2dPolyline
 66
     1
 10
0.0
 20
0.0
 30
0.0
  0
VERTEX
  5
61
330
60
100
AcDbEntity
  8
_U+30EC_U+30A4_U+30E4_U+30FC 1
 62
   179
420
  2234388
370
    25
100
AcDbVertex
100
AcDb2dVertex
 10
103.4183198615789
 20
-132.8091210779089
 30
0.0
  0
VERTEX
  5
62
330
60
100
AcDbEntity
  8
_U+30EC_U+30A4_U+30E4_U+30FC 1
 62
   179
420
  2234388
370
    25
100
AcDbVertex
100
AcDb2dVertex
 10
103.4183198615789
 20
-138.4962869098205
 30
0.0
  0
SEQEND
  5
63
330
60
100
AcDbEntity
  8
_U+30EC_U+30A4_U+30E4_U+30FC 1
 62
   179
420
  2234388
370
    25
  0
POLYLINE
  5
64
330
1F
100
AcDbEntity
  8
_U+30EC_U+30A4_U+30E4_U+30FC 1
 62
   179
420
  2234388
370
    25
100
AcDb2dPolyline
 66
     1
 10
0.0
 20
0.0
 30
0.0
  0
VERTEX
  5
65
330
64
100
AcDbEntity
  8
_U+30EC_U+30A4_U+30E4_U+30FC 1
 62
   179
420
  2234388
370
    25
100
AcDbVertex
100
AcDb2dVertex
 10
104.4373916405572
 20
-128.6278224678431
 30
0.0
  0
VERTEX
  5
66
330
64
100
AcDbEntity
  8
_U+30EC_U+30A4_U+30E4_U+30FC 1
 62
   179
420
  2234388
370
    25
100
AcDbVertex
100
AcDb2dVertex
 10
105.4181817550026
 20
-128.2467871901605
 30
0.0
  0
SEQEND
  5
67
330
64
100
AcDbEntity
  8
_U+30EC_U+30A4_U+30E4_U+30FC 1
 62
   179
420
  2234388
370
    25
  0
POLYLINE
  5
68
330
1F
100
AcDbEntity
  8
_U+30EC_U+30A4_U+30E4_U+30FC 1
 62
   179
420
  2234388
370
    25
100
AcDb2dPolyline
 66
     1
 10
0.0
 20
0.0
 30
0.0
  0
VERTEX
  5
69
330
68
100
AcDbEntity
  8
_U+30EC_U+30A4_U+30E4_U+30FC 1
 62
   179
420
  2234388
370
    25
100
AcDbVertex
100
AcDb2dVertex
 10
104.4373916405572
 20
-130.3651824674087
 30
0.0
  0
VERTEX
  5
6A
330
68
100
AcDbEntity
  8
_U+30EC_U+30A4_U+30E4_U+30FC 1
 62
   179
420
  2234388
370
    25
100
AcDbVertex
100
AcDb2dVertex
 10
105.4181817550026
 20
-130.7461824673134
 30
0.0
  0
SEQEND
  5
6B
330
68
100
AcDbEntity
  8
_U+30EC_U+30A4_U+30E4_U+30FC 1
 62
   179
420
  2234388
370
    25
  0
POLYLINE
  5
6C
330
1F
100
AcDbEntity
  8
_U+30EC_U+30A4_U+30E4_U+30FC 1
 62
   179
420
  2234388
370
    25
100
AcDb2dPolyline
 66
     1
 10
0.0
 20
0.0
 30
0.0
  0
VERTEX
  5
6D
330
6C
100
AcDbEntity
  8
_U+30EC_U+30A4_U+30E4_U+30FC 1
 62
   179
420
  2234388
370
    25
100
AcDbVertex
100
AcDb2dVertex
 10
105.4181817550026
 20
-136.9766613546448
 30
0.0
  0
VERTEX
  5
6E
330
6C
100
AcDbEntity
  8
_U+30EC_U+30A4_U+30E4_U+30FC 1
 62
   179
420
  2234388
370
    25
100
AcDbVertex
100
AcDb2dVertex
 10
105.4181817550026
 20
-140.4965016315423
 30
0.0
  0
SEQEND
  5
6F
330
6C
100
AcDbEntity
  8
_U+30EC_U+30A4_U+30E4_U+30FC 1
 62
   179
420
  2234388
370
    25
  0
POLYLINE
  5
70
330
1F
100
AcDbEntity
  8
_U+30EC_U+30A4_U+30E4_U+30FC 1
 62
   179
420
  2234388
370
    25
100
AcDb2dPolyline
 66
     1
 10
0.0
 20
0.0
 30
0.0
  0
VERTEX
  5
71
330
70
100
AcDbEntity
  8
_U+30EC_U+30A4_U+30E4_U+30FC 1
 62
   179
420
  2234388
370
    25
100
AcDbVertex
100
AcDb2dVertex
 10
101.4181051903864
 20
-118.4964680259313
 30
0.0
  0
VERTEX
  5
72
330
70
100
AcDbEntity
  8
_U+30EC_U+30A4_U+30E4_U+30FC 1
 62
   179
420
  2234388
370
    25
100
AcDbVertex
100
AcDb2dVertex
 10
105.4181817550026
 20
-118.4964680259313
 30
0.0
  0
SEQEND
  5
73
330
70
100
AcDbEntity
  8
_U+30EC_U+30A4_U+30E4_U+30FC 1
 62
   179
420
  2234388
370
    25
  0
POLYLINE
  5
74
330
1F
100
AcDbEntity
  8
_U+30EC_U+30A4_U+30E4_U+30FC 1
 62
   179
420
  2234388
370
    25
100
AcDb2dPolyline
 66
     1
 10
0.0
 20
0.0
 30
0.0
  0
VERTEX
  5
75
330
74
100
AcDbEntity
  8
_U+30EC_U+30A4_U+30E4_U+30FC 1
 62
   179
420
  2234388
370
    25
100
AcDbVertex
100
AcDb2dVertex
 10
103.4183198615789
 20
-120.4966827476538
 30
0.0
  0
VERTEX
  5
76
330
74
100
AcDbEntity
  8
_U+30EC_U+30A4_U+30E4_U+30FC 1
 62
   179
420
  2234388
370
    25
100
AcDbVertex
100
AcDb2dVertex
 10
103.4183198615789
 20
-126.1838485795651
 30
0.0
  0
SEQEND
  5
77
330
74
100
AcDbEntity
  8
_U+30EC_U+30A4_U+30E4_U+30FC 1
 62
   179
420
  2234388
370
    25
  0
POLYLINE
  5
78
330
1F
100
AcDbEntity
  8
_U+30EC_U+30A4_U+30E4_U+30FC 1
 62
   179
420
  2234388
370
    25
100
AcDb2dPolyline
 66
     1
 10
0.0
 20
0.0
 30
0.0
  0
VERTEX
  5
79
330
78
100
AcDbEntity
  8
_U+30EC_U+30A4_U+30E4_U+30FC 1
 62
   179
420
  2234388
370
    25
100
AcDbVertex
100
AcDb2dVertex
 10
101.4181051903864
 20
-120.4966827476538
 30
0.0
  0
VERTEX
  5
7A
330
78
100
AcDbEntity
  8
_U+30EC_U+30A4_U+30E4_U+30FC 1
 62
   179
420
  2234388
370
    25
100
AcDbVertex
100
AcDb2dVertex
 10
103.4183198615789
 20
-120.4966827476538
 30
0.0
  0
SEQEND
  5
7B
330
78
100
AcDbEntity
  8
_U+30EC_U+30A4_U+30E4_U+30FC 1
 62
   179
420
  2234388
370
    25
  0
POLYLINE
  5
7C
330
1F
100
AcDbEntity
  8
_U+30EC_U+30A4_U+30E4_U+30FC 1
 62
   179
420
  2234388
370
    25
100
AcDb2dPolyline
 66
     1
 10
0.0
 20
0.0
 30
0.0
  0
VERTEX
  5
7D
330
7C
100
AcDbEntity
  8
_U+30EC_U+30A4_U+30E4_U+30FC 1
 62
   179
420
  2234388
370
    25
100
AcDbVertex
100
AcDb2dVertex
 10
101.4181051903864
 20
-118.4964680259313
 30
0.0
  0
VERTEX
  5
7E
330
7C
100
AcDbEntity
  8
_U+30EC_U+30A4_U+30E4_U+30FC 1
 62
   179
420
  2234388
370
    25
100
AcDbVertex
100
AcDb2dVertex
 10
101.4181051903864
 20
-120.4966827476538
 30
0.0
  0
SEQEND
  5
7F
330
7C
100
AcDbEntity
  8
_U+30EC_U+30A4_U+30E4_U+30FC 1
 62
   179
420
  2234388
370
    25
  0
POLYLINE
  5
80
330
1F
100
AcDbEntity
  8
_U+30EC_U+30A4_U+30E4_U+30FC 1
 62
   179
420
  2234388
370
    25
100
AcDb2dPolyline
 66
     1
 10
0.0
 20
0.0
 30
0.0
  0
VERTEX
  5
81
330
80
100
AcDbEntity
  8
_U+30EC_U+30A4_U+30E4_U+30FC 1
 62
   179
420
  2234388
370
    25
100
AcDbVertex
100
AcDb2dVertex
 10
95.17143396086333
 20
-130.2962849674261
 30
0.0
  0
VERTEX
  5
82
330
80
100
AcDbEntity
  8
_U+30EC_U+30A4_U+30E4_U+30FC 1
 62
   179
420
  2234388
370
    25
100
AcDbVertex
100
AcDb2dVertex
 10
99.66522301288389
 20
-130.2962849674261
 30
0.0
  0
SEQEND
  5
83
330
80
100
AcDbEntity
  8
_U+30EC_U+30A4_U+30E4_U+30FC 1
 62
   179
420
  2234388
370
    25
  0
POLYLINE
  5
84
330
1F
100
AcDbEntity
  8
_U+30EC_U+30A4_U+30E4_U+30FC 1
 62
   179
420
  2234388
370
    25
100
AcDb2dPolyline
 66
     1
 10
0.0
 20
0.0
 30
0.0
  0
VERTEX
  5
85
330
84
100
AcDbEntity
  8
_U+30EC_U+30A4_U+30E4_U+30FC 1
 62
   179
420
  2234388
370
    25
100
AcDbVertex
100
AcDb2dVertex
 10
95.17143396086333
 20
-128.696719967826
 30
0.0
  0
VERTEX
  5
86
330
84
100
AcDbEntity
  8
_U+30EC_U+30A4_U+30E4_U+30FC 1
 62
   179
420
  2234388
370
    25
100
AcDbVertex
100
AcDb2dVertex
 10
99.66522301288389
 20
-128.696719967826
 30
0.0
  0
SEQEND
  5
87
330
84
100
AcDbEntity
  8
_U+30EC_U+30A4_U+30E4_U+30FC 1
 62
   179
420
  2234388
370
    25
  0
POLYLINE
  5
88
330
1F
100
AcDbEntity
  8
_U+30EC_U+30A4_U+30E4_U+30FC 1
 62
   179
420
  2234388
370
    25
100
AcDb2dPolyline
 66
     1
 10
0.0
 20
0.0
 30
0.0
  0
VERTEX
  5
89
330
88
100
AcDbEntity
  8
_U+30EC_U+30A4_U+30E4_U+30FC 1
 62
   179
420
  2234388
370
    25
100
AcDbVertex
100
AcDb2dVertex
 10
89.41815771875274
 20
-130.7461824673134
 30
0.0
  0
VERTEX
  5
8A
330
88
100
AcDbEntity
  8
_U+30EC_U+30A4_U+30E4_U+30FC 1
 62
   179
420
  2234388
370
    25
100
AcDbVertex
100
AcDb2dVertex
 10
89.41815771875274
 20
-139.4960591317924
 30
0.0
  0
SEQEND
  5
8B
330
88
100
AcDbEntity
  8
_U+30EC_U+30A4_U+30E4_U+30FC 1
 62
   179
420
  2234388
370
    25
  0
POLYLINE
  5
8C
330
1F
100
AcDbEntity
  8
_U+30EC_U+30A4_U+30E4_U+30FC 1
 62
   179
420
  2234388
370
    25
100
AcDb2dPolyline
 66
     1
 10
0.0
 20
0.0
 30
0.0
  0
VERTEX
  5
8D
330
8C
100
AcDbEntity
  8
_U+30EC_U+30A4_U+30E4_U+30FC 1
 62
   179
420
  2234388
370
    25
100
AcDbVertex
100
AcDb2dVertex
 10
90.39895275517797
 20
-130.3651824674087
 30
0.0
  0
VERTEX
  5
8E
330
8C
100
AcDbEntity
  8
_U+30EC_U+30A4_U+30E4_U+30FC 1
 62
   179
420
  2234388
370
    25
100
AcDbVertex
100
AcDb2dVertex
 10
89.41815771875274
 20
-130.7461824673134
 30
0.0
  0
SEQEND
  5
8F
330
8C
100
AcDbEntity
  8
_U+30EC_U+30A4_U+30E4_U+30FC 1
 62
   179
420
  2234388
370
    25
  0
POLYLINE
  5
90
330
1F
100
AcDbEntity
  8
_U+30EC_U+30A4_U+30E4_U+30FC 1
 62
   179
420
  2234388
370
    25
100
AcDb2dPolyline
 66
     1
 10
0.0
 20
0.0
 30
0.0
  0
VERTEX
  5
91
330
90
100
AcDbEntity
  8
_U+30EC_U+30A4_U+30E4_U+30FC 1
 62
   179
420
  2234388
370
    25
100
AcDbVertex
100
AcDb2dVertex
 10
90.39895275517797
 20
-128.6278224678431
 30
0.0
  0
VERTEX
  5
92
330
90
100
AcDbEntity
  8
_U+30EC_U+30A4_U+30E4_U+30FC 1
 62
   179
420
  2234388
370
    25
100
AcDbVertex
100
AcDb2dVertex
 10
89.41815771875274
 20
-128.2467871901605
 30
0.0
  0
SEQEND
  5
93
330
90
100
AcDbEntity
  8
_U+30EC_U+30A4_U+30E4_U+30FC 1
 62
   179
420
  2234388
370
    25
  0
POLYLINE
  5
94
330
1F
100
AcDbEntity
  8
_U+30EC_U+30A4_U+30E4_U+30FC 1
 62
   179
420
  2234388
370
    25
100
AcDb2dPolyline
 66
     1
 10
0.0
 20
0.0
 30
0.0
  0
VERTEX
  5
95
330
94
100
AcDbEntity
  8
_U+30EC_U+30A4_U+30E4_U+30FC 1
 62
   179
420
  2234388
370
    25
100
AcDbVertex
100
AcDb2dVertex
 10
91.41837238994523
 20
-132.8091210779089
 30
0.0
  0
VERTEX
  5
96
330
94
100
AcDbEntity
  8
_U+30EC_U+30A4_U+30E4_U+30FC 1
 62
   179
420
  2234388
370
    25
100
AcDbVertex
100
AcDb2dVertex
 10
91.41837238994523
 20
-138.4962869098205
 30
0.0
  0
SEQEND
  5
97
330
94
100
AcDbEntity
  8
_U+30EC_U+30A4_U+30E4_U+30FC 1
 62
   179
420
  2234388
370
    25
  0
POLYLINE
  5
98
330
1F
100
AcDbEntity
  8
_U+30EC_U+30A4_U+30E4_U+30FC 1
 62
   179
420
  2234388
370
    25
100
AcDb2dPolyline
 66
     1
 10
0.0
 20
0.0
 30
0.0
  0
VERTEX
  5
99
330
98
100
AcDbEntity
  8
_U+30EC_U+30A4_U+30E4_U+30FC 1
 62
   179
420
  2234388
370
    25
100
AcDbVertex
100
AcDb2dVertex
 10
93.41823428336896
 20
-138.4962869098205
 30
0.0
  0
VERTEX
  5
9A
330
98
100
AcDbEntity
  8
_U+30EC_U+30A4_U+30E4_U+30FC 1
 62
   179
420
  2234388
370
    25
100
AcDbVertex
100
AcDb2dVertex
 10
91.41837238994523
 20
-138.4962869098205
 30
0.0
  0
SEQEND
  5
9B
330
98
100
AcDbEntity
  8
_U+30EC_U+30A4_U+30E4_U+30FC 1
 62
   179
420
  2234388
370
    25
  0
POLYLINE
  5
9C
330
1F
100
AcDbEntity
  8
_U+30EC_U+30A4_U+30E4_U+30FC 1
 62
   179
420
  2234388
370
    25
100
AcDb2dPolyline
 66
     1
 10
0.0
 20
0.0
 30
0.0
  0
VERTEX
  5
9D
330
9C
100
AcDbEntity
  8
_U+30EC_U+30A4_U+30E4_U+30FC 1
 62
   179
420
  2234388
370
    25
100
AcDbVertex
100
AcDb2dVertex
 10
93.41823428336896
 20
-118.4964680259313
 30
0.0
  0
VERTEX
  5
9E
330
9C
100
AcDbEntity
  8
_U+30EC_U+30A4_U+30E4_U+30FC 1
 62
   179
420
  2234388
370
    25
100
AcDbVertex
100
AcDb2dVertex
 10
93.41823428336896
 20
-120.4966827476538
 30
0.0
  0
SEQEND
  5
9F
330
9C
100
AcDbEntity
  8
_U+30EC_U+30A4_U+30E4_U+30FC 1
 62
   179
420
  2234388
370
    25
  0
POLYLINE
  5
A0
330
1F
100
AcDbEntity
  8
_U+30EC_U+30A4_U+30E4_U+30FC 1
 62
   179
420
  2234388
370
    25
100
AcDb2dPolyline
 66
     1
 10
0.0
 20
0.0
 30
0.0
  0
VERTEX
  5
A1
330
A0
100
AcDbEntity
  8
_U+30EC_U+30A4_U+30E4_U+30FC 1
 62
   179
420
  2234388
370
    25
100
AcDbVertex
100
AcDb2dVertex
 10
93.41823428336896
 20
-140.4965016315423
 30
0.0
  0
VERTEX
  5
A2
330
A0
100
AcDbEntity
  8
_U+30EC_U+30A4_U+30E4_U+30FC 1
 62
   179
420
  2234388
370
    25
100
AcDbVertex
100
AcDb2dVertex
 10
79.41807214054285
 20
-140.4965016315423
 30
0.0
  0
SEQEND
  5
A3
330
A0
100
AcDbEntity
  8
_U+30EC_U+30A4_U+30E4_U+30FC 1
 62
   179
420
  2234388
370
    25
  0
POLYLINE
  5
A4
330
1F
100
AcDbEntity
  8
_U+30EC_U+30A4_U+30E4_U+30FC 1
 62
   179
420
  2234388
370
    25
100
AcDb2dPolyline
 66
     1
 10
0.0
 20
0.0
 30
0.0
  0
VERTEX
  5
A5
330
A4
100
AcDbEntity
  8
_U+30EC_U+30A4_U+30E4_U+30FC 1
 62
   179
420
  2234388
370
    25
100
AcDbVertex
100
AcDb2dVertex
 10
93.41823428336896
 20
-138.4962869098205
 30
0.0
  0
VERTEX
  5
A6
330
A4
100
AcDbEntity
  8
_U+30EC_U+30A4_U+30E4_U+30FC 1
 62
   179
420
  2234388
370
    25
100
AcDbVertex
100
AcDb2dVertex
 10
93.41823428336896
 20
-140.4965016315423
 30
0.0
  0
SEQEND
  5
A7
330
A4
100
AcDbEntity
  8
_U+30EC_U+30A4_U+30E4_U+30FC 1
 62
   179
420
  2234388
370
    25
  0
POLYLINE
  5
A8
330
1F
100
AcDbEntity
  8
_U+30EC_U+30A4_U+30E4_U+30FC 1
 62
   179
420
  2234388
370
    25
100
AcDb2dPolyline
 66
     1
 10
0.0
 20
0.0
 30
0.0
  0
VERTEX
  5
A9
330
A8
100
AcDbEntity
  8
_U+30EC_U+30A4_U+30E4_U+30FC 1
 62
   179
420
  2234388
370
    25
100
AcDbVertex
100
AcDb2dVertex
 10
89.41815771875274
 20
-118.4964680259313
 30
0.0
  0
VERTEX
  5
AA
330
A8
100
AcDbEntity
  8
_U+30EC_U+30A4_U+30E4_U+30FC 1
 62
   179
420
  2234388
370
    25
100
AcDbVertex
100
AcDb2dVertex
 10
89.41815771875274
 20
-128.2467871901605
 30
0.0
  0
SEQEND
  5
AB
330
A8
100
AcDbEntity
  8
_U+30EC_U+30A4_U+30E4_U+30FC 1
 62
   179
420
  2234388
370
    25
  0
POLYLINE
  5
AC
330
1F
100
AcDbEntity
  8
_U+30EC_U+30A4_U+30E4_U+30FC 1
 62
   179
420
  2234388
370
    25
100
AcDb2dPolyline
 66
     1
 10
0.0
 20
0.0
 30
0.0
  0
VERTEX
  5
AD
330
AC
100
AcDbEntity
  8
_U+30EC_U+30A4_U+30E4_U+30FC 1
 62
   179
420
  2234388
370
    25
100
AcDbVertex
100
AcDb2dVertex
 10
93.41823428336896
 20
-120.4966827476538
 30
0.0
  0
VERTEX
  5
AE
330
AC
100
AcDbEntity
  8
_U+30EC_U+30A4_U+30E4_U+30FC 1
 62
   179
420
  2234388
370
    25
100
AcDbVertex
100
AcDb2dVertex
 10
91.41837238994523
 20
-120.4966827476538
 30
0.0
  0
SEQEND
  5
AF
330
AC
100
AcDbEntity
  8
_U+30EC_U+30A4_U+30E4_U+30FC 1
 62
   179
420
  2234388
370
    25
  0
POLYLINE
  5
B0
330
1F
100
AcDbEntity
  8
_U+30EC_U+30A4_U+30E4_U+30FC 1
 62
   179
420
  2234388
370
    25
100
AcDb2dPolyline
 66
     1
 10
0.0
 20
0.0
 30
0.0
  0
VERTEX
  5
B1
330
B0
100
AcDbEntity
  8
_U+30EC_U+30A4_U+30E4_U+30FC 1
 62
   179
420
  2234388
370
    25
100
AcDbVertex
100
AcDb2dVertex
 10
91.41837238994523
 20
-120.4966827476538
 30
0.0
  0
VERTEX
  5
B2
330
B0
100
AcDbEntity
  8
_U+30EC_U+30A4_U+30E4_U+30FC 1
 62
   179
420
  2234388
370
    25
100
AcDbVertex
100
AcDb2dVertex
 10
91.41837238994523
 20
-126.1838485795651
 30
0.0
  0
SEQEND
  5
B3
330
B0
100
AcDbEntity
  8
_U+30EC_U+30A4_U+30E4_U+30FC 1
 62
   179
420
  2234388
370
    25
  0
POLYLINE
  5
B4
330
1F
100
AcDbEntity
  8
_U+30EC_U+30A4_U+30E4_U+30FC 1
 62
   179
420
  2234388
370
    25
100
AcDb2dPolyline
 66
     1
 10
0.0
 20
0.0
 30
0.0
  0
VERTEX
  5
B5
330
B4
100
AcDbEntity
  8
_U+30EC_U+30A4_U+30E4_U+30FC 1
 62
   179
420
  2234388
370
    25
100
AcDbVertex
100
AcDb2dVertex
 10
93.41823428336896
 20
-118.4964680259313
 30
0.0
  0
VERTEX
  5
B6
330
B4
100
AcDbEntity
  8
_U+30EC_U+30A4_U+30E4_U+30FC 1
 62
   179
420
  2234388
370
    25
100
AcDbVertex
100
AcDb2dVertex
 10
89.41815771875274
 20
-118.4964680259313
 30
0.0
  0
SEQEND
  5
B7
330
B4
100
AcDbEntity
  8
_U+30EC_U+30A4_U+30E4_U+30FC 1
 62
   179
420
  2234388
370
    25
  0
POLYLINE
  5
B8
330
1F
100
AcDbEntity
  8
_U+30EC_U+30A4_U+30E4_U+30FC 1
 62
   179
420
  2234388
370
    25
100
AcDb2dPolyline
 66
     1
 10
0.0
 20
0.0
 30
0.0
  0
VERTEX
  5
B9
330
B8
100
AcDbEntity
  8
_U+30EC_U+30A4_U+30E4_U+30FC 1
 62
   179
420
  2234388
370
    25
100
AcDbVertex
100
AcDb2dVertex
 10
79.41807214054285
 20
-138.4962869098205
 30
0.0
  0
VERTEX
  5
BA
330
B8
100
AcDbEntity
  8
_U+30EC_U+30A4_U+30E4_U+30FC 1
 62
   179
420
  2234388
370
    25
100
AcDbVertex
100
AcDb2dVertex
 10
79.41807214054285
 20
-140.4965016315423
 30
0.0
  0
SEQEND
  5
BB
330
B8
100
AcDbEntity
  8
_U+30EC_U+30A4_U+30E4_U+30FC 1
 62
   179
420
  2234388
370
    25
  0
POLYLINE
  5
BC
330
1F
100
AcDbEntity
  8
_U+30EC_U+30A4_U+30E4_U+30FC 1
 62
   179
420
  2234388
370
    25
100
AcDb2dPolyline
 66
     1
 10
0.0
 20
0.0
 30
0.0
  0
VERTEX
  5
BD
330
BC
100
AcDbEntity
  8
_U+30EC_U+30A4_U+30E4_U+30FC 1
 62
   179
420
  2234388
370
    25
100
AcDbVertex
100
AcDb2dVertex
 10
80.41816386878448
 20
-138.4962869098205
 30
0.0
  0
VERTEX
  5
BE
330
BC
100
AcDbEntity
  8
_U+30EC_U+30A4_U+30E4_U+30FC 1
 62
   179
420
  2234388
370
    25
100
AcDbVertex
100
AcDb2dVertex
 10
79.41807214054285
 20
-138.4962869098205
 30
0.0
  0
SEQEND
  5
BF
330
BC
100
AcDbEntity
  8
_U+30EC_U+30A4_U+30E4_U+30FC 1
 62
   179
420
  2234388
370
    25
  0
POLYLINE
  5
C0
330
1F
100
AcDbEntity
  8
_U+30EC_U+30A4_U+30E4_U+30FC 1
 62
   179
420
  2234388
370
    25
100
AcDb2dPolyline
 66
     1
 10
0.0
 20
0.0
 30
0.0
  0
VERTEX
  5
C1
330
C0
100
AcDbEntity
  8
_U+30EC_U+30A4_U+30E4_U+30FC 1
 62
   179
420
  2234388
370
    25
100
AcDbVertex
100
AcDb2dVertex
 10
80.41816386878448
 20
-138.4962869098205
 30
0.0
  0
VERTEX
  5
C2
330
C0
100
AcDbEntity
  8
_U+30EC_U+30A4_U+30E4_U+30FC 1
 62
   179
420
  2234388
370
    25
100
AcDbVertex
100
AcDb2dVertex
 10
80.41816386878448
 20
-139.4960591317924
 30
0.0
  0
SEQEND
  5
C3
330
C0
100
AcDbEntity
  8
_U+30EC_U+30A4_U+30E4_U+30FC 1
 62
   179
420
  2234388
370
    25
  0
POLYLINE
  5
C4
330
1F
100
AcDbEntity
  8
_U+30EC_U+30A4_U+30E4_U+30FC 1
 62
   179
420
  2234388
370
    25
100
AcDb2dPolyline
 66
     1
 10
0.0
 20
0.0
 30
0.0
  0
VERTEX
  5
C5
330
C4
100
AcDbEntity
  8
_U+30EC_U+30A4_U+30E4_U+30FC 1
 62
   179
420
  2234388
370
    25
100
AcDbVertex
100
AcDb2dVertex
 10
89.41815771875274
 20
-139.4960591317924
 30
0.0
  0
VERTEX
  5
C6
330
C4
100
AcDbEntity
  8
_U+30EC_U+30A4_U+30E4_U+30FC 1
 62
   179
420
  2234388
370
    25
100
AcDbVertex
100
AcDb2dVertex
 10
80.41816386878448
 20
-139.4960591317924
 30
0.0
  0
SEQEND
  5
C7
330
C4
100
AcDbEntity
  8
_U+30EC_U+30A4_U+30E4_U+30FC 1
 62
   179
420
  2234388
370
    25
  0
SPLINE
  5
C8
330
1F
100
AcDbEntity
  8
_U+30EC_U+30A4_U+30E4_U+30FC 1
 62
   179
420
  2234388
370
     9
100
AcDbSpline
210
0.0
220
0.0
230
1.0
 70
    11
 71
     3
 72
    17
 73
    13
 74
     0
 42
0.0000000001
 43
0.0000000001
 12
1.0
 22
0.0
 32
0.0
 13
1.0
 23
0.0
 33
0.0
 40
0.0
 40
0.0
 40
0.0
 40
0.0
 40
1.0
 40
1.0
 40
1.0
 40
2.0
 40
2.0
 40
2.0
 40
3.0
 40
3.0
 40
3.0
 40
4.0
 40
4.0
 40
4.0
 40
4.0
 10
105.5180884191204
 20
-144.4962607972092
 30
0.0
 10
105.5180884191204
 20
-144.4411569083343
 30
0.0
 10
105.4733209202625
 20
-144.3963541305676
 30
0.0
 10
105.4181817550026
 20
-144.3963541305676
 30
0.0
 10
105.3630805292146
 20
-144.3963541305676
 30
0.0
 10
105.3182777514485
 20
-144.4411569083343
 30
0.0
 10
105.3182777514485
 20
-144.4962607972092
 30
0.0
 10
105.3182777514485
 20
-144.5513999638623
 30
0.0
 10
105.3630805292146
 20
-144.5961674638509
 30
0.0
 10
105.4181817550026
 20
-144.5961674638509
 30
0.0
 10
105.4733209202625
 20
-144.5961674638509
 30
0.0
 10
105.5180884191204
 20
-144.5513999638623
 30
0.0
 10
105.5180884191204
 20
-144.4962607972092
 30
0.0
  0
SPLINE
  5
C9
330
1F
100
AcDbEntity
  8
_U+30EC_U+30A4_U+30E4_U+30FC 1
 62
   179
420
  2234388
370
     9
100
AcDbSpline
210
0.0
220
0.0
230
1.0
 70
    11
 71
     3
 72
    17
 73
    13
 74
     0
 42
0.0000000001
 43
0.0000000001
 12
1.0
 22
0.0
 32
0.0
 13
1.0
 23
0.0
 33
0.0
 40
0.0
 40
0.0
 40
0.0
 40
0.0
 40
1.0
 40
1.0
 40
1.0
 40
2.0
 40
2.0
 40
2.0
 40
3.0
 40
3.0
 40
3.0
 40
4.0
 40
4.0
 40
4.0
 40
4.0
 10
101.518364632273
 20
-144.4962607972092
 30
0.0
 10
101.518364632273
 20
-144.4411569083343
 30
0.0
 10
101.4735618556382
 20
-144.3963541305676
 30
0.0
 10
101.4181051903864
 20
-144.3963541305676
 30
0.0
 10
101.3629660251264
 20
-144.3963541305676
 30
0.0
 10
101.3181985262685
 20
-144.4411569083343
 30
0.0
 10
101.3181985262685
 20
-144.4962607972092
 30
0.0
 10
101.3181985262685
 20
-144.5513999638623
 30
0.0
 10
101.3629660251264
 20
-144.5961674638509
 30
0.0
 10
101.4181051903864
 20
-144.5961674638509
 30
0.0
 10
101.4735618556382
 20
-144.5961674638509
 30
0.0
 10
101.518364632273
 20
-144.5513999638623
 30
0.0
 10
101.518364632273
 20
-144.4962607972092
 30
0.0
  0
SPLINE
  5
CA
330
1F
100
AcDbEntity
  8
_U+30EC_U+30A4_U+30E4_U+30FC 1
 62
   179
420
  2234388
370
     9
100
AcDbSpline
210
0.0
220
0.0
230
1.0
 70
    11
 71
     3
 72
    17
 73
    13
 74
     0
 42
0.0000000001
 43
0.0000000001
 12
1.0
 22
0.0
 32
0.0
 13
1.0
 23
0.0
 33
0.0
 40
0.0
 40
0.0
 40
0.0
 40
0.0
 40
1.0
 40
1.0
 40
1.0
 40
2.0
 40
2.0
 40
2.0
 40
3.0
 40
3.0
 40
3.0
 40
4.0
 40
4.0
 40
4.0
 40
4.0
 10
93.51814094748678
 20
-144.4962607972092
 30
0.0
 10
93.51814094748678
 20
-144.4411569083343
 30
0.0
 10
93.4733734486289
 20
-144.3963541305676
 30
0.0
 10
93.41823428336896
 20
-144.3963541305676
 30
0.0
 10
93.36313039588589
 20
-144.3963541305676
 30
0.0
 10
93.31832761925112
 20
-144.4411569083343
 30
0.0
 10
93.31832761925112
 20
-144.4962607972092
 30
0.0
 10
93.31832761925112
 20
-144.5513999638623
 30
0.0
 10
93.36313039588589
 20
-144.5961674638509
 30
0.0
 10
93.41823428336896
 20
-144.5961674638509
 30
0.0
 10
93.4733734486289
 20
-144.5961674638509
 30
0.0
 10
93.51814094748678
 20
-144.5513999638623
 30
0.0
 10
93.51814094748678
 20
-144.4962607972092
 30
0.0
  0
SPLINE
  5
CB
330
1F
100
AcDbEntity
  8
_U+30EC_U+30A4_U+30E4_U+30FC 1
 62
   179
420
  2234388
370
     9
100
AcDbSpline
210
0.0
220
0.0
230
1.0
 70
    11
 71
     3
 72
    17
 73
    13
 74
     0
 42
0.0000000001
 43
0.0000000001
 12
1.0
 22
0.0
 32
0.0
 13
1.0
 23
0.0
 33
0.0
 40
0.0
 40
0.0
 40
0.0
 40
0.0
 40
1.0
 40
1.0
 40
1.0
 40
2.0
 40
2.0
 40
2.0
 40
3.0
 40
3.0
 40
3.0
 40
4.0
 40
4.0
 40
4.0
 40
4.0
 10
79.51833158242947
 20
-144.4962607972092
 30
0.0
 10
79.51833158242947
 20
-144.4411569083343
 30
0.0
 10
79.4735288057947
 20
-144.3963541305676
 30
0.0
 10
79.41807214054285
 20
-144.3963541305676
 30
0.0
 10
79.3629329752829
 20
-144.3963541305676
 30
0.0
 10
79.31816547642501
 20
-144.4411569083343
 30
0.0
 10
79.31816547642501
 20
-144.4962607972092
 30
0.0
 10
79.31816547642501
 20
-144.5513999638623
 30
0.0
 10
79.3629329752829
 20
-144.5961674638509
 30
0.0
 10
79.41807214054285
 20
-144.5961674638509
 30
0.0
 10
79.4735288057947
 20
-144.5961674638509
 30
0.0
 10
79.51833158242947
 20
-144.5513999638623
 30
0.0
 10
79.51833158242947
 20
-144.4962607972092
 30
0.0
  0
SPLINE
  5
CC
330
1F
100
AcDbEntity
  8
_U+30EC_U+30A4_U+30E4_U+30FC 1
 62
   179
420
  2234388
370
     9
100
AcDbSpline
210
0.0
220
0.0
230
1.0
 70
    11
 71
     3
 72
    17
 73
    13
 74
     0
 42
0.0000000001
 43
0.0000000001
 12
1.0
 22
0.0
 32
0.0
 13
1.0
 23
0.0
 33
0.0
 40
0.0
 40
0.0
 40
0.0
 40
0.0
 40
1.0
 40
1.0
 40
1.0
 40
2.0
 40
2.0
 40
2.0
 40
3.0
 40
3.0
 40
3.0
 40
4.0
 40
4.0
 40
4.0
 40
4.0
 10
75.51821974003637
 20
-140.4965016315423
 30
0.0
 10
75.51821974003637
 20
-140.4413977426674
 30
0.0
 10
75.4734169634016
 20
-140.3965949649007
 30
0.0
 10
75.41831307591853
 20
-140.3965949649007
 30
0.0
 10
75.36285831449277
 20
-140.3965949649007
 30
0.0
 10
75.31805553672605
 20
-140.4413977426674
 30
0.0
 10
75.31805553672605
 20
-140.4965016315423
 30
0.0
 10
75.31805553672605
 20
-140.5516407981954
 30
0.0
 10
75.36285831449277
 20
-140.596408298184
 30
0.0
 10
75.41831307591853
 20
-140.596408298184
 30
0.0
 10
75.4734169634016
 20
-140.596408298184
 30
0.0
 10
75.51821974003637
 20
-140.5516407981954
 30
0.0
 10
75.51821974003637
 20
-140.4965016315423
 30
0.0
  0
SPLINE
  5
CD
330
1F
100
AcDbEntity
  8
_U+30EC_U+30A4_U+30E4_U+30FC 1
 62
   179
420
  2234388
370
     9
100
AcDbSpline
210
0.0
220
0.0
230
1.0
 70
    11
 71
     3
 72
    17
 73
    13
 74
     0
 42
0.0000000001
 43
0.0000000001
 12
1.0
 22
0.0
 32
0.0
 13
1.0
 23
0.0
 33
0.0
 40
0.0
 40
0.0
 40
0.0
 40
0.0
 40
1.0
 40
1.0
 40
1.0
 40
2.0
 40
2.0
 40
2.0
 40
3.0
 40
3.0
 40
3.0
 40
4.0
 40
4.0
 40
4.0
 40
4.0
 10
75.51821974003637
 20
-138.4962869098205
 30
0.0
 10
75.51821974003637
 20
-138.4411477431674
 30
0.0
 10
75.4734169634016
 20
-138.3963802431789
 30
0.0
 10
75.41831307591853
 20
-138.3963802431789
 30
0.0
 10
75.36285831449277
 20
-138.3963802431789
 30
0.0
 10
75.31805553672605
 20
-138.4411477431674
 30
0.0
 10
75.31805553672605
 20
-138.4962869098205
 30
0.0
 10
75.31805553672605
 20
-138.5513907986955
 30
0.0
 10
75.36285831449277
 20
-138.5961935764622
 30
0.0
 10
75.41831307591853
 20
-138.5961935764622
 30
0.0
 10
75.4734169634016
 20
-138.5961935764622
 30
0.0
 10
75.51821974003637
 20
-138.5513907986955
 30
0.0
 10
75.51821974003637
 20
-138.4962869098205
 30
0.0
  0
SPLINE
  5
CE
330
1F
100
AcDbEntity
  8
_U+30EC_U+30A4_U+30E4_U+30FC 1
 62
   179
420
  2234388
370
     9
100
AcDbSpline
210
0.0
220
0.0
230
1.0
 70
    11
 71
     3
 72
    17
 73
    13
 74
     0
 42
0.0000000001
 43
0.0000000001
 12
1.0
 22
0.0
 32
0.0
 13
1.0
 23
0.0
 33
0.0
 40
0.0
 40
0.0
 40
0.0
 40
0.0
 40
1.0
 40
1.0
 40
1.0
 40
2.0
 40
2.0
 40
2.0
 40
3.0
 40
3.0
 40
3.0
 40
4.0
 40
4.0
 40
4.0
 40
4.0
 10
75.51821974003637
 20
-118.4964680259313
 30
0.0
 10
75.51821974003637
 20
-118.4413641370564
 30
0.0
 10
75.4734169634016
 20
-118.3965613592897
 30
0.0
 10
75.41831307591853
 20
-118.3965613592897
 30
0.0
 10
75.36285831449277
 20
-118.3965613592897
 30
0.0
 10
75.31805553672605
 20
-118.4413641370564
 30
0.0
 10
75.31805553672605
 20
-118.4964680259313
 30
0.0
 10
75.31805553672605
 20
-118.5516071925844
 30
0.0
 10
75.36285831449277
 20
-118.5963746925733
 30
0.0
 10
75.41831307591853
 20
-118.5963746925733
 30
0.0
 10
75.4734169634016
 20
-118.5963746925733
 30
0.0
 10
75.51821974003637
 20
-118.5516071925844
 30
0.0
 10
75.51821974003637
 20
-118.4964680259313
 30
0.0
  0
SPLINE
  5
CF
330
1F
100
AcDbEntity
  8
_U+30EC_U+30A4_U+30E4_U+30FC 1
 62
   179
420
  2234388
370
     9
100
AcDbSpline
210
0.0
220
0.0
230
1.0
 70
    11
 71
     3
 72
    17
 73
    13
 74
     0
 42
0.0000000001
 43
0.0000000001
 12
1.0
 22
0.0
 32
0.0
 13
1.0
 23
0.0
 33
0.0
 40
0.0
 40
0.0
 40
0.0
 40
0.0
 40
1.0
 40
1.0
 40
1.0
 40
2.0
 40
2.0
 40
2.0
 40
3.0
 40
3.0
 40
3.0
 40
4.0
 40
4.0
 40
4.0
 40
4.0
 10
89.5180666442873
 20
-114.4967088602647
 30
0.0
 10
89.5180666442873
 20
-114.4416049713895
 30
0.0
 10
89.47361664429833
 20
-114.3968021936231
 30
0.0
 10
89.41815771875274
 20
-114.3968021936231
 30
0.0
 10
89.3630185534928
 20
-114.3968021936231
 30
0.0
 10
89.31821577685803
 20
-114.4416049713895
 30
0.0
 10
89.31821577685803
 20
-114.4967088602647
 30
0.0
 10
89.31821577685803
 20
-114.5518480269175
 30
0.0
 10
89.3630185534928
 20
-114.5966155269064
 30
0.0
 10
89.41815771875274
 20
-114.5966155269064
 30
0.0
 10
89.47361664429833
 20
-114.5966155269064
 30
0.0
 10
89.5180666442873
 20
-114.5518480269175
 30
0.0
 10
89.5180666442873
 20
-114.4967088602647
 30
0.0
  0
SPLINE
  5
D0
330
1F
100
AcDbEntity
  8
_U+30EC_U+30A4_U+30E4_U+30FC 1
 62
   179
420
  2234388
370
     9
100
AcDbSpline
210
0.0
220
0.0
230
1.0
 70
    11
 71
     3
 72
    17
 73
    13
 74
     0
 42
0.0000000001
 43
0.0000000001
 12
1.0
 22
0.0
 32
0.0
 13
1.0
 23
0.0
 33
0.0
 40
0.0
 40
0.0
 40
0.0
 40
0.0
 40
1.0
 40
1.0
 40
1.0
 40
2.0
 40
2.0
 40
2.0
 40
3.0
 40
3.0
 40
3.0
 40
4.0
 40
4.0
 40
4.0
 40
4.0
 10
105.5180884191204
 20
-114.4967088602647
 30
0.0
 10
105.5180884191204
 20
-114.4416049713895
 30
0.0
 10
105.4733209202625
 20
-114.3968021936231
 30
0.0
 10
105.4181817550026
 20
-114.3968021936231
 30
0.0
 10
105.3630805292146
 20
-114.3968021936231
 30
0.0
 10
105.3182777514485
 20
-114.4416049713895
 30
0.0
 10
105.3182777514485
 20
-114.4967088602647
 30
0.0
 10
105.3182777514485
 20
-114.5518480269175
 30
0.0
 10
105.3630805292146
 20
-114.5966155269064
 30
0.0
 10
105.4181817550026
 20
-114.5966155269064
 30
0.0
 10
105.4733209202625
 20
-114.5966155269064
 30
0.0
 10
105.5180884191204
 20
-114.5518480269175
 30
0.0
 10
105.5180884191204
 20
-114.4967088602647
 30
0.0
  0
SPLINE
  5
D1
330
1F
100
AcDbEntity
  8
_U+30EC_U+30A4_U+30E4_U+30FC 1
 62
   179
420
  2234388
370
    25
100
AcDbSpline
210
0.0
220
0.0
230
1.0
 70
     8
 71
     3
 72
    17
 73
    13
 74
     0
 42
0.0000000001
 43
0.0000000001
 12
1.0
 22
0.0
 32
0.0
 13
1.0
 23
0.0
 33
0.0
 40
0.0
 40
0.0
 40
0.0
 40
0.0
 40
1.0
 40
1.0
 40
1.0
 40
2.0
 40
2.0
 40
2.0
 40
3.0
 40
3.0
 40
3.0
 40
4.0
 40
4.0
 40
4.0
 40
4.0
 10
104.4373916405572
 20
-128.6278224678431
 30
0.0
 10
103.9578229033705
 20
-127.7892696902748
 30
0.0
 10
102.8888004306436
 20
-127.4978046903479
 30
0.0
 10
102.0495773964984
 20
-127.9773708013389
 30
0.0
 10
101.210707140122
 20
-128.4569369123302
 30
0.0
 10
100.9192421475579
 20
-129.5259594120631
 30
0.0
 10
101.399161024203
 20
-130.3651824674087
 30
0.0
 10
101.8786944189751
 20
-131.2036999671988
 30
0.0
 10
102.9477143180294
 20
-131.4951649671264
 30
0.0
 10
103.7869373521746
 20
-131.0155988561348
 30
0.0
 10
104.0577295674884
 20
-130.8605883006182
 30
0.0
 10
104.2823431728691
 20
-130.6359394117854
 30
0.0
 10
104.4373916405572
 20
-130.3651824674087
 30
0.0
  0
SPLINE
  5
D2
330
1F
100
AcDbEntity
  8
_U+30EC_U+30A4_U+30E4_U+30FC 1
 62
   179
420
  2234388
370
    25
100
AcDbSpline
210
0.0
220
0.0
230
1.0
 70
     8
 71
     3
 72
     8
 73
     4
 74
     0
 42
0.0000000001
 43
0.0000000001
 12
1.0
 22
0.0
 32
0.0
 13
1.0
 23
0.0
 33
0.0
 40
0.0
 40
0.0
 40
0.0
 40
0.0
 40
1.0
 40
1.0
 40
1.0
 40
1.0
 10
103.4183198615789
 20
-126.1838485795651
 30
0.0
 10
101.7057601830477
 20
-125.9254741351853
 30
0.0
 10
100.0786432801144
 20
-127.0148166349131
 30
0.0
 10
99.66522301288389
 20
-128.696719967826
 30
0.0
  0
SPLINE
  5
D3
330
1F
100
AcDbEntity
  8
_U+30EC_U+30A4_U+30E4_U+30FC 1
 62
   179
420
  2234388
370
    25
100
AcDbSpline
210
0.0
220
0.0
230
1.0
 70
     8
 71
     3
 72
    17
 73
    13
 74
     0
 42
0.0000000001
 43
0.0000000001
 12
1.0
 22
0.0
 32
0.0
 13
1.0
 23
0.0
 33
0.0
 40
0.0
 40
0.0
 40
0.0
 40
0.0
 40
1.0
 40
1.0
 40
1.0
 40
2.0
 40
2.0
 40
2.0
 40
3.0
 40
3.0
 40
3.0
 40
4.0
 40
4.0
 40
4.0
 40
4.0
 10
90.39895275517797
 20
-130.3651824674087
 30
0.0
 10
90.87886934815356
 20
-131.2036999671988
 30
0.0
 10
91.94785654310364
 20
-131.4951649671264
 30
0.0
 10
92.78676207725694
 20
-131.0155988561348
 30
0.0
 10
93.62598511140213
 20
-130.5360327451438
 30
0.0
 10
93.91709732619745
 20
-129.4666927454113
 30
0.0
 10
93.43753122732109
 20
-128.6278224678431
 30
0.0
 10
92.95764997676073
 20
-127.7892696902748
 30
0.0
 10
91.88862515572588
 20
-127.4978046903479
 30
0.0
 10
91.04975489934945
 20
-127.9773708013389
 30
0.0
 10
90.77860990626694
 20
-128.1324166346336
 30
0.0
 10
90.5539963008862
 20
-128.3570302456885
 30
0.0
 10
90.39895275517797
 20
-128.6278224678431
 30
0.0
  0
SPLINE
  5
D4
330
1F
100
AcDbEntity
  8
_U+30EC_U+30A4_U+30E4_U+30FC 1
 62
   179
420
  2234388
370
    25
100
AcDbSpline
210
0.0
220
0.0
230
1.0
 70
     8
 71
     3
 72
     8
 73
     4
 74
     0
 42
0.0000000001
 43
0.0000000001
 12
1.0
 22
0.0
 32
0.0
 13
1.0
 23
0.0
 33
0.0
 40
0.0
 40
0.0
 40
0.0
 40
0.0
 40
1.0
 40
1.0
 40
1.0
 40
1.0
 10
91.41837238994523
 20
-132.8091210779089
 30
0.0
 10
93.13057929070764
 20
-133.0674955222884
 30
0.0
 10
94.75769619364088
 20
-131.9781530225612
 30
0.0
 10
95.17143396086333
 20
-130.2962849674261
 30
0.0
  0
SPLINE
  5
D5
330
1F
100
AcDbEntity
  8
_U+30EC_U+30A4_U+30E4_U+30FC 1
 62
   179
420
  2234388
370
    25
100
AcDbSpline
210
0.0
220
0.0
230
1.0
 70
     8
 71
     3
 72
     8
 73
     4
 74
     0
 42
0.0000000001
 43
0.0000000001
 12
1.0
 22
0.0
 32
0.0
 13
1.0
 23
0.0
 33
0.0
 40
0.0
 40
0.0
 40
0.0
 40
0.0
 40
1.0
 40
1.0
 40
1.0
 40
1.0
 10
95.17143396086333
 20
-128.696719967826
 30
0.0
 10
94.75769619364088
 20
-127.0148166349131
 30
0.0
 10
93.13057929070764
 20
-125.9254741351853
 30
0.0
 10
91.41837238994523
 20
-126.1838485795651
 30
0.0
  0
SPLINE
  5
D6
330
1F
100
AcDbEntity
  8
_U+30EC_U+30A4_U+30E4_U+30FC 1
 62
   179
420
  2234388
370
    25
100
AcDbSpline
210
0.0
220
0.0
230
1.0
 70
     8
 71
     3
 72
     8
 73
     4
 74
     0
 42
0.0000000001
 43
0.0000000001
 12
1.0
 22
0.0
 32
0.0
 13
1.0
 23
0.0
 33
0.0
 40
0.0
 40
0.0
 40
0.0
 40
0.0
 40
1.0
 40
1.0
 40
1.0
 40
1.0
 10
99.66522301288389
 20
-130.2962849674261
 30
0.0
 10
100.0786432801144
 20
-131.9781530225612
 30
0.0
 10
101.7057601830477
 20
-133.0674955222884
 30
0.0
 10
103.4183198615789
 20
-132.8091210779089
 30
0.0
  0
POLYLINE
  5
D7
330
1F
100
AcDbEntity
  8
_U+30EC_U+30A4_U+30E4_U+30FC 1
 62
   179
420
  2234388
370
     9
100
AcDb2dPolyline
 66
     1
 10
0.0
 20
0.0
 30
0.0
  0
VERTEX
  5
D8
330
D7
100
AcDbEntity
  8
_U+30EC_U+30A4_U+30E4_U+30FC 1
 62
   179
420
  2234388
370
     9
100
AcDbVertex
100
AcDb2dVertex
 10
101.4181051903864
 20
-144.4962607972092
 30
0.0
  0
VERTEX
  5
D9
330
D7
100
AcDbEntity
  8
_U+30EC_U+30A4_U+30E4_U+30FC 1
 62
   179
420
  2234388
370
     9
100
AcDbVertex
100
AcDb2dVertex
 10
105.4181817550026
 20
-144.4962607972092
 30
0.0
  0
SEQEND
  5
DA
330
D7
100
AcDbEntity
  8
_U+30EC_U+30A4_U+30E4_U+30FC 1
 62
   179
420
  2234388
370
     9
  0
POLYLINE
  5
DB
330
1F
100
AcDbEntity
  8
_U+30EC_U+30A4_U+30E4_U+30FC 1
 62
   179
420
  2234388
370
     9
100
AcDb2dPolyline
 66
     1
 10
0.0
 20
0.0
 30
0.0
  0
VERTEX
  5
DC
330
DB
100
AcDbEntity
  8
_U+30EC_U+30A4_U+30E4_U+30FC 1
 62
   179
420
  2234388
370
     9
100
AcDbVertex
100
AcDb2dVertex
 10
101.4181051903864
 20
-143.0362194086855
 30
0.0
  0
VERTEX
  5
DD
330
DB
100
AcDbEntity
  8
_U+30EC_U+30A4_U+30E4_U+30FC 1
 62
   179
420
  2234388
370
     9
100
AcDbVertex
100
AcDb2dVertex
 10
101.4181051903864
 20
-145.4960330191818
 30
0.0
  0
SEQEND
  5
DE
330
DB
100
AcDbEntity
  8
_U+30EC_U+30A4_U+30E4_U+30FC 1
 62
   179
420
  2234388
370
     9
  0
POLYLINE
  5
DF
330
1F
100
AcDbEntity
  8
_U+30EC_U+30A4_U+30E4_U+30FC 1
 62
   179
420
  2234388
370
     9
100
AcDb2dPolyline
 66
     1
 10
0.0
 20
0.0
 30
0.0
  0
VERTEX
  5
E0
330
DF
100
AcDbEntity
  8
_U+30EC_U+30A4_U+30E4_U+30FC 1
 62
   179
420
  2234388
370
     9
100
AcDbVertex
100
AcDb2dVertex
 10
105.4181817550026
 20
-143.0362194086855
 30
0.0
  0
VERTEX
  5
E1
330
DF
100
AcDbEntity
  8
_U+30EC_U+30A4_U+30E4_U+30FC 1
 62
   179
420
  2234388
370
     9
100
AcDbVertex
100
AcDb2dVertex
 10
105.4181817550026
 20
-145.4960330191818
 30
0.0
  0
SEQEND
  5
E2
330
DF
100
AcDbEntity
  8
_U+30EC_U+30A4_U+30E4_U+30FC 1
 62
   179
420
  2234388
370
     9
  0
INSERT
  5
E4
330
1F
100
AcDbEntity
  8
_U+30EC_U+30A4_U+30E4_U+30FC 1
100
AcDbBlockReference
  2
block 2
 10
0.0
 20
0.0
 30
0.0
  0
INSERT
  5
FD
330
1F
100
AcDbEntity
  8
_U+30EC_U+30A4_U+30E4_U+30FC 1
100
AcDbBlockReference
  2
block 3
 10
0.0
 20
0.0
 30
0.0
  0
SPLINE
  5
102
330
1F
100
AcDbEntity
  8
_U+30EC_U+30A4_U+30E4_U+30FC 1
 62
   179
420
  2234388
370
    25
100
AcDbSpline
210
0.0
220
0.0
230
1.0
 70
    11
 71
     3
 72
    17
 73
    13
 74
     0
 42
0.0000000001
 43
0.0000000001
 12
1.0
 22
0.0
 32
0.0
 13
1.0
 23
0.0
 33
0.0
 40
0.0
 40
0.0
 40
0.0
 40
0.0
 40
1.0
 40
1.0
 40
1.0
 40
2.0
 40
2.0
 40
2.0
 40
3.0
 40
3.0
 40
3.0
 40
4.0
 40
4.0
 40
4.0
 40
4.0
 10
101.4535971968585
 20
-140.4965016315423
 30
0.0
 10
101.4535971968585
 20
-140.5157985759822
 30
0.0
 10
101.4377221968631
 20
-140.5316382982007
 30
0.0
 10
101.4181051903864
 20
-140.5316382982007
 30
0.0
 10
101.3988082464342
 20
-140.5316382982007
 30
0.0
 10
101.3829685246161
 20
-140.5157985759822
 30
0.0
 10
101.3829685246161
 20
-140.4965016315423
 30
0.0
 10
101.3829685246161
 20
-140.4765344093252
 30
0.0
 10
101.3988082464342
 20
-140.4613649648846
 30
0.0
 10
101.4181051903864
 20
-140.4613649648846
 30
0.0
 10
101.4377221968631
 20
-140.4613649648846
 30
0.0
 10
101.4535971968585
 20
-140.4765344093252
 30
0.0
 10
101.4535971968585
 20
-140.4965016315423
 30
0.0
  0
SPLINE
  5
103
330
1F
100
AcDbEntity
  8
_U+30EC_U+30A4_U+30E4_U+30FC 1
 62
   179
420
  2234388
370
    25
100
AcDbSpline
210
0.0
220
0.0
230
1.0
 70
    11
 71
     3
 72
    17
 73
    13
 74
     0
 42
0.0000000001
 43
0.0000000001
 12
1.0
 22
0.0
 32
0.0
 13
1.0
 23
0.0
 33
0.0
 40
0.0
 40
0.0
 40
0.0
 40
0.0
 40
1.0
 40
1.0
 40
1.0
 40
2.0
 40
2.0
 40
2.0
 40
3.0
 40
3.0
 40
3.0
 40
4.0
 40
4.0
 40
4.0
 40
4.0
 10
105.4533536985497
 20
-140.4965016315423
 30
0.0
 10
105.4533536985497
 20
-140.5157985759822
 30
0.0
 10
105.4378314767235
 20
-140.5316382982007
 30
0.0
 10
105.4181817550026
 20
-140.5316382982007
 30
0.0
 10
105.3989200888273
 20
-140.5316382982007
 30
0.0
 10
105.3830450892323
 20
-140.5157985759822
 30
0.0
 10
105.3830450892323
 20
-140.4965016315423
 30
0.0
 10
105.3830450892323
 20
-140.4765344093252
 30
0.0
 10
105.3989200888273
 20
-140.4613649648846
 30
0.0
 10
105.4181817550026
 20
-140.4613649648846
 30
0.0
 10
105.4378314767235
 20
-140.4613649648846
 30
0.0
 10
105.4533536985497
 20
-140.4765344093252
 30
0.0
 10
105.4533536985497
 20
-140.4965016315423
 30
0.0
  0
SPLINE
  5
104
330
1F
100
AcDbEntity
  8
_U+30EC_U+30A4_U+30E4_U+30FC 1
 62
   179
420
  2234388
370
     9
100
AcDbSpline
210
0.0
220
0.0
230
1.0
 70
    11
 71
     3
 72
    17
 73
    13
 74
     0
 42
0.0000000001
 43
0.0000000001
 12
1.0
 22
0.0
 32
0.0
 13
1.0
 23
0.0
 33
0.0
 40
0.0
 40
0.0
 40
0.0
 40
0.0
 40
1.0
 40
1.0
 40
1.0
 40
2.0
 40
2.0
 40
2.0
 40
3.0
 40
3.0
 40
3.0
 40
4.0
 40
4.0
 40
4.0
 40
4.0
 10
105.4533536985497
 20
-144.4962607972092
 30
0.0
 10
105.4533536985497
 20
-144.515557741649
 30
0.0
 10
105.4378314767235
 20
-144.5313974638669
 30
0.0
 10
105.4181817550026
 20
-144.5313974638669
 30
0.0
 10
105.3989200888273
 20
-144.5313974638669
 30
0.0
 10
105.3830450892323
 20
-144.515557741649
 30
0.0
 10
105.3830450892323
 20
-144.4962607972092
 30
0.0
 10
105.3830450892323
 20
-144.4769638527694
 30
0.0
 10
105.3989200888273
 20
-144.4611241305515
 30
0.0
 10
105.4181817550026
 20
-144.4611241305515
 30
0.0
 10
105.4378314767235
 20
-144.4611241305515
 30
0.0
 10
105.4533536985497
 20
-144.4769638527694
 30
0.0
 10
105.4533536985497
 20
-144.4962607972092
 30
0.0
  0
SPLINE
  5
105
330
1F
100
AcDbEntity
  8
_U+30EC_U+30A4_U+30E4_U+30FC 1
 62
   179
420
  2234388
370
     9
100
AcDbSpline
210
0.0
220
0.0
230
1.0
 70
    11
 71
     3
 72
    17
 73
    13
 74
     0
 42
0.0000000001
 43
0.0000000001
 12
1.0
 22
0.0
 32
0.0
 13
1.0
 23
0.0
 33
0.0
 40
0.0
 40
0.0
 40
0.0
 40
0.0
 40
1.0
 40
1.0
 40
1.0
 40
2.0
 40
2.0
 40
2.0
 40
3.0
 40
3.0
 40
3.0
 40
4.0
 40
4.0
 40
4.0
 40
4.0
 10
106.7676272761309
 20
-144.4962607972092
 30
0.0
 10
106.7676272761309
 20
-144.4411569083343
 30
0.0
 10
106.722859777273
 20
-144.3963541305676
 30
0.0
 10
106.6677206120131
 20
-144.3963541305676
 30
0.0
 10
106.6126194177915
 20
-144.3963541305676
 30
0.0
 10
106.5678166400248
 20
-144.4411569083343
 30
0.0
 10
106.5678166400248
 20
-144.4962607972092
 30
0.0
 10
106.5678166400248
 20
-144.5513999638623
 30
0.0
 10
106.6126194177915
 20
-144.5961674638509
 30
0.0
 10
106.6677206120131
 20
-144.5961674638509
 30
0.0
 10
106.722859777273
 20
-144.5961674638509
 30
0.0
 10
106.7676272761309
 20
-144.5513999638623
 30
0.0
 10
106.7676272761309
 20
-144.4962607972092
 30
0.0
  0
POLYLINE
  5
106
330
1F
100
AcDbEntity
  8
_U+30EC_U+30A4_U+30E4_U+30FC 1
 62
   179
420
  2234388
370
     9
100
AcDb2dPolyline
 66
     1
 10
0.0
 20
0.0
 30
0.0
  0
VERTEX
  5
107
330
106
100
AcDbEntity
  8
_U+30EC_U+30A4_U+30E4_U+30FC 1
 62
   179
420
  2234388
370
     9
100
AcDbVertex
100
AcDb2dVertex
 10
101.4181051903864
 20
-144.4962607972092
 30
0.0
  0
VERTEX
  5
108
330
106
100
AcDbEntity
  8
_U+30EC_U+30A4_U+30E4_U+30FC 1
 62
   179
420
  2234388
370
     9
100
AcDbVertex
100
AcDb2dVertex
 10
109.6673899799296
 20
-144.4962607972092
 30
0.0
  0
SEQEND
  5
109
330
106
100
AcDbEntity
  8
_U+30EC_U+30A4_U+30E4_U+30FC 1
 62
   179
420
  2234388
370
     9
  0
POLYLINE
  5
10A
330
1F
100
AcDbEntity
  8
_U+30EC_U+30A4_U+30E4_U+30FC 1
 62
   179
420
  2234388
370
     9
100
AcDb2dPolyline
 66
     1
 10
0.0
 20
0.0
 30
0.0
  0
VERTEX
  5
10B
330
10A
100
AcDbEntity
  8
_U+30EC_U+30A4_U+30E4_U+30FC 1
 62
   179
420
  2234388
370
     9
100
AcDbVertex
100
AcDb2dVertex
 10
106.6677206120131
 20
-143.0362194086855
 30
0.0
  0
VERTEX
  5
10C
330
10A
100
AcDbEntity
  8
_U+30EC_U+30A4_U+30E4_U+30FC 1
 62
   179
420
  2234388
370
     9
100
AcDbVertex
100
AcDb2dVertex
 10
106.6677206120131
 20
-145.4960330191818
 30
0.0
  0
SEQEND
  5
10D
330
10A
100
AcDbEntity
  8
_U+30EC_U+30A4_U+30E4_U+30FC 1
 62
   179
420
  2234388
370
     9
  0
SPLINE
  5
10E
330
1F
100
AcDbEntity
  8
_U+30EC_U+30A4_U+30E4_U+30FC 1
 62
   179
420
  2234388
370
     9
100
AcDbSpline
210
0.0
220
0.0
230
1.0
 70
    11
 71
     3
 72
    17
 73
    13
 74
     0
 42
0.0000000001
 43
0.0000000001
 12
1.0
 22
0.0
 32
0.0
 13
1.0
 23
0.0
 33
0.0
 40
0.0
 40
0.0
 40
0.0
 40
0.0
 40
1.0
 40
1.0
 40
1.0
 40
2.0
 40
2.0
 40
2.0
 40
3.0
 40
3.0
 40
3.0
 40
4.0
 40
4.0
 40
4.0
 40
4.0
 10
106.7028572777833
 20
-144.4962607972092
 30
0.0
 10
106.7028572777833
 20
-144.515557741649
 30
0.0
 10
106.6870175559652
 20
-144.5313974638669
 30
0.0
 10
106.6677206120131
 20
-144.5313974638669
 30
0.0
 10
106.6484236680609
 20
-144.5313974638669
 30
0.0
 10
106.6325839462428
 20
-144.515557741649
 30
0.0
 10
106.6325839462428
 20
-144.4962607972092
 30
0.0
 10
106.6325839462428
 20
-144.4769638527694
 30
0.0
 10
106.6484236680609
 20
-144.4611241305515
 30
0.0
 10
106.6677206120131
 20
-144.4611241305515
 30
0.0
 10
106.6870175559652
 20
-144.4611241305515
 30
0.0
 10
106.7028572777833
 20
-144.4769638527694
 30
0.0
 10
106.7028572777833
 20
-144.4962607972092
 30
0.0
  0
POLYLINE
  5
10F
330
1F
100
AcDbEntity
  8
_U+30EC_U+30A4_U+30E4_U+30FC 1
 62
   179
420
  2234388
370
     9
100
AcDb2dPolyline
 66
     1
 10
0.0
 20
0.0
 30
0.0
  0
VERTEX
  5
110
330
10F
100
AcDbEntity
  8
_U+30EC_U+30A4_U+30E4_U+30FC 1
 62
   179
420
  2234388
370
     9
100
AcDbVertex
100
AcDb2dVertex
 10
93.41823428336896
 20
-144.4962607972092
 30
0.0
  0
VERTEX
  5
111
330
10F
100
AcDbEntity
  8
_U+30EC_U+30A4_U+30E4_U+30FC 1
 62
   179
420
  2234388
370
     9
100
AcDbVertex
100
AcDb2dVertex
 10
101.4181051903864
 20
-144.4962607972092
 30
0.0
  0
SEQEND
  5
112
330
10F
100
AcDbEntity
  8
_U+30EC_U+30A4_U+30E4_U+30FC 1
 62
   179
420
  2234388
370
     9
  0
POLYLINE
  5
113
330
1F
100
AcDbEntity
  8
_U+30EC_U+30A4_U+30E4_U+30FC 1
 62
   179
420
  2234388
370
     9
100
AcDb2dPolyline
 66
     1
 10
0.0
 20
0.0
 30
0.0
  0
VERTEX
  5
114
330
113
100
AcDbEntity
  8
_U+30EC_U+30A4_U+30E4_U+30FC 1
 62
   179
420
  2234388
370
     9
100
AcDbVertex
100
AcDb2dVertex
 10
93.41823428336896
 20
-143.0362194086855
 30
0.0
  0
VERTEX
  5
115
330
113
100
AcDbEntity
  8
_U+30EC_U+30A4_U+30E4_U+30FC 1
 62
   179
420
  2234388
370
     9
100
AcDbVertex
100
AcDb2dVertex
 10
93.41823428336896
 20
-145.4960330191818
 30
0.0
  0
SEQEND
  5
116
330
113
100
AcDbEntity
  8
_U+30EC_U+30A4_U+30E4_U+30FC 1
 62
   179
420
  2234388
370
     9
  0
INSERT
  5
118
330
1F
100
AcDbEntity
  8
_U+30EC_U+30A4_U+30E4_U+30FC 1
100
AcDbBlockReference
  2
block 4
 10
0.0
 20
0.0
 30
0.0
  0
SPLINE
  5
11F
330
1F
100
AcDbEntity
  8
_U+30EC_U+30A4_U+30E4_U+30FC 1
 62
   179
420
  2234388
370
    25
100
AcDbSpline
210
0.0
220
0.0
230
1.0
 70
    11
 71
     3
 72
    17
 73
    13
 74
     0
 42
0.0000000001
 43
0.0000000001
 12
1.0
 22
0.0
 32
0.0
 13
1.0
 23
0.0
 33
0.0
 40
0.0
 40
0.0
 40
0.0
 40
0.0
 40
1.0
 40
1.0
 40
1.0
 40
2.0
 40
2.0
 40
2.0
 40
3.0
 40
3.0
 40
3.0
 40
4.0
 40
4.0
 40
4.0
 40
4.0
 10
93.45337094913921
 20
-140.4965016315423
 30
0.0
 10
93.45337094913921
 20
-140.5157985759822
 30
0.0
 10
93.43753122732109
 20
-140.5316382982007
 30
0.0
 10
93.41823428336896
 20
-140.5316382982007
 30
0.0
 10
93.39862219887272
 20
-140.5316382982007
 30
0.0
 10
93.38309997665442
 20
-140.5157985759822
 30
0.0
 10
93.38309997665442
 20
-140.4965016315423
 30
0.0
 10
93.38309997665442
 20
-140.4765344093252
 30
0.0
 10
93.39862219887272
 20
-140.4613649648846
 30
0.0
 10
93.41823428336896
 20
-140.4613649648846
 30
0.0
 10
93.43753122732109
 20
-140.4613649648846
 30
0.0
 10
93.45337094913921
 20
-140.4765344093252
 30
0.0
 10
93.45337094913921
 20
-140.4965016315423
 30
0.0
  0
SPLINE
  5
120
330
1F
100
AcDbEntity
  8
_U+30EC_U+30A4_U+30E4_U+30FC 1
 62
   179
420
  2234388
370
    25
100
AcDbSpline
210
0.0
220
0.0
230
1.0
 70
    11
 71
     3
 72
    17
 73
    13
 74
     0
 42
0.0000000001
 43
0.0000000001
 12
1.0
 22
0.0
 32
0.0
 13
1.0
 23
0.0
 33
0.0
 40
0.0
 40
0.0
 40
0.0
 40
0.0
 40
1.0
 40
1.0
 40
1.0
 40
2.0
 40
2.0
 40
2.0
 40
3.0
 40
3.0
 40
3.0
 40
4.0
 40
4.0
 40
4.0
 40
4.0
 10
101.4535971968585
 20
-140.4965016315423
 30
0.0
 10
101.4535971968585
 20
-140.5157985759822
 30
0.0
 10
101.4377221968631
 20
-140.5316382982007
 30
0.0
 10
101.4181051903864
 20
-140.5316382982007
 30
0.0
 10
101.3988082464342
 20
-140.5316382982007
 30
0.0
 10
101.3829685246161
 20
-140.5157985759822
 30
0.0
 10
101.3829685246161
 20
-140.4965016315423
 30
0.0
 10
101.3829685246161
 20
-140.4765344093252
 30
0.0
 10
101.3988082464342
 20
-140.4613649648846
 30
0.0
 10
101.4181051903864
 20
-140.4613649648846
 30
0.0
 10
101.4377221968631
 20
-140.4613649648846
 30
0.0
 10
101.4535971968585
 20
-140.4765344093252
 30
0.0
 10
101.4535971968585
 20
-140.4965016315423
 30
0.0
  0
SPLINE
  5
121
330
1F
100
AcDbEntity
  8
_U+30EC_U+30A4_U+30E4_U+30FC 1
 62
   179
420
  2234388
370
     9
100
AcDbSpline
210
0.0
220
0.0
230
1.0
 70
    11
 71
     3
 72
    17
 73
    13
 74
     0
 42
0.0000000001
 43
0.0000000001
 12
1.0
 22
0.0
 32
0.0
 13
1.0
 23
0.0
 33
0.0
 40
0.0
 40
0.0
 40
0.0
 40
0.0
 40
1.0
 40
1.0
 40
1.0
 40
2.0
 40
2.0
 40
2.0
 40
3.0
 40
3.0
 40
3.0
 40
4.0
 40
4.0
 40
4.0
 40
4.0
 10
101.4535971968585
 20
-144.4962607972092
 30
0.0
 10
101.4535971968585
 20
-144.515557741649
 30
0.0
 10
101.4377221968631
 20
-144.5313974638669
 30
0.0
 10
101.4181051903864
 20
-144.5313974638669
 30
0.0
 10
101.3988082464342
 20
-144.5313974638669
 30
0.0
 10
101.3829685246161
 20
-144.515557741649
 30
0.0
 10
101.3829685246161
 20
-144.4962607972092
 30
0.0
 10
101.3829685246161
 20
-144.4769638527694
 30
0.0
 10
101.3988082464342
 20
-144.4611241305515
 30
0.0
 10
101.4181051903864
 20
-144.4611241305515
 30
0.0
 10
101.4377221968631
 20
-144.4611241305515
 30
0.0
 10
101.4535971968585
 20
-144.4769638527694
 30
0.0
 10
101.4535971968585
 20
-144.4962607972092
 30
0.0
  0
POLYLINE
  5
122
330
1F
100
AcDbEntity
  8
_U+30EC_U+30A4_U+30E4_U+30FC 1
 62
   179
420
  2234388
370
     9
100
AcDb2dPolyline
 66
     1
 10
0.0
 20
0.0
 30
0.0
  0
VERTEX
  5
123
330
122
100
AcDbEntity
  8
_U+30EC_U+30A4_U+30E4_U+30FC 1
 62
   179
420
  2234388
370
     9
100
AcDbVertex
100
AcDb2dVertex
 10
93.41823428336896
 20
-144.4962607972092
 30
0.0
  0
VERTEX
  5
124
330
122
100
AcDbEntity
  8
_U+30EC_U+30A4_U+30E4_U+30FC 1
 62
   179
420
  2234388
370
     9
100
AcDbVertex
100
AcDb2dVertex
 10
79.41807214054285
 20
-144.4962607972092
 30
0.0
  0
SEQEND
  5
125
330
122
100
AcDbEntity
  8
_U+30EC_U+30A4_U+30E4_U+30FC 1
 62
   179
420
  2234388
370
     9
  0
POLYLINE
  5
126
330
1F
100
AcDbEntity
  8
_U+30EC_U+30A4_U+30E4_U+30FC 1
 62
   179
420
  2234388
370
     9
100
AcDb2dPolyline
 66
     1
 10
0.0
 20
0.0
 30
0.0
  0
VERTEX
  5
127
330
126
100
AcDbEntity
  8
_U+30EC_U+30A4_U+30E4_U+30FC 1
 62
   179
420
  2234388
370
     9
100
AcDbVertex
100
AcDb2dVertex
 10
79.41807214054285
 20
-143.0362194086855
 30
0.0
  0
VERTEX
  5
128
330
126
100
AcDbEntity
  8
_U+30EC_U+30A4_U+30E4_U+30FC 1
 62
   179
420
  2234388
370
     9
100
AcDbVertex
100
AcDb2dVertex
 10
79.41807214054285
 20
-145.4960330191818
 30
0.0
  0
SEQEND
  5
129
330
126
100
AcDbEntity
  8
_U+30EC_U+30A4_U+30E4_U+30FC 1
 62
   179
420
  2234388
370
     9
  0
INSERT
  5
12B
330
1F
100
AcDbEntity
  8
_U+30EC_U+30A4_U+30E4_U+30FC 1
100
AcDbBlockReference
  2
block 5
 10
0.0
 20
0.0
 30
0.0
  0
SPLINE
  5
145
330
1F
100
AcDbEntity
  8
_U+30EC_U+30A4_U+30E4_U+30FC 1
 62
   179
420
  2234388
370
    25
100
AcDbSpline
210
0.0
220
0.0
230
1.0
 70
    11
 71
     3
 72
    17
 73
    13
 74
     0
 42
0.0000000001
 43
0.0000000001
 12
1.0
 22
0.0
 32
0.0
 13
1.0
 23
0.0
 33
0.0
 40
0.0
 40
0.0
 40
0.0
 40
0.0
 40
1.0
 40
1.0
 40
1.0
 40
2.0
 40
2.0
 40
2.0
 40
3.0
 40
3.0
 40
3.0
 40
4.0
 40
4.0
 40
4.0
 40
4.0
 10
93.45337094913921
 20
-140.4965016315423
 30
0.0
 10
93.45337094913921
 20
-140.5157985759822
 30
0.0
 10
93.43753122732109
 20
-140.5316382982007
 30
0.0
 10
93.41823428336896
 20
-140.5316382982007
 30
0.0
 10
93.39862219887272
 20
-140.5316382982007
 30
0.0
 10
93.38309997665442
 20
-140.5157985759822
 30
0.0
 10
93.38309997665442
 20
-140.4965016315423
 30
0.0
 10
93.38309997665442
 20
-140.4765344093252
 30
0.0
 10
93.39862219887272
 20
-140.4613649648846
 30
0.0
 10
93.41823428336896
 20
-140.4613649648846
 30
0.0
 10
93.43753122732109
 20
-140.4613649648846
 30
0.0
 10
93.45337094913921
 20
-140.4765344093252
 30
0.0
 10
93.45337094913921
 20
-140.4965016315423
 30
0.0
  0
SPLINE
  5
146
330
1F
100
AcDbEntity
  8
_U+30EC_U+30A4_U+30E4_U+30FC 1
 62
   179
420
  2234388
370
    25
100
AcDbSpline
210
0.0
220
0.0
230
1.0
 70
    11
 71
     3
 72
    17
 73
    13
 74
     0
 42
0.0000000001
 43
0.0000000001
 12
1.0
 22
0.0
 32
0.0
 13
1.0
 23
0.0
 33
0.0
 40
0.0
 40
0.0
 40
0.0
 40
0.0
 40
1.0
 40
1.0
 40
1.0
 40
2.0
 40
2.0
 40
2.0
 40
3.0
 40
3.0
 40
3.0
 40
4.0
 40
4.0
 40
4.0
 40
4.0
 10
79.45356158408188
 20
-140.4965016315423
 30
0.0
 10
79.45356158408188
 20
-140.5157985759822
 30
0.0
 10
79.43768658448688
 20
-140.5316382982007
 30
0.0
 10
79.41807214054285
 20
-140.5316382982007
 30
0.0
 10
79.3987751965907
 20
-140.5316382982007
 30
0.0
 10
79.3829354747726
 20
-140.5157985759822
 30
0.0
 10
79.3829354747726
 20
-140.4965016315423
 30
0.0
 10
79.3829354747726
 20
-140.4765344093252
 30
0.0
 10
79.3987751965907
 20
-140.4613649648846
 30
0.0
 10
79.41807214054285
 20
-140.4613649648846
 30
0.0
 10
79.43768658448688
 20
-140.4613649648846
 30
0.0
 10
79.45356158408188
 20
-140.4765344093252
 30
0.0
 10
79.45356158408188
 20
-140.4965016315423
 30
0.0
  0
SPLINE
  5
147
330
1F
100
AcDbEntity
  8
_U+30EC_U+30A4_U+30E4_U+30FC 1
 62
   179
420
  2234388
370
     9
100
AcDbSpline
210
0.0
220
0.0
230
1.0
 70
    11
 71
     3
 72
    17
 73
    13
 74
     0
 42
0.0000000001
 43
0.0000000001
 12
1.0
 22
0.0
 32
0.0
 13
1.0
 23
0.0
 33
0.0
 40
0.0
 40
0.0
 40
0.0
 40
0.0
 40
1.0
 40
1.0
 40
1.0
 40
2.0
 40
2.0
 40
2.0
 40
3.0
 40
3.0
 40
3.0
 40
4.0
 40
4.0
 40
4.0
 40
4.0
 10
79.45356158408188
 20
-144.4962607972092
 30
0.0
 10
79.45356158408188
 20
-144.515557741649
 30
0.0
 10
79.43768658448688
 20
-144.5313974638669
 30
0.0
 10
79.41807214054285
 20
-144.5313974638669
 30
0.0
 10
79.3987751965907
 20
-144.5313974638669
 30
0.0
 10
79.3829354747726
 20
-144.515557741649
 30
0.0
 10
79.3829354747726
 20
-144.4962607972092
 30
0.0
 10
79.3829354747726
 20
-144.4769638527694
 30
0.0
 10
79.3987751965907
 20
-144.4611241305515
 30
0.0
 10
79.41807214054285
 20
-144.4611241305515
 30
0.0
 10
79.43768658448688
 20
-144.4611241305515
 30
0.0
 10
79.45356158408188
 20
-144.4769638527694
 30
0.0
 10
79.45356158408188
 20
-144.4962607972092
 30
0.0
  0
POLYLINE
  5
148
330
1F
100
AcDbEntity
  8
_U+30EC_U+30A4_U+30E4_U+30FC 1
 62
   179
420
  2234388
370
     9
100
AcDb2dPolyline
 66
     1
 10
0.0
 20
0.0
 30
0.0
  0
VERTEX
  5
149
330
148
100
AcDbEntity
  8
_U+30EC_U+30A4_U+30E4_U+30FC 1
 62
   179
420
  2234388
370
     9
100
AcDbVertex
100
AcDb2dVertex
 10
89.41815771875274
 20
-114.4967088602647
 30
0.0
  0
VERTEX
  5
14A
330
148
100
AcDbEntity
  8
_U+30EC_U+30A4_U+30E4_U+30FC 1
 62
   179
420
  2234388
370
     9
100
AcDbVertex
100
AcDb2dVertex
 10
105.4181817550026
 20
-114.4967088602647
 30
0.0
  0
SEQEND
  5
14B
330
148
100
AcDbEntity
  8
_U+30EC_U+30A4_U+30E4_U+30FC 1
 62
   179
420
  2234388
370
     9
  0
POLYLINE
  5
14C
330
1F
100
AcDbEntity
  8
_U+30EC_U+30A4_U+30E4_U+30FC 1
 62
   179
420
  2234388
370
     9
100
AcDb2dPolyline
 66
     1
 10
0.0
 20
0.0
 30
0.0
  0
VERTEX
  5
14D
330
14C
100
AcDbEntity
  8
_U+30EC_U+30A4_U+30E4_U+30FC 1
 62
   179
420
  2234388
370
     9
100
AcDbVertex
100
AcDb2dVertex
 10
89.41815771875274
 20
-115.9567502487885
 30
0.0
  0
VERTEX
  5
14E
330
14C
100
AcDbEntity
  8
_U+30EC_U+30A4_U+30E4_U+30FC 1
 62
   179
420
  2234388
370
     9
100
AcDbVertex
100
AcDb2dVertex
 10
89.41815771875274
 20
-113.4969366382925
 30
0.0
  0
SEQEND
  5
14F
330
14C
100
AcDbEntity
  8
_U+30EC_U+30A4_U+30E4_U+30FC 1
 62
   179
420
  2234388
370
     9
  0
POLYLINE
  5
150
330
1F
100
AcDbEntity
  8
_U+30EC_U+30A4_U+30E4_U+30FC 1
 62
   179
420
  2234388
370
     9
100
AcDb2dPolyline
 66
     1
 10
0.0
 20
0.0
 30
0.0
  0
VERTEX
  5
151
330
150
100
AcDbEntity
  8
_U+30EC_U+30A4_U+30E4_U+30FC 1
 62
   179
420
  2234388
370
     9
100
AcDbVertex
100
AcDb2dVertex
 10
105.4181817550026
 20
-115.9567502487885
 30
0.0
  0
VERTEX
  5
152
330
150
100
AcDbEntity
  8
_U+30EC_U+30A4_U+30E4_U+30FC 1
 62
   179
420
  2234388
370
     9
100
AcDbVertex
100
AcDb2dVertex
 10
105.4181817550026
 20
-113.4969366382925
 30
0.0
  0
SEQEND
  5
153
330
150
100
AcDbEntity
  8
_U+30EC_U+30A4_U+30E4_U+30FC 1
 62
   179
420
  2234388
370
     9
  0
INSERT
  5
155
330
1F
100
AcDbEntity
  8
_U+30EC_U+30A4_U+30E4_U+30FC 1
100
AcDbBlockReference
  2
block 6
 10
0.0
 20
0.0
 30
0.0
  0
SPLINE
  5
15D
330
1F
100
AcDbEntity
  8
_U+30EC_U+30A4_U+30E4_U+30FC 1
 62
   179
420
  2234388
370
    25
100
AcDbSpline
210
0.0
220
0.0
230
1.0
 70
    11
 71
     3
 72
    17
 73
    13
 74
     0
 42
0.0000000001
 43
0.0000000001
 12
1.0
 22
0.0
 32
0.0
 13
1.0
 23
0.0
 33
0.0
 40
0.0
 40
0.0
 40
0.0
 40
0.0
 40
1.0
 40
1.0
 40
1.0
 40
2.0
 40
2.0
 40
2.0
 40
3.0
 40
3.0
 40
3.0
 40
4.0
 40
4.0
 40
4.0
 40
4.0
 10
89.4536118845149
 20
-118.4964680259313
 30
0.0
 10
89.4536118845149
 20
-118.5164352481488
 30
0.0
 10
89.43777216269679
 20
-118.5316046925894
 30
0.0
 10
89.41815771875274
 20
-118.5316046925894
 30
0.0
 10
89.39886077480061
 20
-118.5316046925894
 30
0.0
 10
89.38298577520561
 20
-118.5164352481488
 30
0.0
 10
89.38298577520561
 20
-118.4964680259313
 30
0.0
 10
89.38298577520561
 20
-118.4771710814918
 30
0.0
 10
89.39886077480061
 20
-118.4613313592736
 30
0.0
 10
89.41815771875274
 20
-118.4613313592736
 30
0.0
 10
89.43777216269679
 20
-118.4613313592736
 30
0.0
 10
89.4536118845149
 20
-118.4771710814918
 30
0.0
 10
89.4536118845149
 20
-118.4964680259313
 30
0.0
  0
SPLINE
  5
15E
330
1F
100
AcDbEntity
  8
_U+30EC_U+30A4_U+30E4_U+30FC 1
 62
   179
420
  2234388
370
    25
100
AcDbSpline
210
0.0
220
0.0
230
1.0
 70
    11
 71
     3
 72
    17
 73
    13
 74
     0
 42
0.0000000001
 43
0.0000000001
 12
1.0
 22
0.0
 32
0.0
 13
1.0
 23
0.0
 33
0.0
 40
0.0
 40
0.0
 40
0.0
 40
0.0
 40
1.0
 40
1.0
 40
1.0
 40
2.0
 40
2.0
 40
2.0
 40
3.0
 40
3.0
 40
3.0
 40
4.0
 40
4.0
 40
4.0
 40
4.0
 10
105.4533536985497
 20
-118.4964680259313
 30
0.0
 10
105.4533536985497
 20
-118.5164352481488
 30
0.0
 10
105.4378314767235
 20
-118.5316046925894
 30
0.0
 10
105.4181817550026
 20
-118.5316046925894
 30
0.0
 10
105.3989200888273
 20
-118.5316046925894
 30
0.0
 10
105.3830450892323
 20
-118.5164352481488
 30
0.0
 10
105.3830450892323
 20
-118.4964680259313
 30
0.0
 10
105.3830450892323
 20
-118.4771710814918
 30
0.0
 10
105.3989200888273
 20
-118.4613313592736
 30
0.0
 10
105.4181817550026
 20
-118.4613313592736
 30
0.0
 10
105.4378314767235
 20
-118.4613313592736
 30
0.0
 10
105.4533536985497
 20
-118.4771710814918
 30
0.0
 10
105.4533536985497
 20
-118.4964680259313
 30
0.0
  0
SPLINE
  5
15F
330
1F
100
AcDbEntity
  8
_U+30EC_U+30A4_U+30E4_U+30FC 1
 62
   179
420
  2234388
370
     9
100
AcDbSpline
210
0.0
220
0.0
230
1.0
 70
    11
 71
     3
 72
    17
 73
    13
 74
     0
 42
0.0000000001
 43
0.0000000001
 12
1.0
 22
0.0
 32
0.0
 13
1.0
 23
0.0
 33
0.0
 40
0.0
 40
0.0
 40
0.0
 40
0.0
 40
1.0
 40
1.0
 40
1.0
 40
2.0
 40
2.0
 40
2.0
 40
3.0
 40
3.0
 40
3.0
 40
4.0
 40
4.0
 40
4.0
 40
4.0
 10
105.4533536985497
 20
-114.4967088602647
 30
0.0
 10
105.4533536985497
 20
-114.5160058047043
 30
0.0
 10
105.4378314767235
 20
-114.5318455269225
 30
0.0
 10
105.4181817550026
 20
-114.5318455269225
 30
0.0
 10
105.3989200888273
 20
-114.5318455269225
 30
0.0
 10
105.3830450892323
 20
-114.5160058047043
 30
0.0
 10
105.3830450892323
 20
-114.4967088602647
 30
0.0
 10
105.3830450892323
 20
-114.4774119158252
 30
0.0
 10
105.3989200888273
 20
-114.4615721936067
 30
0.0
 10
105.4181817550026
 20
-114.4615721936067
 30
0.0
 10
105.4378314767235
 20
-114.4615721936067
 30
0.0
 10
105.4533536985497
 20
-114.4774119158252
 30
0.0
 10
105.4533536985497
 20
-114.4967088602647
 30
0.0
  0
POLYLINE
  5
160
330
1F
100
AcDbEntity
  8
_U+30EC_U+30A4_U+30E4_U+30FC 1
 62
   179
420
  2234388
370
     9
100
AcDb2dPolyline
 66
     1
 10
0.0
 20
0.0
 30
0.0
  0
VERTEX
  5
161
330
160
100
AcDbEntity
  8
_U+30EC_U+30A4_U+30E4_U+30FC 1
 62
   179
420
  2234388
370
     9
100
AcDbVertex
100
AcDb2dVertex
 10
75.41831307591853
 20
-118.4964680259313
 30
0.0
  0
VERTEX
  5
162
330
160
100
AcDbEntity
  8
_U+30EC_U+30A4_U+30E4_U+30FC 1
 62
   179
420
  2234388
370
     9
100
AcDbVertex
100
AcDb2dVertex
 10
75.41831307591853
 20
-138.4962869098205
 30
0.0
  0
SEQEND
  5
163
330
160
100
AcDbEntity
  8
_U+30EC_U+30A4_U+30E4_U+30FC 1
 62
   179
420
  2234388
370
     9
  0
POLYLINE
  5
164
330
1F
100
AcDbEntity
  8
_U+30EC_U+30A4_U+30E4_U+30FC 1
 62
   179
420
  2234388
370
     9
100
AcDb2dPolyline
 66
     1
 10
0.0
 20
0.0
 30
0.0
  0
VERTEX
  5
165
330
164
100
AcDbEntity
  8
_U+30EC_U+30A4_U+30E4_U+30FC 1
 62
   179
420
  2234388
370
     9
100
AcDbVertex
100
AcDb2dVertex
 10
86.87808722799979
 20
-118.4964680259313
 30
0.0
  0
VERTEX
  5
166
330
164
100
AcDbEntity
  8
_U+30EC_U+30A4_U+30E4_U+30FC 1
 62
   179
420
  2234388
370
     9
100
AcDbVertex
100
AcDb2dVertex
 10
74.41818810143386
 20
-118.4964680259313
 30
0.0
  0
SEQEND
  5
167
330
164
100
AcDbEntity
  8
_U+30EC_U+30A4_U+30E4_U+30FC 1
 62
   179
420
  2234388
370
     9
  0
POLYLINE
  5
168
330
1F
100
AcDbEntity
  8
_U+30EC_U+30A4_U+30E4_U+30FC 1
 62
   179
420
  2234388
370
     9
100
AcDb2dPolyline
 66
     1
 10
0.0
 20
0.0
 30
0.0
  0
VERTEX
  5
169
330
168
100
AcDbEntity
  8
_U+30EC_U+30A4_U+30E4_U+30FC 1
 62
   179
420
  2234388
370
     9
100
AcDbVertex
100
AcDb2dVertex
 10
76.87835442755866
 20
-138.4962869098205
 30
0.0
  0
VERTEX
  5
16A
330
168
100
AcDbEntity
  8
_U+30EC_U+30A4_U+30E4_U+30FC 1
 62
   179
420
  2234388
370
     9
100
AcDbVertex
100
AcDb2dVertex
 10
74.41818810143386
 20
-138.4962869098205
 30
0.0
  0
SEQEND
  5
16B
330
168
100
AcDbEntity
  8
_U+30EC_U+30A4_U+30E4_U+30FC 1
 62
   179
420
  2234388
370
     9
  0
INSERT
  5
16D
330
1F
100
AcDbEntity
  8
_U+30EC_U+30A4_U+30E4_U+30FC 1
100
AcDbBlockReference
  2
block 7
 10
0.0
 20
0.0
 30
0.0
  0
SPLINE
  5
17F
330
1F
100
AcDbEntity
  8
_U+30EC_U+30A4_U+30E4_U+30FC 1
 62
   179
420
  2234388
370
    25
100
AcDbSpline
210
0.0
220
0.0
230
1.0
 70
    11
 71
     3
 72
    17
 73
    13
 74
     0
 42
0.0000000001
 43
0.0000000001
 12
1.0
 22
0.0
 32
0.0
 13
1.0
 23
0.0
 33
0.0
 40
0.0
 40
0.0
 40
0.0
 40
0.0
 40
1.0
 40
1.0
 40
1.0
 40
2.0
 40
2.0
 40
2.0
 40
3.0
 40
3.0
 40
3.0
 40
4.0
 40
4.0
 40
4.0
 40
4.0
 10
89.4536118845149
 20
-118.4964680259313
 30
0.0
 10
89.4536118845149
 20
-118.5164352481488
 30
0.0
 10
89.43777216269679
 20
-118.5316046925894
 30
0.0
 10
89.41815771875274
 20
-118.5316046925894
 30
0.0
 10
89.39886077480061
 20
-118.5316046925894
 30
0.0
 10
89.38298577520561
 20
-118.5164352481488
 30
0.0
 10
89.38298577520561
 20
-118.4964680259313
 30
0.0
 10
89.38298577520561
 20
-118.4771710814918
 30
0.0
 10
89.39886077480061
 20
-118.4613313592736
 30
0.0
 10
89.41815771875274
 20
-118.4613313592736
 30
0.0
 10
89.43777216269679
 20
-118.4613313592736
 30
0.0
 10
89.4536118845149
 20
-118.4771710814918
 30
0.0
 10
89.4536118845149
 20
-118.4964680259313
 30
0.0
  0
SPLINE
  5
180
330
1F
100
AcDbEntity
  8
_U+30EC_U+30A4_U+30E4_U+30FC 1
 62
   179
420
  2234388
370
    25
100
AcDbSpline
210
0.0
220
0.0
230
1.0
 70
    11
 71
     3
 72
    17
 73
    13
 74
     0
 42
0.0000000001
 43
0.0000000001
 12
1.0
 22
0.0
 32
0.0
 13
1.0
 23
0.0
 33
0.0
 40
0.0
 40
0.0
 40
0.0
 40
0.0
 40
1.0
 40
1.0
 40
1.0
 40
2.0
 40
2.0
 40
2.0
 40
3.0
 40
3.0
 40
3.0
 40
4.0
 40
4.0
 40
4.0
 40
4.0
 10
79.45356158408188
 20
-138.4962869098205
 30
0.0
 10
79.45356158408188
 20
-138.5155838542597
 30
0.0
 10
79.43768658448688
 20
-138.5314235764783
 30
0.0
 10
79.41807214054285
 20
-138.5314235764783
 30
0.0
 10
79.3987751965907
 20
-138.5314235764783
 30
0.0
 10
79.3829354747726
 20
-138.5155838542597
 30
0.0
 10
79.3829354747726
 20
-138.4962869098205
 30
0.0
 10
79.3829354747726
 20
-138.4769899653807
 30
0.0
 10
79.3987751965907
 20
-138.4611502431628
 30
0.0
 10
79.41807214054285
 20
-138.4611502431628
 30
0.0
 10
79.43768658448688
 20
-138.4611502431628
 30
0.0
 10
79.45356158408188
 20
-138.4769899653807
 30
0.0
 10
79.45356158408188
 20
-138.4962869098205
 30
0.0
  0
SPLINE
  5
181
330
1F
100
AcDbEntity
  8
_U+30EC_U+30A4_U+30E4_U+30FC 1
 62
   179
420
  2234388
370
     9
100
AcDbSpline
210
0.0
220
0.0
230
1.0
 70
    11
 71
     3
 72
    17
 73
    13
 74
     0
 42
0.0000000001
 43
0.0000000001
 12
1.0
 22
0.0
 32
0.0
 13
1.0
 23
0.0
 33
0.0
 40
0.0
 40
0.0
 40
0.0
 40
0.0
 40
1.0
 40
1.0
 40
1.0
 40
2.0
 40
2.0
 40
2.0
 40
3.0
 40
3.0
 40
3.0
 40
4.0
 40
4.0
 40
4.0
 40
4.0
 10
75.45344974168879
 20
-138.4962869098205
 30
0.0
 10
75.45344974168879
 20
-138.5155838542597
 30
0.0
 10
75.43761001987068
 20
-138.5314235764783
 30
0.0
 10
75.41831307591853
 20
-138.5314235764783
 30
0.0
 10
75.39866335419762
 20
-138.5314235764783
 30
0.0
 10
75.3828236323795
 20
-138.5155838542597
 30
0.0
 10
75.3828236323795
 20
-138.4962869098205
 30
0.0
 10
75.3828236323795
 20
-138.4769899653807
 30
0.0
 10
75.39866335419762
 20
-138.4611502431628
 30
0.0
 10
75.41831307591853
 20
-138.4611502431628
 30
0.0
 10
75.43761001987068
 20
-138.4611502431628
 30
0.0
 10
75.45344974168879
 20
-138.4769899653807
 30
0.0
 10
75.45344974168879
 20
-138.4962869098205
 30
0.0
  0
POLYLINE
  5
182
330
1F
100
AcDbEntity
  8
_U+30EC_U+30A4_U+30E4_U+30FC 1
 62
   179
420
  2234388
370
     9
100
AcDb2dPolyline
 66
     1
 10
0.0
 20
0.0
 30
0.0
  0
VERTEX
  5
183
330
182
100
AcDbEntity
  8
_U+30EC_U+30A4_U+30E4_U+30FC 1
 62
   179
420
  2234388
370
     9
100
AcDbVertex
100
AcDb2dVertex
 10
75.41831307591853
 20
-138.4962869098205
 30
0.0
  0
VERTEX
  5
184
330
182
100
AcDbEntity
  8
_U+30EC_U+30A4_U+30E4_U+30FC 1
 62
   179
420
  2234388
370
     9
100
AcDbVertex
100
AcDb2dVertex
 10
75.41831307591853
 20
-140.4965016315423
 30
0.0
  0
SEQEND
  5
185
330
182
100
AcDbEntity
  8
_U+30EC_U+30A4_U+30E4_U+30FC 1
 62
   179
420
  2234388
370
     9
  0
POLYLINE
  5
186
330
1F
100
AcDbEntity
  8
_U+30EC_U+30A4_U+30E4_U+30FC 1
 62
   179
420
  2234388
370
     9
100
AcDb2dPolyline
 66
     1
 10
0.0
 20
0.0
 30
0.0
  0
VERTEX
  5
187
330
186
100
AcDbEntity
  8
_U+30EC_U+30A4_U+30E4_U+30FC 1
 62
   179
420
  2234388
370
     9
100
AcDbVertex
100
AcDb2dVertex
 10
76.87835442755866
 20
-138.4962869098205
 30
0.0
  0
VERTEX
  5
188
330
186
100
AcDbEntity
  8
_U+30EC_U+30A4_U+30E4_U+30FC 1
 62
   179
420
  2234388
370
     9
100
AcDbVertex
100
AcDb2dVertex
 10
74.41818810143386
 20
-138.4962869098205
 30
0.0
  0
SEQEND
  5
189
330
186
100
AcDbEntity
  8
_U+30EC_U+30A4_U+30E4_U+30FC 1
 62
   179
420
  2234388
370
     9
  0
POLYLINE
  5
18A
330
1F
100
AcDbEntity
  8
_U+30EC_U+30A4_U+30E4_U+30FC 1
 62
   179
420
  2234388
370
     9
100
AcDb2dPolyline
 66
     1
 10
0.0
 20
0.0
 30
0.0
  0
VERTEX
  5
18B
330
18A
100
AcDbEntity
  8
_U+30EC_U+30A4_U+30E4_U+30FC 1
 62
   179
420
  2234388
370
     9
100
AcDbVertex
100
AcDb2dVertex
 10
76.87835442755866
 20
-140.4965016315423
 30
0.0
  0
VERTEX
  5
18C
330
18A
100
AcDbEntity
  8
_U+30EC_U+30A4_U+30E4_U+30FC 1
 62
   179
420
  2234388
370
     9
100
AcDbVertex
100
AcDb2dVertex
 10
74.41818810143386
 20
-140.4965016315423
 30
0.0
  0
SEQEND
  5
18D
330
18A
100
AcDbEntity
  8
_U+30EC_U+30A4_U+30E4_U+30FC 1
 62
   179
420
  2234388
370
     9
  0
INSERT
  5
18F
330
1F
100
AcDbEntity
  8
_U+30EC_U+30A4_U+30E4_U+30FC 1
100
AcDbBlockReference
  2
block 8
 10
0.0
 20
0.0
 30
0.0
  0
INSERT
  5
19F
330
1F
100
AcDbEntity
  8
_U+30EC_U+30A4_U+30E4_U+30FC 1
100
AcDbBlockReference
  2
block 9
 10
0.0
 20
0.0
 30
0.0
  0
INSERT
  5
1A4
330
1F
100
AcDbEntity
  8
_U+30EC_U+30A4_U+30E4_U+30FC 1
100
AcDbBlockReference
  2
block 10
 10
0.0
 20
0.0
 30
0.0
  0
INSERT
  5
1A9
330
1F
100
AcDbEntity
  8
_U+30EC_U+30A4_U+30E4_U+30FC 1
100
AcDbBlockReference
  2
block 11
 10
0.0
 20
0.0
 30
0.0
  0
POLYLINE
  5
1AD
330
1F
100
AcDbEntity
  8
_U+30EC_U+30A4_U+30E4_U+30FC 1
 62
   179
420
  2234388
370
    25
100
AcDb2dPolyline
 66
     1
 10
0.0
 20
0.0
 30
0.0
  0
VERTEX
  5
1AE
330
1AD
100
AcDbEntity
  8
_U+30EC_U+30A4_U+30E4_U+30FC 1
 62
   179
420
  2234388
370
    25
100
AcDbVertex
100
AcDb2dVertex
 10
101.4181051903864
 20
-138.4962869098205
 30
0.0
  0
VERTEX
  5
1AF
330
1AD
100
AcDbEntity
  8
_U+30EC_U+30A4_U+30E4_U+30FC 1
 62
   179
420
  2234388
370
    25
100
AcDbVertex
100
AcDb2dVertex
 10
101.4181051903864
 20
-140.495831353765
 30
0.0
  0
SEQEND
  5
1B0
330
1AD
100
AcDbEntity
  8
_U+30EC_U+30A4_U+30E4_U+30FC 1
 62
   179
420
  2234388
370
    25
  0
POLYLINE
  5
1B1
330
1F
100
AcDbEntity
  8
_U+30EC_U+30A4_U+30E4_U+30FC 1
 62
   179
420
  2234388
370
    25
100
AcDb2dPolyline
 66
     1
 10
0.0
 20
0.0
 30
0.0
  0
VERTEX
  5
1B2
330
1B1
100
AcDbEntity
  8
_U+30EC_U+30A4_U+30E4_U+30FC 1
 62
   179
420
  2234388
370
    25
100
AcDbVertex
100
AcDb2dVertex
 10
103.4183198615789
 20
-133.7978513554395
 30
0.0
  0
VERTEX
  5
1B3
330
1B1
100
AcDbEntity
  8
_U+30EC_U+30A4_U+30E4_U+30FC 1
 62
   179
420
  2234388
370
    25
100
AcDbVertex
100
AcDb2dVertex
 10
103.4183198615789
 20
-138.4962869098205
 30
0.0
  0
SEQEND
  5
1B4
330
1B1
100
AcDbEntity
  8
_U+30EC_U+30A4_U+30E4_U+30FC 1
 62
   179
420
  2234388
370
    25
  0
POLYLINE
  5
1B5
330
1F
100
AcDbEntity
  8
_U+30EC_U+30A4_U+30E4_U+30FC 1
 62
   179
420
  2234388
370
    25
100
AcDb2dPolyline
 66
     1
 10
0.0
 20
0.0
 30
0.0
  0
VERTEX
  5
1B6
330
1B5
100
AcDbEntity
  8
_U+30EC_U+30A4_U+30E4_U+30FC 1
 62
   179
420
  2234388
370
    25
100
AcDbVertex
100
AcDb2dVertex
 10
105.4181817550026
 20
-130.94119802282
 30
0.0
  0
VERTEX
  5
1B7
330
1B5
100
AcDbEntity
  8
_U+30EC_U+30A4_U+30E4_U+30FC 1
 62
   179
420
  2234388
370
    25
100
AcDbVertex
100
AcDb2dVertex
 10
105.4181817550026
 20
-135.246180521744
 30
0.0
  0
SEQEND
  5
1B8
330
1B5
100
AcDbEntity
  8
_U+30EC_U+30A4_U+30E4_U+30FC 1
 62
   179
420
  2234388
370
    25
  0
POLYLINE
  5
1B9
330
1F
100
AcDbEntity
  8
_U+30EC_U+30A4_U+30E4_U+30FC 1
 62
   179
420
  2234388
370
    25
100
AcDb2dPolyline
 66
     1
 10
0.0
 20
0.0
 30
0.0
  0
VERTEX
  5
1BA
330
1B9
100
AcDbEntity
  8
_U+30EC_U+30A4_U+30E4_U+30FC 1
 62
   179
420
  2234388
370
    25
100
AcDbVertex
100
AcDb2dVertex
 10
101.4181051903864
 20
-140.495831353765
 30
0.0
  0
VERTEX
  5
1BB
330
1B9
100
AcDbEntity
  8
_U+30EC_U+30A4_U+30E4_U+30FC 1
 62
   179
420
  2234388
370
    25
100
AcDbVertex
100
AcDb2dVertex
 10
105.4181817550026
 20
-140.495831353765
 30
0.0
  0
SEQEND
  5
1BC
330
1B9
100
AcDbEntity
  8
_U+30EC_U+30A4_U+30E4_U+30FC 1
 62
   179
420
  2234388
370
    25
  0
POLYLINE
  5
1BD
330
1F
100
AcDbEntity
  8
_U+30EC_U+30A4_U+30E4_U+30FC 1
 62
   179
420
  2234388
370
    25
100
AcDb2dPolyline
 66
     1
 10
0.0
 20
0.0
 30
0.0
  0
VERTEX
  5
1BE
330
1BD
100
AcDbEntity
  8
_U+30EC_U+30A4_U+30E4_U+30FC 1
 62
   179
420
  2234388
370
    25
100
AcDbVertex
100
AcDb2dVertex
 10
101.4181051903864
 20
-138.4962869098205
 30
0.0
  0
VERTEX
  5
1BF
330
1BD
100
AcDbEntity
  8
_U+30EC_U+30A4_U+30E4_U+30FC 1
 62
   179
420
  2234388
370
    25
100
AcDbVertex
100
AcDb2dVertex
 10
103.4183198615789
 20
-138.4962869098205
 30
0.0
  0
SEQEND
  5
1C0
330
1BD
100
AcDbEntity
  8
_U+30EC_U+30A4_U+30E4_U+30FC 1
 62
   179
420
  2234388
370
    25
  0
POLYLINE
  5
1C1
330
1F
100
AcDbEntity
  8
_U+30EC_U+30A4_U+30E4_U+30FC 1
 62
   179
420
  2234388
370
    25
100
AcDb2dPolyline
 66
     1
 10
0.0
 20
0.0
 30
0.0
  0
VERTEX
  5
1C2
330
1C1
100
AcDbEntity
  8
_U+30EC_U+30A4_U+30E4_U+30FC 1
 62
   179
420
  2234388
370
    25
100
AcDbVertex
100
AcDb2dVertex
 10
105.4181817550026
 20
-136.4960721880981
 30
0.0
  0
VERTEX
  5
1C3
330
1C1
100
AcDbEntity
  8
_U+30EC_U+30A4_U+30E4_U+30FC 1
 62
   179
420
  2234388
370
    25
100
AcDbVertex
100
AcDb2dVertex
 10
106.6680733897818
 20
-136.4960721880981
 30
0.0
  0
SEQEND
  5
1C4
330
1C1
100
AcDbEntity
  8
_U+30EC_U+30A4_U+30E4_U+30FC 1
 62
   179
420
  2234388
370
    25
  0
POLYLINE
  5
1C5
330
1F
100
AcDbEntity
  8
_U+30EC_U+30A4_U+30E4_U+30FC 1
 62
   179
420
  2234388
370
    25
100
AcDb2dPolyline
 66
     1
 10
0.0
 20
0.0
 30
0.0
  0
VERTEX
  5
1C6
330
1C5
100
AcDbEntity
  8
_U+30EC_U+30A4_U+30E4_U+30FC 1
 62
   179
420
  2234388
370
    25
100
AcDbVertex
100
AcDb2dVertex
 10
105.4181817550026
 20
-136.4960721880981
 30
0.0
  0
VERTEX
  5
1C7
330
1C5
100
AcDbEntity
  8
_U+30EC_U+30A4_U+30E4_U+30FC 1
 62
   179
420
  2234388
370
    25
100
AcDbVertex
100
AcDb2dVertex
 10
105.4181817550026
 20
-140.495831353765
 30
0.0
  0
SEQEND
  5
1C8
330
1C5
100
AcDbEntity
  8
_U+30EC_U+30A4_U+30E4_U+30FC 1
 62
   179
420
  2234388
370
    25
  0
POLYLINE
  5
1C9
330
1F
100
AcDbEntity
  8
_U+30EC_U+30A4_U+30E4_U+30FC 1
 62
   179
420
  2234388
370
    25
100
AcDb2dPolyline
 66
     1
 10
0.0
 20
0.0
 30
0.0
  0
VERTEX
  5
1CA
330
1C9
100
AcDbEntity
  8
_U+30EC_U+30A4_U+30E4_U+30FC 1
 62
   179
420
  2234388
370
    25
100
AcDbVertex
100
AcDb2dVertex
 10
105.4181817550026
 20
-135.246180521744
 30
0.0
  0
VERTEX
  5
1CB
330
1C9
100
AcDbEntity
  8
_U+30EC_U+30A4_U+30E4_U+30FC 1
 62
   179
420
  2234388
370
    25
100
AcDbVertex
100
AcDb2dVertex
 10
106.6680733897818
 20
-135.246180521744
 30
0.0
  0
SEQEND
  5
1CC
330
1C9
100
AcDbEntity
  8
_U+30EC_U+30A4_U+30E4_U+30FC 1
 62
   179
420
  2234388
370
    25
  0
POLYLINE
  5
1CD
330
1F
100
AcDbEntity
  8
_U+30EC_U+30A4_U+30E4_U+30FC 1
 62
   179
420
  2234388
370
    25
100
AcDb2dPolyline
 66
     1
 10
0.0
 20
0.0
 30
0.0
  0
VERTEX
  5
1CE
330
1CD
100
AcDbEntity
  8
_U+30EC_U+30A4_U+30E4_U+30FC 1
 62
   179
420
  2234388
370
    25
100
AcDbVertex
100
AcDb2dVertex
 10
106.6680733897818
 20
-135.246180521744
 30
0.0
  0
VERTEX
  5
1CF
330
1CD
100
AcDbEntity
  8
_U+30EC_U+30A4_U+30E4_U+30FC 1
 62
   179
420
  2234388
370
    25
100
AcDbVertex
100
AcDb2dVertex
 10
106.6680733897818
 20
-136.4960721880981
 30
0.0
  0
SEQEND
  5
1D0
330
1CD
100
AcDbEntity
  8
_U+30EC_U+30A4_U+30E4_U+30FC 1
 62
   179
420
  2234388
370
    25
  0
SPLINE
  5
1D1
330
1F
100
AcDbEntity
  8
_U+30EC_U+30A4_U+30E4_U+30FC 1
 62
   179
420
  2234388
370
    25
100
AcDbSpline
210
0.0
220
0.0
230
1.0
 70
    11
 71
     3
 72
    17
 73
    13
 74
     0
 42
0.0000000001
 43
0.0000000001
 12
1.0
 22
0.0
 32
0.0
 13
1.0
 23
0.0
 33
0.0
 40
0.0
 40
0.0
 40
0.0
 40
0.0
 40
1.0
 40
1.0
 40
1.0
 40
2.0
 40
2.0
 40
2.0
 40
3.0
 40
3.0
 40
3.0
 40
4.0
 40
4.0
 40
4.0
 40
4.0
 10
101.4535971968585
 20
-140.495831353765
 30
0.0
 10
101.4535971968585
 20
-140.5157985759822
 30
0.0
 10
101.4377221968631
 20
-140.5316382982007
 30
0.0
 10
101.4181051903864
 20
-140.5316382982007
 30
0.0
 10
101.3988082464342
 20
-140.5316382982007
 30
0.0
 10
101.3829685246161
 20
-140.5157985759822
 30
0.0
 10
101.3829685246161
 20
-140.495831353765
 30
0.0
 10
101.3829685246161
 20
-140.4765344093252
 30
0.0
 10
101.3988082464342
 20
-140.4606946871073
 30
0.0
 10
101.4181051903864
 20
-140.4606946871073
 30
0.0
 10
101.4377221968631
 20
-140.4606946871073
 30
0.0
 10
101.4535971968585
 20
-140.4765344093252
 30
0.0
 10
101.4535971968585
 20
-140.495831353765
 30
0.0
  0
SPLINE
  5
1D2
330
1F
100
AcDbEntity
  8
_U+30EC_U+30A4_U+30E4_U+30FC 1
 62
   179
420
  2234388
370
    25
100
AcDbSpline
210
0.0
220
0.0
230
1.0
 70
    11
 71
     3
 72
    17
 73
    13
 74
     0
 42
0.0000000001
 43
0.0000000001
 12
1.0
 22
0.0
 32
0.0
 13
1.0
 23
0.0
 33
0.0
 40
0.0
 40
0.0
 40
0.0
 40
0.0
 40
1.0
 40
1.0
 40
1.0
 40
2.0
 40
2.0
 40
2.0
 40
3.0
 40
3.0
 40
3.0
 40
4.0
 40
4.0
 40
4.0
 40
4.0
 10
101.4535971968585
 20
-140.495831353765
 30
0.0
 10
101.4535971968585
 20
-140.5157985759822
 30
0.0
 10
101.4377221968631
 20
-140.5316382982007
 30
0.0
 10
101.4181051903864
 20
-140.5316382982007
 30
0.0
 10
101.3988082464342
 20
-140.5316382982007
 30
0.0
 10
101.3829685246161
 20
-140.5157985759822
 30
0.0
 10
101.3829685246161
 20
-140.495831353765
 30
0.0
 10
101.3829685246161
 20
-140.4765344093252
 30
0.0
 10
101.3988082464342
 20
-140.4606946871073
 30
0.0
 10
101.4181051903864
 20
-140.4606946871073
 30
0.0
 10
101.4377221968631
 20
-140.4606946871073
 30
0.0
 10
101.4535971968585
 20
-140.4765344093252
 30
0.0
 10
101.4535971968585
 20
-140.495831353765
 30
0.0
  0
SPLINE
  5
1D3
330
1F
100
AcDbEntity
  8
_U+30EC_U+30A4_U+30E4_U+30FC 1
 62
   179
420
  2234388
370
    25
100
AcDbSpline
210
0.0
220
0.0
230
1.0
 70
    11
 71
     3
 72
    17
 73
    13
 74
     0
 42
0.0000000001
 43
0.0000000001
 12
1.0
 22
0.0
 32
0.0
 13
1.0
 23
0.0
 33
0.0
 40
0.0
 40
0.0
 40
0.0
 40
0.0
 40
1.0
 40
1.0
 40
1.0
 40
2.0
 40
2.0
 40
2.0
 40
3.0
 40
3.0
 40
3.0
 40
4.0
 40
4.0
 40
4.0
 40
4.0
 10
105.4533536985497
 20
-140.495831353765
 30
0.0
 10
105.4533536985497
 20
-140.5157985759822
 30
0.0
 10
105.4378314767235
 20
-140.5316382982007
 30
0.0
 10
105.4181817550026
 20
-140.5316382982007
 30
0.0
 10
105.3989200888273
 20
-140.5316382982007
 30
0.0
 10
105.3830450892323
 20
-140.5157985759822
 30
0.0
 10
105.3830450892323
 20
-140.495831353765
 30
0.0
 10
105.3830450892323
 20
-140.4765344093252
 30
0.0
 10
105.3989200888273
 20
-140.4606946871073
 30
0.0
 10
105.4181817550026
 20
-140.4606946871073
 30
0.0
 10
105.4378314767235
 20
-140.4606946871073
 30
0.0
 10
105.4533536985497
 20
-140.4765344093252
 30
0.0
 10
105.4533536985497
 20
-140.495831353765
 30
0.0
  0
ENDSEC
  0
SECTION
  2
OBJECTS
  0
DICTIONARY
  5
C
330
0
100
AcDbDictionary
281
     1
  3
ACAD_GROUP
350
D
  3
ACAD_LAYOUT
350
1A
  3
ACAD_MATERIAL
350
3B
  3
ACAD_MLEADERSTYLE
350
1D5
  3
ACAD_MLINESTYLE
350
17
  3
ACAD_PLOTSETTINGS
350
19
  3
ACAD_PLOTSTYLENAME
350
E
  3
ACAD_TABLESTYLE
350
1D4
  3
ACAD_VISUALSTYLE
350
2A
  0
SUN
  5
3F
330
29
100
AcDbSun
 90
        1
290
     0
 63
     7
421
 16777215
 40
1.0
291
     1
 91
  2455826
 92
 54000000
292
     0
 70
     2
 71
   256
280
     1
  0
DICTIONARY
  5
D
102
{ACAD_REACTORS
330
C
102
}
330
C
100
AcDbDictionary
281
     1
  0
DICTIONARY
  5
1A
102
{ACAD_REACTORS
330
C
102
}
330
C
100
AcDbDictionary
281
     1
  3
Layout1
350
1E
  3
Layout2
350
26
  3
Model
350
22
  0
DICTIONARY
  5
3B
102
{ACAD_REACTORS
330
C
102
}
330
C
100
AcDbDictionary
281
     1
  3
ByBlock
350
3D
  3
ByLayer
350
3C
  3
Global
350
3E
  0
DICTIONARY
  5
1D5
102
{ACAD_REACTORS
330
C
102
}
330
C
100
AcDbDictionary
281
     1
  0
DICTIONARY
  5
17
102
{ACAD_REACTORS
330
C
102
}
330
C
100
AcDbDictionary
281
     1
  3
Standard
350
18
  0
DICTIONARY
  5
19
102
{ACAD_REACTORS
330
C
102
}
330
C
100
AcDbDictionary
281
     1
  0
ACDBDICTIONARYWDFLT
  5
E
102
{ACAD_REACTORS
330
C
102
}
330
C
100
AcDbDictionary
281
     1
  3
Normal
350
F
100
AcDbDictionaryWithDefault
340
F
  0
DICTIONARY
  5
1D4
102
{ACAD_REACTORS
330
C
102
}
330
C
100
AcDbDictionary
281
     1
  0
DICTIONARY
  5
2A
102
{ACAD_REACTORS
330
C
102
}
330
C
100
AcDbDictionary
281
     1
  3
2dWireframe
350
2F
  3
3D Hidden
350
31
  3
3dWireframe
350
30
  3
Basic
350
32
  3
Brighten
350
36
  3
ColorChange
350
3A
  3
Conceptual
350
34
  3
Dim
350
35
  3
Facepattern
350
39
  3
Flat
350
2B
  3
FlatWithEdges
350
2C
  3
Gouraud
350
2D
  3
GouraudWithEdges
350
2E
  3
Linepattern
350
38
  3
Realistic
350
33
  3
Thicken
350
37
  0
LAYOUT
  5
1E
102
{ACAD_REACTORS
330
1A
102
}
330
1A
100
AcDbPlotSettings
  1

  2
none_device
  4

  6

 40
0.0
 41
0.0
 42
0.0
 43
0.0
 44
0.0
 45
0.0
 46
0.0
 47
0.0
 48
0.0
 49
0.0
140
0.0
141
0.0
142
1.0
143
1.0
 70
   688
 72
     0
 73
     0
 74
     5
  7

 75
    16
 76
     0
 77
     2
 78
   300
147
1.0
148
0.0
149
0.0
100
AcDbLayout
  1
Layout1
 70
     1
 71
     1
 10
0.0
 20
0.0
 11
12.0
 21
9.0
 12
0.0
 22
0.0
 32
0.0
 14
1.000000000000000E+20
 24
1.000000000000000E+20
 34
1.000000000000000E+20
 15
-1.000000000000000E+20
 25
-1.000000000000000E+20
 35
-1.000000000000000E+20
146
0.0
 13
0.0
 23
0.0
 33
0.0
 16
1.0
 26
0.0
 36
0.0
 17
0.0
 27
1.0
 37
0.0
 76
     0
330
1B
  0
LAYOUT
  5
26
102
{ACAD_REACTORS
330
1A
102
}
330
1A
100
AcDbPlotSettings
  1

  2
none_device
  4

  6

 40
0.0
 41
0.0
 42
0.0
 43
0.0
 44
0.0
 45
0.0
 46
0.0
 47
0.0
 48
0.0
 49
0.0
140
0.0
141
0.0
142
1.0
143
1.0
 70
   688
 72
     0
 73
     0
 74
     5
  7

 75
    16
 76
     0
 77
     2
 78
   300
147
1.0
148
0.0
149
0.0
100
AcDbLayout
  1
Layout2
 70
     1
 71
     2
 10
0.0
 20
0.0
 11
0.0
 21
0.0
 12
0.0
 22
0.0
 32
0.0
 14
0.0
 24
0.0
 34
0.0
 15
0.0
 25
0.0
 35
0.0
146
0.0
 13
0.0
 23
0.0
 33
0.0
 16
1.0
 26
0.0
 36
0.0
 17
0.0
 27
1.0
 37
0.0
 76
     0
330
23
  0
LAYOUT
  5
22
102
{ACAD_REACTORS
330
1A
102
}
330
1A
100
AcDbPlotSettings
  1

  2
none_device
  4

  6

 40
0.0
 41
0.0
 42
0.0
 43
0.0
 44
0.0
 45
0.0
 46
0.0
 47
0.0
 48
0.0
 49
0.0
140
0.0
141
0.0
142
1.0
143
1.0
 70
  1712
 72
     0
 73
     0
 74
     0
  7

 75
     0
 76
     0
 77
     2
 78
   300
147
1.0
148
0.0
149
0.0
100
AcDbLayout
  1
Model
 70
     1
 71
     0
 10
0.0
 20
0.0
 11
12.0
 21
9.0
 12
0.0
 22
0.0
 32
0.0
 14
1.000000000000000E+20
 24
1.000000000000000E+20
 34
1.000000000000000E+20
 15
-1.000000000000000E+20
 25
-1.000000000000000E+20
 35
-1.000000000000000E+20
146
0.0
 13
0.0
 23
0.0
 33
0.0
 16
1.0
 26
0.0
 36
0.0
 17
0.0
 27
1.0
 37
0.0
 76
     0
330
1F
331
29
  0
MATERIAL
  5
3D
102
{ACAD_REACTORS
330
3B
102
}
330
3B
100
AcDbMaterial
  1
ByBlock
 72
     1
 94
      127
  0
MATERIAL
  5
3C
102
{ACAD_REACTORS
330
3B
102
}
330
3B
100
AcDbMaterial
  1
ByLayer
 72
     1
 94
      127
  0
MATERIAL
  5
3E
102
{ACAD_REACTORS
330
3B
102
}
330
3B
100
AcDbMaterial
  1
Global
 72
     1
 94
      127
  0
MLINESTYLE
  5
18
102
{ACAD_REACTORS
330
17
102
}
330
17
100
AcDbMlineStyle
  2
Standard
 70
     0
  3

 62
   256
 51
90.0
 52
90.0
 71
     2
 49
0.5
 62
   256
  6
BYLAYER
 49
-0.5
 62
   256
  6
BYLAYER
  0
ACDBPLACEHOLDER
  5
F
102
{ACAD_REACTORS
330
E
102
}
330
E
  0
VISUALSTYLE
  5
2F
102
{ACAD_REACTORS
330
2A
102
}
330
2A
100
AcDbVisualStyle
  2
2dWireframe
 70
     4
177
     2
291
     0
 71
     0
176
     1
 72
     2
176
     1
 73
     0
176
     1
 90
        0
176
     1
 40
-0.6
176
     1
 41
-30.0
176
     1
 62
     5
 63
     7
421
 16777215
176
     1
 74
     1
176
     1
 91
        4
176
     1
 64
     7
176
     1
 65
   257
176
     1
 75
     1
176
     1
175
     1
176
     1
 42
1.0
176
     1
 92
        0
176
     1
 66
   257
176
     1
 43
1.0
176
     1
 76
     1
176
     1
 77
     6
176
     1
 78
     2
176
     1
 67
     7
176
     1
 79
     5
176
     1
170
     0
176
     1
171
     0
176
     1
290
     0
176
     1
 93
        1
176
     1
 44
0.0
176
     1
173
     0
176
     1
  0
VISUALSTYLE
  5
31
102
{ACAD_REACTORS
330
2A
102
}
330
2A
100
AcDbVisualStyle
  2
3D Hidden
 70
     6
177
     2
291
     0
 71
     1
176
     1
 72
     2
176
     1
 73
     2
176
     1
 90
        0
176
     1
 40
-0.6
176
     1
 41
-30.0
176
     1
 62
     5
 63
     7
421
 16777215
176
     1
 74
     2
176
     1
 91
        2
176
     1
 64
     7
176
     1
 65
   257
176
     1
 75
     2
176
     1
175
     1
176
     1
 42
40.0
176
     1
 92
        0
176
     1
 66
   257
176
     1
 43
1.0
176
     1
 76
     1
176
     1
 77
     6
176
     1
 78
     2
176
     1
 67
     7
176
     1
 79
     3
176
     1
170
     0
176
     1
171
     0
176
     1
290
     0
176
     1
 93
        1
176
     1
 44
0.0
176
     1
173
     0
176
     1
  0
VISUALSTYLE
  5
30
102
{ACAD_REACTORS
330
2A
102
}
330
2A
100
AcDbVisualStyle
  2
3dWireframe
 70
     5
177
     2
291
     0
 71
     0
176
     1
 72
     2
176
     1
 73
     0
176
     1
 90
        0
176
     1
 40
-0.6
176
     1
 41
-30.0
176
     1
 62
     5
 63
     7
421
 16777215
176
     1
 74
     1
176
     1
 91
        4
176
     1
 64
     7
176
     1
 65
   257
176
     1
 75
     1
176
     1
175
     1
176
     1
 42
1.0
176
     1
 92
        0
176
     1
 66
   257
176
     1
 43
1.0
176
     1
 76
     1
176
     1
 77
     6
176
     1
 78
     2
176
     1
 67
     7
176
     1
 79
     5
176
     1
170
     0
176
     1
171
     0
176
     1
290
     0
176
     1
 93
        1
176
     1
 44
0.0
176
     1
173
     0
176
     1
  0
VISUALSTYLE
  5
32
102
{ACAD_REACTORS
330
2A
102
}
330
2A
100
AcDbVisualStyle
  2
Basic
 70
     7
177
     2
291
     1
 71
     1
176
     1
 72
     0
176
     1
 73
     1
176
     1
 90
        0
176
     1
 40
-0.6
176
     1
 41
-30.0
176
     1
 62
     5
 63
     7
421
 16777215
176
     1
 74
     0
176
     1
 91
        4
176
     1
 64
     7
176
     1
 65
   257
176
     1
 75
     1
176
     1
175
     1
176
     1
 42
1.0
176
     1
 92
        8
176
     1
 66
     7
176
     1
 43
1.0
176
     1
 76
     1
176
     1
 77
     6
176
     1
 78
     2
176
     1
 67
     7
176
     1
 79
     5
176
     1
170
     0
176
     1
171
     0
176
     1
290
     0
176
     1
 93
        1
176
     1
 44
0.0
176
     1
173
     0
176
     1
  0
VISUALSTYLE
  5
36
102
{ACAD_REACTORS
330
2A
102
}
330
2A
100
AcDbVisualStyle
  2
Brighten
 70
    12
177
     2
291
     1
 71
     2
176
     1
 72
     2
176
     1
 73
     0
176
     1
 90
        0
176
     1
 40
-0.6
176
     1
 41
-30.0
176
     1
 62
     5
 63
     7
421
 16777215
176
     1
 74
     1
176
     1
 91
        4
176
     1
 64
     7
176
     1
 65
   257
176
     1
 75
     1
176
     1
175
     1
176
     1
 42
1.0
176
     1
 92
        8
176
     1
 66
     7
176
     1
 43
1.0
176
     1
 76
     1
176
     1
 77
     6
176
     1
 78
     2
176
     1
 67
     7
176
     1
 79
     5
176
     1
170
     0
176
     1
171
     0
176
     1
290
     0
176
     1
 93
        1
176
     1
 44
50.0
176
     1
173
     0
176
     1
  0
VISUALSTYLE
  5
3A
102
{ACAD_REACTORS
330
2A
102
}
330
2A
100
AcDbVisualStyle
  2
ColorChange
 70
    16
177
     2
291
     1
 71
     2
176
     1
 72
     2
176
     1
 73
     3
176
     1
 90
        0
176
     1
 40
-0.6
176
     1
 41
-30.0
176
     1
 62
     5
 63
     8
421
  8421504
176
     1
 74
     1
176
     1
 91
        4
176
     1
 64
     7
176
     1
 65
   257
176
     1
 75
     1
176
     1
175
     1
176
     1
 42
1.0
176
     1
 92
        8
176
     1
 66
     8
424
  8421504
176
     1
 43
1.0
176
     1
 76
     1
176
     1
 77
     6
176
     1
 78
     2
176
     1
 67
     7
176
     1
 79
     5
176
     1
170
     0
176
     1
171
     0
176
     1
290
     0
176
     1
 93
        1
176
     1
 44
0.0
176
     1
173
     0
176
     1
  0
VISUALSTYLE
  5
34
102
{ACAD_REACTORS
330
2A
102
}
330
2A
100
AcDbVisualStyle
  2
Conceptual
 70
     9
177
     2
291
     0
 71
     3
176
     1
 72
     2
176
     1
 73
     0
176
     1
 90
        0
176
     1
 40
-0.6
176
     1
 41
-30.0
176
     1
 62
     5
 63
     7
421
 16777215
176
     1
 74
     2
176
     1
 91
        2
176
     1
 64
     7
176
     1
 65
   257
176
     1
 75
     1
176
     1
175
     1
176
     1
 42
40.0
176
     1
 92
        8
176
     1
 66
     7
176
     1
 43
1.0
176
     1
 76
     1
176
     1
 77
     6
176
     1
 78
     2
176
     1
 67
     7
176
     1
 79
     3
176
     1
170
     0
176
     1
171
     0
176
     1
290
     0
176
     1
 93
        1
176
     1
 44
0.0
176
     1
173
     0
176
     1
  0
VISUALSTYLE
  5
35
102
{ACAD_REACTORS
330
2A
102
}
330
2A
100
AcDbVisualStyle
  2
Dim
 70
    11
177
     2
291
     1
 71
     2
176
     1
 72
     2
176
     1
 73
     0
176
     1
 90
        0
176
     1
 40
-0.6
176
     1
 41
-30.0
176
     1
 62
     5
 63
     7
421
 16777215
176
     1
 74
     1
176
     1
 91
        4
176
     1
 64
     7
176
     1
 65
   257
176
     1
 75
     1
176
     1
175
     1
176
     1
 42
1.0
176
     1
 92
        8
176
     1
 66
     7
176
     1
 43
1.0
176
     1
 76
     1
176
     1
 77
     6
176
     1
 78
     2
176
     1
 67
     7
176
     1
 79
     5
176
     1
170
     0
176
     1
171
     0
176
     1
290
     0
176
     1
 93
        1
176
     1
 44
-50.0
176
     1
173
     0
176
     1
  0
VISUALSTYLE
  5
39
102
{ACAD_REACTORS
330
2A
102
}
330
2A
100
AcDbVisualStyle
  2
Facepattern
 70
    15
177
     2
291
     1
 71
     2
176
     1
 72
     2
176
     1
 73
     0
176
     1
 90
        0
176
     1
 40
-0.6
176
     1
 41
-30.0
176
     1
 62
     5
 63
     7
421
 16777215
176
     1
 74
     1
176
     1
 91
        4
176
     1
 64
     7
176
     1
 65
   257
176
     1
 75
     1
176
     1
175
     1
176
     1
 42
1.0
176
     1
 92
        8
176
     1
 66
     7
176
     1
 43
1.0
176
     1
 76
     1
176
     1
 77
     6
176
     1
 78
     2
176
     1
 67
     7
176
     1
 79
     5
176
     1
170
     0
176
     1
171
     0
176
     1
290
     0
176
     1
 93
        1
176
     1
 44
0.0
176
     1
173
     0
176
     1
  0
VISUALSTYLE
  5
2B
102
{ACAD_REACTORS
330
2A
102
}
330
2A
100
AcDbVisualStyle
  2
Flat
 70
     0
177
     2
291
     1
 71
     2
176
     1
 72
     1
176
     1
 73
     1
176
     1
 90
        2
176
     1
 40
-0.6
176
     1
 41
30.0
176
     1
 62
     5
 63
     7
421
 16777215
176
     1
 74
     0
176
     1
 91
        4
176
     1
 64
     7
176
     1
 65
   257
176
     1
 75
     1
176
     1
175
     1
176
     1
 42
1.0
176
     1
 92
        8
176
     1
 66
     7
176
     1
 43
1.0
176
     1
 76
     1
176
     1
 77
     6
176
     1
 78
     2
176
     1
 67
     7
176
     1
 79
     5
176
     1
170
     0
176
     1
171
     0
176
     1
290
     0
176
     1
 93
       13
176
     1
 44
0.0
176
     1
173
     0
176
     1
  0
VISUALSTYLE
  5
2C
102
{ACAD_REACTORS
330
2A
102
}
330
2A
100
AcDbVisualStyle
  2
FlatWithEdges
 70
     1
177
     2
291
     1
 71
     2
176
     1
 72
     1
176
     1
 73
     1
176
     1
 90
        2
176
     1
 40
-0.6
176
     1
 41
30.0
176
     1
 62
     5
 63
     7
421
 16777215
176
     1
 74
     1
176
     1
 91
        4
176
     1
 64
     7
176
     1
 65
   257
176
     1
 75
     1
176
     1
175
     1
176
     1
 42
1.0
176
     1
 92
        0
176
     1
 66
   257
176
     1
 43
1.0
176
     1
 76
     1
176
     1
 77
     6
176
     1
 78
     2
176
     1
 67
     7
176
     1
 79
     5
176
     1
170
     0
176
     1
171
     0
176
     1
290
     0
176
     1
 93
       13
176
     1
 44
0.0
176
     1
173
     0
176
     1
  0
VISUALSTYLE
  5
2D
102
{ACAD_REACTORS
330
2A
102
}
330
2A
100
AcDbVisualStyle
  2
Gouraud
 70
     2
177
     2
291
     1
 71
     2
176
     1
 72
     2
176
     1
 73
     1
176
     1
 90
        2
176
     1
 40
-0.6
176
     1
 41
30.0
176
     1
 62
     5
 63
     7
421
 16777215
176
     1
 74
     0
176
     1
 91
        4
176
     1
 64
     7
176
     1
 65
   257
176
     1
 75
     1
176
     1
175
     1
176
     1
 42
1.0
176
     1
 92
        0
176
     1
 66
     7
176
     1
 43
1.0
176
     1
 76
     1
176
     1
 77
     6
176
     1
 78
     2
176
     1
 67
     7
176
     1
 79
     5
176
     1
170
     0
176
     1
171
     0
176
     1
290
     0
176
     1
 93
       13
176
     1
 44
0.0
176
     1
173
     0
176
     1
  0
VISUALSTYLE
  5
2E
102
{ACAD_REACTORS
330
2A
102
}
330
2A
100
AcDbVisualStyle
  2
GouraudWithEdges
 70
     3
177
     2
291
     1
 71
     2
176
     1
 72
     2
176
     1
 73
     1
176
     1
 90
        2
176
     1
 40
-0.6
176
     1
 41
30.0
176
     1
 62
     5
 63
     7
421
 16777215
176
     1
 74
     1
176
     1
 91
        4
176
     1
 64
     7
176
     1
 65
   257
176
     1
 75
     1
176
     1
175
     1
176
     1
 42
1.0
176
     1
 92
        0
176
     1
 66
   257
176
     1
 43
1.0
176
     1
 76
     1
176
     1
 77
     6
176
     1
 78
     2
176
     1
 67
     7
176
     1
 79
     5
176
     1
170
     0
176
     1
171
     0
176
     1
290
     0
176
     1
 93
       13
176
     1
 44
0.0
176
     1
173
     0
176
     1
  0
VISUALSTYLE
  5
38
102
{ACAD_REACTORS
330
2A
102
}
330
2A
100
AcDbVisualStyle
  2
Linepattern
 70
    14
177
     2
291
     1
 71
     2
176
     1
 72
     2
176
     1
 73
     0
176
     1
 90
        0
176
     1
 40
-0.6
176
     1
 41
-30.0
176
     1
 62
     5
 63
     7
421
 16777215
176
     1
 74
     1
176
     1
 91
        4
176
     1
 64
     7
176
     1
 65
   257
176
     1
 75
     7
176
     1
175
     7
176
     1
 42
1.0
176
     1
 92
        8
176
     1
 66
     7
176
     1
 43
1.0
176
     1
 76
     1
176
     1
 77
     6
176
     1
 78
     2
176
     1
 67
     7
176
     1
 79
     5
176
     1
170
     0
176
     1
171
     0
176
     1
290
     0
176
     1
 93
        1
176
     1
 44
0.0
176
     1
173
     0
176
     1
  0
VISUALSTYLE
  5
33
102
{ACAD_REACTORS
330
2A
102
}
330
2A
100
AcDbVisualStyle
  2
Realistic
 70
     8
177
     2
291
     0
 71
     2
176
     1
 72
     2
176
     1
 73
     0
176
     1
 90
        0
176
     1
 40
-0.6
176
     1
 41
-30.0
176
     1
 62
     5
 63
     7
421
 16777215
176
     1
 74
     1
176
     1
 91
        0
176
     1
 64
     7
176
     1
 65
   257
176
     1
 75
     1
176
     1
175
     1
176
     1
 42
1.0
176
     1
 92
        8
176
     1
 66
     8
424
  7895160
176
     1
 43
1.0
176
     1
 76
     1
176
     1
 77
     6
176
     1
 78
     2
176
     1
 67
     7
176
     1
 79
     5
176
     1
170
     0
176
     1
171
     0
176
     1
290
     0
176
     1
 93
       13
176
     1
 44
0.0
176
     1
173
     0
176
     1
  0
VISUALSTYLE
  5
37
102
{ACAD_REACTORS
330
2A
102
}
330
2A
100
AcDbVisualStyle
  2
Thicken
 70
    13
177
     2
291
     1
 71
     2
176
     1
 72
     2
176
     1
 73
     0
176
     1
 90
        0
176
     1
 40
-0.6
176
     1
 41
-30.0
176
     1
 62
     5
 63
     7
421
 16777215
176
     1
 74
     1
176
     1
 91
        4
176
     1
 64
     7
176
     1
 65
   257
176
     1
 75
     1
176
     1
175
     1
176
     1
 42
1.0
176
     1
 92
       12
176
     1
 66
     7
176
     1
 43
1.0
176
     1
 76
     1
176
     1
 77
     6
176
     1
 78
     2
176
     1
 67
     7
176
     1
 79
     5
176
     1
170
     0
176
     1
171
     0
176
     1
290
     0
176
     1
 93
        1
176
     1
 44
0.0
176
     1
173
     0
176
     1
  0
ENDSEC
  0
EOF
