  0
SECTION
  2
HEADER
  9
$ACADVER
  1
AC1024
  9
$ACADMAINTVER
 70
     6
  9
$DWGCODEPAGE
  3
UNDEFINED
  9
$INSBASE
 10
0.0
 20
0.0
 30
0.0
  9
$EXTMIN
 10
1.000000000000000E+20
 20
1.000000000000000E+20
 30
1.000000000000000E+20
  9
$EXTMAX
 10
-1.000000000000000E+20
 20
-1.000000000000000E+20
 30
-1.000000000000000E+20
  9
$LIMMIN
 10
0.0
 20
0.0
  9
$LIMMAX
 10
12.0
 20
9.0
  9
$ORTHOMODE
 70
     0
  9
$REGENMODE
 70
     1
  9
$FILLMODE
 70
     1
  9
$QTEXTMODE
 70
     0
  9
$MIRRTEXT
 70
     1
  9
$LTSCALE
 40
1.0
  9
$ATTMODE
 70
     1
  9
$TEXTSIZE
 40
0.2
  9
$TRACEWID
 40
0.05
  9
$TEXTSTYLE
  7
Standard
  9
$CLAYER
  8
0
  9
$CELTYPE
  6
ByLayer
  9
$CECOLOR
 62
   256
  9
$CELTSCALE
 40
1.0
  9
$DISPSILH
 70
     0
  9
$DIMSCALE
 40
1.0
  9
$DIMASZ
 40
0.18
  9
$DIMEXO
 40
0.0625
  9
$DIMDLI
 40
0.38
  9
$DIMRND
 40
0.0
  9
$DIMDLE
 40
0.0
  9
$DIMEXE
 40
0.18
  9
$DIMTP
 40
0.0
  9
$DIMTM
 40
0.0
  9
$DIMTXT
 40
0.18
  9
$DIMCEN
 40
0.09
  9
$DIMTSZ
 40
0.0
  9
$DIMTOL
 70
     0
  9
$DIMLIM
 70
     0
  9
$DIMTIH
 70
     1
  9
$DIMTOH
 70
     1
  9
$DIMSE1
 70
     0
  9
$DIMSE2
 70
     0
  9
$DIMTAD
 70
     0
  9
$DIMZIN
 70
     0
  9
$DIMBLK
  1

  9
$DIMASO
 70
     1
  9
$DIMSHO
 70
     1
  9
$DIMPOST
  1

  9
$DIMAPOST
  1

  9
$DIMALT
 70
     0
  9
$DIMALTD
 70
     2
  9
$DIMALTF
 40
25.4
  9
$DIMLFAC
 40
1.0
  9
$DIMTOFL
 70
     0
  9
$DIMTVP
 40
0.0
  9
$DIMTIX
 70
     0
  9
$DIMSOXD
 70
     0
  9
$DIMSAH
 70
     0
  9
$DIMBLK1
  1

  9
$DIMBLK2
  1

  9
$DIMSTYLE
  2
Standard
  9
$DIMCLRD
 70
     0
  9
$DIMCLRE
 70
     0
  9
$DIMCLRT
 70
     0
  9
$DIMTFAC
 40
1.0
  9
$DIMGAP
 40
0.09
  9
$DIMJUST
 70
     0
  9
$DIMSD1
 70
     0
  9
$DIMSD2
 70
     0
  9
$DIMTOLJ
 70
     1
  9
$DIMTZIN
 70
     0
  9
$DIMALTZ
 70
     0
  9
$DIMALTTZ
 70
     0
  9
$DIMUPT
 70
     0
  9
$DIMDEC
 70
     4
  9
$DIMTDEC
 70
     4
  9
$DIMALTU
 70
     2
  9
$DIMALTTD
 70
     2
  9
$DIMTXSTY
  7
Standard
  9
$DIMAUNIT
 70
     0
  9
$DIMADEC
 70
     0
  9
$DIMALTRND
 40
0.0
  9
$DIMAZIN
 70
     0
  9
$DIMDSEP
 70
    46
  9
$DIMATFIT
 70
     3
  9
$DIMFRAC
 70
     0
  9
$DIMLDRBLK
  1

  9
$DIMLUNIT
 70
     2
  9
$DIMLWD
 70
    -2
  9
$DIMLWE
 70
    -2
  9
$DIMTMOVE
 70
     0
  9
$DIMFXL
 40
1.0
  9
$DIMFXLON
 70
     0
  9
$DIMJOGANG
 40
0.7853981633974483
  9
$DIMTFILL
 70
     0
  9
$DIMTFILLCLR
 70
     0
  9
$DIMARCSYM
 70
     0
  9
$DIMLTYPE
  6

  9
$DIMLTEX1
  6

  9
$DIMLTEX2
  6

  9
$DIMTXTDIRECTION
 70
     0
  9
$LUNITS
 70
     2
  9
$LUPREC
 70
     4
  9
$SKETCHINC
 40
0.1
  9
$FILLETRAD
 40
0.5
  9
$AUNITS
 70
     0
  9
$AUPREC
 70
     0
  9
$MENU
  1
.
  9
$ELEVATION
 40
0.0
  9
$PELEVATION
 40
0.0
  9
$THICKNESS
 40
0.0
  9
$LIMCHECK
 70
     0
  9
$CHAMFERA
 40
0.5
  9
$CHAMFERB
 40
0.5
  9
$CHAMFERC
 40
1.0
  9
$CHAMFERD
 40
0.0
  9
$SKPOLY
 70
     0
  9
$TDCREATE
 40
2457917.628668982
  9
$TDUCREATE
 40
2457917.253668982
  9
$TDUPDATE
 40
2457917.628668982
  9
$TDUUPDATE
 40
2457917.253668982
  9
$TDINDWG
 40
0.0000000116
  9
$TDUSRTIMER
 40
0.0000000116
  9
$USRTIMER
 70
     1
  9
$ANGBASE
 50
0.0
  9
$ANGDIR
 70
     0
  9
$PDMODE
 70
     0
  9
$PDSIZE
 40
0.0
  9
$PLINEWID
 40
0.0
  9
$SPLFRAME
 70
     0
  9
$SPLINETYPE
 70
     6
  9
$SPLINESEGS
 70
     8
  9
$HANDSEED
  5
CC
  9
$SURFTAB1
 70
     6
  9
$SURFTAB2
 70
     6
  9
$SURFTYPE
 70
     6
  9
$SURFU
 70
     6
  9
$SURFV
 70
     6
  9
$UCSBASE
  2

  9
$UCSNAME
  2

  9
$UCSORG
 10
0.0
 20
0.0
 30
0.0
  9
$UCSXDIR
 10
1.0
 20
0.0
 30
0.0
  9
$UCSYDIR
 10
0.0
 20
1.0
 30
0.0
  9
$UCSORTHOREF
  2

  9
$UCSORTHOVIEW
 70
     0
  9
$UCSORGTOP
 10
0.0
 20
0.0
 30
0.0
  9
$UCSORGBOTTOM
 10
0.0
 20
0.0
 30
0.0
  9
$UCSORGLEFT
 10
0.0
 20
0.0
 30
0.0
  9
$UCSORGRIGHT
 10
0.0
 20
0.0
 30
0.0
  9
$UCSORGFRONT
 10
0.0
 20
0.0
 30
0.0
  9
$UCSORGBACK
 10
0.0
 20
0.0
 30
0.0
  9
$PUCSBASE
  2

  9
$PUCSNAME
  2

  9
$PUCSORG
 10
0.0
 20
0.0
 30
0.0
  9
$PUCSXDIR
 10
1.0
 20
0.0
 30
0.0
  9
$PUCSYDIR
 10
0.0
 20
1.0
 30
0.0
  9
$PUCSORTHOREF
  2

  9
$PUCSORTHOVIEW
 70
     0
  9
$PUCSORGTOP
 10
0.0
 20
0.0
 30
0.0
  9
$PUCSORGBOTTOM
 10
0.0
 20
0.0
 30
0.0
  9
$PUCSORGLEFT
 10
0.0
 20
0.0
 30
0.0
  9
$PUCSORGRIGHT
 10
0.0
 20
0.0
 30
0.0
  9
$PUCSORGFRONT
 10
0.0
 20
0.0
 30
0.0
  9
$PUCSORGBACK
 10
0.0
 20
0.0
 30
0.0
  9
$USERI1
 70
     0
  9
$USERI2
 70
     0
  9
$USERI3
 70
     0
  9
$USERI4
 70
     0
  9
$USERI5
 70
     0
  9
$USERR1
 40
0.0
  9
$USERR2
 40
0.0
  9
$USERR3
 40
0.0
  9
$USERR4
 40
0.0
  9
$USERR5
 40
0.0
  9
$WORLDVIEW
 70
     1
  9
$SHADEDGE
 70
     3
  9
$SHADEDIF
 70
    70
  9
$TILEMODE
 70
     1
  9
$MAXACTVP
 70
    64
  9
$PINSBASE
 10
0.0
 20
0.0
 30
0.0
  9
$PLIMCHECK
 70
     0
  9
$PEXTMIN
 10
1.000000000000000E+20
 20
1.000000000000000E+20
 30
1.000000000000000E+20
  9
$PEXTMAX
 10
-1.000000000000000E+20
 20
-1.000000000000000E+20
 30
-1.000000000000000E+20
  9
$PLIMMIN
 10
0.0
 20
0.0
  9
$PLIMMAX
 10
12.0
 20
9.0
  9
$UNITMODE
 70
     0
  9
$VISRETAIN
 70
     1
  9
$PLINEGEN
 70
     0
  9
$PSLTSCALE
 70
     1
  9
$TREEDEPTH
 70
  3020
  9
$CMLSTYLE
  2
Standard
  9
$CMLJUST
 70
     0
  9
$CMLSCALE
 40
1.0
  9
$PROXYGRAPHICS
 70
     1
  9
$MEASUREMENT
 70
     0
  9
$CELWEIGHT
370
    -1
  9
$ENDCAPS
280
     0
  9
$JOINSTYLE
280
     0
  9
$LWDISPLAY
290
     1
  9
$INSUNITS
 70
     1
  9
$HYPERLINKBASE
  1

  9
$STYLESHEET
  1

  9
$XEDIT
290
     1
  9
$CEPSNTYPE
380
     0
  9
$PSTYLEMODE
290
     1
  9
$FINGERPRINTGUID
  2
{F9E4D3DE-209B-7B5C-5D60-0E279786F234}
  9
$VERSIONGUID
  2
{FAEB1C32-E019-11D5-929B-00C0DF256EC4}
  9
$EXTNAMES
290
     1
  9
$PSVPSCALE
 40
0.0
  9
$OLESTARTUP
290
     0
  9
$SORTENTS
280
   127
  9
$INDEXCTL
280
     0
  9
$HIDETEXT
280
     1
  9
$XCLIPFRAME
280
     2
  9
$HALOGAP
280
     0
  9
$OBSCOLOR
 70
   257
  9
$OBSLTYPE
280
     0
  9
$INTERSECTIONDISPLAY
280
     0
  9
$INTERSECTIONCOLOR
 70
   257
  9
$DIMASSOC
280
     2
  9
$PROJECTNAME
  1

  9
$CAMERADISPLAY
290
     0
  9
$LENSLENGTH
 40
50.0
  9
$CAMERAHEIGHT
 40
0.0
  9
$STEPSPERSEC
 40
2.0
  9
$STEPSIZE
 40
6.0
  9
$3DDWFPREC
 40
2.0
  9
$PSOLWIDTH
 40
0.25
  9
$PSOLHEIGHT
 40
4.0
  9
$LOFTANG1
 40
1.570796326794897
  9
$LOFTANG2
 40
1.570796326794897
  9
$LOFTMAG1
 40
0.0
  9
$LOFTMAG2
 40
0.0
  9
$LOFTPARAM
 70
     7
  9
$LOFTNORMALS
280
     1
  9
$LATITUDE
 40
37.795
  9
$LONGITUDE
 40
-122.394
  9
$NORTHDIRECTION
 40
0.0
  9
$TIMEZONE
 70
 -8000
  9
$LIGHTGLYPHDISPLAY
280
     1
  9
$TILEMODELIGHTSYNCH
280
     1
  9
$CMATERIAL
347
3C
  9
$SOLIDHIST
280
     1
  9
$SHOWHIST
280
     1
  9
$DWFFRAME
280
     2
  9
$DGNFRAME
280
     2
  9
$REALWORLDSCALE
290
     1
  9
$INTERFERECOLOR
 62
   256
  9
$CSHADOW
280
     0
  9
$SHADOWPLANELOCATION
 40
0.0
  0
ENDSEC
  0
SECTION
  2
CLASSES
  0
CLASS
  1
ACDBDICTIONARYWDFLT
  2
AcDbDictionaryWithDefault
  3
ObjectDBX Classes
 90
        0
 91
        4
280
     0
281
     0
  0
CLASS
  1
VISUALSTYLE
  2
AcDbVisualStyle
  3
ObjectDBX Classes
 90
     4095
 91
        4
280
     0
281
     0
  0
CLASS
  1
MATERIAL
  2
AcDbMaterial
  3
ObjectDBX Classes
 90
     1153
 91
        4
280
     0
281
     0
  0
CLASS
  1
SUN
  2
AcDbSun
  3
SCENEOE
 90
     1024
 91
        4
280
     0
281
     0
  0
ENDSEC
  0
SECTION
  2
TABLES
  0
TABLE
  2
VPORT
  5
8
330
0
100
AcDbSymbolTable
 70
     1
  0
VPORT
  5
29
330
8
100
AcDbSymbolTableRecord
100
AcDbViewportTableRecord
  2
*Active
 70
     0
 10
0.0
 20
0.0
 11
1.0
 21
1.0
 12
0.0
 22
0.0
 13
0.0
 23
0.0
 14
0.5
 24
0.5
 15
0.5
 25
0.5
 16
0.0
 26
0.0
 36
1.0
 17
91.00082462281999
 27
-128.4993055234307
 37
0.0
 40
256.9986110468615
 41
0.7081814508812795
 42
50.0
 43
0.0
 44
0.0
 50
0.0
 51
0.0
 71
     0
 72
   100
 73
     1
 74
     3
 75
     0
 76
     0
 77
     0
 78
     0
281
     0
 65
     1
110
0.0
120
0.0
130
0.0
111
1.0
121
0.0
131
0.0
112
0.0
122
1.0
132
0.0
 79
     0
146
0.0
 60
     3
 61
     5
292
     1
282
     1
141
0.0
142
0.0
 63
   250
361
3F
  0
ENDTAB
  0
TABLE
  2
LTYPE
  5
5
330
0
100
AcDbSymbolTable
 70
     1
  0
LTYPE
  5
14
330
5
100
AcDbSymbolTableRecord
100
AcDbLinetypeTableRecord
  2
ByBlock
 70
     0
  3

 72
    65
 73
     0
 40
0.0
  0
LTYPE
  5
15
330
5
100
AcDbSymbolTableRecord
100
AcDbLinetypeTableRecord
  2
ByLayer
 70
     0
  3

 72
    65
 73
     0
 40
0.0
  0
LTYPE
  5
16
330
5
100
AcDbSymbolTableRecord
100
AcDbLinetypeTableRecord
  2
Continuous
 70
     0
  3
Solid line
 72
    65
 73
     0
 40
0.0
  0
ENDTAB
  0
TABLE
  2
LAYER
  5
2
330
0
100
AcDbSymbolTable
 70
     2
  0
LAYER
  5
10
330
2
100
AcDbSymbolTableRecord
100
AcDbLayerTableRecord
  2
0
 70
     0
 62
     7
  6
Continuous
370
    -3
390
F
347
3E
  0
LAYER
  5
40
330
2
100
AcDbSymbolTableRecord
100
AcDbLayerTableRecord
  2
_U+30EC_U+30A4_U+30E4_U+30FC 1
 70
     0
 62
     7
  6
Continuous
370
    -3
390
F
347
3E
  0
ENDTAB
  0
TABLE
  2
STYLE
  5
3
330
0
100
AcDbSymbolTable
 70
     1
  0
STYLE
  5
11
330
3
100
AcDbSymbolTableRecord
100
AcDbTextStyleTableRecord
  2
Standard
 70
     0
 40
0.0
 41
1.0
 50
0.0
 71
     0
 42
0.2
  3
txt
  4

  0
ENDTAB
  0
TABLE
  2
VIEW
  5
6
330
0
100
AcDbSymbolTable
 70
     0
  0
ENDTAB
  0
TABLE
  2
UCS
  5
7
330
0
100
AcDbSymbolTable
 70
     0
  0
ENDTAB
  0
TABLE
  2
APPID
  5
9
330
0
100
AcDbSymbolTable
 70
     1
  0
APPID
  5
12
330
9
100
AcDbSymbolTableRecord
100
AcDbRegAppTableRecord
  2
ACAD
 70
     0
  0
ENDTAB
  0
TABLE
  2
DIMSTYLE
  5
A
330
0
100
AcDbSymbolTable
 70
     1
100
AcDbDimStyleTable
  0
DIMSTYLE
105
27
330
A
100
AcDbSymbolTableRecord
100
AcDbDimStyleTableRecord
  2
Standard
 70
     0
178
     0
340
11
  0
ENDTAB
  0
TABLE
  2
BLOCK_RECORD
  5
1
330
0
100
AcDbSymbolTable
 70
     7
  0
BLOCK_RECORD
  5
1F
330
1
100
AcDbSymbolTableRecord
100
AcDbBlockTableRecord
  2
*Model_Space
340
22
 70
     0
280
     1
281
     0
  0
BLOCK_RECORD
  5
1B
330
1
100
AcDbSymbolTableRecord
100
AcDbBlockTableRecord
  2
*Paper_Space
340
1E
 70
     0
280
     1
281
     0
  0
BLOCK_RECORD
  5
23
330
1
100
AcDbSymbolTableRecord
100
AcDbBlockTableRecord
  2
*Paper_Space0
340
26
 70
     0
280
     1
281
     0
  0
BLOCK_RECORD
  5
41
330
1
100
AcDbSymbolTableRecord
100
AcDbBlockTableRecord
  2
block 2
340
0
102
{BLKREFS
331
42
102
}
 70
     0
280
     1
281
     0
  0
BLOCK_RECORD
  5
6E
330
1
100
AcDbSymbolTableRecord
100
AcDbBlockTableRecord
  2
block 3
340
0
102
{BLKREFS
331
6F
102
}
 70
     0
280
     1
281
     0
  0
BLOCK_RECORD
  5
96
330
1
100
AcDbSymbolTableRecord
100
AcDbBlockTableRecord
  2
block 4
340
0
102
{BLKREFS
331
97
102
}
 70
     0
280
     1
281
     0
  0
BLOCK_RECORD
  5
A9
330
1
100
AcDbSymbolTableRecord
100
AcDbBlockTableRecord
  2
block 5
340
0
102
{BLKREFS
331
AA
102
}
 70
     0
280
     1
281
     0
  0
BLOCK_RECORD
  5
AF
330
1
100
AcDbSymbolTableRecord
100
AcDbBlockTableRecord
  2
block 6
340
0
102
{BLKREFS
331
B0
102
}
 70
     0
280
     1
281
     0
  0
BLOCK_RECORD
  5
B7
330
1
100
AcDbSymbolTableRecord
100
AcDbBlockTableRecord
  2
block 7
340
0
102
{BLKREFS
331
B8
102
}
 70
     0
280
     1
281
     0
  0
ENDTAB
  0
ENDSEC
  0
SECTION
  2
BLOCKS
  0
BLOCK
  5
20
330
1F
100
AcDbEntity
  8
0
100
AcDbBlockBegin
  2
*Model_Space
 70
     0
 10
0.0
 20
0.0
 30
0.0
  3
*Model_Space
  1

  0
ENDBLK
  5
21
330
1F
100
AcDbEntity
  8
0
100
AcDbBlockEnd
  0
BLOCK
  5
1C
330
1B
100
AcDbEntity
 67
     1
  8
0
100
AcDbBlockBegin
  2
*Paper_Space
 70
     0
 10
0.0
 20
0.0
 30
0.0
  3
*Paper_Space
  1

  0
ENDBLK
  5
1D
330
1B
100
AcDbEntity
 67
     1
  8
0
100
AcDbBlockEnd
  0
BLOCK
  5
24
330
23
100
AcDbEntity
  8
0
100
AcDbBlockBegin
  2
*Paper_Space0
 70
     0
 10
0.0
 20
0.0
 30
0.0
  3
*Paper_Space0
  1

  0
ENDBLK
  5
25
330
23
100
AcDbEntity
  8
0
100
AcDbBlockEnd
  0
BLOCK
  5
43
330
41
100
AcDbEntity
  8
0
100
AcDbBlockBegin
  2
block 2
 70
     0
 10
0.0
 20
0.0
 30
0.0
  3
block 2
  1

  0
SPLINE
  5
45
330
41
100
AcDbEntity
  8
_U+30EC_U+30A4_U+30E4_U+30FC 1
370
     0
100
AcDbSpline
210
0.0
220
0.0
230
1.0
 70
    11
 71
     3
 72
   179
 73
   175
 74
     0
 42
0.0000000001
 43
0.0000000001
 12
1.0
 22
0.0
 32
0.0
 13
1.0
 23
0.0
 33
0.0
 40
0.0
 40
0.0
 40
0.0
 40
0.0
 40
1.0
 40
1.0
 40
1.0
 40
2.0
 40
2.0
 40
2.0
 40
3.0
 40
3.0
 40
3.0
 40
4.0
 40
4.0
 40
4.0
 40
5.0
 40
5.0
 40
5.0
 40
6.0
 40
6.0
 40
6.0
 40
7.0
 40
7.0
 40
7.0
 40
8.0
 40
8.0
 40
8.0
 40
9.0
 40
9.0
 40
9.0
 40
10.0
 40
10.0
 40
10.0
 40
11.0
 40
11.0
 40
11.0
 40
12.0
 40
12.0
 40
12.0
 40
13.0
 40
13.0
 40
13.0
 40
14.0
 40
14.0
 40
14.0
 40
15.0
 40
15.0
 40
15.0
 40
16.0
 40
16.0
 40
16.0
 40
17.0
 40
17.0
 40
17.0
 40
18.0
 40
18.0
 40
18.0
 40
19.0
 40
19.0
 40
19.0
 40
20.0
 40
20.0
 40
20.0
 40
21.0
 40
21.0
 40
21.0
 40
22.0
 40
22.0
 40
22.0
 40
23.0
 40
23.0
 40
23.0
 40
24.0
 40
24.0
 40
24.0
 40
25.0
 40
25.0
 40
25.0
 40
26.0
 40
26.0
 40
26.0
 40
27.0
 40
27.0
 40
27.0
 40
28.0
 40
28.0
 40
28.0
 40
29.0
 40
29.0
 40
29.0
 40
30.0
 40
30.0
 40
30.0
 40
31.0
 40
31.0
 40
31.0
 40
32.0
 40
32.0
 40
32.0
 40
33.0
 40
33.0
 40
33.0
 40
34.0
 40
34.0
 40
34.0
 40
35.0
 40
35.0
 40
35.0
 40
36.0
 40
36.0
 40
36.0
 40
37.0
 40
37.0
 40
37.0
 40
38.0
 40
38.0
 40
38.0
 40
39.0
 40
39.0
 40
39.0
 40
40.0
 40
40.0
 40
40.0
 40
41.0
 40
41.0
 40
41.0
 40
42.0
 40
42.0
 40
42.0
 40
43.0
 40
43.0
 40
43.0
 40
44.0
 40
44.0
 40
44.0
 40
45.0
 40
45.0
 40
45.0
 40
46.0
 40
46.0
 40
46.0
 40
47.0
 40
47.0
 40
47.0
 40
48.0
 40
48.0
 40
48.0
 40
49.0
 40
49.0
 40
49.0
 40
50.0
 40
50.0
 40
50.0
 40
51.0
 40
51.0
 40
51.0
 40
52.0
 40
52.0
 40
52.0
 40
53.0
 40
53.0
 40
53.0
 40
54.0
 40
54.0
 40
54.0
 40
55.0
 40
55.0
 40
55.0
 40
56.0
 40
56.0
 40
56.0
 40
57.0
 40
57.0
 40
57.0
 40
58.0
 40
58.0
 40
58.0
 40
58.0
 10
82.50555824760278
 20
-114.4105875365015
 30
0.0
 10
82.53518606877593
 20
-114.4081759696619
 30
0.0
 10
82.89347599924191
 20
-114.3883666706217
 30
0.0
 10
82.91569686512177
 20
-114.385955103782
 30
0.0
 10
82.92551538725473
 20
-114.3785481484887
 30
0.0
 10
82.93292234254803
 20
-114.3711411931954
 30
0.0
 10
82.93791773100163
 20
-114.3661458047418
 30
0.0
 10
82.8118272362415
 20
-114.2252413993951
 30
0.0
 10
82.71054142897515
 20
-114.1363579358756
 30
0.0
 10
82.50555824760278
 20
-114.0054443074362
 30
0.0
 10
82.50555824760278
 20
-114.0054443074362
 30
0.0
 10
82.72053220588236
 20
-113.7804795722493
 30
0.0
 10
82.72053220588236
 20
-113.7804795722493
 30
0.0
 10
82.76738550448177
 20
-113.8102796481967
 30
0.0
 10
82.78719480352196
 20
-113.8225097371694
 30
0.0
 10
82.83422035689561
 20
-113.8571329467961
 30
0.0
 10
82.8490342674822
 20
-113.837323647756
 30
0.0
 10
82.94532468629492
 20
-113.7286308851963
 30
0.0
 10
83.05901283730817
 20
-113.5334662259569
 30
0.0
 10
83.05901283730817
 20
-113.5334662259569
 30
0.0
 10
83.3628702591072
 20
-113.6743706313036
 30
0.0
 10
83.3628702591072
 20
-113.6743706313036
 30
0.0
 10
83.37027721440049
 20
-113.679193764983
 30
0.0
 10
83.387674946601
 20
-113.6866007202763
 30
0.0
 10
83.387674946601
 20
-113.7039984524768
 30
0.0
 10
83.387674946601
 20
-113.723807751517
 30
0.0
 10
83.36045869226753
 20
-113.7360378404896
 30
0.0
 10
83.31601696050781
 20
-113.7336262736499
 30
0.0
 10
83.26399601868053
 20
-113.8002888712895
 30
0.0
 10
83.1801079436147
 20
-113.9139770223028
 30
0.0
 10
83.06883135944113
 20
-114.0448906507423
 30
0.0
 10
83.10586613590756
 20
-114.0819254272087
 30
0.0
 10
83.13067082340136
 20
-114.1067301147025
 30
0.0
 10
83.1553032561209
 20
-114.133946369036
 30
0.0
 10
83.21714272008113
 20
-114.0646999497824
 30
0.0
 10
83.43693981204008
 20
-113.8076958265828
 30
0.0
 10
83.54821639621365
 20
-113.6373358548372
 30
0.0
 10
83.54821639621365
 20
-113.6373358548372
 30
0.0
 10
83.87429468389254
 20
-113.8002888712895
 30
0.0
 10
83.87429468389254
 20
-113.8002888712895
 30
0.0
 10
83.88669702763944
 20
-113.8052842597431
 30
0.0
 10
83.89410398293273
 20
-113.8151027818761
 30
0.0
 10
83.89410398293273
 20
-113.827505125623
 30
0.0
 10
83.89410398293273
 20
-113.8547213799565
 30
0.0
 10
83.86947155021319
 20
-113.8547213799565
 30
0.0
 10
83.81745060838593
 20
-113.8547213799565
 30
0.0
 10
83.61987438230685
 20
-114.0845092488226
 30
0.0
 10
83.53340248562706
 20
-114.1733927123421
 30
0.0
 10
83.35305173697424
 20
-114.3587388494485
 30
0.0
 10
83.46915145482716
 20
-114.3513318941552
 30
0.0
 10
83.48155379857405
 20
-114.3513318941552
 30
0.0
 10
83.58025578422647
 20
-114.3463365057016
 30
0.0
 10
83.54080944092036
 20
-114.2746785196084
 30
0.0
 10
83.53581405246675
 20
-114.2648599974755
 30
0.0
 10
83.50859779813327
 20
-114.2252413993951
 30
0.0
 10
83.50859779813327
 20
-114.2252413993951
 30
0.0
 10
83.78541122037309
 20
-114.0819254272087
 30
0.0
 10
83.78541122037309
 20
-114.0819254272087
 30
0.0
 10
83.88170163918583
 20
-114.2080159219688
 30
0.0
 10
84.01519908923926
 20
-114.427985268702
 30
0.0
 10
84.08926864217213
 20
-114.6157429726481
 30
0.0
 10
84.0522338657057
 20
-114.6353800169141
 30
0.0
 10
83.95094805843935
 20
-114.6848171371274
 30
0.0
 10
83.9213202372662
 20
-114.7022148693279
 30
0.0
 10
83.90151093822601
 20
-114.7120333914609
 30
0.0
 10
83.81503904154624
 20
-114.7638820785139
 30
0.0
 10
83.79781356411999
 20
-114.7738728554211
 30
0.0
 10
83.78041583191948
 20
-114.7292588688871
 30
0.0
 10
83.77300887662619
 20
-114.7144449583006
 30
0.0
 10
83.71874862273351
 20
-114.6009290620616
 30
0.0
 10
83.63968368134702
 20
-114.6083360173549
 30
0.0
 10
83.27398679558776
 20
-114.6427869722074
 30
0.0
 10
83.22213810853475
 20
-114.6501939275007
 30
0.0
 10
83.22213810853475
 20
-114.6501939275007
 30
0.0
 10
83.28139375088105
 20
-114.6651800928615
 30
0.0
 10
83.28139375088105
 20
-114.6651800928615
 30
0.0
 10
83.29620766146762
 20
-114.6675916597012
 30
0.0
 10
83.31102157205419
 20
-114.6799940034481
 30
0.0
 10
83.31102157205419
 20
-114.6972194808743
 30
0.0
 10
83.31102157205419
 20
-114.7292588688871
 30
0.0
 10
83.27639836242743
 20
-114.7318426905011
 30
0.0
 10
83.2269612422141
 20
-114.7368380789547
 30
0.0
 10
83.21955428692081
 20
-114.7490681679273
 30
0.0
 10
83.19974498788062
 20
-114.7762844222608
 30
0.0
 10
83.19233803258733
 20
-114.7886867660077
 30
0.0
 10
83.19233803258733
 20
-114.7886867660077
 30
0.0
 10
83.75078801074633
 20
-114.7886867660077
 30
0.0
 10
83.75078801074633
 20
-114.7886867660077
 30
0.0
 10
83.75078801074633
 20
-114.7886867660077
 30
0.0
 10
83.90650632667963
 20
-114.9542236040739
 30
0.0
 10
83.90650632667963
 20
-114.9542236040739
 30
0.0
 10
83.83484834058643
 20
-115.0505140228867
 30
0.0
 10
83.73097871170614
 20
-115.1840114729401
 30
0.0
 10
83.49137232070701
 20
-115.3915784759264
 30
0.0
 10
83.67671845781346
 20
-115.4902804615788
 30
0.0
 10
83.8446668627194
 20
-115.5298990596592
 30
0.0
 10
84.05464543254537
 20
-115.5571153139927
 30
0.0
 10
83.91873641565226
 20
-115.6904405092718
 30
0.0
 10
83.9039225050657
 20
-115.7052544198584
 30
0.0
 10
83.82985295213282
 20
-115.8485703920448
 30
0.0
 10
83.50859779813327
 20
-115.7695054506583
 30
0.0
 10
83.30120304992123
 20
-115.6509941659657
 30
0.0
 10
83.2145588984672
 20
-115.5989732241385
 30
0.0
 10
83.02938501613502
 20
-115.7176567636053
 30
0.0
 10
82.8416273121889
 20
-115.7991332718315
 30
0.0
 10
82.63647187604228
 20
-115.8535657804984
 30
0.0
 10
82.58462318898927
 20
-115.720068330445
 30
0.0
 10
82.54018145722954
 20
-115.6608126880987
 30
0.0
 10
82.43148869466991
 20
-115.5571153139927
 30
0.0
 10
82.52278372502903
 20
-115.5373060149525
 30
0.0
 10
82.72053220588236
 20
-115.5002712384861
 30
0.0
 10
82.95273164158822
 20
-115.3865830874728
 30
0.0
 10
82.90329452137487
 20
-115.3347344004198
 30
0.0
 10
82.89089217762798
 20
-115.3199204898332
 30
0.0
 10
82.83422035689561
 20
-115.24826250374
 30
0.0
 10
82.73534611646895
 20
-115.3543714446857
 30
0.0
 10
82.71054142897515
 20
-115.3791761321795
 30
0.0
 10
82.63647187604228
 20
-115.4434271629794
 30
0.0
 10
82.54999997936251
 20
-115.3593668331393
 30
0.0
 10
82.49556747069556
 20
-115.3149251013796
 30
0.0
 10
82.38205157445657
 20
-115.2654879811663
 30
0.0
 10
82.38205157445657
 20
-115.2654879811663
 30
0.0
 10
82.38205157445657
 20
-115.8437472583655
 30
0.0
 10
82.38205157445657
 20
-115.8437472583655
 30
0.0
 10
82.38205157445657
 20
-115.8437472583655
 30
0.0
 10
82.0113593002437
 20
-115.8437472583655
 30
0.0
 10
82.0113593002437
 20
-115.8437472583655
 30
0.0
 10
82.0113593002437
 20
-115.8437472583655
 30
0.0
 10
82.0113593002437
 20
-114.9690375146605
 30
0.0
 10
82.0113593002437
 20
-114.9690375146605
 30
0.0
 10
81.9989569564968
 20
-114.9838514252471
 30
0.0
 10
81.95451522473707
 20
-115.0258815901671
 30
0.0
 10
81.9397013141505
 20
-115.0406955007537
 30
0.0
 10
81.87545028335059
 20
-114.9468166487807
 30
0.0
 10
81.78656681983114
 20
-114.8455308415143
 30
0.0
 10
81.6728786688179
 20
-114.7762844222608
 30
0.0
 10
81.91748044827064
 20
-114.6009290620616
 30
0.0
 10
82.12263588441726
 20
-114.3759643268748
 30
0.0
 10
82.29299585616286
 20
-114.0869208156623
 30
0.0
 10
82.29299585616286
 20
-114.0869208156623
 30
0.0
 10
82.6216579654557
 20
-114.2302367878487
 30
0.0
 10
82.6216579654557
 20
-114.2302367878487
 30
0.0
 10
82.62906492074899
 20
-114.2326483546884
 30
0.0
 10
82.64629039817524
 20
-114.2426391315956
 30
0.0
 10
82.64629039817524
 20
-114.2624484306358
 30
0.0
 10
82.64629039817524
 20
-114.2920762518089
 30
0.0
 10
82.61666257700209
 20
-114.2968993854883
 30
0.0
 10
82.57721623369598
 20
-114.3018947739419
 30
0.0
 10
82.54758841252283
 20
-114.3389295504083
 30
0.0
 10
82.42149791776268
 20
-114.5144571653818
 30
0.0
 10
82.39428166342921
 20
-114.5489081202343
 30
0.0
 10
82.41908635092301
 20
-114.5588988971415
 30
0.0
 10
82.43148869466991
 20
-114.5711289861142
 30
0.0
 10
82.43148869466991
 20
-114.5811197630214
 30
0.0
 10
82.43148869466991
 20
-114.5935221067683
 30
0.0
 10
82.41908635092301
 20
-114.6107475841945
 30
0.0
 10
82.38205157445657
 20
-114.6279730616208
 30
0.0
 10
82.38205157445657
 20
-114.6279730616208
 30
0.0
 10
82.38205157445657
 20
-115.20623233882
 30
0.0
 10
82.38205157445657
 20
-115.20623233882
 30
0.0
 10
82.51296520289607
 20
-115.1073580983933
 30
0.0
 10
82.6983113400025
 20
-114.941821260327
 30
0.0
 10
82.85144583432186
 20
-114.689812525581
 30
0.0
 10
82.82681340160232
 20
-114.6922240924207
 30
0.0
 10
82.64629039817524
 20
-114.7120333914609
 30
0.0
 10
82.63647187604228
 20
-114.7120333914609
 30
0.0
 10
82.6216579654557
 20
-114.7392496457944
 30
0.0
 10
82.6092556217088
 20
-114.7564751232206
 30
0.0
 10
82.59444171112223
 20
-114.7564751232206
 30
0.0
 10
82.57463241208204
 20
-114.7564751232206
 30
0.0
 10
82.56980927840269
 20
-114.7268473020475
 30
0.0
 10
82.56722545678875
 20
-114.7120333914609
 30
0.0
 10
82.56722545678875
 20
-114.7120333914609
 30
0.0
 10
82.50555824760278
 20
-114.4105875365015
 30
0.0
 10
82.50555824760278
 20
-114.4105875365015
 30
0.0
  0
SPLINE
  5
46
330
41
100
AcDbEntity
  8
_U+30EC_U+30A4_U+30E4_U+30FC 1
370
     0
100
AcDbSpline
210
0.0
220
0.0
230
1.0
 70
    11
 71
     3
 72
    23
 73
    19
 74
     0
 42
0.0000000001
 43
0.0000000001
 12
1.0
 22
0.0
 32
0.0
 13
1.0
 23
0.0
 33
0.0
 40
0.0
 40
0.0
 40
0.0
 40
0.0
 40
1.0
 40
1.0
 40
1.0
 40
2.0
 40
2.0
 40
2.0
 40
3.0
 40
3.0
 40
3.0
 40
4.0
 40
4.0
 40
4.0
 40
5.0
 40
5.0
 40
5.0
 40
6.0
 40
6.0
 40
6.0
 40
6.0
 10
82.52536754664297
 20
-113.7286308851963
 30
0.0
 10
82.54758841252283
 20
-113.7410332289432
 30
0.0
 10
82.55981850149547
 20
-113.7484401842365
 30
0.0
 10
82.55981850149547
 20
-113.7632540948231
 30
0.0
 10
82.55981850149547
 20
-113.7904703491565
 30
0.0
 10
82.52037215818936
 20
-113.7904703491565
 30
0.0
 10
82.49556747069556
 20
-113.7904703491565
 30
0.0
 10
82.28558890086958
 20
-114.0474744723562
 30
0.0
 10
82.12504745125693
 20
-114.2178344441018
 30
0.0
 10
81.97931991223086
 20
-114.3339341619547
 30
0.0
 10
81.84582246217744
 20
-114.1659857570488
 30
0.0
 10
81.74694822175077
 20
-114.1265394137427
 30
0.0
 10
81.69751110153743
 20
-114.1067301147025
 30
0.0
 10
81.86304793960369
 20
-113.975816486263
 30
0.0
 10
82.04098712141683
 20
-113.81768660349
 30
0.0
 10
82.21651473639032
 20
-113.565677868744
 30
0.0
 10
82.21651473639032
 20
-113.565677868744
 30
0.0
 10
82.52536754664297
 20
-113.7286308851963
 30
0.0
 10
82.52536754664297
 20
-113.7286308851963
 30
0.0
  0
SPLINE
  5
47
330
41
100
AcDbEntity
  8
_U+30EC_U+30A4_U+30E4_U+30FC 1
370
     0
100
AcDbSpline
210
0.0
220
0.0
230
1.0
 70
    11
 71
     3
 72
    14
 73
    10
 74
     0
 42
0.0000000001
 43
0.0000000001
 12
1.0
 22
0.0
 32
0.0
 13
1.0
 23
0.0
 33
0.0
 40
0.0
 40
0.0
 40
0.0
 40
0.0
 40
1.0
 40
1.0
 40
1.0
 40
2.0
 40
2.0
 40
2.0
 40
3.0
 40
3.0
 40
3.0
 40
3.0
 10
83.07382674789474
 20
-115.0530978445006
 30
0.0
 10
83.12326386810808
 20
-115.1171766205263
 30
0.0
 10
83.1627102114142
 20
-115.1592067854463
 30
0.0
 10
83.22954506382803
 20
-115.2160508609529
 30
0.0
 10
83.31601696050781
 20
-115.1469766964737
 30
0.0
 10
83.35546330381392
 20
-115.1023627099397
 30
0.0
 10
83.39990503557364
 20
-115.0530978445006
 30
0.0
 10
83.39990503557364
 20
-115.0530978445006
 30
0.0
 10
83.07382674789474
 20
-115.0530978445006
 30
0.0
 10
83.07382674789474
 20
-115.0530978445006
 30
0.0
  0
HATCH
  5
48
330
41
100
AcDbEntity
  8
_U+30EC_U+30A4_U+30E4_U+30FC 1
 62
   179
420
  2234388
100
AcDbHatch
 10
0.0
 20
0.0
 30
0.0
210
0.0
220
0.0
230
1.0
  2
SOLID
 70
     1
 71
     0
 91
        3
 92
        1
 93
        1
 72
     4
 94
        3
 73
     0
 74
     1
 95
      179
 96
      175
 40
0.0
 40
0.0
 40
0.0
 40
0.0
 40
1.0
 40
1.0
 40
1.0
 40
2.0
 40
2.0
 40
2.0
 40
3.0
 40
3.0
 40
3.0
 40
4.0
 40
4.0
 40
4.0
 40
5.0
 40
5.0
 40
5.0
 40
6.0
 40
6.0
 40
6.0
 40
7.0
 40
7.0
 40
7.0
 40
8.0
 40
8.0
 40
8.0
 40
9.0
 40
9.0
 40
9.0
 40
10.0
 40
10.0
 40
10.0
 40
11.0
 40
11.0
 40
11.0
 40
12.0
 40
12.0
 40
12.0
 40
13.0
 40
13.0
 40
13.0
 40
14.0
 40
14.0
 40
14.0
 40
15.0
 40
15.0
 40
15.0
 40
16.0
 40
16.0
 40
16.0
 40
17.0
 40
17.0
 40
17.0
 40
18.0
 40
18.0
 40
18.0
 40
19.0
 40
19.0
 40
19.0
 40
20.0
 40
20.0
 40
20.0
 40
21.0
 40
21.0
 40
21.0
 40
22.0
 40
22.0
 40
22.0
 40
23.0
 40
23.0
 40
23.0
 40
24.0
 40
24.0
 40
24.0
 40
25.0
 40
25.0
 40
25.0
 40
26.0
 40
26.0
 40
26.0
 40
27.0
 40
27.0
 40
27.0
 40
28.0
 40
28.0
 40
28.0
 40
29.0
 40
29.0
 40
29.0
 40
30.0
 40
30.0
 40
30.0
 40
31.0
 40
31.0
 40
31.0
 40
32.0
 40
32.0
 40
32.0
 40
33.0
 40
33.0
 40
33.0
 40
34.0
 40
34.0
 40
34.0
 40
35.0
 40
35.0
 40
35.0
 40
36.0
 40
36.0
 40
36.0
 40
37.0
 40
37.0
 40
37.0
 40
38.0
 40
38.0
 40
38.0
 40
39.0
 40
39.0
 40
39.0
 40
40.0
 40
40.0
 40
40.0
 40
41.0
 40
41.0
 40
41.0
 40
42.0
 40
42.0
 40
42.0
 40
43.0
 40
43.0
 40
43.0
 40
44.0
 40
44.0
 40
44.0
 40
45.0
 40
45.0
 40
45.0
 40
46.0
 40
46.0
 40
46.0
 40
47.0
 40
47.0
 40
47.0
 40
48.0
 40
48.0
 40
48.0
 40
49.0
 40
49.0
 40
49.0
 40
50.0
 40
50.0
 40
50.0
 40
51.0
 40
51.0
 40
51.0
 40
52.0
 40
52.0
 40
52.0
 40
53.0
 40
53.0
 40
53.0
 40
54.0
 40
54.0
 40
54.0
 40
55.0
 40
55.0
 40
55.0
 40
56.0
 40
56.0
 40
56.0
 40
57.0
 40
57.0
 40
57.0
 40
58.0
 40
58.0
 40
58.0
 40
58.0
 10
82.50555824760278
 20
-114.4105875365015
 10
82.53518606877593
 20
-114.4081759696619
 10
82.89347599924191
 20
-114.3883666706217
 10
82.91569686512177
 20
-114.385955103782
 10
82.92551538725473
 20
-114.3785481484887
 10
82.93292234254803
 20
-114.3711411931954
 10
82.93791773100163
 20
-114.3661458047418
 10
82.8118272362415
 20
-114.2252413993951
 10
82.71054142897515
 20
-114.1363579358756
 10
82.50555824760278
 20
-114.0054443074362
 10
82.50555824760278
 20
-114.0054443074362
 10
82.72053220588236
 20
-113.7804795722493
 10
82.72053220588236
 20
-113.7804795722493
 10
82.76738550448177
 20
-113.8102796481967
 10
82.78719480352196
 20
-113.8225097371694
 10
82.83422035689561
 20
-113.8571329467961
 10
82.8490342674822
 20
-113.837323647756
 10
82.94532468629492
 20
-113.7286308851963
 10
83.05901283730817
 20
-113.5334662259569
 10
83.05901283730817
 20
-113.5334662259569
 10
83.3628702591072
 20
-113.6743706313036
 10
83.3628702591072
 20
-113.6743706313036
 10
83.37027721440049
 20
-113.679193764983
 10
83.387674946601
 20
-113.6866007202763
 10
83.387674946601
 20
-113.7039984524768
 10
83.387674946601
 20
-113.723807751517
 10
83.36045869226753
 20
-113.7360378404896
 10
83.31601696050781
 20
-113.7336262736499
 10
83.26399601868053
 20
-113.8002888712895
 10
83.1801079436147
 20
-113.9139770223028
 10
83.06883135944113
 20
-114.0448906507423
 10
83.10586613590756
 20
-114.0819254272087
 10
83.13067082340136
 20
-114.1067301147025
 10
83.1553032561209
 20
-114.133946369036
 10
83.21714272008113
 20
-114.0646999497824
 10
83.43693981204008
 20
-113.8076958265828
 10
83.54821639621365
 20
-113.6373358548372
 10
83.54821639621365
 20
-113.6373358548372
 10
83.87429468389254
 20
-113.8002888712895
 10
83.87429468389254
 20
-113.8002888712895
 10
83.88669702763944
 20
-113.8052842597431
 10
83.89410398293273
 20
-113.8151027818761
 10
83.89410398293273
 20
-113.827505125623
 10
83.89410398293273
 20
-113.8547213799565
 10
83.86947155021319
 20
-113.8547213799565
 10
83.81745060838593
 20
-113.8547213799565
 10
83.61987438230685
 20
-114.0845092488226
 10
83.53340248562706
 20
-114.1733927123421
 10
83.35305173697424
 20
-114.3587388494485
 10
83.46915145482716
 20
-114.3513318941552
 10
83.48155379857405
 20
-114.3513318941552
 10
83.58025578422647
 20
-114.3463365057016
 10
83.54080944092036
 20
-114.2746785196084
 10
83.53581405246675
 20
-114.2648599974755
 10
83.50859779813327
 20
-114.2252413993951
 10
83.50859779813327
 20
-114.2252413993951
 10
83.78541122037309
 20
-114.0819254272087
 10
83.78541122037309
 20
-114.0819254272087
 10
83.88170163918583
 20
-114.2080159219688
 10
84.01519908923926
 20
-114.427985268702
 10
84.08926864217213
 20
-114.6157429726481
 10
84.0522338657057
 20
-114.6353800169141
 10
83.95094805843935
 20
-114.6848171371274
 10
83.9213202372662
 20
-114.7022148693279
 10
83.90151093822601
 20
-114.7120333914609
 10
83.81503904154624
 20
-114.7638820785139
 10
83.79781356411999
 20
-114.7738728554211
 10
83.78041583191948
 20
-114.7292588688871
 10
83.77300887662619
 20
-114.7144449583006
 10
83.71874862273351
 20
-114.6009290620616
 10
83.63968368134702
 20
-114.6083360173549
 10
83.27398679558776
 20
-114.6427869722074
 10
83.22213810853475
 20
-114.6501939275007
 10
83.22213810853475
 20
-114.6501939275007
 10
83.28139375088105
 20
-114.6651800928615
 10
83.28139375088105
 20
-114.6651800928615
 10
83.29620766146762
 20
-114.6675916597012
 10
83.31102157205419
 20
-114.6799940034481
 10
83.31102157205419
 20
-114.6972194808743
 10
83.31102157205419
 20
-114.7292588688871
 10
83.27639836242743
 20
-114.7318426905011
 10
83.2269612422141
 20
-114.7368380789547
 10
83.21955428692081
 20
-114.7490681679273
 10
83.19974498788062
 20
-114.7762844222608
 10
83.19233803258733
 20
-114.7886867660077
 10
83.19233803258733
 20
-114.7886867660077
 10
83.75078801074633
 20
-114.7886867660077
 10
83.75078801074633
 20
-114.7886867660077
 10
83.75078801074633
 20
-114.7886867660077
 10
83.90650632667963
 20
-114.9542236040739
 10
83.90650632667963
 20
-114.9542236040739
 10
83.83484834058643
 20
-115.0505140228867
 10
83.73097871170614
 20
-115.1840114729401
 10
83.49137232070701
 20
-115.3915784759264
 10
83.67671845781346
 20
-115.4902804615788
 10
83.8446668627194
 20
-115.5298990596592
 10
84.05464543254537
 20
-115.5571153139927
 10
83.91873641565226
 20
-115.6904405092718
 10
83.9039225050657
 20
-115.7052544198584
 10
83.82985295213282
 20
-115.8485703920448
 10
83.50859779813327
 20
-115.7695054506583
 10
83.30120304992123
 20
-115.6509941659657
 10
83.2145588984672
 20
-115.5989732241385
 10
83.02938501613502
 20
-115.7176567636053
 10
82.8416273121889
 20
-115.7991332718315
 10
82.63647187604228
 20
-115.8535657804984
 10
82.58462318898927
 20
-115.720068330445
 10
82.54018145722954
 20
-115.6608126880987
 10
82.43148869466991
 20
-115.5571153139927
 10
82.52278372502903
 20
-115.5373060149525
 10
82.72053220588236
 20
-115.5002712384861
 10
82.95273164158822
 20
-115.3865830874728
 10
82.90329452137487
 20
-115.3347344004198
 10
82.89089217762798
 20
-115.3199204898332
 10
82.83422035689561
 20
-115.24826250374
 10
82.73534611646895
 20
-115.3543714446857
 10
82.71054142897515
 20
-115.3791761321795
 10
82.63647187604228
 20
-115.4434271629794
 10
82.54999997936251
 20
-115.3593668331393
 10
82.49556747069556
 20
-115.3149251013796
 10
82.38205157445657
 20
-115.2654879811663
 10
82.38205157445657
 20
-115.2654879811663
 10
82.38205157445657
 20
-115.8437472583655
 10
82.38205157445657
 20
-115.8437472583655
 10
82.38205157445657
 20
-115.8437472583655
 10
82.0113593002437
 20
-115.8437472583655
 10
82.0113593002437
 20
-115.8437472583655
 10
82.0113593002437
 20
-115.8437472583655
 10
82.0113593002437
 20
-114.9690375146605
 10
82.0113593002437
 20
-114.9690375146605
 10
81.9989569564968
 20
-114.9838514252471
 10
81.95451522473707
 20
-115.0258815901671
 10
81.9397013141505
 20
-115.0406955007537
 10
81.87545028335059
 20
-114.9468166487807
 10
81.78656681983114
 20
-114.8455308415143
 10
81.6728786688179
 20
-114.7762844222608
 10
81.91748044827064
 20
-114.6009290620616
 10
82.12263588441726
 20
-114.3759643268748
 10
82.29299585616286
 20
-114.0869208156623
 10
82.29299585616286
 20
-114.0869208156623
 10
82.6216579654557
 20
-114.2302367878487
 10
82.6216579654557
 20
-114.2302367878487
 10
82.62906492074899
 20
-114.2326483546884
 10
82.64629039817524
 20
-114.2426391315956
 10
82.64629039817524
 20
-114.2624484306358
 10
82.64629039817524
 20
-114.2920762518089
 10
82.61666257700209
 20
-114.2968993854883
 10
82.57721623369598
 20
-114.3018947739419
 10
82.54758841252283
 20
-114.3389295504083
 10
82.42149791776268
 20
-114.5144571653818
 10
82.39428166342921
 20
-114.5489081202343
 10
82.41908635092301
 20
-114.5588988971415
 10
82.43148869466991
 20
-114.5711289861142
 10
82.43148869466991
 20
-114.5811197630214
 10
82.43148869466991
 20
-114.5935221067683
 10
82.41908635092301
 20
-114.6107475841945
 10
82.38205157445657
 20
-114.6279730616208
 10
82.38205157445657
 20
-114.6279730616208
 10
82.38205157445657
 20
-115.20623233882
 10
82.38205157445657
 20
-115.20623233882
 10
82.51296520289607
 20
-115.1073580983933
 10
82.6983113400025
 20
-114.941821260327
 10
82.85144583432186
 20
-114.689812525581
 10
82.82681340160232
 20
-114.6922240924207
 10
82.64629039817524
 20
-114.7120333914609
 10
82.63647187604228
 20
-114.7120333914609
 10
82.6216579654557
 20
-114.7392496457944
 10
82.6092556217088
 20
-114.7564751232206
 10
82.59444171112223
 20
-114.7564751232206
 10
82.57463241208204
 20
-114.7564751232206
 10
82.56980927840269
 20
-114.7268473020475
 10
82.56722545678875
 20
-114.7120333914609
 10
82.56722545678875
 20
-114.7120333914609
 10
82.50555824760278
 20
-114.4105875365015
 10
82.50555824760278
 20
-114.4105875365015
 97
        0
 97
        0
 92
        1
 93
        1
 72
     4
 94
        3
 73
     0
 74
     1
 95
       23
 96
       19
 40
0.0
 40
0.0
 40
0.0
 40
0.0
 40
1.0
 40
1.0
 40
1.0
 40
2.0
 40
2.0
 40
2.0
 40
3.0
 40
3.0
 40
3.0
 40
4.0
 40
4.0
 40
4.0
 40
5.0
 40
5.0
 40
5.0
 40
6.0
 40
6.0
 40
6.0
 40
6.0
 10
82.52536754664297
 20
-113.7286308851963
 10
82.54758841252283
 20
-113.7410332289432
 10
82.55981850149547
 20
-113.7484401842365
 10
82.55981850149547
 20
-113.7632540948231
 10
82.55981850149547
 20
-113.7904703491565
 10
82.52037215818936
 20
-113.7904703491565
 10
82.49556747069556
 20
-113.7904703491565
 10
82.28558890086958
 20
-114.0474744723562
 10
82.12504745125693
 20
-114.2178344441018
 10
81.97931991223086
 20
-114.3339341619547
 10
81.84582246217744
 20
-114.1659857570488
 10
81.74694822175077
 20
-114.1265394137427
 10
81.69751110153743
 20
-114.1067301147025
 10
81.86304793960369
 20
-113.975816486263
 10
82.04098712141683
 20
-113.81768660349
 10
82.21651473639032
 20
-113.565677868744
 10
82.21651473639032
 20
-113.565677868744
 10
82.52536754664297
 20
-113.7286308851963
 10
82.52536754664297
 20
-113.7286308851963
 97
        0
 97
        0
 92
        1
 93
        1
 72
     4
 94
        3
 73
     0
 74
     1
 95
       14
 96
       10
 40
0.0
 40
0.0
 40
0.0
 40
0.0
 40
1.0
 40
1.0
 40
1.0
 40
2.0
 40
2.0
 40
2.0
 40
3.0
 40
3.0
 40
3.0
 40
3.0
 10
83.07382674789474
 20
-115.0530978445006
 10
83.12326386810808
 20
-115.1171766205263
 10
83.1627102114142
 20
-115.1592067854463
 10
83.22954506382803
 20
-115.2160508609529
 10
83.31601696050781
 20
-115.1469766964737
 10
83.35546330381392
 20
-115.1023627099397
 10
83.39990503557364
 20
-115.0530978445006
 10
83.39990503557364
 20
-115.0530978445006
 10
83.07382674789474
 20
-115.0530978445006
 10
83.07382674789474
 20
-115.0530978445006
 97
        0
 97
        0
 75
     2
 76
     1
 98
        0
  0
SPLINE
  5
49
330
41
100
AcDbEntity
  8
_U+30EC_U+30A4_U+30E4_U+30FC 1
370
     0
100
AcDbSpline
210
0.0
220
0.0
230
1.0
 70
    11
 71
     3
 72
    41
 73
    37
 74
     0
 42
0.0000000001
 43
0.0000000001
 12
1.0
 22
0.0
 32
0.0
 13
1.0
 23
0.0
 33
0.0
 40
0.0
 40
0.0
 40
0.0
 40
0.0
 40
1.0
 40
1.0
 40
1.0
 40
2.0
 40
2.0
 40
2.0
 40
3.0
 40
3.0
 40
3.0
 40
4.0
 40
4.0
 40
4.0
 40
5.0
 40
5.0
 40
5.0
 40
6.0
 40
6.0
 40
6.0
 40
7.0
 40
7.0
 40
7.0
 40
8.0
 40
8.0
 40
8.0
 40
9.0
 40
9.0
 40
9.0
 40
10.0
 40
10.0
 40
10.0
 40
11.0
 40
11.0
 40
11.0
 40
12.0
 40
12.0
 40
12.0
 40
12.0
 10
84.91316322746962
 20
-115.8411634367515
 30
0.0
 10
84.91316322746962
 20
-115.8411634367515
 30
0.0
 10
84.52765704267017
 20
-115.8411634367515
 30
0.0
 10
84.52765704267017
 20
-115.8411634367515
 30
0.0
 10
84.52765704267017
 20
-115.8411634367515
 30
0.0
 10
84.52765704267017
 20
-114.6972194808743
 30
0.0
 10
84.52765704267017
 20
-114.6972194808743
 30
0.0
 10
84.49561765465735
 20
-114.7392496457944
 30
0.0
 10
84.4659898334842
 20
-114.7712890338072
 30
0.0
 10
84.4411851459904
 20
-114.793509899687
 30
0.0
 10
84.3893364589374
 20
-114.7144449583006
 30
0.0
 10
84.28064369637777
 20
-114.6083360173549
 30
0.0
 10
84.16936711220418
 20
-114.5340942096477
 30
0.0
 10
84.59690346192369
 20
-114.1191324584494
 30
0.0
 10
84.7328124788168
 20
-113.5680894355837
 30
0.0
 10
84.74504256778944
 20
-113.52106388221
 30
0.0
 10
84.74504256778944
 20
-113.52106388221
 30
0.0
 10
85.08369545398949
 20
-113.6447428101305
 30
0.0
 10
85.08369545398949
 20
-113.6447428101305
 30
0.0
 10
85.10832788670903
 20
-113.6545613322635
 30
0.0
 10
85.1305487525889
 20
-113.6619682875567
 30
0.0
 10
85.1305487525889
 20
-113.6817775865969
 30
0.0
 10
85.1305487525889
 20
-113.7064100193165
 30
0.0
 10
85.09850936457607
 20
-113.7138169746097
 30
0.0
 10
85.06629772178898
 20
-113.7188123630634
 30
0.0
 10
84.97000730297626
 20
-113.9461886650898
 30
0.0
 10
84.96260034768297
 20
-113.9634141425161
 30
0.0
 10
84.89094236158977
 20
-114.1117255031561
 30
0.0
 10
84.93038870489588
 20
-114.1215440252891
 30
0.0
 10
84.96501191452263
 20
-114.131362547422
 30
0.0
 10
84.96501191452263
 20
-114.1585788017555
 30
0.0
 10
84.96501191452263
 20
-114.185795056089
 30
0.0
 10
84.94279104864277
 20
-114.1981973998359
 30
0.0
 10
84.91316322746962
 20
-114.2080159219688
 30
0.0
 10
84.91316322746962
 20
-114.2080159219688
 30
0.0
 10
84.91316322746962
 20
-115.8411634367515
 30
0.0
 10
84.91316322746962
 20
-115.8411634367515
 30
0.0
  0
SPLINE
  5
4A
330
41
100
AcDbEntity
  8
_U+30EC_U+30A4_U+30E4_U+30FC 1
370
     0
100
AcDbSpline
210
0.0
220
0.0
230
1.0
 70
    11
 71
     3
 72
    56
 73
    52
 74
     0
 42
0.0000000001
 43
0.0000000001
 12
1.0
 22
0.0
 32
0.0
 13
1.0
 23
0.0
 33
0.0
 40
0.0
 40
0.0
 40
0.0
 40
0.0
 40
1.0
 40
1.0
 40
1.0
 40
2.0
 40
2.0
 40
2.0
 40
3.0
 40
3.0
 40
3.0
 40
4.0
 40
4.0
 40
4.0
 40
5.0
 40
5.0
 40
5.0
 40
6.0
 40
6.0
 40
6.0
 40
7.0
 40
7.0
 40
7.0
 40
8.0
 40
8.0
 40
8.0
 40
9.0
 40
9.0
 40
9.0
 40
10.0
 40
10.0
 40
10.0
 40
11.0
 40
11.0
 40
11.0
 40
12.0
 40
12.0
 40
12.0
 40
13.0
 40
13.0
 40
13.0
 40
14.0
 40
14.0
 40
14.0
 40
15.0
 40
15.0
 40
15.0
 40
16.0
 40
16.0
 40
16.0
 40
17.0
 40
17.0
 40
17.0
 40
17.0
 10
86.52167830953277
 20
-114.1017347262489
 30
0.0
 10
86.52167830953277
 20
-114.1017347262489
 30
0.0
 10
86.52167830953277
 20
-114.4600246567149
 30
0.0
 10
86.52167830953277
 20
-114.4600246567149
 30
0.0
 10
86.52167830953277
 20
-114.4600246567149
 30
0.0
 10
86.28930661905268
 20
-114.4600246567149
 30
0.0
 10
86.28930661905268
 20
-114.4600246567149
 30
0.0
 10
86.28930661905268
 20
-114.4600246567149
 30
0.0
 10
86.28930661905268
 20
-115.4854573278995
 30
0.0
 10
86.28930661905268
 20
-115.4854573278995
 30
0.0
 10
86.28930661905268
 20
-115.7695054506583
 30
0.0
 10
86.24245332045328
 20
-115.8337564814582
 30
0.0
 10
85.72603350721432
 20
-115.8387518699118
 30
0.0
 10
85.70880802978807
 20
-115.710249808312
 30
0.0
 10
85.65678708796081
 20
-115.564522269286
 30
0.0
 10
85.56290823598775
 20
-115.4384317745258
 30
0.0
 10
85.6173407446547
 20
-115.4508341182727
 30
0.0
 10
85.71121959662776
 20
-115.4706434173129
 30
0.0
 10
85.78528914956063
 20
-115.4706434173129
 30
0.0
 10
85.90138886741354
 20
-115.4706434173129
 30
0.0
 10
85.90638425586715
 20
-115.4384317745258
 30
0.0
 10
85.90638425586715
 20
-115.3543714446857
 30
0.0
 10
85.90638425586715
 20
-115.3543714446857
 30
0.0
 10
85.90638425586715
 20
-114.4600246567149
 30
0.0
 10
85.90638425586715
 20
-114.4600246567149
 30
0.0
 10
85.90638425586715
 20
-114.4600246567149
 30
0.0
 10
85.00204669098908
 20
-114.4600246567149
 30
0.0
 10
85.00204669098908
 20
-114.4600246567149
 30
0.0
 10
85.00204669098908
 20
-114.4600246567149
 30
0.0
 10
85.00204669098908
 20
-114.1017347262489
 30
0.0
 10
85.00204669098908
 20
-114.1017347262489
 30
0.0
 10
85.00204669098908
 20
-114.1017347262489
 30
0.0
 10
85.90638425586715
 20
-114.1017347262489
 30
0.0
 10
85.90638425586715
 20
-114.1017347262489
 30
0.0
 10
85.90638425586715
 20
-114.1017347262489
 30
0.0
 10
85.90638425586715
 20
-113.5482801365435
 30
0.0
 10
85.90638425586715
 20
-113.5482801365435
 30
0.0
 10
85.90638425586715
 20
-113.5482801365435
 30
0.0
 10
86.28930661905268
 20
-113.5630940471301
 30
0.0
 10
86.28930661905268
 20
-113.5630940471301
 30
0.0
 10
86.31893444022583
 20
-113.5630940471301
 30
0.0
 10
86.35614147146653
 20
-113.565677868744
 30
0.0
 10
86.35614147146653
 20
-113.5953056899172
 30
0.0
 10
86.35614147146653
 20
-113.617526555797
 30
0.0
 10
86.32634139551911
 20
-113.6323404663836
 30
0.0
 10
86.28930661905268
 20
-113.6471543769702
 30
0.0
 10
86.28930661905268
 20
-113.6471543769702
 30
0.0
 10
86.28930661905268
 20
-114.1017347262489
 30
0.0
 10
86.28930661905268
 20
-114.1017347262489
 30
0.0
 10
86.28930661905268
 20
-114.1017347262489
 30
0.0
 10
86.52167830953277
 20
-114.1017347262489
 30
0.0
 10
86.52167830953277
 20
-114.1017347262489
 30
0.0
  0
SPLINE
  5
4B
330
41
100
AcDbEntity
  8
_U+30EC_U+30A4_U+30E4_U+30FC 1
370
     0
100
AcDbSpline
210
0.0
220
0.0
230
1.0
 70
    11
 71
     3
 72
    17
 73
    13
 74
     0
 42
0.0000000001
 43
0.0000000001
 12
1.0
 22
0.0
 32
0.0
 13
1.0
 23
0.0
 33
0.0
 40
0.0
 40
0.0
 40
0.0
 40
0.0
 40
1.0
 40
1.0
 40
1.0
 40
2.0
 40
2.0
 40
2.0
 40
3.0
 40
3.0
 40
3.0
 40
4.0
 40
4.0
 40
4.0
 40
4.0
 10
85.41218530850807
 20
-114.5909382851544
 30
0.0
 10
85.59012449032122
 20
-114.8035006765943
 30
0.0
 10
85.69640568604117
 20
-114.9888468137007
 30
0.0
 10
85.7532497615478
 20
-115.1493882633134
 30
0.0
 10
85.71621498508136
 20
-115.1666137407396
 30
0.0
 10
85.54809432540118
 20
-115.2456786821261
 30
0.0
 10
85.41218530850807
 20
-115.3321505788059
 30
0.0
 10
85.35292966616177
 20
-115.1691975623535
 30
0.0
 10
85.17998587280223
 20
-114.8725748410735
 30
0.0
 10
85.07370467708228
 20
-114.7590589448345
 30
0.0
 10
85.07370467708228
 20
-114.7590589448345
 30
0.0
 10
85.41218530850807
 20
-114.5909382851544
 30
0.0
 10
85.41218530850807
 20
-114.5909382851544
 30
0.0
  0
HATCH
  5
4C
330
41
100
AcDbEntity
  8
_U+30EC_U+30A4_U+30E4_U+30FC 1
 62
   179
420
  2234388
100
AcDbHatch
 10
0.0
 20
0.0
 30
0.0
210
0.0
220
0.0
230
1.0
  2
SOLID
 70
     1
 71
     0
 91
        3
 92
        1
 93
        1
 72
     4
 94
        3
 73
     0
 74
     1
 95
       41
 96
       37
 40
0.0
 40
0.0
 40
0.0
 40
0.0
 40
1.0
 40
1.0
 40
1.0
 40
2.0
 40
2.0
 40
2.0
 40
3.0
 40
3.0
 40
3.0
 40
4.0
 40
4.0
 40
4.0
 40
5.0
 40
5.0
 40
5.0
 40
6.0
 40
6.0
 40
6.0
 40
7.0
 40
7.0
 40
7.0
 40
8.0
 40
8.0
 40
8.0
 40
9.0
 40
9.0
 40
9.0
 40
10.0
 40
10.0
 40
10.0
 40
11.0
 40
11.0
 40
11.0
 40
12.0
 40
12.0
 40
12.0
 40
12.0
 10
84.91316322746962
 20
-115.8411634367515
 10
84.91316322746962
 20
-115.8411634367515
 10
84.52765704267017
 20
-115.8411634367515
 10
84.52765704267017
 20
-115.8411634367515
 10
84.52765704267017
 20
-115.8411634367515
 10
84.52765704267017
 20
-114.6972194808743
 10
84.52765704267017
 20
-114.6972194808743
 10
84.49561765465735
 20
-114.7392496457944
 10
84.4659898334842
 20
-114.7712890338072
 10
84.4411851459904
 20
-114.793509899687
 10
84.3893364589374
 20
-114.7144449583006
 10
84.28064369637777
 20
-114.6083360173549
 10
84.16936711220418
 20
-114.5340942096477
 10
84.59690346192369
 20
-114.1191324584494
 10
84.7328124788168
 20
-113.5680894355837
 10
84.74504256778944
 20
-113.52106388221
 10
84.74504256778944
 20
-113.52106388221
 10
85.08369545398949
 20
-113.6447428101305
 10
85.08369545398949
 20
-113.6447428101305
 10
85.10832788670903
 20
-113.6545613322635
 10
85.1305487525889
 20
-113.6619682875567
 10
85.1305487525889
 20
-113.6817775865969
 10
85.1305487525889
 20
-113.7064100193165
 10
85.09850936457607
 20
-113.7138169746097
 10
85.06629772178898
 20
-113.7188123630634
 10
84.97000730297626
 20
-113.9461886650898
 10
84.96260034768297
 20
-113.9634141425161
 10
84.89094236158977
 20
-114.1117255031561
 10
84.93038870489588
 20
-114.1215440252891
 10
84.96501191452263
 20
-114.131362547422
 10
84.96501191452263
 20
-114.1585788017555
 10
84.96501191452263
 20
-114.185795056089
 10
84.94279104864277
 20
-114.1981973998359
 10
84.91316322746962
 20
-114.2080159219688
 10
84.91316322746962
 20
-114.2080159219688
 10
84.91316322746962
 20
-115.8411634367515
 10
84.91316322746962
 20
-115.8411634367515
 97
        0
 97
        0
 92
        1
 93
        1
 72
     4
 94
        3
 73
     0
 74
     1
 95
       56
 96
       52
 40
0.0
 40
0.0
 40
0.0
 40
0.0
 40
1.0
 40
1.0
 40
1.0
 40
2.0
 40
2.0
 40
2.0
 40
3.0
 40
3.0
 40
3.0
 40
4.0
 40
4.0
 40
4.0
 40
5.0
 40
5.0
 40
5.0
 40
6.0
 40
6.0
 40
6.0
 40
7.0
 40
7.0
 40
7.0
 40
8.0
 40
8.0
 40
8.0
 40
9.0
 40
9.0
 40
9.0
 40
10.0
 40
10.0
 40
10.0
 40
11.0
 40
11.0
 40
11.0
 40
12.0
 40
12.0
 40
12.0
 40
13.0
 40
13.0
 40
13.0
 40
14.0
 40
14.0
 40
14.0
 40
15.0
 40
15.0
 40
15.0
 40
16.0
 40
16.0
 40
16.0
 40
17.0
 40
17.0
 40
17.0
 40
17.0
 10
86.52167830953277
 20
-114.1017347262489
 10
86.52167830953277
 20
-114.1017347262489
 10
86.52167830953277
 20
-114.4600246567149
 10
86.52167830953277
 20
-114.4600246567149
 10
86.52167830953277
 20
-114.4600246567149
 10
86.28930661905268
 20
-114.4600246567149
 10
86.28930661905268
 20
-114.4600246567149
 10
86.28930661905268
 20
-114.4600246567149
 10
86.28930661905268
 20
-115.4854573278995
 10
86.28930661905268
 20
-115.4854573278995
 10
86.28930661905268
 20
-115.7695054506583
 10
86.24245332045328
 20
-115.8337564814582
 10
85.72603350721432
 20
-115.8387518699118
 10
85.70880802978807
 20
-115.710249808312
 10
85.65678708796081
 20
-115.564522269286
 10
85.56290823598775
 20
-115.4384317745258
 10
85.6173407446547
 20
-115.4508341182727
 10
85.71121959662776
 20
-115.4706434173129
 10
85.78528914956063
 20
-115.4706434173129
 10
85.90138886741354
 20
-115.4706434173129
 10
85.90638425586715
 20
-115.4384317745258
 10
85.90638425586715
 20
-115.3543714446857
 10
85.90638425586715
 20
-115.3543714446857
 10
85.90638425586715
 20
-114.4600246567149
 10
85.90638425586715
 20
-114.4600246567149
 10
85.90638425586715
 20
-114.4600246567149
 10
85.00204669098908
 20
-114.4600246567149
 10
85.00204669098908
 20
-114.4600246567149
 10
85.00204669098908
 20
-114.4600246567149
 10
85.00204669098908
 20
-114.1017347262489
 10
85.00204669098908
 20
-114.1017347262489
 10
85.00204669098908
 20
-114.1017347262489
 10
85.90638425586715
 20
-114.1017347262489
 10
85.90638425586715
 20
-114.1017347262489
 10
85.90638425586715
 20
-114.1017347262489
 10
85.90638425586715
 20
-113.5482801365435
 10
85.90638425586715
 20
-113.5482801365435
 10
85.90638425586715
 20
-113.5482801365435
 10
86.28930661905268
 20
-113.5630940471301
 10
86.28930661905268
 20
-113.5630940471301
 10
86.31893444022583
 20
-113.5630940471301
 10
86.35614147146653
 20
-113.565677868744
 10
86.35614147146653
 20
-113.5953056899172
 10
86.35614147146653
 20
-113.617526555797
 10
86.32634139551911
 20
-113.6323404663836
 10
86.28930661905268
 20
-113.6471543769702
 10
86.28930661905268
 20
-113.6471543769702
 10
86.28930661905268
 20
-114.1017347262489
 10
86.28930661905268
 20
-114.1017347262489
 10
86.28930661905268
 20
-114.1017347262489
 10
86.52167830953277
 20
-114.1017347262489
 10
86.52167830953277
 20
-114.1017347262489
 97
        0
 97
        0
 92
        1
 93
        1
 72
     4
 94
        3
 73
     0
 74
     1
 95
       17
 96
       13
 40
0.0
 40
0.0
 40
0.0
 40
0.0
 40
1.0
 40
1.0
 40
1.0
 40
2.0
 40
2.0
 40
2.0
 40
3.0
 40
3.0
 40
3.0
 40
4.0
 40
4.0
 40
4.0
 40
4.0
 10
85.41218530850807
 20
-114.5909382851544
 10
85.59012449032122
 20
-114.8035006765943
 10
85.69640568604117
 20
-114.9888468137007
 10
85.7532497615478
 20
-115.1493882633134
 10
85.71621498508136
 20
-115.1666137407396
 10
85.54809432540118
 20
-115.2456786821261
 10
85.41218530850807
 20
-115.3321505788059
 10
85.35292966616177
 20
-115.1691975623535
 10
85.17998587280223
 20
-114.8725748410735
 10
85.07370467708228
 20
-114.7590589448345
 10
85.07370467708228
 20
-114.7590589448345
 10
85.41218530850807
 20
-114.5909382851544
 10
85.41218530850807
 20
-114.5909382851544
 97
        0
 97
        0
 75
     2
 76
     1
 98
        0
  0
SPLINE
  5
4D
330
41
100
AcDbEntity
  8
_U+30EC_U+30A4_U+30E4_U+30FC 1
370
     0
100
AcDbSpline
210
0.0
220
0.0
230
1.0
 70
    11
 71
     3
 72
    74
 73
    70
 74
     0
 42
0.0000000001
 43
0.0000000001
 12
1.0
 22
0.0
 32
0.0
 13
1.0
 23
0.0
 33
0.0
 40
0.0
 40
0.0
 40
0.0
 40
0.0
 40
1.0
 40
1.0
 40
1.0
 40
2.0
 40
2.0
 40
2.0
 40
3.0
 40
3.0
 40
3.0
 40
4.0
 40
4.0
 40
4.0
 40
5.0
 40
5.0
 40
5.0
 40
6.0
 40
6.0
 40
6.0
 40
7.0
 40
7.0
 40
7.0
 40
8.0
 40
8.0
 40
8.0
 40
9.0
 40
9.0
 40
9.0
 40
10.0
 40
10.0
 40
10.0
 40
11.0
 40
11.0
 40
11.0
 40
12.0
 40
12.0
 40
12.0
 40
13.0
 40
13.0
 40
13.0
 40
14.0
 40
14.0
 40
14.0
 40
15.0
 40
15.0
 40
15.0
 40
16.0
 40
16.0
 40
16.0
 40
17.0
 40
17.0
 40
17.0
 40
18.0
 40
18.0
 40
18.0
 40
19.0
 40
19.0
 40
19.0
 40
20.0
 40
20.0
 40
20.0
 40
21.0
 40
21.0
 40
21.0
 40
22.0
 40
22.0
 40
22.0
 40
23.0
 40
23.0
 40
23.0
 40
23.0
 10
87.63220483920307
 20
-114.447622312968
 30
0.0
 10
87.8051486325626
 20
-114.5440849865549
 30
0.0
 10
87.9140136498965
 20
-114.6107475841945
 30
0.0
 10
88.02012259084219
 20
-114.6848171371274
 30
0.0
 10
88.13139917501576
 20
-114.5094617769282
 30
0.0
 10
88.17825247361516
 20
-114.3809597153284
 30
0.0
 10
88.20305716110896
 20
-114.3093017292352
 30
0.0
 10
88.20305716110896
 20
-114.3093017292352
 30
0.0
 10
87.61739092861649
 20
-114.3093017292352
 30
0.0
 10
87.61739092861649
 20
-114.3093017292352
 30
0.0
 10
87.46666800113681
 20
-114.5118733437679
 30
0.0
 10
87.29871959623088
 20
-114.7070380030073
 30
0.0
 10
87.09855954853786
 20
-114.8627563189406
 30
0.0
 10
86.93801809892523
 20
-114.7144449583006
 30
0.0
 10
86.92320418833864
 20
-114.699631047714
 30
0.0
 10
86.78729517144554
 20
-114.6033406289013
 30
0.0
 10
87.14058971345791
 20
-114.3661458047418
 30
0.0
 10
87.40500079195084
 20
-114.0128512627294
 30
0.0
 10
87.59275849589696
 20
-113.565677868744
 30
0.0
 10
87.59275849589696
 20
-113.565677868744
 30
0.0
 10
87.97809242592214
 20
-113.6915961087299
 30
0.0
 10
87.97809242592214
 20
-113.6915961087299
 30
0.0
 10
88.00530868025562
 20
-113.7014146308628
 30
0.0
 10
88.02270641245613
 20
-113.7064100193165
 30
0.0
 10
88.02270641245613
 20
-113.7262193183566
 30
0.0
 10
88.02270641245613
 20
-113.7484401842365
 30
0.0
 10
87.99790172496233
 20
-113.7534355726901
 30
0.0
 10
87.96327851533557
 20
-113.7558471395298
 30
0.0
 10
87.91883678357586
 20
-113.837323647756
 30
0.0
 10
87.8892089624027
 20
-113.8917561564229
 30
0.0
 10
87.84476723064297
 20
-113.9658257093558
 30
0.0
 10
87.84476723064297
 20
-113.9658257093558
 30
0.0
 10
88.38340790976179
 20
-113.9658257093558
 30
0.0
 10
88.38340790976179
 20
-113.9658257093558
 30
0.0
 10
88.47487519489518
 20
-113.9658257093558
 30
0.0
 10
88.51432153820129
 20
-113.9535956203831
 30
0.0
 10
88.55394013628165
 20
-113.9411932766362
 30
0.0
 10
88.55394013628165
 20
-113.9411932766362
 30
0.0
 10
88.72929549648087
 20
-114.0919162041159
 30
0.0
 10
88.72929549648087
 20
-114.0919162041159
 30
0.0
 10
88.69467228685411
 20
-114.1585788017555
 30
0.0
 10
88.69226072001445
 20
-114.1609903685952
 30
0.0
 10
88.67744680942786
 20
-114.1956135782219
 30
0.0
 10
88.5193169266549
 20
-114.5711289861142
 30
0.0
 10
88.4600612843086
 20
-114.7120333914609
 30
0.0
 10
88.32897540109484
 20
-114.9146050059936
 30
0.0
 10
88.46746823960189
 20
-115.0357001123001
 30
0.0
 10
88.5119099713616
 20
-115.0975395762603
 30
0.0
 10
88.54394935937444
 20
-115.1443928748597
 30
0.0
 10
88.47728676173485
 20
-115.2260416378602
 30
0.0
 10
88.34637313329536
 20
-115.406392386513
 30
0.0
 10
88.30434296837531
 20
-115.4706434173129
 30
0.0
 10
88.24991045970836
 20
-115.3964016096058
 30
0.0
 10
88.19065481736206
 20
-115.3223320566729
 30
0.0
 10
88.09178057693539
 20
-115.2260416378602
 30
0.0
 10
87.76070690080289
 20
-115.5867431351658
 30
0.0
 10
87.39018688136426
 20
-115.7422891963248
 30
0.0
 10
87.18503144521763
 20
-115.8213541377113
 30
0.0
 10
87.11337345912443
 20
-115.7004312861791
 30
0.0
 10
87.0170830403117
 20
-115.5867431351658
 30
0.0
 10
86.91579723304535
 20
-115.4902804615788
 30
0.0
 10
87.24187552072426
 20
-115.4038085648991
 30
0.0
 10
87.6223863170701
 20
-115.1691975623535
 30
0.0
 10
87.79774167726931
 20
-114.9764444699538
 30
0.0
 10
87.634788660817
 20
-114.8553493636473
 30
0.0
 10
87.49147268863061
 20
-114.7688774669675
 30
0.0
 10
87.39759383665755
 20
-114.7144449583006
 30
0.0
 10
87.39759383665755
 20
-114.7144449583006
 30
0.0
 10
87.63220483920307
 20
-114.447622312968
 30
0.0
 10
87.63220483920307
 20
-114.447622312968
 30
0.0
  0
HATCH
  5
4E
330
41
100
AcDbEntity
  8
_U+30EC_U+30A4_U+30E4_U+30FC 1
 62
   179
420
  2234388
100
AcDbHatch
 10
0.0
 20
0.0
 30
0.0
210
0.0
220
0.0
230
1.0
  2
SOLID
 70
     1
 71
     0
 91
        1
 92
        1
 93
        1
 72
     4
 94
        3
 73
     0
 74
     1
 95
       74
 96
       70
 40
0.0
 40
0.0
 40
0.0
 40
0.0
 40
1.0
 40
1.0
 40
1.0
 40
2.0
 40
2.0
 40
2.0
 40
3.0
 40
3.0
 40
3.0
 40
4.0
 40
4.0
 40
4.0
 40
5.0
 40
5.0
 40
5.0
 40
6.0
 40
6.0
 40
6.0
 40
7.0
 40
7.0
 40
7.0
 40
8.0
 40
8.0
 40
8.0
 40
9.0
 40
9.0
 40
9.0
 40
10.0
 40
10.0
 40
10.0
 40
11.0
 40
11.0
 40
11.0
 40
12.0
 40
12.0
 40
12.0
 40
13.0
 40
13.0
 40
13.0
 40
14.0
 40
14.0
 40
14.0
 40
15.0
 40
15.0
 40
15.0
 40
16.0
 40
16.0
 40
16.0
 40
17.0
 40
17.0
 40
17.0
 40
18.0
 40
18.0
 40
18.0
 40
19.0
 40
19.0
 40
19.0
 40
20.0
 40
20.0
 40
20.0
 40
21.0
 40
21.0
 40
21.0
 40
22.0
 40
22.0
 40
22.0
 40
23.0
 40
23.0
 40
23.0
 40
23.0
 10
87.63220483920307
 20
-114.447622312968
 10
87.8051486325626
 20
-114.5440849865549
 10
87.9140136498965
 20
-114.6107475841945
 10
88.02012259084219
 20
-114.6848171371274
 10
88.13139917501576
 20
-114.5094617769282
 10
88.17825247361516
 20
-114.3809597153284
 10
88.20305716110896
 20
-114.3093017292352
 10
88.20305716110896
 20
-114.3093017292352
 10
87.61739092861649
 20
-114.3093017292352
 10
87.61739092861649
 20
-114.3093017292352
 10
87.46666800113681
 20
-114.5118733437679
 10
87.29871959623088
 20
-114.7070380030073
 10
87.09855954853786
 20
-114.8627563189406
 10
86.93801809892523
 20
-114.7144449583006
 10
86.92320418833864
 20
-114.699631047714
 10
86.78729517144554
 20
-114.6033406289013
 10
87.14058971345791
 20
-114.3661458047418
 10
87.40500079195084
 20
-114.0128512627294
 10
87.59275849589696
 20
-113.565677868744
 10
87.59275849589696
 20
-113.565677868744
 10
87.97809242592214
 20
-113.6915961087299
 10
87.97809242592214
 20
-113.6915961087299
 10
88.00530868025562
 20
-113.7014146308628
 10
88.02270641245613
 20
-113.7064100193165
 10
88.02270641245613
 20
-113.7262193183566
 10
88.02270641245613
 20
-113.7484401842365
 10
87.99790172496233
 20
-113.7534355726901
 10
87.96327851533557
 20
-113.7558471395298
 10
87.91883678357586
 20
-113.837323647756
 10
87.8892089624027
 20
-113.8917561564229
 10
87.84476723064297
 20
-113.9658257093558
 10
87.84476723064297
 20
-113.9658257093558
 10
88.38340790976179
 20
-113.9658257093558
 10
88.38340790976179
 20
-113.9658257093558
 10
88.47487519489518
 20
-113.9658257093558
 10
88.51432153820129
 20
-113.9535956203831
 10
88.55394013628165
 20
-113.9411932766362
 10
88.55394013628165
 20
-113.9411932766362
 10
88.72929549648087
 20
-114.0919162041159
 10
88.72929549648087
 20
-114.0919162041159
 10
88.69467228685411
 20
-114.1585788017555
 10
88.69226072001445
 20
-114.1609903685952
 10
88.67744680942786
 20
-114.1956135782219
 10
88.5193169266549
 20
-114.5711289861142
 10
88.4600612843086
 20
-114.7120333914609
 10
88.32897540109484
 20
-114.9146050059936
 10
88.46746823960189
 20
-115.0357001123001
 10
88.5119099713616
 20
-115.0975395762603
 10
88.54394935937444
 20
-115.1443928748597
 10
88.47728676173485
 20
-115.2260416378602
 10
88.34637313329536
 20
-115.406392386513
 10
88.30434296837531
 20
-115.4706434173129
 10
88.24991045970836
 20
-115.3964016096058
 10
88.19065481736206
 20
-115.3223320566729
 10
88.09178057693539
 20
-115.2260416378602
 10
87.76070690080289
 20
-115.5867431351658
 10
87.39018688136426
 20
-115.7422891963248
 10
87.18503144521763
 20
-115.8213541377113
 10
87.11337345912443
 20
-115.7004312861791
 10
87.0170830403117
 20
-115.5867431351658
 10
86.91579723304535
 20
-115.4902804615788
 10
87.24187552072426
 20
-115.4038085648991
 10
87.6223863170701
 20
-115.1691975623535
 10
87.79774167726931
 20
-114.9764444699538
 10
87.634788660817
 20
-114.8553493636473
 10
87.49147268863061
 20
-114.7688774669675
 10
87.39759383665755
 20
-114.7144449583006
 10
87.39759383665755
 20
-114.7144449583006
 10
87.63220483920307
 20
-114.447622312968
 10
87.63220483920307
 20
-114.447622312968
 97
        0
 97
        0
 75
     2
 76
     1
 98
        0
  0
SPLINE
  5
4F
330
41
100
AcDbEntity
  8
_U+30EC_U+30A4_U+30E4_U+30FC 1
370
     0
100
AcDbSpline
210
0.0
220
0.0
230
1.0
 70
    11
 71
     3
 72
    38
 73
    34
 74
     0
 42
0.0000000001
 43
0.0000000001
 12
1.0
 22
0.0
 32
0.0
 13
1.0
 23
0.0
 33
0.0
 40
0.0
 40
0.0
 40
0.0
 40
0.0
 40
1.0
 40
1.0
 40
1.0
 40
2.0
 40
2.0
 40
2.0
 40
3.0
 40
3.0
 40
3.0
 40
4.0
 40
4.0
 40
4.0
 40
5.0
 40
5.0
 40
5.0
 40
6.0
 40
6.0
 40
6.0
 40
7.0
 40
7.0
 40
7.0
 40
8.0
 40
8.0
 40
8.0
 40
9.0
 40
9.0
 40
9.0
 40
10.0
 40
10.0
 40
10.0
 40
11.0
 40
11.0
 40
11.0
 40
11.0
 10
90.31180010763039
 20
-115.7869031828588
 30
0.0
 10
90.31180010763039
 20
-115.7869031828588
 30
0.0
 10
89.88684757952483
 20
-115.7869031828588
 30
0.0
 10
89.88684757952483
 20
-115.7869031828588
 30
0.0
 10
89.88684757952483
 20
-115.7869031828588
 30
0.0
 10
89.88684757952483
 20
-114.6625962712476
 30
0.0
 10
89.88684757952483
 20
-114.6625962712476
 30
0.0
 10
89.66687823279162
 20
-114.796093721301
 30
0.0
 10
89.44208575237907
 20
-114.9196003944472
 30
0.0
 10
89.20247936137994
 20
-115.0134792464202
 30
0.0
 10
89.13082137528674
 20
-114.8775702295271
 30
0.0
 10
89.01954479111318
 20
-114.7540635563809
 30
0.0
 10
88.90585664009993
 20
-114.6601847044079
 30
0.0
 10
89.84722898144445
 20
-114.3933620590753
 30
0.0
 10
90.43789060239052
 20
-113.721223929903
 30
0.0
 10
90.58844127509595
 20
-113.5284708375033
 30
0.0
 10
90.58844127509595
 20
-113.5284708375033
 30
0.0
 10
90.91710338438878
 20
-113.7880587823169
 30
0.0
 10
90.91710338438878
 20
-113.7880587823169
 30
0.0
 10
90.93191729497536
 20
-113.7978773044498
 30
0.0
 10
90.94673120556193
 20
-113.8126912150364
 30
0.0
 10
90.94673120556193
 20
-113.8349120809163
 30
0.0
 10
90.94673120556193
 20
-113.8571329467961
 30
0.0
 10
90.92709416129601
 20
-113.8669514689291
 30
0.0
 10
90.90728486225582
 20
-113.8669514689291
 30
0.0
 10
90.89488251850892
 20
-113.8669514689291
 30
0.0
 10
90.88506399637596
 20
-113.8669514689291
 30
0.0
 10
90.85784774204248
 20
-113.8595445136358
 30
0.0
 10
90.68249238184328
 20
-114.0696953382361
 30
0.0
 10
90.32661401821696
 20
-114.3537434609949
 30
0.0
 10
90.31180010763039
 20
-114.3661458047418
 30
0.0
 10
90.31180010763039
 20
-114.3661458047418
 30
0.0
 10
90.31180010763039
 20
-115.7869031828588
 30
0.0
 10
90.31180010763039
 20
-115.7869031828588
 30
0.0
  0
HATCH
  5
50
330
41
100
AcDbEntity
  8
_U+30EC_U+30A4_U+30E4_U+30FC 1
 62
   179
420
  2234388
100
AcDbHatch
 10
0.0
 20
0.0
 30
0.0
210
0.0
220
0.0
230
1.0
  2
SOLID
 70
     1
 71
     0
 91
        1
 92
        1
 93
        1
 72
     4
 94
        3
 73
     0
 74
     1
 95
       38
 96
       34
 40
0.0
 40
0.0
 40
0.0
 40
0.0
 40
1.0
 40
1.0
 40
1.0
 40
2.0
 40
2.0
 40
2.0
 40
3.0
 40
3.0
 40
3.0
 40
4.0
 40
4.0
 40
4.0
 40
5.0
 40
5.0
 40
5.0
 40
6.0
 40
6.0
 40
6.0
 40
7.0
 40
7.0
 40
7.0
 40
8.0
 40
8.0
 40
8.0
 40
9.0
 40
9.0
 40
9.0
 40
10.0
 40
10.0
 40
10.0
 40
11.0
 40
11.0
 40
11.0
 40
11.0
 10
90.31180010763039
 20
-115.7869031828588
 10
90.31180010763039
 20
-115.7869031828588
 10
89.88684757952483
 20
-115.7869031828588
 10
89.88684757952483
 20
-115.7869031828588
 10
89.88684757952483
 20
-115.7869031828588
 10
89.88684757952483
 20
-114.6625962712476
 10
89.88684757952483
 20
-114.6625962712476
 10
89.66687823279162
 20
-114.796093721301
 10
89.44208575237907
 20
-114.9196003944472
 10
89.20247936137994
 20
-115.0134792464202
 10
89.13082137528674
 20
-114.8775702295271
 10
89.01954479111318
 20
-114.7540635563809
 10
88.90585664009993
 20
-114.6601847044079
 10
89.84722898144445
 20
-114.3933620590753
 10
90.43789060239052
 20
-113.721223929903
 10
90.58844127509595
 20
-113.5284708375033
 10
90.58844127509595
 20
-113.5284708375033
 10
90.91710338438878
 20
-113.7880587823169
 10
90.91710338438878
 20
-113.7880587823169
 10
90.93191729497536
 20
-113.7978773044498
 10
90.94673120556193
 20
-113.8126912150364
 10
90.94673120556193
 20
-113.8349120809163
 10
90.94673120556193
 20
-113.8571329467961
 10
90.92709416129601
 20
-113.8669514689291
 10
90.90728486225582
 20
-113.8669514689291
 10
90.89488251850892
 20
-113.8669514689291
 10
90.88506399637596
 20
-113.8669514689291
 10
90.85784774204248
 20
-113.8595445136358
 10
90.68249238184328
 20
-114.0696953382361
 10
90.32661401821696
 20
-114.3537434609949
 10
90.31180010763039
 20
-114.3661458047418
 10
90.31180010763039
 20
-114.3661458047418
 10
90.31180010763039
 20
-115.7869031828588
 10
90.31180010763039
 20
-115.7869031828588
 97
        0
 97
        0
 75
     2
 76
     1
 98
        0
  0
SPLINE
  5
51
330
41
100
AcDbEntity
  8
_U+30EC_U+30A4_U+30E4_U+30FC 1
370
     0
100
AcDbSpline
210
0.0
220
0.0
230
1.0
 70
    11
 71
     3
 72
    38
 73
    34
 74
     0
 42
0.0000000001
 43
0.0000000001
 12
1.0
 22
0.0
 32
0.0
 13
1.0
 23
0.0
 33
0.0
 40
0.0
 40
0.0
 40
0.0
 40
0.0
 40
1.0
 40
1.0
 40
1.0
 40
2.0
 40
2.0
 40
2.0
 40
3.0
 40
3.0
 40
3.0
 40
4.0
 40
4.0
 40
4.0
 40
5.0
 40
5.0
 40
5.0
 40
6.0
 40
6.0
 40
6.0
 40
7.0
 40
7.0
 40
7.0
 40
8.0
 40
8.0
 40
8.0
 40
9.0
 40
9.0
 40
9.0
 40
10.0
 40
10.0
 40
10.0
 40
11.0
 40
11.0
 40
11.0
 40
11.0
 10
93.06787649583026
 20
-113.8819376342899
 30
0.0
 10
93.1443576156028
 20
-113.8819376342899
 30
0.0
 10
93.16158309302905
 20
-113.8669514689291
 30
0.0
 10
93.18638778052285
 20
-113.8473144246632
 30
0.0
 10
93.18638778052285
 20
-113.8473144246632
 30
0.0
 10
93.43856877004313
 20
-114.0250813517021
 30
0.0
 10
93.43856877004313
 20
-114.0250813517021
 30
0.0
 10
93.36932235078962
 20
-114.1289509805823
 30
0.0
 10
93.3496853065237
 20
-114.1783881007957
 30
0.0
 10
93.28043888727018
 20
-114.3537434609949
 30
0.0
 10
93.08785804964471
 20
-114.8503539751937
 30
0.0
 10
92.93937443423044
 20
-115.1319905311128
 30
0.0
 10
92.66273326676487
 20
-115.3741807437259
 30
0.0
 10
92.60830075809793
 20
-115.4212062970996
 30
0.0
 10
92.32442489011335
 20
-115.6658080765523
 30
0.0
 10
91.99059513759263
 20
-115.8091240487387
 30
0.0
 10
91.90894637459222
 20
-115.6632242549384
 30
0.0
 10
91.81765134423308
 20
-115.5719292245793
 30
0.0
 10
91.70913083644773
 20
-115.4828735062855
 30
0.0
 10
92.08464624433995
 20
-115.3445529225528
 30
0.0
 10
92.36852211232454
 20
-115.1197604421402
 30
0.0
 10
92.48978947340534
 20
-114.9888468137007
 30
0.0
 10
92.62552623552418
 20
-114.8405354530607
 30
0.0
 10
92.81569550630996
 20
-114.5366780312617
 30
0.0
 10
92.88735349240316
 20
-114.237643743142
 30
0.0
 10
92.88735349240316
 20
-114.237643743142
 30
0.0
 10
91.45453828008776
 20
-114.237643743142
 30
0.0
 10
91.45453828008776
 20
-114.237643743142
 30
0.0
 10
91.45453828008776
 20
-114.237643743142
 30
0.0
 10
91.45453828008776
 20
-113.8819376342899
 30
0.0
 10
91.45453828008776
 20
-113.8819376342899
 30
0.0
 10
91.45453828008776
 20
-113.8819376342899
 30
0.0
 10
93.06787649583026
 20
-113.8819376342899
 30
0.0
 10
93.06787649583026
 20
-113.8819376342899
 30
0.0
  0
SPLINE
  5
52
330
41
100
AcDbEntity
  8
_U+30EC_U+30A4_U+30E4_U+30FC 1
370
     0
100
AcDbSpline
210
0.0
220
0.0
230
1.0
 70
    11
 71
     3
 72
    17
 73
    13
 74
     0
 42
0.0000000001
 43
0.0000000001
 12
1.0
 22
0.0
 32
0.0
 13
1.0
 23
0.0
 33
0.0
 40
0.0
 40
0.0
 40
0.0
 40
0.0
 40
1.0
 40
1.0
 40
1.0
 40
2.0
 40
2.0
 40
2.0
 40
3.0
 40
3.0
 40
3.0
 40
4.0
 40
4.0
 40
4.0
 40
4.0
 10
93.69557289324278
 20
-113.7138169746097
 30
0.0
 10
93.69557289324278
 20
-113.8423190362096
 30
0.0
 10
93.59153100958824
 20
-113.9461886650898
 30
0.0
 10
93.46337345753693
 20
-113.9461886650898
 30
0.0
 10
93.33487139593711
 20
-113.9461886650898
 30
0.0
 10
93.2311740218311
 20
-113.8423190362096
 30
0.0
 10
93.2311740218311
 20
-113.7138169746097
 30
0.0
 10
93.2311740218311
 20
-113.5829033461703
 30
0.0
 10
93.33487139593711
 20
-113.4816175389039
 30
0.0
 10
93.46337345753693
 20
-113.4816175389039
 30
0.0
 10
93.58946395229708
 20
-113.4816175389039
 30
0.0
 10
93.69557289324278
 20
-113.5829033461703
 30
0.0
 10
93.69557289324278
 20
-113.7138169746097
 30
0.0
  0
SPLINE
  5
53
330
41
100
AcDbEntity
  8
_U+30EC_U+30A4_U+30E4_U+30FC 1
370
     0
100
AcDbSpline
210
0.0
220
0.0
230
1.0
 70
    11
 71
     3
 72
    17
 73
    13
 74
     0
 42
0.0000000001
 43
0.0000000001
 12
1.0
 22
0.0
 32
0.0
 13
1.0
 23
0.0
 33
0.0
 40
0.0
 40
0.0
 40
0.0
 40
0.0
 40
1.0
 40
1.0
 40
1.0
 40
2.0
 40
2.0
 40
2.0
 40
3.0
 40
3.0
 40
3.0
 40
4.0
 40
4.0
 40
4.0
 40
4.0
 10
93.35450844020305
 20
-113.7138169746097
 30
0.0
 10
93.35450844020305
 20
-113.773072616956
 30
0.0
 10
93.40136173880244
 20
-113.8225097371694
 30
0.0
 10
93.46337345753693
 20
-113.8225097371694
 30
0.0
 10
93.52262909988323
 20
-113.8225097371694
 30
0.0
 10
93.5718939653223
 20
-113.773072616956
 30
0.0
 10
93.5718939653223
 20
-113.7138169746097
 30
0.0
 10
93.5718939653223
 20
-113.6521497654238
 30
0.0
 10
93.52262909988323
 20
-113.6051242120501
 30
0.0
 10
93.46337345753693
 20
-113.6051242120501
 30
0.0
 10
93.40411781519065
 20
-113.6051242120501
 30
0.0
 10
93.35450844020305
 20
-113.6521497654238
 30
0.0
 10
93.35450844020305
 20
-113.7138169746097
 30
0.0
  0
HATCH
  5
54
330
41
100
AcDbEntity
  8
_U+30EC_U+30A4_U+30E4_U+30FC 1
 62
   179
420
  2234388
100
AcDbHatch
 10
0.0
 20
0.0
 30
0.0
210
0.0
220
0.0
230
1.0
  2
SOLID
 70
     1
 71
     0
 91
        3
 92
        1
 93
        1
 72
     4
 94
        3
 73
     0
 74
     1
 95
       38
 96
       34
 40
0.0
 40
0.0
 40
0.0
 40
0.0
 40
1.0
 40
1.0
 40
1.0
 40
2.0
 40
2.0
 40
2.0
 40
3.0
 40
3.0
 40
3.0
 40
4.0
 40
4.0
 40
4.0
 40
5.0
 40
5.0
 40
5.0
 40
6.0
 40
6.0
 40
6.0
 40
7.0
 40
7.0
 40
7.0
 40
8.0
 40
8.0
 40
8.0
 40
9.0
 40
9.0
 40
9.0
 40
10.0
 40
10.0
 40
10.0
 40
11.0
 40
11.0
 40
11.0
 40
11.0
 10
93.06787649583026
 20
-113.8819376342899
 10
93.1443576156028
 20
-113.8819376342899
 10
93.16158309302905
 20
-113.8669514689291
 10
93.18638778052285
 20
-113.8473144246632
 10
93.18638778052285
 20
-113.8473144246632
 10
93.43856877004313
 20
-114.0250813517021
 10
93.43856877004313
 20
-114.0250813517021
 10
93.36932235078962
 20
-114.1289509805823
 10
93.3496853065237
 20
-114.1783881007957
 10
93.28043888727018
 20
-114.3537434609949
 10
93.08785804964471
 20
-114.8503539751937
 10
92.93937443423044
 20
-115.1319905311128
 10
92.66273326676487
 20
-115.3741807437259
 10
92.60830075809793
 20
-115.4212062970996
 10
92.32442489011335
 20
-115.6658080765523
 10
91.99059513759263
 20
-115.8091240487387
 10
91.90894637459222
 20
-115.6632242549384
 10
91.81765134423308
 20
-115.5719292245793
 10
91.70913083644773
 20
-115.4828735062855
 10
92.08464624433995
 20
-115.3445529225528
 10
92.36852211232454
 20
-115.1197604421402
 10
92.48978947340534
 20
-114.9888468137007
 10
92.62552623552418
 20
-114.8405354530607
 10
92.81569550630996
 20
-114.5366780312617
 10
92.88735349240316
 20
-114.237643743142
 10
92.88735349240316
 20
-114.237643743142
 10
91.45453828008776
 20
-114.237643743142
 10
91.45453828008776
 20
-114.237643743142
 10
91.45453828008776
 20
-114.237643743142
 10
91.45453828008776
 20
-113.8819376342899
 10
91.45453828008776
 20
-113.8819376342899
 10
91.45453828008776
 20
-113.8819376342899
 10
93.06787649583026
 20
-113.8819376342899
 10
93.06787649583026
 20
-113.8819376342899
 97
        0
 97
        0
 92
        1
 93
        1
 72
     4
 94
        3
 73
     0
 74
     1
 95
       17
 96
       13
 40
0.0
 40
0.0
 40
0.0
 40
0.0
 40
1.0
 40
1.0
 40
1.0
 40
2.0
 40
2.0
 40
2.0
 40
3.0
 40
3.0
 40
3.0
 40
4.0
 40
4.0
 40
4.0
 40
4.0
 10
93.69557289324278
 20
-113.7138169746097
 10
93.69557289324278
 20
-113.8423190362096
 10
93.59153100958824
 20
-113.9461886650898
 10
93.46337345753693
 20
-113.9461886650898
 10
93.33487139593711
 20
-113.9461886650898
 10
93.2311740218311
 20
-113.8423190362096
 10
93.2311740218311
 20
-113.7138169746097
 10
93.2311740218311
 20
-113.5829033461703
 10
93.33487139593711
 20
-113.4816175389039
 10
93.46337345753693
 20
-113.4816175389039
 10
93.58946395229708
 20
-113.4816175389039
 10
93.69557289324278
 20
-113.5829033461703
 10
93.69557289324278
 20
-113.7138169746097
 97
        0
 97
        0
 92
        1
 93
        1
 72
     4
 94
        3
 73
     0
 74
     1
 95
       17
 96
       13
 40
0.0
 40
0.0
 40
0.0
 40
0.0
 40
1.0
 40
1.0
 40
1.0
 40
2.0
 40
2.0
 40
2.0
 40
3.0
 40
3.0
 40
3.0
 40
4.0
 40
4.0
 40
4.0
 40
4.0
 10
93.35450844020305
 20
-113.7138169746097
 10
93.35450844020305
 20
-113.773072616956
 10
93.40136173880244
 20
-113.8225097371694
 10
93.46337345753693
 20
-113.8225097371694
 10
93.52262909988323
 20
-113.8225097371694
 10
93.5718939653223
 20
-113.773072616956
 10
93.5718939653223
 20
-113.7138169746097
 10
93.5718939653223
 20
-113.6521497654238
 10
93.52262909988323
 20
-113.6051242120501
 10
93.46337345753693
 20
-113.6051242120501
 10
93.40411781519065
 20
-113.6051242120501
 10
93.35450844020305
 20
-113.6521497654238
 10
93.35450844020305
 20
-113.7138169746097
 97
        0
 97
        0
 75
     2
 76
     1
 98
        0
  0
ENDBLK
  5
44
330
41
100
AcDbEntity
  8
0
100
AcDbBlockEnd
  0
BLOCK
  5
70
330
6E
100
AcDbEntity
  8
0
100
AcDbBlockBegin
  2
block 3
 70
     0
 10
0.0
 20
0.0
 30
0.0
  3
block 3
  1

  0
SPLINE
  5
72
330
6E
100
AcDbEntity
  8
_U+30EC_U+30A4_U+30E4_U+30FC 1
370
     0
100
AcDbSpline
210
0.0
220
0.0
230
1.0
 70
    11
 71
     3
 72
    26
 73
    22
 74
     0
 42
0.0000000001
 43
0.0000000001
 12
1.0
 22
0.0
 32
0.0
 13
1.0
 23
0.0
 33
0.0
 40
0.0
 40
0.0
 40
0.0
 40
0.0
 40
1.0
 40
1.0
 40
1.0
 40
2.0
 40
2.0
 40
2.0
 40
3.0
 40
3.0
 40
3.0
 40
4.0
 40
4.0
 40
4.0
 40
5.0
 40
5.0
 40
5.0
 40
6.0
 40
6.0
 40
6.0
 40
7.0
 40
7.0
 40
7.0
 40
7.0
 10
80.8999714967021
 20
-131.6436441728183
 30
0.0
 10
80.8999714967021
 20
-131.6436441728183
 30
0.0
 10
79.79564613890525
 20
-131.6436441728183
 30
0.0
 10
79.79564613890525
 20
-131.6436441728183
 30
0.0
 10
79.79564613890525
 20
-131.6436441728183
 30
0.0
 10
79.79564613890525
 20
-131.9736843203052
 30
0.0
 10
79.79564613890525
 20
-131.9736843203052
 30
0.0
 10
79.79564613890525
 20
-131.9736843203052
 30
0.0
 10
79.64767928781377
 20
-131.9736843203052
 30
0.0
 10
79.64767928781377
 20
-131.9736843203052
 30
0.0
 10
79.6328653772272
 20
-131.6415771155271
 30
0.0
 10
79.46991236077488
 20
-131.5950683264763
 30
0.0
 10
79.35570744543885
 20
-131.5654405053031
 30
0.0
 10
79.35570744543885
 20
-131.5654405053031
 30
0.0
 10
79.35570744543885
 20
-131.4193684567285
 30
0.0
 10
79.35570744543885
 20
-131.4193684567285
 30
0.0
 10
79.35570744543885
 20
-131.4193684567285
 30
0.0
 10
80.8999714967021
 20
-131.4193684567285
 30
0.0
 10
80.8999714967021
 20
-131.4193684567285
 30
0.0
 10
80.8999714967021
 20
-131.4193684567285
 30
0.0
 10
80.8999714967021
 20
-131.6436441728183
 30
0.0
 10
80.8999714967021
 20
-131.6436441728183
 30
0.0
  0
HATCH
  5
73
330
6E
100
AcDbEntity
  8
_U+30EC_U+30A4_U+30E4_U+30FC 1
 62
   179
420
  2234388
100
AcDbHatch
 10
0.0
 20
0.0
 30
0.0
210
0.0
220
0.0
230
1.0
  2
SOLID
 70
     1
 71
     0
 91
        1
 92
        1
 93
        1
 72
     4
 94
        3
 73
     0
 74
     1
 95
       26
 96
       22
 40
0.0
 40
0.0
 40
0.0
 40
0.0
 40
1.0
 40
1.0
 40
1.0
 40
2.0
 40
2.0
 40
2.0
 40
3.0
 40
3.0
 40
3.0
 40
4.0
 40
4.0
 40
4.0
 40
5.0
 40
5.0
 40
5.0
 40
6.0
 40
6.0
 40
6.0
 40
7.0
 40
7.0
 40
7.0
 40
7.0
 10
80.8999714967021
 20
-131.6436441728183
 10
80.8999714967021
 20
-131.6436441728183
 10
79.79564613890525
 20
-131.6436441728183
 10
79.79564613890525
 20
-131.6436441728183
 10
79.79564613890525
 20
-131.6436441728183
 10
79.79564613890525
 20
-131.9736843203052
 10
79.79564613890525
 20
-131.9736843203052
 10
79.79564613890525
 20
-131.9736843203052
 10
79.64767928781377
 20
-131.9736843203052
 10
79.64767928781377
 20
-131.9736843203052
 10
79.6328653772272
 20
-131.6415771155271
 10
79.46991236077488
 20
-131.5950683264763
 10
79.35570744543885
 20
-131.5654405053031
 10
79.35570744543885
 20
-131.5654405053031
 10
79.35570744543885
 20
-131.4193684567285
 10
79.35570744543885
 20
-131.4193684567285
 10
79.35570744543885
 20
-131.4193684567285
 10
80.8999714967021
 20
-131.4193684567285
 10
80.8999714967021
 20
-131.4193684567285
 10
80.8999714967021
 20
-131.4193684567285
 10
80.8999714967021
 20
-131.6436441728183
 10
80.8999714967021
 20
-131.6436441728183
 97
        0
 97
        0
 75
     2
 76
     1
 98
        0
  0
POLYLINE
  5
74
330
6E
100
AcDbEntity
  8
_U+30EC_U+30A4_U+30E4_U+30FC 1
370
     0
100
AcDb2dPolyline
 66
     1
 10
0.0
 20
0.0
 30
0.0
  0
VERTEX
  5
75
330
74
100
AcDbEntity
  8
_U+30EC_U+30A4_U+30E4_U+30FC 1
370
     0
100
AcDbVertex
100
AcDb2dVertex
 10
80.55305038133744
 20
-130.0861165039368
 30
0.0
  0
VERTEX
  5
76
330
74
100
AcDbEntity
  8
_U+30EC_U+30A4_U+30E4_U+30FC 1
370
     0
100
AcDbVertex
100
AcDb2dVertex
 10
80.8999714967021
 20
-130.0861165039368
 30
0.0
  0
VERTEX
  5
77
330
74
100
AcDbEntity
  8
_U+30EC_U+30A4_U+30E4_U+30FC 1
370
     0
100
AcDbVertex
100
AcDb2dVertex
 10
80.8999714967021
 20
-130.3038465386046
 30
0.0
  0
VERTEX
  5
78
330
74
100
AcDbEntity
  8
_U+30EC_U+30A4_U+30E4_U+30FC 1
370
     0
100
AcDbVertex
100
AcDb2dVertex
 10
80.55305038133744
 20
-130.3038465386046
 30
0.0
  0
VERTEX
  5
79
330
74
100
AcDbEntity
  8
_U+30EC_U+30A4_U+30E4_U+30FC 1
370
     0
100
AcDbVertex
100
AcDb2dVertex
 10
80.55305038133744
 20
-130.9597927189962
 30
0.0
  0
VERTEX
  5
7A
330
74
100
AcDbEntity
  8
_U+30EC_U+30A4_U+30E4_U+30FC 1
370
     0
100
AcDbVertex
100
AcDb2dVertex
 10
80.32877466524766
 20
-130.9597927189962
 30
0.0
  0
VERTEX
  5
7B
330
74
100
AcDbEntity
  8
_U+30EC_U+30A4_U+30E4_U+30FC 1
370
     0
100
AcDbVertex
100
AcDb2dVertex
 10
79.35570744543885
 20
-130.2807643988534
 30
0.0
  0
VERTEX
  5
7C
330
74
100
AcDbEntity
  8
_U+30EC_U+30A4_U+30E4_U+30FC 1
370
     0
100
AcDbVertex
100
AcDb2dVertex
 10
79.35570744543885
 20
-130.0861165039368
 30
0.0
  0
VERTEX
  5
7D
330
74
100
AcDbEntity
  8
_U+30EC_U+30A4_U+30E4_U+30FC 1
370
     0
100
AcDbVertex
100
AcDb2dVertex
 10
80.35409611706426
 20
-130.0861165039368
 30
0.0
  0
VERTEX
  5
7E
330
74
100
AcDbEntity
  8
_U+30EC_U+30A4_U+30E4_U+30FC 1
370
     0
100
AcDbVertex
100
AcDb2dVertex
 10
80.35409611706426
 20
-129.8787217557248
 30
0.0
  0
VERTEX
  5
7F
330
74
100
AcDbEntity
  8
_U+30EC_U+30A4_U+30E4_U+30FC 1
370
     0
100
AcDbVertex
100
AcDb2dVertex
 10
80.55305038133744
 20
-129.8787217557248
 30
0.0
  0
VERTEX
  5
80
330
74
100
AcDbEntity
  8
_U+30EC_U+30A4_U+30E4_U+30FC 1
370
     0
100
AcDbVertex
100
AcDb2dVertex
 10
80.55305038133744
 20
-130.0861165039368
 30
0.0
  0
SEQEND
  5
81
330
74
100
AcDbEntity
  8
_U+30EC_U+30A4_U+30E4_U+30FC 1
370
     0
  0
POLYLINE
  5
82
330
6E
100
AcDbEntity
  8
_U+30EC_U+30A4_U+30E4_U+30FC 1
370
     0
100
AcDb2dPolyline
 66
     1
 10
0.0
 20
0.0
 30
0.0
  0
VERTEX
  5
83
330
82
100
AcDbEntity
  8
_U+30EC_U+30A4_U+30E4_U+30FC 1
370
     0
100
AcDbVertex
100
AcDb2dVertex
 10
79.69832219144695
 20
-130.3038465386046
 30
0.0
  0
VERTEX
  5
84
330
82
100
AcDbEntity
  8
_U+30EC_U+30A4_U+30E4_U+30FC 1
370
     0
100
AcDbVertex
100
AcDb2dVertex
 10
80.35409611706426
 20
-130.7606661999487
 30
0.0
  0
VERTEX
  5
85
330
82
100
AcDbEntity
  8
_U+30EC_U+30A4_U+30E4_U+30FC 1
370
     0
100
AcDbVertex
100
AcDb2dVertex
 10
80.35409611706426
 20
-130.3038465386046
 30
0.0
  0
VERTEX
  5
86
330
82
100
AcDbEntity
  8
_U+30EC_U+30A4_U+30E4_U+30FC 1
370
     0
100
AcDbVertex
100
AcDb2dVertex
 10
79.69832219144695
 20
-130.3038465386046
 30
0.0
  0
SEQEND
  5
87
330
82
100
AcDbEntity
  8
_U+30EC_U+30A4_U+30E4_U+30FC 1
370
     0
  0
HATCH
  5
88
330
6E
100
AcDbEntity
  8
_U+30EC_U+30A4_U+30E4_U+30FC 1
 62
   179
420
  2234388
100
AcDbHatch
 10
0.0
 20
0.0
 30
0.0
210
0.0
220
0.0
230
1.0
  2
SOLID
 70
     1
 71
     0
 91
        2
 92
        1
 93
       11
 72
     1
 10
80.55305038133744
 20
-130.0861165039368
 11
80.8999714967021
 21
-130.0861165039368
 72
     1
 10
80.8999714967021
 20
-130.0861165039368
 11
80.8999714967021
 21
-130.3038465386046
 72
     1
 10
80.8999714967021
 20
-130.3038465386046
 11
80.55305038133744
 21
-130.3038465386046
 72
     1
 10
80.55305038133744
 20
-130.3038465386046
 11
80.55305038133744
 21
-130.9597927189962
 72
     1
 10
80.55305038133744
 20
-130.9597927189962
 11
80.32877466524766
 21
-130.9597927189962
 72
     1
 10
80.32877466524766
 20
-130.9597927189962
 11
79.35570744543885
 21
-130.2807643988534
 72
     1
 10
79.35570744543885
 20
-130.2807643988534
 11
79.35570744543885
 21
-130.0861165039368
 72
     1
 10
79.35570744543885
 20
-130.0861165039368
 11
80.35409611706426
 21
-130.0861165039368
 72
     1
 10
80.35409611706426
 20
-130.0861165039368
 11
80.35409611706426
 21
-129.8787217557248
 72
     1
 10
80.35409611706426
 20
-129.8787217557248
 11
80.55305038133744
 21
-129.8787217557248
 72
     1
 10
80.55305038133744
 20
-129.8787217557248
 11
80.55305038133744
 21
-130.0861165039368
 97
        0
 92
        1
 93
        3
 72
     1
 10
79.69832219144695
 20
-130.3038465386046
 11
80.35409611706426
 21
-130.7606661999487
 72
     1
 10
80.35409611706426
 20
-130.7606661999487
 11
80.35409611706426
 21
-130.3038465386046
 72
     1
 10
80.35409611706426
 20
-130.3038465386046
 11
79.69832219144695
 21
-130.3038465386046
 97
        0
 75
     2
 76
     1
 98
        0
  0
ENDBLK
  5
71
330
6E
100
AcDbEntity
  8
0
100
AcDbBlockEnd
  0
BLOCK
  5
98
330
96
100
AcDbEntity
  8
0
100
AcDbBlockBegin
  2
block 4
 70
     0
 10
0.0
 20
0.0
 30
0.0
  3
block 4
  1

  0
SPLINE
  5
9A
330
96
100
AcDbEntity
  8
_U+30EC_U+30A4_U+30E4_U+30FC 1
370
     0
100
AcDbSpline
210
0.0
220
0.0
230
1.0
 70
    11
 71
     3
 72
    26
 73
    22
 74
     0
 42
0.0000000001
 43
0.0000000001
 12
1.0
 22
0.0
 32
0.0
 13
1.0
 23
0.0
 33
0.0
 40
0.0
 40
0.0
 40
0.0
 40
0.0
 40
1.0
 40
1.0
 40
1.0
 40
2.0
 40
2.0
 40
2.0
 40
3.0
 40
3.0
 40
3.0
 40
4.0
 40
4.0
 40
4.0
 40
5.0
 40
5.0
 40
5.0
 40
6.0
 40
6.0
 40
6.0
 40
7.0
 40
7.0
 40
7.0
 40
7.0
 10
93.6352837222509
 20
-119.5210421793211
 30
0.0
 10
93.6352837222509
 20
-119.5210421793211
 30
0.0
 10
93.6352837222509
 20
-118.4167168215243
 30
0.0
 10
93.6352837222509
 20
-118.4167168215243
 30
0.0
 10
93.6352837222509
 20
-118.4167168215243
 30
0.0
 10
93.30524357476398
 20
-118.4167168215243
 30
0.0
 10
93.30524357476398
 20
-118.4167168215243
 30
0.0
 10
93.30524357476398
 20
-118.4167168215243
 30
0.0
 10
93.30524357476398
 20
-118.2687499704328
 30
0.0
 10
93.30524357476398
 20
-118.2687499704328
 30
0.0
 10
93.63735077954206
 20
-118.2539360598462
 30
0.0
 10
93.68385956859292
 20
-118.0909830433939
 30
0.0
 10
93.71348738976607
 20
-117.9767781280579
 30
0.0
 10
93.71348738976607
 20
-117.9767781280579
 30
0.0
 10
93.85955943834067
 20
-117.9767781280579
 30
0.0
 10
93.85955943834067
 20
-117.9767781280579
 30
0.0
 10
93.85955943834067
 20
-117.9767781280579
 30
0.0
 10
93.85955943834067
 20
-119.5210421793211
 30
0.0
 10
93.85955943834067
 20
-119.5210421793211
 30
0.0
 10
93.85955943834067
 20
-119.5210421793211
 30
0.0
 10
93.6352837222509
 20
-119.5210421793211
 30
0.0
 10
93.6352837222509
 20
-119.5210421793211
 30
0.0
  0
HATCH
  5
9B
330
96
100
AcDbEntity
  8
_U+30EC_U+30A4_U+30E4_U+30FC 1
 62
   179
420
  2234388
100
AcDbHatch
 10
0.0
 20
0.0
 30
0.0
210
0.0
220
0.0
230
1.0
  2
SOLID
 70
     1
 71
     0
 91
        1
 92
        1
 93
        1
 72
     4
 94
        3
 73
     0
 74
     1
 95
       26
 96
       22
 40
0.0
 40
0.0
 40
0.0
 40
0.0
 40
1.0
 40
1.0
 40
1.0
 40
2.0
 40
2.0
 40
2.0
 40
3.0
 40
3.0
 40
3.0
 40
4.0
 40
4.0
 40
4.0
 40
5.0
 40
5.0
 40
5.0
 40
6.0
 40
6.0
 40
6.0
 40
7.0
 40
7.0
 40
7.0
 40
7.0
 10
93.6352837222509
 20
-119.5210421793211
 10
93.6352837222509
 20
-119.5210421793211
 10
93.6352837222509
 20
-118.4167168215243
 10
93.6352837222509
 20
-118.4167168215243
 10
93.6352837222509
 20
-118.4167168215243
 10
93.30524357476398
 20
-118.4167168215243
 10
93.30524357476398
 20
-118.4167168215243
 10
93.30524357476398
 20
-118.4167168215243
 10
93.30524357476398
 20
-118.2687499704328
 10
93.30524357476398
 20
-118.2687499704328
 10
93.63735077954206
 20
-118.2539360598462
 10
93.68385956859292
 20
-118.0909830433939
 10
93.71348738976607
 20
-117.9767781280579
 10
93.71348738976607
 20
-117.9767781280579
 10
93.85955943834067
 20
-117.9767781280579
 10
93.85955943834067
 20
-117.9767781280579
 10
93.85955943834067
 20
-117.9767781280579
 10
93.85955943834067
 20
-119.5210421793211
 10
93.85955943834067
 20
-119.5210421793211
 10
93.85955943834067
 20
-119.5210421793211
 10
93.6352837222509
 20
-119.5210421793211
 10
93.6352837222509
 20
-119.5210421793211
 97
        0
 97
        0
 75
     2
 76
     1
 98
        0
  0
SPLINE
  5
9C
330
96
100
AcDbEntity
  8
_U+30EC_U+30A4_U+30E4_U+30FC 1
370
     0
100
AcDbSpline
210
0.0
220
0.0
230
1.0
 70
    11
 71
     3
 72
    29
 73
    25
 74
     0
 42
0.0000000001
 43
0.0000000001
 12
1.0
 22
0.0
 32
0.0
 13
1.0
 23
0.0
 33
0.0
 40
0.0
 40
0.0
 40
0.0
 40
0.0
 40
1.0
 40
1.0
 40
1.0
 40
2.0
 40
2.0
 40
2.0
 40
3.0
 40
3.0
 40
3.0
 40
4.0
 40
4.0
 40
4.0
 40
5.0
 40
5.0
 40
5.0
 40
6.0
 40
6.0
 40
6.0
 40
7.0
 40
7.0
 40
7.0
 40
8.0
 40
8.0
 40
8.0
 40
8.0
 10
94.86070418635427
 20
-119.5718573377286
 30
0.0
 10
94.59405379579593
 20
-119.5718573377286
 30
0.0
 10
94.34049476808154
 20
-119.4342257730928
 30
0.0
 10
94.34049476808154
 20
-119.085237600437
 30
0.0
 10
94.34049476808154
 20
-118.829267005883
 30
0.0
 10
94.48208819252531
 20
-118.7340101157158
 30
0.0
 10
94.58785262392249
 20
-118.6726874160784
 30
0.0
 10
94.46314016735644
 20
-118.6134317737321
 30
0.0
 10
94.38700355713242
 20
-118.499226858396
 30
0.0
 10
94.38700355713242
 20
-118.3385131540091
 30
0.0
 10
94.38700355713242
 20
-118.0634222795119
 30
0.0
 10
94.58578556663133
 20
-117.9280300269416
 30
0.0
 10
94.86070418635427
 20
-117.9280300269416
 30
0.0
 10
95.14423554479033
 20
-117.9280300269416
 30
0.0
 10
95.33474932512465
 20
-118.0718627634508
 30
0.0
 10
95.33474932512465
 20
-118.3385131540091
 30
0.0
 10
95.33474932512465
 20
-118.499226858396
 30
0.0
 10
95.25620114806095
 20
-118.6134317737321
 30
0.0
 10
95.13148869149491
 20
-118.6726874160784
 30
0.0
 10
95.22037215501436
 20
-118.7235025744858
 30
0.0
 10
95.37919105688437
 20
-118.818759464653
 30
0.0
 10
95.37919105688437
 20
-119.0811034858547
 30
0.0
 10
95.37919105688437
 20
-119.4554131103271
 30
0.0
 10
95.09979381303062
 20
-119.5718573377286
 30
0.0
 10
94.86070418635427
 20
-119.5718573377286
 30
0.0
  0
SPLINE
  5
9D
330
96
100
AcDbEntity
  8
_U+30EC_U+30A4_U+30E4_U+30FC 1
370
     0
100
AcDbSpline
210
0.0
220
0.0
230
1.0
 70
    11
 71
     3
 72
    17
 73
    13
 74
     0
 42
0.0000000001
 43
0.0000000001
 12
1.0
 22
0.0
 32
0.0
 13
1.0
 23
0.0
 33
0.0
 40
0.0
 40
0.0
 40
0.0
 40
0.0
 40
1.0
 40
1.0
 40
1.0
 40
2.0
 40
2.0
 40
2.0
 40
3.0
 40
3.0
 40
3.0
 40
4.0
 40
4.0
 40
4.0
 40
4.0
 10
94.86070418635427
 20
-118.780691159541
 30
0.0
 10
94.71704370461936
 20
-118.780691159541
 30
0.0
 10
94.5644259746228
 20
-118.867335310995
 30
0.0
 10
94.5644259746228
 20
-119.0704236898505
 30
0.0
 10
94.5644259746228
 20
-119.2755791259971
 30
0.0
 10
94.6915499980285
 20
-119.377209442812
 30
0.0
 10
94.86070418635427
 20
-119.377209442812
 30
0.0
 10
95.04673934255776
 20
-119.377209442812
 30
0.0
 10
95.15698239808576
 20
-119.2545640435371
 30
0.0
 10
95.15698239808576
 20
-119.0767971164982
 30
0.0
 10
95.15698239808576
 20
-118.8545884576995
 30
0.0
 10
94.99402938163344
 20
-118.780691159541
 30
0.0
 10
94.86070418635427
 20
-118.780691159541
 30
0.0
  0
SPLINE
  5
9E
330
96
100
AcDbEntity
  8
_U+30EC_U+30A4_U+30E4_U+30FC 1
370
     0
100
AcDbSpline
210
0.0
220
0.0
230
1.0
 70
    11
 71
     3
 72
    17
 73
    13
 74
     0
 42
0.0000000001
 43
0.0000000001
 12
1.0
 22
0.0
 32
0.0
 13
1.0
 23
0.0
 33
0.0
 40
0.0
 40
0.0
 40
0.0
 40
0.0
 40
1.0
 40
1.0
 40
1.0
 40
2.0
 40
2.0
 40
2.0
 40
3.0
 40
3.0
 40
3.0
 40
4.0
 40
4.0
 40
4.0
 40
4.0
 10
94.86070418635427
 20
-118.1206108645671
 30
0.0
 10
94.6956841126108
 20
-118.1206108645671
 30
0.0
 10
94.61127927322218
 20
-118.21569549996
 30
0.0
 10
94.61127927322218
 20
-118.3510877525303
 30
0.0
 10
94.61127927322218
 20
-118.4739054065794
 30
0.0
 10
94.68293725931538
 20
-118.592416691272
 30
0.0
 10
94.86070418635427
 20
-118.592416691272
 30
0.0
 10
95.03847111339316
 20
-118.592416691272
 30
0.0
 10
95.11047360903488
 20
-118.4739054065794
 30
0.0
 10
95.11047360903488
 20
-118.3510877525303
 30
0.0
 10
95.11047360903488
 20
-118.21569549996
 30
0.0
 10
95.02365720280659
 20
-118.1206108645671
 30
0.0
 10
94.86070418635427
 20
-118.1206108645671
 30
0.0
  0
HATCH
  5
9F
330
96
100
AcDbEntity
  8
_U+30EC_U+30A4_U+30E4_U+30FC 1
 62
   179
420
  2234388
100
AcDbHatch
 10
0.0
 20
0.0
 30
0.0
210
0.0
220
0.0
230
1.0
  2
SOLID
 70
     1
 71
     0
 91
        3
 92
        1
 93
        1
 72
     4
 94
        3
 73
     0
 74
     1
 95
       29
 96
       25
 40
0.0
 40
0.0
 40
0.0
 40
0.0
 40
1.0
 40
1.0
 40
1.0
 40
2.0
 40
2.0
 40
2.0
 40
3.0
 40
3.0
 40
3.0
 40
4.0
 40
4.0
 40
4.0
 40
5.0
 40
5.0
 40
5.0
 40
6.0
 40
6.0
 40
6.0
 40
7.0
 40
7.0
 40
7.0
 40
8.0
 40
8.0
 40
8.0
 40
8.0
 10
94.86070418635427
 20
-119.5718573377286
 10
94.59405379579593
 20
-119.5718573377286
 10
94.34049476808154
 20
-119.4342257730928
 10
94.34049476808154
 20
-119.085237600437
 10
94.34049476808154
 20
-118.829267005883
 10
94.48208819252531
 20
-118.7340101157158
 10
94.58785262392249
 20
-118.6726874160784
 10
94.46314016735644
 20
-118.6134317737321
 10
94.38700355713242
 20
-118.499226858396
 10
94.38700355713242
 20
-118.3385131540091
 10
94.38700355713242
 20
-118.0634222795119
 10
94.58578556663133
 20
-117.9280300269416
 10
94.86070418635427
 20
-117.9280300269416
 10
95.14423554479033
 20
-117.9280300269416
 10
95.33474932512465
 20
-118.0718627634508
 10
95.33474932512465
 20
-118.3385131540091
 10
95.33474932512465
 20
-118.499226858396
 10
95.25620114806095
 20
-118.6134317737321
 10
95.13148869149491
 20
-118.6726874160784
 10
95.22037215501436
 20
-118.7235025744858
 10
95.37919105688437
 20
-118.818759464653
 10
95.37919105688437
 20
-119.0811034858547
 10
95.37919105688437
 20
-119.4554131103271
 10
95.09979381303062
 20
-119.5718573377286
 10
94.86070418635427
 20
-119.5718573377286
 97
        0
 97
        0
 92
        1
 93
        1
 72
     4
 94
        3
 73
     0
 74
     1
 95
       17
 96
       13
 40
0.0
 40
0.0
 40
0.0
 40
0.0
 40
1.0
 40
1.0
 40
1.0
 40
2.0
 40
2.0
 40
2.0
 40
3.0
 40
3.0
 40
3.0
 40
4.0
 40
4.0
 40
4.0
 40
4.0
 10
94.86070418635427
 20
-118.780691159541
 10
94.71704370461936
 20
-118.780691159541
 10
94.5644259746228
 20
-118.867335310995
 10
94.5644259746228
 20
-119.0704236898505
 10
94.5644259746228
 20
-119.2755791259971
 10
94.6915499980285
 20
-119.377209442812
 10
94.86070418635427
 20
-119.377209442812
 10
95.04673934255776
 20
-119.377209442812
 10
95.15698239808576
 20
-119.2545640435371
 10
95.15698239808576
 20
-119.0767971164982
 10
95.15698239808576
 20
-118.8545884576995
 10
94.99402938163344
 20
-118.780691159541
 10
94.86070418635427
 20
-118.780691159541
 97
        0
 97
        0
 92
        1
 93
        1
 72
     4
 94
        3
 73
     0
 74
     1
 95
       17
 96
       13
 40
0.0
 40
0.0
 40
0.0
 40
0.0
 40
1.0
 40
1.0
 40
1.0
 40
2.0
 40
2.0
 40
2.0
 40
3.0
 40
3.0
 40
3.0
 40
4.0
 40
4.0
 40
4.0
 40
4.0
 10
94.86070418635427
 20
-118.1206108645671
 10
94.6956841126108
 20
-118.1206108645671
 10
94.61127927322218
 20
-118.21569549996
 10
94.61127927322218
 20
-118.3510877525303
 10
94.61127927322218
 20
-118.4739054065794
 10
94.68293725931538
 20
-118.592416691272
 10
94.86070418635427
 20
-118.592416691272
 10
95.03847111339316
 20
-118.592416691272
 10
95.11047360903488
 20
-118.4739054065794
 10
95.11047360903488
 20
-118.3510877525303
 10
95.11047360903488
 20
-118.21569549996
 10
95.02365720280659
 20
-118.1206108645671
 10
94.86070418635427
 20
-118.1206108645671
 97
        0
 97
        0
 75
     2
 76
     1
 98
        0
  0
ENDBLK
  5
99
330
96
100
AcDbEntity
  8
0
100
AcDbBlockEnd
  0
BLOCK
  5
AB
330
A9
100
AcDbEntity
  8
0
100
AcDbBlockBegin
  2
block 5
 70
     0
 10
0.0
 20
0.0
 30
0.0
  3
block 5
  1

  0
SPLINE
  5
AD
330
A9
100
AcDbEntity
  8
_U+30EC_U+30A4_U+30E4_U+30FC 1
370
     0
100
AcDbSpline
210
0.0
220
0.0
230
1.0
 70
    11
 71
     3
 72
    53
 73
    49
 74
     0
 42
0.0000000001
 43
0.0000000001
 12
1.0
 22
0.0
 32
0.0
 13
1.0
 23
0.0
 33
0.0
 40
0.0
 40
0.0
 40
0.0
 40
0.0
 40
1.0
 40
1.0
 40
1.0
 40
2.0
 40
2.0
 40
2.0
 40
3.0
 40
3.0
 40
3.0
 40
4.0
 40
4.0
 40
4.0
 40
5.0
 40
5.0
 40
5.0
 40
6.0
 40
6.0
 40
6.0
 40
7.0
 40
7.0
 40
7.0
 40
8.0
 40
8.0
 40
8.0
 40
9.0
 40
9.0
 40
9.0
 40
10.0
 40
10.0
 40
10.0
 40
11.0
 40
11.0
 40
11.0
 40
12.0
 40
12.0
 40
12.0
 40
13.0
 40
13.0
 40
13.0
 40
14.0
 40
14.0
 40
14.0
 40
15.0
 40
15.0
 40
15.0
 40
16.0
 40
16.0
 40
16.0
 40
16.0
 10
100.6801594800383
 20
-142.071603697121
 30
0.0
 10
100.6016113029746
 20
-142.071603697121
 30
0.0
 10
100.5003254957083
 20
-142.0547227292433
 30
0.0
 10
100.3983506693449
 20
-141.9913329723147
 30
0.0
 10
100.2254068759853
 20
-141.8814344263352
 30
0.0
 10
100.2040472839768
 20
-141.7501762883472
 30
0.0
 10
100.1847547492594
 20
-141.6423447996589
 30
0.0
 10
100.1847547492594
 20
-141.6423447996589
 30
0.0
 10
100.4073079176065
 20
-141.6423447996589
 30
0.0
 10
100.4073079176065
 20
-141.6423447996589
 30
0.0
 10
100.4617404262735
 20
-141.8411268091578
 30
0.0
 10
100.5892089592277
 20
-141.8707546303309
 30
0.0
 10
100.6822265373294
 20
-141.8707546303309
 30
0.0
 10
100.8214083949335
 20
-141.8707546303309
 30
0.0
 10
100.9736816153816
 20
-141.7711913708072
 30
0.0
 10
100.9736816153816
 20
-141.5386474255529
 30
0.0
 10
100.9736816153816
 20
-141.2826768309988
 30
0.0
 10
100.7938476310515
 20
-141.2130859021967
 30
0.0
 10
100.6732692890678
 20
-141.2130859021967
 30
0.0
 10
100.6415744106035
 20
-141.2130859021967
 30
0.0
 10
100.5003254957083
 20
-141.2130859021967
 30
0.0
 10
100.4114420321888
 20
-141.3419324733451
 30
0.0
 10
100.4114420321888
 20
-141.3419324733451
 30
0.0
 10
100.2357421624411
 20
-141.3226399386277
 30
0.0
 10
100.2357421624411
 20
-141.3226399386277
 30
0.0
 10
100.2357421624411
 20
-141.3226399386277
 30
0.0
 10
100.3563205044248
 20
-140.4765244874503
 30
0.0
 10
100.3563205044248
 20
-140.4765244874503
 30
0.0
 10
100.3563205044248
 20
-140.4765244874503
 30
0.0
 10
101.1349120840913
 20
-140.4765244874503
 30
0.0
 10
101.1349120840913
 20
-140.4765244874503
 30
0.0
 10
101.1349120840913
 20
-140.4765244874503
 30
0.0
 10
101.1349120840913
 20
-140.6715168919155
 30
0.0
 10
101.1349120840913
 20
-140.6715168919155
 30
0.0
 10
101.1349120840913
 20
-140.6715168919155
 30
0.0
 10
100.5189290113286
 20
-140.6715168919155
 30
0.0
 10
100.5189290113286
 20
-140.6715168919155
 30
0.0
 10
100.5189290113286
 20
-140.6715168919155
 30
0.0
 10
100.4534721971089
 20
-141.0945746175042
 30
0.0
 10
100.4534721971089
 20
-141.0945746175042
 30
0.0
 10
100.5147948967463
 20
-141.0604681722002
 30
0.0
 10
100.5974771883923
 20
-141.0201605550228
 30
0.0
 10
100.7159884730849
 20
-141.0201605550228
 30
0.0
 10
100.9695475007993
 20
-141.0201605550228
 30
0.0
 10
101.2065700701845
 20
-141.2065402207748
 30
0.0
 10
101.2065700701845
 20
-141.519699400384
 30
0.0
 10
101.2065700701845
 20
-141.8369926945755
 30
0.0
 10
100.9826388636432
 20
-142.071603697121
 30
0.0
 10
100.6801594800383
 20
-142.071603697121
 30
0.0
  0
HATCH
  5
AE
330
A9
100
AcDbEntity
  8
_U+30EC_U+30A4_U+30E4_U+30FC 1
 62
   179
420
  2234388
100
AcDbHatch
 10
0.0
 20
0.0
 30
0.0
210
0.0
220
0.0
230
1.0
  2
SOLID
 70
     1
 71
     0
 91
        1
 92
        1
 93
        1
 72
     4
 94
        3
 73
     0
 74
     1
 95
       53
 96
       49
 40
0.0
 40
0.0
 40
0.0
 40
0.0
 40
1.0
 40
1.0
 40
1.0
 40
2.0
 40
2.0
 40
2.0
 40
3.0
 40
3.0
 40
3.0
 40
4.0
 40
4.0
 40
4.0
 40
5.0
 40
5.0
 40
5.0
 40
6.0
 40
6.0
 40
6.0
 40
7.0
 40
7.0
 40
7.0
 40
8.0
 40
8.0
 40
8.0
 40
9.0
 40
9.0
 40
9.0
 40
10.0
 40
10.0
 40
10.0
 40
11.0
 40
11.0
 40
11.0
 40
12.0
 40
12.0
 40
12.0
 40
13.0
 40
13.0
 40
13.0
 40
14.0
 40
14.0
 40
14.0
 40
15.0
 40
15.0
 40
15.0
 40
16.0
 40
16.0
 40
16.0
 40
16.0
 10
100.6801594800383
 20
-142.071603697121
 10
100.6016113029746
 20
-142.071603697121
 10
100.5003254957083
 20
-142.0547227292433
 10
100.3983506693449
 20
-141.9913329723147
 10
100.2254068759853
 20
-141.8814344263352
 10
100.2040472839768
 20
-141.7501762883472
 10
100.1847547492594
 20
-141.6423447996589
 10
100.1847547492594
 20
-141.6423447996589
 10
100.4073079176065
 20
-141.6423447996589
 10
100.4073079176065
 20
-141.6423447996589
 10
100.4617404262735
 20
-141.8411268091578
 10
100.5892089592277
 20
-141.8707546303309
 10
100.6822265373294
 20
-141.8707546303309
 10
100.8214083949335
 20
-141.8707546303309
 10
100.9736816153816
 20
-141.7711913708072
 10
100.9736816153816
 20
-141.5386474255529
 10
100.9736816153816
 20
-141.2826768309988
 10
100.7938476310515
 20
-141.2130859021967
 10
100.6732692890678
 20
-141.2130859021967
 10
100.6415744106035
 20
-141.2130859021967
 10
100.5003254957083
 20
-141.2130859021967
 10
100.4114420321888
 20
-141.3419324733451
 10
100.4114420321888
 20
-141.3419324733451
 10
100.2357421624411
 20
-141.3226399386277
 10
100.2357421624411
 20
-141.3226399386277
 10
100.2357421624411
 20
-141.3226399386277
 10
100.3563205044248
 20
-140.4765244874503
 10
100.3563205044248
 20
-140.4765244874503
 10
100.3563205044248
 20
-140.4765244874503
 10
101.1349120840913
 20
-140.4765244874503
 10
101.1349120840913
 20
-140.4765244874503
 10
101.1349120840913
 20
-140.4765244874503
 10
101.1349120840913
 20
-140.6715168919155
 10
101.1349120840913
 20
-140.6715168919155
 10
101.1349120840913
 20
-140.6715168919155
 10
100.5189290113286
 20
-140.6715168919155
 10
100.5189290113286
 20
-140.6715168919155
 10
100.5189290113286
 20
-140.6715168919155
 10
100.4534721971089
 20
-141.0945746175042
 10
100.4534721971089
 20
-141.0945746175042
 10
100.5147948967463
 20
-141.0604681722002
 10
100.5974771883923
 20
-141.0201605550228
 10
100.7159884730849
 20
-141.0201605550228
 10
100.9695475007993
 20
-141.0201605550228
 10
101.2065700701845
 20
-141.2065402207748
 10
101.2065700701845
 20
-141.519699400384
 10
101.2065700701845
 20
-141.8369926945755
 10
100.9826388636432
 20
-142.071603697121
 10
100.6801594800383
 20
-142.071603697121
 97
        0
 97
        0
 75
     2
 76
     1
 98
        0
  0
ENDBLK
  5
AC
330
A9
100
AcDbEntity
  8
0
100
AcDbBlockEnd
  0
BLOCK
  5
B1
330
AF
100
AcDbEntity
  8
0
100
AcDbBlockBegin
  2
block 6
 70
     0
 10
0.0
 20
0.0
 30
0.0
  3
block 6
  1

  0
SPLINE
  5
B3
330
AF
100
AcDbEntity
  8
_U+30EC_U+30A4_U+30E4_U+30FC 1
370
     0
100
AcDbSpline
210
0.0
220
0.0
230
1.0
 70
    11
 71
     3
 72
    29
 73
    25
 74
     0
 42
0.0000000001
 43
0.0000000001
 12
1.0
 22
0.0
 32
0.0
 13
1.0
 23
0.0
 33
0.0
 40
0.0
 40
0.0
 40
0.0
 40
0.0
 40
1.0
 40
1.0
 40
1.0
 40
2.0
 40
2.0
 40
2.0
 40
3.0
 40
3.0
 40
3.0
 40
4.0
 40
4.0
 40
4.0
 40
5.0
 40
5.0
 40
5.0
 40
6.0
 40
6.0
 40
6.0
 40
7.0
 40
7.0
 40
7.0
 40
8.0
 40
8.0
 40
8.0
 40
8.0
 10
94.26056855282376
 20
-142.071603697121
 30
0.0
 10
93.99391816226542
 20
-142.071603697121
 30
0.0
 10
93.74035913455103
 20
-141.9341443872595
 30
0.0
 10
93.74035913455103
 20
-141.5851562146037
 30
0.0
 10
93.74035913455103
 20
-141.3291856200497
 30
0.0
 10
93.88229706854332
 20
-141.2337564751082
 30
0.0
 10
93.98771699039196
 20
-141.1724337754708
 30
0.0
 10
93.86300453382592
 20
-141.1131781331245
 30
0.0
 10
93.78721243315043
 20
-140.9991454725627
 30
0.0
 10
93.78721243315043
 20
-140.8382595134015
 30
0.0
 10
93.78721243315043
 20
-140.5633408936786
 30
0.0
 10
93.98564993310082
 20
-140.4279486411083
 30
0.0
 10
94.26056855282376
 20
-140.4279486411083
 30
0.0
 10
94.54444442080833
 20
-140.4279486411083
 30
0.0
 10
94.73461369159413
 20
-140.5716091228432
 30
0.0
 10
94.73461369159413
 20
-140.8382595134015
 30
0.0
 10
94.73461369159413
 20
-140.9991454725627
 30
0.0
 10
94.65606551453044
 20
-141.1131781331245
 30
0.0
 10
94.5313530579644
 20
-141.1724337754708
 30
0.0
 10
94.62023652148383
 20
-141.2234211886525
 30
0.0
 10
94.77939993290238
 20
-141.3185058240454
 30
0.0
 10
94.77939993290238
 20
-141.5810221000214
 30
0.0
 10
94.77939993290238
 20
-141.9551594697195
 30
0.0
 10
94.49965817950009
 20
-142.071603697121
 30
0.0
 10
94.26056855282376
 20
-142.071603697121
 30
0.0
  0
SPLINE
  5
B4
330
AF
100
AcDbEntity
  8
_U+30EC_U+30A4_U+30E4_U+30FC 1
370
     0
100
AcDbSpline
210
0.0
220
0.0
230
1.0
 70
    11
 71
     3
 72
    17
 73
    13
 74
     0
 42
0.0000000001
 43
0.0000000001
 12
1.0
 22
0.0
 32
0.0
 13
1.0
 23
0.0
 33
0.0
 40
0.0
 40
0.0
 40
0.0
 40
0.0
 40
1.0
 40
1.0
 40
1.0
 40
2.0
 40
2.0
 40
2.0
 40
3.0
 40
3.0
 40
3.0
 40
4.0
 40
4.0
 40
4.0
 40
4.0
 10
94.26056855282376
 20
-141.2806097737076
 30
0.0
 10
94.11725258063736
 20
-141.2806097737076
 30
0.0
 10
93.96429034109227
 20
-141.3674261799359
 30
0.0
 10
93.96429034109227
 20
-141.5703423040171
 30
0.0
 10
93.96429034109227
 20
-141.7753254853895
 30
0.0
 10
94.0917588740465
 20
-141.8773003117529
 30
0.0
 10
94.26056855282376
 20
-141.8773003117529
 30
0.0
 10
94.44660370902724
 20
-141.8773003117529
 30
0.0
 10
94.55684676455523
 20
-141.754654912478
 30
0.0
 10
94.55684676455523
 20
-141.5768879854391
 30
0.0
 10
94.55684676455523
 20
-141.354334817092
 30
0.0
 10
94.39423825765145
 20
-141.2806097737076
 30
0.0
 10
94.26056855282376
 20
-141.2806097737076
 30
0.0
  0
SPLINE
  5
B5
330
AF
100
AcDbEntity
  8
_U+30EC_U+30A4_U+30E4_U+30FC 1
370
     0
100
AcDbSpline
210
0.0
220
0.0
230
1.0
 70
    11
 71
     3
 72
    17
 73
    13
 74
     0
 42
0.0000000001
 43
0.0000000001
 12
1.0
 22
0.0
 32
0.0
 13
1.0
 23
0.0
 33
0.0
 40
0.0
 40
0.0
 40
0.0
 40
0.0
 40
1.0
 40
1.0
 40
1.0
 40
2.0
 40
2.0
 40
2.0
 40
3.0
 40
3.0
 40
3.0
 40
4.0
 40
4.0
 40
4.0
 40
4.0
 10
94.26056855282376
 20
-140.6205294787338
 30
0.0
 10
94.0958929886288
 20
-140.6205294787338
 30
0.0
 10
94.01114363969167
 20
-140.7156141141267
 30
0.0
 10
94.01114363969167
 20
-140.851006366697
 30
0.0
 10
94.01114363969167
 20
-140.9739962755204
 30
0.0
 10
94.08280162578485
 20
-141.092507560213
 30
0.0
 10
94.26056855282376
 20
-141.092507560213
 30
0.0
 10
94.43833547986264
 20
-141.092507560213
 30
0.0
 10
94.51068248505288
 20
-140.9739962755204
 30
0.0
 10
94.51068248505288
 20
-140.851006366697
 30
0.0
 10
94.51068248505288
 20
-140.7156141141267
 30
0.0
 10
94.42386607882459
 20
-140.6205294787338
 30
0.0
 10
94.26056855282376
 20
-140.6205294787338
 30
0.0
  0
HATCH
  5
B6
330
AF
100
AcDbEntity
  8
_U+30EC_U+30A4_U+30E4_U+30FC 1
 62
   179
420
  2234388
100
AcDbHatch
 10
0.0
 20
0.0
 30
0.0
210
0.0
220
0.0
230
1.0
  2
SOLID
 70
     1
 71
     0
 91
        3
 92
        1
 93
        1
 72
     4
 94
        3
 73
     0
 74
     1
 95
       29
 96
       25
 40
0.0
 40
0.0
 40
0.0
 40
0.0
 40
1.0
 40
1.0
 40
1.0
 40
2.0
 40
2.0
 40
2.0
 40
3.0
 40
3.0
 40
3.0
 40
4.0
 40
4.0
 40
4.0
 40
5.0
 40
5.0
 40
5.0
 40
6.0
 40
6.0
 40
6.0
 40
7.0
 40
7.0
 40
7.0
 40
8.0
 40
8.0
 40
8.0
 40
8.0
 10
94.26056855282376
 20
-142.071603697121
 10
93.99391816226542
 20
-142.071603697121
 10
93.74035913455103
 20
-141.9341443872595
 10
93.74035913455103
 20
-141.5851562146037
 10
93.74035913455103
 20
-141.3291856200497
 10
93.88229706854332
 20
-141.2337564751082
 10
93.98771699039196
 20
-141.1724337754708
 10
93.86300453382592
 20
-141.1131781331245
 10
93.78721243315043
 20
-140.9991454725627
 10
93.78721243315043
 20
-140.8382595134015
 10
93.78721243315043
 20
-140.5633408936786
 10
93.98564993310082
 20
-140.4279486411083
 10
94.26056855282376
 20
-140.4279486411083
 10
94.54444442080833
 20
-140.4279486411083
 10
94.73461369159413
 20
-140.5716091228432
 10
94.73461369159413
 20
-140.8382595134015
 10
94.73461369159413
 20
-140.9991454725627
 10
94.65606551453044
 20
-141.1131781331245
 10
94.5313530579644
 20
-141.1724337754708
 10
94.62023652148383
 20
-141.2234211886525
 10
94.77939993290238
 20
-141.3185058240454
 10
94.77939993290238
 20
-141.5810221000214
 10
94.77939993290238
 20
-141.9551594697195
 10
94.49965817950009
 20
-142.071603697121
 10
94.26056855282376
 20
-142.071603697121
 97
        0
 97
        0
 92
        1
 93
        1
 72
     4
 94
        3
 73
     0
 74
     1
 95
       17
 96
       13
 40
0.0
 40
0.0
 40
0.0
 40
0.0
 40
1.0
 40
1.0
 40
1.0
 40
2.0
 40
2.0
 40
2.0
 40
3.0
 40
3.0
 40
3.0
 40
4.0
 40
4.0
 40
4.0
 40
4.0
 10
94.26056855282376
 20
-141.2806097737076
 10
94.11725258063736
 20
-141.2806097737076
 10
93.96429034109227
 20
-141.3674261799359
 10
93.96429034109227
 20
-141.5703423040171
 10
93.96429034109227
 20
-141.7753254853895
 10
94.0917588740465
 20
-141.8773003117529
 10
94.26056855282376
 20
-141.8773003117529
 10
94.44660370902724
 20
-141.8773003117529
 10
94.55684676455523
 20
-141.754654912478
 10
94.55684676455523
 20
-141.5768879854391
 10
94.55684676455523
 20
-141.354334817092
 10
94.39423825765145
 20
-141.2806097737076
 10
94.26056855282376
 20
-141.2806097737076
 97
        0
 97
        0
 92
        1
 93
        1
 72
     4
 94
        3
 73
     0
 74
     1
 95
       17
 96
       13
 40
0.0
 40
0.0
 40
0.0
 40
0.0
 40
1.0
 40
1.0
 40
1.0
 40
2.0
 40
2.0
 40
2.0
 40
3.0
 40
3.0
 40
3.0
 40
4.0
 40
4.0
 40
4.0
 40
4.0
 10
94.26056855282376
 20
-140.6205294787338
 10
94.0958929886288
 20
-140.6205294787338
 10
94.01114363969167
 20
-140.7156141141267
 10
94.01114363969167
 20
-140.851006366697
 10
94.01114363969167
 20
-140.9739962755204
 10
94.08280162578485
 20
-141.092507560213
 10
94.26056855282376
 20
-141.092507560213
 10
94.43833547986264
 20
-141.092507560213
 10
94.51068248505288
 20
-140.9739962755204
 10
94.51068248505288
 20
-140.851006366697
 10
94.51068248505288
 20
-140.7156141141267
 10
94.42386607882459
 20
-140.6205294787338
 10
94.26056855282376
 20
-140.6205294787338
 97
        0
 97
        0
 75
     2
 76
     1
 98
        0
  0
ENDBLK
  5
B2
330
AF
100
AcDbEntity
  8
0
100
AcDbBlockEnd
  0
BLOCK
  5
B9
330
B7
100
AcDbEntity
  8
0
100
AcDbBlockBegin
  2
block 7
 70
     0
 10
0.0
 20
0.0
 30
0.0
  3
block 7
  1

  0
SPLINE
  5
BB
330
B7
100
AcDbEntity
  8
_U+30EC_U+30A4_U+30E4_U+30FC 1
370
     0
100
AcDbSpline
210
0.0
220
0.0
230
1.0
 70
    11
 71
     3
 72
    53
 73
    49
 74
     0
 42
0.0000000001
 43
0.0000000001
 12
1.0
 22
0.0
 32
0.0
 13
1.0
 23
0.0
 33
0.0
 40
0.0
 40
0.0
 40
0.0
 40
0.0
 40
1.0
 40
1.0
 40
1.0
 40
2.0
 40
2.0
 40
2.0
 40
3.0
 40
3.0
 40
3.0
 40
4.0
 40
4.0
 40
4.0
 40
5.0
 40
5.0
 40
5.0
 40
6.0
 40
6.0
 40
6.0
 40
7.0
 40
7.0
 40
7.0
 40
8.0
 40
8.0
 40
8.0
 40
9.0
 40
9.0
 40
9.0
 40
10.0
 40
10.0
 40
10.0
 40
11.0
 40
11.0
 40
11.0
 40
12.0
 40
12.0
 40
12.0
 40
13.0
 40
13.0
 40
13.0
 40
14.0
 40
14.0
 40
14.0
 40
15.0
 40
15.0
 40
15.0
 40
16.0
 40
16.0
 40
16.0
 40
16.0
 10
87.75950111738304
 20
-142.071603697121
 30
0.0
 10
87.68129744986787
 20
-142.071603697121
 30
0.0
 10
87.57966713305301
 20
-142.0547227292433
 30
0.0
 10
87.47803681623813
 20
-141.9913329723147
 30
0.0
 10
87.30474851333007
 20
-141.8814344263352
 30
0.0
 10
87.28338892132152
 20
-141.7501762883472
 30
0.0
 10
87.26444089615265
 20
-141.6423447996589
 30
0.0
 10
87.26444089615265
 20
-141.6423447996589
 30
0.0
 10
87.48664955495126
 20
-141.6423447996589
 30
0.0
 10
87.48664955495126
 20
-141.6423447996589
 30
0.0
 10
87.54142657316673
 20
-141.8411268091578
 30
0.0
 10
87.66855059657244
 20
-141.8707546303309
 30
0.0
 10
87.7615681746742
 20
-141.8707546303309
 30
0.0
 10
87.90109454182681
 20
-141.8707546303309
 30
0.0
 10
88.05336776227486
 20
-141.7711913708072
 30
0.0
 10
88.05336776227486
 20
-141.5386474255529
 30
0.0
 10
88.05336776227486
 20
-141.2826768309988
 30
0.0
 10
87.87353377794481
 20
-141.2130859021967
 30
0.0
 10
87.75295543596107
 20
-141.2130859021967
 30
0.0
 10
87.72126055749678
 20
-141.2130859021967
 30
0.0
 10
87.57966713305301
 20
-141.2130859021967
 30
0.0
 10
87.49078366953356
 20
-141.3419324733451
 30
0.0
 10
87.49078366953356
 20
-141.3419324733451
 30
0.0
 10
87.31508379978581
 20
-141.3226399386277
 30
0.0
 10
87.31508379978581
 20
-141.3226399386277
 30
0.0
 10
87.31508379978581
 20
-141.3226399386277
 30
0.0
 10
87.43566214176955
 20
-140.4765244874503
 30
0.0
 10
87.43566214176955
 20
-140.4765244874503
 30
0.0
 10
87.43566214176955
 20
-140.4765244874503
 30
0.0
 10
88.21425372143602
 20
-140.4765244874503
 30
0.0
 10
88.21425372143602
 20
-140.4765244874503
 30
0.0
 10
88.21425372143602
 20
-140.4765244874503
 30
0.0
 10
88.21425372143602
 20
-140.6715168919155
 30
0.0
 10
88.21425372143602
 20
-140.6715168919155
 30
0.0
 10
88.21425372143602
 20
-140.6715168919155
 30
0.0
 10
87.59861515822188
 20
-140.6715168919155
 30
0.0
 10
87.59861515822188
 20
-140.6715168919155
 30
0.0
 10
87.59861515822188
 20
-140.6715168919155
 30
0.0
 10
87.53315834400213
 20
-141.0945746175042
 30
0.0
 10
87.53315834400213
 20
-141.0945746175042
 30
0.0
 10
87.59448104363958
 20
-141.0604681722002
 30
0.0
 10
87.67681882573704
 20
-141.0201605550228
 30
0.0
 10
87.79533011042965
 20
-141.0201605550228
 30
0.0
 10
88.04923364769256
 20
-141.0201605550228
 30
0.0
 10
88.28625621707775
 20
-141.2065402207748
 30
0.0
 10
88.28625621707775
 20
-141.519699400384
 30
0.0
 10
88.28625621707775
 20
-141.8369926945755
 30
0.0
 10
88.06198050098799
 20
-142.071603697121
 30
0.0
 10
87.75950111738304
 20
-142.071603697121
 30
0.0
  0
HATCH
  5
BC
330
B7
100
AcDbEntity
  8
_U+30EC_U+30A4_U+30E4_U+30FC 1
 62
   179
420
  2234388
100
AcDbHatch
 10
0.0
 20
0.0
 30
0.0
210
0.0
220
0.0
230
1.0
  2
SOLID
 70
     1
 71
     0
 91
        1
 92
        1
 93
        1
 72
     4
 94
        3
 73
     0
 74
     1
 95
       53
 96
       49
 40
0.0
 40
0.0
 40
0.0
 40
0.0
 40
1.0
 40
1.0
 40
1.0
 40
2.0
 40
2.0
 40
2.0
 40
3.0
 40
3.0
 40
3.0
 40
4.0
 40
4.0
 40
4.0
 40
5.0
 40
5.0
 40
5.0
 40
6.0
 40
6.0
 40
6.0
 40
7.0
 40
7.0
 40
7.0
 40
8.0
 40
8.0
 40
8.0
 40
9.0
 40
9.0
 40
9.0
 40
10.0
 40
10.0
 40
10.0
 40
11.0
 40
11.0
 40
11.0
 40
12.0
 40
12.0
 40
12.0
 40
13.0
 40
13.0
 40
13.0
 40
14.0
 40
14.0
 40
14.0
 40
15.0
 40
15.0
 40
15.0
 40
16.0
 40
16.0
 40
16.0
 40
16.0
 10
87.75950111738304
 20
-142.071603697121
 10
87.68129744986787
 20
-142.071603697121
 10
87.57966713305301
 20
-142.0547227292433
 10
87.47803681623813
 20
-141.9913329723147
 10
87.30474851333007
 20
-141.8814344263352
 10
87.28338892132152
 20
-141.7501762883472
 10
87.26444089615265
 20
-141.6423447996589
 10
87.26444089615265
 20
-141.6423447996589
 10
87.48664955495126
 20
-141.6423447996589
 10
87.48664955495126
 20
-141.6423447996589
 10
87.54142657316673
 20
-141.8411268091578
 10
87.66855059657244
 20
-141.8707546303309
 10
87.7615681746742
 20
-141.8707546303309
 10
87.90109454182681
 20
-141.8707546303309
 10
88.05336776227486
 20
-141.7711913708072
 10
88.05336776227486
 20
-141.5386474255529
 10
88.05336776227486
 20
-141.2826768309988
 10
87.87353377794481
 20
-141.2130859021967
 10
87.75295543596107
 20
-141.2130859021967
 10
87.72126055749678
 20
-141.2130859021967
 10
87.57966713305301
 20
-141.2130859021967
 10
87.49078366953356
 20
-141.3419324733451
 10
87.49078366953356
 20
-141.3419324733451
 10
87.31508379978581
 20
-141.3226399386277
 10
87.31508379978581
 20
-141.3226399386277
 10
87.31508379978581
 20
-141.3226399386277
 10
87.43566214176955
 20
-140.4765244874503
 10
87.43566214176955
 20
-140.4765244874503
 10
87.43566214176955
 20
-140.4765244874503
 10
88.21425372143602
 20
-140.4765244874503
 10
88.21425372143602
 20
-140.4765244874503
 10
88.21425372143602
 20
-140.4765244874503
 10
88.21425372143602
 20
-140.6715168919155
 10
88.21425372143602
 20
-140.6715168919155
 10
88.21425372143602
 20
-140.6715168919155
 10
87.59861515822188
 20
-140.6715168919155
 10
87.59861515822188
 20
-140.6715168919155
 10
87.59861515822188
 20
-140.6715168919155
 10
87.53315834400213
 20
-141.0945746175042
 10
87.53315834400213
 20
-141.0945746175042
 10
87.59448104363958
 20
-141.0604681722002
 10
87.67681882573704
 20
-141.0201605550228
 10
87.79533011042965
 20
-141.0201605550228
 10
88.04923364769256
 20
-141.0201605550228
 10
88.28625621707775
 20
-141.2065402207748
 10
88.28625621707775
 20
-141.519699400384
 10
88.28625621707775
 20
-141.8369926945755
 10
88.06198050098799
 20
-142.071603697121
 10
87.75950111738304
 20
-142.071603697121
 97
        0
 97
        0
 75
     2
 76
     1
 98
        0
  0
ENDBLK
  5
BA
330
B7
100
AcDbEntity
  8
0
100
AcDbBlockEnd
  0
ENDSEC
  0
SECTION
  2
ENTITIES
  0
INSERT
  5
42
330
1F
100
AcDbEntity
  8
_U+30EC_U+30A4_U+30E4_U+30FC 1
100
AcDbBlockReference
  2
block 2
 10
0.0
 20
0.0
 30
0.0
  0
SPLINE
  5
55
330
1F
100
AcDbEntity
  8
_U+30EC_U+30A4_U+30E4_U+30FC 1
 62
   179
420
  2234388
370
    25
100
AcDbSpline
210
0.0
220
0.0
230
1.0
 70
    11
 71
     3
 72
    98
 73
    94
 74
     0
 42
0.0000000001
 43
0.0000000001
 12
1.0
 22
0.0
 32
0.0
 13
1.0
 23
0.0
 33
0.0
 40
0.0
 40
0.0
 40
0.0
 40
0.0
 40
1.0
 40
1.0
 40
1.0
 40
2.0
 40
2.0
 40
2.0
 40
3.0
 40
3.0
 40
3.0
 40
4.0
 40
4.0
 40
4.0
 40
5.0
 40
5.0
 40
5.0
 40
6.0
 40
6.0
 40
6.0
 40
7.0
 40
7.0
 40
7.0
 40
8.0
 40
8.0
 40
8.0
 40
9.0
 40
9.0
 40
9.0
 40
10.0
 40
10.0
 40
10.0
 40
11.0
 40
11.0
 40
11.0
 40
12.0
 40
12.0
 40
12.0
 40
13.0
 40
13.0
 40
13.0
 40
14.0
 40
14.0
 40
14.0
 40
15.0
 40
15.0
 40
15.0
 40
16.0
 40
16.0
 40
16.0
 40
17.0
 40
17.0
 40
17.0
 40
18.0
 40
18.0
 40
18.0
 40
19.0
 40
19.0
 40
19.0
 40
20.0
 40
20.0
 40
20.0
 40
21.0
 40
21.0
 40
21.0
 40
22.0
 40
22.0
 40
22.0
 40
23.0
 40
23.0
 40
23.0
 40
24.0
 40
24.0
 40
24.0
 40
25.0
 40
25.0
 40
25.0
 40
26.0
 40
26.0
 40
26.0
 40
27.0
 40
27.0
 40
27.0
 40
28.0
 40
28.0
 40
28.0
 40
29.0
 40
29.0
 40
29.0
 40
30.0
 40
30.0
 40
30.0
 40
31.0
 40
31.0
 40
31.0
 40
31.0
 10
94.27297953934037
 20
-127.2797527459577
 30
0.0
 10
94.27297953934037
 20
-127.2797527459577
 30
0.0
 10
93.8981555320809
 20
-127.9296752457953
 30
0.0
 10
93.8981555320809
 20
-127.9296752457953
 30
0.0
 10
93.8981555320809
 20
-127.9296752457953
 30
0.0
 10
91.00011906728244
 20
-127.9296752457953
 30
0.0
 10
91.00011906728244
 20
-127.9296752457953
 30
0.0
 10
90.3531246393442
 20
-129.3406099676648
 30
0.0
 10
88.73669690280492
 20
-130.0254927452712
 30
0.0
 10
87.2725280512701
 20
-129.5083910787339
 30
0.0
 10
87.2725280512701
 20
-129.5083910787339
 30
0.0
 10
87.2725280512701
 20
-136.3940841325681
 30
0.0
 10
87.2725280512701
 20
-136.3940841325681
 30
0.0
 10
87.2725280512701
 20
-136.3940841325681
 30
0.0
 10
90.27286769694727
 20
-136.3940841325681
 30
0.0
 10
90.27286769694727
 20
-136.3940841325681
 30
0.0
 10
90.27286769694727
 20
-136.3940841325681
 30
0.0
 10
90.27286769694727
 20
-138.3942988542905
 30
0.0
 10
90.27286769694727
 20
-138.3942988542905
 30
0.0
 10
90.27286769694727
 20
-138.3942988542905
 30
0.0
 10
85.27301893561516
 20
-138.3942988542905
 30
0.0
 10
85.27301893561516
 20
-138.3942988542905
 30
0.0
 10
85.27301893561516
 20
-138.3942988542905
 30
0.0
 10
85.27301893561516
 20
-124.429449413337
 30
0.0
 10
85.27301893561516
 20
-124.429449413337
 30
0.0
 10
85.27301893561516
 20
-124.429449413337
 30
0.0
 10
86.52287529261756
 20
-124.429449413337
 30
0.0
 10
86.52287529261756
 20
-124.429449413337
 30
0.0
 10
86.52287529261756
 20
-124.429449413337
 30
0.0
 10
87.58328998778634
 20
-125.4898288575163
 30
0.0
 10
87.58328998778634
 20
-125.4898288575163
 30
0.0
 10
87.37589193752196
 20
-125.6104083019306
 30
0.0
 10
87.20363055302782
 20
-125.7826696907764
 30
0.0
 10
87.08305111165961
 20
-125.9900677462803
 30
0.0
 10
86.7027213991404
 20
-126.6472221905604
 30
0.0
 10
86.92595917122291
 20
-127.4887030236834
 30
0.0
 10
87.58328998778634
 20
-127.8690327458104
 30
0.0
 10
88.23991524881221
 20
-128.2498916346041
 30
0.0
 10
89.08121967179319
 20
-128.0259483013268
 30
0.0
 10
89.46225493984996
 20
-127.3694994126022
 30
0.0
 10
89.84325493012983
 20
-126.7121685794332
 30
0.0
 10
89.61899410251787
 20
-125.8708641351988
 30
0.0
 10
88.9626863414839
 20
-125.4898288575163
 30
0.0
 10
88.9626863414839
 20
-125.4898288575163
 30
0.0
 10
90.02310103665269
 20
-124.429449413337
 30
0.0
 10
90.02310103665269
 20
-124.429449413337
 30
0.0
 10
90.02310103665269
 20
-124.429449413337
 30
0.0
 10
98.52282276425116
 20
-124.429449413337
 30
0.0
 10
98.52282276425116
 20
-124.429449413337
 30
0.0
 10
98.52282276425116
 20
-124.429449413337
 30
0.0
 10
99.58323745941995
 20
-125.4898288575163
 30
0.0
 10
99.58323745941995
 20
-125.4898288575163
 30
0.0
 10
98.92696497616286
 20
-125.8708641351988
 30
0.0
 10
98.70266887077402
 20
-126.7121685794332
 30
0.0
 10
99.08370413883078
 20
-127.3694994126022
 30
0.0
 10
99.46473940688753
 20
-128.0259483013268
 30
0.0
 10
100.3060110860347
 20
-128.2498916346041
 30
0.0
 10
100.9626690908944
 20
-127.8690327458104
 30
0.0
 10
101.6199646296809
 20
-127.4887030236834
 30
0.0
 10
101.8432376795403
 20
-126.6472221905604
 30
0.0
 10
101.4628726892442
 20
-125.9900677462803
 30
0.0
 10
101.342293247876
 20
-125.7826696907764
 30
0.0
 10
101.1700671411588
 20
-125.6104083019306
 30
0.0
 10
100.9626690908944
 20
-125.4898288575163
 30
0.0
 10
100.9626690908944
 20
-125.4898288575163
 30
0.0
 10
102.0230485082863
 20
-124.429449413337
 30
0.0
 10
102.0230485082863
 20
-124.429449413337
 30
0.0
 10
102.0230485082863
 20
-124.429449413337
 30
0.0
 10
103.2729401430656
 20
-124.429449413337
 30
0.0
 10
103.2729401430656
 20
-124.429449413337
 30
0.0
 10
103.2729401430656
 20
-124.429449413337
 30
0.0
 10
103.2729401430656
 20
-138.3942988542905
 30
0.0
 10
103.2729401430656
 20
-138.3942988542905
 30
0.0
 10
103.2729401430656
 20
-138.3942988542905
 30
0.0
 10
98.27305610395658
 20
-138.3942988542905
 30
0.0
 10
98.27305610395658
 20
-138.3942988542905
 30
0.0
 10
98.27305610395658
 20
-138.3942988542905
 30
0.0
 10
98.27305610395658
 20
-136.3940841325681
 30
0.0
 10
98.27305610395658
 20
-136.3940841325681
 30
0.0
 10
98.27305610395658
 20
-136.3940841325681
 30
0.0
 10
101.2733957496338
 20
-136.3940841325681
 30
0.0
 10
101.2733957496338
 20
-136.3940841325681
 30
0.0
 10
101.2733957496338
 20
-136.3940841325681
 30
0.0
 10
101.2733957496338
 20
-129.5083910787339
 30
0.0
 10
101.2733957496338
 20
-129.5083910787339
 30
0.0
 10
99.80922689809893
 20
-130.0254927452712
 30
0.0
 10
98.19279916155966
 20
-129.3406099676648
 30
0.0
 10
97.54580473362141
 20
-127.9296752457953
 30
0.0
 10
97.54580473362141
 20
-127.9296752457953
 30
0.0
 10
94.64780830967126
 20
-127.9296752457953
 30
0.0
 10
94.64780830967126
 20
-127.9296752457953
 30
0.0
 10
94.64780830967126
 20
-127.9296752457953
 30
0.0
 10
94.27297953934037
 20
-127.2797527459577
 30
0.0
 10
94.27297953934037
 20
-127.2797527459577
 30
0.0
  0
HATCH
  5
56
330
1F
100
AcDbEntity
  8
_U+30EC_U+30A4_U+30E4_U+30FC 1
 62
     9
420
 13224394
100
AcDbHatch
 10
0.0
 20
0.0
 30
0.0
210
0.0
220
0.0
230
1.0
  2
SOLID
 70
     1
 71
     0
 91
        1
 92
        1
 93
        1
 72
     4
 94
        3
 73
     0
 74
     1
 95
       98
 96
       94
 40
0.0
 40
0.0
 40
0.0
 40
0.0
 40
1.0
 40
1.0
 40
1.0
 40
2.0
 40
2.0
 40
2.0
 40
3.0
 40
3.0
 40
3.0
 40
4.0
 40
4.0
 40
4.0
 40
5.0
 40
5.0
 40
5.0
 40
6.0
 40
6.0
 40
6.0
 40
7.0
 40
7.0
 40
7.0
 40
8.0
 40
8.0
 40
8.0
 40
9.0
 40
9.0
 40
9.0
 40
10.0
 40
10.0
 40
10.0
 40
11.0
 40
11.0
 40
11.0
 40
12.0
 40
12.0
 40
12.0
 40
13.0
 40
13.0
 40
13.0
 40
14.0
 40
14.0
 40
14.0
 40
15.0
 40
15.0
 40
15.0
 40
16.0
 40
16.0
 40
16.0
 40
17.0
 40
17.0
 40
17.0
 40
18.0
 40
18.0
 40
18.0
 40
19.0
 40
19.0
 40
19.0
 40
20.0
 40
20.0
 40
20.0
 40
21.0
 40
21.0
 40
21.0
 40
22.0
 40
22.0
 40
22.0
 40
23.0
 40
23.0
 40
23.0
 40
24.0
 40
24.0
 40
24.0
 40
25.0
 40
25.0
 40
25.0
 40
26.0
 40
26.0
 40
26.0
 40
27.0
 40
27.0
 40
27.0
 40
28.0
 40
28.0
 40
28.0
 40
29.0
 40
29.0
 40
29.0
 40
30.0
 40
30.0
 40
30.0
 40
31.0
 40
31.0
 40
31.0
 40
31.0
 10
94.27297953934037
 20
-127.2797527459577
 10
94.27297953934037
 20
-127.2797527459577
 10
93.8981555320809
 20
-127.9296752457953
 10
93.8981555320809
 20
-127.9296752457953
 10
93.8981555320809
 20
-127.9296752457953
 10
91.00011906728244
 20
-127.9296752457953
 10
91.00011906728244
 20
-127.9296752457953
 10
90.3531246393442
 20
-129.3406099676648
 10
88.73669690280492
 20
-130.0254927452712
 10
87.2725280512701
 20
-129.5083910787339
 10
87.2725280512701
 20
-129.5083910787339
 10
87.2725280512701
 20
-136.3940841325681
 10
87.2725280512701
 20
-136.3940841325681
 10
87.2725280512701
 20
-136.3940841325681
 10
90.27286769694727
 20
-136.3940841325681
 10
90.27286769694727
 20
-136.3940841325681
 10
90.27286769694727
 20
-136.3940841325681
 10
90.27286769694727
 20
-138.3942988542905
 10
90.27286769694727
 20
-138.3942988542905
 10
90.27286769694727
 20
-138.3942988542905
 10
85.27301893561516
 20
-138.3942988542905
 10
85.27301893561516
 20
-138.3942988542905
 10
85.27301893561516
 20
-138.3942988542905
 10
85.27301893561516
 20
-124.429449413337
 10
85.27301893561516
 20
-124.429449413337
 10
85.27301893561516
 20
-124.429449413337
 10
86.52287529261756
 20
-124.429449413337
 10
86.52287529261756
 20
-124.429449413337
 10
86.52287529261756
 20
-124.429449413337
 10
87.58328998778634
 20
-125.4898288575163
 10
87.58328998778634
 20
-125.4898288575163
 10
87.37589193752196
 20
-125.6104083019306
 10
87.20363055302782
 20
-125.7826696907764
 10
87.08305111165961
 20
-125.9900677462803
 10
86.7027213991404
 20
-126.6472221905604
 10
86.92595917122291
 20
-127.4887030236834
 10
87.58328998778634
 20
-127.8690327458104
 10
88.23991524881221
 20
-128.2498916346041
 10
89.08121967179319
 20
-128.0259483013268
 10
89.46225493984996
 20
-127.3694994126022
 10
89.84325493012983
 20
-126.7121685794332
 10
89.61899410251787
 20
-125.8708641351988
 10
88.9626863414839
 20
-125.4898288575163
 10
88.9626863414839
 20
-125.4898288575163
 10
90.02310103665269
 20
-124.429449413337
 10
90.02310103665269
 20
-124.429449413337
 10
90.02310103665269
 20
-124.429449413337
 10
98.52282276425116
 20
-124.429449413337
 10
98.52282276425116
 20
-124.429449413337
 10
98.52282276425116
 20
-124.429449413337
 10
99.58323745941995
 20
-125.4898288575163
 10
99.58323745941995
 20
-125.4898288575163
 10
98.92696497616286
 20
-125.8708641351988
 10
98.70266887077402
 20
-126.7121685794332
 10
99.08370413883078
 20
-127.3694994126022
 10
99.46473940688753
 20
-128.0259483013268
 10
100.3060110860347
 20
-128.2498916346041
 10
100.9626690908944
 20
-127.8690327458104
 10
101.6199646296809
 20
-127.4887030236834
 10
101.8432376795403
 20
-126.6472221905604
 10
101.4628726892442
 20
-125.9900677462803
 10
101.342293247876
 20
-125.7826696907764
 10
101.1700671411588
 20
-125.6104083019306
 10
100.9626690908944
 20
-125.4898288575163
 10
100.9626690908944
 20
-125.4898288575163
 10
102.0230485082863
 20
-124.429449413337
 10
102.0230485082863
 20
-124.429449413337
 10
102.0230485082863
 20
-124.429449413337
 10
103.2729401430656
 20
-124.429449413337
 10
103.2729401430656
 20
-124.429449413337
 10
103.2729401430656
 20
-124.429449413337
 10
103.2729401430656
 20
-138.3942988542905
 10
103.2729401430656
 20
-138.3942988542905
 10
103.2729401430656
 20
-138.3942988542905
 10
98.27305610395658
 20
-138.3942988542905
 10
98.27305610395658
 20
-138.3942988542905
 10
98.27305610395658
 20
-138.3942988542905
 10
98.27305610395658
 20
-136.3940841325681
 10
98.27305610395658
 20
-136.3940841325681
 10
98.27305610395658
 20
-136.3940841325681
 10
101.2733957496338
 20
-136.3940841325681
 10
101.2733957496338
 20
-136.3940841325681
 10
101.2733957496338
 20
-136.3940841325681
 10
101.2733957496338
 20
-129.5083910787339
 10
101.2733957496338
 20
-129.5083910787339
 10
99.80922689809893
 20
-130.0254927452712
 10
98.19279916155966
 20
-129.3406099676648
 10
97.54580473362141
 20
-127.9296752457953
 10
97.54580473362141
 20
-127.9296752457953
 10
94.64780830967126
 20
-127.9296752457953
 10
94.64780830967126
 20
-127.9296752457953
 10
94.64780830967126
 20
-127.9296752457953
 10
94.27297953934037
 20
-127.2797527459577
 10
94.27297953934037
 20
-127.2797527459577
 97
        0
 97
        0
 75
     2
 76
     1
 98
        0
  0
SPLINE
  5
57
330
1F
100
AcDbEntity
  8
_U+30EC_U+30A4_U+30E4_U+30FC 1
 62
   179
420
  2234388
370
     9
100
AcDbSpline
210
0.0
220
0.0
230
1.0
 70
    11
 71
     3
 72
    17
 73
    13
 74
     0
 42
0.0000000001
 43
0.0000000001
 12
1.0
 22
0.0
 32
0.0
 13
1.0
 23
0.0
 33
0.0
 40
0.0
 40
0.0
 40
0.0
 40
0.0
 40
1.0
 40
1.0
 40
1.0
 40
2.0
 40
2.0
 40
2.0
 40
3.0
 40
3.0
 40
3.0
 40
4.0
 40
4.0
 40
4.0
 40
4.0
 10
85.37257497865693
 20
-119.8939619144709
 30
0.0
 10
85.37257497865693
 20
-119.8390344144848
 30
0.0
 10
85.32847775644574
 20
-119.7940552478292
 30
0.0
 10
85.27266615784637
 20
-119.7940552478292
 30
0.0
 10
85.21752699258643
 20
-119.7940552478292
 30
0.0
 10
85.17275949372855
 20
-119.8390344144848
 30
0.0
 10
85.17275949372855
 20
-119.8939619144709
 30
0.0
 10
85.17275949372855
 20
-119.9489246922351
 30
0.0
 10
85.21752699258643
 20
-119.9938685811125
 30
0.0
 10
85.27266615784637
 20
-119.9938685811125
 30
0.0
 10
85.32847775644574
 20
-119.9938685811125
 30
0.0
 10
85.37257497865693
 20
-119.9489246922351
 30
0.0
 10
85.37257497865693
 20
-119.8939619144709
 30
0.0
  0
SPLINE
  5
58
330
1F
100
AcDbEntity
  8
_U+30EC_U+30A4_U+30E4_U+30FC 1
 62
   179
420
  2234388
370
     9
100
AcDbSpline
210
0.0
220
0.0
230
1.0
 70
    11
 71
     3
 72
    17
 73
    13
 74
     0
 42
0.0000000001
 43
0.0000000001
 12
1.0
 22
0.0
 32
0.0
 13
1.0
 23
0.0
 33
0.0
 40
0.0
 40
0.0
 40
0.0
 40
0.0
 40
1.0
 40
1.0
 40
1.0
 40
2.0
 40
2.0
 40
2.0
 40
3.0
 40
3.0
 40
3.0
 40
4.0
 40
4.0
 40
4.0
 40
4.0
 10
103.3728468071834
 20
-119.8939619144709
 30
0.0
 10
103.3728468071834
 20
-119.8390344144848
 30
0.0
 10
103.3280440305486
 20
-119.7940552478292
 30
0.0
 10
103.2729401430656
 20
-119.7940552478292
 30
0.0
 10
103.2178009778056
 20
-119.7940552478292
 30
0.0
 10
103.1730360853181
 20
-119.8390344144848
 30
0.0
 10
103.1730360853181
 20
-119.8939619144709
 30
0.0
 10
103.1730360853181
 20
-119.9489246922351
 30
0.0
 10
103.2178009778056
 20
-119.9938685811125
 30
0.0
 10
103.2729401430656
 20
-119.9938685811125
 30
0.0
 10
103.3280440305486
 20
-119.9938685811125
 30
0.0
 10
103.3728468071834
 20
-119.9489246922351
 30
0.0
 10
103.3728468071834
 20
-119.8939619144709
 30
0.0
  0
SPLINE
  5
59
330
1F
100
AcDbEntity
  8
_U+30EC_U+30A4_U+30E4_U+30FC 1
 62
   179
420
  2234388
370
     9
100
AcDbSpline
210
0.0
220
0.0
230
1.0
 70
    11
 71
     3
 72
    17
 73
    13
 74
     0
 42
0.0000000001
 43
0.0000000001
 12
1.0
 22
0.0
 32
0.0
 13
1.0
 23
0.0
 33
0.0
 40
0.0
 40
0.0
 40
0.0
 40
0.0
 40
1.0
 40
1.0
 40
1.0
 40
2.0
 40
2.0
 40
2.0
 40
3.0
 40
3.0
 40
3.0
 40
4.0
 40
4.0
 40
4.0
 40
4.0
 10
81.3728137573399
 20
-123.8937210801378
 30
0.0
 10
81.3728137573399
 20
-123.8387935801514
 30
0.0
 10
81.32801098070514
 20
-123.7939908023847
 30
0.0
 10
81.27290709322206
 20
-123.7939908023847
 30
0.0
 10
81.2181207057309
 20
-123.7939908023847
 30
0.0
 10
81.173353206873
 20
-123.8387935801514
 30
0.0
 10
81.173353206873
 20
-123.8937210801378
 30
0.0
 10
81.173353206873
 20
-123.9488602467905
 30
0.0
 10
81.2181207057309
 20
-123.9936277467794
 30
0.0
 10
81.27290709322206
 20
-123.9936277467794
 30
0.0
 10
81.32801098070514
 20
-123.9936277467794
 30
0.0
 10
81.3728137573399
 20
-123.9488602467905
 30
0.0
 10
81.3728137573399
 20
-123.8937210801378
 30
0.0
  0
SPLINE
  5
5A
330
1F
100
AcDbEntity
  8
_U+30EC_U+30A4_U+30E4_U+30FC 1
 62
   179
420
  2234388
370
     9
100
AcDbSpline
210
0.0
220
0.0
230
1.0
 70
    11
 71
     3
 72
    17
 73
    13
 74
     0
 42
0.0000000001
 43
0.0000000001
 12
1.0
 22
0.0
 32
0.0
 13
1.0
 23
0.0
 33
0.0
 40
0.0
 40
0.0
 40
0.0
 40
0.0
 40
1.0
 40
1.0
 40
1.0
 40
2.0
 40
2.0
 40
2.0
 40
3.0
 40
3.0
 40
3.0
 40
4.0
 40
4.0
 40
4.0
 40
4.0
 10
81.3728137573399
 20
-138.3939813542902
 30
0.0
 10
81.3728137573399
 20
-138.3391949654149
 30
0.0
 10
81.32801098070514
 20
-138.2940394098711
 30
0.0
 10
81.27290709322206
 20
-138.2940394098711
 30
0.0
 10
81.2181207057309
 20
-138.2940394098711
 30
0.0
 10
81.173353206873
 20
-138.3391949654149
 30
0.0
 10
81.173353206873
 20
-138.3939813542902
 30
0.0
 10
81.173353206873
 20
-138.4490852431658
 30
0.0
 10
81.2181207057309
 20
-138.4938880209319
 30
0.0
 10
81.27290709322206
 20
-138.4938880209319
 30
0.0
 10
81.32801098070514
 20
-138.4938880209319
 30
0.0
 10
81.3728137573399
 20
-138.4490852431658
 30
0.0
 10
81.3728137573399
 20
-138.3939813542902
 30
0.0
  0
SPLINE
  5
5B
330
1F
100
AcDbEntity
  8
_U+30EC_U+30A4_U+30E4_U+30FC 1
 62
   179
420
  2234388
370
     9
100
AcDbSpline
210
0.0
220
0.0
230
1.0
 70
    11
 71
     3
 72
    17
 73
    13
 74
     0
 42
0.0000000001
 43
0.0000000001
 12
1.0
 22
0.0
 32
0.0
 13
1.0
 23
0.0
 33
0.0
 40
0.0
 40
0.0
 40
0.0
 40
0.0
 40
1.0
 40
1.0
 40
1.0
 40
2.0
 40
2.0
 40
2.0
 40
3.0
 40
3.0
 40
3.0
 40
4.0
 40
4.0
 40
4.0
 40
4.0
 10
85.37292775643469
 20
-142.3937052421796
 30
0.0
 10
85.37292775643469
 20
-142.3389541310818
 30
0.0
 10
85.32812497866797
 20
-142.293798575538
 30
0.0
 10
85.27301893561516
 20
-142.293798575538
 30
0.0
 10
85.21823254812398
 20
-142.293798575538
 30
0.0
 10
85.17342977148923
 20
-142.3389541310818
 30
0.0
 10
85.17342977148923
 20
-142.3937052421796
 30
0.0
 10
85.17342977148923
 20
-142.4488444088321
 30
0.0
 10
85.21823254812398
 20
-142.4936119088213
 30
0.0
 10
85.27301893561516
 20
-142.4936119088213
 30
0.0
 10
85.32812497866797
 20
-142.4936119088213
 30
0.0
 10
85.37292775643469
 20
-142.4488444088321
 30
0.0
 10
85.37292775643469
 20
-142.3937052421796
 30
0.0
  0
SPLINE
  5
5C
330
1F
100
AcDbEntity
  8
_U+30EC_U+30A4_U+30E4_U+30FC 1
 62
   179
420
  2234388
370
     9
100
AcDbSpline
210
0.0
220
0.0
230
1.0
 70
    11
 71
     3
 72
    17
 73
    13
 74
     0
 42
0.0000000001
 43
0.0000000001
 12
1.0
 22
0.0
 32
0.0
 13
1.0
 23
0.0
 33
0.0
 40
0.0
 40
0.0
 40
0.0
 40
0.0
 40
1.0
 40
1.0
 40
1.0
 40
2.0
 40
2.0
 40
2.0
 40
3.0
 40
3.0
 40
3.0
 40
4.0
 40
4.0
 40
4.0
 40
4.0
 10
103.3728468071834
 20
-142.3937052421796
 30
0.0
 10
103.3728468071834
 20
-142.3389541310818
 30
0.0
 10
103.3280440305486
 20
-142.293798575538
 30
0.0
 10
103.2729401430656
 20
-142.293798575538
 30
0.0
 10
103.2178009778056
 20
-142.293798575538
 30
0.0
 10
103.1730360853181
 20
-142.3389541310818
 30
0.0
 10
103.1730360853181
 20
-142.3937052421796
 30
0.0
 10
103.1730360853181
 20
-142.4488444088321
 30
0.0
 10
103.2178009778056
 20
-142.4936119088213
 30
0.0
 10
103.2729401430656
 20
-142.4936119088213
 30
0.0
 10
103.3280440305486
 20
-142.4936119088213
 30
0.0
 10
103.3728468071834
 20
-142.4488444088321
 30
0.0
 10
103.3728468071834
 20
-142.3937052421796
 30
0.0
  0
POLYLINE
  5
5D
330
1F
100
AcDbEntity
  8
_U+30EC_U+30A4_U+30E4_U+30FC 1
 62
   179
420
  2234388
370
     9
100
AcDb2dPolyline
 66
     1
 10
0.0
 20
0.0
 30
0.0
  0
VERTEX
  5
5E
330
5D
100
AcDbEntity
  8
_U+30EC_U+30A4_U+30E4_U+30FC 1
 62
   179
420
  2234388
370
     9
100
AcDbVertex
100
AcDb2dVertex
 10
85.27301893561516
 20
-140.9336991314334
 30
0.0
  0
VERTEX
  5
5F
330
5D
100
AcDbEntity
  8
_U+30EC_U+30A4_U+30E4_U+30FC 1
 62
   179
420
  2234388
370
     9
100
AcDbVertex
100
AcDb2dVertex
 10
85.27301893561516
 20
-143.3938302419293
 30
0.0
  0
SEQEND
  5
60
330
5D
100
AcDbEntity
  8
_U+30EC_U+30A4_U+30E4_U+30FC 1
 62
   179
420
  2234388
370
     9
  0
POLYLINE
  5
61
330
1F
100
AcDbEntity
  8
_U+30EC_U+30A4_U+30E4_U+30FC 1
 62
   179
420
  2234388
370
     9
100
AcDb2dPolyline
 66
     1
 10
0.0
 20
0.0
 30
0.0
  0
VERTEX
  5
62
330
61
100
AcDbEntity
  8
_U+30EC_U+30A4_U+30E4_U+30FC 1
 62
   179
420
  2234388
370
     9
100
AcDbVertex
100
AcDb2dVertex
 10
82.7329484448622
 20
-138.3939813542902
 30
0.0
  0
VERTEX
  5
63
330
61
100
AcDbEntity
  8
_U+30EC_U+30A4_U+30E4_U+30FC 1
 62
   179
420
  2234388
370
     9
100
AcDbVertex
100
AcDb2dVertex
 10
80.27278211873738
 20
-138.3939813542902
 30
0.0
  0
SEQEND
  5
64
330
61
100
AcDbEntity
  8
_U+30EC_U+30A4_U+30E4_U+30FC 1
 62
   179
420
  2234388
370
     9
  0
SPLINE
  5
65
330
1F
100
AcDbEntity
  8
_U+30EC_U+30A4_U+30E4_U+30FC 1
 62
   179
420
  2234388
370
     9
100
AcDbSpline
210
0.0
220
0.0
230
1.0
 70
    11
 71
     3
 72
    17
 73
    13
 74
     0
 42
0.0000000001
 43
0.0000000001
 12
1.0
 22
0.0
 32
0.0
 13
1.0
 23
0.0
 33
0.0
 40
0.0
 40
0.0
 40
0.0
 40
0.0
 40
1.0
 40
1.0
 40
1.0
 40
2.0
 40
2.0
 40
2.0
 40
3.0
 40
3.0
 40
3.0
 40
4.0
 40
4.0
 40
4.0
 40
4.0
 10
81.308714036753
 20
-138.3939813542902
 30
0.0
 10
81.308714036753
 20
-138.4135957987297
 30
0.0
 10
81.29287431493488
 20
-138.4294355209482
 30
0.0
 10
81.27290709322206
 20
-138.4294355209482
 30
0.0
 10
81.2539629270387
 20
-138.4294355209482
 30
0.0
 10
81.2377704274518
 20
-138.4135957987297
 30
0.0
 10
81.2377704274518
 20
-138.3939813542902
 30
0.0
 10
81.2377704274518
 20
-138.3739788542955
 30
0.0
 10
81.2539629270387
 20
-138.358809409855
 30
0.0
 10
81.27290709322206
 20
-138.358809409855
 30
0.0
 10
81.29287431493488
 20
-138.358809409855
 30
0.0
 10
81.308714036753
 20
-138.3739788542955
 30
0.0
 10
81.308714036753
 20
-138.3939813542902
 30
0.0
  0
POLYLINE
  5
66
330
1F
100
AcDbEntity
  8
_U+30EC_U+30A4_U+30E4_U+30FC 1
 62
   179
420
  2234388
370
     9
100
AcDb2dPolyline
 66
     1
 10
0.0
 20
0.0
 30
0.0
  0
VERTEX
  5
67
330
66
100
AcDbEntity
  8
_U+30EC_U+30A4_U+30E4_U+30FC 1
 62
   179
420
  2234388
370
     9
100
AcDbVertex
100
AcDb2dVertex
 10
81.27290709322206
 20
-138.3939813542902
 30
0.0
  0
VERTEX
  5
68
330
66
100
AcDbEntity
  8
_U+30EC_U+30A4_U+30E4_U+30FC 1
 62
   179
420
  2234388
370
     9
100
AcDbVertex
100
AcDb2dVertex
 10
81.27290709322206
 20
-123.8935446912489
 30
0.0
  0
SEQEND
  5
69
330
66
100
AcDbEntity
  8
_U+30EC_U+30A4_U+30E4_U+30FC 1
 62
   179
420
  2234388
370
     9
  0
POLYLINE
  5
6A
330
1F
100
AcDbEntity
  8
_U+30EC_U+30A4_U+30E4_U+30FC 1
 62
   179
420
  2234388
370
     9
100
AcDb2dPolyline
 66
     1
 10
0.0
 20
0.0
 30
0.0
  0
VERTEX
  5
6B
330
6A
100
AcDbEntity
  8
_U+30EC_U+30A4_U+30E4_U+30FC 1
 62
   179
420
  2234388
370
     9
100
AcDbVertex
100
AcDb2dVertex
 10
82.7329484448622
 20
-123.8937210801378
 30
0.0
  0
VERTEX
  5
6C
330
6A
100
AcDbEntity
  8
_U+30EC_U+30A4_U+30E4_U+30FC 1
 62
   179
420
  2234388
370
     9
100
AcDbVertex
100
AcDb2dVertex
 10
80.27278211873738
 20
-123.8937210801378
 30
0.0
  0
SEQEND
  5
6D
330
6A
100
AcDbEntity
  8
_U+30EC_U+30A4_U+30E4_U+30FC 1
 62
   179
420
  2234388
370
     9
  0
INSERT
  5
6F
330
1F
100
AcDbEntity
  8
_U+30EC_U+30A4_U+30E4_U+30FC 1
100
AcDbBlockReference
  2
block 3
 10
0.0
 20
0.0
 30
0.0
  0
SPLINE
  5
89
330
1F
100
AcDbEntity
  8
_U+30EC_U+30A4_U+30E4_U+30FC 1
 62
   179
420
  2234388
370
     9
100
AcDbSpline
210
0.0
220
0.0
230
1.0
 70
    11
 71
     3
 72
    17
 73
    13
 74
     0
 42
0.0000000001
 43
0.0000000001
 12
1.0
 22
0.0
 32
0.0
 13
1.0
 23
0.0
 33
0.0
 40
0.0
 40
0.0
 40
0.0
 40
0.0
 40
1.0
 40
1.0
 40
1.0
 40
2.0
 40
2.0
 40
2.0
 40
3.0
 40
3.0
 40
3.0
 40
4.0
 40
4.0
 40
4.0
 40
4.0
 10
81.308714036753
 20
-123.8937210801378
 30
0.0
 10
81.308714036753
 20
-123.9138999690217
 30
0.0
 10
81.29287431493488
 20
-123.9290341356844
 30
0.0
 10
81.27290709322206
 20
-123.9290341356844
 30
0.0
 10
81.2539629270387
 20
-123.9290341356844
 30
0.0
 10
81.2377704274518
 20
-123.9138999690217
 30
0.0
 10
81.2377704274518
 20
-123.8937210801378
 30
0.0
 10
81.2377704274518
 20
-123.8742477468094
 30
0.0
 10
81.2539629270387
 20
-123.8584080245908
 30
0.0
 10
81.27290709322206
 20
-123.8584080245908
 30
0.0
 10
81.29287431493488
 20
-123.8584080245908
 30
0.0
 10
81.308714036753
 20
-123.8742477468094
 30
0.0
 10
81.308714036753
 20
-123.8937210801378
 30
0.0
  0
POLYLINE
  5
8A
330
1F
100
AcDbEntity
  8
_U+30EC_U+30A4_U+30E4_U+30FC 1
 62
   179
420
  2234388
370
     9
100
AcDb2dPolyline
 66
     1
 10
0.0
 20
0.0
 30
0.0
  0
VERTEX
  5
8B
330
8A
100
AcDbEntity
  8
_U+30EC_U+30A4_U+30E4_U+30FC 1
 62
   179
420
  2234388
370
     9
100
AcDbVertex
100
AcDb2dVertex
 10
85.27266615784637
 20
-119.8939619144709
 30
0.0
  0
VERTEX
  5
8C
330
8A
100
AcDbEntity
  8
_U+30EC_U+30A4_U+30E4_U+30FC 1
 62
   179
420
  2234388
370
     9
100
AcDbVertex
100
AcDb2dVertex
 10
103.2725873652968
 20
-119.8939619144709
 30
0.0
  0
SEQEND
  5
8D
330
8A
100
AcDbEntity
  8
_U+30EC_U+30A4_U+30E4_U+30FC 1
 62
   179
420
  2234388
370
     9
  0
POLYLINE
  5
8E
330
1F
100
AcDbEntity
  8
_U+30EC_U+30A4_U+30E4_U+30FC 1
 62
   179
420
  2234388
370
     9
100
AcDb2dPolyline
 66
     1
 10
0.0
 20
0.0
 30
0.0
  0
VERTEX
  5
8F
330
8E
100
AcDbEntity
  8
_U+30EC_U+30A4_U+30E4_U+30FC 1
 62
   179
420
  2234388
370
     9
100
AcDbVertex
100
AcDb2dVertex
 10
85.27266615784637
 20
-121.3540033029949
 30
0.0
  0
VERTEX
  5
90
330
8E
100
AcDbEntity
  8
_U+30EC_U+30A4_U+30E4_U+30FC 1
 62
   179
420
  2234388
370
     9
100
AcDbVertex
100
AcDb2dVertex
 10
85.27266615784637
 20
-118.8940485813876
 30
0.0
  0
SEQEND
  5
91
330
8E
100
AcDbEntity
  8
_U+30EC_U+30A4_U+30E4_U+30FC 1
 62
   179
420
  2234388
370
     9
  0
POLYLINE
  5
92
330
1F
100
AcDbEntity
  8
_U+30EC_U+30A4_U+30E4_U+30FC 1
 62
   179
420
  2234388
370
     9
100
AcDb2dPolyline
 66
     1
 10
0.0
 20
0.0
 30
0.0
  0
VERTEX
  5
93
330
92
100
AcDbEntity
  8
_U+30EC_U+30A4_U+30E4_U+30FC 1
 62
   179
420
  2234388
370
     9
100
AcDbVertex
100
AcDb2dVertex
 10
103.2729401430656
 20
-121.3540033029949
 30
0.0
  0
VERTEX
  5
94
330
92
100
AcDbEntity
  8
_U+30EC_U+30A4_U+30E4_U+30FC 1
 62
   179
420
  2234388
370
     9
100
AcDbVertex
100
AcDb2dVertex
 10
103.2729401430656
 20
-118.8940485813876
 30
0.0
  0
SEQEND
  5
95
330
92
100
AcDbEntity
  8
_U+30EC_U+30A4_U+30E4_U+30FC 1
 62
   179
420
  2234388
370
     9
  0
INSERT
  5
97
330
1F
100
AcDbEntity
  8
_U+30EC_U+30A4_U+30E4_U+30FC 1
100
AcDbBlockReference
  2
block 4
 10
0.0
 20
0.0
 30
0.0
  0
SPLINE
  5
A0
330
1F
100
AcDbEntity
  8
_U+30EC_U+30A4_U+30E4_U+30FC 1
 62
   179
420
  2234388
370
     9
100
AcDbSpline
210
0.0
220
0.0
230
1.0
 70
    11
 71
     3
 72
    17
 73
    13
 74
     0
 42
0.0000000001
 43
0.0000000001
 12
1.0
 22
0.0
 32
0.0
 13
1.0
 23
0.0
 33
0.0
 40
0.0
 40
0.0
 40
0.0
 40
0.0
 40
1.0
 40
1.0
 40
1.0
 40
2.0
 40
2.0
 40
2.0
 40
3.0
 40
3.0
 40
3.0
 40
4.0
 40
4.0
 40
4.0
 40
4.0
 10
103.3080768088358
 20
-119.8939619144709
 30
0.0
 10
103.3080768088358
 20
-119.9134352477993
 30
0.0
 10
103.2929073647784
 20
-119.9292749700178
 30
0.0
 10
103.2729401430656
 20
-119.9292749700178
 30
0.0
 10
103.2536431991134
 20
-119.9292749700178
 30
0.0
 10
103.2378034772953
 20
-119.9134352477993
 30
0.0
 10
103.2378034772953
 20
-119.8939619144709
 30
0.0
 10
103.2378034772953
 20
-119.8745238589203
 30
0.0
 10
103.2536431991134
 20
-119.8586488589243
 30
0.0
 10
103.2729401430656
 20
-119.8586488589243
 30
0.0
 10
103.2929073647784
 20
-119.8586488589243
 30
0.0
 10
103.3080768088358
 20
-119.8745238589203
 30
0.0
 10
103.3080768088358
 20
-119.8939619144709
 30
0.0
  0
POLYLINE
  5
A1
330
1F
100
AcDbEntity
  8
_U+30EC_U+30A4_U+30E4_U+30FC 1
 62
   179
420
  2234388
370
     9
100
AcDb2dPolyline
 66
     1
 10
0.0
 20
0.0
 30
0.0
  0
VERTEX
  5
A2
330
A1
100
AcDbEntity
  8
_U+30EC_U+30A4_U+30E4_U+30FC 1
 62
   179
420
  2234388
370
     9
100
AcDbVertex
100
AcDb2dVertex
 10
85.27301893561516
 20
-142.3937052421796
 30
0.0
  0
VERTEX
  5
A3
330
A1
100
AcDbEntity
  8
_U+30EC_U+30A4_U+30E4_U+30FC 1
 62
   179
420
  2234388
370
     9
100
AcDbVertex
100
AcDb2dVertex
 10
103.2729401430656
 20
-142.3937052421796
 30
0.0
  0
SEQEND
  5
A4
330
A1
100
AcDbEntity
  8
_U+30EC_U+30A4_U+30E4_U+30FC 1
 62
   179
420
  2234388
370
     9
  0
POLYLINE
  5
A5
330
1F
100
AcDbEntity
  8
_U+30EC_U+30A4_U+30E4_U+30FC 1
 62
   179
420
  2234388
370
     9
100
AcDb2dPolyline
 66
     1
 10
0.0
 20
0.0
 30
0.0
  0
VERTEX
  5
A6
330
A5
100
AcDbEntity
  8
_U+30EC_U+30A4_U+30E4_U+30FC 1
 62
   179
420
  2234388
370
     9
100
AcDbVertex
100
AcDb2dVertex
 10
103.2729401430656
 20
-140.9336991314334
 30
0.0
  0
VERTEX
  5
A7
330
A5
100
AcDbEntity
  8
_U+30EC_U+30A4_U+30E4_U+30FC 1
 62
   179
420
  2234388
370
     9
100
AcDbVertex
100
AcDb2dVertex
 10
103.2729401430656
 20
-143.3938302419293
 30
0.0
  0
SEQEND
  5
A8
330
A5
100
AcDbEntity
  8
_U+30EC_U+30A4_U+30E4_U+30FC 1
 62
   179
420
  2234388
370
     9
  0
INSERT
  5
AA
330
1F
100
AcDbEntity
  8
_U+30EC_U+30A4_U+30E4_U+30FC 1
100
AcDbBlockReference
  2
block 5
 10
0.0
 20
0.0
 30
0.0
  0
INSERT
  5
B0
330
1F
100
AcDbEntity
  8
_U+30EC_U+30A4_U+30E4_U+30FC 1
100
AcDbBlockReference
  2
block 6
 10
0.0
 20
0.0
 30
0.0
  0
INSERT
  5
B8
330
1F
100
AcDbEntity
  8
_U+30EC_U+30A4_U+30E4_U+30FC 1
100
AcDbBlockReference
  2
block 7
 10
0.0
 20
0.0
 30
0.0
  0
SPLINE
  5
BD
330
1F
100
AcDbEntity
  8
_U+30EC_U+30A4_U+30E4_U+30FC 1
 62
   179
420
  2234388
370
     9
100
AcDbSpline
210
0.0
220
0.0
230
1.0
 70
    11
 71
     3
 72
    17
 73
    13
 74
     0
 42
0.0000000001
 43
0.0000000001
 12
1.0
 22
0.0
 32
0.0
 13
1.0
 23
0.0
 33
0.0
 40
0.0
 40
0.0
 40
0.0
 40
0.0
 40
1.0
 40
1.0
 40
1.0
 40
2.0
 40
2.0
 40
2.0
 40
3.0
 40
3.0
 40
3.0
 40
4.0
 40
4.0
 40
4.0
 40
4.0
 10
103.3080768088358
 20
-142.3937052421796
 30
0.0
 10
103.3080768088358
 20
-142.4133549643966
 30
0.0
 10
103.2929073647784
 20
-142.4291946866151
 30
0.0
 10
103.2729401430656
 20
-142.4291946866151
 30
0.0
 10
103.2536431991134
 20
-142.4291946866151
 30
0.0
 10
103.2378034772953
 20
-142.4133549643966
 30
0.0
 10
103.2378034772953
 20
-142.3937052421796
 30
0.0
 10
103.2378034772953
 20
-142.3744435755173
 30
0.0
 10
103.2536431991134
 20
-142.3585685755212
 30
0.0
 10
103.2729401430656
 20
-142.3585685755212
 30
0.0
 10
103.2929073647784
 20
-142.3585685755212
 30
0.0
 10
103.3080768088358
 20
-142.3744435755173
 30
0.0
 10
103.3080768088358
 20
-142.3937052421796
 30
0.0
  0
SPLINE
  5
BE
330
1F
100
AcDbEntity
  8
_U+30EC_U+30A4_U+30E4_U+30FC 1
 62
   179
420
  2234388
370
     9
100
AcDbSpline
210
0.0
220
0.0
230
1.0
 70
    11
 71
     3
 72
    17
 73
    13
 74
     0
 42
0.0000000001
 43
0.0000000001
 12
1.0
 22
0.0
 32
0.0
 13
1.0
 23
0.0
 33
0.0
 40
0.0
 40
0.0
 40
0.0
 40
0.0
 40
1.0
 40
1.0
 40
1.0
 40
2.0
 40
2.0
 40
2.0
 40
3.0
 40
3.0
 40
3.0
 40
4.0
 40
4.0
 40
4.0
 40
4.0
 10
98.37296276807442
 20
-142.3937052421796
 30
0.0
 10
98.37296276807442
 20
-142.3389541310818
 30
0.0
 10
98.32819526921652
 20
-142.293798575538
 30
0.0
 10
98.27305610395658
 20
-142.293798575538
 30
0.0
 10
98.2179522164735
 20
-142.293798575538
 30
0.0
 10
98.17314943983874
 20
-142.3389541310818
 30
0.0
 10
98.17314943983874
 20
-142.3937052421796
 30
0.0
 10
98.17314943983874
 20
-142.4488444088321
 30
0.0
 10
98.2179522164735
 20
-142.4936119088213
 30
0.0
 10
98.27305610395658
 20
-142.4936119088213
 30
0.0
 10
98.32819526921652
 20
-142.4936119088213
 30
0.0
 10
98.37296276807442
 20
-142.4488444088321
 30
0.0
 10
98.37296276807442
 20
-142.3937052421796
 30
0.0
  0
POLYLINE
  5
BF
330
1F
100
AcDbEntity
  8
_U+30EC_U+30A4_U+30E4_U+30FC 1
 62
   179
420
  2234388
370
     9
100
AcDb2dPolyline
 66
     1
 10
0.0
 20
0.0
 30
0.0
  0
VERTEX
  5
C0
330
BF
100
AcDbEntity
  8
_U+30EC_U+30A4_U+30E4_U+30FC 1
 62
   179
420
  2234388
370
     9
100
AcDbVertex
100
AcDb2dVertex
 10
98.27305610395658
 20
-140.9336991314334
 30
0.0
  0
VERTEX
  5
C1
330
BF
100
AcDbEntity
  8
_U+30EC_U+30A4_U+30E4_U+30FC 1
 62
   179
420
  2234388
370
     9
100
AcDbVertex
100
AcDb2dVertex
 10
98.27305610395658
 20
-143.3938302419293
 30
0.0
  0
SEQEND
  5
C2
330
BF
100
AcDbEntity
  8
_U+30EC_U+30A4_U+30E4_U+30FC 1
 62
   179
420
  2234388
370
     9
  0
SPLINE
  5
C3
330
1F
100
AcDbEntity
  8
_U+30EC_U+30A4_U+30E4_U+30FC 1
 62
   179
420
  2234388
370
     9
100
AcDbSpline
210
0.0
220
0.0
230
1.0
 70
    11
 71
     3
 72
    17
 73
    13
 74
     0
 42
0.0000000001
 43
0.0000000001
 12
1.0
 22
0.0
 32
0.0
 13
1.0
 23
0.0
 33
0.0
 40
0.0
 40
0.0
 40
0.0
 40
0.0
 40
1.0
 40
1.0
 40
1.0
 40
2.0
 40
2.0
 40
2.0
 40
3.0
 40
3.0
 40
3.0
 40
4.0
 40
4.0
 40
4.0
 40
4.0
 10
98.30819276972683
 20
-142.3937052421796
 30
0.0
 10
98.30819276972683
 20
-142.4133549643966
 30
0.0
 10
98.29306108653792
 20
-142.4291946866151
 30
0.0
 10
98.27305610395658
 20
-142.4291946866151
 30
0.0
 10
98.25375916000444
 20
-142.4291946866151
 30
0.0
 10
98.23791943818632
 20
-142.4133549643966
 30
0.0
 10
98.23791943818632
 20
-142.3937052421796
 30
0.0
 10
98.23791943818632
 20
-142.3744435755173
 30
0.0
 10
98.25375916000444
 20
-142.3585685755212
 30
0.0
 10
98.27305610395658
 20
-142.3585685755212
 30
0.0
 10
98.29306108653792
 20
-142.3585685755212
 30
0.0
 10
98.30819276972683
 20
-142.3744435755173
 30
0.0
 10
98.30819276972683
 20
-142.3937052421796
 30
0.0
  0
SPLINE
  5
C4
330
1F
100
AcDbEntity
  8
_U+30EC_U+30A4_U+30E4_U+30FC 1
 62
   179
420
  2234388
370
     9
100
AcDbSpline
210
0.0
220
0.0
230
1.0
 70
    11
 71
     3
 72
    17
 73
    13
 74
     0
 42
0.0000000001
 43
0.0000000001
 12
1.0
 22
0.0
 32
0.0
 13
1.0
 23
0.0
 33
0.0
 40
0.0
 40
0.0
 40
0.0
 40
0.0
 40
1.0
 40
1.0
 40
1.0
 40
2.0
 40
2.0
 40
2.0
 40
3.0
 40
3.0
 40
3.0
 40
4.0
 40
4.0
 40
4.0
 40
4.0
 10
90.37277436106511
 20
-142.3937052421796
 30
0.0
 10
90.37277436106511
 20
-142.3389541310818
 30
0.0
 10
90.32800686220723
 20
-142.293798575538
 30
0.0
 10
90.27286769694727
 20
-142.293798575538
 30
0.0
 10
90.2177638094642
 20
-142.293798575538
 30
0.0
 10
90.17296103282943
 20
-142.3389541310818
 30
0.0
 10
90.17296103282943
 20
-142.3937052421796
 30
0.0
 10
90.17296103282943
 20
-142.4488444088321
 30
0.0
 10
90.2177638094642
 20
-142.4936119088213
 30
0.0
 10
90.27286769694727
 20
-142.4936119088213
 30
0.0
 10
90.32800686220723
 20
-142.4936119088213
 30
0.0
 10
90.37277436106511
 20
-142.4488444088321
 30
0.0
 10
90.37277436106511
 20
-142.3937052421796
 30
0.0
  0
POLYLINE
  5
C5
330
1F
100
AcDbEntity
  8
_U+30EC_U+30A4_U+30E4_U+30FC 1
 62
   179
420
  2234388
370
     9
100
AcDb2dPolyline
 66
     1
 10
0.0
 20
0.0
 30
0.0
  0
VERTEX
  5
C6
330
C5
100
AcDbEntity
  8
_U+30EC_U+30A4_U+30E4_U+30FC 1
 62
   179
420
  2234388
370
     9
100
AcDbVertex
100
AcDb2dVertex
 10
90.27286769694727
 20
-140.9336991314334
 30
0.0
  0
VERTEX
  5
C7
330
C5
100
AcDbEntity
  8
_U+30EC_U+30A4_U+30E4_U+30FC 1
 62
   179
420
  2234388
370
     9
100
AcDbVertex
100
AcDb2dVertex
 10
90.27286769694727
 20
-143.3938302419293
 30
0.0
  0
SEQEND
  5
C8
330
C5
100
AcDbEntity
  8
_U+30EC_U+30A4_U+30E4_U+30FC 1
 62
   179
420
  2234388
370
     9
  0
SPLINE
  5
C9
330
1F
100
AcDbEntity
  8
_U+30EC_U+30A4_U+30E4_U+30FC 1
 62
   179
420
  2234388
370
     9
100
AcDbSpline
210
0.0
220
0.0
230
1.0
 70
    11
 71
     3
 72
    17
 73
    13
 74
     0
 42
0.0000000001
 43
0.0000000001
 12
1.0
 22
0.0
 32
0.0
 13
1.0
 23
0.0
 33
0.0
 40
0.0
 40
0.0
 40
0.0
 40
0.0
 40
1.0
 40
1.0
 40
1.0
 40
2.0
 40
2.0
 40
2.0
 40
3.0
 40
3.0
 40
3.0
 40
4.0
 40
4.0
 40
4.0
 40
4.0
 10
90.30800436271753
 20
-142.3937052421796
 30
0.0
 10
90.30800436271753
 20
-142.4133549643966
 30
0.0
 10
90.29283491866009
 20
-142.4291946866151
 30
0.0
 10
90.27286769694727
 20
-142.4291946866151
 30
0.0
 10
90.25357075299513
 20
-142.4291946866151
 30
0.0
 10
90.23773331077403
 20
-142.4133549643966
 30
0.0
 10
90.23773331077403
 20
-142.3937052421796
 30
0.0
 10
90.23773331077403
 20
-142.3744435755173
 30
0.0
 10
90.25357075299513
 20
-142.3585685755212
 30
0.0
 10
90.27286769694727
 20
-142.3585685755212
 30
0.0
 10
90.29283491866009
 20
-142.3585685755212
 30
0.0
 10
90.30800436271753
 20
-142.3744435755173
 30
0.0
 10
90.30800436271753
 20
-142.3937052421796
 30
0.0
  0
ENDSEC
  0
SECTION
  2
OBJECTS
  0
DICTIONARY
  5
C
330
0
100
AcDbDictionary
281
     1
  3
ACAD_GROUP
350
D
  3
ACAD_LAYOUT
350
1A
  3
ACAD_MATERIAL
350
3B
  3
ACAD_MLEADERSTYLE
350
CB
  3
ACAD_MLINESTYLE
350
17
  3
ACAD_PLOTSETTINGS
350
19
  3
ACAD_PLOTSTYLENAME
350
E
  3
ACAD_TABLESTYLE
350
CA
  3
ACAD_VISUALSTYLE
350
2A
  0
SUN
  5
3F
330
29
100
AcDbSun
 90
        1
290
     0
 63
     7
421
 16777215
 40
1.0
291
     1
 91
  2455826
 92
 54000000
292
     0
 70
     2
 71
   256
280
     1
  0
DICTIONARY
  5
D
102
{ACAD_REACTORS
330
C
102
}
330
C
100
AcDbDictionary
281
     1
  0
DICTIONARY
  5
1A
102
{ACAD_REACTORS
330
C
102
}
330
C
100
AcDbDictionary
281
     1
  3
Layout1
350
1E
  3
Layout2
350
26
  3
Model
350
22
  0
DICTIONARY
  5
3B
102
{ACAD_REACTORS
330
C
102
}
330
C
100
AcDbDictionary
281
     1
  3
ByBlock
350
3D
  3
ByLayer
350
3C
  3
Global
350
3E
  0
DICTIONARY
  5
CB
102
{ACAD_REACTORS
330
C
102
}
330
C
100
AcDbDictionary
281
     1
  0
DICTIONARY
  5
17
102
{ACAD_REACTORS
330
C
102
}
330
C
100
AcDbDictionary
281
     1
  3
Standard
350
18
  0
DICTIONARY
  5
19
102
{ACAD_REACTORS
330
C
102
}
330
C
100
AcDbDictionary
281
     1
  0
ACDBDICTIONARYWDFLT
  5
E
102
{ACAD_REACTORS
330
C
102
}
330
C
100
AcDbDictionary
281
     1
  3
Normal
350
F
100
AcDbDictionaryWithDefault
340
F
  0
DICTIONARY
  5
CA
102
{ACAD_REACTORS
330
C
102
}
330
C
100
AcDbDictionary
281
     1
  0
DICTIONARY
  5
2A
102
{ACAD_REACTORS
330
C
102
}
330
C
100
AcDbDictionary
281
     1
  3
2dWireframe
350
2F
  3
3D Hidden
350
31
  3
3dWireframe
350
30
  3
Basic
350
32
  3
Brighten
350
36
  3
ColorChange
350
3A
  3
Conceptual
350
34
  3
Dim
350
35
  3
Facepattern
350
39
  3
Flat
350
2B
  3
FlatWithEdges
350
2C
  3
Gouraud
350
2D
  3
GouraudWithEdges
350
2E
  3
Linepattern
350
38
  3
Realistic
350
33
  3
Thicken
350
37
  0
LAYOUT
  5
1E
102
{ACAD_REACTORS
330
1A
102
}
330
1A
100
AcDbPlotSettings
  1

  2
none_device
  4

  6

 40
0.0
 41
0.0
 42
0.0
 43
0.0
 44
0.0
 45
0.0
 46
0.0
 47
0.0
 48
0.0
 49
0.0
140
0.0
141
0.0
142
1.0
143
1.0
 70
   688
 72
     0
 73
     0
 74
     5
  7

 75
    16
 76
     0
 77
     2
 78
   300
147
1.0
148
0.0
149
0.0
100
AcDbLayout
  1
Layout1
 70
     1
 71
     1
 10
0.0
 20
0.0
 11
12.0
 21
9.0
 12
0.0
 22
0.0
 32
0.0
 14
1.000000000000000E+20
 24
1.000000000000000E+20
 34
1.000000000000000E+20
 15
-1.000000000000000E+20
 25
-1.000000000000000E+20
 35
-1.000000000000000E+20
146
0.0
 13
0.0
 23
0.0
 33
0.0
 16
1.0
 26
0.0
 36
0.0
 17
0.0
 27
1.0
 37
0.0
 76
     0
330
1B
  0
LAYOUT
  5
26
102
{ACAD_REACTORS
330
1A
102
}
330
1A
100
AcDbPlotSettings
  1

  2
none_device
  4

  6

 40
0.0
 41
0.0
 42
0.0
 43
0.0
 44
0.0
 45
0.0
 46
0.0
 47
0.0
 48
0.0
 49
0.0
140
0.0
141
0.0
142
1.0
143
1.0
 70
   688
 72
     0
 73
     0
 74
     5
  7

 75
    16
 76
     0
 77
     2
 78
   300
147
1.0
148
0.0
149
0.0
100
AcDbLayout
  1
Layout2
 70
     1
 71
     2
 10
0.0
 20
0.0
 11
0.0
 21
0.0
 12
0.0
 22
0.0
 32
0.0
 14
0.0
 24
0.0
 34
0.0
 15
0.0
 25
0.0
 35
0.0
146
0.0
 13
0.0
 23
0.0
 33
0.0
 16
1.0
 26
0.0
 36
0.0
 17
0.0
 27
1.0
 37
0.0
 76
     0
330
23
  0
LAYOUT
  5
22
102
{ACAD_REACTORS
330
1A
102
}
330
1A
100
AcDbPlotSettings
  1

  2
none_device
  4

  6

 40
0.0
 41
0.0
 42
0.0
 43
0.0
 44
0.0
 45
0.0
 46
0.0
 47
0.0
 48
0.0
 49
0.0
140
0.0
141
0.0
142
1.0
143
1.0
 70
  1712
 72
     0
 73
     0
 74
     0
  7

 75
     0
 76
     0
 77
     2
 78
   300
147
1.0
148
0.0
149
0.0
100
AcDbLayout
  1
Model
 70
     1
 71
     0
 10
0.0
 20
0.0
 11
12.0
 21
9.0
 12
0.0
 22
0.0
 32
0.0
 14
1.000000000000000E+20
 24
1.000000000000000E+20
 34
1.000000000000000E+20
 15
-1.000000000000000E+20
 25
-1.000000000000000E+20
 35
-1.000000000000000E+20
146
0.0
 13
0.0
 23
0.0
 33
0.0
 16
1.0
 26
0.0
 36
0.0
 17
0.0
 27
1.0
 37
0.0
 76
     0
330
1F
331
29
  0
MATERIAL
  5
3D
102
{ACAD_REACTORS
330
3B
102
}
330
3B
100
AcDbMaterial
  1
ByBlock
 72
     1
 94
      127
  0
MATERIAL
  5
3C
102
{ACAD_REACTORS
330
3B
102
}
330
3B
100
AcDbMaterial
  1
ByLayer
 72
     1
 94
      127
  0
MATERIAL
  5
3E
102
{ACAD_REACTORS
330
3B
102
}
330
3B
100
AcDbMaterial
  1
Global
 72
     1
 94
      127
  0
MLINESTYLE
  5
18
102
{ACAD_REACTORS
330
17
102
}
330
17
100
AcDbMlineStyle
  2
Standard
 70
     0
  3

 62
   256
 51
90.0
 52
90.0
 71
     2
 49
0.5
 62
   256
  6
BYLAYER
 49
-0.5
 62
   256
  6
BYLAYER
  0
ACDBPLACEHOLDER
  5
F
102
{ACAD_REACTORS
330
E
102
}
330
E
  0
VISUALSTYLE
  5
2F
102
{ACAD_REACTORS
330
2A
102
}
330
2A
100
AcDbVisualStyle
  2
2dWireframe
 70
     4
177
     2
291
     0
 71
     0
176
     1
 72
     2
176
     1
 73
     0
176
     1
 90
        0
176
     1
 40
-0.6
176
     1
 41
-30.0
176
     1
 62
     5
 63
     7
421
 16777215
176
     1
 74
     1
176
     1
 91
        4
176
     1
 64
     7
176
     1
 65
   257
176
     1
 75
     1
176
     1
175
     1
176
     1
 42
1.0
176
     1
 92
        0
176
     1
 66
   257
176
     1
 43
1.0
176
     1
 76
     1
176
     1
 77
     6
176
     1
 78
     2
176
     1
 67
     7
176
     1
 79
     5
176
     1
170
     0
176
     1
171
     0
176
     1
290
     0
176
     1
 93
        1
176
     1
 44
0.0
176
     1
173
     0
176
     1
  0
VISUALSTYLE
  5
31
102
{ACAD_REACTORS
330
2A
102
}
330
2A
100
AcDbVisualStyle
  2
3D Hidden
 70
     6
177
     2
291
     0
 71
     1
176
     1
 72
     2
176
     1
 73
     2
176
     1
 90
        0
176
     1
 40
-0.6
176
     1
 41
-30.0
176
     1
 62
     5
 63
     7
421
 16777215
176
     1
 74
     2
176
     1
 91
        2
176
     1
 64
     7
176
     1
 65
   257
176
     1
 75
     2
176
     1
175
     1
176
     1
 42
40.0
176
     1
 92
        0
176
     1
 66
   257
176
     1
 43
1.0
176
     1
 76
     1
176
     1
 77
     6
176
     1
 78
     2
176
     1
 67
     7
176
     1
 79
     3
176
     1
170
     0
176
     1
171
     0
176
     1
290
     0
176
     1
 93
        1
176
     1
 44
0.0
176
     1
173
     0
176
     1
  0
VISUALSTYLE
  5
30
102
{ACAD_REACTORS
330
2A
102
}
330
2A
100
AcDbVisualStyle
  2
3dWireframe
 70
     5
177
     2
291
     0
 71
     0
176
     1
 72
     2
176
     1
 73
     0
176
     1
 90
        0
176
     1
 40
-0.6
176
     1
 41
-30.0
176
     1
 62
     5
 63
     7
421
 16777215
176
     1
 74
     1
176
     1
 91
        4
176
     1
 64
     7
176
     1
 65
   257
176
     1
 75
     1
176
     1
175
     1
176
     1
 42
1.0
176
     1
 92
        0
176
     1
 66
   257
176
     1
 43
1.0
176
     1
 76
     1
176
     1
 77
     6
176
     1
 78
     2
176
     1
 67
     7
176
     1
 79
     5
176
     1
170
     0
176
     1
171
     0
176
     1
290
     0
176
     1
 93
        1
176
     1
 44
0.0
176
     1
173
     0
176
     1
  0
VISUALSTYLE
  5
32
102
{ACAD_REACTORS
330
2A
102
}
330
2A
100
AcDbVisualStyle
  2
Basic
 70
     7
177
     2
291
     1
 71
     1
176
     1
 72
     0
176
     1
 73
     1
176
     1
 90
        0
176
     1
 40
-0.6
176
     1
 41
-30.0
176
     1
 62
     5
 63
     7
421
 16777215
176
     1
 74
     0
176
     1
 91
        4
176
     1
 64
     7
176
     1
 65
   257
176
     1
 75
     1
176
     1
175
     1
176
     1
 42
1.0
176
     1
 92
        8
176
     1
 66
     7
176
     1
 43
1.0
176
     1
 76
     1
176
     1
 77
     6
176
     1
 78
     2
176
     1
 67
     7
176
     1
 79
     5
176
     1
170
     0
176
     1
171
     0
176
     1
290
     0
176
     1
 93
        1
176
     1
 44
0.0
176
     1
173
     0
176
     1
  0
VISUALSTYLE
  5
36
102
{ACAD_REACTORS
330
2A
102
}
330
2A
100
AcDbVisualStyle
  2
Brighten
 70
    12
177
     2
291
     1
 71
     2
176
     1
 72
     2
176
     1
 73
     0
176
     1
 90
        0
176
     1
 40
-0.6
176
     1
 41
-30.0
176
     1
 62
     5
 63
     7
421
 16777215
176
     1
 74
     1
176
     1
 91
        4
176
     1
 64
     7
176
     1
 65
   257
176
     1
 75
     1
176
     1
175
     1
176
     1
 42
1.0
176
     1
 92
        8
176
     1
 66
     7
176
     1
 43
1.0
176
     1
 76
     1
176
     1
 77
     6
176
     1
 78
     2
176
     1
 67
     7
176
     1
 79
     5
176
     1
170
     0
176
     1
171
     0
176
     1
290
     0
176
     1
 93
        1
176
     1
 44
50.0
176
     1
173
     0
176
     1
  0
VISUALSTYLE
  5
3A
102
{ACAD_REACTORS
330
2A
102
}
330
2A
100
AcDbVisualStyle
  2
ColorChange
 70
    16
177
     2
291
     1
 71
     2
176
     1
 72
     2
176
     1
 73
     3
176
     1
 90
        0
176
     1
 40
-0.6
176
     1
 41
-30.0
176
     1
 62
     5
 63
     8
421
  8421504
176
     1
 74
     1
176
     1
 91
        4
176
     1
 64
     7
176
     1
 65
   257
176
     1
 75
     1
176
     1
175
     1
176
     1
 42
1.0
176
     1
 92
        8
176
     1
 66
     8
424
  8421504
176
     1
 43
1.0
176
     1
 76
     1
176
     1
 77
     6
176
     1
 78
     2
176
     1
 67
     7
176
     1
 79
     5
176
     1
170
     0
176
     1
171
     0
176
     1
290
     0
176
     1
 93
        1
176
     1
 44
0.0
176
     1
173
     0
176
     1
  0
VISUALSTYLE
  5
34
102
{ACAD_REACTORS
330
2A
102
}
330
2A
100
AcDbVisualStyle
  2
Conceptual
 70
     9
177
     2
291
     0
 71
     3
176
     1
 72
     2
176
     1
 73
     0
176
     1
 90
        0
176
     1
 40
-0.6
176
     1
 41
-30.0
176
     1
 62
     5
 63
     7
421
 16777215
176
     1
 74
     2
176
     1
 91
        2
176
     1
 64
     7
176
     1
 65
   257
176
     1
 75
     1
176
     1
175
     1
176
     1
 42
40.0
176
     1
 92
        8
176
     1
 66
     7
176
     1
 43
1.0
176
     1
 76
     1
176
     1
 77
     6
176
     1
 78
     2
176
     1
 67
     7
176
     1
 79
     3
176
     1
170
     0
176
     1
171
     0
176
     1
290
     0
176
     1
 93
        1
176
     1
 44
0.0
176
     1
173
     0
176
     1
  0
VISUALSTYLE
  5
35
102
{ACAD_REACTORS
330
2A
102
}
330
2A
100
AcDbVisualStyle
  2
Dim
 70
    11
177
     2
291
     1
 71
     2
176
     1
 72
     2
176
     1
 73
     0
176
     1
 90
        0
176
     1
 40
-0.6
176
     1
 41
-30.0
176
     1
 62
     5
 63
     7
421
 16777215
176
     1
 74
     1
176
     1
 91
        4
176
     1
 64
     7
176
     1
 65
   257
176
     1
 75
     1
176
     1
175
     1
176
     1
 42
1.0
176
     1
 92
        8
176
     1
 66
     7
176
     1
 43
1.0
176
     1
 76
     1
176
     1
 77
     6
176
     1
 78
     2
176
     1
 67
     7
176
     1
 79
     5
176
     1
170
     0
176
     1
171
     0
176
     1
290
     0
176
     1
 93
        1
176
     1
 44
-50.0
176
     1
173
     0
176
     1
  0
VISUALSTYLE
  5
39
102
{ACAD_REACTORS
330
2A
102
}
330
2A
100
AcDbVisualStyle
  2
Facepattern
 70
    15
177
     2
291
     1
 71
     2
176
     1
 72
     2
176
     1
 73
     0
176
     1
 90
        0
176
     1
 40
-0.6
176
     1
 41
-30.0
176
     1
 62
     5
 63
     7
421
 16777215
176
     1
 74
     1
176
     1
 91
        4
176
     1
 64
     7
176
     1
 65
   257
176
     1
 75
     1
176
     1
175
     1
176
     1
 42
1.0
176
     1
 92
        8
176
     1
 66
     7
176
     1
 43
1.0
176
     1
 76
     1
176
     1
 77
     6
176
     1
 78
     2
176
     1
 67
     7
176
     1
 79
     5
176
     1
170
     0
176
     1
171
     0
176
     1
290
     0
176
     1
 93
        1
176
     1
 44
0.0
176
     1
173
     0
176
     1
  0
VISUALSTYLE
  5
2B
102
{ACAD_REACTORS
330
2A
102
}
330
2A
100
AcDbVisualStyle
  2
Flat
 70
     0
177
     2
291
     1
 71
     2
176
     1
 72
     1
176
     1
 73
     1
176
     1
 90
        2
176
     1
 40
-0.6
176
     1
 41
30.0
176
     1
 62
     5
 63
     7
421
 16777215
176
     1
 74
     0
176
     1
 91
        4
176
     1
 64
     7
176
     1
 65
   257
176
     1
 75
     1
176
     1
175
     1
176
     1
 42
1.0
176
     1
 92
        8
176
     1
 66
     7
176
     1
 43
1.0
176
     1
 76
     1
176
     1
 77
     6
176
     1
 78
     2
176
     1
 67
     7
176
     1
 79
     5
176
     1
170
     0
176
     1
171
     0
176
     1
290
     0
176
     1
 93
       13
176
     1
 44
0.0
176
     1
173
     0
176
     1
  0
VISUALSTYLE
  5
2C
102
{ACAD_REACTORS
330
2A
102
}
330
2A
100
AcDbVisualStyle
  2
FlatWithEdges
 70
     1
177
     2
291
     1
 71
     2
176
     1
 72
     1
176
     1
 73
     1
176
     1
 90
        2
176
     1
 40
-0.6
176
     1
 41
30.0
176
     1
 62
     5
 63
     7
421
 16777215
176
     1
 74
     1
176
     1
 91
        4
176
     1
 64
     7
176
     1
 65
   257
176
     1
 75
     1
176
     1
175
     1
176
     1
 42
1.0
176
     1
 92
        0
176
     1
 66
   257
176
     1
 43
1.0
176
     1
 76
     1
176
     1
 77
     6
176
     1
 78
     2
176
     1
 67
     7
176
     1
 79
     5
176
     1
170
     0
176
     1
171
     0
176
     1
290
     0
176
     1
 93
       13
176
     1
 44
0.0
176
     1
173
     0
176
     1
  0
VISUALSTYLE
  5
2D
102
{ACAD_REACTORS
330
2A
102
}
330
2A
100
AcDbVisualStyle
  2
Gouraud
 70
     2
177
     2
291
     1
 71
     2
176
     1
 72
     2
176
     1
 73
     1
176
     1
 90
        2
176
     1
 40
-0.6
176
     1
 41
30.0
176
     1
 62
     5
 63
     7
421
 16777215
176
     1
 74
     0
176
     1
 91
        4
176
     1
 64
     7
176
     1
 65
   257
176
     1
 75
     1
176
     1
175
     1
176
     1
 42
1.0
176
     1
 92
        0
176
     1
 66
     7
176
     1
 43
1.0
176
     1
 76
     1
176
     1
 77
     6
176
     1
 78
     2
176
     1
 67
     7
176
     1
 79
     5
176
     1
170
     0
176
     1
171
     0
176
     1
290
     0
176
     1
 93
       13
176
     1
 44
0.0
176
     1
173
     0
176
     1
  0
VISUALSTYLE
  5
2E
102
{ACAD_REACTORS
330
2A
102
}
330
2A
100
AcDbVisualStyle
  2
GouraudWithEdges
 70
     3
177
     2
291
     1
 71
     2
176
     1
 72
     2
176
     1
 73
     1
176
     1
 90
        2
176
     1
 40
-0.6
176
     1
 41
30.0
176
     1
 62
     5
 63
     7
421
 16777215
176
     1
 74
     1
176
     1
 91
        4
176
     1
 64
     7
176
     1
 65
   257
176
     1
 75
     1
176
     1
175
     1
176
     1
 42
1.0
176
     1
 92
        0
176
     1
 66
   257
176
     1
 43
1.0
176
     1
 76
     1
176
     1
 77
     6
176
     1
 78
     2
176
     1
 67
     7
176
     1
 79
     5
176
     1
170
     0
176
     1
171
     0
176
     1
290
     0
176
     1
 93
       13
176
     1
 44
0.0
176
     1
173
     0
176
     1
  0
VISUALSTYLE
  5
38
102
{ACAD_REACTORS
330
2A
102
}
330
2A
100
AcDbVisualStyle
  2
Linepattern
 70
    14
177
     2
291
     1
 71
     2
176
     1
 72
     2
176
     1
 73
     0
176
     1
 90
        0
176
     1
 40
-0.6
176
     1
 41
-30.0
176
     1
 62
     5
 63
     7
421
 16777215
176
     1
 74
     1
176
     1
 91
        4
176
     1
 64
     7
176
     1
 65
   257
176
     1
 75
     7
176
     1
175
     7
176
     1
 42
1.0
176
     1
 92
        8
176
     1
 66
     7
176
     1
 43
1.0
176
     1
 76
     1
176
     1
 77
     6
176
     1
 78
     2
176
     1
 67
     7
176
     1
 79
     5
176
     1
170
     0
176
     1
171
     0
176
     1
290
     0
176
     1
 93
        1
176
     1
 44
0.0
176
     1
173
     0
176
     1
  0
VISUALSTYLE
  5
33
102
{ACAD_REACTORS
330
2A
102
}
330
2A
100
AcDbVisualStyle
  2
Realistic
 70
     8
177
     2
291
     0
 71
     2
176
     1
 72
     2
176
     1
 73
     0
176
     1
 90
        0
176
     1
 40
-0.6
176
     1
 41
-30.0
176
     1
 62
     5
 63
     7
421
 16777215
176
     1
 74
     1
176
     1
 91
        0
176
     1
 64
     7
176
     1
 65
   257
176
     1
 75
     1
176
     1
175
     1
176
     1
 42
1.0
176
     1
 92
        8
176
     1
 66
     8
424
  7895160
176
     1
 43
1.0
176
     1
 76
     1
176
     1
 77
     6
176
     1
 78
     2
176
     1
 67
     7
176
     1
 79
     5
176
     1
170
     0
176
     1
171
     0
176
     1
290
     0
176
     1
 93
       13
176
     1
 44
0.0
176
     1
173
     0
176
     1
  0
VISUALSTYLE
  5
37
102
{ACAD_REACTORS
330
2A
102
}
330
2A
100
AcDbVisualStyle
  2
Thicken
 70
    13
177
     2
291
     1
 71
     2
176
     1
 72
     2
176
     1
 73
     0
176
     1
 90
        0
176
     1
 40
-0.6
176
     1
 41
-30.0
176
     1
 62
     5
 63
     7
421
 16777215
176
     1
 74
     1
176
     1
 91
        4
176
     1
 64
     7
176
     1
 65
   257
176
     1
 75
     1
176
     1
175
     1
176
     1
 42
1.0
176
     1
 92
       12
176
     1
 66
     7
176
     1
 43
1.0
176
     1
 76
     1
176
     1
 77
     6
176
     1
 78
     2
176
     1
 67
     7
176
     1
 79
     5
176
     1
170
     0
176
     1
171
     0
176
     1
290
     0
176
     1
 93
        1
176
     1
 44
0.0
176
     1
173
     0
176
     1
  0
ENDSEC
  0
EOF
