  0
SECTION
  2
HEADER
  9
$ACADVER
  1
AC1024
  9
$ACADMAINTVER
 70
     6
  9
$DWGCODEPAGE
  3
UNDEFINED
  9
$INSBASE
 10
0.0
 20
0.0
 30
0.0
  9
$EXTMIN
 10
1.000000000000000E+20
 20
1.000000000000000E+20
 30
1.000000000000000E+20
  9
$EXTMAX
 10
-1.000000000000000E+20
 20
-1.000000000000000E+20
 30
-1.000000000000000E+20
  9
$LIMMIN
 10
0.0
 20
0.0
  9
$LIMMAX
 10
12.0
 20
9.0
  9
$ORTHOMODE
 70
     0
  9
$REGENMODE
 70
     1
  9
$FILLMODE
 70
     1
  9
$QTEXTMODE
 70
     0
  9
$MIRRTEXT
 70
     1
  9
$LTSCALE
 40
1.0
  9
$ATTMODE
 70
     1
  9
$TEXTSIZE
 40
0.2
  9
$TRACEWID
 40
0.05
  9
$TEXTSTYLE
  7
Standard
  9
$CLAYER
  8
0
  9
$CELTYPE
  6
ByLayer
  9
$CECOLOR
 62
   256
  9
$CELTSCALE
 40
1.0
  9
$DISPSILH
 70
     0
  9
$DIMSCALE
 40
1.0
  9
$DIMASZ
 40
0.18
  9
$DIMEXO
 40
0.0625
  9
$DIMDLI
 40
0.38
  9
$DIMRND
 40
0.0
  9
$DIMDLE
 40
0.0
  9
$DIMEXE
 40
0.18
  9
$DIMTP
 40
0.0
  9
$DIMTM
 40
0.0
  9
$DIMTXT
 40
0.18
  9
$DIMCEN
 40
0.09
  9
$DIMTSZ
 40
0.0
  9
$DIMTOL
 70
     0
  9
$DIMLIM
 70
     0
  9
$DIMTIH
 70
     1
  9
$DIMTOH
 70
     1
  9
$DIMSE1
 70
     0
  9
$DIMSE2
 70
     0
  9
$DIMTAD
 70
     0
  9
$DIMZIN
 70
     0
  9
$DIMBLK
  1

  9
$DIMASO
 70
     1
  9
$DIMSHO
 70
     1
  9
$DIMPOST
  1

  9
$DIMAPOST
  1

  9
$DIMALT
 70
     0
  9
$DIMALTD
 70
     2
  9
$DIMALTF
 40
25.4
  9
$DIMLFAC
 40
1.0
  9
$DIMTOFL
 70
     0
  9
$DIMTVP
 40
0.0
  9
$DIMTIX
 70
     0
  9
$DIMSOXD
 70
     0
  9
$DIMSAH
 70
     0
  9
$DIMBLK1
  1

  9
$DIMBLK2
  1

  9
$DIMSTYLE
  2
Standard
  9
$DIMCLRD
 70
     0
  9
$DIMCLRE
 70
     0
  9
$DIMCLRT
 70
     0
  9
$DIMTFAC
 40
1.0
  9
$DIMGAP
 40
0.09
  9
$DIMJUST
 70
     0
  9
$DIMSD1
 70
     0
  9
$DIMSD2
 70
     0
  9
$DIMTOLJ
 70
     1
  9
$DIMTZIN
 70
     0
  9
$DIMALTZ
 70
     0
  9
$DIMALTTZ
 70
     0
  9
$DIMUPT
 70
     0
  9
$DIMDEC
 70
     4
  9
$DIMTDEC
 70
     4
  9
$DIMALTU
 70
     2
  9
$DIMALTTD
 70
     2
  9
$DIMTXSTY
  7
Standard
  9
$DIMAUNIT
 70
     0
  9
$DIMADEC
 70
     0
  9
$DIMALTRND
 40
0.0
  9
$DIMAZIN
 70
     0
  9
$DIMDSEP
 70
    46
  9
$DIMATFIT
 70
     3
  9
$DIMFRAC
 70
     0
  9
$DIMLDRBLK
  1

  9
$DIMLUNIT
 70
     2
  9
$DIMLWD
 70
    -2
  9
$DIMLWE
 70
    -2
  9
$DIMTMOVE
 70
     0
  9
$DIMFXL
 40
1.0
  9
$DIMFXLON
 70
     0
  9
$DIMJOGANG
 40
0.7853981633974483
  9
$DIMTFILL
 70
     0
  9
$DIMTFILLCLR
 70
     0
  9
$DIMARCSYM
 70
     0
  9
$DIMLTYPE
  6

  9
$DIMLTEX1
  6

  9
$DIMLTEX2
  6

  9
$DIMTXTDIRECTION
 70
     0
  9
$LUNITS
 70
     2
  9
$LUPREC
 70
     4
  9
$SKETCHINC
 40
0.1
  9
$FILLETRAD
 40
0.5
  9
$AUNITS
 70
     0
  9
$AUPREC
 70
     0
  9
$MENU
  1
.
  9
$ELEVATION
 40
0.0
  9
$PELEVATION
 40
0.0
  9
$THICKNESS
 40
0.0
  9
$LIMCHECK
 70
     0
  9
$CHAMFERA
 40
0.5
  9
$CHAMFERB
 40
0.5
  9
$CHAMFERC
 40
1.0
  9
$CHAMFERD
 40
0.0
  9
$SKPOLY
 70
     0
  9
$TDCREATE
 40
2457917.628518519
  9
$TDUCREATE
 40
2457917.253518519
  9
$TDUPDATE
 40
2457917.628518519
  9
$TDUUPDATE
 40
2457917.253518519
  9
$TDINDWG
 40
0.0000000116
  9
$TDUSRTIMER
 40
0.0000000116
  9
$USRTIMER
 70
     1
  9
$ANGBASE
 50
0.0
  9
$ANGDIR
 70
     0
  9
$PDMODE
 70
     0
  9
$PDSIZE
 40
0.0
  9
$PLINEWID
 40
0.0
  9
$SPLFRAME
 70
     0
  9
$SPLINETYPE
 70
     6
  9
$SPLINESEGS
 70
     8
  9
$HANDSEED
  5
19A
  9
$SURFTAB1
 70
     6
  9
$SURFTAB2
 70
     6
  9
$SURFTYPE
 70
     6
  9
$SURFU
 70
     6
  9
$SURFV
 70
     6
  9
$UCSBASE
  2

  9
$UCSNAME
  2

  9
$UCSORG
 10
0.0
 20
0.0
 30
0.0
  9
$UCSXDIR
 10
1.0
 20
0.0
 30
0.0
  9
$UCSYDIR
 10
0.0
 20
1.0
 30
0.0
  9
$UCSORTHOREF
  2

  9
$UCSORTHOVIEW
 70
     0
  9
$UCSORGTOP
 10
0.0
 20
0.0
 30
0.0
  9
$UCSORGBOTTOM
 10
0.0
 20
0.0
 30
0.0
  9
$UCSORGLEFT
 10
0.0
 20
0.0
 30
0.0
  9
$UCSORGRIGHT
 10
0.0
 20
0.0
 30
0.0
  9
$UCSORGFRONT
 10
0.0
 20
0.0
 30
0.0
  9
$UCSORGBACK
 10
0.0
 20
0.0
 30
0.0
  9
$PUCSBASE
  2

  9
$PUCSNAME
  2

  9
$PUCSORG
 10
0.0
 20
0.0
 30
0.0
  9
$PUCSXDIR
 10
1.0
 20
0.0
 30
0.0
  9
$PUCSYDIR
 10
0.0
 20
1.0
 30
0.0
  9
$PUCSORTHOREF
  2

  9
$PUCSORTHOVIEW
 70
     0
  9
$PUCSORGTOP
 10
0.0
 20
0.0
 30
0.0
  9
$PUCSORGBOTTOM
 10
0.0
 20
0.0
 30
0.0
  9
$PUCSORGLEFT
 10
0.0
 20
0.0
 30
0.0
  9
$PUCSORGRIGHT
 10
0.0
 20
0.0
 30
0.0
  9
$PUCSORGFRONT
 10
0.0
 20
0.0
 30
0.0
  9
$PUCSORGBACK
 10
0.0
 20
0.0
 30
0.0
  9
$USERI1
 70
     0
  9
$USERI2
 70
     0
  9
$USERI3
 70
     0
  9
$USERI4
 70
     0
  9
$USERI5
 70
     0
  9
$USERR1
 40
0.0
  9
$USERR2
 40
0.0
  9
$USERR3
 40
0.0
  9
$USERR4
 40
0.0
  9
$USERR5
 40
0.0
  9
$WORLDVIEW
 70
     1
  9
$SHADEDGE
 70
     3
  9
$SHADEDIF
 70
    70
  9
$TILEMODE
 70
     1
  9
$MAXACTVP
 70
    64
  9
$PINSBASE
 10
0.0
 20
0.0
 30
0.0
  9
$PLIMCHECK
 70
     0
  9
$PEXTMIN
 10
1.000000000000000E+20
 20
1.000000000000000E+20
 30
1.000000000000000E+20
  9
$PEXTMAX
 10
-1.000000000000000E+20
 20
-1.000000000000000E+20
 30
-1.000000000000000E+20
  9
$PLIMMIN
 10
0.0
 20
0.0
  9
$PLIMMAX
 10
12.0
 20
9.0
  9
$UNITMODE
 70
     0
  9
$VISRETAIN
 70
     1
  9
$PLINEGEN
 70
     0
  9
$PSLTSCALE
 70
     1
  9
$TREEDEPTH
 70
  3020
  9
$CMLSTYLE
  2
Standard
  9
$CMLJUST
 70
     0
  9
$CMLSCALE
 40
1.0
  9
$PROXYGRAPHICS
 70
     1
  9
$MEASUREMENT
 70
     0
  9
$CELWEIGHT
370
    -1
  9
$ENDCAPS
280
     0
  9
$JOINSTYLE
280
     0
  9
$LWDISPLAY
290
     1
  9
$INSUNITS
 70
     1
  9
$HYPERLINKBASE
  1

  9
$STYLESHEET
  1

  9
$XEDIT
290
     1
  9
$CEPSNTYPE
380
     0
  9
$PSTYLEMODE
290
     1
  9
$FINGERPRINTGUID
  2
{94ACAAE4-13A4-41D8-139F-114287640214}
  9
$VERSIONGUID
  2
{FAEB1C32-E019-11D5-929B-00C0DF256EC4}
  9
$EXTNAMES
290
     1
  9
$PSVPSCALE
 40
0.0
  9
$OLESTARTUP
290
     0
  9
$SORTENTS
280
   127
  9
$INDEXCTL
280
     0
  9
$HIDETEXT
280
     1
  9
$XCLIPFRAME
280
     2
  9
$HALOGAP
280
     0
  9
$OBSCOLOR
 70
   257
  9
$OBSLTYPE
280
     0
  9
$INTERSECTIONDISPLAY
280
     0
  9
$INTERSECTIONCOLOR
 70
   257
  9
$DIMASSOC
280
     2
  9
$PROJECTNAME
  1

  9
$CAMERADISPLAY
290
     0
  9
$LENSLENGTH
 40
50.0
  9
$CAMERAHEIGHT
 40
0.0
  9
$STEPSPERSEC
 40
2.0
  9
$STEPSIZE
 40
6.0
  9
$3DDWFPREC
 40
2.0
  9
$PSOLWIDTH
 40
0.25
  9
$PSOLHEIGHT
 40
4.0
  9
$LOFTANG1
 40
1.570796326794897
  9
$LOFTANG2
 40
1.570796326794897
  9
$LOFTMAG1
 40
0.0
  9
$LOFTMAG2
 40
0.0
  9
$LOFTPARAM
 70
     7
  9
$LOFTNORMALS
280
     1
  9
$LATITUDE
 40
37.795
  9
$LONGITUDE
 40
-122.394
  9
$NORTHDIRECTION
 40
0.0
  9
$TIMEZONE
 70
 -8000
  9
$LIGHTGLYPHDISPLAY
280
     1
  9
$TILEMODELIGHTSYNCH
280
     1
  9
$CMATERIAL
347
3C
  9
$SOLIDHIST
280
     1
  9
$SHOWHIST
280
     1
  9
$DWFFRAME
280
     2
  9
$DGNFRAME
280
     2
  9
$REALWORLDSCALE
290
     1
  9
$INTERFERECOLOR
 62
   256
  9
$CSHADOW
280
     0
  9
$SHADOWPLANELOCATION
 40
0.0
  0
ENDSEC
  0
SECTION
  2
CLASSES
  0
CLASS
  1
ACDBDICTIONARYWDFLT
  2
AcDbDictionaryWithDefault
  3
ObjectDBX Classes
 90
        0
 91
        4
280
     0
281
     0
  0
CLASS
  1
VISUALSTYLE
  2
AcDbVisualStyle
  3
ObjectDBX Classes
 90
     4095
 91
        4
280
     0
281
     0
  0
CLASS
  1
MATERIAL
  2
AcDbMaterial
  3
ObjectDBX Classes
 90
     1153
 91
        4
280
     0
281
     0
  0
CLASS
  1
SUN
  2
AcDbSun
  3
SCENEOE
 90
     1024
 91
        4
280
     0
281
     0
  0
ENDSEC
  0
SECTION
  2
TABLES
  0
TABLE
  2
VPORT
  5
8
330
0
100
AcDbSymbolTable
 70
     1
  0
VPORT
  5
29
330
8
100
AcDbSymbolTableRecord
100
AcDbViewportTableRecord
  2
*Active
 70
     0
 10
0.0
 20
0.0
 11
1.0
 21
1.0
 12
0.0
 22
0.0
 13
0.0
 23
0.0
 14
0.5
 24
0.5
 15
0.5
 25
0.5
 16
0.0
 26
0.0
 36
1.0
 17
91.00082462281999
 27
-128.4993055234307
 37
0.0
 40
256.9986110468615
 41
0.7081814508812795
 42
50.0
 43
0.0
 44
0.0
 50
0.0
 51
0.0
 71
     0
 72
   100
 73
     1
 74
     3
 75
     0
 76
     0
 77
     0
 78
     0
281
     0
 65
     1
110
0.0
120
0.0
130
0.0
111
1.0
121
0.0
131
0.0
112
0.0
122
1.0
132
0.0
 79
     0
146
0.0
 60
     3
 61
     5
292
     1
282
     1
141
0.0
142
0.0
 63
   250
361
3F
  0
ENDTAB
  0
TABLE
  2
LTYPE
  5
5
330
0
100
AcDbSymbolTable
 70
     1
  0
LTYPE
  5
14
330
5
100
AcDbSymbolTableRecord
100
AcDbLinetypeTableRecord
  2
ByBlock
 70
     0
  3

 72
    65
 73
     0
 40
0.0
  0
LTYPE
  5
15
330
5
100
AcDbSymbolTableRecord
100
AcDbLinetypeTableRecord
  2
ByLayer
 70
     0
  3

 72
    65
 73
     0
 40
0.0
  0
LTYPE
  5
16
330
5
100
AcDbSymbolTableRecord
100
AcDbLinetypeTableRecord
  2
Continuous
 70
     0
  3
Solid line
 72
    65
 73
     0
 40
0.0
  0
ENDTAB
  0
TABLE
  2
LAYER
  5
2
330
0
100
AcDbSymbolTable
 70
     2
  0
LAYER
  5
10
330
2
100
AcDbSymbolTableRecord
100
AcDbLayerTableRecord
  2
0
 70
     0
 62
     7
  6
Continuous
370
    -3
390
F
347
3E
  0
LAYER
  5
40
330
2
100
AcDbSymbolTableRecord
100
AcDbLayerTableRecord
  2
_U+30EC_U+30A4_U+30E4_U+30FC 1
 70
     0
 62
     7
  6
Continuous
370
    -3
390
F
347
3E
  0
ENDTAB
  0
TABLE
  2
STYLE
  5
3
330
0
100
AcDbSymbolTable
 70
     1
  0
STYLE
  5
11
330
3
100
AcDbSymbolTableRecord
100
AcDbTextStyleTableRecord
  2
Standard
 70
     0
 40
0.0
 41
1.0
 50
0.0
 71
     0
 42
0.2
  3
txt
  4

  0
ENDTAB
  0
TABLE
  2
VIEW
  5
6
330
0
100
AcDbSymbolTable
 70
     0
  0
ENDTAB
  0
TABLE
  2
UCS
  5
7
330
0
100
AcDbSymbolTable
 70
     0
  0
ENDTAB
  0
TABLE
  2
APPID
  5
9
330
0
100
AcDbSymbolTable
 70
     1
  0
APPID
  5
12
330
9
100
AcDbSymbolTableRecord
100
AcDbRegAppTableRecord
  2
ACAD
 70
     0
  0
ENDTAB
  0
TABLE
  2
DIMSTYLE
  5
A
330
0
100
AcDbSymbolTable
 70
     1
100
AcDbDimStyleTable
  0
DIMSTYLE
105
27
330
A
100
AcDbSymbolTableRecord
100
AcDbDimStyleTableRecord
  2
Standard
 70
     0
178
     0
340
11
  0
ENDTAB
  0
TABLE
  2
BLOCK_RECORD
  5
1
330
0
100
AcDbSymbolTable
 70
     8
  0
BLOCK_RECORD
  5
1F
330
1
100
AcDbSymbolTableRecord
100
AcDbBlockTableRecord
  2
*Model_Space
340
22
 70
     0
280
     1
281
     0
  0
BLOCK_RECORD
  5
1B
330
1
100
AcDbSymbolTableRecord
100
AcDbBlockTableRecord
  2
*Paper_Space
340
1E
 70
     0
280
     1
281
     0
  0
BLOCK_RECORD
  5
23
330
1
100
AcDbSymbolTableRecord
100
AcDbBlockTableRecord
  2
*Paper_Space0
340
26
 70
     0
280
     1
281
     0
  0
BLOCK_RECORD
  5
41
330
1
100
AcDbSymbolTableRecord
100
AcDbBlockTableRecord
  2
block 2
340
0
102
{BLKREFS
331
42
102
}
 70
     0
280
     1
281
     0
  0
BLOCK_RECORD
  5
117
330
1
100
AcDbSymbolTableRecord
100
AcDbBlockTableRecord
  2
block 3
340
0
102
{BLKREFS
331
118
102
}
 70
     0
280
     1
281
     0
  0
BLOCK_RECORD
  5
12D
330
1
100
AcDbSymbolTableRecord
100
AcDbBlockTableRecord
  2
block 4
340
0
102
{BLKREFS
331
12E
102
}
 70
     0
280
     1
281
     0
  0
BLOCK_RECORD
  5
140
330
1
100
AcDbSymbolTableRecord
100
AcDbBlockTableRecord
  2
block 5
340
0
102
{BLKREFS
331
141
102
}
 70
     0
280
     1
281
     0
  0
BLOCK_RECORD
  5
156
330
1
100
AcDbSymbolTableRecord
100
AcDbBlockTableRecord
  2
block 6
340
0
102
{BLKREFS
331
157
102
}
 70
     0
280
     1
281
     0
  0
BLOCK_RECORD
  5
16B
330
1
100
AcDbSymbolTableRecord
100
AcDbBlockTableRecord
  2
block 7
340
0
102
{BLKREFS
331
16C
102
}
 70
     0
280
     1
281
     0
  0
BLOCK_RECORD
  5
18C
330
1
100
AcDbSymbolTableRecord
100
AcDbBlockTableRecord
  2
block 8
340
0
102
{BLKREFS
331
18D
102
}
 70
     0
280
     1
281
     0
  0
ENDTAB
  0
ENDSEC
  0
SECTION
  2
BLOCKS
  0
BLOCK
  5
20
330
1F
100
AcDbEntity
  8
0
100
AcDbBlockBegin
  2
*Model_Space
 70
     0
 10
0.0
 20
0.0
 30
0.0
  3
*Model_Space
  1

  0
ENDBLK
  5
21
330
1F
100
AcDbEntity
  8
0
100
AcDbBlockEnd
  0
BLOCK
  5
1C
330
1B
100
AcDbEntity
 67
     1
  8
0
100
AcDbBlockBegin
  2
*Paper_Space
 70
     0
 10
0.0
 20
0.0
 30
0.0
  3
*Paper_Space
  1

  0
ENDBLK
  5
1D
330
1B
100
AcDbEntity
 67
     1
  8
0
100
AcDbBlockEnd
  0
BLOCK
  5
24
330
23
100
AcDbEntity
  8
0
100
AcDbBlockBegin
  2
*Paper_Space0
 70
     0
 10
0.0
 20
0.0
 30
0.0
  3
*Paper_Space0
  1

  0
ENDBLK
  5
25
330
23
100
AcDbEntity
  8
0
100
AcDbBlockEnd
  0
BLOCK
  5
43
330
41
100
AcDbEntity
  8
0
100
AcDbBlockBegin
  2
block 2
 70
     0
 10
0.0
 20
0.0
 30
0.0
  3
block 2
  1

  0
SPLINE
  5
45
330
41
100
AcDbEntity
  8
_U+30EC_U+30A4_U+30E4_U+30FC 1
370
     0
100
AcDbSpline
210
0.0
220
0.0
230
1.0
 70
    11
 71
     3
 72
   128
 73
   124
 74
     0
 42
0.0000000001
 43
0.0000000001
 12
1.0
 22
0.0
 32
0.0
 13
1.0
 23
0.0
 33
0.0
 40
0.0
 40
0.0
 40
0.0
 40
0.0
 40
1.0
 40
1.0
 40
1.0
 40
2.0
 40
2.0
 40
2.0
 40
3.0
 40
3.0
 40
3.0
 40
4.0
 40
4.0
 40
4.0
 40
5.0
 40
5.0
 40
5.0
 40
6.0
 40
6.0
 40
6.0
 40
7.0
 40
7.0
 40
7.0
 40
8.0
 40
8.0
 40
8.0
 40
9.0
 40
9.0
 40
9.0
 40
10.0
 40
10.0
 40
10.0
 40
11.0
 40
11.0
 40
11.0
 40
12.0
 40
12.0
 40
12.0
 40
13.0
 40
13.0
 40
13.0
 40
14.0
 40
14.0
 40
14.0
 40
15.0
 40
15.0
 40
15.0
 40
16.0
 40
16.0
 40
16.0
 40
17.0
 40
17.0
 40
17.0
 40
18.0
 40
18.0
 40
18.0
 40
19.0
 40
19.0
 40
19.0
 40
20.0
 40
20.0
 40
20.0
 40
21.0
 40
21.0
 40
21.0
 40
22.0
 40
22.0
 40
22.0
 40
23.0
 40
23.0
 40
23.0
 40
24.0
 40
24.0
 40
24.0
 40
25.0
 40
25.0
 40
25.0
 40
26.0
 40
26.0
 40
26.0
 40
27.0
 40
27.0
 40
27.0
 40
28.0
 40
28.0
 40
28.0
 40
29.0
 40
29.0
 40
29.0
 40
30.0
 40
30.0
 40
30.0
 40
31.0
 40
31.0
 40
31.0
 40
32.0
 40
32.0
 40
32.0
 40
33.0
 40
33.0
 40
33.0
 40
34.0
 40
34.0
 40
34.0
 40
35.0
 40
35.0
 40
35.0
 40
36.0
 40
36.0
 40
36.0
 40
37.0
 40
37.0
 40
37.0
 40
38.0
 40
38.0
 40
38.0
 40
39.0
 40
39.0
 40
39.0
 40
40.0
 40
40.0
 40
40.0
 40
41.0
 40
41.0
 40
41.0
 40
41.0
 10
79.79392359116264
 20
-114.3106797674293
 30
0.0
 10
79.79392359116264
 20
-114.3106797674293
 30
0.0
 10
79.98168129510876
 20
-114.3575330660287
 30
0.0
 10
79.98168129510876
 20
-114.3575330660287
 30
0.0
 10
79.99391138408139
 20
-114.3601168876426
 30
0.0
 10
80.00889754944222
 20
-114.3699354097756
 30
0.0
 10
80.00889754944222
 20
-114.3871608872018
 30
0.0
 10
80.00889754944222
 20
-114.4193725299889
 30
0.0
 10
79.9865044287881
 20
-114.4217840968286
 30
0.0
 10
79.95687660761494
 20
-114.4267794852822
 30
0.0
 10
79.89520939842897
 20
-114.7726670720013
 30
0.0
 10
79.83095836762907
 20
-115.1259616140136
 30
0.0
 10
79.2378851798433
 20
-115.385377304053
 30
0.0
 10
79.14159476103058
 20
-115.2322428097336
 30
0.0
 10
78.98846026671121
 20
-115.1111477034271
 30
0.0
 10
78.94643010179118
 20
-115.0791083154143
 30
0.0
 10
79.56413572229647
 20
-114.9530178206541
 30
0.0
 10
79.59376354346962
 20
-114.5280652925485
 30
0.0
 10
79.60117049876291
 20
-114.3106797674293
 30
0.0
 10
79.60117049876291
 20
-114.3106797674293
 30
0.0
 10
78.9834648782576
 20
-114.3106797674293
 30
0.0
 10
78.9834648782576
 20
-114.3106797674293
 30
0.0
 10
78.9834648782576
 20
-114.3106797674293
 30
0.0
 10
78.9834648782576
 20
-113.9746107028432
 30
0.0
 10
78.9834648782576
 20
-113.9746107028432
 30
0.0
 10
78.9834648782576
 20
-113.9746107028432
 30
0.0
 10
79.92724878644181
 20
-113.9746107028432
 30
0.0
 10
79.92724878644181
 20
-113.9746107028432
 30
0.0
 10
79.92724878644181
 20
-113.9746107028432
 30
0.0
 10
79.92724878644181
 20
-113.7324204902301
 30
0.0
 10
79.92724878644181
 20
-113.7324204902301
 30
0.0
 10
79.92724878644181
 20
-113.7324204902301
 30
0.0
 10
79.4652614818698
 20
-113.7324204902301
 30
0.0
 10
79.4652614818698
 20
-113.7324204902301
 30
0.0
 10
79.40841740636317
 20
-113.8238877753635
 30
0.0
 10
79.36139185298951
 20
-113.8807318508701
 30
0.0
 10
79.30713159909683
 20
-113.94498288167
 30
0.0
 10
79.2452921351366
 20
-113.8955457614567
 30
0.0
 10
79.07975529707035
 20
-113.8188923869099
 30
0.0
 10
78.97106253451071
 20
-113.7892645657367
 30
0.0
 10
79.09715302927086
 20
-113.6459485935503
 30
0.0
 10
79.29472925534994
 20
-113.3693074260848
 30
0.0
 10
79.34175480872359
 20
-113.1073079144315
 30
0.0
 10
79.34175480872359
 20
-113.1073079144315
 30
0.0
 10
79.71485864977615
 20
-113.2234076322844
 30
0.0
 10
79.71485864977615
 20
-113.2234076322844
 30
0.0
 10
79.72467717190911
 20
-113.2259914538984
 30
0.0
 10
79.74190264933536
 20
-113.2358099760313
 30
0.0
 10
79.74190264933536
 20
-113.2532077082318
 30
0.0
 10
79.74190264933536
 20
-113.2852470962447
 30
0.0
 10
79.72708873874879
 20
-113.2876586630843
 30
0.0
 10
79.67765161853545
 20
-113.2976494399916
 30
0.0
 10
79.66283770794888
 20
-113.3396796049116
 30
0.0
 10
79.65543075265559
 20
-113.3643120376312
 30
0.0
 10
79.64061684206902
 20
-113.3989352472579
 30
0.0
 10
79.64061684206902
 20
-113.3989352472579
 30
0.0
 10
79.92724878644181
 20
-113.3989352472579
 30
0.0
 10
79.92724878644181
 20
-113.3989352472579
 30
0.0
 10
79.92724878644181
 20
-113.3989352472579
 30
0.0
 10
79.92724878644181
 20
-113.0876708701656
 30
0.0
 10
79.92724878644181
 20
-113.0876708701656
 30
0.0
 10
79.92724878644181
 20
-113.0876708701656
 30
0.0
 10
80.32756888182783
 20
-113.1172986913387
 30
0.0
 10
80.32756888182783
 20
-113.1172986913387
 30
0.0
 10
80.33997122557473
 20
-113.1172986913387
 30
0.0
 10
80.36460365829427
 20
-113.1221218250181
 30
0.0
 10
80.36460365829427
 20
-113.1493380793516
 30
0.0
 10
80.36460365829427
 20
-113.1741427668454
 30
0.0
 10
80.35220131454737
 20
-113.1815497221386
 30
0.0
 10
80.31516653808093
 20
-113.2037705880185
 30
0.0
 10
80.31516653808093
 20
-113.2037705880185
 30
0.0
 10
80.31516653808093
 20
-113.3989352472579
 30
0.0
 10
80.31516653808093
 20
-113.3989352472579
 30
0.0
 10
80.31516653808093
 20
-113.3989352472579
 30
0.0
 10
81.02916257739896
 20
-113.3989352472579
 30
0.0
 10
81.02916257739896
 20
-113.3989352472579
 30
0.0
 10
81.02916257739896
 20
-113.3989352472579
 30
0.0
 10
81.02916257739896
 20
-113.7324204902301
 30
0.0
 10
81.02916257739896
 20
-113.7324204902301
 30
0.0
 10
81.02916257739896
 20
-113.7324204902301
 30
0.0
 10
80.31516653808093
 20
-113.7324204902301
 30
0.0
 10
80.31516653808093
 20
-113.7324204902301
 30
0.0
 10
80.31516653808093
 20
-113.7324204902301
 30
0.0
 10
80.31516653808093
 20
-113.9746107028432
 30
0.0
 10
80.31516653808093
 20
-113.9746107028432
 30
0.0
 10
80.31516653808093
 20
-113.9746107028432
 30
0.0
 10
81.20227862553277
 20
-113.9746107028432
 30
0.0
 10
81.20227862553277
 20
-113.9746107028432
 30
0.0
 10
81.20227862553277
 20
-113.9746107028432
 30
0.0
 10
81.20227862553277
 20
-114.3106797674293
 30
0.0
 10
81.20227862553277
 20
-114.3106797674293
 30
0.0
 10
81.20227862553277
 20
-114.3106797674293
 30
0.0
 10
80.557356750694
 20
-114.3106797674293
 30
0.0
 10
80.557356750694
 20
-114.3106797674293
 30
0.0
 10
80.557356750694
 20
-114.3106797674293
 30
0.0
 10
80.557356750694
 20
-114.9357923432279
 30
0.0
 10
80.557356750694
 20
-114.9357923432279
 30
0.0
 10
80.557356750694
 20
-114.9876410302809
 30
0.0
 10
80.56476370598729
 20
-115.0148572846144
 30
0.0
 10
80.6290147367872
 20
-115.0148572846144
 30
0.0
 10
80.6290147367872
 20
-115.0148572846144
 30
0.0
 10
80.83399791815955
 20
-115.0148572846144
 30
0.0
 10
80.83399791815955
 20
-115.0148572846144
 30
0.0
 10
80.9082397258667
 20
-115.0148572846144
 30
0.0
 10
80.94027911387951
 20
-114.9530178206541
 30
0.0
 10
80.96990693505266
 20
-114.7356322955348
 30
0.0
 10
81.1034043851061
 20
-114.8270995806682
 30
0.0
 10
81.17506237119929
 20
-114.8641343571347
 30
0.0
 10
81.30597599963879
 20
-114.8937621783078
 30
0.0
 10
81.20968558082606
 20
-115.2890868852402
 30
0.0
 10
81.13802759473286
 20
-115.3385240054536
 30
0.0
 10
80.93046059174655
 20
-115.3385240054536
 30
0.0
 10
80.93046059174655
 20
-115.3385240054536
 30
0.0
 10
80.50550806364099
 20
-115.3385240054536
 30
0.0
 10
80.50550806364099
 20
-115.3385240054536
 30
0.0
 10
80.19906682022801
 20
-115.3385240054536
 30
0.0
 10
80.17925752118782
 20
-115.1333685693069
 30
0.0
 10
80.17925752118782
 20
-115.017268851454
 30
0.0
 10
80.17925752118782
 20
-115.017268851454
 30
0.0
 10
80.17925752118782
 20
-114.3106797674293
 30
0.0
 10
80.17925752118782
 20
-114.3106797674293
 30
0.0
 10
80.17925752118782
 20
-114.3106797674293
 30
0.0
 10
79.79392359116264
 20
-114.3106797674293
 30
0.0
 10
79.79392359116264
 20
-114.3106797674293
 30
0.0
  0
HATCH
  5
46
330
41
100
AcDbEntity
  8
_U+30EC_U+30A4_U+30E4_U+30FC 1
 62
   179
420
  2234388
100
AcDbHatch
 10
0.0
 20
0.0
 30
0.0
210
0.0
220
0.0
230
1.0
  2
SOLID
 70
     1
 71
     0
 91
        1
 92
        1
 93
        1
 72
     4
 94
        3
 73
     0
 74
     1
 95
      128
 96
      124
 40
0.0
 40
0.0
 40
0.0
 40
0.0
 40
1.0
 40
1.0
 40
1.0
 40
2.0
 40
2.0
 40
2.0
 40
3.0
 40
3.0
 40
3.0
 40
4.0
 40
4.0
 40
4.0
 40
5.0
 40
5.0
 40
5.0
 40
6.0
 40
6.0
 40
6.0
 40
7.0
 40
7.0
 40
7.0
 40
8.0
 40
8.0
 40
8.0
 40
9.0
 40
9.0
 40
9.0
 40
10.0
 40
10.0
 40
10.0
 40
11.0
 40
11.0
 40
11.0
 40
12.0
 40
12.0
 40
12.0
 40
13.0
 40
13.0
 40
13.0
 40
14.0
 40
14.0
 40
14.0
 40
15.0
 40
15.0
 40
15.0
 40
16.0
 40
16.0
 40
16.0
 40
17.0
 40
17.0
 40
17.0
 40
18.0
 40
18.0
 40
18.0
 40
19.0
 40
19.0
 40
19.0
 40
20.0
 40
20.0
 40
20.0
 40
21.0
 40
21.0
 40
21.0
 40
22.0
 40
22.0
 40
22.0
 40
23.0
 40
23.0
 40
23.0
 40
24.0
 40
24.0
 40
24.0
 40
25.0
 40
25.0
 40
25.0
 40
26.0
 40
26.0
 40
26.0
 40
27.0
 40
27.0
 40
27.0
 40
28.0
 40
28.0
 40
28.0
 40
29.0
 40
29.0
 40
29.0
 40
30.0
 40
30.0
 40
30.0
 40
31.0
 40
31.0
 40
31.0
 40
32.0
 40
32.0
 40
32.0
 40
33.0
 40
33.0
 40
33.0
 40
34.0
 40
34.0
 40
34.0
 40
35.0
 40
35.0
 40
35.0
 40
36.0
 40
36.0
 40
36.0
 40
37.0
 40
37.0
 40
37.0
 40
38.0
 40
38.0
 40
38.0
 40
39.0
 40
39.0
 40
39.0
 40
40.0
 40
40.0
 40
40.0
 40
41.0
 40
41.0
 40
41.0
 40
41.0
 10
79.79392359116264
 20
-114.3106797674293
 10
79.79392359116264
 20
-114.3106797674293
 10
79.98168129510876
 20
-114.3575330660287
 10
79.98168129510876
 20
-114.3575330660287
 10
79.99391138408139
 20
-114.3601168876426
 10
80.00889754944222
 20
-114.3699354097756
 10
80.00889754944222
 20
-114.3871608872018
 10
80.00889754944222
 20
-114.4193725299889
 10
79.9865044287881
 20
-114.4217840968286
 10
79.95687660761494
 20
-114.4267794852822
 10
79.89520939842897
 20
-114.7726670720013
 10
79.83095836762907
 20
-115.1259616140136
 10
79.2378851798433
 20
-115.385377304053
 10
79.14159476103058
 20
-115.2322428097336
 10
78.98846026671121
 20
-115.1111477034271
 10
78.94643010179118
 20
-115.0791083154143
 10
79.56413572229647
 20
-114.9530178206541
 10
79.59376354346962
 20
-114.5280652925485
 10
79.60117049876291
 20
-114.3106797674293
 10
79.60117049876291
 20
-114.3106797674293
 10
78.9834648782576
 20
-114.3106797674293
 10
78.9834648782576
 20
-114.3106797674293
 10
78.9834648782576
 20
-114.3106797674293
 10
78.9834648782576
 20
-113.9746107028432
 10
78.9834648782576
 20
-113.9746107028432
 10
78.9834648782576
 20
-113.9746107028432
 10
79.92724878644181
 20
-113.9746107028432
 10
79.92724878644181
 20
-113.9746107028432
 10
79.92724878644181
 20
-113.9746107028432
 10
79.92724878644181
 20
-113.7324204902301
 10
79.92724878644181
 20
-113.7324204902301
 10
79.92724878644181
 20
-113.7324204902301
 10
79.4652614818698
 20
-113.7324204902301
 10
79.4652614818698
 20
-113.7324204902301
 10
79.40841740636317
 20
-113.8238877753635
 10
79.36139185298951
 20
-113.8807318508701
 10
79.30713159909683
 20
-113.94498288167
 10
79.2452921351366
 20
-113.8955457614567
 10
79.07975529707035
 20
-113.8188923869099
 10
78.97106253451071
 20
-113.7892645657367
 10
79.09715302927086
 20
-113.6459485935503
 10
79.29472925534994
 20
-113.3693074260848
 10
79.34175480872359
 20
-113.1073079144315
 10
79.34175480872359
 20
-113.1073079144315
 10
79.71485864977615
 20
-113.2234076322844
 10
79.71485864977615
 20
-113.2234076322844
 10
79.72467717190911
 20
-113.2259914538984
 10
79.74190264933536
 20
-113.2358099760313
 10
79.74190264933536
 20
-113.2532077082318
 10
79.74190264933536
 20
-113.2852470962447
 10
79.72708873874879
 20
-113.2876586630843
 10
79.67765161853545
 20
-113.2976494399916
 10
79.66283770794888
 20
-113.3396796049116
 10
79.65543075265559
 20
-113.3643120376312
 10
79.64061684206902
 20
-113.3989352472579
 10
79.64061684206902
 20
-113.3989352472579
 10
79.92724878644181
 20
-113.3989352472579
 10
79.92724878644181
 20
-113.3989352472579
 10
79.92724878644181
 20
-113.3989352472579
 10
79.92724878644181
 20
-113.0876708701656
 10
79.92724878644181
 20
-113.0876708701656
 10
79.92724878644181
 20
-113.0876708701656
 10
80.32756888182783
 20
-113.1172986913387
 10
80.32756888182783
 20
-113.1172986913387
 10
80.33997122557473
 20
-113.1172986913387
 10
80.36460365829427
 20
-113.1221218250181
 10
80.36460365829427
 20
-113.1493380793516
 10
80.36460365829427
 20
-113.1741427668454
 10
80.35220131454737
 20
-113.1815497221386
 10
80.31516653808093
 20
-113.2037705880185
 10
80.31516653808093
 20
-113.2037705880185
 10
80.31516653808093
 20
-113.3989352472579
 10
80.31516653808093
 20
-113.3989352472579
 10
80.31516653808093
 20
-113.3989352472579
 10
81.02916257739896
 20
-113.3989352472579
 10
81.02916257739896
 20
-113.3989352472579
 10
81.02916257739896
 20
-113.3989352472579
 10
81.02916257739896
 20
-113.7324204902301
 10
81.02916257739896
 20
-113.7324204902301
 10
81.02916257739896
 20
-113.7324204902301
 10
80.31516653808093
 20
-113.7324204902301
 10
80.31516653808093
 20
-113.7324204902301
 10
80.31516653808093
 20
-113.7324204902301
 10
80.31516653808093
 20
-113.9746107028432
 10
80.31516653808093
 20
-113.9746107028432
 10
80.31516653808093
 20
-113.9746107028432
 10
81.20227862553277
 20
-113.9746107028432
 10
81.20227862553277
 20
-113.9746107028432
 10
81.20227862553277
 20
-113.9746107028432
 10
81.20227862553277
 20
-114.3106797674293
 10
81.20227862553277
 20
-114.3106797674293
 10
81.20227862553277
 20
-114.3106797674293
 10
80.557356750694
 20
-114.3106797674293
 10
80.557356750694
 20
-114.3106797674293
 10
80.557356750694
 20
-114.3106797674293
 10
80.557356750694
 20
-114.9357923432279
 10
80.557356750694
 20
-114.9357923432279
 10
80.557356750694
 20
-114.9876410302809
 10
80.56476370598729
 20
-115.0148572846144
 10
80.6290147367872
 20
-115.0148572846144
 10
80.6290147367872
 20
-115.0148572846144
 10
80.83399791815955
 20
-115.0148572846144
 10
80.83399791815955
 20
-115.0148572846144
 10
80.9082397258667
 20
-115.0148572846144
 10
80.94027911387951
 20
-114.9530178206541
 10
80.96990693505266
 20
-114.7356322955348
 10
81.1034043851061
 20
-114.8270995806682
 10
81.17506237119929
 20
-114.8641343571347
 10
81.30597599963879
 20
-114.8937621783078
 10
81.20968558082606
 20
-115.2890868852402
 10
81.13802759473286
 20
-115.3385240054536
 10
80.93046059174655
 20
-115.3385240054536
 10
80.93046059174655
 20
-115.3385240054536
 10
80.50550806364099
 20
-115.3385240054536
 10
80.50550806364099
 20
-115.3385240054536
 10
80.19906682022801
 20
-115.3385240054536
 10
80.17925752118782
 20
-115.1333685693069
 10
80.17925752118782
 20
-115.017268851454
 10
80.17925752118782
 20
-115.017268851454
 10
80.17925752118782
 20
-114.3106797674293
 10
80.17925752118782
 20
-114.3106797674293
 10
80.17925752118782
 20
-114.3106797674293
 10
79.79392359116264
 20
-114.3106797674293
 10
79.79392359116264
 20
-114.3106797674293
 97
        0
 97
        0
 75
     2
 76
     1
 98
        0
  0
SPLINE
  5
47
330
41
100
AcDbEntity
  8
_U+30EC_U+30A4_U+30E4_U+30FC 1
370
     0
100
AcDbSpline
210
0.0
220
0.0
230
1.0
 70
    11
 71
     3
 72
    41
 73
    37
 74
     0
 42
0.0000000001
 43
0.0000000001
 12
1.0
 22
0.0
 32
0.0
 13
1.0
 23
0.0
 33
0.0
 40
0.0
 40
0.0
 40
0.0
 40
0.0
 40
1.0
 40
1.0
 40
1.0
 40
2.0
 40
2.0
 40
2.0
 40
3.0
 40
3.0
 40
3.0
 40
4.0
 40
4.0
 40
4.0
 40
5.0
 40
5.0
 40
5.0
 40
6.0
 40
6.0
 40
6.0
 40
7.0
 40
7.0
 40
7.0
 40
8.0
 40
8.0
 40
8.0
 40
9.0
 40
9.0
 40
9.0
 40
10.0
 40
10.0
 40
10.0
 40
11.0
 40
11.0
 40
11.0
 40
12.0
 40
12.0
 40
12.0
 40
12.0
 10
82.09524737530953
 20
-115.3705633934664
 30
0.0
 10
82.09524737530953
 20
-115.3705633934664
 30
0.0
 10
81.70974119051007
 20
-115.3705633934664
 30
0.0
 10
81.70974119051007
 20
-115.3705633934664
 30
0.0
 10
81.70974119051007
 20
-115.3705633934664
 30
0.0
 10
81.70974119051007
 20
-114.2266194375892
 30
0.0
 10
81.70974119051007
 20
-114.2266194375892
 30
0.0
 10
81.67770180249724
 20
-114.2686496025092
 30
0.0
 10
81.6480739813241
 20
-114.3006889905221
 30
0.0
 10
81.6232692938303
 20
-114.3229098564019
 30
0.0
 10
81.57142060677728
 20
-114.2438449150154
 30
0.0
 10
81.46272784421765
 20
-114.1377359740697
 30
0.0
 10
81.35145126004409
 20
-114.0634941663626
 30
0.0
 10
81.77898760976359
 20
-113.6485324151643
 30
0.0
 10
81.9148966266567
 20
-113.0974893922986
 30
0.0
 10
81.92712671562933
 20
-113.0504638389249
 30
0.0
 10
81.92712671562933
 20
-113.0504638389249
 30
0.0
 10
82.2657796018294
 20
-113.1741427668454
 30
0.0
 10
82.2657796018294
 20
-113.1741427668454
 30
0.0
 10
82.29041203454892
 20
-113.1839612889783
 30
0.0
 10
82.3126329004288
 20
-113.1913682442716
 30
0.0
 10
82.3126329004288
 20
-113.2111775433118
 30
0.0
 10
82.3126329004288
 20
-113.2358099760313
 30
0.0
 10
82.28059351241596
 20
-113.2432169313246
 30
0.0
 10
82.24838186962889
 20
-113.2482123197782
 30
0.0
 10
82.15209145081614
 20
-113.4755886218047
 30
0.0
 10
82.14468449552287
 20
-113.492814099231
 30
0.0
 10
82.07302650942967
 20
-113.641125459871
 30
0.0
 10
82.11247285273578
 20
-113.6509439820039
 30
0.0
 10
82.14709606236254
 20
-113.6607625041369
 30
0.0
 10
82.14709606236254
 20
-113.6879787584704
 30
0.0
 10
82.14709606236254
 20
-113.7151950128038
 30
0.0
 10
82.12487519648268
 20
-113.7275973565507
 30
0.0
 10
82.09524737530953
 20
-113.7374158786837
 30
0.0
 10
82.09524737530953
 20
-113.7374158786837
 30
0.0
 10
82.09524737530953
 20
-115.3705633934664
 30
0.0
 10
82.09524737530953
 20
-115.3705633934664
 30
0.0
  0
SPLINE
  5
48
330
41
100
AcDbEntity
  8
_U+30EC_U+30A4_U+30E4_U+30FC 1
370
     0
100
AcDbSpline
210
0.0
220
0.0
230
1.0
 70
    11
 71
     3
 72
    56
 73
    52
 74
     0
 42
0.0000000001
 43
0.0000000001
 12
1.0
 22
0.0
 32
0.0
 13
1.0
 23
0.0
 33
0.0
 40
0.0
 40
0.0
 40
0.0
 40
0.0
 40
1.0
 40
1.0
 40
1.0
 40
2.0
 40
2.0
 40
2.0
 40
3.0
 40
3.0
 40
3.0
 40
4.0
 40
4.0
 40
4.0
 40
5.0
 40
5.0
 40
5.0
 40
6.0
 40
6.0
 40
6.0
 40
7.0
 40
7.0
 40
7.0
 40
8.0
 40
8.0
 40
8.0
 40
9.0
 40
9.0
 40
9.0
 40
10.0
 40
10.0
 40
10.0
 40
11.0
 40
11.0
 40
11.0
 40
12.0
 40
12.0
 40
12.0
 40
13.0
 40
13.0
 40
13.0
 40
14.0
 40
14.0
 40
14.0
 40
15.0
 40
15.0
 40
15.0
 40
16.0
 40
16.0
 40
16.0
 40
17.0
 40
17.0
 40
17.0
 40
17.0
 10
83.70376245737268
 20
-113.6311346829637
 30
0.0
 10
83.70376245737268
 20
-113.6311346829637
 30
0.0
 10
83.70376245737268
 20
-113.9894246134297
 30
0.0
 10
83.70376245737268
 20
-113.9894246134297
 30
0.0
 10
83.70376245737268
 20
-113.9894246134297
 30
0.0
 10
83.47139076689257
 20
-113.9894246134297
 30
0.0
 10
83.47139076689257
 20
-113.9894246134297
 30
0.0
 10
83.47139076689257
 20
-113.9894246134297
 30
0.0
 10
83.47139076689257
 20
-115.0148572846144
 30
0.0
 10
83.47139076689257
 20
-115.0148572846144
 30
0.0
 10
83.47139076689257
 20
-115.2989054073732
 30
0.0
 10
83.42453746829318
 20
-115.3631564381731
 30
0.0
 10
82.90811765505423
 20
-115.3681518266267
 30
0.0
 10
82.89089217762798
 20
-115.2396497650269
 30
0.0
 10
82.8388712358007
 20
-115.0939222260008
 30
0.0
 10
82.74499238382765
 20
-114.9678317312407
 30
0.0
 10
82.79942489249459
 20
-114.9802340749876
 30
0.0
 10
82.89330374446764
 20
-115.0000433740278
 30
0.0
 10
82.96737329740053
 20
-115.0000433740278
 30
0.0
 10
83.08347301525345
 20
-115.0000433740278
 30
0.0
 10
83.08846840370705
 20
-114.9678317312407
 30
0.0
 10
83.08846840370705
 20
-114.8837714014006
 30
0.0
 10
83.08846840370705
 20
-114.8837714014006
 30
0.0
 10
83.08846840370705
 20
-113.9894246134297
 30
0.0
 10
83.08846840370705
 20
-113.9894246134297
 30
0.0
 10
83.08846840370705
 20
-113.9894246134297
 30
0.0
 10
82.18413083882898
 20
-113.9894246134297
 30
0.0
 10
82.18413083882898
 20
-113.9894246134297
 30
0.0
 10
82.18413083882898
 20
-113.9894246134297
 30
0.0
 10
82.18413083882898
 20
-113.6311346829637
 30
0.0
 10
82.18413083882898
 20
-113.6311346829637
 30
0.0
 10
82.18413083882898
 20
-113.6311346829637
 30
0.0
 10
83.08846840370705
 20
-113.6311346829637
 30
0.0
 10
83.08846840370705
 20
-113.6311346829637
 30
0.0
 10
83.08846840370705
 20
-113.6311346829637
 30
0.0
 10
83.08846840370705
 20
-113.0776800932584
 30
0.0
 10
83.08846840370705
 20
-113.0776800932584
 30
0.0
 10
83.08846840370705
 20
-113.0776800932584
 30
0.0
 10
83.47139076689257
 20
-113.0924940038449
 30
0.0
 10
83.47139076689257
 20
-113.0924940038449
 30
0.0
 10
83.50101858806572
 20
-113.0924940038449
 30
0.0
 10
83.53822561930642
 20
-113.0950778254589
 30
0.0
 10
83.53822561930642
 20
-113.124705646632
 30
0.0
 10
83.53822561930642
 20
-113.1469265125119
 30
0.0
 10
83.50842554335901
 20
-113.1617404230985
 30
0.0
 10
83.47139076689257
 20
-113.176554333685
 30
0.0
 10
83.47139076689257
 20
-113.176554333685
 30
0.0
 10
83.47139076689257
 20
-113.6311346829637
 30
0.0
 10
83.47139076689257
 20
-113.6311346829637
 30
0.0
 10
83.47139076689257
 20
-113.6311346829637
 30
0.0
 10
83.70376245737268
 20
-113.6311346829637
 30
0.0
 10
83.70376245737268
 20
-113.6311346829637
 30
0.0
  0
SPLINE
  5
49
330
41
100
AcDbEntity
  8
_U+30EC_U+30A4_U+30E4_U+30FC 1
370
     0
100
AcDbSpline
210
0.0
220
0.0
230
1.0
 70
    11
 71
     3
 72
    17
 73
    13
 74
     0
 42
0.0000000001
 43
0.0000000001
 12
1.0
 22
0.0
 32
0.0
 13
1.0
 23
0.0
 33
0.0
 40
0.0
 40
0.0
 40
0.0
 40
0.0
 40
1.0
 40
1.0
 40
1.0
 40
2.0
 40
2.0
 40
2.0
 40
3.0
 40
3.0
 40
3.0
 40
4.0
 40
4.0
 40
4.0
 40
4.0
 10
82.59426945634796
 20
-114.1203382418692
 30
0.0
 10
82.77220863816112
 20
-114.3329006333091
 30
0.0
 10
82.87848983388108
 20
-114.5182467704156
 30
0.0
 10
82.9353339093877
 20
-114.6787882200282
 30
0.0
 10
82.89829913292127
 20
-114.6960136974545
 30
0.0
 10
82.73017847324107
 20
-114.775078638841
 30
0.0
 10
82.59426945634796
 20
-114.8615505355207
 30
0.0
 10
82.53501381400167
 20
-114.6985975190684
 30
0.0
 10
82.36207002064212
 20
-114.4019747977884
 30
0.0
 10
82.25578882492216
 20
-114.2884589015494
 30
0.0
 10
82.25578882492216
 20
-114.2884589015494
 30
0.0
 10
82.59426945634796
 20
-114.1203382418692
 30
0.0
 10
82.59426945634796
 20
-114.1203382418692
 30
0.0
  0
HATCH
  5
4A
330
41
100
AcDbEntity
  8
_U+30EC_U+30A4_U+30E4_U+30FC 1
 62
   179
420
  2234388
100
AcDbHatch
 10
0.0
 20
0.0
 30
0.0
210
0.0
220
0.0
230
1.0
  2
SOLID
 70
     1
 71
     0
 91
        3
 92
        1
 93
        1
 72
     4
 94
        3
 73
     0
 74
     1
 95
       41
 96
       37
 40
0.0
 40
0.0
 40
0.0
 40
0.0
 40
1.0
 40
1.0
 40
1.0
 40
2.0
 40
2.0
 40
2.0
 40
3.0
 40
3.0
 40
3.0
 40
4.0
 40
4.0
 40
4.0
 40
5.0
 40
5.0
 40
5.0
 40
6.0
 40
6.0
 40
6.0
 40
7.0
 40
7.0
 40
7.0
 40
8.0
 40
8.0
 40
8.0
 40
9.0
 40
9.0
 40
9.0
 40
10.0
 40
10.0
 40
10.0
 40
11.0
 40
11.0
 40
11.0
 40
12.0
 40
12.0
 40
12.0
 40
12.0
 10
82.09524737530953
 20
-115.3705633934664
 10
82.09524737530953
 20
-115.3705633934664
 10
81.70974119051007
 20
-115.3705633934664
 10
81.70974119051007
 20
-115.3705633934664
 10
81.70974119051007
 20
-115.3705633934664
 10
81.70974119051007
 20
-114.2266194375892
 10
81.70974119051007
 20
-114.2266194375892
 10
81.67770180249724
 20
-114.2686496025092
 10
81.6480739813241
 20
-114.3006889905221
 10
81.6232692938303
 20
-114.3229098564019
 10
81.57142060677728
 20
-114.2438449150154
 10
81.46272784421765
 20
-114.1377359740697
 10
81.35145126004409
 20
-114.0634941663626
 10
81.77898760976359
 20
-113.6485324151643
 10
81.9148966266567
 20
-113.0974893922986
 10
81.92712671562933
 20
-113.0504638389249
 10
81.92712671562933
 20
-113.0504638389249
 10
82.2657796018294
 20
-113.1741427668454
 10
82.2657796018294
 20
-113.1741427668454
 10
82.29041203454892
 20
-113.1839612889783
 10
82.3126329004288
 20
-113.1913682442716
 10
82.3126329004288
 20
-113.2111775433118
 10
82.3126329004288
 20
-113.2358099760313
 10
82.28059351241596
 20
-113.2432169313246
 10
82.24838186962889
 20
-113.2482123197782
 10
82.15209145081614
 20
-113.4755886218047
 10
82.14468449552287
 20
-113.492814099231
 10
82.07302650942967
 20
-113.641125459871
 10
82.11247285273578
 20
-113.6509439820039
 10
82.14709606236254
 20
-113.6607625041369
 10
82.14709606236254
 20
-113.6879787584704
 10
82.14709606236254
 20
-113.7151950128038
 10
82.12487519648268
 20
-113.7275973565507
 10
82.09524737530953
 20
-113.7374158786837
 10
82.09524737530953
 20
-113.7374158786837
 10
82.09524737530953
 20
-115.3705633934664
 10
82.09524737530953
 20
-115.3705633934664
 97
        0
 97
        0
 92
        1
 93
        1
 72
     4
 94
        3
 73
     0
 74
     1
 95
       56
 96
       52
 40
0.0
 40
0.0
 40
0.0
 40
0.0
 40
1.0
 40
1.0
 40
1.0
 40
2.0
 40
2.0
 40
2.0
 40
3.0
 40
3.0
 40
3.0
 40
4.0
 40
4.0
 40
4.0
 40
5.0
 40
5.0
 40
5.0
 40
6.0
 40
6.0
 40
6.0
 40
7.0
 40
7.0
 40
7.0
 40
8.0
 40
8.0
 40
8.0
 40
9.0
 40
9.0
 40
9.0
 40
10.0
 40
10.0
 40
10.0
 40
11.0
 40
11.0
 40
11.0
 40
12.0
 40
12.0
 40
12.0
 40
13.0
 40
13.0
 40
13.0
 40
14.0
 40
14.0
 40
14.0
 40
15.0
 40
15.0
 40
15.0
 40
16.0
 40
16.0
 40
16.0
 40
17.0
 40
17.0
 40
17.0
 40
17.0
 10
83.70376245737268
 20
-113.6311346829637
 10
83.70376245737268
 20
-113.6311346829637
 10
83.70376245737268
 20
-113.9894246134297
 10
83.70376245737268
 20
-113.9894246134297
 10
83.70376245737268
 20
-113.9894246134297
 10
83.47139076689257
 20
-113.9894246134297
 10
83.47139076689257
 20
-113.9894246134297
 10
83.47139076689257
 20
-113.9894246134297
 10
83.47139076689257
 20
-115.0148572846144
 10
83.47139076689257
 20
-115.0148572846144
 10
83.47139076689257
 20
-115.2989054073732
 10
83.42453746829318
 20
-115.3631564381731
 10
82.90811765505423
 20
-115.3681518266267
 10
82.89089217762798
 20
-115.2396497650269
 10
82.8388712358007
 20
-115.0939222260008
 10
82.74499238382765
 20
-114.9678317312407
 10
82.79942489249459
 20
-114.9802340749876
 10
82.89330374446764
 20
-115.0000433740278
 10
82.96737329740053
 20
-115.0000433740278
 10
83.08347301525345
 20
-115.0000433740278
 10
83.08846840370705
 20
-114.9678317312407
 10
83.08846840370705
 20
-114.8837714014006
 10
83.08846840370705
 20
-114.8837714014006
 10
83.08846840370705
 20
-113.9894246134297
 10
83.08846840370705
 20
-113.9894246134297
 10
83.08846840370705
 20
-113.9894246134297
 10
82.18413083882898
 20
-113.9894246134297
 10
82.18413083882898
 20
-113.9894246134297
 10
82.18413083882898
 20
-113.9894246134297
 10
82.18413083882898
 20
-113.6311346829637
 10
82.18413083882898
 20
-113.6311346829637
 10
82.18413083882898
 20
-113.6311346829637
 10
83.08846840370705
 20
-113.6311346829637
 10
83.08846840370705
 20
-113.6311346829637
 10
83.08846840370705
 20
-113.6311346829637
 10
83.08846840370705
 20
-113.0776800932584
 10
83.08846840370705
 20
-113.0776800932584
 10
83.08846840370705
 20
-113.0776800932584
 10
83.47139076689257
 20
-113.0924940038449
 10
83.47139076689257
 20
-113.0924940038449
 10
83.50101858806572
 20
-113.0924940038449
 10
83.53822561930642
 20
-113.0950778254589
 10
83.53822561930642
 20
-113.124705646632
 10
83.53822561930642
 20
-113.1469265125119
 10
83.50842554335901
 20
-113.1617404230985
 10
83.47139076689257
 20
-113.176554333685
 10
83.47139076689257
 20
-113.176554333685
 10
83.47139076689257
 20
-113.6311346829637
 10
83.47139076689257
 20
-113.6311346829637
 10
83.47139076689257
 20
-113.6311346829637
 10
83.70376245737268
 20
-113.6311346829637
 10
83.70376245737268
 20
-113.6311346829637
 97
        0
 97
        0
 92
        1
 93
        1
 72
     4
 94
        3
 73
     0
 74
     1
 95
       17
 96
       13
 40
0.0
 40
0.0
 40
0.0
 40
0.0
 40
1.0
 40
1.0
 40
1.0
 40
2.0
 40
2.0
 40
2.0
 40
3.0
 40
3.0
 40
3.0
 40
4.0
 40
4.0
 40
4.0
 40
4.0
 10
82.59426945634796
 20
-114.1203382418692
 10
82.77220863816112
 20
-114.3329006333091
 10
82.87848983388108
 20
-114.5182467704156
 10
82.9353339093877
 20
-114.6787882200282
 10
82.89829913292127
 20
-114.6960136974545
 10
82.73017847324107
 20
-114.775078638841
 10
82.59426945634796
 20
-114.8615505355207
 10
82.53501381400167
 20
-114.6985975190684
 10
82.36207002064212
 20
-114.4019747977884
 10
82.25578882492216
 20
-114.2884589015494
 10
82.25578882492216
 20
-114.2884589015494
 10
82.59426945634796
 20
-114.1203382418692
 10
82.59426945634796
 20
-114.1203382418692
 97
        0
 97
        0
 75
     2
 76
     1
 98
        0
  0
SPLINE
  5
4B
330
41
100
AcDbEntity
  8
_U+30EC_U+30A4_U+30E4_U+30FC 1
370
     0
100
AcDbSpline
210
0.0
220
0.0
230
1.0
 70
    11
 71
     3
 72
    17
 73
    13
 74
     0
 42
0.0000000001
 43
0.0000000001
 12
1.0
 22
0.0
 32
0.0
 13
1.0
 23
0.0
 33
0.0
 40
0.0
 40
0.0
 40
0.0
 40
0.0
 40
1.0
 40
1.0
 40
1.0
 40
2.0
 40
2.0
 40
2.0
 40
3.0
 40
3.0
 40
3.0
 40
4.0
 40
4.0
 40
4.0
 40
4.0
 10
84.60224335992584
 20
-114.2364379597221
 30
0.0
 10
84.60224335992584
 20
-114.4019747977884
 30
0.0
 10
84.46633434303273
 20
-114.5378838146815
 30
0.0
 10
84.30079750496647
 20
-114.5378838146815
 30
0.0
 10
84.13526066690022
 20
-114.5378838146815
 30
0.0
 10
83.99935165000711
 20
-114.4019747977884
 30
0.0
 10
83.99935165000711
 20
-114.2364379597221
 30
0.0
 10
83.99935165000711
 20
-114.0684895548162
 30
0.0
 10
84.13526066690022
 20
-113.9349921047628
 30
0.0
 10
84.30079750496647
 20
-113.9349921047628
 30
0.0
 10
84.46392277619304
 20
-113.9349921047628
 30
0.0
 10
84.60224335992584
 20
-114.0684895548162
 30
0.0
 10
84.60224335992584
 20
-114.2364379597221
 30
0.0
  0
HATCH
  5
4C
330
41
100
AcDbEntity
  8
_U+30EC_U+30A4_U+30E4_U+30FC 1
 62
   179
420
  2234388
100
AcDbHatch
 10
0.0
 20
0.0
 30
0.0
210
0.0
220
0.0
230
1.0
  2
SOLID
 70
     1
 71
     0
 91
        1
 92
        1
 93
        1
 72
     4
 94
        3
 73
     0
 74
     1
 95
       17
 96
       13
 40
0.0
 40
0.0
 40
0.0
 40
0.0
 40
1.0
 40
1.0
 40
1.0
 40
2.0
 40
2.0
 40
2.0
 40
3.0
 40
3.0
 40
3.0
 40
4.0
 40
4.0
 40
4.0
 40
4.0
 10
84.60224335992584
 20
-114.2364379597221
 10
84.60224335992584
 20
-114.4019747977884
 10
84.46633434303273
 20
-114.5378838146815
 10
84.30079750496647
 20
-114.5378838146815
 10
84.13526066690022
 20
-114.5378838146815
 10
83.99935165000711
 20
-114.4019747977884
 10
83.99935165000711
 20
-114.2364379597221
 10
83.99935165000711
 20
-114.0684895548162
 10
84.13526066690022
 20
-113.9349921047628
 10
84.30079750496647
 20
-113.9349921047628
 10
84.46392277619304
 20
-113.9349921047628
 10
84.60224335992584
 20
-114.0684895548162
 10
84.60224335992584
 20
-114.2364379597221
 97
        0
 97
        0
 75
     2
 76
     1
 98
        0
  0
SPLINE
  5
4D
330
41
100
AcDbEntity
  8
_U+30EC_U+30A4_U+30E4_U+30FC 1
370
     0
100
AcDbSpline
210
0.0
220
0.0
230
1.0
 70
    11
 71
     3
 72
   179
 73
   175
 74
     0
 42
0.0000000001
 43
0.0000000001
 12
1.0
 22
0.0
 32
0.0
 13
1.0
 23
0.0
 33
0.0
 40
0.0
 40
0.0
 40
0.0
 40
0.0
 40
1.0
 40
1.0
 40
1.0
 40
2.0
 40
2.0
 40
2.0
 40
3.0
 40
3.0
 40
3.0
 40
4.0
 40
4.0
 40
4.0
 40
5.0
 40
5.0
 40
5.0
 40
6.0
 40
6.0
 40
6.0
 40
7.0
 40
7.0
 40
7.0
 40
8.0
 40
8.0
 40
8.0
 40
9.0
 40
9.0
 40
9.0
 40
10.0
 40
10.0
 40
10.0
 40
11.0
 40
11.0
 40
11.0
 40
12.0
 40
12.0
 40
12.0
 40
13.0
 40
13.0
 40
13.0
 40
14.0
 40
14.0
 40
14.0
 40
15.0
 40
15.0
 40
15.0
 40
16.0
 40
16.0
 40
16.0
 40
17.0
 40
17.0
 40
17.0
 40
18.0
 40
18.0
 40
18.0
 40
19.0
 40
19.0
 40
19.0
 40
20.0
 40
20.0
 40
20.0
 40
21.0
 40
21.0
 40
21.0
 40
22.0
 40
22.0
 40
22.0
 40
23.0
 40
23.0
 40
23.0
 40
24.0
 40
24.0
 40
24.0
 40
25.0
 40
25.0
 40
25.0
 40
26.0
 40
26.0
 40
26.0
 40
27.0
 40
27.0
 40
27.0
 40
28.0
 40
28.0
 40
28.0
 40
29.0
 40
29.0
 40
29.0
 40
30.0
 40
30.0
 40
30.0
 40
31.0
 40
31.0
 40
31.0
 40
32.0
 40
32.0
 40
32.0
 40
33.0
 40
33.0
 40
33.0
 40
34.0
 40
34.0
 40
34.0
 40
35.0
 40
35.0
 40
35.0
 40
36.0
 40
36.0
 40
36.0
 40
37.0
 40
37.0
 40
37.0
 40
38.0
 40
38.0
 40
38.0
 40
39.0
 40
39.0
 40
39.0
 40
40.0
 40
40.0
 40
40.0
 40
41.0
 40
41.0
 40
41.0
 40
42.0
 40
42.0
 40
42.0
 40
43.0
 40
43.0
 40
43.0
 40
44.0
 40
44.0
 40
44.0
 40
45.0
 40
45.0
 40
45.0
 40
46.0
 40
46.0
 40
46.0
 40
47.0
 40
47.0
 40
47.0
 40
48.0
 40
48.0
 40
48.0
 40
49.0
 40
49.0
 40
49.0
 40
50.0
 40
50.0
 40
50.0
 40
51.0
 40
51.0
 40
51.0
 40
52.0
 40
52.0
 40
52.0
 40
53.0
 40
53.0
 40
53.0
 40
54.0
 40
54.0
 40
54.0
 40
55.0
 40
55.0
 40
55.0
 40
56.0
 40
56.0
 40
56.0
 40
57.0
 40
57.0
 40
57.0
 40
58.0
 40
58.0
 40
58.0
 40
58.0
 10
85.61441241349223
 20
-113.9399874932164
 30
0.0
 10
85.64404023466538
 20
-113.9375759263767
 30
0.0
 10
86.00233016513137
 20
-113.9177666273365
 30
0.0
 10
86.02455103101123
 20
-113.9153550604969
 30
0.0
 10
86.03436955314419
 20
-113.9079481052036
 30
0.0
 10
86.04177650843748
 20
-113.9005411499103
 30
0.0
 10
86.04677189689109
 20
-113.8955457614567
 30
0.0
 10
85.92068140213094
 20
-113.75464135611
 30
0.0
 10
85.8193955948646
 20
-113.6657578925905
 30
0.0
 10
85.61441241349223
 20
-113.534844264151
 30
0.0
 10
85.61441241349223
 20
-113.534844264151
 30
0.0
 10
85.82938637177182
 20
-113.3098795289642
 30
0.0
 10
85.82938637177182
 20
-113.3098795289642
 30
0.0
 10
85.87623967037122
 20
-113.3396796049116
 30
0.0
 10
85.89604896941141
 20
-113.3519096938843
 30
0.0
 10
85.94307452278507
 20
-113.386532903511
 30
0.0
 10
85.95788843337164
 20
-113.3667236044708
 30
0.0
 10
86.05417885218438
 20
-113.2580308419112
 30
0.0
 10
86.16786700319761
 20
-113.0628661826718
 30
0.0
 10
86.16786700319761
 20
-113.0628661826718
 30
0.0
 10
86.47172442499665
 20
-113.2037705880185
 30
0.0
 10
86.47172442499665
 20
-113.2037705880185
 30
0.0
 10
86.47913138028994
 20
-113.2085937216979
 30
0.0
 10
86.49652911249045
 20
-113.2160006769911
 30
0.0
 10
86.49652911249045
 20
-113.2333984091917
 30
0.0
 10
86.49652911249045
 20
-113.2532077082318
 30
0.0
 10
86.46931285815698
 20
-113.2654377972045
 30
0.0
 10
86.42487112639726
 20
-113.2630262303648
 30
0.0
 10
86.37285018456998
 20
-113.3296888280044
 30
0.0
 10
86.28896210950415
 20
-113.4433769790176
 30
0.0
 10
86.17768552533059
 20
-113.5742906074571
 30
0.0
 10
86.21472030179702
 20
-113.6113253839236
 30
0.0
 10
86.23952498929081
 20
-113.6361300714174
 30
0.0
 10
86.26415742201036
 20
-113.6633463257508
 30
0.0
 10
86.32599688597058
 20
-113.5940999064973
 30
0.0
 10
86.54579397792953
 20
-113.3370957832977
 30
0.0
 10
86.6570705621031
 20
-113.1667358115521
 30
0.0
 10
86.6570705621031
 20
-113.1667358115521
 30
0.0
 10
86.983148849782
 20
-113.3296888280044
 30
0.0
 10
86.983148849782
 20
-113.3296888280044
 30
0.0
 10
86.9955511935289
 20
-113.334684216458
 30
0.0
 10
87.00295814882219
 20
-113.344502738591
 30
0.0
 10
87.00295814882219
 20
-113.3569050823379
 30
0.0
 10
87.00295814882219
 20
-113.3841213366713
 30
0.0
 10
86.97832571610265
 20
-113.3841213366713
 30
0.0
 10
86.92630477427537
 20
-113.3841213366713
 30
0.0
 10
86.7287285481963
 20
-113.6139092055375
 30
0.0
 10
86.64225665151652
 20
-113.7027926690569
 30
0.0
 10
86.46190590286369
 20
-113.8881388061634
 30
0.0
 10
86.57800562071661
 20
-113.8807318508701
 30
0.0
 10
86.59040796446351
 20
-113.8807318508701
 30
0.0
 10
86.68910995011592
 20
-113.8757364624165
 30
0.0
 10
86.64966360680981
 20
-113.8040784763233
 30
0.0
 10
86.6446682183562
 20
-113.7942599541903
 30
0.0
 10
86.61745196402272
 20
-113.75464135611
 30
0.0
 10
86.61745196402272
 20
-113.75464135611
 30
0.0
 10
86.89426538626255
 20
-113.6113253839236
 30
0.0
 10
86.89426538626255
 20
-113.6113253839236
 30
0.0
 10
86.99055580507529
 20
-113.7374158786837
 30
0.0
 10
87.12405325512871
 20
-113.9573852254169
 30
0.0
 10
87.19812280806158
 20
-114.145142929363
 30
0.0
 10
87.16108803159514
 20
-114.164779973629
 30
0.0
 10
87.0598022243288
 20
-114.2142170938423
 30
0.0
 10
87.03017440315566
 20
-114.2316148260428
 30
0.0
 10
87.01036510411546
 20
-114.2414333481758
 30
0.0
 10
86.9238932074357
 20
-114.2932820352288
 30
0.0
 10
86.90666773000945
 20
-114.303272812136
 30
0.0
 10
86.88926999780894
 20
-114.258658825602
 30
0.0
 10
86.88186304251565
 20
-114.2438449150154
 30
0.0
 10
86.82760278862297
 20
-114.1303290187765
 30
0.0
 10
86.74853784723648
 20
-114.1377359740697
 30
0.0
 10
86.38284096147721
 20
-114.1721869289222
 30
0.0
 10
86.3309922744242
 20
-114.1795938842155
 30
0.0
 10
86.3309922744242
 20
-114.1795938842155
 30
0.0
 10
86.39024791677049
 20
-114.1945800495764
 30
0.0
 10
86.39024791677049
 20
-114.1945800495764
 30
0.0
 10
86.40506182735707
 20
-114.196991616416
 30
0.0
 10
86.41987573794364
 20
-114.2093939601629
 30
0.0
 10
86.41987573794364
 20
-114.2266194375892
 30
0.0
 10
86.41987573794364
 20
-114.258658825602
 30
0.0
 10
86.38525252831688
 20
-114.261242647216
 30
0.0
 10
86.33581540810356
 20
-114.2662380356696
 30
0.0
 10
86.32840845281027
 20
-114.2784681246422
 30
0.0
 10
86.30859915377007
 20
-114.3056843789757
 30
0.0
 10
86.30119219847678
 20
-114.3180867227226
 30
0.0
 10
86.30119219847678
 20
-114.3180867227226
 30
0.0
 10
86.85964217663579
 20
-114.3180867227226
 30
0.0
 10
86.85964217663579
 20
-114.3180867227226
 30
0.0
 10
86.85964217663579
 20
-114.3180867227226
 30
0.0
 10
87.01536049256909
 20
-114.4836235607888
 30
0.0
 10
87.01536049256909
 20
-114.4836235607888
 30
0.0
 10
86.94370250647589
 20
-114.5799139796016
 30
0.0
 10
86.8398328775956
 20
-114.713411429655
 30
0.0
 10
86.60022648659647
 20
-114.9209784326413
 30
0.0
 10
86.78557262370292
 20
-115.0196804182937
 30
0.0
 10
86.95352102860885
 20
-115.0592990163741
 30
0.0
 10
87.16349959843483
 20
-115.0865152707075
 30
0.0
 10
87.02759058154172
 20
-115.2198404659867
 30
0.0
 10
87.01277667095515
 20
-115.2346543765733
 30
0.0
 10
86.93870711802226
 20
-115.3779703487597
 30
0.0
 10
86.61745196402272
 20
-115.2989054073732
 30
0.0
 10
86.41005721581068
 20
-115.1803941226806
 30
0.0
 10
86.32358531913091
 20
-115.1283731808533
 30
0.0
 10
86.13823918202448
 20
-115.2470567203202
 30
0.0
 10
85.95048147807836
 20
-115.3285332285463
 30
0.0
 10
85.74532604193173
 20
-115.3829657372133
 30
0.0
 10
85.69347735487872
 20
-115.2494682871599
 30
0.0
 10
85.64903562311899
 20
-115.1902126448136
 30
0.0
 10
85.54034286055936
 20
-115.0865152707075
 30
0.0
 10
85.63163789091848
 20
-115.0667059716674
 30
0.0
 10
85.82938637177182
 20
-115.0296711952009
 30
0.0
 10
86.06158580747767
 20
-114.9159830441877
 30
0.0
 10
86.01214868726433
 20
-114.8641343571347
 30
0.0
 10
85.99974634351743
 20
-114.8493204465481
 30
0.0
 10
85.94307452278507
 20
-114.7776624604549
 30
0.0
 10
85.8442002823584
 20
-114.8837714014006
 30
0.0
 10
85.8193955948646
 20
-114.9085760888944
 30
0.0
 10
85.74532604193173
 20
-114.9728271196943
 30
0.0
 10
85.65885414525195
 20
-114.8887667898542
 30
0.0
 10
85.60442163658502
 20
-114.8443250580945
 30
0.0
 10
85.49090574034602
 20
-114.7948879378811
 30
0.0
 10
85.49090574034602
 20
-114.7948879378811
 30
0.0
 10
85.49090574034602
 20
-115.3731472150803
 30
0.0
 10
85.49090574034602
 20
-115.3731472150803
 30
0.0
 10
85.49090574034602
 20
-115.3731472150803
 30
0.0
 10
85.12021346613315
 20
-115.3731472150803
 30
0.0
 10
85.12021346613315
 20
-115.3731472150803
 30
0.0
 10
85.12021346613315
 20
-115.3731472150803
 30
0.0
 10
85.12021346613315
 20
-114.4984374713754
 30
0.0
 10
85.12021346613315
 20
-114.4984374713754
 30
0.0
 10
85.10781112238625
 20
-114.513251381962
 30
0.0
 10
85.06336939062652
 20
-114.555281546882
 30
0.0
 10
85.04855548003995
 20
-114.5700954574686
 30
0.0
 10
84.98430444924004
 20
-114.4762166054955
 30
0.0
 10
84.89542098572059
 20
-114.3749307982292
 30
0.0
 10
84.78173283470734
 20
-114.3056843789757
 30
0.0
 10
85.02633461416009
 20
-114.1303290187765
 30
0.0
 10
85.23149005030672
 20
-113.9053642835896
 30
0.0
 10
85.40185002205232
 20
-113.6163207723772
 30
0.0
 10
85.40185002205232
 20
-113.6163207723772
 30
0.0
 10
85.73051213134515
 20
-113.7596367445636
 30
0.0
 10
85.73051213134515
 20
-113.7596367445636
 30
0.0
 10
85.73791908663844
 20
-113.7620483114032
 30
0.0
 10
85.7551445640647
 20
-113.7720390883105
 30
0.0
 10
85.7551445640647
 20
-113.7918483873507
 30
0.0
 10
85.7551445640647
 20
-113.8214762085238
 30
0.0
 10
85.72551674289154
 20
-113.8262993422032
 30
0.0
 10
85.68607039958543
 20
-113.8312947306568
 30
0.0
 10
85.65644257841228
 20
-113.8683295071232
 30
0.0
 10
85.53035208365213
 20
-114.0438571220967
 30
0.0
 10
85.50313582931867
 20
-114.0783080769492
 30
0.0
 10
85.52794051681246
 20
-114.0882988538564
 30
0.0
 10
85.54034286055936
 20
-114.100528942829
 30
0.0
 10
85.54034286055936
 20
-114.1105197197363
 30
0.0
 10
85.54034286055936
 20
-114.1229220634832
 30
0.0
 10
85.52794051681246
 20
-114.1401475409094
 30
0.0
 10
85.49090574034602
 20
-114.1573730183357
 30
0.0
 10
85.49090574034602
 20
-114.1573730183357
 30
0.0
 10
85.49090574034602
 20
-114.7356322955348
 30
0.0
 10
85.49090574034602
 20
-114.7356322955348
 30
0.0
 10
85.62181936878552
 20
-114.6367580551082
 30
0.0
 10
85.80716550589196
 20
-114.4712212170419
 30
0.0
 10
85.96030000021132
 20
-114.2192124822959
 30
0.0
 10
85.93566756749178
 20
-114.2216240491356
 30
0.0
 10
85.7551445640647
 20
-114.2414333481758
 30
0.0
 10
85.74532604193173
 20
-114.2414333481758
 30
0.0
 10
85.73051213134515
 20
-114.2686496025092
 30
0.0
 10
85.71810978759825
 20
-114.2858750799355
 30
0.0
 10
85.70329587701168
 20
-114.2858750799355
 30
0.0
 10
85.6834865779715
 20
-114.2858750799355
 30
0.0
 10
85.67866344429214
 20
-114.2562472587623
 30
0.0
 10
85.6760796226782
 20
-114.2414333481758
 30
0.0
 10
85.6760796226782
 20
-114.2414333481758
 30
0.0
 10
85.61441241349223
 20
-113.9399874932164
 30
0.0
 10
85.61441241349223
 20
-113.9399874932164
 30
0.0
  0
SPLINE
  5
4E
330
41
100
AcDbEntity
  8
_U+30EC_U+30A4_U+30E4_U+30FC 1
370
     0
100
AcDbSpline
210
0.0
220
0.0
230
1.0
 70
    11
 71
     3
 72
    23
 73
    19
 74
     0
 42
0.0000000001
 43
0.0000000001
 12
1.0
 22
0.0
 32
0.0
 13
1.0
 23
0.0
 33
0.0
 40
0.0
 40
0.0
 40
0.0
 40
0.0
 40
1.0
 40
1.0
 40
1.0
 40
2.0
 40
2.0
 40
2.0
 40
3.0
 40
3.0
 40
3.0
 40
4.0
 40
4.0
 40
4.0
 40
5.0
 40
5.0
 40
5.0
 40
6.0
 40
6.0
 40
6.0
 40
6.0
 10
85.63422171253242
 20
-113.2580308419112
 30
0.0
 10
85.65644257841228
 20
-113.2704331856581
 30
0.0
 10
85.66867266738493
 20
-113.2778401409514
 30
0.0
 10
85.66867266738493
 20
-113.292654051538
 30
0.0
 10
85.66867266738493
 20
-113.3198703058714
 30
0.0
 10
85.62922632407881
 20
-113.3198703058714
 30
0.0
 10
85.60442163658502
 20
-113.3198703058714
 30
0.0
 10
85.39444306675904
 20
-113.5768744290711
 30
0.0
 10
85.23390161714639
 20
-113.7472344008167
 30
0.0
 10
85.08817407812032
 20
-113.8633341186696
 30
0.0
 10
84.95467662806689
 20
-113.6953857137637
 30
0.0
 10
84.85580238764022
 20
-113.6559393704575
 30
0.0
 10
84.80636526742688
 20
-113.6361300714174
 30
0.0
 10
84.97190210549314
 20
-113.5052164429779
 30
0.0
 10
85.14984128730629
 20
-113.3470865602049
 30
0.0
 10
85.32536890227978
 20
-113.0950778254589
 30
0.0
 10
85.32536890227978
 20
-113.0950778254589
 30
0.0
 10
85.63422171253242
 20
-113.2580308419112
 30
0.0
 10
85.63422171253242
 20
-113.2580308419112
 30
0.0
  0
SPLINE
  5
4F
330
41
100
AcDbEntity
  8
_U+30EC_U+30A4_U+30E4_U+30FC 1
370
     0
100
AcDbSpline
210
0.0
220
0.0
230
1.0
 70
    11
 71
     3
 72
    14
 73
    10
 74
     0
 42
0.0000000001
 43
0.0000000001
 12
1.0
 22
0.0
 32
0.0
 13
1.0
 23
0.0
 33
0.0
 40
0.0
 40
0.0
 40
0.0
 40
0.0
 40
1.0
 40
1.0
 40
1.0
 40
2.0
 40
2.0
 40
2.0
 40
3.0
 40
3.0
 40
3.0
 40
3.0
 10
86.1826809137842
 20
-114.5824978012155
 30
0.0
 10
86.23211803399754
 20
-114.6465765772411
 30
0.0
 10
86.27156437730365
 20
-114.6886067421612
 30
0.0
 10
86.33839922971748
 20
-114.7454508176678
 30
0.0
 10
86.42487112639726
 20
-114.6763766531886
 30
0.0
 10
86.46431746970337
 20
-114.6317626666546
 30
0.0
 10
86.50875920146309
 20
-114.5824978012155
 30
0.0
 10
86.50875920146309
 20
-114.5824978012155
 30
0.0
 10
86.1826809137842
 20
-114.5824978012155
 30
0.0
 10
86.1826809137842
 20
-114.5824978012155
 30
0.0
  0
HATCH
  5
50
330
41
100
AcDbEntity
  8
_U+30EC_U+30A4_U+30E4_U+30FC 1
 62
   179
420
  2234388
100
AcDbHatch
 10
0.0
 20
0.0
 30
0.0
210
0.0
220
0.0
230
1.0
  2
SOLID
 70
     1
 71
     0
 91
        3
 92
        1
 93
        1
 72
     4
 94
        3
 73
     0
 74
     1
 95
      179
 96
      175
 40
0.0
 40
0.0
 40
0.0
 40
0.0
 40
1.0
 40
1.0
 40
1.0
 40
2.0
 40
2.0
 40
2.0
 40
3.0
 40
3.0
 40
3.0
 40
4.0
 40
4.0
 40
4.0
 40
5.0
 40
5.0
 40
5.0
 40
6.0
 40
6.0
 40
6.0
 40
7.0
 40
7.0
 40
7.0
 40
8.0
 40
8.0
 40
8.0
 40
9.0
 40
9.0
 40
9.0
 40
10.0
 40
10.0
 40
10.0
 40
11.0
 40
11.0
 40
11.0
 40
12.0
 40
12.0
 40
12.0
 40
13.0
 40
13.0
 40
13.0
 40
14.0
 40
14.0
 40
14.0
 40
15.0
 40
15.0
 40
15.0
 40
16.0
 40
16.0
 40
16.0
 40
17.0
 40
17.0
 40
17.0
 40
18.0
 40
18.0
 40
18.0
 40
19.0
 40
19.0
 40
19.0
 40
20.0
 40
20.0
 40
20.0
 40
21.0
 40
21.0
 40
21.0
 40
22.0
 40
22.0
 40
22.0
 40
23.0
 40
23.0
 40
23.0
 40
24.0
 40
24.0
 40
24.0
 40
25.0
 40
25.0
 40
25.0
 40
26.0
 40
26.0
 40
26.0
 40
27.0
 40
27.0
 40
27.0
 40
28.0
 40
28.0
 40
28.0
 40
29.0
 40
29.0
 40
29.0
 40
30.0
 40
30.0
 40
30.0
 40
31.0
 40
31.0
 40
31.0
 40
32.0
 40
32.0
 40
32.0
 40
33.0
 40
33.0
 40
33.0
 40
34.0
 40
34.0
 40
34.0
 40
35.0
 40
35.0
 40
35.0
 40
36.0
 40
36.0
 40
36.0
 40
37.0
 40
37.0
 40
37.0
 40
38.0
 40
38.0
 40
38.0
 40
39.0
 40
39.0
 40
39.0
 40
40.0
 40
40.0
 40
40.0
 40
41.0
 40
41.0
 40
41.0
 40
42.0
 40
42.0
 40
42.0
 40
43.0
 40
43.0
 40
43.0
 40
44.0
 40
44.0
 40
44.0
 40
45.0
 40
45.0
 40
45.0
 40
46.0
 40
46.0
 40
46.0
 40
47.0
 40
47.0
 40
47.0
 40
48.0
 40
48.0
 40
48.0
 40
49.0
 40
49.0
 40
49.0
 40
50.0
 40
50.0
 40
50.0
 40
51.0
 40
51.0
 40
51.0
 40
52.0
 40
52.0
 40
52.0
 40
53.0
 40
53.0
 40
53.0
 40
54.0
 40
54.0
 40
54.0
 40
55.0
 40
55.0
 40
55.0
 40
56.0
 40
56.0
 40
56.0
 40
57.0
 40
57.0
 40
57.0
 40
58.0
 40
58.0
 40
58.0
 40
58.0
 10
85.61441241349223
 20
-113.9399874932164
 10
85.64404023466538
 20
-113.9375759263767
 10
86.00233016513137
 20
-113.9177666273365
 10
86.02455103101123
 20
-113.9153550604969
 10
86.03436955314419
 20
-113.9079481052036
 10
86.04177650843748
 20
-113.9005411499103
 10
86.04677189689109
 20
-113.8955457614567
 10
85.92068140213094
 20
-113.75464135611
 10
85.8193955948646
 20
-113.6657578925905
 10
85.61441241349223
 20
-113.534844264151
 10
85.61441241349223
 20
-113.534844264151
 10
85.82938637177182
 20
-113.3098795289642
 10
85.82938637177182
 20
-113.3098795289642
 10
85.87623967037122
 20
-113.3396796049116
 10
85.89604896941141
 20
-113.3519096938843
 10
85.94307452278507
 20
-113.386532903511
 10
85.95788843337164
 20
-113.3667236044708
 10
86.05417885218438
 20
-113.2580308419112
 10
86.16786700319761
 20
-113.0628661826718
 10
86.16786700319761
 20
-113.0628661826718
 10
86.47172442499665
 20
-113.2037705880185
 10
86.47172442499665
 20
-113.2037705880185
 10
86.47913138028994
 20
-113.2085937216979
 10
86.49652911249045
 20
-113.2160006769911
 10
86.49652911249045
 20
-113.2333984091917
 10
86.49652911249045
 20
-113.2532077082318
 10
86.46931285815698
 20
-113.2654377972045
 10
86.42487112639726
 20
-113.2630262303648
 10
86.37285018456998
 20
-113.3296888280044
 10
86.28896210950415
 20
-113.4433769790176
 10
86.17768552533059
 20
-113.5742906074571
 10
86.21472030179702
 20
-113.6113253839236
 10
86.23952498929081
 20
-113.6361300714174
 10
86.26415742201036
 20
-113.6633463257508
 10
86.32599688597058
 20
-113.5940999064973
 10
86.54579397792953
 20
-113.3370957832977
 10
86.6570705621031
 20
-113.1667358115521
 10
86.6570705621031
 20
-113.1667358115521
 10
86.983148849782
 20
-113.3296888280044
 10
86.983148849782
 20
-113.3296888280044
 10
86.9955511935289
 20
-113.334684216458
 10
87.00295814882219
 20
-113.344502738591
 10
87.00295814882219
 20
-113.3569050823379
 10
87.00295814882219
 20
-113.3841213366713
 10
86.97832571610265
 20
-113.3841213366713
 10
86.92630477427537
 20
-113.3841213366713
 10
86.7287285481963
 20
-113.6139092055375
 10
86.64225665151652
 20
-113.7027926690569
 10
86.46190590286369
 20
-113.8881388061634
 10
86.57800562071661
 20
-113.8807318508701
 10
86.59040796446351
 20
-113.8807318508701
 10
86.68910995011592
 20
-113.8757364624165
 10
86.64966360680981
 20
-113.8040784763233
 10
86.6446682183562
 20
-113.7942599541903
 10
86.61745196402272
 20
-113.75464135611
 10
86.61745196402272
 20
-113.75464135611
 10
86.89426538626255
 20
-113.6113253839236
 10
86.89426538626255
 20
-113.6113253839236
 10
86.99055580507529
 20
-113.7374158786837
 10
87.12405325512871
 20
-113.9573852254169
 10
87.19812280806158
 20
-114.145142929363
 10
87.16108803159514
 20
-114.164779973629
 10
87.0598022243288
 20
-114.2142170938423
 10
87.03017440315566
 20
-114.2316148260428
 10
87.01036510411546
 20
-114.2414333481758
 10
86.9238932074357
 20
-114.2932820352288
 10
86.90666773000945
 20
-114.303272812136
 10
86.88926999780894
 20
-114.258658825602
 10
86.88186304251565
 20
-114.2438449150154
 10
86.82760278862297
 20
-114.1303290187765
 10
86.74853784723648
 20
-114.1377359740697
 10
86.38284096147721
 20
-114.1721869289222
 10
86.3309922744242
 20
-114.1795938842155
 10
86.3309922744242
 20
-114.1795938842155
 10
86.39024791677049
 20
-114.1945800495764
 10
86.39024791677049
 20
-114.1945800495764
 10
86.40506182735707
 20
-114.196991616416
 10
86.41987573794364
 20
-114.2093939601629
 10
86.41987573794364
 20
-114.2266194375892
 10
86.41987573794364
 20
-114.258658825602
 10
86.38525252831688
 20
-114.261242647216
 10
86.33581540810356
 20
-114.2662380356696
 10
86.32840845281027
 20
-114.2784681246422
 10
86.30859915377007
 20
-114.3056843789757
 10
86.30119219847678
 20
-114.3180867227226
 10
86.30119219847678
 20
-114.3180867227226
 10
86.85964217663579
 20
-114.3180867227226
 10
86.85964217663579
 20
-114.3180867227226
 10
86.85964217663579
 20
-114.3180867227226
 10
87.01536049256909
 20
-114.4836235607888
 10
87.01536049256909
 20
-114.4836235607888
 10
86.94370250647589
 20
-114.5799139796016
 10
86.8398328775956
 20
-114.713411429655
 10
86.60022648659647
 20
-114.9209784326413
 10
86.78557262370292
 20
-115.0196804182937
 10
86.95352102860885
 20
-115.0592990163741
 10
87.16349959843483
 20
-115.0865152707075
 10
87.02759058154172
 20
-115.2198404659867
 10
87.01277667095515
 20
-115.2346543765733
 10
86.93870711802226
 20
-115.3779703487597
 10
86.61745196402272
 20
-115.2989054073732
 10
86.41005721581068
 20
-115.1803941226806
 10
86.32358531913091
 20
-115.1283731808533
 10
86.13823918202448
 20
-115.2470567203202
 10
85.95048147807836
 20
-115.3285332285463
 10
85.74532604193173
 20
-115.3829657372133
 10
85.69347735487872
 20
-115.2494682871599
 10
85.64903562311899
 20
-115.1902126448136
 10
85.54034286055936
 20
-115.0865152707075
 10
85.63163789091848
 20
-115.0667059716674
 10
85.82938637177182
 20
-115.0296711952009
 10
86.06158580747767
 20
-114.9159830441877
 10
86.01214868726433
 20
-114.8641343571347
 10
85.99974634351743
 20
-114.8493204465481
 10
85.94307452278507
 20
-114.7776624604549
 10
85.8442002823584
 20
-114.8837714014006
 10
85.8193955948646
 20
-114.9085760888944
 10
85.74532604193173
 20
-114.9728271196943
 10
85.65885414525195
 20
-114.8887667898542
 10
85.60442163658502
 20
-114.8443250580945
 10
85.49090574034602
 20
-114.7948879378811
 10
85.49090574034602
 20
-114.7948879378811
 10
85.49090574034602
 20
-115.3731472150803
 10
85.49090574034602
 20
-115.3731472150803
 10
85.49090574034602
 20
-115.3731472150803
 10
85.12021346613315
 20
-115.3731472150803
 10
85.12021346613315
 20
-115.3731472150803
 10
85.12021346613315
 20
-115.3731472150803
 10
85.12021346613315
 20
-114.4984374713754
 10
85.12021346613315
 20
-114.4984374713754
 10
85.10781112238625
 20
-114.513251381962
 10
85.06336939062652
 20
-114.555281546882
 10
85.04855548003995
 20
-114.5700954574686
 10
84.98430444924004
 20
-114.4762166054955
 10
84.89542098572059
 20
-114.3749307982292
 10
84.78173283470734
 20
-114.3056843789757
 10
85.02633461416009
 20
-114.1303290187765
 10
85.23149005030672
 20
-113.9053642835896
 10
85.40185002205232
 20
-113.6163207723772
 10
85.40185002205232
 20
-113.6163207723772
 10
85.73051213134515
 20
-113.7596367445636
 10
85.73051213134515
 20
-113.7596367445636
 10
85.73791908663844
 20
-113.7620483114032
 10
85.7551445640647
 20
-113.7720390883105
 10
85.7551445640647
 20
-113.7918483873507
 10
85.7551445640647
 20
-113.8214762085238
 10
85.72551674289154
 20
-113.8262993422032
 10
85.68607039958543
 20
-113.8312947306568
 10
85.65644257841228
 20
-113.8683295071232
 10
85.53035208365213
 20
-114.0438571220967
 10
85.50313582931867
 20
-114.0783080769492
 10
85.52794051681246
 20
-114.0882988538564
 10
85.54034286055936
 20
-114.100528942829
 10
85.54034286055936
 20
-114.1105197197363
 10
85.54034286055936
 20
-114.1229220634832
 10
85.52794051681246
 20
-114.1401475409094
 10
85.49090574034602
 20
-114.1573730183357
 10
85.49090574034602
 20
-114.1573730183357
 10
85.49090574034602
 20
-114.7356322955348
 10
85.49090574034602
 20
-114.7356322955348
 10
85.62181936878552
 20
-114.6367580551082
 10
85.80716550589196
 20
-114.4712212170419
 10
85.96030000021132
 20
-114.2192124822959
 10
85.93566756749178
 20
-114.2216240491356
 10
85.7551445640647
 20
-114.2414333481758
 10
85.74532604193173
 20
-114.2414333481758
 10
85.73051213134515
 20
-114.2686496025092
 10
85.71810978759825
 20
-114.2858750799355
 10
85.70329587701168
 20
-114.2858750799355
 10
85.6834865779715
 20
-114.2858750799355
 10
85.67866344429214
 20
-114.2562472587623
 10
85.6760796226782
 20
-114.2414333481758
 10
85.6760796226782
 20
-114.2414333481758
 10
85.61441241349223
 20
-113.9399874932164
 10
85.61441241349223
 20
-113.9399874932164
 97
        0
 97
        0
 92
        1
 93
        1
 72
     4
 94
        3
 73
     0
 74
     1
 95
       23
 96
       19
 40
0.0
 40
0.0
 40
0.0
 40
0.0
 40
1.0
 40
1.0
 40
1.0
 40
2.0
 40
2.0
 40
2.0
 40
3.0
 40
3.0
 40
3.0
 40
4.0
 40
4.0
 40
4.0
 40
5.0
 40
5.0
 40
5.0
 40
6.0
 40
6.0
 40
6.0
 40
6.0
 10
85.63422171253242
 20
-113.2580308419112
 10
85.65644257841228
 20
-113.2704331856581
 10
85.66867266738493
 20
-113.2778401409514
 10
85.66867266738493
 20
-113.292654051538
 10
85.66867266738493
 20
-113.3198703058714
 10
85.62922632407881
 20
-113.3198703058714
 10
85.60442163658502
 20
-113.3198703058714
 10
85.39444306675904
 20
-113.5768744290711
 10
85.23390161714639
 20
-113.7472344008167
 10
85.08817407812032
 20
-113.8633341186696
 10
84.95467662806689
 20
-113.6953857137637
 10
84.85580238764022
 20
-113.6559393704575
 10
84.80636526742688
 20
-113.6361300714174
 10
84.97190210549314
 20
-113.5052164429779
 10
85.14984128730629
 20
-113.3470865602049
 10
85.32536890227978
 20
-113.0950778254589
 10
85.32536890227978
 20
-113.0950778254589
 10
85.63422171253242
 20
-113.2580308419112
 10
85.63422171253242
 20
-113.2580308419112
 97
        0
 97
        0
 92
        1
 93
        1
 72
     4
 94
        3
 73
     0
 74
     1
 95
       14
 96
       10
 40
0.0
 40
0.0
 40
0.0
 40
0.0
 40
1.0
 40
1.0
 40
1.0
 40
2.0
 40
2.0
 40
2.0
 40
3.0
 40
3.0
 40
3.0
 40
3.0
 10
86.1826809137842
 20
-114.5824978012155
 10
86.23211803399754
 20
-114.6465765772411
 10
86.27156437730365
 20
-114.6886067421612
 10
86.33839922971748
 20
-114.7454508176678
 10
86.42487112639726
 20
-114.6763766531886
 10
86.46431746970337
 20
-114.6317626666546
 10
86.50875920146309
 20
-114.5824978012155
 10
86.50875920146309
 20
-114.5824978012155
 10
86.1826809137842
 20
-114.5824978012155
 10
86.1826809137842
 20
-114.5824978012155
 97
        0
 97
        0
 75
     2
 76
     1
 98
        0
  0
SPLINE
  5
51
330
41
100
AcDbEntity
  8
_U+30EC_U+30A4_U+30E4_U+30FC 1
370
     0
100
AcDbSpline
210
0.0
220
0.0
230
1.0
 70
    11
 71
     3
 72
    41
 73
    37
 74
     0
 42
0.0000000001
 43
0.0000000001
 12
1.0
 22
0.0
 32
0.0
 13
1.0
 23
0.0
 33
0.0
 40
0.0
 40
0.0
 40
0.0
 40
0.0
 40
1.0
 40
1.0
 40
1.0
 40
2.0
 40
2.0
 40
2.0
 40
3.0
 40
3.0
 40
3.0
 40
4.0
 40
4.0
 40
4.0
 40
5.0
 40
5.0
 40
5.0
 40
6.0
 40
6.0
 40
6.0
 40
7.0
 40
7.0
 40
7.0
 40
8.0
 40
8.0
 40
8.0
 40
9.0
 40
9.0
 40
9.0
 40
10.0
 40
10.0
 40
10.0
 40
11.0
 40
11.0
 40
11.0
 40
12.0
 40
12.0
 40
12.0
 40
12.0
 10
88.02201739335908
 20
-115.3705633934664
 30
0.0
 10
88.02201739335908
 20
-115.3705633934664
 30
0.0
 10
87.63651120855963
 20
-115.3705633934664
 30
0.0
 10
87.63651120855963
 20
-115.3705633934664
 30
0.0
 10
87.63651120855963
 20
-115.3705633934664
 30
0.0
 10
87.63651120855963
 20
-114.2266194375892
 30
0.0
 10
87.63651120855963
 20
-114.2266194375892
 30
0.0
 10
87.6044718205468
 20
-114.2686496025092
 30
0.0
 10
87.57484399937366
 20
-114.3006889905221
 30
0.0
 10
87.55003931187986
 20
-114.3229098564019
 30
0.0
 10
87.49819062482685
 20
-114.2438449150154
 30
0.0
 10
87.38949786226722
 20
-114.1377359740697
 30
0.0
 10
87.27822127809364
 20
-114.0634941663626
 30
0.0
 10
87.70575762781314
 20
-113.6485324151643
 30
0.0
 10
87.84166664470625
 20
-113.0974893922986
 30
0.0
 10
87.8538967336789
 20
-113.0504638389249
 30
0.0
 10
87.8538967336789
 20
-113.0504638389249
 30
0.0
 10
88.19254961987895
 20
-113.1741427668454
 30
0.0
 10
88.19254961987895
 20
-113.1741427668454
 30
0.0
 10
88.21718205259849
 20
-113.1839612889783
 30
0.0
 10
88.23940291847835
 20
-113.1913682442716
 30
0.0
 10
88.23940291847835
 20
-113.2111775433118
 30
0.0
 10
88.23940291847835
 20
-113.2358099760313
 30
0.0
 10
88.20736353046553
 20
-113.2432169313246
 30
0.0
 10
88.17515188767844
 20
-113.2482123197782
 30
0.0
 10
88.07886146886571
 20
-113.4755886218047
 30
0.0
 10
88.07145451357242
 20
-113.492814099231
 30
0.0
 10
87.99979652747922
 20
-113.641125459871
 30
0.0
 10
88.03924287078533
 20
-113.6509439820039
 30
0.0
 10
88.07386608041209
 20
-113.6607625041369
 30
0.0
 10
88.07386608041209
 20
-113.6879787584704
 30
0.0
 10
88.07386608041209
 20
-113.7151950128038
 30
0.0
 10
88.05164521453223
 20
-113.7275973565507
 30
0.0
 10
88.02201739335908
 20
-113.7374158786837
 30
0.0
 10
88.02201739335908
 20
-113.7374158786837
 30
0.0
 10
88.02201739335908
 20
-115.3705633934664
 30
0.0
 10
88.02201739335908
 20
-115.3705633934664
 30
0.0
  0
SPLINE
  5
52
330
41
100
AcDbEntity
  8
_U+30EC_U+30A4_U+30E4_U+30FC 1
370
     0
100
AcDbSpline
210
0.0
220
0.0
230
1.0
 70
    11
 71
     3
 72
    56
 73
    52
 74
     0
 42
0.0000000001
 43
0.0000000001
 12
1.0
 22
0.0
 32
0.0
 13
1.0
 23
0.0
 33
0.0
 40
0.0
 40
0.0
 40
0.0
 40
0.0
 40
1.0
 40
1.0
 40
1.0
 40
2.0
 40
2.0
 40
2.0
 40
3.0
 40
3.0
 40
3.0
 40
4.0
 40
4.0
 40
4.0
 40
5.0
 40
5.0
 40
5.0
 40
6.0
 40
6.0
 40
6.0
 40
7.0
 40
7.0
 40
7.0
 40
8.0
 40
8.0
 40
8.0
 40
9.0
 40
9.0
 40
9.0
 40
10.0
 40
10.0
 40
10.0
 40
11.0
 40
11.0
 40
11.0
 40
12.0
 40
12.0
 40
12.0
 40
13.0
 40
13.0
 40
13.0
 40
14.0
 40
14.0
 40
14.0
 40
15.0
 40
15.0
 40
15.0
 40
16.0
 40
16.0
 40
16.0
 40
17.0
 40
17.0
 40
17.0
 40
17.0
 10
89.63053247542223
 20
-113.6311346829637
 30
0.0
 10
89.63053247542223
 20
-113.6311346829637
 30
0.0
 10
89.63053247542223
 20
-113.9894246134297
 30
0.0
 10
89.63053247542223
 20
-113.9894246134297
 30
0.0
 10
89.63053247542223
 20
-113.9894246134297
 30
0.0
 10
89.39816078494214
 20
-113.9894246134297
 30
0.0
 10
89.39816078494214
 20
-113.9894246134297
 30
0.0
 10
89.39816078494214
 20
-113.9894246134297
 30
0.0
 10
89.39816078494214
 20
-115.0148572846144
 30
0.0
 10
89.39816078494214
 20
-115.0148572846144
 30
0.0
 10
89.39816078494214
 20
-115.2989054073732
 30
0.0
 10
89.35130748634273
 20
-115.3631564381731
 30
0.0
 10
88.83488767310378
 20
-115.3681518266267
 30
0.0
 10
88.81748994090327
 20
-115.2396497650269
 30
0.0
 10
88.76564125385026
 20
-115.0939222260008
 30
0.0
 10
88.6717624018772
 20
-114.9678317312407
 30
0.0
 10
88.72619491054415
 20
-114.9802340749876
 30
0.0
 10
88.82007376251721
 20
-115.0000433740278
 30
0.0
 10
88.89414331545008
 20
-115.0000433740278
 30
0.0
 10
89.010243033303
 20
-115.0000433740278
 30
0.0
 10
89.0152384217566
 20
-114.9678317312407
 30
0.0
 10
89.0152384217566
 20
-114.8837714014006
 30
0.0
 10
89.0152384217566
 20
-114.8837714014006
 30
0.0
 10
89.0152384217566
 20
-113.9894246134297
 30
0.0
 10
89.0152384217566
 20
-113.9894246134297
 30
0.0
 10
89.0152384217566
 20
-113.9894246134297
 30
0.0
 10
88.11090085687853
 20
-113.9894246134297
 30
0.0
 10
88.11090085687853
 20
-113.9894246134297
 30
0.0
 10
88.11090085687853
 20
-113.9894246134297
 30
0.0
 10
88.11090085687853
 20
-113.6311346829637
 30
0.0
 10
88.11090085687853
 20
-113.6311346829637
 30
0.0
 10
88.11090085687853
 20
-113.6311346829637
 30
0.0
 10
89.0152384217566
 20
-113.6311346829637
 30
0.0
 10
89.0152384217566
 20
-113.6311346829637
 30
0.0
 10
89.0152384217566
 20
-113.6311346829637
 30
0.0
 10
89.0152384217566
 20
-113.0776800932584
 30
0.0
 10
89.0152384217566
 20
-113.0776800932584
 30
0.0
 10
89.0152384217566
 20
-113.0776800932584
 30
0.0
 10
89.39816078494214
 20
-113.0924940038449
 30
0.0
 10
89.39816078494214
 20
-113.0924940038449
 30
0.0
 10
89.42778860611529
 20
-113.0924940038449
 30
0.0
 10
89.46499563735598
 20
-113.0950778254589
 30
0.0
 10
89.46499563735598
 20
-113.124705646632
 30
0.0
 10
89.46499563735598
 20
-113.1469265125119
 30
0.0
 10
89.43519556140856
 20
-113.1617404230985
 30
0.0
 10
89.39816078494214
 20
-113.176554333685
 30
0.0
 10
89.39816078494214
 20
-113.176554333685
 30
0.0
 10
89.39816078494214
 20
-113.6311346829637
 30
0.0
 10
89.39816078494214
 20
-113.6311346829637
 30
0.0
 10
89.39816078494214
 20
-113.6311346829637
 30
0.0
 10
89.63053247542223
 20
-113.6311346829637
 30
0.0
 10
89.63053247542223
 20
-113.6311346829637
 30
0.0
  0
SPLINE
  5
53
330
41
100
AcDbEntity
  8
_U+30EC_U+30A4_U+30E4_U+30FC 1
370
     0
100
AcDbSpline
210
0.0
220
0.0
230
1.0
 70
    11
 71
     3
 72
    17
 73
    13
 74
     0
 42
0.0000000001
 43
0.0000000001
 12
1.0
 22
0.0
 32
0.0
 13
1.0
 23
0.0
 33
0.0
 40
0.0
 40
0.0
 40
0.0
 40
0.0
 40
1.0
 40
1.0
 40
1.0
 40
2.0
 40
2.0
 40
2.0
 40
3.0
 40
3.0
 40
3.0
 40
4.0
 40
4.0
 40
4.0
 40
4.0
 10
88.52103947439753
 20
-114.1203382418692
 30
0.0
 10
88.69897865621067
 20
-114.3329006333091
 30
0.0
 10
88.80525985193063
 20
-114.5182467704156
 30
0.0
 10
88.86210392743726
 20
-114.6787882200282
 30
0.0
 10
88.82506915097082
 20
-114.6960136974545
 30
0.0
 10
88.65694849129063
 20
-114.775078638841
 30
0.0
 10
88.52103947439753
 20
-114.8615505355207
 30
0.0
 10
88.46178383205122
 20
-114.6985975190684
 30
0.0
 10
88.28884003869169
 20
-114.4019747977884
 30
0.0
 10
88.18255884297173
 20
-114.2884589015494
 30
0.0
 10
88.18255884297173
 20
-114.2884589015494
 30
0.0
 10
88.52103947439753
 20
-114.1203382418692
 30
0.0
 10
88.52103947439753
 20
-114.1203382418692
 30
0.0
  0
HATCH
  5
54
330
41
100
AcDbEntity
  8
_U+30EC_U+30A4_U+30E4_U+30FC 1
 62
   179
420
  2234388
100
AcDbHatch
 10
0.0
 20
0.0
 30
0.0
210
0.0
220
0.0
230
1.0
  2
SOLID
 70
     1
 71
     0
 91
        3
 92
        1
 93
        1
 72
     4
 94
        3
 73
     0
 74
     1
 95
       41
 96
       37
 40
0.0
 40
0.0
 40
0.0
 40
0.0
 40
1.0
 40
1.0
 40
1.0
 40
2.0
 40
2.0
 40
2.0
 40
3.0
 40
3.0
 40
3.0
 40
4.0
 40
4.0
 40
4.0
 40
5.0
 40
5.0
 40
5.0
 40
6.0
 40
6.0
 40
6.0
 40
7.0
 40
7.0
 40
7.0
 40
8.0
 40
8.0
 40
8.0
 40
9.0
 40
9.0
 40
9.0
 40
10.0
 40
10.0
 40
10.0
 40
11.0
 40
11.0
 40
11.0
 40
12.0
 40
12.0
 40
12.0
 40
12.0
 10
88.02201739335908
 20
-115.3705633934664
 10
88.02201739335908
 20
-115.3705633934664
 10
87.63651120855963
 20
-115.3705633934664
 10
87.63651120855963
 20
-115.3705633934664
 10
87.63651120855963
 20
-115.3705633934664
 10
87.63651120855963
 20
-114.2266194375892
 10
87.63651120855963
 20
-114.2266194375892
 10
87.6044718205468
 20
-114.2686496025092
 10
87.57484399937366
 20
-114.3006889905221
 10
87.55003931187986
 20
-114.3229098564019
 10
87.49819062482685
 20
-114.2438449150154
 10
87.38949786226722
 20
-114.1377359740697
 10
87.27822127809364
 20
-114.0634941663626
 10
87.70575762781314
 20
-113.6485324151643
 10
87.84166664470625
 20
-113.0974893922986
 10
87.8538967336789
 20
-113.0504638389249
 10
87.8538967336789
 20
-113.0504638389249
 10
88.19254961987895
 20
-113.1741427668454
 10
88.19254961987895
 20
-113.1741427668454
 10
88.21718205259849
 20
-113.1839612889783
 10
88.23940291847835
 20
-113.1913682442716
 10
88.23940291847835
 20
-113.2111775433118
 10
88.23940291847835
 20
-113.2358099760313
 10
88.20736353046553
 20
-113.2432169313246
 10
88.17515188767844
 20
-113.2482123197782
 10
88.07886146886571
 20
-113.4755886218047
 10
88.07145451357242
 20
-113.492814099231
 10
87.99979652747922
 20
-113.641125459871
 10
88.03924287078533
 20
-113.6509439820039
 10
88.07386608041209
 20
-113.6607625041369
 10
88.07386608041209
 20
-113.6879787584704
 10
88.07386608041209
 20
-113.7151950128038
 10
88.05164521453223
 20
-113.7275973565507
 10
88.02201739335908
 20
-113.7374158786837
 10
88.02201739335908
 20
-113.7374158786837
 10
88.02201739335908
 20
-115.3705633934664
 10
88.02201739335908
 20
-115.3705633934664
 97
        0
 97
        0
 92
        1
 93
        1
 72
     4
 94
        3
 73
     0
 74
     1
 95
       56
 96
       52
 40
0.0
 40
0.0
 40
0.0
 40
0.0
 40
1.0
 40
1.0
 40
1.0
 40
2.0
 40
2.0
 40
2.0
 40
3.0
 40
3.0
 40
3.0
 40
4.0
 40
4.0
 40
4.0
 40
5.0
 40
5.0
 40
5.0
 40
6.0
 40
6.0
 40
6.0
 40
7.0
 40
7.0
 40
7.0
 40
8.0
 40
8.0
 40
8.0
 40
9.0
 40
9.0
 40
9.0
 40
10.0
 40
10.0
 40
10.0
 40
11.0
 40
11.0
 40
11.0
 40
12.0
 40
12.0
 40
12.0
 40
13.0
 40
13.0
 40
13.0
 40
14.0
 40
14.0
 40
14.0
 40
15.0
 40
15.0
 40
15.0
 40
16.0
 40
16.0
 40
16.0
 40
17.0
 40
17.0
 40
17.0
 40
17.0
 10
89.63053247542223
 20
-113.6311346829637
 10
89.63053247542223
 20
-113.6311346829637
 10
89.63053247542223
 20
-113.9894246134297
 10
89.63053247542223
 20
-113.9894246134297
 10
89.63053247542223
 20
-113.9894246134297
 10
89.39816078494214
 20
-113.9894246134297
 10
89.39816078494214
 20
-113.9894246134297
 10
89.39816078494214
 20
-113.9894246134297
 10
89.39816078494214
 20
-115.0148572846144
 10
89.39816078494214
 20
-115.0148572846144
 10
89.39816078494214
 20
-115.2989054073732
 10
89.35130748634273
 20
-115.3631564381731
 10
88.83488767310378
 20
-115.3681518266267
 10
88.81748994090327
 20
-115.2396497650269
 10
88.76564125385026
 20
-115.0939222260008
 10
88.6717624018772
 20
-114.9678317312407
 10
88.72619491054415
 20
-114.9802340749876
 10
88.82007376251721
 20
-115.0000433740278
 10
88.89414331545008
 20
-115.0000433740278
 10
89.010243033303
 20
-115.0000433740278
 10
89.0152384217566
 20
-114.9678317312407
 10
89.0152384217566
 20
-114.8837714014006
 10
89.0152384217566
 20
-114.8837714014006
 10
89.0152384217566
 20
-113.9894246134297
 10
89.0152384217566
 20
-113.9894246134297
 10
89.0152384217566
 20
-113.9894246134297
 10
88.11090085687853
 20
-113.9894246134297
 10
88.11090085687853
 20
-113.9894246134297
 10
88.11090085687853
 20
-113.9894246134297
 10
88.11090085687853
 20
-113.6311346829637
 10
88.11090085687853
 20
-113.6311346829637
 10
88.11090085687853
 20
-113.6311346829637
 10
89.0152384217566
 20
-113.6311346829637
 10
89.0152384217566
 20
-113.6311346829637
 10
89.0152384217566
 20
-113.6311346829637
 10
89.0152384217566
 20
-113.0776800932584
 10
89.0152384217566
 20
-113.0776800932584
 10
89.0152384217566
 20
-113.0776800932584
 10
89.39816078494214
 20
-113.0924940038449
 10
89.39816078494214
 20
-113.0924940038449
 10
89.42778860611529
 20
-113.0924940038449
 10
89.46499563735598
 20
-113.0950778254589
 10
89.46499563735598
 20
-113.124705646632
 10
89.46499563735598
 20
-113.1469265125119
 10
89.43519556140856
 20
-113.1617404230985
 10
89.39816078494214
 20
-113.176554333685
 10
89.39816078494214
 20
-113.176554333685
 10
89.39816078494214
 20
-113.6311346829637
 10
89.39816078494214
 20
-113.6311346829637
 10
89.39816078494214
 20
-113.6311346829637
 10
89.63053247542223
 20
-113.6311346829637
 10
89.63053247542223
 20
-113.6311346829637
 97
        0
 97
        0
 92
        1
 93
        1
 72
     4
 94
        3
 73
     0
 74
     1
 95
       17
 96
       13
 40
0.0
 40
0.0
 40
0.0
 40
0.0
 40
1.0
 40
1.0
 40
1.0
 40
2.0
 40
2.0
 40
2.0
 40
3.0
 40
3.0
 40
3.0
 40
4.0
 40
4.0
 40
4.0
 40
4.0
 10
88.52103947439753
 20
-114.1203382418692
 10
88.69897865621067
 20
-114.3329006333091
 10
88.80525985193063
 20
-114.5182467704156
 10
88.86210392743726
 20
-114.6787882200282
 10
88.82506915097082
 20
-114.6960136974545
 10
88.65694849129063
 20
-114.775078638841
 10
88.52103947439753
 20
-114.8615505355207
 10
88.46178383205122
 20
-114.6985975190684
 10
88.28884003869169
 20
-114.4019747977884
 10
88.18255884297173
 20
-114.2884589015494
 10
88.18255884297173
 20
-114.2884589015494
 10
88.52103947439753
 20
-114.1203382418692
 10
88.52103947439753
 20
-114.1203382418692
 97
        0
 97
        0
 75
     2
 76
     1
 98
        0
  0
SPLINE
  5
55
330
41
100
AcDbEntity
  8
_U+30EC_U+30A4_U+30E4_U+30FC 1
370
     0
100
AcDbSpline
210
0.0
220
0.0
230
1.0
 70
    11
 71
     3
 72
   152
 73
   148
 74
     0
 42
0.0000000001
 43
0.0000000001
 12
1.0
 22
0.0
 32
0.0
 13
1.0
 23
0.0
 33
0.0
 40
0.0
 40
0.0
 40
0.0
 40
0.0
 40
1.0
 40
1.0
 40
1.0
 40
2.0
 40
2.0
 40
2.0
 40
3.0
 40
3.0
 40
3.0
 40
4.0
 40
4.0
 40
4.0
 40
5.0
 40
5.0
 40
5.0
 40
6.0
 40
6.0
 40
6.0
 40
7.0
 40
7.0
 40
7.0
 40
8.0
 40
8.0
 40
8.0
 40
9.0
 40
9.0
 40
9.0
 40
10.0
 40
10.0
 40
10.0
 40
11.0
 40
11.0
 40
11.0
 40
12.0
 40
12.0
 40
12.0
 40
13.0
 40
13.0
 40
13.0
 40
14.0
 40
14.0
 40
14.0
 40
15.0
 40
15.0
 40
15.0
 40
16.0
 40
16.0
 40
16.0
 40
17.0
 40
17.0
 40
17.0
 40
18.0
 40
18.0
 40
18.0
 40
19.0
 40
19.0
 40
19.0
 40
20.0
 40
20.0
 40
20.0
 40
21.0
 40
21.0
 40
21.0
 40
22.0
 40
22.0
 40
22.0
 40
23.0
 40
23.0
 40
23.0
 40
24.0
 40
24.0
 40
24.0
 40
25.0
 40
25.0
 40
25.0
 40
26.0
 40
26.0
 40
26.0
 40
27.0
 40
27.0
 40
27.0
 40
28.0
 40
28.0
 40
28.0
 40
29.0
 40
29.0
 40
29.0
 40
30.0
 40
30.0
 40
30.0
 40
31.0
 40
31.0
 40
31.0
 40
32.0
 40
32.0
 40
32.0
 40
33.0
 40
33.0
 40
33.0
 40
34.0
 40
34.0
 40
34.0
 40
35.0
 40
35.0
 40
35.0
 40
36.0
 40
36.0
 40
36.0
 40
37.0
 40
37.0
 40
37.0
 40
38.0
 40
38.0
 40
38.0
 40
39.0
 40
39.0
 40
39.0
 40
40.0
 40
40.0
 40
40.0
 40
41.0
 40
41.0
 40
41.0
 40
42.0
 40
42.0
 40
42.0
 40
43.0
 40
43.0
 40
43.0
 40
44.0
 40
44.0
 40
44.0
 40
45.0
 40
45.0
 40
45.0
 40
46.0
 40
46.0
 40
46.0
 40
47.0
 40
47.0
 40
47.0
 40
48.0
 40
48.0
 40
48.0
 40
49.0
 40
49.0
 40
49.0
 40
49.0
 10
92.1321885620364
 20
-114.0857150322425
 30
0.0
 10
92.1321885620364
 20
-114.0857150322425
 30
0.0
 10
92.1321885620364
 20
-114.3427191554421
 30
0.0
 10
92.1321885620364
 20
-114.3427191554421
 30
0.0
 10
92.1321885620364
 20
-114.3427191554421
 30
0.0
 10
91.92686087111551
 20
-114.3427191554421
 30
0.0
 10
91.92686087111551
 20
-114.3427191554421
 30
0.0
 10
91.92686087111551
 20
-114.3427191554421
 30
0.0
 10
91.92686087111551
 20
-114.710827608041
 30
0.0
 10
91.92686087111551
 20
-114.710827608041
 30
0.0
 10
91.92686087111551
 20
-114.710827608041
 30
0.0
 10
91.67467988159522
 20
-114.710827608041
 30
0.0
 10
91.67467988159522
 20
-114.710827608041
 30
0.0
 10
91.74151473400907
 20
-114.7776624604549
 30
0.0
 10
91.91928166104796
 20
-114.923389999481
 30
0.0
 10
92.1514810967538
 20
-115.0296711952009
 30
0.0
 10
92.05019528948746
 20
-115.1161430918807
 30
0.0
 10
91.98887258985
 20
-115.1926242116532
 30
0.0
 10
91.92686087111551
 20
-115.2989054073732
 30
0.0
 10
91.69948456908902
 20
-115.1629963904801
 30
0.0
 10
91.59337562814332
 20
-115.0963337928405
 30
0.0
 10
91.41044105787655
 20
-114.8961737451475
 30
0.0
 10
91.41044105787655
 20
-114.8961737451475
 30
0.0
 10
91.41044105787655
 20
-115.3607448713334
 30
0.0
 10
91.41044105787655
 20
-115.3607448713334
 30
0.0
 10
91.41044105787655
 20
-115.3607448713334
 30
0.0
 10
91.08436277019766
 20
-115.3607448713334
 30
0.0
 10
91.08436277019766
 20
-115.3607448713334
 30
0.0
 10
91.08436277019766
 20
-115.3607448713334
 30
0.0
 10
91.08436277019766
 20
-114.710827608041
 30
0.0
 10
91.08436277019766
 20
-114.710827608041
 30
0.0
 10
91.08436277019766
 20
-114.710827608041
 30
0.0
 10
90.90401202154483
 20
-114.710827608041
 30
0.0
 10
90.90401202154483
 20
-114.710827608041
 30
0.0
 10
90.90401202154483
 20
-114.710827608041
 30
0.0
 10
90.90401202154483
 20
-115.3607448713334
 30
0.0
 10
90.90401202154483
 20
-115.3607448713334
 30
0.0
 10
90.90401202154483
 20
-115.3607448713334
 30
0.0
 10
90.575349912252
 20
-115.3607448713334
 30
0.0
 10
90.575349912252
 20
-115.3607448713334
 30
0.0
 10
90.575349912252
 20
-115.3607448713334
 30
0.0
 10
90.575349912252
 20
-114.9431992985212
 30
0.0
 10
90.575349912252
 20
-114.9431992985212
 30
0.0
 10
90.54331052423917
 20
-114.9802340749876
 30
0.0
 10
90.3553805655188
 20
-115.2050265554001
 30
0.0
 10
90.14299042885314
 20
-115.3459309607469
 30
0.0
 10
90.061513920627
 20
-115.2198404659867
 30
0.0
 10
89.99726288982708
 20
-115.1729871673873
 30
0.0
 10
89.85877005132004
 20
-115.0963337928405
 30
0.0
 10
89.93542342586684
 20
-115.0592990163741
 30
0.0
 10
90.16762286157268
 20
-114.9183946110274
 30
0.0
 10
90.34556204338584
 20
-114.710827608041
 30
0.0
 10
90.34556204338584
 20
-114.710827608041
 30
0.0
 10
90.10595565238671
 20
-114.710827608041
 30
0.0
 10
90.10595565238671
 20
-114.710827608041
 30
0.0
 10
90.10595565238671
 20
-114.710827608041
 30
0.0
 10
90.10595565238671
 20
-114.4564073064553
 30
0.0
 10
90.10595565238671
 20
-114.4564073064553
 30
0.0
 10
90.10595565238671
 20
-114.4564073064553
 30
0.0
 10
90.575349912252
 20
-114.4564073064553
 30
0.0
 10
90.575349912252
 20
-114.4564073064553
 30
0.0
 10
90.575349912252
 20
-114.4564073064553
 30
0.0
 10
90.575349912252
 20
-114.3427191554421
 30
0.0
 10
90.575349912252
 20
-114.3427191554421
 30
0.0
 10
90.575349912252
 20
-114.3427191554421
 30
0.0
 10
89.87616778352054
 20
-114.3427191554421
 30
0.0
 10
89.87616778352054
 20
-114.3427191554421
 30
0.0
 10
89.87616778352054
 20
-114.3427191554421
 30
0.0
 10
89.87616778352054
 20
-114.0857150322425
 30
0.0
 10
89.87616778352054
 20
-114.0857150322425
 30
0.0
 10
89.87616778352054
 20
-114.0857150322425
 30
0.0
 10
90.575349912252
 20
-114.0857150322425
 30
0.0
 10
90.575349912252
 20
-114.0857150322425
 30
0.0
 10
90.575349912252
 20
-114.0857150322425
 30
0.0
 10
90.575349912252
 20
-113.9746107028432
 30
0.0
 10
90.575349912252
 20
-113.9746107028432
 30
0.0
 10
90.575349912252
 20
-113.9746107028432
 30
0.0
 10
90.10595565238671
 20
-113.9746107028432
 30
0.0
 10
90.10595565238671
 20
-113.9746107028432
 30
0.0
 10
90.10595565238671
 20
-113.9746107028432
 30
0.0
 10
90.10595565238671
 20
-113.7250135349368
 30
0.0
 10
90.10595565238671
 20
-113.7250135349368
 30
0.0
 10
90.10595565238671
 20
-113.7250135349368
 30
0.0
 10
90.575349912252
 20
-113.7250135349368
 30
0.0
 10
90.575349912252
 20
-113.7250135349368
 30
0.0
 10
90.575349912252
 20
-113.7250135349368
 30
0.0
 10
90.575349912252
 20
-113.6337185045777
 30
0.0
 10
90.575349912252
 20
-113.6337185045777
 30
0.0
 10
90.575349912252
 20
-113.6337185045777
 30
0.0
 10
89.91561412682665
 20
-113.6337185045777
 30
0.0
 10
89.91561412682665
 20
-113.6337185045777
 30
0.0
 10
89.91561412682665
 20
-113.6337185045777
 30
0.0
 10
89.91561412682665
 20
-113.3494981270446
 30
0.0
 10
89.91561412682665
 20
-113.3494981270446
 30
0.0
 10
89.91561412682665
 20
-113.3494981270446
 30
0.0
 10
90.43702932851922
 20
-113.3494981270446
 30
0.0
 10
90.43702932851922
 20
-113.3494981270446
 30
0.0
 10
90.39741073043885
 20
-113.2976494399916
 30
0.0
 10
90.37277829771931
 20
-113.2680216188184
 30
0.0
 10
90.3209296106663
 20
-113.2061821548582
 30
0.0
 10
90.3209296106663
 20
-113.2061821548582
 30
0.0
 10
90.66922876422505
 20
-113.0628661826718
 30
0.0
 10
90.66922876422505
 20
-113.0628661826718
 30
0.0
 10
90.7779215267847
 20
-113.1617404230985
 30
0.0
 10
90.83235403545164
 20
-113.2259914538984
 30
0.0
 10
90.88420272250465
 20
-113.3024725736709
 30
0.0
 10
90.79773082582487
 20
-113.3322726496183
 30
0.0
 10
90.7829169152383
 20
-113.3370957832977
 30
0.0
 10
90.75070527245121
 20
-113.3494981270446
 30
0.0
 10
90.75070527245121
 20
-113.3494981270446
 30
0.0
 10
91.15102536783725
 20
-113.3494981270446
 30
0.0
 10
91.15102536783725
 20
-113.3494981270446
 30
0.0
 10
91.16583927842382
 20
-113.3198703058714
 30
0.0
 10
91.24008108613096
 20
-113.1815497221386
 30
0.0
 10
91.28193899627674
 20
-113.0726847048048
 30
0.0
 10
91.28193899627674
 20
-113.0726847048048
 30
0.0
 10
91.6674451810762
 20
-113.1715589452314
 30
0.0
 10
91.6674451810762
 20
-113.1715589452314
 30
0.0
 10
91.68467065850244
 20
-113.176554333685
 30
0.0
 10
91.70430770276838
 20
-113.1839612889783
 30
0.0
 10
91.70430770276838
 20
-113.2011867664046
 30
0.0
 10
91.70430770276838
 20
-113.2308145875777
 30
0.0
 10
91.66227753784833
 20
-113.2358099760313
 30
0.0
 10
91.63781735990305
 20
-113.2358099760313
 30
0.0
 10
91.59061955175513
 20
-113.3198703058714
 30
0.0
 10
91.58579641807577
 20
-113.3272772611647
 30
0.0
 10
91.57132701703773
 20
-113.3494981270446
 30
0.0
 10
91.57132701703773
 20
-113.3494981270446
 30
0.0
 10
92.10256074086325
 20
-113.3494981270446
 30
0.0
 10
92.10256074086325
 20
-113.3494981270446
 30
0.0
 10
92.10256074086325
 20
-113.3494981270446
 30
0.0
 10
92.10256074086325
 20
-113.6337185045777
 30
0.0
 10
92.10256074086325
 20
-113.6337185045777
 30
0.0
 10
92.10256074086325
 20
-113.6337185045777
 30
0.0
 10
91.41044105787655
 20
-113.6337185045777
 30
0.0
 10
91.41044105787655
 20
-113.6337185045777
 30
0.0
 10
91.41044105787655
 20
-113.6337185045777
 30
0.0
 10
91.41044105787655
 20
-113.7250135349368
 30
0.0
 10
91.41044105787655
 20
-113.7250135349368
 30
0.0
 10
91.41044105787655
 20
-113.7250135349368
 30
0.0
 10
91.92686087111551
 20
-113.7250135349368
 30
0.0
 10
91.92686087111551
 20
-113.7250135349368
 30
0.0
 10
91.92686087111551
 20
-113.7250135349368
 30
0.0
 10
91.92686087111551
 20
-114.0857150322425
 30
0.0
 10
91.92686087111551
 20
-114.0857150322425
 30
0.0
 10
91.92686087111551
 20
-114.0857150322425
 30
0.0
 10
92.1321885620364
 20
-114.0857150322425
 30
0.0
 10
92.1321885620364
 20
-114.0857150322425
 30
0.0
  0
POLYLINE
  5
56
330
41
100
AcDbEntity
  8
_U+30EC_U+30A4_U+30E4_U+30FC 1
370
     0
100
AcDb2dPolyline
 66
     1
 10
0.0
 20
0.0
 30
0.0
  0
VERTEX
  5
57
330
56
100
AcDbEntity
  8
_U+30EC_U+30A4_U+30E4_U+30FC 1
370
     0
100
AcDbVertex
100
AcDb2dVertex
 10
90.90401202154483
 20
-113.6337185045777
 30
0.0
  0
VERTEX
  5
58
330
56
100
AcDbEntity
  8
_U+30EC_U+30A4_U+30E4_U+30FC 1
370
     0
100
AcDbVertex
100
AcDb2dVertex
 10
90.90401202154483
 20
-113.7250135349368
 30
0.0
  0
VERTEX
  5
59
330
56
100
AcDbEntity
  8
_U+30EC_U+30A4_U+30E4_U+30FC 1
370
     0
100
AcDbVertex
100
AcDb2dVertex
 10
91.08436277019766
 20
-113.7250135349368
 30
0.0
  0
VERTEX
  5
5A
330
56
100
AcDbEntity
  8
_U+30EC_U+30A4_U+30E4_U+30FC 1
370
     0
100
AcDbVertex
100
AcDb2dVertex
 10
91.08436277019766
 20
-113.6337185045777
 30
0.0
  0
VERTEX
  5
5B
330
56
100
AcDbEntity
  8
_U+30EC_U+30A4_U+30E4_U+30FC 1
370
     0
100
AcDbVertex
100
AcDb2dVertex
 10
90.90401202154483
 20
-113.6337185045777
 30
0.0
  0
SEQEND
  5
5C
330
56
100
AcDbEntity
  8
_U+30EC_U+30A4_U+30E4_U+30FC 1
370
     0
  0
POLYLINE
  5
5D
330
41
100
AcDbEntity
  8
_U+30EC_U+30A4_U+30E4_U+30FC 1
370
     0
100
AcDb2dPolyline
 66
     1
 10
0.0
 20
0.0
 30
0.0
  0
VERTEX
  5
5E
330
5D
100
AcDbEntity
  8
_U+30EC_U+30A4_U+30E4_U+30FC 1
370
     0
100
AcDbVertex
100
AcDb2dVertex
 10
91.08436277019766
 20
-114.0857150322425
 30
0.0
  0
VERTEX
  5
5F
330
5D
100
AcDbEntity
  8
_U+30EC_U+30A4_U+30E4_U+30FC 1
370
     0
100
AcDbVertex
100
AcDb2dVertex
 10
91.08436277019766
 20
-113.9746107028432
 30
0.0
  0
VERTEX
  5
60
330
5D
100
AcDbEntity
  8
_U+30EC_U+30A4_U+30E4_U+30FC 1
370
     0
100
AcDbVertex
100
AcDb2dVertex
 10
90.90401202154483
 20
-113.9746107028432
 30
0.0
  0
VERTEX
  5
61
330
5D
100
AcDbEntity
  8
_U+30EC_U+30A4_U+30E4_U+30FC 1
370
     0
100
AcDbVertex
100
AcDb2dVertex
 10
90.90401202154483
 20
-114.0857150322425
 30
0.0
  0
VERTEX
  5
62
330
5D
100
AcDbEntity
  8
_U+30EC_U+30A4_U+30E4_U+30FC 1
370
     0
100
AcDbVertex
100
AcDb2dVertex
 10
91.08436277019766
 20
-114.0857150322425
 30
0.0
  0
SEQEND
  5
63
330
5D
100
AcDbEntity
  8
_U+30EC_U+30A4_U+30E4_U+30FC 1
370
     0
  0
POLYLINE
  5
64
330
41
100
AcDbEntity
  8
_U+30EC_U+30A4_U+30E4_U+30FC 1
370
     0
100
AcDb2dPolyline
 66
     1
 10
0.0
 20
0.0
 30
0.0
  0
VERTEX
  5
65
330
64
100
AcDbEntity
  8
_U+30EC_U+30A4_U+30E4_U+30FC 1
370
     0
100
AcDbVertex
100
AcDb2dVertex
 10
90.90401202154483
 20
-114.3427191554421
 30
0.0
  0
VERTEX
  5
66
330
64
100
AcDbEntity
  8
_U+30EC_U+30A4_U+30E4_U+30FC 1
370
     0
100
AcDbVertex
100
AcDb2dVertex
 10
90.90401202154483
 20
-114.4564073064553
 30
0.0
  0
VERTEX
  5
67
330
64
100
AcDbEntity
  8
_U+30EC_U+30A4_U+30E4_U+30FC 1
370
     0
100
AcDbVertex
100
AcDb2dVertex
 10
91.08436277019766
 20
-114.4564073064553
 30
0.0
  0
VERTEX
  5
68
330
64
100
AcDbEntity
  8
_U+30EC_U+30A4_U+30E4_U+30FC 1
370
     0
100
AcDbVertex
100
AcDb2dVertex
 10
91.08436277019766
 20
-114.3427191554421
 30
0.0
  0
VERTEX
  5
69
330
64
100
AcDbEntity
  8
_U+30EC_U+30A4_U+30E4_U+30FC 1
370
     0
100
AcDbVertex
100
AcDb2dVertex
 10
90.90401202154483
 20
-114.3427191554421
 30
0.0
  0
SEQEND
  5
6A
330
64
100
AcDbEntity
  8
_U+30EC_U+30A4_U+30E4_U+30FC 1
370
     0
  0
POLYLINE
  5
6B
330
41
100
AcDbEntity
  8
_U+30EC_U+30A4_U+30E4_U+30FC 1
370
     0
100
AcDb2dPolyline
 66
     1
 10
0.0
 20
0.0
 30
0.0
  0
VERTEX
  5
6C
330
6B
100
AcDbEntity
  8
_U+30EC_U+30A4_U+30E4_U+30FC 1
370
     0
100
AcDbVertex
100
AcDb2dVertex
 10
91.56099173058197
 20
-114.0857150322425
 30
0.0
  0
VERTEX
  5
6D
330
6B
100
AcDbEntity
  8
_U+30EC_U+30A4_U+30E4_U+30FC 1
370
     0
100
AcDbVertex
100
AcDb2dVertex
 10
91.56099173058197
 20
-113.9746107028432
 30
0.0
  0
VERTEX
  5
6E
330
6B
100
AcDbEntity
  8
_U+30EC_U+30A4_U+30E4_U+30FC 1
370
     0
100
AcDbVertex
100
AcDb2dVertex
 10
91.41044105787655
 20
-113.9746107028432
 30
0.0
  0
VERTEX
  5
6F
330
6B
100
AcDbEntity
  8
_U+30EC_U+30A4_U+30E4_U+30FC 1
370
     0
100
AcDbVertex
100
AcDb2dVertex
 10
91.41044105787655
 20
-114.0857150322425
 30
0.0
  0
VERTEX
  5
70
330
6B
100
AcDbEntity
  8
_U+30EC_U+30A4_U+30E4_U+30FC 1
370
     0
100
AcDbVertex
100
AcDb2dVertex
 10
91.56099173058197
 20
-114.0857150322425
 30
0.0
  0
SEQEND
  5
71
330
6B
100
AcDbEntity
  8
_U+30EC_U+30A4_U+30E4_U+30FC 1
370
     0
  0
POLYLINE
  5
72
330
41
100
AcDbEntity
  8
_U+30EC_U+30A4_U+30E4_U+30FC 1
370
     0
100
AcDb2dPolyline
 66
     1
 10
0.0
 20
0.0
 30
0.0
  0
VERTEX
  5
73
330
72
100
AcDbEntity
  8
_U+30EC_U+30A4_U+30E4_U+30FC 1
370
     0
100
AcDbVertex
100
AcDb2dVertex
 10
91.41044105787655
 20
-114.3427191554421
 30
0.0
  0
VERTEX
  5
74
330
72
100
AcDbEntity
  8
_U+30EC_U+30A4_U+30E4_U+30FC 1
370
     0
100
AcDbVertex
100
AcDb2dVertex
 10
91.41044105787655
 20
-114.4564073064553
 30
0.0
  0
VERTEX
  5
75
330
72
100
AcDbEntity
  8
_U+30EC_U+30A4_U+30E4_U+30FC 1
370
     0
100
AcDbVertex
100
AcDb2dVertex
 10
91.56099173058197
 20
-114.4564073064553
 30
0.0
  0
VERTEX
  5
76
330
72
100
AcDbEntity
  8
_U+30EC_U+30A4_U+30E4_U+30FC 1
370
     0
100
AcDbVertex
100
AcDb2dVertex
 10
91.56099173058197
 20
-114.3427191554421
 30
0.0
  0
VERTEX
  5
77
330
72
100
AcDbEntity
  8
_U+30EC_U+30A4_U+30E4_U+30FC 1
370
     0
100
AcDbVertex
100
AcDb2dVertex
 10
91.41044105787655
 20
-114.3427191554421
 30
0.0
  0
SEQEND
  5
78
330
72
100
AcDbEntity
  8
_U+30EC_U+30A4_U+30E4_U+30FC 1
370
     0
  0
HATCH
  5
79
330
41
100
AcDbEntity
  8
_U+30EC_U+30A4_U+30E4_U+30FC 1
 62
   179
420
  2234388
100
AcDbHatch
 10
0.0
 20
0.0
 30
0.0
210
0.0
220
0.0
230
1.0
  2
SOLID
 70
     1
 71
     0
 91
        6
 92
        1
 93
        1
 72
     4
 94
        3
 73
     0
 74
     1
 95
      152
 96
      148
 40
0.0
 40
0.0
 40
0.0
 40
0.0
 40
1.0
 40
1.0
 40
1.0
 40
2.0
 40
2.0
 40
2.0
 40
3.0
 40
3.0
 40
3.0
 40
4.0
 40
4.0
 40
4.0
 40
5.0
 40
5.0
 40
5.0
 40
6.0
 40
6.0
 40
6.0
 40
7.0
 40
7.0
 40
7.0
 40
8.0
 40
8.0
 40
8.0
 40
9.0
 40
9.0
 40
9.0
 40
10.0
 40
10.0
 40
10.0
 40
11.0
 40
11.0
 40
11.0
 40
12.0
 40
12.0
 40
12.0
 40
13.0
 40
13.0
 40
13.0
 40
14.0
 40
14.0
 40
14.0
 40
15.0
 40
15.0
 40
15.0
 40
16.0
 40
16.0
 40
16.0
 40
17.0
 40
17.0
 40
17.0
 40
18.0
 40
18.0
 40
18.0
 40
19.0
 40
19.0
 40
19.0
 40
20.0
 40
20.0
 40
20.0
 40
21.0
 40
21.0
 40
21.0
 40
22.0
 40
22.0
 40
22.0
 40
23.0
 40
23.0
 40
23.0
 40
24.0
 40
24.0
 40
24.0
 40
25.0
 40
25.0
 40
25.0
 40
26.0
 40
26.0
 40
26.0
 40
27.0
 40
27.0
 40
27.0
 40
28.0
 40
28.0
 40
28.0
 40
29.0
 40
29.0
 40
29.0
 40
30.0
 40
30.0
 40
30.0
 40
31.0
 40
31.0
 40
31.0
 40
32.0
 40
32.0
 40
32.0
 40
33.0
 40
33.0
 40
33.0
 40
34.0
 40
34.0
 40
34.0
 40
35.0
 40
35.0
 40
35.0
 40
36.0
 40
36.0
 40
36.0
 40
37.0
 40
37.0
 40
37.0
 40
38.0
 40
38.0
 40
38.0
 40
39.0
 40
39.0
 40
39.0
 40
40.0
 40
40.0
 40
40.0
 40
41.0
 40
41.0
 40
41.0
 40
42.0
 40
42.0
 40
42.0
 40
43.0
 40
43.0
 40
43.0
 40
44.0
 40
44.0
 40
44.0
 40
45.0
 40
45.0
 40
45.0
 40
46.0
 40
46.0
 40
46.0
 40
47.0
 40
47.0
 40
47.0
 40
48.0
 40
48.0
 40
48.0
 40
49.0
 40
49.0
 40
49.0
 40
49.0
 10
92.1321885620364
 20
-114.0857150322425
 10
92.1321885620364
 20
-114.0857150322425
 10
92.1321885620364
 20
-114.3427191554421
 10
92.1321885620364
 20
-114.3427191554421
 10
92.1321885620364
 20
-114.3427191554421
 10
91.92686087111551
 20
-114.3427191554421
 10
91.92686087111551
 20
-114.3427191554421
 10
91.92686087111551
 20
-114.3427191554421
 10
91.92686087111551
 20
-114.710827608041
 10
91.92686087111551
 20
-114.710827608041
 10
91.92686087111551
 20
-114.710827608041
 10
91.67467988159522
 20
-114.710827608041
 10
91.67467988159522
 20
-114.710827608041
 10
91.74151473400907
 20
-114.7776624604549
 10
91.91928166104796
 20
-114.923389999481
 10
92.1514810967538
 20
-115.0296711952009
 10
92.05019528948746
 20
-115.1161430918807
 10
91.98887258985
 20
-115.1926242116532
 10
91.92686087111551
 20
-115.2989054073732
 10
91.69948456908902
 20
-115.1629963904801
 10
91.59337562814332
 20
-115.0963337928405
 10
91.41044105787655
 20
-114.8961737451475
 10
91.41044105787655
 20
-114.8961737451475
 10
91.41044105787655
 20
-115.3607448713334
 10
91.41044105787655
 20
-115.3607448713334
 10
91.41044105787655
 20
-115.3607448713334
 10
91.08436277019766
 20
-115.3607448713334
 10
91.08436277019766
 20
-115.3607448713334
 10
91.08436277019766
 20
-115.3607448713334
 10
91.08436277019766
 20
-114.710827608041
 10
91.08436277019766
 20
-114.710827608041
 10
91.08436277019766
 20
-114.710827608041
 10
90.90401202154483
 20
-114.710827608041
 10
90.90401202154483
 20
-114.710827608041
 10
90.90401202154483
 20
-114.710827608041
 10
90.90401202154483
 20
-115.3607448713334
 10
90.90401202154483
 20
-115.3607448713334
 10
90.90401202154483
 20
-115.3607448713334
 10
90.575349912252
 20
-115.3607448713334
 10
90.575349912252
 20
-115.3607448713334
 10
90.575349912252
 20
-115.3607448713334
 10
90.575349912252
 20
-114.9431992985212
 10
90.575349912252
 20
-114.9431992985212
 10
90.54331052423917
 20
-114.9802340749876
 10
90.3553805655188
 20
-115.2050265554001
 10
90.14299042885314
 20
-115.3459309607469
 10
90.061513920627
 20
-115.2198404659867
 10
89.99726288982708
 20
-115.1729871673873
 10
89.85877005132004
 20
-115.0963337928405
 10
89.93542342586684
 20
-115.0592990163741
 10
90.16762286157268
 20
-114.9183946110274
 10
90.34556204338584
 20
-114.710827608041
 10
90.34556204338584
 20
-114.710827608041
 10
90.10595565238671
 20
-114.710827608041
 10
90.10595565238671
 20
-114.710827608041
 10
90.10595565238671
 20
-114.710827608041
 10
90.10595565238671
 20
-114.4564073064553
 10
90.10595565238671
 20
-114.4564073064553
 10
90.10595565238671
 20
-114.4564073064553
 10
90.575349912252
 20
-114.4564073064553
 10
90.575349912252
 20
-114.4564073064553
 10
90.575349912252
 20
-114.4564073064553
 10
90.575349912252
 20
-114.3427191554421
 10
90.575349912252
 20
-114.3427191554421
 10
90.575349912252
 20
-114.3427191554421
 10
89.87616778352054
 20
-114.3427191554421
 10
89.87616778352054
 20
-114.3427191554421
 10
89.87616778352054
 20
-114.3427191554421
 10
89.87616778352054
 20
-114.0857150322425
 10
89.87616778352054
 20
-114.0857150322425
 10
89.87616778352054
 20
-114.0857150322425
 10
90.575349912252
 20
-114.0857150322425
 10
90.575349912252
 20
-114.0857150322425
 10
90.575349912252
 20
-114.0857150322425
 10
90.575349912252
 20
-113.9746107028432
 10
90.575349912252
 20
-113.9746107028432
 10
90.575349912252
 20
-113.9746107028432
 10
90.10595565238671
 20
-113.9746107028432
 10
90.10595565238671
 20
-113.9746107028432
 10
90.10595565238671
 20
-113.9746107028432
 10
90.10595565238671
 20
-113.7250135349368
 10
90.10595565238671
 20
-113.7250135349368
 10
90.10595565238671
 20
-113.7250135349368
 10
90.575349912252
 20
-113.7250135349368
 10
90.575349912252
 20
-113.7250135349368
 10
90.575349912252
 20
-113.7250135349368
 10
90.575349912252
 20
-113.6337185045777
 10
90.575349912252
 20
-113.6337185045777
 10
90.575349912252
 20
-113.6337185045777
 10
89.91561412682665
 20
-113.6337185045777
 10
89.91561412682665
 20
-113.6337185045777
 10
89.91561412682665
 20
-113.6337185045777
 10
89.91561412682665
 20
-113.3494981270446
 10
89.91561412682665
 20
-113.3494981270446
 10
89.91561412682665
 20
-113.3494981270446
 10
90.43702932851922
 20
-113.3494981270446
 10
90.43702932851922
 20
-113.3494981270446
 10
90.39741073043885
 20
-113.2976494399916
 10
90.37277829771931
 20
-113.2680216188184
 10
90.3209296106663
 20
-113.2061821548582
 10
90.3209296106663
 20
-113.2061821548582
 10
90.66922876422505
 20
-113.0628661826718
 10
90.66922876422505
 20
-113.0628661826718
 10
90.7779215267847
 20
-113.1617404230985
 10
90.83235403545164
 20
-113.2259914538984
 10
90.88420272250465
 20
-113.3024725736709
 10
90.79773082582487
 20
-113.3322726496183
 10
90.7829169152383
 20
-113.3370957832977
 10
90.75070527245121
 20
-113.3494981270446
 10
90.75070527245121
 20
-113.3494981270446
 10
91.15102536783725
 20
-113.3494981270446
 10
91.15102536783725
 20
-113.3494981270446
 10
91.16583927842382
 20
-113.3198703058714
 10
91.24008108613096
 20
-113.1815497221386
 10
91.28193899627674
 20
-113.0726847048048
 10
91.28193899627674
 20
-113.0726847048048
 10
91.6674451810762
 20
-113.1715589452314
 10
91.6674451810762
 20
-113.1715589452314
 10
91.68467065850244
 20
-113.176554333685
 10
91.70430770276838
 20
-113.1839612889783
 10
91.70430770276838
 20
-113.2011867664046
 10
91.70430770276838
 20
-113.2308145875777
 10
91.66227753784833
 20
-113.2358099760313
 10
91.63781735990305
 20
-113.2358099760313
 10
91.59061955175513
 20
-113.3198703058714
 10
91.58579641807577
 20
-113.3272772611647
 10
91.57132701703773
 20
-113.3494981270446
 10
91.57132701703773
 20
-113.3494981270446
 10
92.10256074086325
 20
-113.3494981270446
 10
92.10256074086325
 20
-113.3494981270446
 10
92.10256074086325
 20
-113.3494981270446
 10
92.10256074086325
 20
-113.6337185045777
 10
92.10256074086325
 20
-113.6337185045777
 10
92.10256074086325
 20
-113.6337185045777
 10
91.41044105787655
 20
-113.6337185045777
 10
91.41044105787655
 20
-113.6337185045777
 10
91.41044105787655
 20
-113.6337185045777
 10
91.41044105787655
 20
-113.7250135349368
 10
91.41044105787655
 20
-113.7250135349368
 10
91.41044105787655
 20
-113.7250135349368
 10
91.92686087111551
 20
-113.7250135349368
 10
91.92686087111551
 20
-113.7250135349368
 10
91.92686087111551
 20
-113.7250135349368
 10
91.92686087111551
 20
-114.0857150322425
 10
91.92686087111551
 20
-114.0857150322425
 10
91.92686087111551
 20
-114.0857150322425
 10
92.1321885620364
 20
-114.0857150322425
 10
92.1321885620364
 20
-114.0857150322425
 97
        0
 97
        0
 92
        1
 93
        4
 72
     1
 10
90.90401202154483
 20
-113.6337185045777
 11
90.90401202154483
 21
-113.7250135349368
 72
     1
 10
90.90401202154483
 20
-113.7250135349368
 11
91.08436277019766
 21
-113.7250135349368
 72
     1
 10
91.08436277019766
 20
-113.7250135349368
 11
91.08436277019766
 21
-113.6337185045777
 72
     1
 10
91.08436277019766
 20
-113.6337185045777
 11
90.90401202154483
 21
-113.6337185045777
 97
        0
 92
        1
 93
        4
 72
     1
 10
91.08436277019766
 20
-114.0857150322425
 11
91.08436277019766
 21
-113.9746107028432
 72
     1
 10
91.08436277019766
 20
-113.9746107028432
 11
90.90401202154483
 21
-113.9746107028432
 72
     1
 10
90.90401202154483
 20
-113.9746107028432
 11
90.90401202154483
 21
-114.0857150322425
 72
     1
 10
90.90401202154483
 20
-114.0857150322425
 11
91.08436277019766
 21
-114.0857150322425
 97
        0
 92
        1
 93
        4
 72
     1
 10
90.90401202154483
 20
-114.3427191554421
 11
90.90401202154483
 21
-114.4564073064553
 72
     1
 10
90.90401202154483
 20
-114.4564073064553
 11
91.08436277019766
 21
-114.4564073064553
 72
     1
 10
91.08436277019766
 20
-114.4564073064553
 11
91.08436277019766
 21
-114.3427191554421
 72
     1
 10
91.08436277019766
 20
-114.3427191554421
 11
90.90401202154483
 21
-114.3427191554421
 97
        0
 92
        1
 93
        4
 72
     1
 10
91.56099173058197
 20
-114.0857150322425
 11
91.56099173058197
 21
-113.9746107028432
 72
     1
 10
91.56099173058197
 20
-113.9746107028432
 11
91.41044105787655
 21
-113.9746107028432
 72
     1
 10
91.41044105787655
 20
-113.9746107028432
 11
91.41044105787655
 21
-114.0857150322425
 72
     1
 10
91.41044105787655
 20
-114.0857150322425
 11
91.56099173058197
 21
-114.0857150322425
 97
        0
 92
        1
 93
        4
 72
     1
 10
91.41044105787655
 20
-114.3427191554421
 11
91.41044105787655
 21
-114.4564073064553
 72
     1
 10
91.41044105787655
 20
-114.4564073064553
 11
91.56099173058197
 21
-114.4564073064553
 72
     1
 10
91.56099173058197
 20
-114.4564073064553
 11
91.56099173058197
 21
-114.3427191554421
 72
     1
 10
91.56099173058197
 20
-114.3427191554421
 11
91.41044105787655
 21
-114.3427191554421
 97
        0
 75
     2
 76
     1
 98
        0
  0
SPLINE
  5
7A
330
41
100
AcDbEntity
  8
_U+30EC_U+30A4_U+30E4_U+30FC 1
370
     0
100
AcDbSpline
210
0.0
220
0.0
230
1.0
 70
    11
 71
     3
 72
    53
 73
    49
 74
     0
 42
0.0000000001
 43
0.0000000001
 12
1.0
 22
0.0
 32
0.0
 13
1.0
 23
0.0
 33
0.0
 40
0.0
 40
0.0
 40
0.0
 40
0.0
 40
1.0
 40
1.0
 40
1.0
 40
2.0
 40
2.0
 40
2.0
 40
3.0
 40
3.0
 40
3.0
 40
4.0
 40
4.0
 40
4.0
 40
5.0
 40
5.0
 40
5.0
 40
6.0
 40
6.0
 40
6.0
 40
7.0
 40
7.0
 40
7.0
 40
8.0
 40
8.0
 40
8.0
 40
9.0
 40
9.0
 40
9.0
 40
10.0
 40
10.0
 40
10.0
 40
11.0
 40
11.0
 40
11.0
 40
12.0
 40
12.0
 40
12.0
 40
13.0
 40
13.0
 40
13.0
 40
14.0
 40
14.0
 40
14.0
 40
15.0
 40
15.0
 40
15.0
 40
16.0
 40
16.0
 40
16.0
 40
16.0
 10
93.7317463958379
 20
-115.2494682871599
 30
0.0
 10
93.7317463958379
 20
-115.2494682871599
 30
0.0
 10
93.3662217648529
 20
-115.2494682871599
 30
0.0
 10
93.3662217648529
 20
-115.2494682871599
 30
0.0
 10
93.3662217648529
 20
-115.2494682871599
 30
0.0
 10
93.3662217648529
 20
-114.5849093680552
 30
0.0
 10
93.3662217648529
 20
-114.5849093680552
 30
0.0
 10
93.3662217648529
 20
-114.5849093680552
 30
0.0
 10
92.93145071461436
 20
-114.5849093680552
 30
0.0
 10
92.93145071461436
 20
-114.5849093680552
 30
0.0
 10
92.90664602712056
 20
-114.7628485498683
 30
0.0
 10
92.85703665213296
 20
-115.1013291812941
 30
0.0
 10
92.69925127890852
 20
-115.3779703487597
 30
0.0
 10
92.58280705150707
 20
-115.2865030636263
 30
0.0
 10
92.38505857065374
 20
-115.2420613318666
 30
0.0
 10
92.29617510713429
 20
-115.2346543765733
 30
0.0
 10
92.4246771687341
 20
-115.071701360121
 30
0.0
 10
92.55593530672213
 20
-114.7406276839885
 30
0.0
 10
92.55593530672213
 20
-114.1821777058295
 30
0.0
 10
92.55593530672213
 20
-114.1821777058295
 30
0.0
 10
92.55593530672213
 20
-113.1741427668454
 30
0.0
 10
92.55593530672213
 20
-113.1741427668454
 30
0.0
 10
92.55593530672213
 20
-113.1741427668454
 30
0.0
 10
94.52239580970274
 20
-113.1741427668454
 30
0.0
 10
94.52239580970274
 20
-113.1741427668454
 30
0.0
 10
94.52239580970274
 20
-113.1741427668454
 30
0.0
 10
94.52239580970274
 20
-115.0518920610808
 30
0.0
 10
94.52239580970274
 20
-115.0518920610808
 30
0.0
 10
94.52239580970274
 20
-115.3409355722932
 30
0.0
 10
94.35703122641074
 20
-115.3581610497195
 30
0.0
 10
93.99391816226542
 20
-115.3557494828798
 30
0.0
 10
93.98151581851852
 20
-115.2198404659867
 30
0.0
 10
93.94430878727782
 20
-115.12096622556
 30
0.0
 10
93.86024845743772
 20
-114.9802340749876
 30
0.0
 10
93.89263235499907
 20
-114.9852294634412
 30
0.0
 10
93.98151581851852
 20
-114.9950479855742
 30
0.0
 10
94.04283851815596
 20
-114.9950479855742
 30
0.0
 10
94.14446883497084
 20
-114.9950479855742
 30
0.0
 10
94.1468804018105
 20
-114.9776502533737
 30
0.0
 10
94.1468804018105
 20
-114.8863552230145
 30
0.0
 10
94.1468804018105
 20
-114.8863552230145
 30
0.0
 10
94.1468804018105
 20
-114.5849093680552
 30
0.0
 10
94.1468804018105
 20
-114.5849093680552
 30
0.0
 10
94.1468804018105
 20
-114.5849093680552
 30
0.0
 10
93.7317463958379
 20
-114.5849093680552
 30
0.0
 10
93.7317463958379
 20
-114.5849093680552
 30
0.0
 10
93.7317463958379
 20
-114.5849093680552
 30
0.0
 10
93.7317463958379
 20
-115.2494682871599
 30
0.0
 10
93.7317463958379
 20
-115.2494682871599
 30
0.0
  0
POLYLINE
  5
7B
330
41
100
AcDbEntity
  8
_U+30EC_U+30A4_U+30E4_U+30FC 1
370
     0
100
AcDb2dPolyline
 66
     1
 10
0.0
 20
0.0
 30
0.0
  0
VERTEX
  5
7C
330
7B
100
AcDbEntity
  8
_U+30EC_U+30A4_U+30E4_U+30FC 1
370
     0
100
AcDbVertex
100
AcDb2dVertex
 10
93.3662217648529
 20
-113.4878187107774
 30
0.0
  0
VERTEX
  5
7D
330
7B
100
AcDbEntity
  8
_U+30EC_U+30A4_U+30E4_U+30FC 1
370
     0
100
AcDbVertex
100
AcDb2dVertex
 10
92.95591089255964
 20
-113.4878187107774
 30
0.0
  0
VERTEX
  5
7E
330
7B
100
AcDbEntity
  8
_U+30EC_U+30A4_U+30E4_U+30FC 1
370
     0
100
AcDbVertex
100
AcDb2dVertex
 10
92.95591089255964
 20
-113.7126111911899
 30
0.0
  0
VERTEX
  5
7F
330
7B
100
AcDbEntity
  8
_U+30EC_U+30A4_U+30E4_U+30FC 1
370
     0
100
AcDbVertex
100
AcDb2dVertex
 10
93.3662217648529
 20
-113.7126111911899
 30
0.0
  0
VERTEX
  5
80
330
7B
100
AcDbEntity
  8
_U+30EC_U+30A4_U+30E4_U+30FC 1
370
     0
100
AcDbVertex
100
AcDb2dVertex
 10
93.3662217648529
 20
-113.4878187107774
 30
0.0
  0
SEQEND
  5
81
330
7B
100
AcDbEntity
  8
_U+30EC_U+30A4_U+30E4_U+30FC 1
370
     0
  0
POLYLINE
  5
82
330
41
100
AcDbEntity
  8
_U+30EC_U+30A4_U+30E4_U+30FC 1
370
     0
100
AcDb2dPolyline
 66
     1
 10
0.0
 20
0.0
 30
0.0
  0
VERTEX
  5
83
330
82
100
AcDbEntity
  8
_U+30EC_U+30A4_U+30E4_U+30FC 1
370
     0
100
AcDbVertex
100
AcDb2dVertex
 10
93.3662217648529
 20
-114.0264593898962
 30
0.0
  0
VERTEX
  5
84
330
82
100
AcDbEntity
  8
_U+30EC_U+30A4_U+30E4_U+30FC 1
370
     0
100
AcDbVertex
100
AcDb2dVertex
 10
92.95591089255964
 20
-114.0264593898962
 30
0.0
  0
VERTEX
  5
85
330
82
100
AcDbEntity
  8
_U+30EC_U+30A4_U+30E4_U+30FC 1
370
     0
100
AcDbVertex
100
AcDb2dVertex
 10
92.95591089255964
 20
-114.2562472587623
 30
0.0
  0
VERTEX
  5
86
330
82
100
AcDbEntity
  8
_U+30EC_U+30A4_U+30E4_U+30FC 1
370
     0
100
AcDbVertex
100
AcDb2dVertex
 10
93.3662217648529
 20
-114.2562472587623
 30
0.0
  0
VERTEX
  5
87
330
82
100
AcDbEntity
  8
_U+30EC_U+30A4_U+30E4_U+30FC 1
370
     0
100
AcDbVertex
100
AcDb2dVertex
 10
93.3662217648529
 20
-114.0264593898962
 30
0.0
  0
SEQEND
  5
88
330
82
100
AcDbEntity
  8
_U+30EC_U+30A4_U+30E4_U+30FC 1
370
     0
  0
POLYLINE
  5
89
330
41
100
AcDbEntity
  8
_U+30EC_U+30A4_U+30E4_U+30FC 1
370
     0
100
AcDb2dPolyline
 66
     1
 10
0.0
 20
0.0
 30
0.0
  0
VERTEX
  5
8A
330
89
100
AcDbEntity
  8
_U+30EC_U+30A4_U+30E4_U+30FC 1
370
     0
100
AcDbVertex
100
AcDb2dVertex
 10
93.7317463958379
 20
-113.7126111911899
 30
0.0
  0
VERTEX
  5
8B
330
89
100
AcDbEntity
  8
_U+30EC_U+30A4_U+30E4_U+30FC 1
370
     0
100
AcDbVertex
100
AcDb2dVertex
 10
94.1468804018105
 20
-113.7126111911899
 30
0.0
  0
VERTEX
  5
8C
330
89
100
AcDbEntity
  8
_U+30EC_U+30A4_U+30E4_U+30FC 1
370
     0
100
AcDbVertex
100
AcDb2dVertex
 10
94.1468804018105
 20
-113.4878187107774
 30
0.0
  0
VERTEX
  5
8D
330
89
100
AcDbEntity
  8
_U+30EC_U+30A4_U+30E4_U+30FC 1
370
     0
100
AcDbVertex
100
AcDb2dVertex
 10
93.7317463958379
 20
-113.4878187107774
 30
0.0
  0
VERTEX
  5
8E
330
89
100
AcDbEntity
  8
_U+30EC_U+30A4_U+30E4_U+30FC 1
370
     0
100
AcDbVertex
100
AcDb2dVertex
 10
93.7317463958379
 20
-113.7126111911899
 30
0.0
  0
SEQEND
  5
8F
330
89
100
AcDbEntity
  8
_U+30EC_U+30A4_U+30E4_U+30FC 1
370
     0
  0
POLYLINE
  5
90
330
41
100
AcDbEntity
  8
_U+30EC_U+30A4_U+30E4_U+30FC 1
370
     0
100
AcDb2dPolyline
 66
     1
 10
0.0
 20
0.0
 30
0.0
  0
VERTEX
  5
91
330
90
100
AcDbEntity
  8
_U+30EC_U+30A4_U+30E4_U+30FC 1
370
     0
100
AcDbVertex
100
AcDb2dVertex
 10
93.7317463958379
 20
-114.2562472587623
 30
0.0
  0
VERTEX
  5
92
330
90
100
AcDbEntity
  8
_U+30EC_U+30A4_U+30E4_U+30FC 1
370
     0
100
AcDbVertex
100
AcDb2dVertex
 10
94.1468804018105
 20
-114.2562472587623
 30
0.0
  0
VERTEX
  5
93
330
90
100
AcDbEntity
  8
_U+30EC_U+30A4_U+30E4_U+30FC 1
370
     0
100
AcDbVertex
100
AcDb2dVertex
 10
94.1468804018105
 20
-114.0264593898962
 30
0.0
  0
VERTEX
  5
94
330
90
100
AcDbEntity
  8
_U+30EC_U+30A4_U+30E4_U+30FC 1
370
     0
100
AcDbVertex
100
AcDb2dVertex
 10
93.7317463958379
 20
-114.0264593898962
 30
0.0
  0
VERTEX
  5
95
330
90
100
AcDbEntity
  8
_U+30EC_U+30A4_U+30E4_U+30FC 1
370
     0
100
AcDbVertex
100
AcDb2dVertex
 10
93.7317463958379
 20
-114.2562472587623
 30
0.0
  0
SEQEND
  5
96
330
90
100
AcDbEntity
  8
_U+30EC_U+30A4_U+30E4_U+30FC 1
370
     0
  0
HATCH
  5
97
330
41
100
AcDbEntity
  8
_U+30EC_U+30A4_U+30E4_U+30FC 1
 62
   179
420
  2234388
100
AcDbHatch
 10
0.0
 20
0.0
 30
0.0
210
0.0
220
0.0
230
1.0
  2
SOLID
 70
     1
 71
     0
 91
        5
 92
        1
 93
        1
 72
     4
 94
        3
 73
     0
 74
     1
 95
       53
 96
       49
 40
0.0
 40
0.0
 40
0.0
 40
0.0
 40
1.0
 40
1.0
 40
1.0
 40
2.0
 40
2.0
 40
2.0
 40
3.0
 40
3.0
 40
3.0
 40
4.0
 40
4.0
 40
4.0
 40
5.0
 40
5.0
 40
5.0
 40
6.0
 40
6.0
 40
6.0
 40
7.0
 40
7.0
 40
7.0
 40
8.0
 40
8.0
 40
8.0
 40
9.0
 40
9.0
 40
9.0
 40
10.0
 40
10.0
 40
10.0
 40
11.0
 40
11.0
 40
11.0
 40
12.0
 40
12.0
 40
12.0
 40
13.0
 40
13.0
 40
13.0
 40
14.0
 40
14.0
 40
14.0
 40
15.0
 40
15.0
 40
15.0
 40
16.0
 40
16.0
 40
16.0
 40
16.0
 10
93.7317463958379
 20
-115.2494682871599
 10
93.7317463958379
 20
-115.2494682871599
 10
93.3662217648529
 20
-115.2494682871599
 10
93.3662217648529
 20
-115.2494682871599
 10
93.3662217648529
 20
-115.2494682871599
 10
93.3662217648529
 20
-114.5849093680552
 10
93.3662217648529
 20
-114.5849093680552
 10
93.3662217648529
 20
-114.5849093680552
 10
92.93145071461436
 20
-114.5849093680552
 10
92.93145071461436
 20
-114.5849093680552
 10
92.90664602712056
 20
-114.7628485498683
 10
92.85703665213296
 20
-115.1013291812941
 10
92.69925127890852
 20
-115.3779703487597
 10
92.58280705150707
 20
-115.2865030636263
 10
92.38505857065374
 20
-115.2420613318666
 10
92.29617510713429
 20
-115.2346543765733
 10
92.4246771687341
 20
-115.071701360121
 10
92.55593530672213
 20
-114.7406276839885
 10
92.55593530672213
 20
-114.1821777058295
 10
92.55593530672213
 20
-114.1821777058295
 10
92.55593530672213
 20
-113.1741427668454
 10
92.55593530672213
 20
-113.1741427668454
 10
92.55593530672213
 20
-113.1741427668454
 10
94.52239580970274
 20
-113.1741427668454
 10
94.52239580970274
 20
-113.1741427668454
 10
94.52239580970274
 20
-113.1741427668454
 10
94.52239580970274
 20
-115.0518920610808
 10
94.52239580970274
 20
-115.0518920610808
 10
94.52239580970274
 20
-115.3409355722932
 10
94.35703122641074
 20
-115.3581610497195
 10
93.99391816226542
 20
-115.3557494828798
 10
93.98151581851852
 20
-115.2198404659867
 10
93.94430878727782
 20
-115.12096622556
 10
93.86024845743772
 20
-114.9802340749876
 10
93.89263235499907
 20
-114.9852294634412
 10
93.98151581851852
 20
-114.9950479855742
 10
94.04283851815596
 20
-114.9950479855742
 10
94.14446883497084
 20
-114.9950479855742
 10
94.1468804018105
 20
-114.9776502533737
 10
94.1468804018105
 20
-114.8863552230145
 10
94.1468804018105
 20
-114.8863552230145
 10
94.1468804018105
 20
-114.5849093680552
 10
94.1468804018105
 20
-114.5849093680552
 10
94.1468804018105
 20
-114.5849093680552
 10
93.7317463958379
 20
-114.5849093680552
 10
93.7317463958379
 20
-114.5849093680552
 10
93.7317463958379
 20
-114.5849093680552
 10
93.7317463958379
 20
-115.2494682871599
 10
93.7317463958379
 20
-115.2494682871599
 97
        0
 97
        0
 92
        1
 93
        4
 72
     1
 10
93.3662217648529
 20
-113.4878187107774
 11
92.95591089255964
 21
-113.4878187107774
 72
     1
 10
92.95591089255964
 20
-113.4878187107774
 11
92.95591089255964
 21
-113.7126111911899
 72
     1
 10
92.95591089255964
 20
-113.7126111911899
 11
93.3662217648529
 21
-113.7126111911899
 72
     1
 10
93.3662217648529
 20
-113.7126111911899
 11
93.3662217648529
 21
-113.4878187107774
 97
        0
 92
        1
 93
        4
 72
     1
 10
93.3662217648529
 20
-114.0264593898962
 11
92.95591089255964
 21
-114.0264593898962
 72
     1
 10
92.95591089255964
 20
-114.0264593898962
 11
92.95591089255964
 21
-114.2562472587623
 72
     1
 10
92.95591089255964
 20
-114.2562472587623
 11
93.3662217648529
 21
-114.2562472587623
 72
     1
 10
93.3662217648529
 20
-114.2562472587623
 11
93.3662217648529
 21
-114.0264593898962
 97
        0
 92
        1
 93
        4
 72
     1
 10
93.7317463958379
 20
-113.7126111911899
 11
94.1468804018105
 21
-113.7126111911899
 72
     1
 10
94.1468804018105
 20
-113.7126111911899
 11
94.1468804018105
 21
-113.4878187107774
 72
     1
 10
94.1468804018105
 20
-113.4878187107774
 11
93.7317463958379
 21
-113.4878187107774
 72
     1
 10
93.7317463958379
 20
-113.4878187107774
 11
93.7317463958379
 21
-113.7126111911899
 97
        0
 92
        1
 93
        4
 72
     1
 10
93.7317463958379
 20
-114.2562472587623
 11
94.1468804018105
 21
-114.2562472587623
 72
     1
 10
94.1468804018105
 20
-114.2562472587623
 11
94.1468804018105
 21
-114.0264593898962
 72
     1
 10
94.1468804018105
 20
-114.0264593898962
 11
93.7317463958379
 21
-114.0264593898962
 72
     1
 10
93.7317463958379
 20
-114.0264593898962
 11
93.7317463958379
 21
-114.2562472587623
 97
        0
 75
     2
 76
     1
 98
        0
  0
ENDBLK
  5
44
330
41
100
AcDbEntity
  8
0
100
AcDbBlockEnd
  0
BLOCK
  5
119
330
117
100
AcDbEntity
  8
0
100
AcDbBlockBegin
  2
block 3
 70
     0
 10
0.0
 20
0.0
 30
0.0
  3
block 3
  1

  0
SPLINE
  5
11B
330
117
100
AcDbEntity
  8
_U+30EC_U+30A4_U+30E4_U+30FC 1
370
     0
100
AcDbSpline
210
0.0
220
0.0
230
1.0
 70
    11
 71
     3
 72
    32
 73
    28
 74
     0
 42
0.0000000001
 43
0.0000000001
 12
1.0
 22
0.0
 32
0.0
 13
1.0
 23
0.0
 33
0.0
 40
0.0
 40
0.0
 40
0.0
 40
0.0
 40
1.0
 40
1.0
 40
1.0
 40
2.0
 40
2.0
 40
2.0
 40
3.0
 40
3.0
 40
3.0
 40
4.0
 40
4.0
 40
4.0
 40
5.0
 40
5.0
 40
5.0
 40
6.0
 40
6.0
 40
6.0
 40
7.0
 40
7.0
 40
7.0
 40
8.0
 40
8.0
 40
8.0
 40
9.0
 40
9.0
 40
9.0
 40
9.0
 10
87.8497626190966
 20
-141.4656114012656
 30
0.0
 10
87.3335150606319
 20
-141.4656114012656
 30
0.0
 10
87.32507457669304
 20
-140.9112955376889
 30
0.0
 10
87.32507457669304
 20
-140.6976996176033
 30
0.0
 10
87.32507457669304
 20
-140.4672227296402
 30
0.0
 10
87.34402260186191
 20
-139.8198892879617
 30
0.0
 10
87.8878309242086
 20
-139.8198892879617
 30
0.0
 10
88.06129148189093
 20
-139.8198892879617
 30
0.0
 10
88.30658228044072
 20
-139.8894802167638
 30
0.0
 10
88.34465058555273
 20
-140.2215874215418
 30
0.0
 10
88.34465058555273
 20
-140.2215874215418
 30
0.0
 10
88.13105466546725
 20
-140.2215874215418
 30
0.0
 10
88.13105466546725
 20
-140.2215874215418
 30
0.0
 10
88.12054712423723
 20
-140.1643988364867
 30
0.0
 10
88.08867999099867
 20
-140.0166042401695
 30
0.0
 10
87.88559161214319
 20
-140.0166042401695
 30
0.0
 10
87.59379202454252
 20
-140.0166042401695
 30
0.0
 10
87.5534844073651
 20
-140.3442328208167
 30
0.0
 10
87.54090980884395
 20
-140.5495605117376
 30
0.0
 10
87.63392738694569
 20
-140.4713568442224
 30
0.0
 10
87.70162351323084
 20
-140.4121012018761
 30
0.0
 10
87.88352455485204
 20
-140.4121012018761
 30
0.0
 10
88.06335853918208
 20
-140.4121012018761
 30
0.0
 10
88.36583792278702
 20
-140.5199326905645
 30
0.0
 10
88.36583792278702
 20
-140.9261094482754
 30
0.0
 10
88.36583792278702
 20
-141.2454697997581
 30
0.0
 10
88.1670559132881
 20
-141.4656114012656
 30
0.0
 10
87.8497626190966
 20
-141.4656114012656
 30
0.0
  0
SPLINE
  5
11C
330
117
100
AcDbEntity
  8
_U+30EC_U+30A4_U+30E4_U+30FC 1
370
     0
100
AcDbSpline
210
0.0
220
0.0
230
1.0
 70
    11
 71
     3
 72
    17
 73
    13
 74
     0
 42
0.0000000001
 43
0.0000000001
 12
1.0
 22
0.0
 32
0.0
 13
1.0
 23
0.0
 33
0.0
 40
0.0
 40
0.0
 40
0.0
 40
0.0
 40
1.0
 40
1.0
 40
1.0
 40
2.0
 40
2.0
 40
2.0
 40
3.0
 40
3.0
 40
3.0
 40
4.0
 40
4.0
 40
4.0
 40
4.0
 10
87.86664358697432
 20
-140.6067490967928
 30
0.0
 10
87.60429956577254
 20
-140.6067490967928
 30
0.0
 10
87.56623126066053
 20
-140.8182779595871
 30
0.0
 10
87.56623126066053
 20
-140.9347221869886
 30
0.0
 10
87.56623126066053
 20
-141.1100775471878
 30
0.0
 10
87.6614881508277
 20
-141.2730305636401
 30
0.0
 10
87.84545624974002
 20
-141.2730305636401
 30
0.0
 10
87.96603459172377
 20
-141.2730305636401
 30
0.0
 10
88.14173446147151
 20
-141.2137749212938
 30
0.0
 10
88.14173446147151
 20
-140.9281765055666
 30
0.0
 10
88.14173446147151
 20
-140.7039007894768
 30
0.0
 10
88.00203583954463
 20
-140.6067490967928
 30
0.0
 10
87.86664358697432
 20
-140.6067490967928
 30
0.0
  0
HATCH
  5
11D
330
117
100
AcDbEntity
  8
_U+30EC_U+30A4_U+30E4_U+30FC 1
 62
   179
420
  2234388
100
AcDbHatch
 10
0.0
 20
0.0
 30
0.0
210
0.0
220
0.0
230
1.0
  2
SOLID
 70
     1
 71
     0
 91
        2
 92
        1
 93
        1
 72
     4
 94
        3
 73
     0
 74
     1
 95
       32
 96
       28
 40
0.0
 40
0.0
 40
0.0
 40
0.0
 40
1.0
 40
1.0
 40
1.0
 40
2.0
 40
2.0
 40
2.0
 40
3.0
 40
3.0
 40
3.0
 40
4.0
 40
4.0
 40
4.0
 40
5.0
 40
5.0
 40
5.0
 40
6.0
 40
6.0
 40
6.0
 40
7.0
 40
7.0
 40
7.0
 40
8.0
 40
8.0
 40
8.0
 40
9.0
 40
9.0
 40
9.0
 40
9.0
 10
87.8497626190966
 20
-141.4656114012656
 10
87.3335150606319
 20
-141.4656114012656
 10
87.32507457669304
 20
-140.9112955376889
 10
87.32507457669304
 20
-140.6976996176033
 10
87.32507457669304
 20
-140.4672227296402
 10
87.34402260186191
 20
-139.8198892879617
 10
87.8878309242086
 20
-139.8198892879617
 10
88.06129148189093
 20
-139.8198892879617
 10
88.30658228044072
 20
-139.8894802167638
 10
88.34465058555273
 20
-140.2215874215418
 10
88.34465058555273
 20
-140.2215874215418
 10
88.13105466546725
 20
-140.2215874215418
 10
88.13105466546725
 20
-140.2215874215418
 10
88.12054712423723
 20
-140.1643988364867
 10
88.08867999099867
 20
-140.0166042401695
 10
87.88559161214319
 20
-140.0166042401695
 10
87.59379202454252
 20
-140.0166042401695
 10
87.5534844073651
 20
-140.3442328208167
 10
87.54090980884395
 20
-140.5495605117376
 10
87.63392738694569
 20
-140.4713568442224
 10
87.70162351323084
 20
-140.4121012018761
 10
87.88352455485204
 20
-140.4121012018761
 10
88.06335853918208
 20
-140.4121012018761
 10
88.36583792278702
 20
-140.5199326905645
 10
88.36583792278702
 20
-140.9261094482754
 10
88.36583792278702
 20
-141.2454697997581
 10
88.1670559132881
 20
-141.4656114012656
 10
87.8497626190966
 20
-141.4656114012656
 97
        0
 97
        0
 92
        1
 93
        1
 72
     4
 94
        3
 73
     0
 74
     1
 95
       17
 96
       13
 40
0.0
 40
0.0
 40
0.0
 40
0.0
 40
1.0
 40
1.0
 40
1.0
 40
2.0
 40
2.0
 40
2.0
 40
3.0
 40
3.0
 40
3.0
 40
4.0
 40
4.0
 40
4.0
 40
4.0
 10
87.86664358697432
 20
-140.6067490967928
 10
87.60429956577254
 20
-140.6067490967928
 10
87.56623126066053
 20
-140.8182779595871
 10
87.56623126066053
 20
-140.9347221869886
 10
87.56623126066053
 20
-141.1100775471878
 10
87.6614881508277
 20
-141.2730305636401
 10
87.84545624974002
 20
-141.2730305636401
 10
87.96603459172377
 20
-141.2730305636401
 10
88.14173446147151
 20
-141.2137749212938
 10
88.14173446147151
 20
-140.9281765055666
 10
88.14173446147151
 20
-140.7039007894768
 10
88.00203583954463
 20
-140.6067490967928
 10
87.86664358697432
 20
-140.6067490967928
 97
        0
 97
        0
 75
     2
 76
     1
 98
        0
  0
ENDBLK
  5
11A
330
117
100
AcDbEntity
  8
0
100
AcDbBlockEnd
  0
BLOCK
  5
12F
330
12D
100
AcDbEntity
  8
0
100
AcDbBlockBegin
  2
block 4
 70
     0
 10
0.0
 20
0.0
 30
0.0
  3
block 4
  1

  0
SPLINE
  5
131
330
12D
100
AcDbEntity
  8
_U+30EC_U+30A4_U+30E4_U+30FC 1
370
     0
100
AcDbSpline
210
0.0
220
0.0
230
1.0
 70
    11
 71
     3
 72
    29
 73
    25
 74
     0
 42
0.0000000001
 43
0.0000000001
 12
1.0
 22
0.0
 32
0.0
 13
1.0
 23
0.0
 33
0.0
 40
0.0
 40
0.0
 40
0.0
 40
0.0
 40
1.0
 40
1.0
 40
1.0
 40
2.0
 40
2.0
 40
2.0
 40
3.0
 40
3.0
 40
3.0
 40
4.0
 40
4.0
 40
4.0
 40
5.0
 40
5.0
 40
5.0
 40
6.0
 40
6.0
 40
6.0
 40
7.0
 40
7.0
 40
7.0
 40
8.0
 40
8.0
 40
8.0
 40
8.0
 10
94.84554576621917
 20
-141.4656114012656
 30
0.0
 10
94.57889537566084
 20
-141.4656114012656
 30
0.0
 10
94.32499183839792
 20
-141.3281520914041
 30
0.0
 10
94.32499183839792
 20
-140.9791639187483
 30
0.0
 10
94.32499183839792
 20
-140.7231933241942
 30
0.0
 10
94.46658526284169
 20
-140.6277641792528
 30
0.0
 10
94.57234969423887
 20
-140.5664414796153
 30
0.0
 10
94.44763723767282
 20
-140.507185837269
 30
0.0
 10
94.3715006274488
 20
-140.3931531767073
 30
0.0
 10
94.3715006274488
 20
-140.2322672175461
 30
0.0
 10
94.3715006274488
 20
-139.9573485978232
 30
0.0
 10
94.57028263694771
 20
-139.8219563452529
 30
0.0
 10
94.84554576621917
 20
-139.8219563452529
 30
0.0
 10
95.12873261510671
 20
-139.8219563452529
 30
0.0
 10
95.31924639544103
 20
-139.9656168269878
 30
0.0
 10
95.31924639544103
 20
-140.2322672175461
 30
0.0
 10
95.31924639544103
 20
-140.3931531767073
 30
0.0
 10
95.24104272792586
 20
-140.507185837269
 30
0.0
 10
95.11633027135981
 20
-140.5664414796153
 30
0.0
 10
95.20486922533073
 20
-140.6174288927971
 30
0.0
 10
95.36368812720075
 20
-140.7125135281899
 30
0.0
 10
95.36368812720075
 20
-140.9746852946174
 30
0.0
 10
95.36368812720075
 20
-141.3491671738641
 30
0.0
 10
95.08429088334698
 20
-141.4656114012656
 30
0.0
 10
94.84554576621917
 20
-141.4656114012656
 30
0.0
  0
SPLINE
  5
132
330
12D
100
AcDbEntity
  8
_U+30EC_U+30A4_U+30E4_U+30FC 1
370
     0
100
AcDbSpline
210
0.0
220
0.0
230
1.0
 70
    11
 71
     3
 72
    17
 73
    13
 74
     0
 42
0.0000000001
 43
0.0000000001
 12
1.0
 22
0.0
 32
0.0
 13
1.0
 23
0.0
 33
0.0
 40
0.0
 40
0.0
 40
0.0
 40
0.0
 40
1.0
 40
1.0
 40
1.0
 40
2.0
 40
2.0
 40
2.0
 40
3.0
 40
3.0
 40
3.0
 40
4.0
 40
4.0
 40
4.0
 40
4.0
 10
94.84554576621917
 20
-140.6742729683037
 30
0.0
 10
94.70154077493574
 20
-140.6742729683037
 30
0.0
 10
94.54926755448768
 20
-140.761089374532
 30
0.0
 10
94.54926755448768
 20
-140.9643500081617
 30
0.0
 10
94.54926755448768
 20
-141.1693331895341
 30
0.0
 10
94.67604706834489
 20
-141.2709635063489
 30
0.0
 10
94.84554576621917
 20
-141.2709635063489
 30
0.0
 10
95.03158092242266
 20
-141.2709635063489
 30
0.0
 10
95.14147946840214
 20
-141.148318107074
 30
0.0
 10
95.14147946840214
 20
-140.9705511800352
 30
0.0
 10
95.14147946840214
 20
-140.7483425212365
 30
0.0
 10
94.97852645194982
 20
-140.6742729683037
 30
0.0
 10
94.84554576621917
 20
-140.6742729683037
 30
0.0
  0
SPLINE
  5
133
330
12D
100
AcDbEntity
  8
_U+30EC_U+30A4_U+30E4_U+30FC 1
370
     0
100
AcDbSpline
210
0.0
220
0.0
230
1.0
 70
    11
 71
     3
 72
    17
 73
    13
 74
     0
 42
0.0000000001
 43
0.0000000001
 12
1.0
 22
0.0
 32
0.0
 13
1.0
 23
0.0
 33
0.0
 40
0.0
 40
0.0
 40
0.0
 40
0.0
 40
1.0
 40
1.0
 40
1.0
 40
2.0
 40
2.0
 40
2.0
 40
3.0
 40
3.0
 40
3.0
 40
4.0
 40
4.0
 40
4.0
 40
4.0
 10
94.84554576621917
 20
-140.0141926733298
 30
0.0
 10
94.68052569247571
 20
-140.0141926733298
 30
0.0
 10
94.59577634353856
 20
-140.1096218182712
 30
0.0
 10
94.59577634353856
 20
-140.2450140708415
 30
0.0
 10
94.59577634353856
 20
-140.3676594701164
 30
0.0
 10
94.66777883918029
 20
-140.486170754809
 30
0.0
 10
94.84554576621917
 20
-140.486170754809
 30
0.0
 10
95.02296818370954
 20
-140.486170754809
 30
0.0
 10
95.09497067935126
 20
-140.3676594701164
 30
0.0
 10
95.09497067935126
 20
-140.2450140708415
 30
0.0
 10
95.09497067935126
 20
-140.1096218182712
 30
0.0
 10
95.00815427312297
 20
-140.0141926733298
 30
0.0
 10
94.84554576621917
 20
-140.0141926733298
 30
0.0
  0
HATCH
  5
134
330
12D
100
AcDbEntity
  8
_U+30EC_U+30A4_U+30E4_U+30FC 1
 62
   179
420
  2234388
100
AcDbHatch
 10
0.0
 20
0.0
 30
0.0
210
0.0
220
0.0
230
1.0
  2
SOLID
 70
     1
 71
     0
 91
        3
 92
        1
 93
        1
 72
     4
 94
        3
 73
     0
 74
     1
 95
       29
 96
       25
 40
0.0
 40
0.0
 40
0.0
 40
0.0
 40
1.0
 40
1.0
 40
1.0
 40
2.0
 40
2.0
 40
2.0
 40
3.0
 40
3.0
 40
3.0
 40
4.0
 40
4.0
 40
4.0
 40
5.0
 40
5.0
 40
5.0
 40
6.0
 40
6.0
 40
6.0
 40
7.0
 40
7.0
 40
7.0
 40
8.0
 40
8.0
 40
8.0
 40
8.0
 10
94.84554576621917
 20
-141.4656114012656
 10
94.57889537566084
 20
-141.4656114012656
 10
94.32499183839792
 20
-141.3281520914041
 10
94.32499183839792
 20
-140.9791639187483
 10
94.32499183839792
 20
-140.7231933241942
 10
94.46658526284169
 20
-140.6277641792528
 10
94.57234969423887
 20
-140.5664414796153
 10
94.44763723767282
 20
-140.507185837269
 10
94.3715006274488
 20
-140.3931531767073
 10
94.3715006274488
 20
-140.2322672175461
 10
94.3715006274488
 20
-139.9573485978232
 10
94.57028263694771
 20
-139.8219563452529
 10
94.84554576621917
 20
-139.8219563452529
 10
95.12873261510671
 20
-139.8219563452529
 10
95.31924639544103
 20
-139.9656168269878
 10
95.31924639544103
 20
-140.2322672175461
 10
95.31924639544103
 20
-140.3931531767073
 10
95.24104272792586
 20
-140.507185837269
 10
95.11633027135981
 20
-140.5664414796153
 10
95.20486922533073
 20
-140.6174288927971
 10
95.36368812720075
 20
-140.7125135281899
 10
95.36368812720075
 20
-140.9746852946174
 10
95.36368812720075
 20
-141.3491671738641
 10
95.08429088334698
 20
-141.4656114012656
 10
94.84554576621917
 20
-141.4656114012656
 97
        0
 97
        0
 92
        1
 93
        1
 72
     4
 94
        3
 73
     0
 74
     1
 95
       17
 96
       13
 40
0.0
 40
0.0
 40
0.0
 40
0.0
 40
1.0
 40
1.0
 40
1.0
 40
2.0
 40
2.0
 40
2.0
 40
3.0
 40
3.0
 40
3.0
 40
4.0
 40
4.0
 40
4.0
 40
4.0
 10
94.84554576621917
 20
-140.6742729683037
 10
94.70154077493574
 20
-140.6742729683037
 10
94.54926755448768
 20
-140.761089374532
 10
94.54926755448768
 20
-140.9643500081617
 10
94.54926755448768
 20
-141.1693331895341
 10
94.67604706834489
 20
-141.2709635063489
 10
94.84554576621917
 20
-141.2709635063489
 10
95.03158092242266
 20
-141.2709635063489
 10
95.14147946840214
 20
-141.148318107074
 10
95.14147946840214
 20
-140.9705511800352
 10
95.14147946840214
 20
-140.7483425212365
 10
94.97852645194982
 20
-140.6742729683037
 10
94.84554576621917
 20
-140.6742729683037
 97
        0
 97
        0
 92
        1
 93
        1
 72
     4
 94
        3
 73
     0
 74
     1
 95
       17
 96
       13
 40
0.0
 40
0.0
 40
0.0
 40
0.0
 40
1.0
 40
1.0
 40
1.0
 40
2.0
 40
2.0
 40
2.0
 40
3.0
 40
3.0
 40
3.0
 40
4.0
 40
4.0
 40
4.0
 40
4.0
 10
94.84554576621917
 20
-140.0141926733298
 10
94.68052569247571
 20
-140.0141926733298
 10
94.59577634353856
 20
-140.1096218182712
 10
94.59577634353856
 20
-140.2450140708415
 10
94.59577634353856
 20
-140.3676594701164
 10
94.66777883918029
 20
-140.486170754809
 10
94.84554576621917
 20
-140.486170754809
 10
95.02296818370954
 20
-140.486170754809
 10
95.09497067935126
 20
-140.3676594701164
 10
95.09497067935126
 20
-140.2450140708415
 10
95.09497067935126
 20
-140.1096218182712
 10
95.00815427312297
 20
-140.0141926733298
 10
94.84554576621917
 20
-140.0141926733298
 97
        0
 97
        0
 75
     2
 76
     1
 98
        0
  0
ENDBLK
  5
130
330
12D
100
AcDbEntity
  8
0
100
AcDbBlockEnd
  0
BLOCK
  5
142
330
140
100
AcDbEntity
  8
0
100
AcDbBlockBegin
  2
block 5
 70
     0
 10
0.0
 20
0.0
 30
0.0
  3
block 5
  1

  0
SPLINE
  5
144
330
140
100
AcDbEntity
  8
_U+30EC_U+30A4_U+30E4_U+30FC 1
370
     0
100
AcDbSpline
210
0.0
220
0.0
230
1.0
 70
    11
 71
     3
 72
    32
 73
    28
 74
     0
 42
0.0000000001
 43
0.0000000001
 12
1.0
 22
0.0
 32
0.0
 13
1.0
 23
0.0
 33
0.0
 40
0.0
 40
0.0
 40
0.0
 40
0.0
 40
1.0
 40
1.0
 40
1.0
 40
2.0
 40
2.0
 40
2.0
 40
3.0
 40
3.0
 40
3.0
 40
4.0
 40
4.0
 40
4.0
 40
5.0
 40
5.0
 40
5.0
 40
6.0
 40
6.0
 40
6.0
 40
7.0
 40
7.0
 40
7.0
 40
8.0
 40
8.0
 40
8.0
 40
9.0
 40
9.0
 40
9.0
 40
9.0
 10
101.8497693972806
 20
-141.4656114012656
 30
0.0
 10
101.3336940935902
 20
-141.4656114012656
 30
0.0
 10
101.3250813548771
 20
-140.9112955376889
 30
0.0
 10
101.3250813548771
 20
-140.6976996176033
 30
0.0
 10
101.3250813548771
 20
-140.4672227296402
 30
0.0
 10
101.3440293800459
 20
-139.8198892879617
 30
0.0
 10
101.8876654476184
 20
-139.8198892879617
 30
0.0
 10
102.061298260075
 20
-139.8198892879617
 30
0.0
 10
102.3065890586248
 20
-139.8894802167638
 30
0.0
 10
102.344829618511
 20
-140.2215874215418
 30
0.0
 10
102.344829618511
 20
-140.2215874215418
 30
0.0
 10
102.1312336984255
 20
-140.2215874215418
 30
0.0
 10
102.1312336984255
 20
-140.2215874215418
 30
0.0
 10
102.1205539024212
 20
-140.1643988364867
 30
0.0
 10
102.088859023957
 20
-140.0166042401695
 30
0.0
 10
101.8855983903272
 20
-140.0166042401695
 30
0.0
 10
101.5937988027266
 20
-140.0166042401695
 30
0.0
 10
101.5534911855491
 20
-140.3442328208167
 30
0.0
 10
101.5407443322537
 20
-140.5495605117376
 30
0.0
 10
101.6337619103555
 20
-140.4713568442224
 30
0.0
 10
101.7016302914149
 20
-140.4121012018761
 30
0.0
 10
101.8835313330361
 20
-140.4121012018761
 30
0.0
 10
102.0633653173661
 20
-140.4121012018761
 30
0.0
 10
102.365844700971
 20
-140.5199326905645
 30
0.0
 10
102.365844700971
 20
-140.9261094482754
 30
0.0
 10
102.365844700971
 20
-141.2454697997581
 30
0.0
 10
102.1670626914721
 20
-141.4656114012656
 30
0.0
 10
101.8497693972806
 20
-141.4656114012656
 30
0.0
  0
SPLINE
  5
145
330
140
100
AcDbEntity
  8
_U+30EC_U+30A4_U+30E4_U+30FC 1
370
     0
100
AcDbSpline
210
0.0
220
0.0
230
1.0
 70
    11
 71
     3
 72
    17
 73
    13
 74
     0
 42
0.0000000001
 43
0.0000000001
 12
1.0
 22
0.0
 32
0.0
 13
1.0
 23
0.0
 33
0.0
 40
0.0
 40
0.0
 40
0.0
 40
0.0
 40
1.0
 40
1.0
 40
1.0
 40
2.0
 40
2.0
 40
2.0
 40
3.0
 40
3.0
 40
3.0
 40
4.0
 40
4.0
 40
4.0
 40
4.0
 10
101.8666503651583
 20
-140.6067490967928
 30
0.0
 10
101.6044785987308
 20
-140.6067490967928
 30
0.0
 10
101.5662380388446
 20
-140.8182779595871
 30
0.0
 10
101.5662380388446
 20
-140.9347221869886
 30
0.0
 10
101.5662380388446
 20
-141.1100775471878
 30
0.0
 10
101.6613226742375
 20
-141.2730305636401
 30
0.0
 10
101.8456352826983
 20
-141.2730305636401
 30
0.0
 10
101.9662136246821
 20
-141.2730305636401
 30
0.0
 10
102.1415689848813
 20
-141.2137749212938
 30
0.0
 10
102.1415689848813
 20
-140.9281765055666
 30
0.0
 10
102.1415689848813
 20
-140.7039007894768
 30
0.0
 10
102.0020426177287
 20
-140.6067490967928
 30
0.0
 10
101.8666503651583
 20
-140.6067490967928
 30
0.0
  0
HATCH
  5
146
330
140
100
AcDbEntity
  8
_U+30EC_U+30A4_U+30E4_U+30FC 1
 62
   179
420
  2234388
100
AcDbHatch
 10
0.0
 20
0.0
 30
0.0
210
0.0
220
0.0
230
1.0
  2
SOLID
 70
     1
 71
     0
 91
        2
 92
        1
 93
        1
 72
     4
 94
        3
 73
     0
 74
     1
 95
       32
 96
       28
 40
0.0
 40
0.0
 40
0.0
 40
0.0
 40
1.0
 40
1.0
 40
1.0
 40
2.0
 40
2.0
 40
2.0
 40
3.0
 40
3.0
 40
3.0
 40
4.0
 40
4.0
 40
4.0
 40
5.0
 40
5.0
 40
5.0
 40
6.0
 40
6.0
 40
6.0
 40
7.0
 40
7.0
 40
7.0
 40
8.0
 40
8.0
 40
8.0
 40
9.0
 40
9.0
 40
9.0
 40
9.0
 10
101.8497693972806
 20
-141.4656114012656
 10
101.3336940935902
 20
-141.4656114012656
 10
101.3250813548771
 20
-140.9112955376889
 10
101.3250813548771
 20
-140.6976996176033
 10
101.3250813548771
 20
-140.4672227296402
 10
101.3440293800459
 20
-139.8198892879617
 10
101.8876654476184
 20
-139.8198892879617
 10
102.061298260075
 20
-139.8198892879617
 10
102.3065890586248
 20
-139.8894802167638
 10
102.344829618511
 20
-140.2215874215418
 10
102.344829618511
 20
-140.2215874215418
 10
102.1312336984255
 20
-140.2215874215418
 10
102.1312336984255
 20
-140.2215874215418
 10
102.1205539024212
 20
-140.1643988364867
 10
102.088859023957
 20
-140.0166042401695
 10
101.8855983903272
 20
-140.0166042401695
 10
101.5937988027266
 20
-140.0166042401695
 10
101.5534911855491
 20
-140.3442328208167
 10
101.5407443322537
 20
-140.5495605117376
 10
101.6337619103555
 20
-140.4713568442224
 10
101.7016302914149
 20
-140.4121012018761
 10
101.8835313330361
 20
-140.4121012018761
 10
102.0633653173661
 20
-140.4121012018761
 10
102.365844700971
 20
-140.5199326905645
 10
102.365844700971
 20
-140.9261094482754
 10
102.365844700971
 20
-141.2454697997581
 10
102.1670626914721
 20
-141.4656114012656
 10
101.8497693972806
 20
-141.4656114012656
 97
        0
 97
        0
 92
        1
 93
        1
 72
     4
 94
        3
 73
     0
 74
     1
 95
       17
 96
       13
 40
0.0
 40
0.0
 40
0.0
 40
0.0
 40
1.0
 40
1.0
 40
1.0
 40
2.0
 40
2.0
 40
2.0
 40
3.0
 40
3.0
 40
3.0
 40
4.0
 40
4.0
 40
4.0
 40
4.0
 10
101.8666503651583
 20
-140.6067490967928
 10
101.6044785987308
 20
-140.6067490967928
 10
101.5662380388446
 20
-140.8182779595871
 10
101.5662380388446
 20
-140.9347221869886
 10
101.5662380388446
 20
-141.1100775471878
 10
101.6613226742375
 20
-141.2730305636401
 10
101.8456352826983
 20
-141.2730305636401
 10
101.9662136246821
 20
-141.2730305636401
 10
102.1415689848813
 20
-141.2137749212938
 10
102.1415689848813
 20
-140.9281765055666
 10
102.1415689848813
 20
-140.7039007894768
 10
102.0020426177287
 20
-140.6067490967928
 10
101.8666503651583
 20
-140.6067490967928
 97
        0
 97
        0
 75
     2
 76
     1
 98
        0
  0
ENDBLK
  5
143
330
140
100
AcDbEntity
  8
0
100
AcDbBlockEnd
  0
BLOCK
  5
158
330
156
100
AcDbEntity
  8
0
100
AcDbBlockBegin
  2
block 6
 70
     0
 10
0.0
 20
0.0
 30
0.0
  3
block 6
  1

  0
SPLINE
  5
15A
330
156
100
AcDbEntity
  8
_U+30EC_U+30A4_U+30E4_U+30FC 1
370
     0
100
AcDbSpline
210
0.0
220
0.0
230
1.0
 70
    11
 71
     3
 72
    44
 73
    40
 74
     0
 42
0.0000000001
 43
0.0000000001
 12
1.0
 22
0.0
 32
0.0
 13
1.0
 23
0.0
 33
0.0
 40
0.0
 40
0.0
 40
0.0
 40
0.0
 40
1.0
 40
1.0
 40
1.0
 40
2.0
 40
2.0
 40
2.0
 40
3.0
 40
3.0
 40
3.0
 40
4.0
 40
4.0
 40
4.0
 40
5.0
 40
5.0
 40
5.0
 40
6.0
 40
6.0
 40
6.0
 40
7.0
 40
7.0
 40
7.0
 40
8.0
 40
8.0
 40
8.0
 40
9.0
 40
9.0
 40
9.0
 40
10.0
 40
10.0
 40
10.0
 40
11.0
 40
11.0
 40
11.0
 40
12.0
 40
12.0
 40
12.0
 40
13.0
 40
13.0
 40
13.0
 40
13.0
 10
79.8914197933952
 20
-136.6948431732916
 30
0.0
 10
80.05006644049097
 20
-136.9129177175079
 30
0.0
 10
80.12413599342383
 20
-137.0059352956096
 30
0.0
 10
80.26796872993302
 20
-137.0545111419517
 30
0.0
 10
80.26796872993302
 20
-137.0545111419517
 30
0.0
 10
80.26796872993302
 20
-136.2759195622852
 30
0.0
 10
80.26796872993302
 20
-136.2759195622852
 30
0.0
 10
80.26796872993302
 20
-136.2759195622852
 30
0.0
 10
80.47312416607964
 20
-136.2759195622852
 30
0.0
 10
80.47312416607964
 20
-136.2759195622852
 30
0.0
 10
80.47312416607964
 20
-136.2759195622852
 30
0.0
 10
80.47312416607964
 20
-137.3042805646323
 30
0.0
 10
80.47312416607964
 20
-137.3042805646323
 30
0.0
 10
80.11569550948496
 20
-137.272585686168
 30
0.0
 10
80.03731958719554
 20
-137.2067843623997
 30
0.0
 10
79.73914657294716
 20
-136.8219671966973
 30
0.0
 10
79.54019230867398
 20
-136.5659966021432
 30
0.0
 10
79.47249618238882
 20
-136.5001952783749
 30
0.0
 10
79.33503687252735
 20
-136.5001952783749
 30
0.0
 10
79.21652558783477
 20
-136.5001952783749
 30
0.0
 10
79.08543970462101
 20
-136.5721977740167
 30
0.0
 10
79.08543970462101
 20
-136.7689127262244
 30
0.0
 10
79.08543970462101
 20
-137.0293619449093
 30
0.0
 10
79.31591659258422
 20
-137.0376301740739
 30
0.0
 10
79.43236081998566
 20
-137.0417642886562
 30
0.0
 10
79.43236081998566
 20
-137.0417642886562
 30
0.0
 10
79.43236081998566
 20
-137.266040004746
 30
0.0
 10
79.43236081998566
 20
-137.266040004746
 30
0.0
 10
79.3054090513542
 20
-137.2577717755814
 30
0.0
 10
79.19327119330933
 20
-137.2470919795771
 30
0.0
 10
79.07475990861673
 20
-137.1668212547708
 30
0.0
 10
78.91404620422982
 20
-137.0565781992428
 30
0.0
 10
78.88011201370011
 20
-136.8705430430393
 30
0.0
 10
78.88011201370011
 20
-136.7540988156379
 30
0.0
 10
78.88011201370011
 20
-136.4771131386238
 30
0.0
 10
79.06425236738671
 20
-136.2697183904118
 30
0.0
 10
79.33710392981851
 20
-136.2697183904118
 30
0.0
 10
79.56568601526483
 20
-136.2697183904118
 30
0.0
 10
79.6650770200143
 20
-136.3861626178132
 30
0.0
 10
79.8914197933952
 20
-136.6948431732916
 30
0.0
  0
HATCH
  5
15B
330
156
100
AcDbEntity
  8
_U+30EC_U+30A4_U+30E4_U+30FC 1
 62
   179
420
  2234388
100
AcDbHatch
 10
0.0
 20
0.0
 30
0.0
210
0.0
220
0.0
230
1.0
  2
SOLID
 70
     1
 71
     0
 91
        1
 92
        1
 93
        1
 72
     4
 94
        3
 73
     0
 74
     1
 95
       44
 96
       40
 40
0.0
 40
0.0
 40
0.0
 40
0.0
 40
1.0
 40
1.0
 40
1.0
 40
2.0
 40
2.0
 40
2.0
 40
3.0
 40
3.0
 40
3.0
 40
4.0
 40
4.0
 40
4.0
 40
5.0
 40
5.0
 40
5.0
 40
6.0
 40
6.0
 40
6.0
 40
7.0
 40
7.0
 40
7.0
 40
8.0
 40
8.0
 40
8.0
 40
9.0
 40
9.0
 40
9.0
 40
10.0
 40
10.0
 40
10.0
 40
11.0
 40
11.0
 40
11.0
 40
12.0
 40
12.0
 40
12.0
 40
13.0
 40
13.0
 40
13.0
 40
13.0
 10
79.8914197933952
 20
-136.6948431732916
 10
80.05006644049097
 20
-136.9129177175079
 10
80.12413599342383
 20
-137.0059352956096
 10
80.26796872993302
 20
-137.0545111419517
 10
80.26796872993302
 20
-137.0545111419517
 10
80.26796872993302
 20
-136.2759195622852
 10
80.26796872993302
 20
-136.2759195622852
 10
80.26796872993302
 20
-136.2759195622852
 10
80.47312416607964
 20
-136.2759195622852
 10
80.47312416607964
 20
-136.2759195622852
 10
80.47312416607964
 20
-136.2759195622852
 10
80.47312416607964
 20
-137.3042805646323
 10
80.47312416607964
 20
-137.3042805646323
 10
80.11569550948496
 20
-137.272585686168
 10
80.03731958719554
 20
-137.2067843623997
 10
79.73914657294716
 20
-136.8219671966973
 10
79.54019230867398
 20
-136.5659966021432
 10
79.47249618238882
 20
-136.5001952783749
 10
79.33503687252735
 20
-136.5001952783749
 10
79.21652558783477
 20
-136.5001952783749
 10
79.08543970462101
 20
-136.5721977740167
 10
79.08543970462101
 20
-136.7689127262244
 10
79.08543970462101
 20
-137.0293619449093
 10
79.31591659258422
 20
-137.0376301740739
 10
79.43236081998566
 20
-137.0417642886562
 10
79.43236081998566
 20
-137.0417642886562
 10
79.43236081998566
 20
-137.266040004746
 10
79.43236081998566
 20
-137.266040004746
 10
79.3054090513542
 20
-137.2577717755814
 10
79.19327119330933
 20
-137.2470919795771
 10
79.07475990861673
 20
-137.1668212547708
 10
78.91404620422982
 20
-137.0565781992428
 10
78.88011201370011
 20
-136.8705430430393
 10
78.88011201370011
 20
-136.7540988156379
 10
78.88011201370011
 20
-136.4771131386238
 10
79.06425236738671
 20
-136.2697183904118
 10
79.33710392981851
 20
-136.2697183904118
 10
79.56568601526483
 20
-136.2697183904118
 10
79.6650770200143
 20
-136.3861626178132
 10
79.8914197933952
 20
-136.6948431732916
 97
        0
 97
        0
 75
     2
 76
     1
 98
        0
  0
ENDBLK
  5
159
330
156
100
AcDbEntity
  8
0
100
AcDbBlockEnd
  0
BLOCK
  5
16D
330
16B
100
AcDbEntity
  8
0
100
AcDbBlockBegin
  2
block 7
 70
     0
 10
0.0
 20
0.0
 30
0.0
  3
block 7
  1

  0
SPLINE
  5
16F
330
16B
100
AcDbEntity
  8
_U+30EC_U+30A4_U+30E4_U+30FC 1
370
     0
100
AcDbSpline
210
0.0
220
0.0
230
1.0
 70
    11
 71
     3
 72
    26
 73
    22
 74
     0
 42
0.0000000001
 43
0.0000000001
 12
1.0
 22
0.0
 32
0.0
 13
1.0
 23
0.0
 33
0.0
 40
0.0
 40
0.0
 40
0.0
 40
0.0
 40
1.0
 40
1.0
 40
1.0
 40
2.0
 40
2.0
 40
2.0
 40
3.0
 40
3.0
 40
3.0
 40
4.0
 40
4.0
 40
4.0
 40
5.0
 40
5.0
 40
5.0
 40
6.0
 40
6.0
 40
6.0
 40
7.0
 40
7.0
 40
7.0
 40
7.0
 10
80.47312416607964
 20
-131.0376518769628
 30
0.0
 10
80.47312416607964
 20
-131.0376518769628
 30
0.0
 10
79.3687988082828
 20
-131.0376518769628
 30
0.0
 10
79.3687988082828
 20
-131.0376518769628
 30
0.0
 10
79.3687988082828
 20
-131.0376518769628
 30
0.0
 10
79.3687988082828
 20
-131.3676920244498
 30
0.0
 10
79.3687988082828
 20
-131.3676920244498
 30
0.0
 10
79.3687988082828
 20
-131.3676920244498
 30
0.0
 10
79.22083195719132
 20
-131.3676920244498
 30
0.0
 10
79.22083195719132
 20
-131.3676920244498
 30
0.0
 10
79.20601804660475
 20
-131.0355848196717
 30
0.0
 10
79.04306503015243
 20
-130.9890760306208
 30
0.0
 10
78.9288601148164
 20
-130.9594482094477
 30
0.0
 10
78.9288601148164
 20
-130.9594482094477
 30
0.0
 10
78.9288601148164
 20
-130.813376160873
 30
0.0
 10
78.9288601148164
 20
-130.813376160873
 30
0.0
 10
78.9288601148164
 20
-130.813376160873
 30
0.0
 10
80.47312416607964
 20
-130.813376160873
 30
0.0
 10
80.47312416607964
 20
-130.813376160873
 30
0.0
 10
80.47312416607964
 20
-130.813376160873
 30
0.0
 10
80.47312416607964
 20
-131.0376518769628
 30
0.0
 10
80.47312416607964
 20
-131.0376518769628
 30
0.0
  0
HATCH
  5
170
330
16B
100
AcDbEntity
  8
_U+30EC_U+30A4_U+30E4_U+30FC 1
 62
   179
420
  2234388
100
AcDbHatch
 10
0.0
 20
0.0
 30
0.0
210
0.0
220
0.0
230
1.0
  2
SOLID
 70
     1
 71
     0
 91
        1
 92
        1
 93
        1
 72
     4
 94
        3
 73
     0
 74
     1
 95
       26
 96
       22
 40
0.0
 40
0.0
 40
0.0
 40
0.0
 40
1.0
 40
1.0
 40
1.0
 40
2.0
 40
2.0
 40
2.0
 40
3.0
 40
3.0
 40
3.0
 40
4.0
 40
4.0
 40
4.0
 40
5.0
 40
5.0
 40
5.0
 40
6.0
 40
6.0
 40
6.0
 40
7.0
 40
7.0
 40
7.0
 40
7.0
 10
80.47312416607964
 20
-131.0376518769628
 10
80.47312416607964
 20
-131.0376518769628
 10
79.3687988082828
 20
-131.0376518769628
 10
79.3687988082828
 20
-131.0376518769628
 10
79.3687988082828
 20
-131.0376518769628
 10
79.3687988082828
 20
-131.3676920244498
 10
79.3687988082828
 20
-131.3676920244498
 10
79.3687988082828
 20
-131.3676920244498
 10
79.22083195719132
 20
-131.3676920244498
 10
79.22083195719132
 20
-131.3676920244498
 10
79.20601804660475
 20
-131.0355848196717
 10
79.04306503015243
 20
-130.9890760306208
 10
78.9288601148164
 20
-130.9594482094477
 10
78.9288601148164
 20
-130.9594482094477
 10
78.9288601148164
 20
-130.813376160873
 10
78.9288601148164
 20
-130.813376160873
 10
78.9288601148164
 20
-130.813376160873
 10
80.47312416607964
 20
-130.813376160873
 10
80.47312416607964
 20
-130.813376160873
 10
80.47312416607964
 20
-130.813376160873
 10
80.47312416607964
 20
-131.0376518769628
 10
80.47312416607964
 20
-131.0376518769628
 97
        0
 97
        0
 75
     2
 76
     1
 98
        0
  0
SPLINE
  5
171
330
16B
100
AcDbEntity
  8
_U+30EC_U+30A4_U+30E4_U+30FC 1
370
     0
100
AcDbSpline
210
0.0
220
0.0
230
1.0
 70
    11
 71
     3
 72
    44
 73
    40
 74
     0
 42
0.0000000001
 43
0.0000000001
 12
1.0
 22
0.0
 32
0.0
 13
1.0
 23
0.0
 33
0.0
 40
0.0
 40
0.0
 40
0.0
 40
0.0
 40
1.0
 40
1.0
 40
1.0
 40
2.0
 40
2.0
 40
2.0
 40
3.0
 40
3.0
 40
3.0
 40
4.0
 40
4.0
 40
4.0
 40
5.0
 40
5.0
 40
5.0
 40
6.0
 40
6.0
 40
6.0
 40
7.0
 40
7.0
 40
7.0
 40
8.0
 40
8.0
 40
8.0
 40
9.0
 40
9.0
 40
9.0
 40
10.0
 40
10.0
 40
10.0
 40
11.0
 40
11.0
 40
11.0
 40
12.0
 40
12.0
 40
12.0
 40
13.0
 40
13.0
 40
13.0
 40
13.0
 10
79.8914197933952
 20
-129.7188693252092
 30
0.0
 10
80.05006644049097
 20
-129.9369438694255
 30
0.0
 10
80.12413599342383
 20
-130.0299614475272
 30
0.0
 10
80.26796872993302
 20
-130.0785372938693
 30
0.0
 10
80.26796872993302
 20
-130.0785372938693
 30
0.0
 10
80.26796872993302
 20
-129.3002902237513
 30
0.0
 10
80.26796872993302
 20
-129.3002902237513
 30
0.0
 10
80.26796872993302
 20
-129.3002902237513
 30
0.0
 10
80.47312416607964
 20
-129.3002902237513
 30
0.0
 10
80.47312416607964
 20
-129.3002902237513
 30
0.0
 10
80.47312416607964
 20
-129.3002902237513
 30
0.0
 10
80.47312416607964
 20
-130.3283067165499
 30
0.0
 10
80.47312416607964
 20
-130.3283067165499
 30
0.0
 10
80.11569550948496
 20
-130.2966118380856
 30
0.0
 10
80.03731958719554
 20
-130.2308105143173
 30
0.0
 10
79.73914657294716
 20
-129.8459933486149
 30
0.0
 10
79.54019230867398
 20
-129.5900227540608
 30
0.0
 10
79.47249618238882
 20
-129.5242214302926
 30
0.0
 10
79.33503687252735
 20
-129.5242214302926
 30
0.0
 10
79.21652558783477
 20
-129.5242214302926
 30
0.0
 10
79.08543970462101
 20
-129.5962239259343
 30
0.0
 10
79.08543970462101
 20
-129.7929388781421
 30
0.0
 10
79.08543970462101
 20
-130.053388096827
 30
0.0
 10
79.31591659258422
 20
-130.0616563259915
 30
0.0
 10
79.43236081998566
 20
-130.0657904405738
 30
0.0
 10
79.43236081998566
 20
-130.0657904405738
 30
0.0
 10
79.43236081998566
 20
-130.2900661566636
 30
0.0
 10
79.43236081998566
 20
-130.2900661566636
 30
0.0
 10
79.3054090513542
 20
-130.281797927499
 30
0.0
 10
79.19327119330933
 20
-130.2711181314947
 30
0.0
 10
79.07475990861673
 20
-130.1908474066884
 30
0.0
 10
78.91404620422982
 20
-130.0806043511604
 30
0.0
 10
78.88011201370011
 20
-129.8945691949569
 30
0.0
 10
78.88011201370011
 20
-129.7781249675555
 30
0.0
 10
78.88011201370011
 20
-129.5011392905414
 30
0.0
 10
79.06425236738671
 20
-129.2937445423293
 30
0.0
 10
79.33710392981851
 20
-129.2937445423293
 30
0.0
 10
79.56568601526483
 20
-129.2937445423293
 30
0.0
 10
79.6650770200143
 20
-129.4101887697308
 30
0.0
 10
79.8914197933952
 20
-129.7188693252092
 30
0.0
  0
HATCH
  5
172
330
16B
100
AcDbEntity
  8
_U+30EC_U+30A4_U+30E4_U+30FC 1
 62
   179
420
  2234388
100
AcDbHatch
 10
0.0
 20
0.0
 30
0.0
210
0.0
220
0.0
230
1.0
  2
SOLID
 70
     1
 71
     0
 91
        1
 92
        1
 93
        1
 72
     4
 94
        3
 73
     0
 74
     1
 95
       44
 96
       40
 40
0.0
 40
0.0
 40
0.0
 40
0.0
 40
1.0
 40
1.0
 40
1.0
 40
2.0
 40
2.0
 40
2.0
 40
3.0
 40
3.0
 40
3.0
 40
4.0
 40
4.0
 40
4.0
 40
5.0
 40
5.0
 40
5.0
 40
6.0
 40
6.0
 40
6.0
 40
7.0
 40
7.0
 40
7.0
 40
8.0
 40
8.0
 40
8.0
 40
9.0
 40
9.0
 40
9.0
 40
10.0
 40
10.0
 40
10.0
 40
11.0
 40
11.0
 40
11.0
 40
12.0
 40
12.0
 40
12.0
 40
13.0
 40
13.0
 40
13.0
 40
13.0
 10
79.8914197933952
 20
-129.7188693252092
 10
80.05006644049097
 20
-129.9369438694255
 10
80.12413599342383
 20
-130.0299614475272
 10
80.26796872993302
 20
-130.0785372938693
 10
80.26796872993302
 20
-130.0785372938693
 10
80.26796872993302
 20
-129.3002902237513
 10
80.26796872993302
 20
-129.3002902237513
 10
80.26796872993302
 20
-129.3002902237513
 10
80.47312416607964
 20
-129.3002902237513
 10
80.47312416607964
 20
-129.3002902237513
 10
80.47312416607964
 20
-129.3002902237513
 10
80.47312416607964
 20
-130.3283067165499
 10
80.47312416607964
 20
-130.3283067165499
 10
80.11569550948496
 20
-130.2966118380856
 10
80.03731958719554
 20
-130.2308105143173
 10
79.73914657294716
 20
-129.8459933486149
 10
79.54019230867398
 20
-129.5900227540608
 10
79.47249618238882
 20
-129.5242214302926
 10
79.33503687252735
 20
-129.5242214302926
 10
79.21652558783477
 20
-129.5242214302926
 10
79.08543970462101
 20
-129.5962239259343
 10
79.08543970462101
 20
-129.7929388781421
 10
79.08543970462101
 20
-130.053388096827
 10
79.31591659258422
 20
-130.0616563259915
 10
79.43236081998566
 20
-130.0657904405738
 10
79.43236081998566
 20
-130.0657904405738
 10
79.43236081998566
 20
-130.2900661566636
 10
79.43236081998566
 20
-130.2900661566636
 10
79.3054090513542
 20
-130.281797927499
 10
79.19327119330933
 20
-130.2711181314947
 10
79.07475990861673
 20
-130.1908474066884
 10
78.91404620422982
 20
-130.0806043511604
 10
78.88011201370011
 20
-129.8945691949569
 10
78.88011201370011
 20
-129.7781249675555
 10
78.88011201370011
 20
-129.5011392905414
 10
79.06425236738671
 20
-129.2937445423293
 10
79.33710392981851
 20
-129.2937445423293
 10
79.56568601526483
 20
-129.2937445423293
 10
79.6650770200143
 20
-129.4101887697308
 10
79.8914197933952
 20
-129.7188693252092
 97
        0
 97
        0
 75
     2
 76
     1
 98
        0
  0
POLYLINE
  5
173
330
16B
100
AcDbEntity
  8
_U+30EC_U+30A4_U+30E4_U+30FC 1
370
     0
100
AcDb2dPolyline
 66
     1
 10
0.0
 20
0.0
 30
0.0
  0
VERTEX
  5
174
330
173
100
AcDbEntity
  8
_U+30EC_U+30A4_U+30E4_U+30FC 1
370
     0
100
AcDbVertex
100
AcDb2dVertex
 10
80.47312416607964
 20
-129.0753254885645
 30
0.0
  0
VERTEX
  5
175
330
173
100
AcDbEntity
  8
_U+30EC_U+30A4_U+30E4_U+30FC 1
370
     0
100
AcDbVertex
100
AcDb2dVertex
 10
80.22145994088214
 20
-129.0753254885645
 30
0.0
  0
VERTEX
  5
176
330
173
100
AcDbEntity
  8
_U+30EC_U+30A4_U+30E4_U+30FC 1
370
     0
100
AcDbVertex
100
AcDb2dVertex
 10
80.22145994088214
 20
-128.8234890085928
 30
0.0
  0
VERTEX
  5
177
330
173
100
AcDbEntity
  8
_U+30EC_U+30A4_U+30E4_U+30FC 1
370
     0
100
AcDbVertex
100
AcDb2dVertex
 10
80.47312416607964
 20
-128.8234890085928
 30
0.0
  0
VERTEX
  5
178
330
173
100
AcDbEntity
  8
_U+30EC_U+30A4_U+30E4_U+30FC 1
370
     0
100
AcDbVertex
100
AcDb2dVertex
 10
80.47312416607964
 20
-129.0753254885645
 30
0.0
  0
SEQEND
  5
179
330
173
100
AcDbEntity
  8
_U+30EC_U+30A4_U+30E4_U+30FC 1
370
     0
  0
HATCH
  5
17A
330
16B
100
AcDbEntity
  8
_U+30EC_U+30A4_U+30E4_U+30FC 1
 62
   179
420
  2234388
100
AcDbHatch
 10
0.0
 20
0.0
 30
0.0
210
0.0
220
0.0
230
1.0
  2
SOLID
 70
     1
 71
     0
 91
        1
 92
        1
 93
        4
 72
     1
 10
80.47312416607964
 20
-129.0753254885645
 11
80.22145994088214
 21
-129.0753254885645
 72
     1
 10
80.22145994088214
 20
-129.0753254885645
 11
80.22145994088214
 21
-128.8234890085928
 72
     1
 10
80.22145994088214
 20
-128.8234890085928
 11
80.47312416607964
 21
-128.8234890085928
 72
     1
 10
80.47312416607964
 20
-128.8234890085928
 11
80.47312416607964
 21
-129.0753254885645
 97
        0
 75
     2
 76
     1
 98
        0
  0
SPLINE
  5
17B
330
16B
100
AcDbEntity
  8
_U+30EC_U+30A4_U+30E4_U+30FC 1
370
     0
100
AcDbSpline
210
0.0
220
0.0
230
1.0
 70
    11
 71
     3
 72
    53
 73
    49
 74
     0
 42
0.0000000001
 43
0.0000000001
 12
1.0
 22
0.0
 32
0.0
 13
1.0
 23
0.0
 33
0.0
 40
0.0
 40
0.0
 40
0.0
 40
0.0
 40
1.0
 40
1.0
 40
1.0
 40
2.0
 40
2.0
 40
2.0
 40
3.0
 40
3.0
 40
3.0
 40
4.0
 40
4.0
 40
4.0
 40
5.0
 40
5.0
 40
5.0
 40
6.0
 40
6.0
 40
6.0
 40
7.0
 40
7.0
 40
7.0
 40
8.0
 40
8.0
 40
8.0
 40
9.0
 40
9.0
 40
9.0
 40
10.0
 40
10.0
 40
10.0
 40
11.0
 40
11.0
 40
11.0
 40
12.0
 40
12.0
 40
12.0
 40
13.0
 40
13.0
 40
13.0
 40
14.0
 40
14.0
 40
14.0
 40
15.0
 40
15.0
 40
15.0
 40
16.0
 40
16.0
 40
16.0
 40
16.0
 10
80.52393932448707
 20
-128.1060478737895
 30
0.0
 10
80.52393932448707
 20
-128.1842515413046
 30
0.0
 10
80.50705835660935
 20
-128.2858818581195
 30
0.0
 10
80.44349634490649
 20
-128.3873399201601
 30
0.0
 10
80.33359779892702
 20
-128.5609727326167
 30
0.0
 10
80.202339660939
 20
-128.5819878150767
 30
0.0
 10
80.09450817225068
 20
-128.6011080950199
 30
0.0
 10
80.09450817225068
 20
-128.6011080950199
 30
0.0
 10
80.09450817225068
 20
-128.3788994362212
 30
0.0
 10
80.09450817225068
 20
-128.3788994362212
 30
0.0
 10
80.2932901817496
 20
-128.3239501632315
 30
0.0
 10
80.32291800292275
 20
-128.1969983946001
 30
0.0
 10
80.32291800292275
 20
-128.1039808164983
 30
0.0
 10
80.32291800292275
 20
-127.9642821945714
 30
0.0
 10
80.22352699817328
 20
-127.8120089741234
 30
0.0
 10
79.99081079814466
 20
-127.8120089741234
 30
0.0
 10
79.7348402035906
 20
-127.8120089741234
 30
0.0
 10
79.6650770200143
 20
-127.9918429584534
 30
0.0
 10
79.6650770200143
 20
-128.1124213004372
 30
0.0
 10
79.6650770200143
 20
-128.1441161789015
 30
0.0
 10
79.6650770200143
 20
-128.2858818581195
 30
0.0
 10
79.7940958459369
 20
-128.374765321639
 30
0.0
 10
79.7940958459369
 20
-128.374765321639
 30
0.0
 10
79.77497556599376
 20
-128.5502929366124
 30
0.0
 10
79.77497556599376
 20
-128.5502929366124
 30
0.0
 10
79.77497556599376
 20
-128.5502929366124
 30
0.0
 10
78.9288601148164
 20
-128.4297145946287
 30
0.0
 10
78.9288601148164
 20
-128.4297145946287
 30
0.0
 10
78.9288601148164
 20
-128.4297145946287
 30
0.0
 10
78.9288601148164
 20
-127.6512952697365
 30
0.0
 10
78.9288601148164
 20
-127.6512952697365
 30
0.0
 10
78.9288601148164
 20
-127.6512952697365
 30
0.0
 10
79.12350800973302
 20
-127.6512952697365
 30
0.0
 10
79.12350800973302
 20
-127.6512952697365
 30
0.0
 10
79.12350800973302
 20
-127.6512952697365
 30
0.0
 10
79.12350800973302
 20
-128.2667615781764
 30
0.0
 10
79.12350800973302
 20
-128.2667615781764
 30
0.0
 10
79.12350800973302
 20
-128.2667615781764
 30
0.0
 10
79.54656573532169
 20
-128.3323906471704
 30
0.0
 10
79.54656573532169
 20
-128.3323906471704
 30
0.0
 10
79.51280379956624
 20
-128.2710679475329
 30
0.0
 10
79.47249618238882
 20
-128.1885579106612
 30
0.0
 10
79.47249618238882
 20
-128.0700466259686
 30
0.0
 10
79.47249618238882
 20
-127.81631534348
 30
0.0
 10
79.65870359336658
 20
-127.5792927740948
 30
0.0
 10
79.97186277297578
 20
-127.5792927740948
 30
0.0
 10
80.2891560671673
 20
-127.5792927740948
 30
0.0
 10
80.52393932448707
 20
-127.8035684901845
 30
0.0
 10
80.52393932448707
 20
-128.1060478737895
 30
0.0
  0
HATCH
  5
17C
330
16B
100
AcDbEntity
  8
_U+30EC_U+30A4_U+30E4_U+30FC 1
 62
   179
420
  2234388
100
AcDbHatch
 10
0.0
 20
0.0
 30
0.0
210
0.0
220
0.0
230
1.0
  2
SOLID
 70
     1
 71
     0
 91
        1
 92
        1
 93
        1
 72
     4
 94
        3
 73
     0
 74
     1
 95
       53
 96
       49
 40
0.0
 40
0.0
 40
0.0
 40
0.0
 40
1.0
 40
1.0
 40
1.0
 40
2.0
 40
2.0
 40
2.0
 40
3.0
 40
3.0
 40
3.0
 40
4.0
 40
4.0
 40
4.0
 40
5.0
 40
5.0
 40
5.0
 40
6.0
 40
6.0
 40
6.0
 40
7.0
 40
7.0
 40
7.0
 40
8.0
 40
8.0
 40
8.0
 40
9.0
 40
9.0
 40
9.0
 40
10.0
 40
10.0
 40
10.0
 40
11.0
 40
11.0
 40
11.0
 40
12.0
 40
12.0
 40
12.0
 40
13.0
 40
13.0
 40
13.0
 40
14.0
 40
14.0
 40
14.0
 40
15.0
 40
15.0
 40
15.0
 40
16.0
 40
16.0
 40
16.0
 40
16.0
 10
80.52393932448707
 20
-128.1060478737895
 10
80.52393932448707
 20
-128.1842515413046
 10
80.50705835660935
 20
-128.2858818581195
 10
80.44349634490649
 20
-128.3873399201601
 10
80.33359779892702
 20
-128.5609727326167
 10
80.202339660939
 20
-128.5819878150767
 10
80.09450817225068
 20
-128.6011080950199
 10
80.09450817225068
 20
-128.6011080950199
 10
80.09450817225068
 20
-128.3788994362212
 10
80.09450817225068
 20
-128.3788994362212
 10
80.2932901817496
 20
-128.3239501632315
 10
80.32291800292275
 20
-128.1969983946001
 10
80.32291800292275
 20
-128.1039808164983
 10
80.32291800292275
 20
-127.9642821945714
 10
80.22352699817328
 20
-127.8120089741234
 10
79.99081079814466
 20
-127.8120089741234
 10
79.7348402035906
 20
-127.8120089741234
 10
79.6650770200143
 20
-127.9918429584534
 10
79.6650770200143
 20
-128.1124213004372
 10
79.6650770200143
 20
-128.1441161789015
 10
79.6650770200143
 20
-128.2858818581195
 10
79.7940958459369
 20
-128.374765321639
 10
79.7940958459369
 20
-128.374765321639
 10
79.77497556599376
 20
-128.5502929366124
 10
79.77497556599376
 20
-128.5502929366124
 10
79.77497556599376
 20
-128.5502929366124
 10
78.9288601148164
 20
-128.4297145946287
 10
78.9288601148164
 20
-128.4297145946287
 10
78.9288601148164
 20
-128.4297145946287
 10
78.9288601148164
 20
-127.6512952697365
 10
78.9288601148164
 20
-127.6512952697365
 10
78.9288601148164
 20
-127.6512952697365
 10
79.12350800973302
 20
-127.6512952697365
 10
79.12350800973302
 20
-127.6512952697365
 10
79.12350800973302
 20
-127.6512952697365
 10
79.12350800973302
 20
-128.2667615781764
 10
79.12350800973302
 20
-128.2667615781764
 10
79.12350800973302
 20
-128.2667615781764
 10
79.54656573532169
 20
-128.3323906471704
 10
79.54656573532169
 20
-128.3323906471704
 10
79.51280379956624
 20
-128.2710679475329
 10
79.47249618238882
 20
-128.1885579106612
 10
79.47249618238882
 20
-128.0700466259686
 10
79.47249618238882
 20
-127.81631534348
 10
79.65870359336658
 20
-127.5792927740948
 10
79.97186277297578
 20
-127.5792927740948
 10
80.2891560671673
 20
-127.5792927740948
 10
80.52393932448707
 20
-127.8035684901845
 10
80.52393932448707
 20
-128.1060478737895
 97
        0
 97
        0
 75
     2
 76
     1
 98
        0
  0
ENDBLK
  5
16E
330
16B
100
AcDbEntity
  8
0
100
AcDbBlockEnd
  0
BLOCK
  5
18E
330
18C
100
AcDbEntity
  8
0
100
AcDbBlockBegin
  2
block 8
 70
     0
 10
0.0
 20
0.0
 30
0.0
  3
block 8
  1

  0
SPLINE
  5
190
330
18C
100
AcDbEntity
  8
_U+30EC_U+30A4_U+30E4_U+30FC 1
370
     0
100
AcDbSpline
210
0.0
220
0.0
230
1.0
 70
    11
 71
     3
 72
    26
 73
    22
 74
     0
 42
0.0000000001
 43
0.0000000001
 12
1.0
 22
0.0
 32
0.0
 13
1.0
 23
0.0
 33
0.0
 40
0.0
 40
0.0
 40
0.0
 40
0.0
 40
1.0
 40
1.0
 40
1.0
 40
2.0
 40
2.0
 40
2.0
 40
3.0
 40
3.0
 40
3.0
 40
4.0
 40
4.0
 40
4.0
 40
5.0
 40
5.0
 40
5.0
 40
6.0
 40
6.0
 40
6.0
 40
7.0
 40
7.0
 40
7.0
 40
7.0
 10
94.20820310144795
 20
-118.9150498834657
 30
0.0
 10
94.20820310144795
 20
-118.9150498834657
 30
0.0
 10
94.20820310144795
 20
-117.8107245256688
 30
0.0
 10
94.20820310144795
 20
-117.8107245256688
 30
0.0
 10
94.20820310144795
 20
-117.8107245256688
 30
0.0
 10
93.87816295396102
 20
-117.8107245256688
 30
0.0
 10
93.87816295396102
 20
-117.8107245256688
 30
0.0
 10
93.87816295396102
 20
-117.8107245256688
 30
0.0
 10
93.87816295396102
 20
-117.6627576745774
 30
0.0
 10
93.87816295396102
 20
-117.6627576745774
 30
0.0
 10
94.2102701587391
 20
-117.6479437639908
 30
0.0
 10
94.2571234573385
 20
-117.4849907475385
 30
0.0
 10
94.28675127851164
 20
-117.3707858322024
 30
0.0
 10
94.28675127851164
 20
-117.3707858322024
 30
0.0
 10
94.43247881753771
 20
-117.3707858322024
 30
0.0
 10
94.43247881753771
 20
-117.3707858322024
 30
0.0
 10
94.43247881753771
 20
-117.3707858322024
 30
0.0
 10
94.43247881753771
 20
-118.9150498834657
 30
0.0
 10
94.43247881753771
 20
-118.9150498834657
 30
0.0
 10
94.43247881753771
 20
-118.9150498834657
 30
0.0
 10
94.20820310144795
 20
-118.9150498834657
 30
0.0
 10
94.20820310144795
 20
-118.9150498834657
 30
0.0
  0
HATCH
  5
191
330
18C
100
AcDbEntity
  8
_U+30EC_U+30A4_U+30E4_U+30FC 1
 62
   179
420
  2234388
100
AcDbHatch
 10
0.0
 20
0.0
 30
0.0
210
0.0
220
0.0
230
1.0
  2
SOLID
 70
     1
 71
     0
 91
        1
 92
        1
 93
        1
 72
     4
 94
        3
 73
     0
 74
     1
 95
       26
 96
       22
 40
0.0
 40
0.0
 40
0.0
 40
0.0
 40
1.0
 40
1.0
 40
1.0
 40
2.0
 40
2.0
 40
2.0
 40
3.0
 40
3.0
 40
3.0
 40
4.0
 40
4.0
 40
4.0
 40
5.0
 40
5.0
 40
5.0
 40
6.0
 40
6.0
 40
6.0
 40
7.0
 40
7.0
 40
7.0
 40
7.0
 10
94.20820310144795
 20
-118.9150498834657
 10
94.20820310144795
 20
-118.9150498834657
 10
94.20820310144795
 20
-117.8107245256688
 10
94.20820310144795
 20
-117.8107245256688
 10
94.20820310144795
 20
-117.8107245256688
 10
93.87816295396102
 20
-117.8107245256688
 10
93.87816295396102
 20
-117.8107245256688
 10
93.87816295396102
 20
-117.8107245256688
 10
93.87816295396102
 20
-117.6627576745774
 10
93.87816295396102
 20
-117.6627576745774
 10
94.2102701587391
 20
-117.6479437639908
 10
94.2571234573385
 20
-117.4849907475385
 10
94.28675127851164
 20
-117.3707858322024
 10
94.28675127851164
 20
-117.3707858322024
 10
94.43247881753771
 20
-117.3707858322024
 10
94.43247881753771
 20
-117.3707858322024
 10
94.43247881753771
 20
-117.3707858322024
 10
94.43247881753771
 20
-118.9150498834657
 10
94.43247881753771
 20
-118.9150498834657
 10
94.43247881753771
 20
-118.9150498834657
 10
94.20820310144795
 20
-118.9150498834657
 10
94.20820310144795
 20
-118.9150498834657
 97
        0
 97
        0
 75
     2
 76
     1
 98
        0
  0
SPLINE
  5
192
330
18C
100
AcDbEntity
  8
_U+30EC_U+30A4_U+30E4_U+30FC 1
370
     0
100
AcDbSpline
210
0.0
220
0.0
230
1.0
 70
    11
 71
     3
 72
    32
 73
    28
 74
     0
 42
0.0000000001
 43
0.0000000001
 12
1.0
 22
0.0
 32
0.0
 13
1.0
 23
0.0
 33
0.0
 40
0.0
 40
0.0
 40
0.0
 40
0.0
 40
1.0
 40
1.0
 40
1.0
 40
2.0
 40
2.0
 40
2.0
 40
3.0
 40
3.0
 40
3.0
 40
4.0
 40
4.0
 40
4.0
 40
5.0
 40
5.0
 40
5.0
 40
6.0
 40
6.0
 40
6.0
 40
7.0
 40
7.0
 40
7.0
 40
8.0
 40
8.0
 40
8.0
 40
9.0
 40
9.0
 40
9.0
 40
9.0
 10
95.43810218968214
 20
-118.9658650418731
 30
0.0
 10
94.92202688599173
 20
-118.9658650418731
 30
0.0
 10
94.9134141472786
 20
-118.4115491782964
 30
0.0
 10
94.9134141472786
 20
-118.1979532582109
 30
0.0
 10
94.9134141472786
 20
-117.9673041154735
 30
0.0
 10
94.93236217244747
 20
-117.319970673795
 30
0.0
 10
95.47599824001989
 20
-117.319970673795
 30
0.0
 10
95.64963105247648
 20
-117.319970673795
 30
0.0
 10
95.89492185102627
 20
-117.3897338573713
 30
0.0
 10
95.93316241091254
 20
-117.7220133169237
 30
0.0
 10
95.93316241091254
 20
-117.7220133169237
 30
0.0
 10
95.71956649082706
 20
-117.7220133169237
 30
0.0
 10
95.71956649082706
 20
-117.7220133169237
 30
0.0
 10
95.70888669482278
 20
-117.6648247318685
 30
0.0
 10
95.67719181635849
 20
-117.5166856260028
 30
0.0
 10
95.47393118272875
 20
-117.5166856260028
 30
0.0
 10
95.18213159512808
 20
-117.5166856260028
 30
0.0
 10
95.14182397795066
 20
-117.8446587161986
 30
0.0
 10
95.12907712465524
 20
-118.0498141523452
 30
0.0
 10
95.2224392123055
 20
-117.97161048483
 30
0.0
 10
95.2899630838164
 20
-117.9123548424837
 30
0.0
 10
95.47186412543759
 20
-117.9123548424837
 30
0.0
 10
95.65169810976764
 20
-117.9123548424837
 30
0.0
 10
95.95417749337257
 20
-118.020186331172
 30
0.0
 10
95.95417749337257
 20
-118.426363088883
 30
0.0
 10
95.95417749337257
 20
-118.7458956951399
 30
0.0
 10
95.75539548387366
 20
-118.9658650418731
 30
0.0
 10
95.43810218968214
 20
-118.9658650418731
 30
0.0
  0
SPLINE
  5
193
330
18C
100
AcDbEntity
  8
_U+30EC_U+30A4_U+30E4_U+30FC 1
370
     0
100
AcDbSpline
210
0.0
220
0.0
230
1.0
 70
    11
 71
     3
 72
    17
 73
    13
 74
     0
 42
0.0000000001
 43
0.0000000001
 12
1.0
 22
0.0
 32
0.0
 13
1.0
 23
0.0
 33
0.0
 40
0.0
 40
0.0
 40
0.0
 40
0.0
 40
1.0
 40
1.0
 40
1.0
 40
2.0
 40
2.0
 40
2.0
 40
3.0
 40
3.0
 40
3.0
 40
4.0
 40
4.0
 40
4.0
 40
4.0
 10
95.45498315755987
 20
-118.1070027374003
 30
0.0
 10
95.19281139113235
 20
-118.1070027374003
 30
0.0
 10
95.15457083124609
 20
-118.3185316001947
 30
0.0
 10
95.15457083124609
 20
-118.4348035728219
 30
0.0
 10
95.15457083124609
 20
-118.6105034425696
 30
0.0
 10
95.24965546663898
 20
-118.7732842042477
 30
0.0
 10
95.43396807509984
 20
-118.7732842042477
 30
0.0
 10
95.55454641708359
 20
-118.7732842042477
 30
0.0
 10
95.7299017772828
 20
-118.7140285619014
 30
0.0
 10
95.7299017772828
 20
-118.4286024009484
 30
0.0
 10
95.7299017772828
 20
-118.2043266848586
 30
0.0
 10
95.59037541013019
 20
-118.1070027374003
 30
0.0
 10
95.45498315755987
 20
-118.1070027374003
 30
0.0
  0
HATCH
  5
194
330
18C
100
AcDbEntity
  8
_U+30EC_U+30A4_U+30E4_U+30FC 1
 62
   179
420
  2234388
100
AcDbHatch
 10
0.0
 20
0.0
 30
0.0
210
0.0
220
0.0
230
1.0
  2
SOLID
 70
     1
 71
     0
 91
        2
 92
        1
 93
        1
 72
     4
 94
        3
 73
     0
 74
     1
 95
       32
 96
       28
 40
0.0
 40
0.0
 40
0.0
 40
0.0
 40
1.0
 40
1.0
 40
1.0
 40
2.0
 40
2.0
 40
2.0
 40
3.0
 40
3.0
 40
3.0
 40
4.0
 40
4.0
 40
4.0
 40
5.0
 40
5.0
 40
5.0
 40
6.0
 40
6.0
 40
6.0
 40
7.0
 40
7.0
 40
7.0
 40
8.0
 40
8.0
 40
8.0
 40
9.0
 40
9.0
 40
9.0
 40
9.0
 10
95.43810218968214
 20
-118.9658650418731
 10
94.92202688599173
 20
-118.9658650418731
 10
94.9134141472786
 20
-118.4115491782964
 10
94.9134141472786
 20
-118.1979532582109
 10
94.9134141472786
 20
-117.9673041154735
 10
94.93236217244747
 20
-117.319970673795
 10
95.47599824001989
 20
-117.319970673795
 10
95.64963105247648
 20
-117.319970673795
 10
95.89492185102627
 20
-117.3897338573713
 10
95.93316241091254
 20
-117.7220133169237
 10
95.93316241091254
 20
-117.7220133169237
 10
95.71956649082706
 20
-117.7220133169237
 10
95.71956649082706
 20
-117.7220133169237
 10
95.70888669482278
 20
-117.6648247318685
 10
95.67719181635849
 20
-117.5166856260028
 10
95.47393118272875
 20
-117.5166856260028
 10
95.18213159512808
 20
-117.5166856260028
 10
95.14182397795066
 20
-117.8446587161986
 10
95.12907712465524
 20
-118.0498141523452
 10
95.2224392123055
 20
-117.97161048483
 10
95.2899630838164
 20
-117.9123548424837
 10
95.47186412543759
 20
-117.9123548424837
 10
95.65169810976764
 20
-117.9123548424837
 10
95.95417749337257
 20
-118.020186331172
 10
95.95417749337257
 20
-118.426363088883
 10
95.95417749337257
 20
-118.7458956951399
 10
95.75539548387366
 20
-118.9658650418731
 10
95.43810218968214
 20
-118.9658650418731
 97
        0
 97
        0
 92
        1
 93
        1
 72
     4
 94
        3
 73
     0
 74
     1
 95
       17
 96
       13
 40
0.0
 40
0.0
 40
0.0
 40
0.0
 40
1.0
 40
1.0
 40
1.0
 40
2.0
 40
2.0
 40
2.0
 40
3.0
 40
3.0
 40
3.0
 40
4.0
 40
4.0
 40
4.0
 40
4.0
 10
95.45498315755987
 20
-118.1070027374003
 10
95.19281139113235
 20
-118.1070027374003
 10
95.15457083124609
 20
-118.3185316001947
 10
95.15457083124609
 20
-118.4348035728219
 10
95.15457083124609
 20
-118.6105034425696
 10
95.24965546663898
 20
-118.7732842042477
 10
95.43396807509984
 20
-118.7732842042477
 10
95.55454641708359
 20
-118.7732842042477
 10
95.7299017772828
 20
-118.7140285619014
 10
95.7299017772828
 20
-118.4286024009484
 10
95.7299017772828
 20
-118.2043266848586
 10
95.59037541013019
 20
-118.1070027374003
 10
95.45498315755987
 20
-118.1070027374003
 97
        0
 97
        0
 75
     2
 76
     1
 98
        0
  0
ENDBLK
  5
18F
330
18C
100
AcDbEntity
  8
0
100
AcDbBlockEnd
  0
ENDSEC
  0
SECTION
  2
ENTITIES
  0
INSERT
  5
42
330
1F
100
AcDbEntity
  8
_U+30EC_U+30A4_U+30E4_U+30FC 1
100
AcDbBlockReference
  2
block 2
 10
0.0
 20
0.0
 30
0.0
  0
SPLINE
  5
98
330
1F
100
AcDbEntity
  8
_U+30EC_U+30A4_U+30E4_U+30FC 1
370
     0
100
AcDbSpline
210
0.0
220
0.0
230
1.0
 70
    11
 71
     3
 72
   116
 73
   112
 74
     0
 42
0.0000000001
 43
0.0000000001
 12
1.0
 22
0.0
 32
0.0
 13
1.0
 23
0.0
 33
0.0
 40
0.0
 40
0.0
 40
0.0
 40
0.0
 40
1.0
 40
1.0
 40
1.0
 40
2.0
 40
2.0
 40
2.0
 40
3.0
 40
3.0
 40
3.0
 40
4.0
 40
4.0
 40
4.0
 40
5.0
 40
5.0
 40
5.0
 40
6.0
 40
6.0
 40
6.0
 40
7.0
 40
7.0
 40
7.0
 40
8.0
 40
8.0
 40
8.0
 40
9.0
 40
9.0
 40
9.0
 40
10.0
 40
10.0
 40
10.0
 40
11.0
 40
11.0
 40
11.0
 40
12.0
 40
12.0
 40
12.0
 40
13.0
 40
13.0
 40
13.0
 40
14.0
 40
14.0
 40
14.0
 40
15.0
 40
15.0
 40
15.0
 40
16.0
 40
16.0
 40
16.0
 40
17.0
 40
17.0
 40
17.0
 40
18.0
 40
18.0
 40
18.0
 40
19.0
 40
19.0
 40
19.0
 40
20.0
 40
20.0
 40
20.0
 40
21.0
 40
21.0
 40
21.0
 40
22.0
 40
22.0
 40
22.0
 40
23.0
 40
23.0
 40
23.0
 40
24.0
 40
24.0
 40
24.0
 40
25.0
 40
25.0
 40
25.0
 40
26.0
 40
26.0
 40
26.0
 40
27.0
 40
27.0
 40
27.0
 40
28.0
 40
28.0
 40
28.0
 40
29.0
 40
29.0
 40
29.0
 40
30.0
 40
30.0
 40
30.0
 40
31.0
 40
31.0
 40
31.0
 40
32.0
 40
32.0
 40
32.0
 40
33.0
 40
33.0
 40
33.0
 40
34.0
 40
34.0
 40
34.0
 40
35.0
 40
35.0
 40
35.0
 40
36.0
 40
36.0
 40
36.0
 40
37.0
 40
37.0
 40
37.0
 40
37.0
 10
102.8457615428527
 20
-127.5375980236712
 30
0.0
 10
102.8457615428527
 20
-127.5375980236712
 30
0.0
 10
101.7471083078964
 20
-127.1104194126669
 30
0.0
 10
101.7471083078964
 20
-127.1104194126669
 30
0.0
 10
101.6068765744593
 20
-127.3494969126072
 30
0.0
 10
101.4074160239924
 20
-127.5486399681128
 30
0.0
 10
101.1686560300837
 20
-127.6891866347443
 30
0.0
 10
100.3945583082349
 20
-128.1439524679639
 30
0.0
 10
99.39891107523363
 20
-127.8848724680289
 30
0.0
 10
98.94453330904798
 20
-127.1104194126669
 30
0.0
 10
98.49012026508548
 20
-126.3366366350825
 30
0.0
 10
98.74916498069892
 20
-125.3410271908871
 30
0.0
 10
99.52294773873585
 20
-124.8869669132227
 30
0.0
 10
100.2970479967647
 20
-124.4322010800031
 30
0.0
 10
101.2926926935859
 20
-124.6912810799384
 30
0.0
 10
101.7471083078964
 20
-125.4650285797449
 30
0.0
 10
101.7471083078964
 20
-125.4650285797449
 30
0.0
 10
102.8457615428527
 20
-125.0378499687406
 30
0.0
 10
102.8457615428527
 20
-125.0378499687406
 30
0.0
 10
102.8457615428527
 20
-125.0378499687406
 30
0.0
 10
102.8457615428527
 20
-123.2877546914003
 30
0.0
 10
102.8457615428527
 20
-123.2877546914003
 30
0.0
 10
102.8457615428527
 20
-123.2877546914003
 30
0.0
 10
86.845702228826
 20
-123.2877546914003
 30
0.0
 10
86.845702228826
 20
-123.2877546914003
 30
0.0
 10
86.845702228826
 20
-123.2877546914003
 30
0.0
 10
86.845702228826
 20
-125.0378499687406
 30
0.0
 10
86.845702228826
 20
-125.0378499687406
 30
0.0
 10
86.845702228826
 20
-125.0378499687406
 30
0.0
 10
87.94432497801398
 20
-125.4650285797449
 30
0.0
 10
87.94432497801398
 20
-125.4650285797449
 30
0.0
 10
88.0849046972113
 20
-125.2259510798046
 30
0.0
 10
88.28401246990943
 20
-125.0268080242987
 30
0.0
 10
88.52308996381005
 20
-124.8869669132227
 30
0.0
 10
89.29687497767578
 20
-124.4322010800031
 30
0.0
 10
90.29283491866009
 20
-124.6912810799384
 30
0.0
 10
90.74724796262261
 20
-125.4650285797449
 30
0.0
 10
91.20130822881634
 20
-126.2388113573293
 30
0.0
 10
90.94258331059768
 20
-127.2351263570802
 30
0.0
 10
90.16848075516596
 20
-127.6891866347443
 30
0.0
 10
89.39469799712903
 20
-128.1439524679639
 30
0.0
 10
88.39873580031592
 20
-127.8848724680289
 30
0.0
 10
87.94432497801398
 20
-127.1104194126669
 30
0.0
 10
87.94432497801398
 20
-127.1104194126669
 30
0.0
 10
86.845702228826
 20
-127.5375980236712
 30
0.0
 10
86.845702228826
 20
-127.5375980236712
 30
0.0
 10
86.845702228826
 20
-127.5375980236712
 30
0.0
 10
86.845702228826
 20
-135.7877649660531
 30
0.0
 10
86.845702228826
 20
-135.7877649660531
 30
0.0
 10
86.845702228826
 20
-135.7877649660531
 30
0.0
 10
84.8458050576254
 20
-135.7877649660531
 30
0.0
 10
84.8458050576254
 20
-135.7877649660531
 30
0.0
 10
84.8458050576254
 20
-135.7877649660531
 30
0.0
 10
84.8458050576254
 20
-137.787979687775
 30
0.0
 10
84.8458050576254
 20
-137.787979687775
 30
0.0
 10
84.8458050576254
 20
-137.787979687775
 30
0.0
 10
90.84577879344221
 20
-137.787979687775
 30
0.0
 10
90.84577879344221
 20
-137.787979687775
 30
0.0
 10
90.84577879344221
 20
-137.787979687775
 30
0.0
 10
90.84577879344221
 20
-135.7877649660531
 30
0.0
 10
90.84577879344221
 20
-135.7877649660531
 30
0.0
 10
90.84577879344221
 20
-135.7877649660531
 30
0.0
 10
88.8459169000185
 20
-135.7877649660531
 30
0.0
 10
88.8459169000185
 20
-135.7877649660531
 30
0.0
 10
88.8459169000185
 20
-135.7877649660531
 30
0.0
 10
88.8459169000185
 20
-128.9333985788776
 30
0.0
 10
88.8459169000185
 20
-128.9333985788776
 30
0.0
 10
90.30698130718808
 20
-129.2096941343641
 30
0.0
 10
91.71534071570228
 20
-128.2493624679378
 30
0.0
 10
91.99163626420895
 20
-126.7879452460809
 30
0.0
 10
92.08670987289453
 20
-126.2842844128734
 30
0.0
 10
92.03605098529806
 20
-125.7640783018925
 30
0.0
 10
91.8459037679269
 20
-125.2879694131224
 30
0.0
 10
91.8459037679269
 20
-125.2879694131224
 30
0.0
 10
94.47071386527095
 20
-125.2879694131224
 30
0.0
 10
94.47071386527095
 20
-125.2879694131224
 30
0.0
 10
94.47071386527095
 20
-125.2879694131224
 30
0.0
 10
94.8458906358353
 20
-124.6382233021737
 30
0.0
 10
94.8458906358353
 20
-124.6382233021737
 30
0.0
 10
94.8458906358353
 20
-124.6382233021737
 30
0.0
 10
95.22071942063909
 20
-125.2879694131224
 30
0.0
 10
95.22071942063909
 20
-125.2879694131224
 30
0.0
 10
95.22071942063909
 20
-125.2879694131224
 30
0.0
 10
97.8458775037437
 20
-125.2879694131224
 30
0.0
 10
97.8458775037437
 20
-125.2879694131224
 30
0.0
 10
97.29364164234315
 20
-126.6687416349994
 30
0.0
 10
97.96508111181367
 20
-128.2355688568301
 30
0.0
 10
99.34588857658635
 20
-128.7880188566919
 30
0.0
 10
99.82164719726708
 20
-128.9781660788668
 30
0.0
 10
100.3422035511682
 20
-129.0284721899651
 30
0.0
 10
100.8458643716521
 20
-128.9333985788776
 30
0.0
 10
100.8458643716521
 20
-128.9333985788776
 30
0.0
 10
100.8458643716521
 20
-135.7877649660531
 30
0.0
 10
100.8458643716521
 20
-135.7877649660531
 30
0.0
 10
100.8458643716521
 20
-135.7877649660531
 30
0.0
 10
98.8456497004596
 20
-135.7877649660531
 30
0.0
 10
98.8456497004596
 20
-135.7877649660531
 30
0.0
 10
98.8456497004596
 20
-135.7877649660531
 30
0.0
 10
98.8456497004596
 20
-137.787979687775
 30
0.0
 10
98.8456497004596
 20
-137.787979687775
 30
0.0
 10
98.8456497004596
 20
-137.787979687775
 30
0.0
 10
104.8456234362764
 20
-137.787979687775
 30
0.0
 10
104.8456234362764
 20
-137.787979687775
 30
0.0
 10
104.8456234362764
 20
-137.787979687775
 30
0.0
 10
104.8456234362764
 20
-135.7877649660531
 30
0.0
 10
104.8456234362764
 20
-135.7877649660531
 30
0.0
 10
104.8456234362764
 20
-135.7877649660531
 30
0.0
 10
102.8457615428527
 20
-135.7877649660531
 30
0.0
 10
102.8457615428527
 20
-135.7877649660531
 30
0.0
 10
102.8457615428527
 20
-135.7877649660531
 30
0.0
 10
102.8457615428527
 20
-127.5375980236712
 30
0.0
 10
102.8457615428527
 20
-127.5375980236712
 30
0.0
  0
HATCH
  5
99
330
1F
100
AcDbEntity
  8
_U+30EC_U+30A4_U+30E4_U+30FC 1
 62
   253
420
 11711154
100
AcDbHatch
 10
0.0
 20
0.0
 30
0.0
210
0.0
220
0.0
230
1.0
  2
SOLID
 70
     1
 71
     0
 91
        1
 92
        1
 93
        1
 72
     4
 94
        3
 73
     0
 74
     1
 95
      116
 96
      112
 40
0.0
 40
0.0
 40
0.0
 40
0.0
 40
1.0
 40
1.0
 40
1.0
 40
2.0
 40
2.0
 40
2.0
 40
3.0
 40
3.0
 40
3.0
 40
4.0
 40
4.0
 40
4.0
 40
5.0
 40
5.0
 40
5.0
 40
6.0
 40
6.0
 40
6.0
 40
7.0
 40
7.0
 40
7.0
 40
8.0
 40
8.0
 40
8.0
 40
9.0
 40
9.0
 40
9.0
 40
10.0
 40
10.0
 40
10.0
 40
11.0
 40
11.0
 40
11.0
 40
12.0
 40
12.0
 40
12.0
 40
13.0
 40
13.0
 40
13.0
 40
14.0
 40
14.0
 40
14.0
 40
15.0
 40
15.0
 40
15.0
 40
16.0
 40
16.0
 40
16.0
 40
17.0
 40
17.0
 40
17.0
 40
18.0
 40
18.0
 40
18.0
 40
19.0
 40
19.0
 40
19.0
 40
20.0
 40
20.0
 40
20.0
 40
21.0
 40
21.0
 40
21.0
 40
22.0
 40
22.0
 40
22.0
 40
23.0
 40
23.0
 40
23.0
 40
24.0
 40
24.0
 40
24.0
 40
25.0
 40
25.0
 40
25.0
 40
26.0
 40
26.0
 40
26.0
 40
27.0
 40
27.0
 40
27.0
 40
28.0
 40
28.0
 40
28.0
 40
29.0
 40
29.0
 40
29.0
 40
30.0
 40
30.0
 40
30.0
 40
31.0
 40
31.0
 40
31.0
 40
32.0
 40
32.0
 40
32.0
 40
33.0
 40
33.0
 40
33.0
 40
34.0
 40
34.0
 40
34.0
 40
35.0
 40
35.0
 40
35.0
 40
36.0
 40
36.0
 40
36.0
 40
37.0
 40
37.0
 40
37.0
 40
37.0
 10
102.8457615428527
 20
-127.5375980236712
 10
102.8457615428527
 20
-127.5375980236712
 10
101.7471083078964
 20
-127.1104194126669
 10
101.7471083078964
 20
-127.1104194126669
 10
101.6068765744593
 20
-127.3494969126072
 10
101.4074160239924
 20
-127.5486399681128
 10
101.1686560300837
 20
-127.6891866347443
 10
100.3945583082349
 20
-128.1439524679639
 10
99.39891107523363
 20
-127.8848724680289
 10
98.94453330904798
 20
-127.1104194126669
 10
98.49012026508548
 20
-126.3366366350825
 10
98.74916498069892
 20
-125.3410271908871
 10
99.52294773873585
 20
-124.8869669132227
 10
100.2970479967647
 20
-124.4322010800031
 10
101.2926926935859
 20
-124.6912810799384
 10
101.7471083078964
 20
-125.4650285797449
 10
101.7471083078964
 20
-125.4650285797449
 10
102.8457615428527
 20
-125.0378499687406
 10
102.8457615428527
 20
-125.0378499687406
 10
102.8457615428527
 20
-125.0378499687406
 10
102.8457615428527
 20
-123.2877546914003
 10
102.8457615428527
 20
-123.2877546914003
 10
102.8457615428527
 20
-123.2877546914003
 10
86.845702228826
 20
-123.2877546914003
 10
86.845702228826
 20
-123.2877546914003
 10
86.845702228826
 20
-123.2877546914003
 10
86.845702228826
 20
-125.0378499687406
 10
86.845702228826
 20
-125.0378499687406
 10
86.845702228826
 20
-125.0378499687406
 10
87.94432497801398
 20
-125.4650285797449
 10
87.94432497801398
 20
-125.4650285797449
 10
88.0849046972113
 20
-125.2259510798046
 10
88.28401246990943
 20
-125.0268080242987
 10
88.52308996381005
 20
-124.8869669132227
 10
89.29687497767578
 20
-124.4322010800031
 10
90.29283491866009
 20
-124.6912810799384
 10
90.74724796262261
 20
-125.4650285797449
 10
91.20130822881634
 20
-126.2388113573293
 10
90.94258331059768
 20
-127.2351263570802
 10
90.16848075516596
 20
-127.6891866347443
 10
89.39469799712903
 20
-128.1439524679639
 10
88.39873580031592
 20
-127.8848724680289
 10
87.94432497801398
 20
-127.1104194126669
 10
87.94432497801398
 20
-127.1104194126669
 10
86.845702228826
 20
-127.5375980236712
 10
86.845702228826
 20
-127.5375980236712
 10
86.845702228826
 20
-127.5375980236712
 10
86.845702228826
 20
-135.7877649660531
 10
86.845702228826
 20
-135.7877649660531
 10
86.845702228826
 20
-135.7877649660531
 10
84.8458050576254
 20
-135.7877649660531
 10
84.8458050576254
 20
-135.7877649660531
 10
84.8458050576254
 20
-135.7877649660531
 10
84.8458050576254
 20
-137.787979687775
 10
84.8458050576254
 20
-137.787979687775
 10
84.8458050576254
 20
-137.787979687775
 10
90.84577879344221
 20
-137.787979687775
 10
90.84577879344221
 20
-137.787979687775
 10
90.84577879344221
 20
-137.787979687775
 10
90.84577879344221
 20
-135.7877649660531
 10
90.84577879344221
 20
-135.7877649660531
 10
90.84577879344221
 20
-135.7877649660531
 10
88.8459169000185
 20
-135.7877649660531
 10
88.8459169000185
 20
-135.7877649660531
 10
88.8459169000185
 20
-135.7877649660531
 10
88.8459169000185
 20
-128.9333985788776
 10
88.8459169000185
 20
-128.9333985788776
 10
90.30698130718808
 20
-129.2096941343641
 10
91.71534071570228
 20
-128.2493624679378
 10
91.99163626420895
 20
-126.7879452460809
 10
92.08670987289453
 20
-126.2842844128734
 10
92.03605098529806
 20
-125.7640783018925
 10
91.8459037679269
 20
-125.2879694131224
 10
91.8459037679269
 20
-125.2879694131224
 10
94.47071386527095
 20
-125.2879694131224
 10
94.47071386527095
 20
-125.2879694131224
 10
94.47071386527095
 20
-125.2879694131224
 10
94.8458906358353
 20
-124.6382233021737
 10
94.8458906358353
 20
-124.6382233021737
 10
94.8458906358353
 20
-124.6382233021737
 10
95.22071942063909
 20
-125.2879694131224
 10
95.22071942063909
 20
-125.2879694131224
 10
95.22071942063909
 20
-125.2879694131224
 10
97.8458775037437
 20
-125.2879694131224
 10
97.8458775037437
 20
-125.2879694131224
 10
97.29364164234315
 20
-126.6687416349994
 10
97.96508111181367
 20
-128.2355688568301
 10
99.34588857658635
 20
-128.7880188566919
 10
99.82164719726708
 20
-128.9781660788668
 10
100.3422035511682
 20
-129.0284721899651
 10
100.8458643716521
 20
-128.9333985788776
 10
100.8458643716521
 20
-128.9333985788776
 10
100.8458643716521
 20
-135.7877649660531
 10
100.8458643716521
 20
-135.7877649660531
 10
100.8458643716521
 20
-135.7877649660531
 10
98.8456497004596
 20
-135.7877649660531
 10
98.8456497004596
 20
-135.7877649660531
 10
98.8456497004596
 20
-135.7877649660531
 10
98.8456497004596
 20
-137.787979687775
 10
98.8456497004596
 20
-137.787979687775
 10
98.8456497004596
 20
-137.787979687775
 10
104.8456234362764
 20
-137.787979687775
 10
104.8456234362764
 20
-137.787979687775
 10
104.8456234362764
 20
-137.787979687775
 10
104.8456234362764
 20
-135.7877649660531
 10
104.8456234362764
 20
-135.7877649660531
 10
104.8456234362764
 20
-135.7877649660531
 10
102.8457615428527
 20
-135.7877649660531
 10
102.8457615428527
 20
-135.7877649660531
 10
102.8457615428527
 20
-135.7877649660531
 10
102.8457615428527
 20
-127.5375980236712
 10
102.8457615428527
 20
-127.5375980236712
 97
        0
 97
        0
 75
     2
 76
     1
 98
        0
  0
POLYLINE
  5
9A
330
1F
100
AcDbEntity
  8
_U+30EC_U+30A4_U+30E4_U+30FC 1
 62
   179
420
  2234388
370
    25
100
AcDb2dPolyline
 66
     1
 10
0.0
 20
0.0
 30
0.0
  0
VERTEX
  5
9B
330
9A
100
AcDbEntity
  8
_U+30EC_U+30A4_U+30E4_U+30FC 1
 62
   179
420
  2234388
370
    25
100
AcDbVertex
100
AcDb2dVertex
 10
84.8458050576254
 20
-135.7877649660531
 30
0.0
  0
VERTEX
  5
9C
330
9A
100
AcDbEntity
  8
_U+30EC_U+30A4_U+30E4_U+30FC 1
 62
   179
420
  2234388
370
    25
100
AcDbVertex
100
AcDb2dVertex
 10
86.845702228826
 20
-135.7877649660531
 30
0.0
  0
SEQEND
  5
9D
330
9A
100
AcDbEntity
  8
_U+30EC_U+30A4_U+30E4_U+30FC 1
 62
   179
420
  2234388
370
    25
  0
POLYLINE
  5
9E
330
1F
100
AcDbEntity
  8
_U+30EC_U+30A4_U+30E4_U+30FC 1
 62
   179
420
  2234388
370
    25
100
AcDb2dPolyline
 66
     1
 10
0.0
 20
0.0
 30
0.0
  0
VERTEX
  5
9F
330
9E
100
AcDbEntity
  8
_U+30EC_U+30A4_U+30E4_U+30FC 1
 62
   179
420
  2234388
370
    25
100
AcDbVertex
100
AcDb2dVertex
 10
102.8457615428527
 20
-123.2877546914003
 30
0.0
  0
VERTEX
  5
A0
330
9E
100
AcDbEntity
  8
_U+30EC_U+30A4_U+30E4_U+30FC 1
 62
   179
420
  2234388
370
    25
100
AcDbVertex
100
AcDb2dVertex
 10
102.8457615428527
 20
-125.0378499687406
 30
0.0
  0
SEQEND
  5
A1
330
9E
100
AcDbEntity
  8
_U+30EC_U+30A4_U+30E4_U+30FC 1
 62
   179
420
  2234388
370
    25
  0
POLYLINE
  5
A2
330
1F
100
AcDbEntity
  8
_U+30EC_U+30A4_U+30E4_U+30FC 1
 62
   179
420
  2234388
370
    25
100
AcDb2dPolyline
 66
     1
 10
0.0
 20
0.0
 30
0.0
  0
VERTEX
  5
A3
330
A2
100
AcDbEntity
  8
_U+30EC_U+30A4_U+30E4_U+30FC 1
 62
   179
420
  2234388
370
    25
100
AcDbVertex
100
AcDb2dVertex
 10
86.845702228826
 20
-123.2877546914003
 30
0.0
  0
VERTEX
  5
A4
330
A2
100
AcDbEntity
  8
_U+30EC_U+30A4_U+30E4_U+30FC 1
 62
   179
420
  2234388
370
    25
100
AcDbVertex
100
AcDb2dVertex
 10
102.8457615428527
 20
-123.2877546914003
 30
0.0
  0
SEQEND
  5
A5
330
A2
100
AcDbEntity
  8
_U+30EC_U+30A4_U+30E4_U+30FC 1
 62
   179
420
  2234388
370
    25
  0
POLYLINE
  5
A6
330
1F
100
AcDbEntity
  8
_U+30EC_U+30A4_U+30E4_U+30FC 1
 62
   179
420
  2234388
370
    25
100
AcDb2dPolyline
 66
     1
 10
0.0
 20
0.0
 30
0.0
  0
VERTEX
  5
A7
330
A6
100
AcDbEntity
  8
_U+30EC_U+30A4_U+30E4_U+30FC 1
 62
   179
420
  2234388
370
    25
100
AcDbVertex
100
AcDb2dVertex
 10
84.8458050576254
 20
-137.787979687775
 30
0.0
  0
VERTEX
  5
A8
330
A6
100
AcDbEntity
  8
_U+30EC_U+30A4_U+30E4_U+30FC 1
 62
   179
420
  2234388
370
    25
100
AcDbVertex
100
AcDb2dVertex
 10
90.84577879344221
 20
-137.787979687775
 30
0.0
  0
SEQEND
  5
A9
330
A6
100
AcDbEntity
  8
_U+30EC_U+30A4_U+30E4_U+30FC 1
 62
   179
420
  2234388
370
    25
  0
POLYLINE
  5
AA
330
1F
100
AcDbEntity
  8
_U+30EC_U+30A4_U+30E4_U+30FC 1
 62
   179
420
  2234388
370
    25
100
AcDb2dPolyline
 66
     1
 10
0.0
 20
0.0
 30
0.0
  0
VERTEX
  5
AB
330
AA
100
AcDbEntity
  8
_U+30EC_U+30A4_U+30E4_U+30FC 1
 62
   179
420
  2234388
370
    25
100
AcDbVertex
100
AcDb2dVertex
 10
98.8456497004596
 20
-135.7877649660531
 30
0.0
  0
VERTEX
  5
AC
330
AA
100
AcDbEntity
  8
_U+30EC_U+30A4_U+30E4_U+30FC 1
 62
   179
420
  2234388
370
    25
100
AcDbVertex
100
AcDb2dVertex
 10
98.8456497004596
 20
-137.787979687775
 30
0.0
  0
SEQEND
  5
AD
330
AA
100
AcDbEntity
  8
_U+30EC_U+30A4_U+30E4_U+30FC 1
 62
   179
420
  2234388
370
    25
  0
POLYLINE
  5
AE
330
1F
100
AcDbEntity
  8
_U+30EC_U+30A4_U+30E4_U+30FC 1
 62
   179
420
  2234388
370
    25
100
AcDb2dPolyline
 66
     1
 10
0.0
 20
0.0
 30
0.0
  0
VERTEX
  5
AF
330
AE
100
AcDbEntity
  8
_U+30EC_U+30A4_U+30E4_U+30FC 1
 62
   179
420
  2234388
370
    25
100
AcDbVertex
100
AcDb2dVertex
 10
90.84577879344221
 20
-135.7877649660531
 30
0.0
  0
VERTEX
  5
B0
330
AE
100
AcDbEntity
  8
_U+30EC_U+30A4_U+30E4_U+30FC 1
 62
   179
420
  2234388
370
    25
100
AcDbVertex
100
AcDb2dVertex
 10
90.84577879344221
 20
-137.787979687775
 30
0.0
  0
SEQEND
  5
B1
330
AE
100
AcDbEntity
  8
_U+30EC_U+30A4_U+30E4_U+30FC 1
 62
   179
420
  2234388
370
    25
  0
POLYLINE
  5
B2
330
1F
100
AcDbEntity
  8
_U+30EC_U+30A4_U+30E4_U+30FC 1
 62
   179
420
  2234388
370
    25
100
AcDb2dPolyline
 66
     1
 10
0.0
 20
0.0
 30
0.0
  0
VERTEX
  5
B3
330
B2
100
AcDbEntity
  8
_U+30EC_U+30A4_U+30E4_U+30FC 1
 62
   179
420
  2234388
370
    25
100
AcDbVertex
100
AcDb2dVertex
 10
104.8456234362764
 20
-135.7877649660531
 30
0.0
  0
VERTEX
  5
B4
330
B2
100
AcDbEntity
  8
_U+30EC_U+30A4_U+30E4_U+30FC 1
 62
   179
420
  2234388
370
    25
100
AcDbVertex
100
AcDb2dVertex
 10
104.8456234362764
 20
-137.787979687775
 30
0.0
  0
SEQEND
  5
B5
330
B2
100
AcDbEntity
  8
_U+30EC_U+30A4_U+30E4_U+30FC 1
 62
   179
420
  2234388
370
    25
  0
POLYLINE
  5
B6
330
1F
100
AcDbEntity
  8
_U+30EC_U+30A4_U+30E4_U+30FC 1
 62
   179
420
  2234388
370
    25
100
AcDb2dPolyline
 66
     1
 10
0.0
 20
0.0
 30
0.0
  0
VERTEX
  5
B7
330
B6
100
AcDbEntity
  8
_U+30EC_U+30A4_U+30E4_U+30FC 1
 62
   179
420
  2234388
370
    25
100
AcDbVertex
100
AcDb2dVertex
 10
84.8458050576254
 20
-135.7877649660531
 30
0.0
  0
VERTEX
  5
B8
330
B6
100
AcDbEntity
  8
_U+30EC_U+30A4_U+30E4_U+30FC 1
 62
   179
420
  2234388
370
    25
100
AcDbVertex
100
AcDb2dVertex
 10
84.8458050576254
 20
-137.787979687775
 30
0.0
  0
SEQEND
  5
B9
330
B6
100
AcDbEntity
  8
_U+30EC_U+30A4_U+30E4_U+30FC 1
 62
   179
420
  2234388
370
    25
  0
POLYLINE
  5
BA
330
1F
100
AcDbEntity
  8
_U+30EC_U+30A4_U+30E4_U+30FC 1
 62
   179
420
  2234388
370
    25
100
AcDb2dPolyline
 66
     1
 10
0.0
 20
0.0
 30
0.0
  0
VERTEX
  5
BB
330
BA
100
AcDbEntity
  8
_U+30EC_U+30A4_U+30E4_U+30FC 1
 62
   179
420
  2234388
370
    25
100
AcDbVertex
100
AcDb2dVertex
 10
102.8457615428527
 20
-135.7877649660531
 30
0.0
  0
VERTEX
  5
BC
330
BA
100
AcDbEntity
  8
_U+30EC_U+30A4_U+30E4_U+30FC 1
 62
   179
420
  2234388
370
    25
100
AcDbVertex
100
AcDb2dVertex
 10
104.8456234362764
 20
-135.7877649660531
 30
0.0
  0
SEQEND
  5
BD
330
BA
100
AcDbEntity
  8
_U+30EC_U+30A4_U+30E4_U+30FC 1
 62
   179
420
  2234388
370
    25
  0
POLYLINE
  5
BE
330
1F
100
AcDbEntity
  8
_U+30EC_U+30A4_U+30E4_U+30FC 1
 62
   179
420
  2234388
370
    25
100
AcDb2dPolyline
 66
     1
 10
0.0
 20
0.0
 30
0.0
  0
VERTEX
  5
BF
330
BE
100
AcDbEntity
  8
_U+30EC_U+30A4_U+30E4_U+30FC 1
 62
   179
420
  2234388
370
    25
100
AcDbVertex
100
AcDb2dVertex
 10
98.8456497004596
 20
-137.787979687775
 30
0.0
  0
VERTEX
  5
C0
330
BE
100
AcDbEntity
  8
_U+30EC_U+30A4_U+30E4_U+30FC 1
 62
   179
420
  2234388
370
    25
100
AcDbVertex
100
AcDb2dVertex
 10
104.8456234362764
 20
-137.787979687775
 30
0.0
  0
SEQEND
  5
C1
330
BE
100
AcDbEntity
  8
_U+30EC_U+30A4_U+30E4_U+30FC 1
 62
   179
420
  2234388
370
    25
  0
POLYLINE
  5
C2
330
1F
100
AcDbEntity
  8
_U+30EC_U+30A4_U+30E4_U+30FC 1
 62
   179
420
  2234388
370
    25
100
AcDb2dPolyline
 66
     1
 10
0.0
 20
0.0
 30
0.0
  0
VERTEX
  5
C3
330
C2
100
AcDbEntity
  8
_U+30EC_U+30A4_U+30E4_U+30FC 1
 62
   179
420
  2234388
370
    25
100
AcDbVertex
100
AcDb2dVertex
 10
88.8459169000185
 20
-135.7877649660531
 30
0.0
  0
VERTEX
  5
C4
330
C2
100
AcDbEntity
  8
_U+30EC_U+30A4_U+30E4_U+30FC 1
 62
   179
420
  2234388
370
    25
100
AcDbVertex
100
AcDb2dVertex
 10
90.84577879344221
 20
-135.7877649660531
 30
0.0
  0
SEQEND
  5
C5
330
C2
100
AcDbEntity
  8
_U+30EC_U+30A4_U+30E4_U+30FC 1
 62
   179
420
  2234388
370
    25
  0
POLYLINE
  5
C6
330
1F
100
AcDbEntity
  8
_U+30EC_U+30A4_U+30E4_U+30FC 1
 62
   179
420
  2234388
370
    25
100
AcDb2dPolyline
 66
     1
 10
0.0
 20
0.0
 30
0.0
  0
VERTEX
  5
C7
330
C6
100
AcDbEntity
  8
_U+30EC_U+30A4_U+30E4_U+30FC 1
 62
   179
420
  2234388
370
    25
100
AcDbVertex
100
AcDb2dVertex
 10
98.8456497004596
 20
-135.7877649660531
 30
0.0
  0
VERTEX
  5
C8
330
C6
100
AcDbEntity
  8
_U+30EC_U+30A4_U+30E4_U+30FC 1
 62
   179
420
  2234388
370
    25
100
AcDbVertex
100
AcDb2dVertex
 10
100.8458643716521
 20
-135.7877649660531
 30
0.0
  0
SEQEND
  5
C9
330
C6
100
AcDbEntity
  8
_U+30EC_U+30A4_U+30E4_U+30FC 1
 62
   179
420
  2234388
370
    25
  0
POLYLINE
  5
CA
330
1F
100
AcDbEntity
  8
_U+30EC_U+30A4_U+30E4_U+30FC 1
 62
   179
420
  2234388
370
    25
100
AcDb2dPolyline
 66
     1
 10
0.0
 20
0.0
 30
0.0
  0
VERTEX
  5
CB
330
CA
100
AcDbEntity
  8
_U+30EC_U+30A4_U+30E4_U+30FC 1
 62
   179
420
  2234388
370
    25
100
AcDbVertex
100
AcDb2dVertex
 10
100.8458643716521
 20
-128.9333985788776
 30
0.0
  0
VERTEX
  5
CC
330
CA
100
AcDbEntity
  8
_U+30EC_U+30A4_U+30E4_U+30FC 1
 62
   179
420
  2234388
370
    25
100
AcDbVertex
100
AcDb2dVertex
 10
100.8458643716521
 20
-135.7877649660531
 30
0.0
  0
SEQEND
  5
CD
330
CA
100
AcDbEntity
  8
_U+30EC_U+30A4_U+30E4_U+30FC 1
 62
   179
420
  2234388
370
    25
  0
POLYLINE
  5
CE
330
1F
100
AcDbEntity
  8
_U+30EC_U+30A4_U+30E4_U+30FC 1
 62
   179
420
  2234388
370
    25
100
AcDb2dPolyline
 66
     1
 10
0.0
 20
0.0
 30
0.0
  0
VERTEX
  5
CF
330
CE
100
AcDbEntity
  8
_U+30EC_U+30A4_U+30E4_U+30FC 1
 62
   179
420
  2234388
370
    25
100
AcDbVertex
100
AcDb2dVertex
 10
91.8459037679269
 20
-125.2879694131224
 30
0.0
  0
VERTEX
  5
D0
330
CE
100
AcDbEntity
  8
_U+30EC_U+30A4_U+30E4_U+30FC 1
 62
   179
420
  2234388
370
    25
100
AcDbVertex
100
AcDb2dVertex
 10
94.47071386527095
 20
-125.2879694131224
 30
0.0
  0
SEQEND
  5
D1
330
CE
100
AcDbEntity
  8
_U+30EC_U+30A4_U+30E4_U+30FC 1
 62
   179
420
  2234388
370
    25
  0
POLYLINE
  5
D2
330
1F
100
AcDbEntity
  8
_U+30EC_U+30A4_U+30E4_U+30FC 1
 62
   179
420
  2234388
370
    25
100
AcDb2dPolyline
 66
     1
 10
0.0
 20
0.0
 30
0.0
  0
VERTEX
  5
D3
330
D2
100
AcDbEntity
  8
_U+30EC_U+30A4_U+30E4_U+30FC 1
 62
   179
420
  2234388
370
    25
100
AcDbVertex
100
AcDb2dVertex
 10
101.7471083078964
 20
-125.4650285797449
 30
0.0
  0
VERTEX
  5
D4
330
D2
100
AcDbEntity
  8
_U+30EC_U+30A4_U+30E4_U+30FC 1
 62
   179
420
  2234388
370
    25
100
AcDbVertex
100
AcDb2dVertex
 10
102.8457615428527
 20
-125.0378499687406
 30
0.0
  0
SEQEND
  5
D5
330
D2
100
AcDbEntity
  8
_U+30EC_U+30A4_U+30E4_U+30FC 1
 62
   179
420
  2234388
370
    25
  0
POLYLINE
  5
D6
330
1F
100
AcDbEntity
  8
_U+30EC_U+30A4_U+30E4_U+30FC 1
 62
   179
420
  2234388
370
    25
100
AcDb2dPolyline
 66
     1
 10
0.0
 20
0.0
 30
0.0
  0
VERTEX
  5
D7
330
D6
100
AcDbEntity
  8
_U+30EC_U+30A4_U+30E4_U+30FC 1
 62
   179
420
  2234388
370
    25
100
AcDbVertex
100
AcDb2dVertex
 10
101.7471083078964
 20
-127.1104194126669
 30
0.0
  0
VERTEX
  5
D8
330
D6
100
AcDbEntity
  8
_U+30EC_U+30A4_U+30E4_U+30FC 1
 62
   179
420
  2234388
370
    25
100
AcDbVertex
100
AcDb2dVertex
 10
102.8457615428527
 20
-127.5375980236712
 30
0.0
  0
SEQEND
  5
D9
330
D6
100
AcDbEntity
  8
_U+30EC_U+30A4_U+30E4_U+30FC 1
 62
   179
420
  2234388
370
    25
  0
POLYLINE
  5
DA
330
1F
100
AcDbEntity
  8
_U+30EC_U+30A4_U+30E4_U+30FC 1
 62
   179
420
  2234388
370
    25
100
AcDb2dPolyline
 66
     1
 10
0.0
 20
0.0
 30
0.0
  0
VERTEX
  5
DB
330
DA
100
AcDbEntity
  8
_U+30EC_U+30A4_U+30E4_U+30FC 1
 62
   179
420
  2234388
370
    25
100
AcDbVertex
100
AcDb2dVertex
 10
102.8457615428527
 20
-127.5375980236712
 30
0.0
  0
VERTEX
  5
DC
330
DA
100
AcDbEntity
  8
_U+30EC_U+30A4_U+30E4_U+30FC 1
 62
   179
420
  2234388
370
    25
100
AcDbVertex
100
AcDb2dVertex
 10
102.8457615428527
 20
-135.7877649660531
 30
0.0
  0
SEQEND
  5
DD
330
DA
100
AcDbEntity
  8
_U+30EC_U+30A4_U+30E4_U+30FC 1
 62
   179
420
  2234388
370
    25
  0
POLYLINE
  5
DE
330
1F
100
AcDbEntity
  8
_U+30EC_U+30A4_U+30E4_U+30FC 1
 62
   179
420
  2234388
370
    25
100
AcDb2dPolyline
 66
     1
 10
0.0
 20
0.0
 30
0.0
  0
VERTEX
  5
DF
330
DE
100
AcDbEntity
  8
_U+30EC_U+30A4_U+30E4_U+30FC 1
 62
   179
420
  2234388
370
    25
100
AcDbVertex
100
AcDb2dVertex
 10
86.845702228826
 20
-127.5375980236712
 30
0.0
  0
VERTEX
  5
E0
330
DE
100
AcDbEntity
  8
_U+30EC_U+30A4_U+30E4_U+30FC 1
 62
   179
420
  2234388
370
    25
100
AcDbVertex
100
AcDb2dVertex
 10
86.845702228826
 20
-135.7877649660531
 30
0.0
  0
SEQEND
  5
E1
330
DE
100
AcDbEntity
  8
_U+30EC_U+30A4_U+30E4_U+30FC 1
 62
   179
420
  2234388
370
    25
  0
POLYLINE
  5
E2
330
1F
100
AcDbEntity
  8
_U+30EC_U+30A4_U+30E4_U+30FC 1
 62
   179
420
  2234388
370
    25
100
AcDb2dPolyline
 66
     1
 10
0.0
 20
0.0
 30
0.0
  0
VERTEX
  5
E3
330
E2
100
AcDbEntity
  8
_U+30EC_U+30A4_U+30E4_U+30FC 1
 62
   179
420
  2234388
370
    25
100
AcDbVertex
100
AcDb2dVertex
 10
87.94432497801398
 20
-127.1104194126669
 30
0.0
  0
VERTEX
  5
E4
330
E2
100
AcDbEntity
  8
_U+30EC_U+30A4_U+30E4_U+30FC 1
 62
   179
420
  2234388
370
    25
100
AcDbVertex
100
AcDb2dVertex
 10
86.845702228826
 20
-127.5375980236712
 30
0.0
  0
SEQEND
  5
E5
330
E2
100
AcDbEntity
  8
_U+30EC_U+30A4_U+30E4_U+30FC 1
 62
   179
420
  2234388
370
    25
  0
POLYLINE
  5
E6
330
1F
100
AcDbEntity
  8
_U+30EC_U+30A4_U+30E4_U+30FC 1
 62
   179
420
  2234388
370
    25
100
AcDb2dPolyline
 66
     1
 10
0.0
 20
0.0
 30
0.0
  0
VERTEX
  5
E7
330
E6
100
AcDbEntity
  8
_U+30EC_U+30A4_U+30E4_U+30FC 1
 62
   179
420
  2234388
370
    25
100
AcDbVertex
100
AcDb2dVertex
 10
87.94432497801398
 20
-125.4650285797449
 30
0.0
  0
VERTEX
  5
E8
330
E6
100
AcDbEntity
  8
_U+30EC_U+30A4_U+30E4_U+30FC 1
 62
   179
420
  2234388
370
    25
100
AcDbVertex
100
AcDb2dVertex
 10
86.845702228826
 20
-125.0378499687406
 30
0.0
  0
SEQEND
  5
E9
330
E6
100
AcDbEntity
  8
_U+30EC_U+30A4_U+30E4_U+30FC 1
 62
   179
420
  2234388
370
    25
  0
POLYLINE
  5
EA
330
1F
100
AcDbEntity
  8
_U+30EC_U+30A4_U+30E4_U+30FC 1
 62
   179
420
  2234388
370
    25
100
AcDb2dPolyline
 66
     1
 10
0.0
 20
0.0
 30
0.0
  0
VERTEX
  5
EB
330
EA
100
AcDbEntity
  8
_U+30EC_U+30A4_U+30E4_U+30FC 1
 62
   179
420
  2234388
370
    25
100
AcDbVertex
100
AcDb2dVertex
 10
88.8459169000185
 20
-128.9333985788776
 30
0.0
  0
VERTEX
  5
EC
330
EA
100
AcDbEntity
  8
_U+30EC_U+30A4_U+30E4_U+30FC 1
 62
   179
420
  2234388
370
    25
100
AcDbVertex
100
AcDb2dVertex
 10
88.8459169000185
 20
-135.7877649660531
 30
0.0
  0
SEQEND
  5
ED
330
EA
100
AcDbEntity
  8
_U+30EC_U+30A4_U+30E4_U+30FC 1
 62
   179
420
  2234388
370
    25
  0
POLYLINE
  5
EE
330
1F
100
AcDbEntity
  8
_U+30EC_U+30A4_U+30E4_U+30FC 1
 62
   179
420
  2234388
370
    25
100
AcDb2dPolyline
 66
     1
 10
0.0
 20
0.0
 30
0.0
  0
VERTEX
  5
EF
330
EE
100
AcDbEntity
  8
_U+30EC_U+30A4_U+30E4_U+30FC 1
 62
   179
420
  2234388
370
    25
100
AcDbVertex
100
AcDb2dVertex
 10
86.845702228826
 20
-123.2877546914003
 30
0.0
  0
VERTEX
  5
F0
330
EE
100
AcDbEntity
  8
_U+30EC_U+30A4_U+30E4_U+30FC 1
 62
   179
420
  2234388
370
    25
100
AcDbVertex
100
AcDb2dVertex
 10
86.845702228826
 20
-125.0378499687406
 30
0.0
  0
SEQEND
  5
F1
330
EE
100
AcDbEntity
  8
_U+30EC_U+30A4_U+30E4_U+30FC 1
 62
   179
420
  2234388
370
    25
  0
POLYLINE
  5
F2
330
1F
100
AcDbEntity
  8
_U+30EC_U+30A4_U+30E4_U+30FC 1
 62
   179
420
  2234388
370
    25
100
AcDb2dPolyline
 66
     1
 10
0.0
 20
0.0
 30
0.0
  0
VERTEX
  5
F3
330
F2
100
AcDbEntity
  8
_U+30EC_U+30A4_U+30E4_U+30FC 1
 62
   179
420
  2234388
370
    25
100
AcDbVertex
100
AcDb2dVertex
 10
94.47071386527095
 20
-125.2879694131224
 30
0.0
  0
VERTEX
  5
F4
330
F2
100
AcDbEntity
  8
_U+30EC_U+30A4_U+30E4_U+30FC 1
 62
   179
420
  2234388
370
    25
100
AcDbVertex
100
AcDb2dVertex
 10
94.8458906358353
 20
-124.6382233021737
 30
0.0
  0
SEQEND
  5
F5
330
F2
100
AcDbEntity
  8
_U+30EC_U+30A4_U+30E4_U+30FC 1
 62
   179
420
  2234388
370
    25
  0
POLYLINE
  5
F6
330
1F
100
AcDbEntity
  8
_U+30EC_U+30A4_U+30E4_U+30FC 1
 62
   179
420
  2234388
370
    25
100
AcDb2dPolyline
 66
     1
 10
0.0
 20
0.0
 30
0.0
  0
VERTEX
  5
F7
330
F6
100
AcDbEntity
  8
_U+30EC_U+30A4_U+30E4_U+30FC 1
 62
   179
420
  2234388
370
    25
100
AcDbVertex
100
AcDb2dVertex
 10
94.8458906358353
 20
-124.6382233021737
 30
0.0
  0
VERTEX
  5
F8
330
F6
100
AcDbEntity
  8
_U+30EC_U+30A4_U+30E4_U+30FC 1
 62
   179
420
  2234388
370
    25
100
AcDbVertex
100
AcDb2dVertex
 10
95.22071942063909
 20
-125.2879694131224
 30
0.0
  0
SEQEND
  5
F9
330
F6
100
AcDbEntity
  8
_U+30EC_U+30A4_U+30E4_U+30FC 1
 62
   179
420
  2234388
370
    25
  0
POLYLINE
  5
FA
330
1F
100
AcDbEntity
  8
_U+30EC_U+30A4_U+30E4_U+30FC 1
 62
   179
420
  2234388
370
    25
100
AcDb2dPolyline
 66
     1
 10
0.0
 20
0.0
 30
0.0
  0
VERTEX
  5
FB
330
FA
100
AcDbEntity
  8
_U+30EC_U+30A4_U+30E4_U+30FC 1
 62
   179
420
  2234388
370
    25
100
AcDbVertex
100
AcDb2dVertex
 10
95.22071942063909
 20
-125.2879694131224
 30
0.0
  0
VERTEX
  5
FC
330
FA
100
AcDbEntity
  8
_U+30EC_U+30A4_U+30E4_U+30FC 1
 62
   179
420
  2234388
370
    25
100
AcDbVertex
100
AcDb2dVertex
 10
97.8458775037437
 20
-125.2879694131224
 30
0.0
  0
SEQEND
  5
FD
330
FA
100
AcDbEntity
  8
_U+30EC_U+30A4_U+30E4_U+30FC 1
 62
   179
420
  2234388
370
    25
  0
SPLINE
  5
FE
330
1F
100
AcDbEntity
  8
_U+30EC_U+30A4_U+30E4_U+30FC 1
 62
   179
420
  2234388
370
    25
100
AcDbSpline
210
0.0
220
0.0
230
1.0
 70
     8
 71
     3
 72
    17
 73
    13
 74
     0
 42
0.0000000001
 43
0.0000000001
 12
1.0
 22
0.0
 32
0.0
 13
1.0
 23
0.0
 33
0.0
 40
0.0
 40
0.0
 40
0.0
 40
0.0
 40
1.0
 40
1.0
 40
1.0
 40
2.0
 40
2.0
 40
2.0
 40
3.0
 40
3.0
 40
3.0
 40
4.0
 40
4.0
 40
4.0
 40
4.0
 10
101.7471083078964
 20
-125.4650285797449
 30
0.0
 10
101.2926926935859
 20
-124.6912810799384
 30
0.0
 10
100.2970479967647
 20
-124.4322010800031
 30
0.0
 10
99.52294773873585
 20
-124.8869669132227
 30
0.0
 10
98.74916498069892
 20
-125.3410271908871
 30
0.0
 10
98.49012026508548
 20
-126.3366366350825
 30
0.0
 10
98.94453330904798
 20
-127.1104194126669
 30
0.0
 10
99.39891107523363
 20
-127.8848724680289
 30
0.0
 10
100.3945583082349
 20
-128.1439524679639
 30
0.0
 10
101.1686560300837
 20
-127.6891866347443
 30
0.0
 10
101.4074160239924
 20
-127.5486399681128
 30
0.0
 10
101.6068765744593
 20
-127.3494969126072
 30
0.0
 10
101.7471083078964
 20
-127.1104194126669
 30
0.0
  0
SPLINE
  5
FF
330
1F
100
AcDbEntity
  8
_U+30EC_U+30A4_U+30E4_U+30FC 1
 62
   179
420
  2234388
370
    25
100
AcDbSpline
210
0.0
220
0.0
230
1.0
 70
     8
 71
     3
 72
    11
 73
     7
 74
     0
 42
0.0000000001
 43
0.0000000001
 12
1.0
 22
0.0
 32
0.0
 13
1.0
 23
0.0
 33
0.0
 40
0.0
 40
0.0
 40
0.0
 40
0.0
 40
1.0
 40
1.0
 40
1.0
 40
2.0
 40
2.0
 40
2.0
 40
2.0
 10
97.8458775037437
 20
-125.2879694131224
 30
0.0
 10
97.29364164234315
 20
-126.6687416349994
 30
0.0
 10
97.96508111181367
 20
-128.2355688568301
 30
0.0
 10
99.34588857658635
 20
-128.7880188566919
 30
0.0
 10
99.82164719726708
 20
-128.9781660788668
 30
0.0
 10
100.3422035511682
 20
-129.0284721899651
 30
0.0
 10
100.8458643716521
 20
-128.9333985788776
 30
0.0
  0
SPLINE
  5
100
330
1F
100
AcDbEntity
  8
_U+30EC_U+30A4_U+30E4_U+30FC 1
 62
   179
420
  2234388
370
    25
100
AcDbSpline
210
0.0
220
0.0
230
1.0
 70
     8
 71
     3
 72
    11
 73
     7
 74
     0
 42
0.0000000001
 43
0.0000000001
 12
1.0
 22
0.0
 32
0.0
 13
1.0
 23
0.0
 33
0.0
 40
0.0
 40
0.0
 40
0.0
 40
0.0
 40
1.0
 40
1.0
 40
1.0
 40
2.0
 40
2.0
 40
2.0
 40
2.0
 10
88.8459169000185
 20
-128.9333985788776
 30
0.0
 10
90.30698130718808
 20
-129.2096941343641
 30
0.0
 10
91.71534071570228
 20
-128.2493624679378
 30
0.0
 10
91.99163626420895
 20
-126.7879452460809
 30
0.0
 10
92.08670987289453
 20
-126.2842844128734
 30
0.0
 10
92.03605098529806
 20
-125.7640783018925
 30
0.0
 10
91.8459037679269
 20
-125.2879694131224
 30
0.0
  0
SPLINE
  5
101
330
1F
100
AcDbEntity
  8
_U+30EC_U+30A4_U+30E4_U+30FC 1
 62
   179
420
  2234388
370
    25
100
AcDbSpline
210
0.0
220
0.0
230
1.0
 70
     8
 71
     3
 72
    17
 73
    13
 74
     0
 42
0.0000000001
 43
0.0000000001
 12
1.0
 22
0.0
 32
0.0
 13
1.0
 23
0.0
 33
0.0
 40
0.0
 40
0.0
 40
0.0
 40
0.0
 40
1.0
 40
1.0
 40
1.0
 40
2.0
 40
2.0
 40
2.0
 40
3.0
 40
3.0
 40
3.0
 40
4.0
 40
4.0
 40
4.0
 40
4.0
 10
87.94432497801398
 20
-127.1104194126669
 30
0.0
 10
88.39873580031592
 20
-127.8848724680289
 30
0.0
 10
89.39469799712903
 20
-128.1439524679639
 30
0.0
 10
90.16848075516596
 20
-127.6891866347443
 30
0.0
 10
90.94258331059768
 20
-127.2351263570802
 30
0.0
 10
91.20130822881634
 20
-126.2388113573293
 30
0.0
 10
90.74724796262261
 20
-125.4650285797449
 30
0.0
 10
90.29283491866009
 20
-124.6912810799384
 30
0.0
 10
89.29687497767578
 20
-124.4322010800031
 30
0.0
 10
88.52308996381005
 20
-124.8869669132227
 30
0.0
 10
88.28401246990943
 20
-125.0268080242987
 30
0.0
 10
88.0849046972113
 20
-125.2259510798046
 30
0.0
 10
87.94432497801398
 20
-125.4650285797449
 30
0.0
  0
SPLINE
  5
102
330
1F
100
AcDbEntity
  8
_U+30EC_U+30A4_U+30E4_U+30FC 1
 62
   179
420
  2234388
370
     9
100
AcDbSpline
210
0.0
220
0.0
230
1.0
 70
    11
 71
     3
 72
    17
 73
    13
 74
     0
 42
0.0000000001
 43
0.0000000001
 12
1.0
 22
0.0
 32
0.0
 13
1.0
 23
0.0
 33
0.0
 40
0.0
 40
0.0
 40
0.0
 40
0.0
 40
1.0
 40
1.0
 40
1.0
 40
2.0
 40
2.0
 40
2.0
 40
3.0
 40
3.0
 40
3.0
 40
4.0
 40
4.0
 40
4.0
 40
4.0
 10
86.94561108937472
 20
-119.2879955257334
 30
0.0
 10
86.94561108937472
 20
-119.2328563590807
 30
0.0
 10
86.90116108938577
 20
-119.1880888590918
 30
0.0
 10
86.845702228826
 20
-119.1880888590918
 30
0.0
 10
86.79056306356604
 20
-119.1880888590918
 30
0.0
 10
86.74579556470816
 20
-119.2328563590807
 30
0.0
 10
86.74579556470816
 20
-119.2879955257334
 30
0.0
 10
86.74579556470816
 20
-119.3430994146087
 30
0.0
 10
86.79056306356604
 20
-119.3879021923754
 30
0.0
 10
86.845702228826
 20
-119.3879021923754
 30
0.0
 10
86.90116108938577
 20
-119.3879021923754
 30
0.0
 10
86.94561108937472
 20
-119.3430994146087
 30
0.0
 10
86.94561108937472
 20
-119.2879955257334
 30
0.0
  0
SPLINE
  5
103
330
1F
100
AcDbEntity
  8
_U+30EC_U+30A4_U+30E4_U+30FC 1
 62
   179
420
  2234388
370
     9
100
AcDbSpline
210
0.0
220
0.0
230
1.0
 70
    11
 71
     3
 72
    17
 73
    13
 74
     0
 42
0.0000000001
 43
0.0000000001
 12
1.0
 22
0.0
 32
0.0
 13
1.0
 23
0.0
 33
0.0
 40
0.0
 40
0.0
 40
0.0
 40
0.0
 40
1.0
 40
1.0
 40
1.0
 40
2.0
 40
2.0
 40
2.0
 40
3.0
 40
3.0
 40
3.0
 40
4.0
 40
4.0
 40
4.0
 40
4.0
 10
102.9456682069705
 20
-119.2879955257334
 30
0.0
 10
102.9456682069705
 20
-119.2328563590807
 30
0.0
 10
102.9008654303358
 20
-119.1880888590918
 30
0.0
 10
102.8457615428527
 20
-119.1880888590918
 30
0.0
 10
102.7906249743023
 20
-119.1880888590918
 30
0.0
 10
102.7458221965356
 20
-119.2328563590807
 30
0.0
 10
102.7458221965356
 20
-119.2879955257334
 30
0.0
 10
102.7458221965356
 20
-119.3430994146087
 30
0.0
 10
102.7906249743023
 20
-119.3879021923754
 30
0.0
 10
102.8457615428527
 20
-119.3879021923754
 30
0.0
 10
102.9008654303358
 20
-119.3879021923754
 30
0.0
 10
102.9456682069705
 20
-119.3430994146087
 30
0.0
 10
102.9456682069705
 20
-119.2879955257334
 30
0.0
  0
SPLINE
  5
104
330
1F
100
AcDbEntity
  8
_U+30EC_U+30A4_U+30E4_U+30FC 1
 62
   179
420
  2234388
370
     9
100
AcDbSpline
210
0.0
220
0.0
230
1.0
 70
    11
 71
     3
 72
    17
 73
    13
 74
     0
 42
0.0000000001
 43
0.0000000001
 12
1.0
 22
0.0
 32
0.0
 13
1.0
 23
0.0
 33
0.0
 40
0.0
 40
0.0
 40
0.0
 40
0.0
 40
1.0
 40
1.0
 40
1.0
 40
2.0
 40
2.0
 40
2.0
 40
3.0
 40
3.0
 40
3.0
 40
4.0
 40
4.0
 40
4.0
 40
4.0
 10
80.94559987935014
 20
-123.2877546914003
 30
0.0
 10
80.94559987935014
 20
-123.2326155247476
 30
0.0
 10
80.90083238049226
 20
-123.1878127469808
 30
0.0
 10
80.84569321523232
 20
-123.1878127469808
 30
0.0
 10
80.79058932774925
 20
-123.1878127469808
 30
0.0
 10
80.74578655111448
 20
-123.2326155247476
 30
0.0
 10
80.74578655111448
 20
-123.2877546914003
 30
0.0
 10
80.74578655111448
 20
-123.3428585802755
 30
0.0
 10
80.79058932774925
 20
-123.387661358042
 30
0.0
 10
80.84569321523232
 20
-123.387661358042
 30
0.0
 10
80.90083238049226
 20
-123.387661358042
 30
0.0
 10
80.94559987935014
 20
-123.3428585802755
 30
0.0
 10
80.94559987935014
 20
-123.2877546914003
 30
0.0
  0
SPLINE
  5
105
330
1F
100
AcDbEntity
  8
_U+30EC_U+30A4_U+30E4_U+30FC 1
 62
   179
420
  2234388
370
     9
100
AcDbSpline
210
0.0
220
0.0
230
1.0
 70
    11
 71
     3
 72
    17
 73
    13
 74
     0
 42
0.0000000001
 43
0.0000000001
 12
1.0
 22
0.0
 32
0.0
 13
1.0
 23
0.0
 33
0.0
 40
0.0
 40
0.0
 40
0.0
 40
0.0
 40
1.0
 40
1.0
 40
1.0
 40
2.0
 40
2.0
 40
2.0
 40
3.0
 40
3.0
 40
3.0
 40
4.0
 40
4.0
 40
4.0
 40
4.0
 10
80.94559987935014
 20
-135.7877649660531
 30
0.0
 10
80.94559987935014
 20
-135.7326257994001
 30
0.0
 10
80.90083238049226
 20
-135.6878582994115
 30
0.0
 10
80.84569321523232
 20
-135.6878582994115
 30
0.0
 10
80.79058932774925
 20
-135.6878582994115
 30
0.0
 10
80.74578655111448
 20
-135.7326257994001
 30
0.0
 10
80.74578655111448
 20
-135.7877649660531
 30
0.0
 10
80.74578655111448
 20
-135.8428688549281
 30
0.0
 10
80.79058932774925
 20
-135.8876716326948
 30
0.0
 10
80.84569321523232
 20
-135.8876716326948
 30
0.0
 10
80.90083238049226
 20
-135.8876716326948
 30
0.0
 10
80.94559987935014
 20
-135.8428688549281
 30
0.0
 10
80.94559987935014
 20
-135.7877649660531
 30
0.0
  0
SPLINE
  5
106
330
1F
100
AcDbEntity
  8
_U+30EC_U+30A4_U+30E4_U+30FC 1
 62
   179
420
  2234388
370
     9
100
AcDbSpline
210
0.0
220
0.0
230
1.0
 70
    11
 71
     3
 72
    17
 73
    13
 74
     0
 42
0.0000000001
 43
0.0000000001
 12
1.0
 22
0.0
 32
0.0
 13
1.0
 23
0.0
 33
0.0
 40
0.0
 40
0.0
 40
0.0
 40
0.0
 40
1.0
 40
1.0
 40
1.0
 40
2.0
 40
2.0
 40
2.0
 40
3.0
 40
3.0
 40
3.0
 40
4.0
 40
4.0
 40
4.0
 40
4.0
 10
80.94559987935014
 20
-137.787979687775
 30
0.0
 10
80.94559987935014
 20
-137.7328405211225
 30
0.0
 10
80.90083238049226
 20
-137.6880730211333
 30
0.0
 10
80.84569321523232
 20
-137.6880730211333
 30
0.0
 10
80.79058932774925
 20
-137.6880730211333
 30
0.0
 10
80.74578655111448
 20
-137.7328405211225
 30
0.0
 10
80.74578655111448
 20
-137.787979687775
 30
0.0
 10
80.74578655111448
 20
-137.8430835766505
 30
0.0
 10
80.79058932774925
 20
-137.8878863544172
 30
0.0
 10
80.84569321523232
 20
-137.8878863544172
 30
0.0
 10
80.90083238049226
 20
-137.8878863544172
 30
0.0
 10
80.94559987935014
 20
-137.8430835766505
 30
0.0
 10
80.94559987935014
 20
-137.787979687775
 30
0.0
  0
SPLINE
  5
107
330
1F
100
AcDbEntity
  8
_U+30EC_U+30A4_U+30E4_U+30FC 1
 62
   179
420
  2234388
370
     9
100
AcDbSpline
210
0.0
220
0.0
230
1.0
 70
    11
 71
     3
 72
    17
 73
    13
 74
     0
 42
0.0000000001
 43
0.0000000001
 12
1.0
 22
0.0
 32
0.0
 13
1.0
 23
0.0
 33
0.0
 40
0.0
 40
0.0
 40
0.0
 40
0.0
 40
1.0
 40
1.0
 40
1.0
 40
2.0
 40
2.0
 40
2.0
 40
3.0
 40
3.0
 40
3.0
 40
4.0
 40
4.0
 40
4.0
 40
4.0
 10
84.94571386765253
 20
-141.7877388534419
 30
0.0
 10
84.94571386765253
 20
-141.7325996867888
 30
0.0
 10
84.90094422288536
 20
-141.6878321868002
 30
0.0
 10
84.8458050576254
 20
-141.6878321868002
 30
0.0
 10
84.79070117014233
 20
-141.6878321868002
 30
0.0
 10
84.74589839350756
 20
-141.7325996867888
 30
0.0
 10
84.74589839350756
 20
-141.7877388534419
 30
0.0
 10
84.74589839350756
 20
-141.8428427423167
 30
0.0
 10
84.79070117014233
 20
-141.8876455200835
 30
0.0
 10
84.8458050576254
 20
-141.8876455200835
 30
0.0
 10
84.90094422288536
 20
-141.8876455200835
 30
0.0
 10
84.94571386765253
 20
-141.8428427423167
 30
0.0
 10
84.94571386765253
 20
-141.7877388534419
 30
0.0
  0
SPLINE
  5
108
330
1F
100
AcDbEntity
  8
_U+30EC_U+30A4_U+30E4_U+30FC 1
 62
   179
420
  2234388
370
     9
100
AcDbSpline
210
0.0
220
0.0
230
1.0
 70
    11
 71
     3
 72
    17
 73
    13
 74
     0
 42
0.0000000001
 43
0.0000000001
 12
1.0
 22
0.0
 32
0.0
 13
1.0
 23
0.0
 33
0.0
 40
0.0
 40
0.0
 40
0.0
 40
0.0
 40
1.0
 40
1.0
 40
1.0
 40
2.0
 40
2.0
 40
2.0
 40
3.0
 40
3.0
 40
3.0
 40
4.0
 40
4.0
 40
4.0
 40
4.0
 10
90.94568545756005
 20
-141.7877388534419
 30
0.0
 10
90.94568545756005
 20
-141.7325996867888
 30
0.0
 10
90.90091795870215
 20
-141.6878321868002
 30
0.0
 10
90.84577879344221
 20
-141.6878321868002
 30
0.0
 10
90.79067490595914
 20
-141.6878321868002
 30
0.0
 10
90.74587212932437
 20
-141.7325996867888
 30
0.0
 10
90.74587212932437
 20
-141.7877388534419
 30
0.0
 10
90.74587212932437
 20
-141.8428427423167
 30
0.0
 10
90.79067490595914
 20
-141.8876455200835
 30
0.0
 10
90.84577879344221
 20
-141.8876455200835
 30
0.0
 10
90.90091795870215
 20
-141.8876455200835
 30
0.0
 10
90.94568545756005
 20
-141.8428427423167
 30
0.0
 10
90.94568545756005
 20
-141.7877388534419
 30
0.0
  0
SPLINE
  5
109
330
1F
100
AcDbEntity
  8
_U+30EC_U+30A4_U+30E4_U+30FC 1
 62
   179
420
  2234388
370
     9
100
AcDbSpline
210
0.0
220
0.0
230
1.0
 70
    11
 71
     3
 72
    17
 73
    13
 74
     0
 42
0.0000000001
 43
0.0000000001
 12
1.0
 22
0.0
 32
0.0
 13
1.0
 23
0.0
 33
0.0
 40
0.0
 40
0.0
 40
0.0
 40
0.0
 40
1.0
 40
1.0
 40
1.0
 40
2.0
 40
2.0
 40
2.0
 40
3.0
 40
3.0
 40
3.0
 40
4.0
 40
4.0
 40
4.0
 40
4.0
 10
98.94590914234622
 20
-141.7877388534419
 30
0.0
 10
98.94590914234622
 20
-141.7325996867888
 30
0.0
 10
98.90110636571146
 20
-141.6878321868002
 30
0.0
 10
98.8456497004596
 20
-141.6878321868002
 30
0.0
 10
98.79051053519966
 20
-141.6878321868002
 30
0.0
 10
98.74574303634178
 20
-141.7325996867888
 30
0.0
 10
98.74574303634178
 20
-141.7877388534419
 30
0.0
 10
98.74574303634178
 20
-141.8428427423167
 30
0.0
 10
98.79051053519966
 20
-141.8876455200835
 30
0.0
 10
98.8456497004596
 20
-141.8876455200835
 30
0.0
 10
98.90110636571146
 20
-141.8876455200835
 30
0.0
 10
98.94590914234622
 20
-141.8428427423167
 30
0.0
 10
98.94590914234622
 20
-141.7877388534419
 30
0.0
  0
SPLINE
  5
10A
330
1F
100
AcDbEntity
  8
_U+30EC_U+30A4_U+30E4_U+30FC 1
 62
   179
420
  2234388
370
     9
100
AcDbSpline
210
0.0
220
0.0
230
1.0
 70
    11
 71
     3
 72
    17
 73
    13
 74
     0
 42
0.0000000001
 43
0.0000000001
 12
1.0
 22
0.0
 32
0.0
 13
1.0
 23
0.0
 33
0.0
 40
0.0
 40
0.0
 40
0.0
 40
0.0
 40
1.0
 40
1.0
 40
1.0
 40
2.0
 40
2.0
 40
2.0
 40
3.0
 40
3.0
 40
3.0
 40
4.0
 40
4.0
 40
4.0
 40
4.0
 10
104.945882878163
 20
-141.7877388534419
 30
0.0
 10
104.945882878163
 20
-141.7325996867888
 30
0.0
 10
104.9010801015283
 20
-141.6878321868002
 30
0.0
 10
104.8456234362764
 20
-141.6878321868002
 30
0.0
 10
104.7904842710165
 20
-141.6878321868002
 30
0.0
 10
104.7457194182578
 20
-141.7325996867888
 30
0.0
 10
104.7457194182578
 20
-141.7877388534419
 30
0.0
 10
104.7457194182578
 20
-141.8428427423167
 30
0.0
 10
104.7904842710165
 20
-141.8876455200835
 30
0.0
 10
104.8456234362764
 20
-141.8876455200835
 30
0.0
 10
104.9010801015283
 20
-141.8876455200835
 30
0.0
 10
104.945882878163
 20
-141.8428427423167
 30
0.0
 10
104.945882878163
 20
-141.7877388534419
 30
0.0
  0
POLYLINE
  5
10B
330
1F
100
AcDbEntity
  8
_U+30EC_U+30A4_U+30E4_U+30FC 1
 62
   179
420
  2234388
370
     9
100
AcDb2dPolyline
 66
     1
 10
0.0
 20
0.0
 30
0.0
  0
VERTEX
  5
10C
330
10B
100
AcDbEntity
  8
_U+30EC_U+30A4_U+30E4_U+30FC 1
 62
   179
420
  2234388
370
     9
100
AcDbVertex
100
AcDb2dVertex
 10
84.8458050576254
 20
-141.7877388534419
 30
0.0
  0
VERTEX
  5
10D
330
10B
100
AcDbEntity
  8
_U+30EC_U+30A4_U+30E4_U+30FC 1
 62
   179
420
  2234388
370
     9
100
AcDbVertex
100
AcDb2dVertex
 10
90.84577879344221
 20
-141.7877388534419
 30
0.0
  0
SEQEND
  5
10E
330
10B
100
AcDbEntity
  8
_U+30EC_U+30A4_U+30E4_U+30FC 1
 62
   179
420
  2234388
370
     9
  0
POLYLINE
  5
10F
330
1F
100
AcDbEntity
  8
_U+30EC_U+30A4_U+30E4_U+30FC 1
 62
   179
420
  2234388
370
     9
100
AcDb2dPolyline
 66
     1
 10
0.0
 20
0.0
 30
0.0
  0
VERTEX
  5
110
330
10F
100
AcDbEntity
  8
_U+30EC_U+30A4_U+30E4_U+30FC 1
 62
   179
420
  2234388
370
     9
100
AcDbVertex
100
AcDb2dVertex
 10
84.8458050576254
 20
-140.3276974649181
 30
0.0
  0
VERTEX
  5
111
330
10F
100
AcDbEntity
  8
_U+30EC_U+30A4_U+30E4_U+30FC 1
 62
   179
420
  2234388
370
     9
100
AcDbVertex
100
AcDb2dVertex
 10
84.8458050576254
 20
-142.7875110754144
 30
0.0
  0
SEQEND
  5
112
330
10F
100
AcDbEntity
  8
_U+30EC_U+30A4_U+30E4_U+30FC 1
 62
   179
420
  2234388
370
     9
  0
POLYLINE
  5
113
330
1F
100
AcDbEntity
  8
_U+30EC_U+30A4_U+30E4_U+30FC 1
 62
   179
420
  2234388
370
     9
100
AcDb2dPolyline
 66
     1
 10
0.0
 20
0.0
 30
0.0
  0
VERTEX
  5
114
330
113
100
AcDbEntity
  8
_U+30EC_U+30A4_U+30E4_U+30FC 1
 62
   179
420
  2234388
370
     9
100
AcDbVertex
100
AcDb2dVertex
 10
90.84577879344221
 20
-140.3276974649181
 30
0.0
  0
VERTEX
  5
115
330
113
100
AcDbEntity
  8
_U+30EC_U+30A4_U+30E4_U+30FC 1
 62
   179
420
  2234388
370
     9
100
AcDbVertex
100
AcDb2dVertex
 10
90.84577879344221
 20
-142.7875110754144
 30
0.0
  0
SEQEND
  5
116
330
113
100
AcDbEntity
  8
_U+30EC_U+30A4_U+30E4_U+30FC 1
 62
   179
420
  2234388
370
     9
  0
INSERT
  5
118
330
1F
100
AcDbEntity
  8
_U+30EC_U+30A4_U+30E4_U+30FC 1
100
AcDbBlockReference
  2
block 3
 10
0.0
 20
0.0
 30
0.0
  0
SPLINE
  5
11E
330
1F
100
AcDbEntity
  8
_U+30EC_U+30A4_U+30E4_U+30FC 1
 62
   179
420
  2234388
370
    25
100
AcDbSpline
210
0.0
220
0.0
230
1.0
 70
    11
 71
     3
 72
    17
 73
    13
 74
     0
 42
0.0000000001
 43
0.0000000001
 12
1.0
 22
0.0
 32
0.0
 13
1.0
 23
0.0
 33
0.0
 40
0.0
 40
0.0
 40
0.0
 40
0.0
 40
1.0
 40
1.0
 40
1.0
 40
2.0
 40
2.0
 40
2.0
 40
3.0
 40
3.0
 40
3.0
 40
4.0
 40
4.0
 40
4.0
 40
4.0
 10
84.88094172339565
 20
-137.787979687775
 30
0.0
 10
84.88094172339565
 20
-137.8072766322148
 30
0.0
 10
84.86510200157754
 20
-137.8231163544333
 30
0.0
 10
84.8458050576254
 20
-137.8231163544333
 30
0.0
 10
84.82615533590449
 20
-137.8231163544333
 30
0.0
 10
84.81031561408636
 20
-137.8072766322148
 30
0.0
 10
84.81031561408636
 20
-137.787979687775
 30
0.0
 10
84.81031561408636
 20
-137.7679771877802
 30
0.0
 10
84.82615533590449
 20
-137.7528430211172
 30
0.0
 10
84.8458050576254
 20
-137.7528430211172
 30
0.0
 10
84.86510200157754
 20
-137.7528430211172
 30
0.0
 10
84.88094172339565
 20
-137.7679771877802
 30
0.0
 10
84.88094172339565
 20
-137.787979687775
 30
0.0
  0
SPLINE
  5
11F
330
1F
100
AcDbEntity
  8
_U+30EC_U+30A4_U+30E4_U+30FC 1
 62
   179
420
  2234388
370
    25
100
AcDbSpline
210
0.0
220
0.0
230
1.0
 70
    11
 71
     3
 72
    17
 73
    13
 74
     0
 42
0.0000000001
 43
0.0000000001
 12
1.0
 22
0.0
 32
0.0
 13
1.0
 23
0.0
 33
0.0
 40
0.0
 40
0.0
 40
0.0
 40
0.0
 40
1.0
 40
1.0
 40
1.0
 40
2.0
 40
2.0
 40
2.0
 40
3.0
 40
3.0
 40
3.0
 40
4.0
 40
4.0
 40
4.0
 40
4.0
 10
90.88091545921246
 20
-137.787979687775
 30
0.0
 10
90.88091545921246
 20
-137.8072766322148
 30
0.0
 10
90.86507573739435
 20
-137.8231163544333
 30
0.0
 10
90.84577879344221
 20
-137.8231163544333
 30
0.0
 10
90.82616664396014
 20
-137.8231163544333
 30
0.0
 10
90.81064442174184
 20
-137.8072766322148
 30
0.0
 10
90.81064442174184
 20
-137.787979687775
 30
0.0
 10
90.81064442174184
 20
-137.7679771877802
 30
0.0
 10
90.82616664396014
 20
-137.7528430211172
 30
0.0
 10
90.84577879344221
 20
-137.7528430211172
 30
0.0
 10
90.86507573739435
 20
-137.7528430211172
 30
0.0
 10
90.88091545921246
 20
-137.7679771877802
 30
0.0
 10
90.88091545921246
 20
-137.787979687775
 30
0.0
  0
SPLINE
  5
120
330
1F
100
AcDbEntity
  8
_U+30EC_U+30A4_U+30E4_U+30FC 1
 62
   179
420
  2234388
370
     9
100
AcDbSpline
210
0.0
220
0.0
230
1.0
 70
    11
 71
     3
 72
    17
 73
    13
 74
     0
 42
0.0000000001
 43
0.0000000001
 12
1.0
 22
0.0
 32
0.0
 13
1.0
 23
0.0
 33
0.0
 40
0.0
 40
0.0
 40
0.0
 40
0.0
 40
1.0
 40
1.0
 40
1.0
 40
2.0
 40
2.0
 40
2.0
 40
3.0
 40
3.0
 40
3.0
 40
4.0
 40
4.0
 40
4.0
 40
4.0
 10
90.88091545921246
 20
-141.7877388534419
 30
0.0
 10
90.88091545921246
 20
-141.8070357978817
 30
0.0
 10
90.86507573739435
 20
-141.8228755200996
 30
0.0
 10
90.84577879344221
 20
-141.8228755200996
 30
0.0
 10
90.82616664396014
 20
-141.8228755200996
 30
0.0
 10
90.81064442174184
 20
-141.8070357978817
 30
0.0
 10
90.81064442174184
 20
-141.7877388534419
 30
0.0
 10
90.81064442174184
 20
-141.7684419090027
 30
0.0
 10
90.82616664396014
 20
-141.7526021867841
 30
0.0
 10
90.84577879344221
 20
-141.7526021867841
 30
0.0
 10
90.86507573739435
 20
-141.7526021867841
 30
0.0
 10
90.88091545921246
 20
-141.7684419090027
 30
0.0
 10
90.88091545921246
 20
-141.7877388534419
 30
0.0
  0
POLYLINE
  5
121
330
1F
100
AcDbEntity
  8
_U+30EC_U+30A4_U+30E4_U+30FC 1
 62
   179
420
  2234388
370
     9
100
AcDb2dPolyline
 66
     1
 10
0.0
 20
0.0
 30
0.0
  0
VERTEX
  5
122
330
121
100
AcDbEntity
  8
_U+30EC_U+30A4_U+30E4_U+30FC 1
 62
   179
420
  2234388
370
     9
100
AcDbVertex
100
AcDb2dVertex
 10
90.84577879344221
 20
-141.7877388534419
 30
0.0
  0
VERTEX
  5
123
330
121
100
AcDbEntity
  8
_U+30EC_U+30A4_U+30E4_U+30FC 1
 62
   179
420
  2234388
370
     9
100
AcDbVertex
100
AcDb2dVertex
 10
98.8456497004596
 20
-141.7877388534419
 30
0.0
  0
SEQEND
  5
124
330
121
100
AcDbEntity
  8
_U+30EC_U+30A4_U+30E4_U+30FC 1
 62
   179
420
  2234388
370
     9
  0
POLYLINE
  5
125
330
1F
100
AcDbEntity
  8
_U+30EC_U+30A4_U+30E4_U+30FC 1
 62
   179
420
  2234388
370
     9
100
AcDb2dPolyline
 66
     1
 10
0.0
 20
0.0
 30
0.0
  0
VERTEX
  5
126
330
125
100
AcDbEntity
  8
_U+30EC_U+30A4_U+30E4_U+30FC 1
 62
   179
420
  2234388
370
     9
100
AcDbVertex
100
AcDb2dVertex
 10
90.84577879344221
 20
-140.3276974649181
 30
0.0
  0
VERTEX
  5
127
330
125
100
AcDbEntity
  8
_U+30EC_U+30A4_U+30E4_U+30FC 1
 62
   179
420
  2234388
370
     9
100
AcDbVertex
100
AcDb2dVertex
 10
90.84577879344221
 20
-142.7875110754144
 30
0.0
  0
SEQEND
  5
128
330
125
100
AcDbEntity
  8
_U+30EC_U+30A4_U+30E4_U+30FC 1
 62
   179
420
  2234388
370
     9
  0
POLYLINE
  5
129
330
1F
100
AcDbEntity
  8
_U+30EC_U+30A4_U+30E4_U+30FC 1
 62
   179
420
  2234388
370
     9
100
AcDb2dPolyline
 66
     1
 10
0.0
 20
0.0
 30
0.0
  0
VERTEX
  5
12A
330
129
100
AcDbEntity
  8
_U+30EC_U+30A4_U+30E4_U+30FC 1
 62
   179
420
  2234388
370
     9
100
AcDbVertex
100
AcDb2dVertex
 10
98.8456497004596
 20
-140.3276974649181
 30
0.0
  0
VERTEX
  5
12B
330
129
100
AcDbEntity
  8
_U+30EC_U+30A4_U+30E4_U+30FC 1
 62
   179
420
  2234388
370
     9
100
AcDbVertex
100
AcDb2dVertex
 10
98.8456497004596
 20
-142.7875110754144
 30
0.0
  0
SEQEND
  5
12C
330
129
100
AcDbEntity
  8
_U+30EC_U+30A4_U+30E4_U+30FC 1
 62
   179
420
  2234388
370
     9
  0
INSERT
  5
12E
330
1F
100
AcDbEntity
  8
_U+30EC_U+30A4_U+30E4_U+30FC 1
100
AcDbBlockReference
  2
block 4
 10
0.0
 20
0.0
 30
0.0
  0
SPLINE
  5
135
330
1F
100
AcDbEntity
  8
_U+30EC_U+30A4_U+30E4_U+30FC 1
 62
   179
420
  2234388
370
    25
100
AcDbSpline
210
0.0
220
0.0
230
1.0
 70
    11
 71
     3
 72
    17
 73
    13
 74
     0
 42
0.0000000001
 43
0.0000000001
 12
1.0
 22
0.0
 32
0.0
 13
1.0
 23
0.0
 33
0.0
 40
0.0
 40
0.0
 40
0.0
 40
0.0
 40
1.0
 40
1.0
 40
1.0
 40
2.0
 40
2.0
 40
2.0
 40
3.0
 40
3.0
 40
3.0
 40
4.0
 40
4.0
 40
4.0
 40
4.0
 10
90.88091545921246
 20
-137.787979687775
 30
0.0
 10
90.88091545921246
 20
-137.8072766322148
 30
0.0
 10
90.86507573739435
 20
-137.8231163544333
 30
0.0
 10
90.84577879344221
 20
-137.8231163544333
 30
0.0
 10
90.82616664396014
 20
-137.8231163544333
 30
0.0
 10
90.81064442174184
 20
-137.8072766322148
 30
0.0
 10
90.81064442174184
 20
-137.787979687775
 30
0.0
 10
90.81064442174184
 20
-137.7679771877802
 30
0.0
 10
90.82616664396014
 20
-137.7528430211172
 30
0.0
 10
90.84577879344221
 20
-137.7528430211172
 30
0.0
 10
90.86507573739435
 20
-137.7528430211172
 30
0.0
 10
90.88091545921246
 20
-137.7679771877802
 30
0.0
 10
90.88091545921246
 20
-137.787979687775
 30
0.0
  0
SPLINE
  5
136
330
1F
100
AcDbEntity
  8
_U+30EC_U+30A4_U+30E4_U+30FC 1
 62
   179
420
  2234388
370
    25
100
AcDbSpline
210
0.0
220
0.0
230
1.0
 70
    11
 71
     3
 72
    17
 73
    13
 74
     0
 42
0.0000000001
 43
0.0000000001
 12
1.0
 22
0.0
 32
0.0
 13
1.0
 23
0.0
 33
0.0
 40
0.0
 40
0.0
 40
0.0
 40
0.0
 40
1.0
 40
1.0
 40
1.0
 40
2.0
 40
2.0
 40
2.0
 40
3.0
 40
3.0
 40
3.0
 40
4.0
 40
4.0
 40
4.0
 40
4.0
 10
98.88114164194627
 20
-137.787979687775
 30
0.0
 10
98.88114164194627
 20
-137.8072766322148
 30
0.0
 10
98.86526664195021
 20
-137.8231163544333
 30
0.0
 10
98.8456497004596
 20
-137.8231163544333
 30
0.0
 10
98.82635275650748
 20
-137.8231163544333
 30
0.0
 10
98.81051303468935
 20
-137.8072766322148
 30
0.0
 10
98.81051303468935
 20
-137.787979687775
 30
0.0
 10
98.81051303468935
 20
-137.7679771877802
 30
0.0
 10
98.82635275650748
 20
-137.7528430211172
 30
0.0
 10
98.8456497004596
 20
-137.7528430211172
 30
0.0
 10
98.86526664195021
 20
-137.7528430211172
 30
0.0
 10
98.88114164194627
 20
-137.7679771877802
 30
0.0
 10
98.88114164194627
 20
-137.787979687775
 30
0.0
  0
SPLINE
  5
137
330
1F
100
AcDbEntity
  8
_U+30EC_U+30A4_U+30E4_U+30FC 1
 62
   179
420
  2234388
370
     9
100
AcDbSpline
210
0.0
220
0.0
230
1.0
 70
    11
 71
     3
 72
    17
 73
    13
 74
     0
 42
0.0000000001
 43
0.0000000001
 12
1.0
 22
0.0
 32
0.0
 13
1.0
 23
0.0
 33
0.0
 40
0.0
 40
0.0
 40
0.0
 40
0.0
 40
1.0
 40
1.0
 40
1.0
 40
2.0
 40
2.0
 40
2.0
 40
3.0
 40
3.0
 40
3.0
 40
4.0
 40
4.0
 40
4.0
 40
4.0
 10
98.88114164194627
 20
-141.7877388534419
 30
0.0
 10
98.88114164194627
 20
-141.8070357978817
 30
0.0
 10
98.86526664195021
 20
-141.8228755200996
 30
0.0
 10
98.8456497004596
 20
-141.8228755200996
 30
0.0
 10
98.82635275650748
 20
-141.8228755200996
 30
0.0
 10
98.81051303468935
 20
-141.8070357978817
 30
0.0
 10
98.81051303468935
 20
-141.7877388534419
 30
0.0
 10
98.81051303468935
 20
-141.7684419090027
 30
0.0
 10
98.82635275650748
 20
-141.7526021867841
 30
0.0
 10
98.8456497004596
 20
-141.7526021867841
 30
0.0
 10
98.86526664195021
 20
-141.7526021867841
 30
0.0
 10
98.88114164194627
 20
-141.7684419090027
 30
0.0
 10
98.88114164194627
 20
-141.7877388534419
 30
0.0
  0
POLYLINE
  5
138
330
1F
100
AcDbEntity
  8
_U+30EC_U+30A4_U+30E4_U+30FC 1
 62
   179
420
  2234388
370
     9
100
AcDb2dPolyline
 66
     1
 10
0.0
 20
0.0
 30
0.0
  0
VERTEX
  5
139
330
138
100
AcDbEntity
  8
_U+30EC_U+30A4_U+30E4_U+30FC 1
 62
   179
420
  2234388
370
     9
100
AcDbVertex
100
AcDb2dVertex
 10
98.8456497004596
 20
-141.7877388534419
 30
0.0
  0
VERTEX
  5
13A
330
138
100
AcDbEntity
  8
_U+30EC_U+30A4_U+30E4_U+30FC 1
 62
   179
420
  2234388
370
     9
100
AcDbVertex
100
AcDb2dVertex
 10
104.8456234362764
 20
-141.7877388534419
 30
0.0
  0
SEQEND
  5
13B
330
138
100
AcDbEntity
  8
_U+30EC_U+30A4_U+30E4_U+30FC 1
 62
   179
420
  2234388
370
     9
  0
POLYLINE
  5
13C
330
1F
100
AcDbEntity
  8
_U+30EC_U+30A4_U+30E4_U+30FC 1
 62
   179
420
  2234388
370
     9
100
AcDb2dPolyline
 66
     1
 10
0.0
 20
0.0
 30
0.0
  0
VERTEX
  5
13D
330
13C
100
AcDbEntity
  8
_U+30EC_U+30A4_U+30E4_U+30FC 1
 62
   179
420
  2234388
370
     9
100
AcDbVertex
100
AcDb2dVertex
 10
104.8456234362764
 20
-140.3276974649181
 30
0.0
  0
VERTEX
  5
13E
330
13C
100
AcDbEntity
  8
_U+30EC_U+30A4_U+30E4_U+30FC 1
 62
   179
420
  2234388
370
     9
100
AcDbVertex
100
AcDb2dVertex
 10
104.8456234362764
 20
-142.7875110754144
 30
0.0
  0
SEQEND
  5
13F
330
13C
100
AcDbEntity
  8
_U+30EC_U+30A4_U+30E4_U+30FC 1
 62
   179
420
  2234388
370
     9
  0
INSERT
  5
141
330
1F
100
AcDbEntity
  8
_U+30EC_U+30A4_U+30E4_U+30FC 1
100
AcDbBlockReference
  2
block 5
 10
0.0
 20
0.0
 30
0.0
  0
SPLINE
  5
147
330
1F
100
AcDbEntity
  8
_U+30EC_U+30A4_U+30E4_U+30FC 1
 62
   179
420
  2234388
370
    25
100
AcDbSpline
210
0.0
220
0.0
230
1.0
 70
    11
 71
     3
 72
    17
 73
    13
 74
     0
 42
0.0000000001
 43
0.0000000001
 12
1.0
 22
0.0
 32
0.0
 13
1.0
 23
0.0
 33
0.0
 40
0.0
 40
0.0
 40
0.0
 40
0.0
 40
1.0
 40
1.0
 40
1.0
 40
2.0
 40
2.0
 40
2.0
 40
3.0
 40
3.0
 40
3.0
 40
4.0
 40
4.0
 40
4.0
 40
4.0
 10
98.88114164194627
 20
-137.787979687775
 30
0.0
 10
98.88114164194627
 20
-137.8072766322148
 30
0.0
 10
98.86526664195021
 20
-137.8231163544333
 30
0.0
 10
98.8456497004596
 20
-137.8231163544333
 30
0.0
 10
98.82635275650748
 20
-137.8231163544333
 30
0.0
 10
98.81051303468935
 20
-137.8072766322148
 30
0.0
 10
98.81051303468935
 20
-137.787979687775
 30
0.0
 10
98.81051303468935
 20
-137.7679771877802
 30
0.0
 10
98.82635275650748
 20
-137.7528430211172
 30
0.0
 10
98.8456497004596
 20
-137.7528430211172
 30
0.0
 10
98.86526664195021
 20
-137.7528430211172
 30
0.0
 10
98.88114164194627
 20
-137.7679771877802
 30
0.0
 10
98.88114164194627
 20
-137.787979687775
 30
0.0
  0
SPLINE
  5
148
330
1F
100
AcDbEntity
  8
_U+30EC_U+30A4_U+30E4_U+30FC 1
 62
   179
420
  2234388
370
    25
100
AcDbSpline
210
0.0
220
0.0
230
1.0
 70
    11
 71
     3
 72
    17
 73
    13
 74
     0
 42
0.0000000001
 43
0.0000000001
 12
1.0
 22
0.0
 32
0.0
 13
1.0
 23
0.0
 33
0.0
 40
0.0
 40
0.0
 40
0.0
 40
0.0
 40
1.0
 40
1.0
 40
1.0
 40
2.0
 40
2.0
 40
2.0
 40
3.0
 40
3.0
 40
3.0
 40
4.0
 40
4.0
 40
4.0
 40
4.0
 10
104.8811128798154
 20
-137.787979687775
 30
0.0
 10
104.8811128798154
 20
-137.8072766322148
 30
0.0
 10
104.8652731579973
 20
-137.8231163544333
 30
0.0
 10
104.8456234362764
 20
-137.8231163544333
 30
0.0
 10
104.8263264923243
 20
-137.8231163544333
 30
0.0
 10
104.8104867705062
 20
-137.8072766322148
 30
0.0
 10
104.8104867705062
 20
-137.787979687775
 30
0.0
 10
104.8104867705062
 20
-137.7679771877802
 30
0.0
 10
104.8263264923243
 20
-137.7528430211172
 30
0.0
 10
104.8456234362764
 20
-137.7528430211172
 30
0.0
 10
104.8652731579973
 20
-137.7528430211172
 30
0.0
 10
104.8811128798154
 20
-137.7679771877802
 30
0.0
 10
104.8811128798154
 20
-137.787979687775
 30
0.0
  0
SPLINE
  5
149
330
1F
100
AcDbEntity
  8
_U+30EC_U+30A4_U+30E4_U+30FC 1
 62
   179
420
  2234388
370
     9
100
AcDbSpline
210
0.0
220
0.0
230
1.0
 70
    11
 71
     3
 72
    17
 73
    13
 74
     0
 42
0.0000000001
 43
0.0000000001
 12
1.0
 22
0.0
 32
0.0
 13
1.0
 23
0.0
 33
0.0
 40
0.0
 40
0.0
 40
0.0
 40
0.0
 40
1.0
 40
1.0
 40
1.0
 40
2.0
 40
2.0
 40
2.0
 40
3.0
 40
3.0
 40
3.0
 40
4.0
 40
4.0
 40
4.0
 40
4.0
 10
104.8811128798154
 20
-141.7877388534419
 30
0.0
 10
104.8811128798154
 20
-141.8070357978817
 30
0.0
 10
104.8652731579973
 20
-141.8228755200996
 30
0.0
 10
104.8456234362764
 20
-141.8228755200996
 30
0.0
 10
104.8263264923243
 20
-141.8228755200996
 30
0.0
 10
104.8104867705062
 20
-141.8070357978817
 30
0.0
 10
104.8104867705062
 20
-141.7877388534419
 30
0.0
 10
104.8104867705062
 20
-141.7684419090027
 30
0.0
 10
104.8263264923243
 20
-141.7526021867841
 30
0.0
 10
104.8456234362764
 20
-141.7526021867841
 30
0.0
 10
104.8652731579973
 20
-141.7526021867841
 30
0.0
 10
104.8811128798154
 20
-141.7684419090027
 30
0.0
 10
104.8811128798154
 20
-141.7877388534419
 30
0.0
  0
POLYLINE
  5
14A
330
1F
100
AcDbEntity
  8
_U+30EC_U+30A4_U+30E4_U+30FC 1
 62
   179
420
  2234388
370
     9
100
AcDb2dPolyline
 66
     1
 10
0.0
 20
0.0
 30
0.0
  0
VERTEX
  5
14B
330
14A
100
AcDbEntity
  8
_U+30EC_U+30A4_U+30E4_U+30FC 1
 62
   179
420
  2234388
370
     9
100
AcDbVertex
100
AcDb2dVertex
 10
80.84569321523232
 20
-135.7877649660531
 30
0.0
  0
VERTEX
  5
14C
330
14A
100
AcDbEntity
  8
_U+30EC_U+30A4_U+30E4_U+30FC 1
 62
   179
420
  2234388
370
     9
100
AcDbVertex
100
AcDb2dVertex
 10
80.84569321523232
 20
-137.787979687775
 30
0.0
  0
SEQEND
  5
14D
330
14A
100
AcDbEntity
  8
_U+30EC_U+30A4_U+30E4_U+30FC 1
 62
   179
420
  2234388
370
     9
  0
POLYLINE
  5
14E
330
1F
100
AcDbEntity
  8
_U+30EC_U+30A4_U+30E4_U+30FC 1
 62
   179
420
  2234388
370
     9
100
AcDb2dPolyline
 66
     1
 10
0.0
 20
0.0
 30
0.0
  0
VERTEX
  5
14F
330
14E
100
AcDbEntity
  8
_U+30EC_U+30A4_U+30E4_U+30FC 1
 62
   179
420
  2234388
370
     9
100
AcDbVertex
100
AcDb2dVertex
 10
82.30573456687245
 20
-135.7877649660531
 30
0.0
  0
VERTEX
  5
150
330
14E
100
AcDbEntity
  8
_U+30EC_U+30A4_U+30E4_U+30FC 1
 62
   179
420
  2234388
370
     9
100
AcDbVertex
100
AcDb2dVertex
 10
79.8456055355941
 20
-135.7877649660531
 30
0.0
  0
SEQEND
  5
151
330
14E
100
AcDbEntity
  8
_U+30EC_U+30A4_U+30E4_U+30FC 1
 62
   179
420
  2234388
370
     9
  0
POLYLINE
  5
152
330
1F
100
AcDbEntity
  8
_U+30EC_U+30A4_U+30E4_U+30FC 1
 62
   179
420
  2234388
370
     9
100
AcDb2dPolyline
 66
     1
 10
0.0
 20
0.0
 30
0.0
  0
VERTEX
  5
153
330
152
100
AcDbEntity
  8
_U+30EC_U+30A4_U+30E4_U+30FC 1
 62
   179
420
  2234388
370
     9
100
AcDbVertex
100
AcDb2dVertex
 10
82.30573456687245
 20
-137.787979687775
 30
0.0
  0
VERTEX
  5
154
330
152
100
AcDbEntity
  8
_U+30EC_U+30A4_U+30E4_U+30FC 1
 62
   179
420
  2234388
370
     9
100
AcDbVertex
100
AcDb2dVertex
 10
79.8456055355941
 20
-137.787979687775
 30
0.0
  0
SEQEND
  5
155
330
152
100
AcDbEntity
  8
_U+30EC_U+30A4_U+30E4_U+30FC 1
 62
   179
420
  2234388
370
     9
  0
INSERT
  5
157
330
1F
100
AcDbEntity
  8
_U+30EC_U+30A4_U+30E4_U+30FC 1
100
AcDbBlockReference
  2
block 6
 10
0.0
 20
0.0
 30
0.0
  0
SPLINE
  5
15C
330
1F
100
AcDbEntity
  8
_U+30EC_U+30A4_U+30E4_U+30FC 1
 62
   179
420
  2234388
370
    25
100
AcDbSpline
210
0.0
220
0.0
230
1.0
 70
    11
 71
     3
 72
    17
 73
    13
 74
     0
 42
0.0000000001
 43
0.0000000001
 12
1.0
 22
0.0
 32
0.0
 13
1.0
 23
0.0
 33
0.0
 40
0.0
 40
0.0
 40
0.0
 40
0.0
 40
1.0
 40
1.0
 40
1.0
 40
2.0
 40
2.0
 40
2.0
 40
3.0
 40
3.0
 40
3.0
 40
4.0
 40
4.0
 40
4.0
 40
4.0
 10
84.88094172339565
 20
-135.7877649660531
 30
0.0
 10
84.88094172339565
 20
-135.8070266327148
 30
0.0
 10
84.86510200157754
 20
-135.8229016327109
 30
0.0
 10
84.8458050576254
 20
-135.8229016327109
 30
0.0
 10
84.82615533590449
 20
-135.8229016327109
 30
0.0
 10
84.81031561408636
 20
-135.8070266327148
 30
0.0
 10
84.81031561408636
 20
-135.7877649660531
 30
0.0
 10
84.81031561408636
 20
-135.7684680216133
 30
0.0
 10
84.82615533590449
 20
-135.7525930216173
 30
0.0
 10
84.8458050576254
 20
-135.7525930216173
 30
0.0
 10
84.86510200157754
 20
-135.7525930216173
 30
0.0
 10
84.88094172339565
 20
-135.7684680216133
 30
0.0
 10
84.88094172339565
 20
-135.7877649660531
 30
0.0
  0
SPLINE
  5
15D
330
1F
100
AcDbEntity
  8
_U+30EC_U+30A4_U+30E4_U+30FC 1
 62
   179
420
  2234388
370
    25
100
AcDbSpline
210
0.0
220
0.0
230
1.0
 70
    11
 71
     3
 72
    17
 73
    13
 74
     0
 42
0.0000000001
 43
0.0000000001
 12
1.0
 22
0.0
 32
0.0
 13
1.0
 23
0.0
 33
0.0
 40
0.0
 40
0.0
 40
0.0
 40
0.0
 40
1.0
 40
1.0
 40
1.0
 40
2.0
 40
2.0
 40
2.0
 40
3.0
 40
3.0
 40
3.0
 40
4.0
 40
4.0
 40
4.0
 40
4.0
 10
84.88094172339565
 20
-137.787979687775
 30
0.0
 10
84.88094172339565
 20
-137.8072766322148
 30
0.0
 10
84.86510200157754
 20
-137.8231163544333
 30
0.0
 10
84.8458050576254
 20
-137.8231163544333
 30
0.0
 10
84.82615533590449
 20
-137.8231163544333
 30
0.0
 10
84.81031561408636
 20
-137.8072766322148
 30
0.0
 10
84.81031561408636
 20
-137.787979687775
 30
0.0
 10
84.81031561408636
 20
-137.7679771877802
 30
0.0
 10
84.82615533590449
 20
-137.7528430211172
 30
0.0
 10
84.8458050576254
 20
-137.7528430211172
 30
0.0
 10
84.86510200157754
 20
-137.7528430211172
 30
0.0
 10
84.88094172339565
 20
-137.7679771877802
 30
0.0
 10
84.88094172339565
 20
-137.787979687775
 30
0.0
  0
SPLINE
  5
15E
330
1F
100
AcDbEntity
  8
_U+30EC_U+30A4_U+30E4_U+30FC 1
 62
   179
420
  2234388
370
     9
100
AcDbSpline
210
0.0
220
0.0
230
1.0
 70
    11
 71
     3
 72
    17
 73
    13
 74
     0
 42
0.0000000001
 43
0.0000000001
 12
1.0
 22
0.0
 32
0.0
 13
1.0
 23
0.0
 33
0.0
 40
0.0
 40
0.0
 40
0.0
 40
0.0
 40
1.0
 40
1.0
 40
1.0
 40
2.0
 40
2.0
 40
2.0
 40
3.0
 40
3.0
 40
3.0
 40
4.0
 40
4.0
 40
4.0
 40
4.0
 10
80.88118265877135
 20
-137.787979687775
 30
0.0
 10
80.88118265877135
 20
-137.8072766322148
 30
0.0
 10
80.86534293695323
 20
-137.8231163544333
 30
0.0
 10
80.84569321523232
 20
-137.8231163544333
 30
0.0
 10
80.82643154905705
 20
-137.8231163544333
 30
0.0
 10
80.81055654946205
 20
-137.8072766322148
 30
0.0
 10
80.81055654946205
 20
-137.787979687775
 30
0.0
 10
80.81055654946205
 20
-137.7679771877802
 30
0.0
 10
80.82643154905705
 20
-137.7528430211172
 30
0.0
 10
80.84569321523232
 20
-137.7528430211172
 30
0.0
 10
80.86534293695323
 20
-137.7528430211172
 30
0.0
 10
80.88118265877135
 20
-137.7679771877802
 30
0.0
 10
80.88118265877135
 20
-137.787979687775
 30
0.0
  0
POLYLINE
  5
15F
330
1F
100
AcDbEntity
  8
_U+30EC_U+30A4_U+30E4_U+30FC 1
 62
   179
420
  2234388
370
     9
100
AcDb2dPolyline
 66
     1
 10
0.0
 20
0.0
 30
0.0
  0
VERTEX
  5
160
330
15F
100
AcDbEntity
  8
_U+30EC_U+30A4_U+30E4_U+30FC 1
 62
   179
420
  2234388
370
     9
100
AcDbVertex
100
AcDb2dVertex
 10
80.84569321523232
 20
-135.7877649660531
 30
0.0
  0
VERTEX
  5
161
330
15F
100
AcDbEntity
  8
_U+30EC_U+30A4_U+30E4_U+30FC 1
 62
   179
420
  2234388
370
     9
100
AcDbVertex
100
AcDb2dVertex
 10
80.84569321523232
 20
-123.2877546914003
 30
0.0
  0
SEQEND
  5
162
330
15F
100
AcDbEntity
  8
_U+30EC_U+30A4_U+30E4_U+30FC 1
 62
   179
420
  2234388
370
     9
  0
POLYLINE
  5
163
330
1F
100
AcDbEntity
  8
_U+30EC_U+30A4_U+30E4_U+30FC 1
 62
   179
420
  2234388
370
     9
100
AcDb2dPolyline
 66
     1
 10
0.0
 20
0.0
 30
0.0
  0
VERTEX
  5
164
330
163
100
AcDbEntity
  8
_U+30EC_U+30A4_U+30E4_U+30FC 1
 62
   179
420
  2234388
370
     9
100
AcDbVertex
100
AcDb2dVertex
 10
82.30573456687245
 20
-135.7877649660531
 30
0.0
  0
VERTEX
  5
165
330
163
100
AcDbEntity
  8
_U+30EC_U+30A4_U+30E4_U+30FC 1
 62
   179
420
  2234388
370
     9
100
AcDbVertex
100
AcDb2dVertex
 10
79.8456055355941
 20
-135.7877649660531
 30
0.0
  0
SEQEND
  5
166
330
163
100
AcDbEntity
  8
_U+30EC_U+30A4_U+30E4_U+30FC 1
 62
   179
420
  2234388
370
     9
  0
POLYLINE
  5
167
330
1F
100
AcDbEntity
  8
_U+30EC_U+30A4_U+30E4_U+30FC 1
 62
   179
420
  2234388
370
     9
100
AcDb2dPolyline
 66
     1
 10
0.0
 20
0.0
 30
0.0
  0
VERTEX
  5
168
330
167
100
AcDbEntity
  8
_U+30EC_U+30A4_U+30E4_U+30FC 1
 62
   179
420
  2234388
370
     9
100
AcDbVertex
100
AcDb2dVertex
 10
84.30563173807303
 20
-123.2877546914003
 30
0.0
  0
VERTEX
  5
169
330
167
100
AcDbEntity
  8
_U+30EC_U+30A4_U+30E4_U+30FC 1
 62
   179
420
  2234388
370
     9
100
AcDbVertex
100
AcDb2dVertex
 10
79.8456055355941
 20
-123.2877546914003
 30
0.0
  0
SEQEND
  5
16A
330
167
100
AcDbEntity
  8
_U+30EC_U+30A4_U+30E4_U+30FC 1
 62
   179
420
  2234388
370
     9
  0
INSERT
  5
16C
330
1F
100
AcDbEntity
  8
_U+30EC_U+30A4_U+30E4_U+30FC 1
100
AcDbBlockReference
  2
block 7
 10
0.0
 20
0.0
 30
0.0
  0
SPLINE
  5
17D
330
1F
100
AcDbEntity
  8
_U+30EC_U+30A4_U+30E4_U+30FC 1
 62
   179
420
  2234388
370
    25
100
AcDbSpline
210
0.0
220
0.0
230
1.0
 70
    11
 71
     3
 72
    17
 73
    13
 74
     0
 42
0.0000000001
 43
0.0000000001
 12
1.0
 22
0.0
 32
0.0
 13
1.0
 23
0.0
 33
0.0
 40
0.0
 40
0.0
 40
0.0
 40
0.0
 40
1.0
 40
1.0
 40
1.0
 40
2.0
 40
2.0
 40
2.0
 40
3.0
 40
3.0
 40
3.0
 40
4.0
 40
4.0
 40
4.0
 40
4.0
 10
84.88094172339565
 20
-135.7877649660531
 30
0.0
 10
84.88094172339565
 20
-135.8070266327148
 30
0.0
 10
84.86510200157754
 20
-135.8229016327109
 30
0.0
 10
84.8458050576254
 20
-135.8229016327109
 30
0.0
 10
84.82615533590449
 20
-135.8229016327109
 30
0.0
 10
84.81031561408636
 20
-135.8070266327148
 30
0.0
 10
84.81031561408636
 20
-135.7877649660531
 30
0.0
 10
84.81031561408636
 20
-135.7684680216133
 30
0.0
 10
84.82615533590449
 20
-135.7525930216173
 30
0.0
 10
84.8458050576254
 20
-135.7525930216173
 30
0.0
 10
84.86510200157754
 20
-135.7525930216173
 30
0.0
 10
84.88094172339565
 20
-135.7684680216133
 30
0.0
 10
84.88094172339565
 20
-135.7877649660531
 30
0.0
  0
SPLINE
  5
17E
330
1F
100
AcDbEntity
  8
_U+30EC_U+30A4_U+30E4_U+30FC 1
 62
   179
420
  2234388
370
    25
100
AcDbSpline
210
0.0
220
0.0
230
1.0
 70
    11
 71
     3
 72
    17
 73
    13
 74
     0
 42
0.0000000001
 43
0.0000000001
 12
1.0
 22
0.0
 32
0.0
 13
1.0
 23
0.0
 33
0.0
 40
0.0
 40
0.0
 40
0.0
 40
0.0
 40
1.0
 40
1.0
 40
1.0
 40
2.0
 40
2.0
 40
2.0
 40
3.0
 40
3.0
 40
3.0
 40
4.0
 40
4.0
 40
4.0
 40
4.0
 10
86.88115639458815
 20
-123.2877546914003
 30
0.0
 10
86.88115639458815
 20
-123.3077219136175
 30
0.0
 10
86.86531667277004
 20
-123.322891358058
 30
0.0
 10
86.845702228826
 20
-123.322891358058
 30
0.0
 10
86.82640528487386
 20
-123.322891358058
 30
0.0
 10
86.81053028527886
 20
-123.3077219136175
 30
0.0
 10
86.81053028527886
 20
-123.2877546914003
 30
0.0
 10
86.81053028527886
 20
-123.2684577469608
 30
0.0
 10
86.82640528487386
 20
-123.2525827469647
 30
0.0
 10
86.845702228826
 20
-123.2525827469647
 30
0.0
 10
86.86531667277004
 20
-123.2525827469647
 30
0.0
 10
86.88115639458815
 20
-123.2684577469608
 30
0.0
 10
86.88115639458815
 20
-123.2877546914003
 30
0.0
  0
SPLINE
  5
17F
330
1F
100
AcDbEntity
  8
_U+30EC_U+30A4_U+30E4_U+30FC 1
 62
   179
420
  2234388
370
     9
100
AcDbSpline
210
0.0
220
0.0
230
1.0
 70
    11
 71
     3
 72
    17
 73
    13
 74
     0
 42
0.0000000001
 43
0.0000000001
 12
1.0
 22
0.0
 32
0.0
 13
1.0
 23
0.0
 33
0.0
 40
0.0
 40
0.0
 40
0.0
 40
0.0
 40
1.0
 40
1.0
 40
1.0
 40
2.0
 40
2.0
 40
2.0
 40
3.0
 40
3.0
 40
3.0
 40
4.0
 40
4.0
 40
4.0
 40
4.0
 10
80.88118265877135
 20
-123.2877546914003
 30
0.0
 10
80.88118265877135
 20
-123.3077219136175
 30
0.0
 10
80.86534293695323
 20
-123.322891358058
 30
0.0
 10
80.84569321523232
 20
-123.322891358058
 30
0.0
 10
80.82643154905705
 20
-123.322891358058
 30
0.0
 10
80.81055654946205
 20
-123.3077219136175
 30
0.0
 10
80.81055654946205
 20
-123.2877546914003
 30
0.0
 10
80.81055654946205
 20
-123.2684577469608
 30
0.0
 10
80.82643154905705
 20
-123.2525827469647
 30
0.0
 10
80.84569321523232
 20
-123.2525827469647
 30
0.0
 10
80.86534293695323
 20
-123.2525827469647
 30
0.0
 10
80.88118265877135
 20
-123.2684577469608
 30
0.0
 10
80.88118265877135
 20
-123.2877546914003
 30
0.0
  0
POLYLINE
  5
180
330
1F
100
AcDbEntity
  8
_U+30EC_U+30A4_U+30E4_U+30FC 1
 62
   179
420
  2234388
370
     9
100
AcDb2dPolyline
 66
     1
 10
0.0
 20
0.0
 30
0.0
  0
VERTEX
  5
181
330
180
100
AcDbEntity
  8
_U+30EC_U+30A4_U+30E4_U+30FC 1
 62
   179
420
  2234388
370
     9
100
AcDbVertex
100
AcDb2dVertex
 10
86.845702228826
 20
-119.2879955257334
 30
0.0
  0
VERTEX
  5
182
330
180
100
AcDbEntity
  8
_U+30EC_U+30A4_U+30E4_U+30FC 1
 62
   179
420
  2234388
370
     9
100
AcDbVertex
100
AcDb2dVertex
 10
102.8457615428527
 20
-119.2879955257334
 30
0.0
  0
SEQEND
  5
183
330
180
100
AcDbEntity
  8
_U+30EC_U+30A4_U+30E4_U+30FC 1
 62
   179
420
  2234388
370
     9
  0
POLYLINE
  5
184
330
1F
100
AcDbEntity
  8
_U+30EC_U+30A4_U+30E4_U+30FC 1
 62
   179
420
  2234388
370
     9
100
AcDb2dPolyline
 66
     1
 10
0.0
 20
0.0
 30
0.0
  0
VERTEX
  5
185
330
184
100
AcDbEntity
  8
_U+30EC_U+30A4_U+30E4_U+30FC 1
 62
   179
420
  2234388
370
     9
100
AcDbVertex
100
AcDb2dVertex
 10
86.845702228826
 20
-120.7480016364796
 30
0.0
  0
VERTEX
  5
186
330
184
100
AcDbEntity
  8
_U+30EC_U+30A4_U+30E4_U+30FC 1
 62
   179
420
  2234388
370
     9
100
AcDbVertex
100
AcDb2dVertex
 10
86.845702228826
 20
-118.2882233037612
 30
0.0
  0
SEQEND
  5
187
330
184
100
AcDbEntity
  8
_U+30EC_U+30A4_U+30E4_U+30FC 1
 62
   179
420
  2234388
370
     9
  0
POLYLINE
  5
188
330
1F
100
AcDbEntity
  8
_U+30EC_U+30A4_U+30E4_U+30FC 1
 62
   179
420
  2234388
370
     9
100
AcDb2dPolyline
 66
     1
 10
0.0
 20
0.0
 30
0.0
  0
VERTEX
  5
189
330
188
100
AcDbEntity
  8
_U+30EC_U+30A4_U+30E4_U+30FC 1
 62
   179
420
  2234388
370
     9
100
AcDbVertex
100
AcDb2dVertex
 10
102.8457615428527
 20
-120.7480016364796
 30
0.0
  0
VERTEX
  5
18A
330
188
100
AcDbEntity
  8
_U+30EC_U+30A4_U+30E4_U+30FC 1
 62
   179
420
  2234388
370
     9
100
AcDbVertex
100
AcDb2dVertex
 10
102.8457615428527
 20
-118.2882233037612
 30
0.0
  0
SEQEND
  5
18B
330
188
100
AcDbEntity
  8
_U+30EC_U+30A4_U+30E4_U+30FC 1
 62
   179
420
  2234388
370
     9
  0
INSERT
  5
18D
330
1F
100
AcDbEntity
  8
_U+30EC_U+30A4_U+30E4_U+30FC 1
100
AcDbBlockReference
  2
block 8
 10
0.0
 20
0.0
 30
0.0
  0
SPLINE
  5
195
330
1F
100
AcDbEntity
  8
_U+30EC_U+30A4_U+30E4_U+30FC 1
 62
   179
420
  2234388
370
    25
100
AcDbSpline
210
0.0
220
0.0
230
1.0
 70
    11
 71
     3
 72
    17
 73
    13
 74
     0
 42
0.0000000001
 43
0.0000000001
 12
1.0
 22
0.0
 32
0.0
 13
1.0
 23
0.0
 33
0.0
 40
0.0
 40
0.0
 40
0.0
 40
0.0
 40
1.0
 40
1.0
 40
1.0
 40
2.0
 40
2.0
 40
2.0
 40
3.0
 40
3.0
 40
3.0
 40
4.0
 40
4.0
 40
4.0
 40
4.0
 10
86.88115639458815
 20
-123.2877546914003
 30
0.0
 10
86.88115639458815
 20
-123.3077219136175
 30
0.0
 10
86.86531667277004
 20
-123.322891358058
 30
0.0
 10
86.845702228826
 20
-123.322891358058
 30
0.0
 10
86.82640528487386
 20
-123.322891358058
 30
0.0
 10
86.81053028527886
 20
-123.3077219136175
 30
0.0
 10
86.81053028527886
 20
-123.2877546914003
 30
0.0
 10
86.81053028527886
 20
-123.2684577469608
 30
0.0
 10
86.82640528487386
 20
-123.2525827469647
 30
0.0
 10
86.845702228826
 20
-123.2525827469647
 30
0.0
 10
86.86531667277004
 20
-123.2525827469647
 30
0.0
 10
86.88115639458815
 20
-123.2684577469608
 30
0.0
 10
86.88115639458815
 20
-123.2877546914003
 30
0.0
  0
SPLINE
  5
196
330
1F
100
AcDbEntity
  8
_U+30EC_U+30A4_U+30E4_U+30FC 1
 62
   179
420
  2234388
370
    25
100
AcDbSpline
210
0.0
220
0.0
230
1.0
 70
    11
 71
     3
 72
    17
 73
    13
 74
     0
 42
0.0000000001
 43
0.0000000001
 12
1.0
 22
0.0
 32
0.0
 13
1.0
 23
0.0
 33
0.0
 40
0.0
 40
0.0
 40
0.0
 40
0.0
 40
1.0
 40
1.0
 40
1.0
 40
2.0
 40
2.0
 40
2.0
 40
3.0
 40
3.0
 40
3.0
 40
4.0
 40
4.0
 40
4.0
 40
4.0
 10
102.880898208623
 20
-123.2877546914003
 30
0.0
 10
102.880898208623
 20
-123.3077219136175
 30
0.0
 10
102.8653759867967
 20
-123.322891358058
 30
0.0
 10
102.8457615428527
 20
-123.322891358058
 30
0.0
 10
102.8264645989006
 20
-123.322891358058
 30
0.0
 10
102.8105895993056
 20
-123.3077219136175
 30
0.0
 10
102.8105895993056
 20
-123.2877546914003
 30
0.0
 10
102.8105895993056
 20
-123.2684577469608
 30
0.0
 10
102.8264645989006
 20
-123.2525827469647
 30
0.0
 10
102.8457615428527
 20
-123.2525827469647
 30
0.0
 10
102.8653759867967
 20
-123.2525827469647
 30
0.0
 10
102.880898208623
 20
-123.2684577469608
 30
0.0
 10
102.880898208623
 20
-123.2877546914003
 30
0.0
  0
SPLINE
  5
197
330
1F
100
AcDbEntity
  8
_U+30EC_U+30A4_U+30E4_U+30FC 1
 62
   179
420
  2234388
370
     9
100
AcDbSpline
210
0.0
220
0.0
230
1.0
 70
    11
 71
     3
 72
    17
 73
    13
 74
     0
 42
0.0000000001
 43
0.0000000001
 12
1.0
 22
0.0
 32
0.0
 13
1.0
 23
0.0
 33
0.0
 40
0.0
 40
0.0
 40
0.0
 40
0.0
 40
1.0
 40
1.0
 40
1.0
 40
2.0
 40
2.0
 40
2.0
 40
3.0
 40
3.0
 40
3.0
 40
4.0
 40
4.0
 40
4.0
 40
4.0
 10
102.880898208623
 20
-119.2879955257334
 30
0.0
 10
102.880898208623
 20
-119.3072571923954
 30
0.0
 10
102.8653759867967
 20
-119.3231321923915
 30
0.0
 10
102.8457615428527
 20
-119.3231321923915
 30
0.0
 10
102.8264645989006
 20
-119.3231321923915
 30
0.0
 10
102.8105895993056
 20
-119.3072571923954
 30
0.0
 10
102.8105895993056
 20
-119.2879955257334
 30
0.0
 10
102.8105895993056
 20
-119.2686985812939
 30
0.0
 10
102.8264645989006
 20
-119.2528588590757
 30
0.0
 10
102.8457615428527
 20
-119.2528588590757
 30
0.0
 10
102.8653759867967
 20
-119.2528588590757
 30
0.0
 10
102.880898208623
 20
-119.2686985812939
 30
0.0
 10
102.880898208623
 20
-119.2879955257334
 30
0.0
  0
ENDSEC
  0
SECTION
  2
OBJECTS
  0
DICTIONARY
  5
C
330
0
100
AcDbDictionary
281
     1
  3
ACAD_GROUP
350
D
  3
ACAD_LAYOUT
350
1A
  3
ACAD_MATERIAL
350
3B
  3
ACAD_MLEADERSTYLE
350
199
  3
ACAD_MLINESTYLE
350
17
  3
ACAD_PLOTSETTINGS
350
19
  3
ACAD_PLOTSTYLENAME
350
E
  3
ACAD_TABLESTYLE
350
198
  3
ACAD_VISUALSTYLE
350
2A
  0
SUN
  5
3F
330
29
100
AcDbSun
 90
        1
290
     0
 63
     7
421
 16777215
 40
1.0
291
     1
 91
  2455826
 92
 54000000
292
     0
 70
     2
 71
   256
280
     1
  0
DICTIONARY
  5
D
102
{ACAD_REACTORS
330
C
102
}
330
C
100
AcDbDictionary
281
     1
  0
DICTIONARY
  5
1A
102
{ACAD_REACTORS
330
C
102
}
330
C
100
AcDbDictionary
281
     1
  3
Layout1
350
1E
  3
Layout2
350
26
  3
Model
350
22
  0
DICTIONARY
  5
3B
102
{ACAD_REACTORS
330
C
102
}
330
C
100
AcDbDictionary
281
     1
  3
ByBlock
350
3D
  3
ByLayer
350
3C
  3
Global
350
3E
  0
DICTIONARY
  5
199
102
{ACAD_REACTORS
330
C
102
}
330
C
100
AcDbDictionary
281
     1
  0
DICTIONARY
  5
17
102
{ACAD_REACTORS
330
C
102
}
330
C
100
AcDbDictionary
281
     1
  3
Standard
350
18
  0
DICTIONARY
  5
19
102
{ACAD_REACTORS
330
C
102
}
330
C
100
AcDbDictionary
281
     1
  0
ACDBDICTIONARYWDFLT
  5
E
102
{ACAD_REACTORS
330
C
102
}
330
C
100
AcDbDictionary
281
     1
  3
Normal
350
F
100
AcDbDictionaryWithDefault
340
F
  0
DICTIONARY
  5
198
102
{ACAD_REACTORS
330
C
102
}
330
C
100
AcDbDictionary
281
     1
  0
DICTIONARY
  5
2A
102
{ACAD_REACTORS
330
C
102
}
330
C
100
AcDbDictionary
281
     1
  3
2dWireframe
350
2F
  3
3D Hidden
350
31
  3
3dWireframe
350
30
  3
Basic
350
32
  3
Brighten
350
36
  3
ColorChange
350
3A
  3
Conceptual
350
34
  3
Dim
350
35
  3
Facepattern
350
39
  3
Flat
350
2B
  3
FlatWithEdges
350
2C
  3
Gouraud
350
2D
  3
GouraudWithEdges
350
2E
  3
Linepattern
350
38
  3
Realistic
350
33
  3
Thicken
350
37
  0
LAYOUT
  5
1E
102
{ACAD_REACTORS
330
1A
102
}
330
1A
100
AcDbPlotSettings
  1

  2
none_device
  4

  6

 40
0.0
 41
0.0
 42
0.0
 43
0.0
 44
0.0
 45
0.0
 46
0.0
 47
0.0
 48
0.0
 49
0.0
140
0.0
141
0.0
142
1.0
143
1.0
 70
   688
 72
     0
 73
     0
 74
     5
  7

 75
    16
 76
     0
 77
     2
 78
   300
147
1.0
148
0.0
149
0.0
100
AcDbLayout
  1
Layout1
 70
     1
 71
     1
 10
0.0
 20
0.0
 11
12.0
 21
9.0
 12
0.0
 22
0.0
 32
0.0
 14
1.000000000000000E+20
 24
1.000000000000000E+20
 34
1.000000000000000E+20
 15
-1.000000000000000E+20
 25
-1.000000000000000E+20
 35
-1.000000000000000E+20
146
0.0
 13
0.0
 23
0.0
 33
0.0
 16
1.0
 26
0.0
 36
0.0
 17
0.0
 27
1.0
 37
0.0
 76
     0
330
1B
  0
LAYOUT
  5
26
102
{ACAD_REACTORS
330
1A
102
}
330
1A
100
AcDbPlotSettings
  1

  2
none_device
  4

  6

 40
0.0
 41
0.0
 42
0.0
 43
0.0
 44
0.0
 45
0.0
 46
0.0
 47
0.0
 48
0.0
 49
0.0
140
0.0
141
0.0
142
1.0
143
1.0
 70
   688
 72
     0
 73
     0
 74
     5
  7

 75
    16
 76
     0
 77
     2
 78
   300
147
1.0
148
0.0
149
0.0
100
AcDbLayout
  1
Layout2
 70
     1
 71
     2
 10
0.0
 20
0.0
 11
0.0
 21
0.0
 12
0.0
 22
0.0
 32
0.0
 14
0.0
 24
0.0
 34
0.0
 15
0.0
 25
0.0
 35
0.0
146
0.0
 13
0.0
 23
0.0
 33
0.0
 16
1.0
 26
0.0
 36
0.0
 17
0.0
 27
1.0
 37
0.0
 76
     0
330
23
  0
LAYOUT
  5
22
102
{ACAD_REACTORS
330
1A
102
}
330
1A
100
AcDbPlotSettings
  1

  2
none_device
  4

  6

 40
0.0
 41
0.0
 42
0.0
 43
0.0
 44
0.0
 45
0.0
 46
0.0
 47
0.0
 48
0.0
 49
0.0
140
0.0
141
0.0
142
1.0
143
1.0
 70
  1712
 72
     0
 73
     0
 74
     0
  7

 75
     0
 76
     0
 77
     2
 78
   300
147
1.0
148
0.0
149
0.0
100
AcDbLayout
  1
Model
 70
     1
 71
     0
 10
0.0
 20
0.0
 11
12.0
 21
9.0
 12
0.0
 22
0.0
 32
0.0
 14
1.000000000000000E+20
 24
1.000000000000000E+20
 34
1.000000000000000E+20
 15
-1.000000000000000E+20
 25
-1.000000000000000E+20
 35
-1.000000000000000E+20
146
0.0
 13
0.0
 23
0.0
 33
0.0
 16
1.0
 26
0.0
 36
0.0
 17
0.0
 27
1.0
 37
0.0
 76
     0
330
1F
331
29
  0
MATERIAL
  5
3D
102
{ACAD_REACTORS
330
3B
102
}
330
3B
100
AcDbMaterial
  1
ByBlock
 72
     1
 94
      127
  0
MATERIAL
  5
3C
102
{ACAD_REACTORS
330
3B
102
}
330
3B
100
AcDbMaterial
  1
ByLayer
 72
     1
 94
      127
  0
MATERIAL
  5
3E
102
{ACAD_REACTORS
330
3B
102
}
330
3B
100
AcDbMaterial
  1
Global
 72
     1
 94
      127
  0
MLINESTYLE
  5
18
102
{ACAD_REACTORS
330
17
102
}
330
17
100
AcDbMlineStyle
  2
Standard
 70
     0
  3

 62
   256
 51
90.0
 52
90.0
 71
     2
 49
0.5
 62
   256
  6
BYLAYER
 49
-0.5
 62
   256
  6
BYLAYER
  0
ACDBPLACEHOLDER
  5
F
102
{ACAD_REACTORS
330
E
102
}
330
E
  0
VISUALSTYLE
  5
2F
102
{ACAD_REACTORS
330
2A
102
}
330
2A
100
AcDbVisualStyle
  2
2dWireframe
 70
     4
177
     2
291
     0
 71
     0
176
     1
 72
     2
176
     1
 73
     0
176
     1
 90
        0
176
     1
 40
-0.6
176
     1
 41
-30.0
176
     1
 62
     5
 63
     7
421
 16777215
176
     1
 74
     1
176
     1
 91
        4
176
     1
 64
     7
176
     1
 65
   257
176
     1
 75
     1
176
     1
175
     1
176
     1
 42
1.0
176
     1
 92
        0
176
     1
 66
   257
176
     1
 43
1.0
176
     1
 76
     1
176
     1
 77
     6
176
     1
 78
     2
176
     1
 67
     7
176
     1
 79
     5
176
     1
170
     0
176
     1
171
     0
176
     1
290
     0
176
     1
 93
        1
176
     1
 44
0.0
176
     1
173
     0
176
     1
  0
VISUALSTYLE
  5
31
102
{ACAD_REACTORS
330
2A
102
}
330
2A
100
AcDbVisualStyle
  2
3D Hidden
 70
     6
177
     2
291
     0
 71
     1
176
     1
 72
     2
176
     1
 73
     2
176
     1
 90
        0
176
     1
 40
-0.6
176
     1
 41
-30.0
176
     1
 62
     5
 63
     7
421
 16777215
176
     1
 74
     2
176
     1
 91
        2
176
     1
 64
     7
176
     1
 65
   257
176
     1
 75
     2
176
     1
175
     1
176
     1
 42
40.0
176
     1
 92
        0
176
     1
 66
   257
176
     1
 43
1.0
176
     1
 76
     1
176
     1
 77
     6
176
     1
 78
     2
176
     1
 67
     7
176
     1
 79
     3
176
     1
170
     0
176
     1
171
     0
176
     1
290
     0
176
     1
 93
        1
176
     1
 44
0.0
176
     1
173
     0
176
     1
  0
VISUALSTYLE
  5
30
102
{ACAD_REACTORS
330
2A
102
}
330
2A
100
AcDbVisualStyle
  2
3dWireframe
 70
     5
177
     2
291
     0
 71
     0
176
     1
 72
     2
176
     1
 73
     0
176
     1
 90
        0
176
     1
 40
-0.6
176
     1
 41
-30.0
176
     1
 62
     5
 63
     7
421
 16777215
176
     1
 74
     1
176
     1
 91
        4
176
     1
 64
     7
176
     1
 65
   257
176
     1
 75
     1
176
     1
175
     1
176
     1
 42
1.0
176
     1
 92
        0
176
     1
 66
   257
176
     1
 43
1.0
176
     1
 76
     1
176
     1
 77
     6
176
     1
 78
     2
176
     1
 67
     7
176
     1
 79
     5
176
     1
170
     0
176
     1
171
     0
176
     1
290
     0
176
     1
 93
        1
176
     1
 44
0.0
176
     1
173
     0
176
     1
  0
VISUALSTYLE
  5
32
102
{ACAD_REACTORS
330
2A
102
}
330
2A
100
AcDbVisualStyle
  2
Basic
 70
     7
177
     2
291
     1
 71
     1
176
     1
 72
     0
176
     1
 73
     1
176
     1
 90
        0
176
     1
 40
-0.6
176
     1
 41
-30.0
176
     1
 62
     5
 63
     7
421
 16777215
176
     1
 74
     0
176
     1
 91
        4
176
     1
 64
     7
176
     1
 65
   257
176
     1
 75
     1
176
     1
175
     1
176
     1
 42
1.0
176
     1
 92
        8
176
     1
 66
     7
176
     1
 43
1.0
176
     1
 76
     1
176
     1
 77
     6
176
     1
 78
     2
176
     1
 67
     7
176
     1
 79
     5
176
     1
170
     0
176
     1
171
     0
176
     1
290
     0
176
     1
 93
        1
176
     1
 44
0.0
176
     1
173
     0
176
     1
  0
VISUALSTYLE
  5
36
102
{ACAD_REACTORS
330
2A
102
}
330
2A
100
AcDbVisualStyle
  2
Brighten
 70
    12
177
     2
291
     1
 71
     2
176
     1
 72
     2
176
     1
 73
     0
176
     1
 90
        0
176
     1
 40
-0.6
176
     1
 41
-30.0
176
     1
 62
     5
 63
     7
421
 16777215
176
     1
 74
     1
176
     1
 91
        4
176
     1
 64
     7
176
     1
 65
   257
176
     1
 75
     1
176
     1
175
     1
176
     1
 42
1.0
176
     1
 92
        8
176
     1
 66
     7
176
     1
 43
1.0
176
     1
 76
     1
176
     1
 77
     6
176
     1
 78
     2
176
     1
 67
     7
176
     1
 79
     5
176
     1
170
     0
176
     1
171
     0
176
     1
290
     0
176
     1
 93
        1
176
     1
 44
50.0
176
     1
173
     0
176
     1
  0
VISUALSTYLE
  5
3A
102
{ACAD_REACTORS
330
2A
102
}
330
2A
100
AcDbVisualStyle
  2
ColorChange
 70
    16
177
     2
291
     1
 71
     2
176
     1
 72
     2
176
     1
 73
     3
176
     1
 90
        0
176
     1
 40
-0.6
176
     1
 41
-30.0
176
     1
 62
     5
 63
     8
421
  8421504
176
     1
 74
     1
176
     1
 91
        4
176
     1
 64
     7
176
     1
 65
   257
176
     1
 75
     1
176
     1
175
     1
176
     1
 42
1.0
176
     1
 92
        8
176
     1
 66
     8
424
  8421504
176
     1
 43
1.0
176
     1
 76
     1
176
     1
 77
     6
176
     1
 78
     2
176
     1
 67
     7
176
     1
 79
     5
176
     1
170
     0
176
     1
171
     0
176
     1
290
     0
176
     1
 93
        1
176
     1
 44
0.0
176
     1
173
     0
176
     1
  0
VISUALSTYLE
  5
34
102
{ACAD_REACTORS
330
2A
102
}
330
2A
100
AcDbVisualStyle
  2
Conceptual
 70
     9
177
     2
291
     0
 71
     3
176
     1
 72
     2
176
     1
 73
     0
176
     1
 90
        0
176
     1
 40
-0.6
176
     1
 41
-30.0
176
     1
 62
     5
 63
     7
421
 16777215
176
     1
 74
     2
176
     1
 91
        2
176
     1
 64
     7
176
     1
 65
   257
176
     1
 75
     1
176
     1
175
     1
176
     1
 42
40.0
176
     1
 92
        8
176
     1
 66
     7
176
     1
 43
1.0
176
     1
 76
     1
176
     1
 77
     6
176
     1
 78
     2
176
     1
 67
     7
176
     1
 79
     3
176
     1
170
     0
176
     1
171
     0
176
     1
290
     0
176
     1
 93
        1
176
     1
 44
0.0
176
     1
173
     0
176
     1
  0
VISUALSTYLE
  5
35
102
{ACAD_REACTORS
330
2A
102
}
330
2A
100
AcDbVisualStyle
  2
Dim
 70
    11
177
     2
291
     1
 71
     2
176
     1
 72
     2
176
     1
 73
     0
176
     1
 90
        0
176
     1
 40
-0.6
176
     1
 41
-30.0
176
     1
 62
     5
 63
     7
421
 16777215
176
     1
 74
     1
176
     1
 91
        4
176
     1
 64
     7
176
     1
 65
   257
176
     1
 75
     1
176
     1
175
     1
176
     1
 42
1.0
176
     1
 92
        8
176
     1
 66
     7
176
     1
 43
1.0
176
     1
 76
     1
176
     1
 77
     6
176
     1
 78
     2
176
     1
 67
     7
176
     1
 79
     5
176
     1
170
     0
176
     1
171
     0
176
     1
290
     0
176
     1
 93
        1
176
     1
 44
-50.0
176
     1
173
     0
176
     1
  0
VISUALSTYLE
  5
39
102
{ACAD_REACTORS
330
2A
102
}
330
2A
100
AcDbVisualStyle
  2
Facepattern
 70
    15
177
     2
291
     1
 71
     2
176
     1
 72
     2
176
     1
 73
     0
176
     1
 90
        0
176
     1
 40
-0.6
176
     1
 41
-30.0
176
     1
 62
     5
 63
     7
421
 16777215
176
     1
 74
     1
176
     1
 91
        4
176
     1
 64
     7
176
     1
 65
   257
176
     1
 75
     1
176
     1
175
     1
176
     1
 42
1.0
176
     1
 92
        8
176
     1
 66
     7
176
     1
 43
1.0
176
     1
 76
     1
176
     1
 77
     6
176
     1
 78
     2
176
     1
 67
     7
176
     1
 79
     5
176
     1
170
     0
176
     1
171
     0
176
     1
290
     0
176
     1
 93
        1
176
     1
 44
0.0
176
     1
173
     0
176
     1
  0
VISUALSTYLE
  5
2B
102
{ACAD_REACTORS
330
2A
102
}
330
2A
100
AcDbVisualStyle
  2
Flat
 70
     0
177
     2
291
     1
 71
     2
176
     1
 72
     1
176
     1
 73
     1
176
     1
 90
        2
176
     1
 40
-0.6
176
     1
 41
30.0
176
     1
 62
     5
 63
     7
421
 16777215
176
     1
 74
     0
176
     1
 91
        4
176
     1
 64
     7
176
     1
 65
   257
176
     1
 75
     1
176
     1
175
     1
176
     1
 42
1.0
176
     1
 92
        8
176
     1
 66
     7
176
     1
 43
1.0
176
     1
 76
     1
176
     1
 77
     6
176
     1
 78
     2
176
     1
 67
     7
176
     1
 79
     5
176
     1
170
     0
176
     1
171
     0
176
     1
290
     0
176
     1
 93
       13
176
     1
 44
0.0
176
     1
173
     0
176
     1
  0
VISUALSTYLE
  5
2C
102
{ACAD_REACTORS
330
2A
102
}
330
2A
100
AcDbVisualStyle
  2
FlatWithEdges
 70
     1
177
     2
291
     1
 71
     2
176
     1
 72
     1
176
     1
 73
     1
176
     1
 90
        2
176
     1
 40
-0.6
176
     1
 41
30.0
176
     1
 62
     5
 63
     7
421
 16777215
176
     1
 74
     1
176
     1
 91
        4
176
     1
 64
     7
176
     1
 65
   257
176
     1
 75
     1
176
     1
175
     1
176
     1
 42
1.0
176
     1
 92
        0
176
     1
 66
   257
176
     1
 43
1.0
176
     1
 76
     1
176
     1
 77
     6
176
     1
 78
     2
176
     1
 67
     7
176
     1
 79
     5
176
     1
170
     0
176
     1
171
     0
176
     1
290
     0
176
     1
 93
       13
176
     1
 44
0.0
176
     1
173
     0
176
     1
  0
VISUALSTYLE
  5
2D
102
{ACAD_REACTORS
330
2A
102
}
330
2A
100
AcDbVisualStyle
  2
Gouraud
 70
     2
177
     2
291
     1
 71
     2
176
     1
 72
     2
176
     1
 73
     1
176
     1
 90
        2
176
     1
 40
-0.6
176
     1
 41
30.0
176
     1
 62
     5
 63
     7
421
 16777215
176
     1
 74
     0
176
     1
 91
        4
176
     1
 64
     7
176
     1
 65
   257
176
     1
 75
     1
176
     1
175
     1
176
     1
 42
1.0
176
     1
 92
        0
176
     1
 66
     7
176
     1
 43
1.0
176
     1
 76
     1
176
     1
 77
     6
176
     1
 78
     2
176
     1
 67
     7
176
     1
 79
     5
176
     1
170
     0
176
     1
171
     0
176
     1
290
     0
176
     1
 93
       13
176
     1
 44
0.0
176
     1
173
     0
176
     1
  0
VISUALSTYLE
  5
2E
102
{ACAD_REACTORS
330
2A
102
}
330
2A
100
AcDbVisualStyle
  2
GouraudWithEdges
 70
     3
177
     2
291
     1
 71
     2
176
     1
 72
     2
176
     1
 73
     1
176
     1
 90
        2
176
     1
 40
-0.6
176
     1
 41
30.0
176
     1
 62
     5
 63
     7
421
 16777215
176
     1
 74
     1
176
     1
 91
        4
176
     1
 64
     7
176
     1
 65
   257
176
     1
 75
     1
176
     1
175
     1
176
     1
 42
1.0
176
     1
 92
        0
176
     1
 66
   257
176
     1
 43
1.0
176
     1
 76
     1
176
     1
 77
     6
176
     1
 78
     2
176
     1
 67
     7
176
     1
 79
     5
176
     1
170
     0
176
     1
171
     0
176
     1
290
     0
176
     1
 93
       13
176
     1
 44
0.0
176
     1
173
     0
176
     1
  0
VISUALSTYLE
  5
38
102
{ACAD_REACTORS
330
2A
102
}
330
2A
100
AcDbVisualStyle
  2
Linepattern
 70
    14
177
     2
291
     1
 71
     2
176
     1
 72
     2
176
     1
 73
     0
176
     1
 90
        0
176
     1
 40
-0.6
176
     1
 41
-30.0
176
     1
 62
     5
 63
     7
421
 16777215
176
     1
 74
     1
176
     1
 91
        4
176
     1
 64
     7
176
     1
 65
   257
176
     1
 75
     7
176
     1
175
     7
176
     1
 42
1.0
176
     1
 92
        8
176
     1
 66
     7
176
     1
 43
1.0
176
     1
 76
     1
176
     1
 77
     6
176
     1
 78
     2
176
     1
 67
     7
176
     1
 79
     5
176
     1
170
     0
176
     1
171
     0
176
     1
290
     0
176
     1
 93
        1
176
     1
 44
0.0
176
     1
173
     0
176
     1
  0
VISUALSTYLE
  5
33
102
{ACAD_REACTORS
330
2A
102
}
330
2A
100
AcDbVisualStyle
  2
Realistic
 70
     8
177
     2
291
     0
 71
     2
176
     1
 72
     2
176
     1
 73
     0
176
     1
 90
        0
176
     1
 40
-0.6
176
     1
 41
-30.0
176
     1
 62
     5
 63
     7
421
 16777215
176
     1
 74
     1
176
     1
 91
        0
176
     1
 64
     7
176
     1
 65
   257
176
     1
 75
     1
176
     1
175
     1
176
     1
 42
1.0
176
     1
 92
        8
176
     1
 66
     8
424
  7895160
176
     1
 43
1.0
176
     1
 76
     1
176
     1
 77
     6
176
     1
 78
     2
176
     1
 67
     7
176
     1
 79
     5
176
     1
170
     0
176
     1
171
     0
176
     1
290
     0
176
     1
 93
       13
176
     1
 44
0.0
176
     1
173
     0
176
     1
  0
VISUALSTYLE
  5
37
102
{ACAD_REACTORS
330
2A
102
}
330
2A
100
AcDbVisualStyle
  2
Thicken
 70
    13
177
     2
291
     1
 71
     2
176
     1
 72
     2
176
     1
 73
     0
176
     1
 90
        0
176
     1
 40
-0.6
176
     1
 41
-30.0
176
     1
 62
     5
 63
     7
421
 16777215
176
     1
 74
     1
176
     1
 91
        4
176
     1
 64
     7
176
     1
 65
   257
176
     1
 75
     1
176
     1
175
     1
176
     1
 42
1.0
176
     1
 92
       12
176
     1
 66
     7
176
     1
 43
1.0
176
     1
 76
     1
176
     1
 77
     6
176
     1
 78
     2
176
     1
 67
     7
176
     1
 79
     5
176
     1
170
     0
176
     1
171
     0
176
     1
290
     0
176
     1
 93
        1
176
     1
 44
0.0
176
     1
173
     0
176
     1
  0
ENDSEC
  0
EOF
