  0
SECTION
  2
HEADER
  9
$ACADVER
  1
AC1024
  9
$ACADMAINTVER
 70
     6
  9
$DWGCODEPAGE
  3
UNDEFINED
  9
$INSBASE
 10
0.0
 20
0.0
 30
0.0
  9
$EXTMIN
 10
1.000000000000000E+20
 20
1.000000000000000E+20
 30
1.000000000000000E+20
  9
$EXTMAX
 10
-1.000000000000000E+20
 20
-1.000000000000000E+20
 30
-1.000000000000000E+20
  9
$LIMMIN
 10
0.0
 20
0.0
  9
$LIMMAX
 10
12.0
 20
9.0
  9
$ORTHOMODE
 70
     0
  9
$REGENMODE
 70
     1
  9
$FILLMODE
 70
     1
  9
$QTEXTMODE
 70
     0
  9
$MIRRTEXT
 70
     1
  9
$LTSCALE
 40
1.0
  9
$ATTMODE
 70
     1
  9
$TEXTSIZE
 40
0.2
  9
$TRACEWID
 40
0.05
  9
$TEXTSTYLE
  7
Standard
  9
$CLAYER
  8
0
  9
$CELTYPE
  6
ByLayer
  9
$CECOLOR
 62
   256
  9
$CELTSCALE
 40
1.0
  9
$DISPSILH
 70
     0
  9
$DIMSCALE
 40
1.0
  9
$DIMASZ
 40
0.18
  9
$DIMEXO
 40
0.0625
  9
$DIMDLI
 40
0.38
  9
$DIMRND
 40
0.0
  9
$DIMDLE
 40
0.0
  9
$DIMEXE
 40
0.18
  9
$DIMTP
 40
0.0
  9
$DIMTM
 40
0.0
  9
$DIMTXT
 40
0.18
  9
$DIMCEN
 40
0.09
  9
$DIMTSZ
 40
0.0
  9
$DIMTOL
 70
     0
  9
$DIMLIM
 70
     0
  9
$DIMTIH
 70
     1
  9
$DIMTOH
 70
     1
  9
$DIMSE1
 70
     0
  9
$DIMSE2
 70
     0
  9
$DIMTAD
 70
     0
  9
$DIMZIN
 70
     0
  9
$DIMBLK
  1

  9
$DIMASO
 70
     1
  9
$DIMSHO
 70
     1
  9
$DIMPOST
  1

  9
$DIMAPOST
  1

  9
$DIMALT
 70
     0
  9
$DIMALTD
 70
     2
  9
$DIMALTF
 40
25.4
  9
$DIMLFAC
 40
1.0
  9
$DIMTOFL
 70
     0
  9
$DIMTVP
 40
0.0
  9
$DIMTIX
 70
     0
  9
$DIMSOXD
 70
     0
  9
$DIMSAH
 70
     0
  9
$DIMBLK1
  1

  9
$DIMBLK2
  1

  9
$DIMSTYLE
  2
Standard
  9
$DIMCLRD
 70
     0
  9
$DIMCLRE
 70
     0
  9
$DIMCLRT
 70
     0
  9
$DIMTFAC
 40
1.0
  9
$DIMGAP
 40
0.09
  9
$DIMJUST
 70
     0
  9
$DIMSD1
 70
     0
  9
$DIMSD2
 70
     0
  9
$DIMTOLJ
 70
     1
  9
$DIMTZIN
 70
     0
  9
$DIMALTZ
 70
     0
  9
$DIMALTTZ
 70
     0
  9
$DIMUPT
 70
     0
  9
$DIMDEC
 70
     4
  9
$DIMTDEC
 70
     4
  9
$DIMALTU
 70
     2
  9
$DIMALTTD
 70
     2
  9
$DIMTXSTY
  7
Standard
  9
$DIMAUNIT
 70
     0
  9
$DIMADEC
 70
     0
  9
$DIMALTRND
 40
0.0
  9
$DIMAZIN
 70
     0
  9
$DIMDSEP
 70
    46
  9
$DIMATFIT
 70
     3
  9
$DIMFRAC
 70
     0
  9
$DIMLDRBLK
  1

  9
$DIMLUNIT
 70
     2
  9
$DIMLWD
 70
    -2
  9
$DIMLWE
 70
    -2
  9
$DIMTMOVE
 70
     0
  9
$DIMFXL
 40
1.0
  9
$DIMFXLON
 70
     0
  9
$DIMJOGANG
 40
0.7853981633974483
  9
$DIMTFILL
 70
     0
  9
$DIMTFILLCLR
 70
     0
  9
$DIMARCSYM
 70
     0
  9
$DIMLTYPE
  6

  9
$DIMLTEX1
  6

  9
$DIMLTEX2
  6

  9
$DIMTXTDIRECTION
 70
     0
  9
$LUNITS
 70
     2
  9
$LUPREC
 70
     4
  9
$SKETCHINC
 40
0.1
  9
$FILLETRAD
 40
0.5
  9
$AUNITS
 70
     0
  9
$AUPREC
 70
     0
  9
$MENU
  1
.
  9
$ELEVATION
 40
0.0
  9
$PELEVATION
 40
0.0
  9
$THICKNESS
 40
0.0
  9
$LIMCHECK
 70
     0
  9
$CHAMFERA
 40
0.5
  9
$CHAMFERB
 40
0.5
  9
$CHAMFERC
 40
1.0
  9
$CHAMFERD
 40
0.0
  9
$SKPOLY
 70
     0
  9
$TDCREATE
 40
2457917.646597222
  9
$TDUCREATE
 40
2457917.271597222
  9
$TDUPDATE
 40
2457917.646597222
  9
$TDUUPDATE
 40
2457917.271597222
  9
$TDINDWG
 40
0.0000000116
  9
$TDUSRTIMER
 40
0.0000000116
  9
$USRTIMER
 70
     1
  9
$ANGBASE
 50
0.0
  9
$ANGDIR
 70
     0
  9
$PDMODE
 70
     0
  9
$PDSIZE
 40
0.0
  9
$PLINEWID
 40
0.0
  9
$SPLFRAME
 70
     0
  9
$SPLINETYPE
 70
     6
  9
$SPLINESEGS
 70
     8
  9
$HANDSEED
  5
16B
  9
$SURFTAB1
 70
     6
  9
$SURFTAB2
 70
     6
  9
$SURFTYPE
 70
     6
  9
$SURFU
 70
     6
  9
$SURFV
 70
     6
  9
$UCSBASE
  2

  9
$UCSNAME
  2

  9
$UCSORG
 10
0.0
 20
0.0
 30
0.0
  9
$UCSXDIR
 10
1.0
 20
0.0
 30
0.0
  9
$UCSYDIR
 10
0.0
 20
1.0
 30
0.0
  9
$UCSORTHOREF
  2

  9
$UCSORTHOVIEW
 70
     0
  9
$UCSORGTOP
 10
0.0
 20
0.0
 30
0.0
  9
$UCSORGBOTTOM
 10
0.0
 20
0.0
 30
0.0
  9
$UCSORGLEFT
 10
0.0
 20
0.0
 30
0.0
  9
$UCSORGRIGHT
 10
0.0
 20
0.0
 30
0.0
  9
$UCSORGFRONT
 10
0.0
 20
0.0
 30
0.0
  9
$UCSORGBACK
 10
0.0
 20
0.0
 30
0.0
  9
$PUCSBASE
  2

  9
$PUCSNAME
  2

  9
$PUCSORG
 10
0.0
 20
0.0
 30
0.0
  9
$PUCSXDIR
 10
1.0
 20
0.0
 30
0.0
  9
$PUCSYDIR
 10
0.0
 20
1.0
 30
0.0
  9
$PUCSORTHOREF
  2

  9
$PUCSORTHOVIEW
 70
     0
  9
$PUCSORGTOP
 10
0.0
 20
0.0
 30
0.0
  9
$PUCSORGBOTTOM
 10
0.0
 20
0.0
 30
0.0
  9
$PUCSORGLEFT
 10
0.0
 20
0.0
 30
0.0
  9
$PUCSORGRIGHT
 10
0.0
 20
0.0
 30
0.0
  9
$PUCSORGFRONT
 10
0.0
 20
0.0
 30
0.0
  9
$PUCSORGBACK
 10
0.0
 20
0.0
 30
0.0
  9
$USERI1
 70
     0
  9
$USERI2
 70
     0
  9
$USERI3
 70
     0
  9
$USERI4
 70
     0
  9
$USERI5
 70
     0
  9
$USERR1
 40
0.0
  9
$USERR2
 40
0.0
  9
$USERR3
 40
0.0
  9
$USERR4
 40
0.0
  9
$USERR5
 40
0.0
  9
$WORLDVIEW
 70
     1
  9
$SHADEDGE
 70
     3
  9
$SHADEDIF
 70
    70
  9
$TILEMODE
 70
     1
  9
$MAXACTVP
 70
    64
  9
$PINSBASE
 10
0.0
 20
0.0
 30
0.0
  9
$PLIMCHECK
 70
     0
  9
$PEXTMIN
 10
1.000000000000000E+20
 20
1.000000000000000E+20
 30
1.000000000000000E+20
  9
$PEXTMAX
 10
-1.000000000000000E+20
 20
-1.000000000000000E+20
 30
-1.000000000000000E+20
  9
$PLIMMIN
 10
0.0
 20
0.0
  9
$PLIMMAX
 10
12.0
 20
9.0
  9
$UNITMODE
 70
     0
  9
$VISRETAIN
 70
     1
  9
$PLINEGEN
 70
     0
  9
$PSLTSCALE
 70
     1
  9
$TREEDEPTH
 70
  3020
  9
$CMLSTYLE
  2
Standard
  9
$CMLJUST
 70
     0
  9
$CMLSCALE
 40
1.0
  9
$PROXYGRAPHICS
 70
     1
  9
$MEASUREMENT
 70
     0
  9
$CELWEIGHT
370
    -1
  9
$ENDCAPS
280
     0
  9
$JOINSTYLE
280
     0
  9
$LWDISPLAY
290
     1
  9
$INSUNITS
 70
     1
  9
$HYPERLINKBASE
  1

  9
$STYLESHEET
  1

  9
$XEDIT
290
     1
  9
$CEPSNTYPE
380
     0
  9
$PSTYLEMODE
290
     1
  9
$FINGERPRINTGUID
  2
{A13F0DDA-9688-A157-BDAC-BE5430E75617}
  9
$VERSIONGUID
  2
{FAEB1C32-E019-11D5-929B-00C0DF256EC4}
  9
$EXTNAMES
290
     1
  9
$PSVPSCALE
 40
0.0
  9
$OLESTARTUP
290
     0
  9
$SORTENTS
280
   127
  9
$INDEXCTL
280
     0
  9
$HIDETEXT
280
     1
  9
$XCLIPFRAME
280
     2
  9
$HALOGAP
280
     0
  9
$OBSCOLOR
 70
   257
  9
$OBSLTYPE
280
     0
  9
$INTERSECTIONDISPLAY
280
     0
  9
$INTERSECTIONCOLOR
 70
   257
  9
$DIMASSOC
280
     2
  9
$PROJECTNAME
  1

  9
$CAMERADISPLAY
290
     0
  9
$LENSLENGTH
 40
50.0
  9
$CAMERAHEIGHT
 40
0.0
  9
$STEPSPERSEC
 40
2.0
  9
$STEPSIZE
 40
6.0
  9
$3DDWFPREC
 40
2.0
  9
$PSOLWIDTH
 40
0.25
  9
$PSOLHEIGHT
 40
4.0
  9
$LOFTANG1
 40
1.570796326794897
  9
$LOFTANG2
 40
1.570796326794897
  9
$LOFTMAG1
 40
0.0
  9
$LOFTMAG2
 40
0.0
  9
$LOFTPARAM
 70
     7
  9
$LOFTNORMALS
280
     1
  9
$LATITUDE
 40
37.795
  9
$LONGITUDE
 40
-122.394
  9
$NORTHDIRECTION
 40
0.0
  9
$TIMEZONE
 70
 -8000
  9
$LIGHTGLYPHDISPLAY
280
     1
  9
$TILEMODELIGHTSYNCH
280
     1
  9
$CMATERIAL
347
3C
  9
$SOLIDHIST
280
     1
  9
$SHOWHIST
280
     1
  9
$DWFFRAME
280
     2
  9
$DGNFRAME
280
     2
  9
$REALWORLDSCALE
290
     1
  9
$INTERFERECOLOR
 62
   256
  9
$CSHADOW
280
     0
  9
$SHADOWPLANELOCATION
 40
0.0
  0
ENDSEC
  0
SECTION
  2
CLASSES
  0
CLASS
  1
ACDBDICTIONARYWDFLT
  2
AcDbDictionaryWithDefault
  3
ObjectDBX Classes
 90
        0
 91
        4
280
     0
281
     0
  0
CLASS
  1
VISUALSTYLE
  2
AcDbVisualStyle
  3
ObjectDBX Classes
 90
     4095
 91
        4
280
     0
281
     0
  0
CLASS
  1
MATERIAL
  2
AcDbMaterial
  3
ObjectDBX Classes
 90
     1153
 91
        4
280
     0
281
     0
  0
CLASS
  1
SUN
  2
AcDbSun
  3
SCENEOE
 90
     1024
 91
        4
280
     0
281
     0
  0
ENDSEC
  0
SECTION
  2
TABLES
  0
TABLE
  2
VPORT
  5
8
330
0
100
AcDbSymbolTable
 70
     1
  0
VPORT
  5
29
330
8
100
AcDbSymbolTableRecord
100
AcDbViewportTableRecord
  2
*Active
 70
     0
 10
0.0
 20
0.0
 11
1.0
 21
1.0
 12
0.0
 22
0.0
 13
0.0
 23
0.0
 14
0.5
 24
0.5
 15
0.5
 25
0.5
 16
0.0
 26
0.0
 36
1.0
 17
91.00082462281999
 27
-128.4993055234307
 37
0.0
 40
256.9986110468615
 41
0.7081814508812795
 42
50.0
 43
0.0
 44
0.0
 50
0.0
 51
0.0
 71
     0
 72
   100
 73
     1
 74
     3
 75
     0
 76
     0
 77
     0
 78
     0
281
     0
 65
     1
110
0.0
120
0.0
130
0.0
111
1.0
121
0.0
131
0.0
112
0.0
122
1.0
132
0.0
 79
     0
146
0.0
 60
     3
 61
     5
292
     1
282
     1
141
0.0
142
0.0
 63
   250
361
3F
  0
ENDTAB
  0
TABLE
  2
LTYPE
  5
5
330
0
100
AcDbSymbolTable
 70
     1
  0
LTYPE
  5
14
330
5
100
AcDbSymbolTableRecord
100
AcDbLinetypeTableRecord
  2
ByBlock
 70
     0
  3

 72
    65
 73
     0
 40
0.0
  0
LTYPE
  5
15
330
5
100
AcDbSymbolTableRecord
100
AcDbLinetypeTableRecord
  2
ByLayer
 70
     0
  3

 72
    65
 73
     0
 40
0.0
  0
LTYPE
  5
16
330
5
100
AcDbSymbolTableRecord
100
AcDbLinetypeTableRecord
  2
Continuous
 70
     0
  3
Solid line
 72
    65
 73
     0
 40
0.0
  0
ENDTAB
  0
TABLE
  2
LAYER
  5
2
330
0
100
AcDbSymbolTable
 70
     2
  0
LAYER
  5
10
330
2
100
AcDbSymbolTableRecord
100
AcDbLayerTableRecord
  2
0
 70
     0
 62
     7
  6
Continuous
370
    -3
390
F
347
3E
  0
LAYER
  5
40
330
2
100
AcDbSymbolTableRecord
100
AcDbLayerTableRecord
  2
_U+30EC_U+30A4_U+30E4_U+30FC 1
 70
     0
 62
     7
  6
Continuous
370
    -3
390
F
347
3E
  0
ENDTAB
  0
TABLE
  2
STYLE
  5
3
330
0
100
AcDbSymbolTable
 70
     1
  0
STYLE
  5
11
330
3
100
AcDbSymbolTableRecord
100
AcDbTextStyleTableRecord
  2
Standard
 70
     0
 40
0.0
 41
1.0
 50
0.0
 71
     0
 42
0.2
  3
txt
  4

  0
ENDTAB
  0
TABLE
  2
VIEW
  5
6
330
0
100
AcDbSymbolTable
 70
     0
  0
ENDTAB
  0
TABLE
  2
UCS
  5
7
330
0
100
AcDbSymbolTable
 70
     0
  0
ENDTAB
  0
TABLE
  2
APPID
  5
9
330
0
100
AcDbSymbolTable
 70
     1
  0
APPID
  5
12
330
9
100
AcDbSymbolTableRecord
100
AcDbRegAppTableRecord
  2
ACAD
 70
     0
  0
ENDTAB
  0
TABLE
  2
DIMSTYLE
  5
A
330
0
100
AcDbSymbolTable
 70
     1
100
AcDbDimStyleTable
  0
DIMSTYLE
105
27
330
A
100
AcDbSymbolTableRecord
100
AcDbDimStyleTableRecord
  2
Standard
 70
     0
178
     0
340
11
  0
ENDTAB
  0
TABLE
  2
BLOCK_RECORD
  5
1
330
0
100
AcDbSymbolTable
 70
    14
  0
BLOCK_RECORD
  5
1F
330
1
100
AcDbSymbolTableRecord
100
AcDbBlockTableRecord
  2
*Model_Space
340
22
 70
     0
280
     1
281
     0
  0
BLOCK_RECORD
  5
1B
330
1
100
AcDbSymbolTableRecord
100
AcDbBlockTableRecord
  2
*Paper_Space
340
1E
 70
     0
280
     1
281
     0
  0
BLOCK_RECORD
  5
23
330
1
100
AcDbSymbolTableRecord
100
AcDbBlockTableRecord
  2
*Paper_Space0
340
26
 70
     0
280
     1
281
     0
  0
BLOCK_RECORD
  5
4F
330
1
100
AcDbSymbolTableRecord
100
AcDbBlockTableRecord
  2
block 2
340
0
102
{BLKREFS
331
50
102
}
 70
     0
280
     1
281
     0
  0
BLOCK_RECORD
  5
9F
330
1
100
AcDbSymbolTableRecord
100
AcDbBlockTableRecord
  2
block 3
340
0
102
{BLKREFS
331
A0
102
}
 70
     0
280
     1
281
     0
  0
BLOCK_RECORD
  5
A6
330
1
100
AcDbSymbolTableRecord
100
AcDbBlockTableRecord
  2
block 4
340
0
102
{BLKREFS
331
A7
102
}
 70
     0
280
     1
281
     0
  0
BLOCK_RECORD
  5
AD
330
1
100
AcDbSymbolTableRecord
100
AcDbBlockTableRecord
  2
block 5
340
0
102
{BLKREFS
331
AE
102
}
 70
     0
280
     1
281
     0
  0
BLOCK_RECORD
  5
B4
330
1
100
AcDbSymbolTableRecord
100
AcDbBlockTableRecord
  2
block 6
340
0
102
{BLKREFS
331
B5
102
}
 70
     0
280
     1
281
     0
  0
BLOCK_RECORD
  5
BB
330
1
100
AcDbSymbolTableRecord
100
AcDbBlockTableRecord
  2
block 7
340
0
102
{BLKREFS
331
BC
102
}
 70
     0
280
     1
281
     0
  0
BLOCK_RECORD
  5
C2
330
1
100
AcDbSymbolTableRecord
100
AcDbBlockTableRecord
  2
block 8
340
0
102
{BLKREFS
331
C3
102
}
 70
     0
280
     1
281
     0
  0
BLOCK_RECORD
  5
C9
330
1
100
AcDbSymbolTableRecord
100
AcDbBlockTableRecord
  2
block 9
340
0
102
{BLKREFS
331
CA
102
}
 70
     0
280
     1
281
     0
  0
BLOCK_RECORD
  5
D0
330
1
100
AcDbSymbolTableRecord
100
AcDbBlockTableRecord
  2
block 10
340
0
102
{BLKREFS
331
D1
102
}
 70
     0
280
     1
281
     0
  0
BLOCK_RECORD
  5
10C
330
1
100
AcDbSymbolTableRecord
100
AcDbBlockTableRecord
  2
block 11
340
0
102
{BLKREFS
331
10D
102
}
 70
     0
280
     1
281
     0
  0
BLOCK_RECORD
  5
127
330
1
100
AcDbSymbolTableRecord
100
AcDbBlockTableRecord
  2
block 12
340
0
102
{BLKREFS
331
128
102
}
 70
     0
280
     1
281
     0
  0
BLOCK_RECORD
  5
130
330
1
100
AcDbSymbolTableRecord
100
AcDbBlockTableRecord
  2
block 13
340
0
102
{BLKREFS
331
131
102
}
 70
     0
280
     1
281
     0
  0
BLOCK_RECORD
  5
138
330
1
100
AcDbSymbolTableRecord
100
AcDbBlockTableRecord
  2
block 14
340
0
102
{BLKREFS
331
139
102
}
 70
     0
280
     1
281
     0
  0
ENDTAB
  0
ENDSEC
  0
SECTION
  2
BLOCKS
  0
BLOCK
  5
20
330
1F
100
AcDbEntity
  8
0
100
AcDbBlockBegin
  2
*Model_Space
 70
     0
 10
0.0
 20
0.0
 30
0.0
  3
*Model_Space
  1

  0
ENDBLK
  5
21
330
1F
100
AcDbEntity
  8
0
100
AcDbBlockEnd
  0
BLOCK
  5
1C
330
1B
100
AcDbEntity
 67
     1
  8
0
100
AcDbBlockBegin
  2
*Paper_Space
 70
     0
 10
0.0
 20
0.0
 30
0.0
  3
*Paper_Space
  1

  0
ENDBLK
  5
1D
330
1B
100
AcDbEntity
 67
     1
  8
0
100
AcDbBlockEnd
  0
BLOCK
  5
24
330
23
100
AcDbEntity
  8
0
100
AcDbBlockBegin
  2
*Paper_Space0
 70
     0
 10
0.0
 20
0.0
 30
0.0
  3
*Paper_Space0
  1

  0
ENDBLK
  5
25
330
23
100
AcDbEntity
  8
0
100
AcDbBlockEnd
  0
BLOCK
  5
51
330
4F
100
AcDbEntity
  8
0
100
AcDbBlockBegin
  2
block 2
 70
     0
 10
0.0
 20
0.0
 30
0.0
  3
block 2
  1

  0
POLYLINE
  5
53
330
4F
100
AcDbEntity
  8
_U+30EC_U+30A4_U+30E4_U+30FC 1
 62
     7
420
 16711422
370
     9
100
AcDb2dPolyline
 66
     1
 10
0.0
 20
0.0
 30
0.0
  0
VERTEX
  5
54
330
53
100
AcDbEntity
  8
_U+30EC_U+30A4_U+30E4_U+30FC 1
 62
     7
420
 16711422
370
     9
100
AcDbVertex
100
AcDb2dVertex
 10
84.66581783999503
 20
-119.9642705255645
 30
0.0
  0
VERTEX
  5
55
330
53
100
AcDbEntity
  8
_U+30EC_U+30A4_U+30E4_U+30FC 1
 62
     7
420
 16711422
370
     9
100
AcDbVertex
100
AcDb2dVertex
 10
84.60690395260916
 20
-129.6068866342651
 30
0.0
  0
VERTEX
  5
56
330
53
100
AcDbEntity
  8
_U+30EC_U+30A4_U+30E4_U+30FC 1
 62
     7
420
 16711422
370
     9
100
AcDbVertex
100
AcDb2dVertex
 10
84.90112061176974
 20
-129.8418719119843
 30
0.0
  0
VERTEX
  5
57
330
53
100
AcDbEntity
  8
_U+30EC_U+30A4_U+30E4_U+30FC 1
 62
     7
420
 16711422
370
     9
100
AcDbVertex
100
AcDb2dVertex
 10
95.19006062705479
 20
-123.8448260801499
 30
0.0
  0
VERTEX
  5
58
330
53
100
AcDbEntity
  8
_U+30EC_U+30A4_U+30E4_U+30FC 1
 62
     7
420
 16711422
370
     9
100
AcDbVertex
100
AcDb2dVertex
 10
95.19006062705479
 20
-122.7864927470812
 30
0.0
  0
VERTEX
  5
59
330
53
100
AcDbEntity
  8
_U+30EC_U+30A4_U+30E4_U+30FC 1
 62
     7
420
 16711422
370
     9
100
AcDbVertex
100
AcDb2dVertex
 10
103.8331159621076
 20
-117.7304463594564
 30
0.0
  0
VERTEX
  5
5A
330
53
100
AcDbEntity
  8
_U+30EC_U+30A4_U+30E4_U+30FC 1
 62
     7
420
 16711422
370
     9
100
AcDbVertex
100
AcDb2dVertex
 10
104.0095048464965
 20
-117.7304463594564
 30
0.0
  0
VERTEX
  5
5B
330
53
100
AcDbEntity
  8
_U+30EC_U+30A4_U+30E4_U+30FC 1
 62
     7
420
 16711422
370
     9
100
AcDbVertex
100
AcDb2dVertex
 10
104.0095048464965
 20
-119.1415574702147
 30
0.0
  0
VERTEX
  5
5C
330
53
100
AcDbEntity
  8
_U+30EC_U+30A4_U+30E4_U+30FC 1
 62
     7
420
 16711422
370
     9
100
AcDbVertex
100
AcDb2dVertex
 10
116.2395721931622
 20
-126.2554977462141
 30
0.0
  0
VERTEX
  5
5D
330
53
100
AcDbEntity
  8
_U+30EC_U+30A4_U+30E4_U+30FC 1
 62
     7
420
 16711422
370
     9
100
AcDbVertex
100
AcDb2dVertex
 10
116.7687388596966
 20
-126.0791088573693
 30
0.0
  0
VERTEX
  5
5E
330
53
100
AcDbEntity
  8
_U+30EC_U+30A4_U+30E4_U+30FC 1
 62
     7
420
 16711422
370
     9
100
AcDbVertex
100
AcDb2dVertex
 10
116.7095045224925
 20
-116.7306741374839
 30
0.0
  0
VERTEX
  5
5F
330
53
100
AcDbEntity
  8
_U+30EC_U+30A4_U+30E4_U+30FC 1
 62
     7
420
 16711422
370
     9
100
AcDbVertex
100
AcDb2dVertex
 10
104.303721505657
 20
-109.1457755282693
 30
0.0
  0
VERTEX
  5
60
330
53
100
AcDbEntity
  8
_U+30EC_U+30A4_U+30E4_U+30FC 1
 62
     7
420
 16711422
370
     9
100
AcDbVertex
100
AcDb2dVertex
 10
104.0687388628716
 20
-109.4396746948624
 30
0.0
  0
VERTEX
  5
61
330
53
100
AcDbEntity
  8
_U+30EC_U+30A4_U+30E4_U+30FC 1
 62
     7
420
 16711422
370
     9
100
AcDbVertex
100
AcDb2dVertex
 10
104.0687388628716
 20
-110.263022750212
 30
0.0
  0
VERTEX
  5
62
330
53
100
AcDbEntity
  8
_U+30EC_U+30A4_U+30E4_U+30FC 1
 62
     7
420
 16711422
370
     9
100
AcDbVertex
100
AcDb2dVertex
 10
103.1275604245523
 20
-110.5568866390276
 30
0.0
  0
VERTEX
  5
63
330
53
100
AcDbEntity
  8
_U+30EC_U+30A4_U+30E4_U+30FC 1
 62
     7
420
 16711422
370
     9
100
AcDbVertex
100
AcDb2dVertex
 10
95.24929442063198
 20
-114.9080477490509
 30
0.0
  0
VERTEX
  5
64
330
53
100
AcDbEntity
  8
_U+30EC_U+30A4_U+30E4_U+30FC 1
 62
     7
420
 16711422
370
     9
100
AcDbVertex
100
AcDb2dVertex
 10
95.19006062705479
 20
-114.3788810825165
 30
0.0
  0
VERTEX
  5
65
330
53
100
AcDbEntity
  8
_U+30EC_U+30A4_U+30E4_U+30FC 1
 62
     7
420
 16711422
370
     9
100
AcDbVertex
100
AcDb2dVertex
 10
94.77872174866003
 20
-114.1435783047974
 30
0.0
  0
VERTEX
  5
66
330
53
100
AcDbEntity
  8
_U+30EC_U+30A4_U+30E4_U+30FC 1
 62
     7
420
 16711422
370
     9
100
AcDbVertex
100
AcDb2dVertex
 10
84.66581783999503
 20
-119.9642705255645
 30
0.0
  0
SEQEND
  5
67
330
53
100
AcDbEntity
  8
_U+30EC_U+30A4_U+30E4_U+30FC 1
 62
     7
420
 16711422
370
     9
  0
POLYLINE
  5
68
330
4F
100
AcDbEntity
  8
_U+30EC_U+30A4_U+30E4_U+30FC 1
 62
   179
420
  2234388
370
     9
100
AcDb2dPolyline
 66
     1
 10
0.0
 20
0.0
 30
0.0
  0
VERTEX
  5
69
330
68
100
AcDbEntity
  8
_U+30EC_U+30A4_U+30E4_U+30FC 1
 62
   179
420
  2234388
370
     9
100
AcDbVertex
100
AcDb2dVertex
 10
104.0074234576607
 20
-109.5164744170655
 30
0.0
  0
VERTEX
  5
6A
330
68
100
AcDbEntity
  8
_U+30EC_U+30A4_U+30E4_U+30FC 1
 62
   179
420
  2234388
370
     9
100
AcDbVertex
100
AcDb2dVertex
 10
104.0074234576607
 20
-110.5913530279076
 30
0.0
  0
VERTEX
  5
6B
330
68
100
AcDbEntity
  8
_U+30EC_U+30A4_U+30E4_U+30FC 1
 62
   179
420
  2234388
370
     9
100
AcDbVertex
100
AcDb2dVertex
 10
103.7387126311827
 20
-110.8600638611738
 30
0.0
  0
VERTEX
  5
6C
330
68
100
AcDbEntity
  8
_U+30EC_U+30A4_U+30E4_U+30FC 1
 62
   179
420
  2234388
370
     9
100
AcDbVertex
100
AcDb2dVertex
 10
103.7835154078175
 20
-117.7573280261162
 30
0.0
  0
VERTEX
  5
6D
330
68
100
AcDbEntity
  8
_U+30EC_U+30A4_U+30E4_U+30FC 1
 62
   179
420
  2234388
370
     9
100
AcDbVertex
100
AcDb2dVertex
 10
103.9626559588028
 20
-117.7573280261162
 30
0.0
  0
VERTEX
  5
6E
330
68
100
AcDbEntity
  8
_U+30EC_U+30A4_U+30E4_U+30FC 1
 62
   179
420
  2234388
370
     9
100
AcDbVertex
100
AcDb2dVertex
 10
103.9626559588028
 20
-119.1009174702248
 30
0.0
  0
VERTEX
  5
6F
330
68
100
AcDbEntity
  8
_U+30EC_U+30A4_U+30E4_U+30FC 1
 62
   179
420
  2234388
370
     9
100
AcDbVertex
100
AcDb2dVertex
 10
116.2347714790484
 20
-126.3568155239664
 30
0.0
  0
VERTEX
  5
70
330
68
100
AcDbEntity
  8
_U+30EC_U+30A4_U+30E4_U+30FC 1
 62
   179
420
  2234388
370
     9
100
AcDbVertex
100
AcDb2dVertex
 10
116.7274256331464
 20
-126.1776396906777
 30
0.0
  0
VERTEX
  5
71
330
68
100
AcDbEntity
  8
_U+30EC_U+30A4_U+30E4_U+30FC 1
 62
   179
420
  2234388
370
     9
100
AcDbVertex
100
AcDb2dVertex
 10
116.7274256331464
 20
-116.6824494152737
 30
0.0
  0
VERTEX
  5
72
330
68
100
AcDbEntity
  8
_U+30EC_U+30A4_U+30E4_U+30FC 1
 62
   179
420
  2234388
370
     9
100
AcDbVertex
100
AcDb2dVertex
 10
104.3209370607734
 20
-109.2477635837993
 30
0.0
  0
VERTEX
  5
73
330
68
100
AcDbEntity
  8
_U+30EC_U+30A4_U+30E4_U+30FC 1
 62
   179
420
  2234388
370
     9
100
AcDbVertex
100
AcDb2dVertex
 10
104.0074234576607
 20
-109.5164744170655
 30
0.0
  0
SEQEND
  5
74
330
68
100
AcDbEntity
  8
_U+30EC_U+30A4_U+30E4_U+30FC 1
 62
   179
420
  2234388
370
     9
  0
POLYLINE
  5
75
330
4F
100
AcDbEntity
  8
_U+30EC_U+30A4_U+30E4_U+30FC 1
 62
   179
420
  2234388
370
     9
100
AcDb2dPolyline
 66
     1
 10
0.0
 20
0.0
 30
0.0
  0
VERTEX
  5
76
330
75
100
AcDbEntity
  8
_U+30EC_U+30A4_U+30E4_U+30FC 1
 62
   179
420
  2234388
370
     9
100
AcDbVertex
100
AcDb2dVertex
 10
104.0074234576607
 20
-109.5612771948319
 30
0.0
  0
VERTEX
  5
77
330
75
100
AcDbEntity
  8
_U+30EC_U+30A4_U+30E4_U+30FC 1
 62
   179
420
  2234388
370
     9
100
AcDbVertex
100
AcDb2dVertex
 10
116.3691092533989
 20
-116.9063927485513
 30
0.0
  0
VERTEX
  5
78
330
75
100
AcDbEntity
  8
_U+30EC_U+30A4_U+30E4_U+30FC 1
 62
   179
420
  2234388
370
     9
100
AcDbVertex
100
AcDb2dVertex
 10
116.3691092533989
 20
-126.3568155239664
 30
0.0
  0
SEQEND
  5
79
330
75
100
AcDbEntity
  8
_U+30EC_U+30A4_U+30E4_U+30FC 1
 62
   179
420
  2234388
370
     9
  0
SPLINE
  5
7A
330
4F
100
AcDbEntity
  8
_U+30EC_U+30A4_U+30E4_U+30FC 1
 62
   179
420
  2234388
370
     9
100
AcDbSpline
210
0.0
220
0.0
230
1.0
 70
     8
 71
     3
 72
    35
 73
    31
 74
     0
 42
0.0000000001
 43
0.0000000001
 12
1.0
 22
0.0
 32
0.0
 13
1.0
 23
0.0
 33
0.0
 40
0.0
 40
0.0
 40
0.0
 40
0.0
 40
1.0
 40
1.0
 40
1.0
 40
2.0
 40
2.0
 40
2.0
 40
3.0
 40
3.0
 40
3.0
 40
4.0
 40
4.0
 40
4.0
 40
5.0
 40
5.0
 40
5.0
 40
6.0
 40
6.0
 40
6.0
 40
7.0
 40
7.0
 40
7.0
 40
8.0
 40
8.0
 40
8.0
 40
9.0
 40
9.0
 40
9.0
 40
10.0
 40
10.0
 40
10.0
 40
10.0
 10
103.9626559588028
 20
-110.4125652501745
 30
0.0
 10
103.9626559588028
 20
-110.4125652501745
 30
0.0
 10
104.0969937331533
 20
-110.1886219168972
 30
0.0
 10
103.3804315292121
 20
-110.5021355279301
 30
0.0
 10
103.3804315292121
 20
-110.5021355279301
 30
0.0
 10
95.18385173832431
 20
-115.0703255267881
 30
0.0
 10
95.18385173832431
 20
-115.0703255267881
 30
0.0
 10
95.18385173832431
 20
-115.0703255267881
 30
0.0
 10
95.18385173832431
 20
-114.3985308047338
 30
0.0
 10
95.18385173832431
 20
-114.3985308047338
 30
0.0
 10
95.18385173832431
 20
-114.3985308047338
 30
0.0
 10
94.78076785971894
 20
-114.1745874714565
 30
0.0
 10
94.78076785971894
 20
-114.1745874714565
 30
0.0
 10
94.78076785971894
 20
-114.1745874714565
 30
0.0
 10
84.6141358968691
 20
-120.0421285811005
 30
0.0
 10
84.6141358968691
 20
-120.0421285811005
 30
0.0
 10
84.6141358968691
 20
-120.0421285811005
 30
0.0
 10
84.6141358968691
 20
-129.671656634249
 30
0.0
 10
84.6141358968691
 20
-129.671656634249
 30
0.0
 10
84.6141358968691
 20
-129.671656634249
 30
0.0
 10
84.83804394671229
 20
-129.8508324675371
 30
0.0
 10
84.83804394671229
 20
-129.8508324675371
 30
0.0
 10
84.83804394671229
 20
-129.8508324675371
 30
0.0
 10
95.13904896168954
 20
-123.8937210801378
 30
0.0
 10
95.13904896168954
 20
-123.8937210801378
 30
0.0
 10
95.13904896168954
 20
-123.8937210801378
 30
0.0
 10
95.18385173832431
 20
-122.7740749693064
 30
0.0
 10
95.18385173832431
 20
-122.7740749693064
 30
0.0
 10
95.18385173832431
 20
-122.7740749693064
 30
0.0
 10
103.7835154078175
 20
-117.7573280261162
 30
0.0
 10
103.7835154078175
 20
-117.7573280261162
 30
0.0
  0
POLYLINE
  5
7B
330
4F
100
AcDbEntity
  8
_U+30EC_U+30A4_U+30E4_U+30FC 1
 62
   179
420
  2234388
370
     9
100
AcDb2dPolyline
 66
     1
 10
0.0
 20
0.0
 30
0.0
  0
VERTEX
  5
7C
330
7B
100
AcDbEntity
  8
_U+30EC_U+30A4_U+30E4_U+30FC 1
 62
   179
420
  2234388
370
     9
100
AcDbVertex
100
AcDb2dVertex
 10
84.93795275654338
 20
-129.7164594120151
 30
0.0
  0
VERTEX
  5
7D
330
7B
100
AcDbEntity
  8
_U+30EC_U+30A4_U+30E4_U+30FC 1
 62
   179
420
  2234388
370
     9
100
AcDbVertex
100
AcDb2dVertex
 10
84.92761422220494
 20
-120.3556069143556
 30
0.0
  0
VERTEX
  5
7E
330
7B
100
AcDbEntity
  8
_U+30EC_U+30A4_U+30E4_U+30FC 1
 62
   179
420
  2234388
370
     9
100
AcDbVertex
100
AcDb2dVertex
 10
95.18385173832431
 20
-114.3985308047338
 30
0.0
  0
SEQEND
  5
7F
330
7B
100
AcDbEntity
  8
_U+30EC_U+30A4_U+30E4_U+30FC 1
 62
   179
420
  2234388
370
     9
  0
SPLINE
  5
80
330
4F
100
AcDbEntity
  8
_U+30EC_U+30A4_U+30E4_U+30FC 1
 62
   179
420
  2234388
370
     9
100
AcDbSpline
210
0.0
220
0.0
230
1.0
 70
     8
 71
     3
 72
    14
 73
    10
 74
     0
 42
0.0000000001
 43
0.0000000001
 12
1.0
 22
0.0
 32
0.0
 13
1.0
 23
0.0
 33
0.0
 40
0.0
 40
0.0
 40
0.0
 40
0.0
 40
1.0
 40
1.0
 40
1.0
 40
2.0
 40
2.0
 40
2.0
 40
3.0
 40
3.0
 40
3.0
 40
3.0
 10
103.8730856833101
 20
-110.7708463611963
 30
0.0
 10
103.8730856833101
 20
-110.7708463611963
 30
0.0
 10
103.6043395790553
 20
-110.7257260834296
 30
0.0
 10
103.2012909782268
 20
-110.9499869167068
 30
0.0
 10
103.2012909782268
 20
-110.9499869167068
 30
0.0
 10
95.22865451495906
 20
-115.5629796933315
 30
0.0
 10
95.22865451495906
 20
-115.5629796933315
 30
0.0
 10
95.22865451495906
 20
-115.5629796933315
 30
0.0
 10
95.22865451495906
 20
-115.1047919156681
 30
0.0
 10
95.22865451495906
 20
-115.1047919156681
 30
0.0
  0
SPLINE
  5
81
330
4F
100
AcDbEntity
  8
_U+30EC_U+30A4_U+30E4_U+30FC 1
 62
   179
420
  2234388
370
     9
100
AcDbSpline
210
0.0
220
0.0
230
1.0
 70
    11
 71
     3
 72
    23
 73
    19
 74
     0
 42
0.0000000001
 43
0.0000000001
 12
1.0
 22
0.0
 32
0.0
 13
1.0
 23
0.0
 33
0.0
 40
0.0
 40
0.0
 40
0.0
 40
0.0
 40
1.0
 40
1.0
 40
1.0
 40
2.0
 40
2.0
 40
2.0
 40
3.0
 40
3.0
 40
3.0
 40
4.0
 40
4.0
 40
4.0
 40
5.0
 40
5.0
 40
5.0
 40
6.0
 40
6.0
 40
6.0
 40
6.0
 10
86.22643613351367
 20
-123.9385238579042
 30
0.0
 10
86.22643613351367
 20
-123.9385238579042
 30
0.0
 10
102.171179893396
 20
-114.7568119157552
 30
0.0
 10
102.171179893396
 20
-114.7568119157552
 30
0.0
 10
102.171179893396
 20
-114.7568119157552
 30
0.0
 10
102.3951232210161
 20
-114.5329038602558
 30
0.0
 10
102.4846934965088
 20
-114.8911849712772
 30
0.0
 10
102.4846934965088
 20
-114.8911849712772
 30
0.0
 10
102.574969327539
 20
-115.1150930267766
 30
0.0
 10
102.171179893396
 20
-115.3390363600543
 30
0.0
 10
102.171179893396
 20
-115.3390363600543
 30
0.0
 10
86.27120363237157
 20
-124.5653394133032
 30
0.0
 10
86.27120363237157
 20
-124.5653394133032
 30
0.0
 10
86.27120363237157
 20
-124.5653394133032
 30
0.0
 10
85.86815503154308
 20
-124.6549096910585
 30
0.0
 10
85.86815503154308
 20
-124.431001635559
 30
0.0
 10
85.86815503154308
 20
-124.431001635559
 30
0.0
 10
85.77858475605044
 20
-124.1624319134039
 30
0.0
 10
86.22643613351367
 20
-123.9385238579042
 30
0.0
  0
POLYLINE
  5
82
330
4F
100
AcDbEntity
  8
_U+30EC_U+30A4_U+30E4_U+30FC 1
 62
   179
420
  2234388
370
     9
100
AcDb2dPolyline
 66
     1
 10
0.0
 20
0.0
 30
0.0
  0
VERTEX
  5
83
330
82
100
AcDbEntity
  8
_U+30EC_U+30A4_U+30E4_U+30FC 1
 62
   179
420
  2234388
370
     9
100
AcDbVertex
100
AcDb2dVertex
 10
95.4532681203398
 20
-115.4734094155762
 30
0.0
  0
VERTEX
  5
84
330
82
100
AcDbEntity
  8
_U+30EC_U+30A4_U+30E4_U+30FC 1
 62
   179
420
  2234388
370
     9
100
AcDbVertex
100
AcDb2dVertex
 10
95.4532681203398
 20
-118.5193633037035
 30
0.0
  0
SEQEND
  5
85
330
82
100
AcDbEntity
  8
_U+30EC_U+30A4_U+30E4_U+30FC 1
 62
   179
420
  2234388
370
     9
  0
POLYLINE
  5
86
330
4F
100
AcDbEntity
  8
_U+30EC_U+30A4_U+30E4_U+30FC 1
 62
   179
420
  2234388
370
     9
100
AcDb2dPolyline
 66
     1
 10
0.0
 20
0.0
 30
0.0
  0
VERTEX
  5
87
330
86
100
AcDbEntity
  8
_U+30EC_U+30A4_U+30E4_U+30FC 1
 62
   179
420
  2234388
370
     9
100
AcDbVertex
100
AcDb2dVertex
 10
98.09634971957584
 20
-113.9954469159456
 30
0.0
  0
VERTEX
  5
88
330
86
100
AcDbEntity
  8
_U+30EC_U+30A4_U+30E4_U+30FC 1
 62
   179
420
  2234388
370
     9
100
AcDbVertex
100
AcDb2dVertex
 10
98.09634971957584
 20
-117.0855333040619
 30
0.0
  0
SEQEND
  5
89
330
86
100
AcDbEntity
  8
_U+30EC_U+30A4_U+30E4_U+30FC 1
 62
   179
420
  2234388
370
     9
  0
POLYLINE
  5
8A
330
4F
100
AcDbEntity
  8
_U+30EC_U+30A4_U+30E4_U+30FC 1
 62
   179
420
  2234388
370
     9
100
AcDb2dPolyline
 66
     1
 10
0.0
 20
0.0
 30
0.0
  0
VERTEX
  5
8B
330
8A
100
AcDbEntity
  8
_U+30EC_U+30A4_U+30E4_U+30FC 1
 62
   179
420
  2234388
370
     9
100
AcDbVertex
100
AcDb2dVertex
 10
100.380447197127
 20
-112.6518574718369
 30
0.0
  0
VERTEX
  5
8C
330
8A
100
AcDbEntity
  8
_U+30EC_U+30A4_U+30E4_U+30FC 1
 62
   179
420
  2234388
370
     9
100
AcDbVertex
100
AcDb2dVertex
 10
100.380447197127
 20
-115.6971410821868
 30
0.0
  0
SEQEND
  5
8D
330
8A
100
AcDbEntity
  8
_U+30EC_U+30A4_U+30E4_U+30FC 1
 62
   179
420
  2234388
370
     9
  0
POLYLINE
  5
8E
330
4F
100
AcDbEntity
  8
_U+30EC_U+30A4_U+30E4_U+30FC 1
 62
   179
420
  2234388
370
     9
100
AcDb2dPolyline
 66
     1
 10
0.0
 20
0.0
 30
0.0
  0
VERTEX
  5
8F
330
8E
100
AcDbEntity
  8
_U+30EC_U+30A4_U+30E4_U+30FC 1
 62
   179
420
  2234388
370
     9
100
AcDbVertex
100
AcDb2dVertex
 10
100.7834932621322
 20
-116.234598026497
 30
0.0
  0
VERTEX
  5
90
330
8E
100
AcDbEntity
  8
_U+30EC_U+30A4_U+30E4_U+30FC 1
 62
   179
420
  2234388
370
     9
100
AcDbVertex
100
AcDb2dVertex
 10
100.7834932621322
 20
-119.4151013590351
 30
0.0
  0
SEQEND
  5
91
330
8E
100
AcDbEntity
  8
_U+30EC_U+30A4_U+30E4_U+30FC 1
 62
   179
420
  2234388
370
     9
  0
POLYLINE
  5
92
330
4F
100
AcDbEntity
  8
_U+30EC_U+30A4_U+30E4_U+30FC 1
 62
   179
420
  2234388
370
     9
100
AcDb2dPolyline
 66
     1
 10
0.0
 20
0.0
 30
0.0
  0
VERTEX
  5
93
330
92
100
AcDbEntity
  8
_U+30EC_U+30A4_U+30E4_U+30FC 1
 62
   179
420
  2234388
370
     9
100
AcDbVertex
100
AcDb2dVertex
 10
99.88779050720572
 20
-116.6376819152851
 30
0.0
  0
VERTEX
  5
94
330
92
100
AcDbEntity
  8
_U+30EC_U+30A4_U+30E4_U+30FC 1
 62
   179
420
  2234388
370
     9
100
AcDbVertex
100
AcDb2dVertex
 10
99.88779050720572
 20
-119.9525230255674
 30
0.0
  0
SEQEND
  5
95
330
92
100
AcDbEntity
  8
_U+30EC_U+30A4_U+30E4_U+30FC 1
 62
   179
420
  2234388
370
     9
  0
POLYLINE
  5
96
330
4F
100
AcDbEntity
  8
_U+30EC_U+30A4_U+30E4_U+30FC 1
 62
   179
420
  2234388
370
     9
100
AcDb2dPolyline
 66
     1
 10
0.0
 20
0.0
 30
0.0
  0
VERTEX
  5
97
330
96
100
AcDbEntity
  8
_U+30EC_U+30A4_U+30E4_U+30FC 1
 62
   179
420
  2234388
370
     9
100
AcDbVertex
100
AcDb2dVertex
 10
99.52950940523512
 20
-116.9063927485513
 30
0.0
  0
VERTEX
  5
98
330
96
100
AcDbEntity
  8
_U+30EC_U+30A4_U+30E4_U+30FC 1
 62
   179
420
  2234388
370
     9
100
AcDbVertex
100
AcDb2dVertex
 10
99.574276904093
 20
-120.1316988588561
 30
0.0
  0
SEQEND
  5
99
330
96
100
AcDbEntity
  8
_U+30EC_U+30A4_U+30E4_U+30FC 1
 62
   179
420
  2234388
370
     9
  0
POLYLINE
  5
9A
330
4F
100
AcDbEntity
  8
_U+30EC_U+30A4_U+30E4_U+30FC 1
 62
   179
420
  2234388
370
     9
100
AcDb2dPolyline
 66
     1
 10
0.0
 20
0.0
 30
0.0
  0
VERTEX
  5
9B
330
9A
100
AcDbEntity
  8
_U+30EC_U+30A4_U+30E4_U+30FC 1
 62
   179
420
  2234388
370
     9
100
AcDbVertex
100
AcDb2dVertex
 10
97.91717389081367
 20
-117.9364685816271
 30
0.0
  0
VERTEX
  5
9C
330
9A
100
AcDbEntity
  8
_U+30EC_U+30A4_U+30E4_U+30FC 1
 62
   179
420
  2234388
370
     9
100
AcDbVertex
100
AcDb2dVertex
 10
97.91717389081367
 20
-121.1169719141652
 30
0.0
  0
SEQEND
  5
9D
330
9A
100
AcDbEntity
  8
_U+30EC_U+30A4_U+30E4_U+30FC 1
 62
   179
420
  2234388
370
     9
  0
SPLINE
  5
9E
330
4F
100
AcDbEntity
  8
_U+30EC_U+30A4_U+30E4_U+30FC 1
 62
   179
420
  2234388
370
     9
100
AcDbSpline
210
0.0
220
0.0
230
1.0
 70
    11
 71
     3
 72
    23
 73
    19
 74
     0
 42
0.0000000001
 43
0.0000000001
 12
1.0
 22
0.0
 32
0.0
 13
1.0
 23
0.0
 33
0.0
 40
0.0
 40
0.0
 40
0.0
 40
0.0
 40
1.0
 40
1.0
 40
1.0
 40
2.0
 40
2.0
 40
2.0
 40
3.0
 40
3.0
 40
3.0
 40
4.0
 40
4.0
 40
4.0
 40
5.0
 40
5.0
 40
5.0
 40
6.0
 40
6.0
 40
6.0
 40
6.0
 10
105.4412886988575
 20
-114.8463821935108
 30
0.0
 10
105.4412886988575
 20
-114.8463821935108
 30
0.0
 10
115.2053659497551
 20
-120.6243177476217
 30
0.0
 10
115.2053659497551
 20
-120.6243177476217
 30
0.0
 10
115.2053659497551
 20
-120.6243177476217
 30
0.0
 10
115.6084527488759
 20
-120.982634136421
 30
0.0
 10
115.3845065007404
 20
-121.1617746919319
 30
0.0
 10
115.3845065007404
 20
-121.1617746919319
 30
0.0
 10
114.9814226221351
 20
-121.2065421919205
 30
0.0
 10
114.7127117956571
 20
-120.982634136421
 30
0.0
 10
114.7127117956571
 20
-120.982634136421
 30
0.0
 10
105.3517184233649
 20
-115.4734094155762
 30
0.0
 10
105.3517184233649
 20
-115.4734094155762
 30
0.0
 10
105.3517184233649
 20
-115.4734094155762
 30
0.0
 10
105.0382048202521
 20
-115.1150930267766
 30
0.0
 10
105.1277777514958
 20
-114.8016146935219
 30
0.0
 10
105.1277777514958
 20
-114.8016146935219
 30
0.0
 10
105.1725805292626
 20
-114.7568119157552
 30
0.0
 10
105.4412886988575
 20
-114.8463821935108
 30
0.0
  0
INSERT
  5
A0
330
4F
100
AcDbEntity
  8
_U+30EC_U+30A4_U+30E4_U+30FC 1
100
AcDbBlockReference
  2
block 3
 10
0.0
 20
0.0
 30
0.0
  0
INSERT
  5
A7
330
4F
100
AcDbEntity
  8
_U+30EC_U+30A4_U+30E4_U+30FC 1
100
AcDbBlockReference
  2
block 4
 10
0.0
 20
0.0
 30
0.0
  0
INSERT
  5
AE
330
4F
100
AcDbEntity
  8
_U+30EC_U+30A4_U+30E4_U+30FC 1
100
AcDbBlockReference
  2
block 5
 10
0.0
 20
0.0
 30
0.0
  0
INSERT
  5
B5
330
4F
100
AcDbEntity
  8
_U+30EC_U+30A4_U+30E4_U+30FC 1
100
AcDbBlockReference
  2
block 6
 10
0.0
 20
0.0
 30
0.0
  0
INSERT
  5
BC
330
4F
100
AcDbEntity
  8
_U+30EC_U+30A4_U+30E4_U+30FC 1
100
AcDbBlockReference
  2
block 7
 10
0.0
 20
0.0
 30
0.0
  0
INSERT
  5
C3
330
4F
100
AcDbEntity
  8
_U+30EC_U+30A4_U+30E4_U+30FC 1
100
AcDbBlockReference
  2
block 8
 10
0.0
 20
0.0
 30
0.0
  0
INSERT
  5
CA
330
4F
100
AcDbEntity
  8
_U+30EC_U+30A4_U+30E4_U+30FC 1
100
AcDbBlockReference
  2
block 9
 10
0.0
 20
0.0
 30
0.0
  0
INSERT
  5
D1
330
4F
100
AcDbEntity
  8
_U+30EC_U+30A4_U+30E4_U+30FC 1
100
AcDbBlockReference
  2
block 10
 10
0.0
 20
0.0
 30
0.0
  0
POLYLINE
  5
D7
330
4F
100
AcDbEntity
  8
_U+30EC_U+30A4_U+30E4_U+30FC 1
 62
   179
420
  2234388
370
     9
100
AcDb2dPolyline
 66
     1
 10
0.0
 20
0.0
 30
0.0
  0
VERTEX
  5
D8
330
D7
100
AcDbEntity
  8
_U+30EC_U+30A4_U+30E4_U+30FC 1
 62
   179
420
  2234388
370
     9
100
AcDbVertex
100
AcDb2dVertex
 10
84.50699728849133
 20
-114.5377016380324
 30
0.0
  0
VERTEX
  5
D9
330
D7
100
AcDbEntity
  8
_U+30EC_U+30A4_U+30E4_U+30FC 1
 62
   179
420
  2234388
370
     9
100
AcDbVertex
100
AcDb2dVertex
 10
84.50699728849133
 20
-117.8889141371946
 30
0.0
  0
SEQEND
  5
DA
330
D7
100
AcDbEntity
  8
_U+30EC_U+30A4_U+30E4_U+30FC 1
 62
   179
420
  2234388
370
     9
  0
POLYLINE
  5
DB
330
4F
100
AcDbEntity
  8
_U+30EC_U+30A4_U+30E4_U+30FC 1
 62
   179
420
  2234388
370
     9
100
AcDb2dPolyline
 66
     1
 10
0.0
 20
0.0
 30
0.0
  0
VERTEX
  5
DC
330
DB
100
AcDbEntity
  8
_U+30EC_U+30A4_U+30E4_U+30FC 1
 62
   179
420
  2234388
370
     9
100
AcDbVertex
100
AcDb2dVertex
 10
84.50699728849133
 20
-115.4196460822564
 30
0.0
  0
VERTEX
  5
DD
330
DB
100
AcDbEntity
  8
_U+30EC_U+30A4_U+30E4_U+30FC 1
 62
   179
420
  2234388
370
     9
100
AcDbVertex
100
AcDb2dVertex
 10
92.79709846588212
 20
-110.5985849723505
 30
0.0
  0
SEQEND
  5
DE
330
DB
100
AcDbEntity
  8
_U+30EC_U+30A4_U+30E4_U+30FC 1
 62
   179
420
  2234388
370
     9
  0
POLYLINE
  5
DF
330
4F
100
AcDbEntity
  8
_U+30EC_U+30A4_U+30E4_U+30FC 1
 62
   179
420
  2234388
370
     9
100
AcDb2dPolyline
 66
     1
 10
0.0
 20
0.0
 30
0.0
  0
VERTEX
  5
E0
330
DF
100
AcDbEntity
  8
_U+30EC_U+30A4_U+30E4_U+30FC 1
 62
   179
420
  2234388
370
     9
100
AcDbVertex
100
AcDb2dVertex
 10
96.03132977225889
 20
-108.7757821950283
 30
0.0
  0
VERTEX
  5
E1
330
DF
100
AcDbEntity
  8
_U+30EC_U+30A4_U+30E4_U+30FC 1
 62
   179
420
  2234388
370
     9
100
AcDbVertex
100
AcDb2dVertex
 10
104.5565926103169
 20
-103.8368933073741
 30
0.0
  0
VERTEX
  5
E2
330
DF
100
AcDbEntity
  8
_U+30EC_U+30A4_U+30E4_U+30FC 1
 62
   179
420
  2234388
370
     9
100
AcDbVertex
100
AcDb2dVertex
 10
109.2604961014214
 20
-106.7765905288616
 30
0.0
  0
SEQEND
  5
E3
330
DF
100
AcDbEntity
  8
_U+30EC_U+30A4_U+30E4_U+30FC 1
 62
   179
420
  2234388
370
     9
  0
POLYLINE
  5
E4
330
4F
100
AcDbEntity
  8
_U+30EC_U+30A4_U+30E4_U+30FC 1
 62
   179
420
  2234388
370
     9
100
AcDb2dPolyline
 66
     1
 10
0.0
 20
0.0
 30
0.0
  0
VERTEX
  5
E5
330
E4
100
AcDbEntity
  8
_U+30EC_U+30A4_U+30E4_U+30FC 1
 62
   179
420
  2234388
370
     9
100
AcDbVertex
100
AcDb2dVertex
 10
104.5565926103169
 20
-102.9549488631501
 30
0.0
  0
VERTEX
  5
E6
330
E4
100
AcDbEntity
  8
_U+30EC_U+30A4_U+30E4_U+30FC 1
 62
   179
420
  2234388
370
     9
100
AcDbVertex
100
AcDb2dVertex
 10
104.4979962229229
 20
-106.423812751172
 30
0.0
  0
SEQEND
  5
E7
330
E4
100
AcDbEntity
  8
_U+30EC_U+30A4_U+30E4_U+30FC 1
 62
   179
420
  2234388
370
     9
  0
POLYLINE
  5
E8
330
4F
100
AcDbEntity
  8
_U+30EC_U+30A4_U+30E4_U+30FC 1
 62
   179
420
  2234388
370
     9
100
AcDb2dPolyline
 66
     1
 10
0.0
 20
0.0
 30
0.0
  0
VERTEX
  5
E9
330
E8
100
AcDbEntity
  8
_U+30EC_U+30A4_U+30E4_U+30FC 1
 62
   179
420
  2234388
370
     9
100
AcDbVertex
100
AcDb2dVertex
 10
116.9623756271523
 20
-109.3638627504369
 30
0.0
  0
VERTEX
  5
EA
330
E8
100
AcDbEntity
  8
_U+30EC_U+30A4_U+30E4_U+30FC 1
 62
   179
420
  2234388
370
     9
100
AcDbVertex
100
AcDb2dVertex
 10
116.9623756271523
 20
-112.7738127495845
 30
0.0
  0
SEQEND
  5
EB
330
E8
100
AcDbEntity
  8
_U+30EC_U+30A4_U+30E4_U+30FC 1
 62
   179
420
  2234388
370
     9
  0
POLYLINE
  5
EC
330
4F
100
AcDbEntity
  8
_U+30EC_U+30A4_U+30E4_U+30FC 1
 62
   179
420
  2234388
370
     9
100
AcDb2dPolyline
 66
     1
 10
0.0
 20
0.0
 30
0.0
  0
VERTEX
  5
ED
330
EC
100
AcDbEntity
  8
_U+30EC_U+30A4_U+30E4_U+30FC 1
 62
   179
420
  2234388
370
     9
100
AcDbVertex
100
AcDb2dVertex
 10
112.5526535174315
 20
-108.6583071950578
 30
0.0
  0
VERTEX
  5
EE
330
EC
100
AcDbEntity
  8
_U+30EC_U+30A4_U+30E4_U+30FC 1
 62
   179
420
  2234388
370
     9
100
AcDbVertex
100
AcDb2dVertex
 10
116.9038145175352
 20
-111.1277516388848
 30
0.0
  0
SEQEND
  5
EF
330
EC
100
AcDbEntity
  8
_U+30EC_U+30A4_U+30E4_U+30FC 1
 62
   179
420
  2234388
370
     9
  0
POLYLINE
  5
F0
330
4F
100
AcDbEntity
  8
_U+30EC_U+30A4_U+30E4_U+30FC 1
 62
   179
420
  2234388
370
     9
100
AcDb2dPolyline
 66
     1
 10
0.0
 20
0.0
 30
0.0
  0
VERTEX
  5
F1
330
F0
100
AcDbEntity
  8
_U+30EC_U+30A4_U+30E4_U+30FC 1
 62
   179
420
  2234388
370
     9
100
AcDbVertex
100
AcDb2dVertex
 10
118.1970978178742
 20
-117.1833585818154
 30
0.0
  0
VERTEX
  5
F2
330
F0
100
AcDbEntity
  8
_U+30EC_U+30A4_U+30E4_U+30FC 1
 62
   179
420
  2234388
370
     9
100
AcDbVertex
100
AcDb2dVertex
 10
120.9607588584784
 20
-118.8886863591668
 30
0.0
  0
SEQEND
  5
F3
330
F0
100
AcDbEntity
  8
_U+30EC_U+30A4_U+30E4_U+30FC 1
 62
   179
420
  2234388
370
     9
  0
POLYLINE
  5
F4
330
4F
100
AcDbEntity
  8
_U+30EC_U+30A4_U+30E4_U+30FC 1
 62
   179
420
  2234388
370
     9
100
AcDb2dPolyline
 66
     1
 10
0.0
 20
0.0
 30
0.0
  0
VERTEX
  5
F5
330
F4
100
AcDbEntity
  8
_U+30EC_U+30A4_U+30E4_U+30FC 1
 62
   179
420
  2234388
370
     9
100
AcDbVertex
100
AcDb2dVertex
 10
119.9609866617625
 20
-118.3009585815359
 30
0.0
  0
VERTEX
  5
F6
330
F4
100
AcDbEntity
  8
_U+30EC_U+30A4_U+30E4_U+30FC 1
 62
   179
420
  2234388
370
     9
100
AcDbVertex
100
AcDb2dVertex
 10
119.9609866617625
 20
-121.7109085806835
 30
0.0
  0
SEQEND
  5
F7
330
F4
100
AcDbEntity
  8
_U+30EC_U+30A4_U+30E4_U+30FC 1
 62
   179
420
  2234388
370
     9
  0
POLYLINE
  5
F8
330
4F
100
AcDbEntity
  8
_U+30EC_U+30A4_U+30E4_U+30FC 1
 62
   179
420
  2234388
370
     9
100
AcDb2dPolyline
 66
     1
 10
0.0
 20
0.0
 30
0.0
  0
VERTEX
  5
F9
330
F8
100
AcDbEntity
  8
_U+30EC_U+30A4_U+30E4_U+30FC 1
 62
   179
420
  2234388
370
     9
100
AcDbVertex
100
AcDb2dVertex
 10
118.1970978178742
 20
-128.7075502456008
 30
0.0
  0
VERTEX
  5
FA
330
F8
100
AcDbEntity
  8
_U+30EC_U+30A4_U+30E4_U+30FC 1
 62
   179
420
  2234388
370
     9
100
AcDbVertex
100
AcDb2dVertex
 10
120.9021624710844
 20
-130.2359952452186
 30
0.0
  0
SEQEND
  5
FB
330
F8
100
AcDbEntity
  8
_U+30EC_U+30A4_U+30E4_U+30FC 1
 62
   179
420
  2234388
370
     9
  0
POLYLINE
  5
FC
330
4F
100
AcDbEntity
  8
_U+30EC_U+30A4_U+30E4_U+30FC 1
 62
   179
420
  2234388
370
     9
100
AcDb2dPolyline
 66
     1
 10
0.0
 20
0.0
 30
0.0
  0
VERTEX
  5
FD
330
FC
100
AcDbEntity
  8
_U+30EC_U+30A4_U+30E4_U+30FC 1
 62
   179
420
  2234388
370
     9
100
AcDbVertex
100
AcDb2dVertex
 10
120.0202180491403
 20
-129.6482321898099
 30
0.0
  0
VERTEX
  5
FE
330
FC
100
AcDbEntity
  8
_U+30EC_U+30A4_U+30E4_U+30FC 1
 62
   179
420
  2234388
370
     9
100
AcDbVertex
100
AcDb2dVertex
 10
120.0202180491403
 20
-124.8271710799043
 30
0.0
  0
SEQEND
  5
FF
330
FC
100
AcDbEntity
  8
_U+30EC_U+30A4_U+30E4_U+30FC 1
 62
   179
420
  2234388
370
     9
  0
POLYLINE
  5
100
330
4F
100
AcDbEntity
  8
_U+30EC_U+30A4_U+30E4_U+30FC 1
 62
   179
420
  2234388
370
     9
100
AcDb2dPolyline
 66
     1
 10
0.0
 20
0.0
 30
0.0
  0
VERTEX
  5
101
330
100
100
AcDbEntity
  8
_U+30EC_U+30A4_U+30E4_U+30FC 1
 62
   179
420
  2234388
370
     9
100
AcDbVertex
100
AcDb2dVertex
 10
108.2607591824824
 20
-120.770403025363
 30
0.0
  0
VERTEX
  5
102
330
100
100
AcDbEntity
  8
_U+30EC_U+30A4_U+30E4_U+30FC 1
 62
   179
420
  2234388
370
     9
100
AcDbVertex
100
AcDb2dVertex
 10
107.3788147605382
 20
-121.1231808030526
 30
0.0
  0
VERTEX
  5
103
330
100
100
AcDbEntity
  8
_U+30EC_U+30A4_U+30E4_U+30FC 1
 62
   179
420
  2234388
370
     9
100
AcDbVertex
100
AcDb2dVertex
 10
107.9665425233218
 20
-121.2403030252456
 30
0.0
  0
VERTEX
  5
104
330
100
100
AcDbEntity
  8
_U+30EC_U+30A4_U+30E4_U+30FC 1
 62
   179
420
  2234388
370
     9
100
AcDbVertex
100
AcDb2dVertex
 10
108.2021627950884
 20
-121.8872974695283
 30
0.0
  0
VERTEX
  5
105
330
100
100
AcDbEntity
  8
_U+30EC_U+30A4_U+30E4_U+30FC 1
 62
   179
420
  2234388
370
     9
100
AcDbVertex
100
AcDb2dVertex
 10
108.2607591824824
 20
-120.770403025363
 30
0.0
  0
SEQEND
  5
107
330
100
100
AcDbEntity
  8
_U+30EC_U+30A4_U+30E4_U+30FC 1
 62
   179
420
  2234388
370
     9
  0
HATCH
  5
106
330
4F
100
AcDbEntity
  8
_U+30EC_U+30A4_U+30E4_U+30FC 1
 62
   179
420
  2234388
100
AcDbHatch
 10
0.0
 20
0.0
 30
0.0
210
0.0
220
0.0
230
1.0
  2
SOLID
 70
     1
 71
     0
 91
        1
 92
        1
 93
        4
 72
     1
 10
108.2607591824824
 20
-120.770403025363
 11
107.3788147605382
 21
-121.1231808030526
 72
     1
 10
107.3788147605382
 20
-121.1231808030526
 11
107.9665425233218
 21
-121.2403030252456
 72
     1
 10
107.9665425233218
 20
-121.2403030252456
 11
108.2021627950884
 21
-121.8872974695283
 72
     1
 10
108.2021627950884
 20
-121.8872974695283
 11
108.2607591824824
 21
-120.770403025363
 97
        0
 75
     2
 76
     1
 98
        0
  0
POLYLINE
  5
108
330
4F
100
AcDbEntity
  8
_U+30EC_U+30A4_U+30E4_U+30FC 1
 62
   179
420
  2234388
370
     9
100
AcDb2dPolyline
 66
     1
 10
0.0
 20
0.0
 30
0.0
  0
VERTEX
  5
109
330
108
100
AcDbEntity
  8
_U+30EC_U+30A4_U+30E4_U+30FC 1
 62
   179
420
  2234388
370
     9
100
AcDbVertex
100
AcDb2dVertex
 10
104.7915426043228
 20
-126.1790508017884
 30
0.0
  0
VERTEX
  5
10A
330
108
100
AcDbEntity
  8
_U+30EC_U+30A4_U+30E4_U+30FC 1
 62
   179
420
  2234388
370
     9
100
AcDbVertex
100
AcDb2dVertex
 10
107.9665425233218
 20
-121.2403030252456
 30
0.0
  0
SEQEND
  5
10B
330
108
100
AcDbEntity
  8
_U+30EC_U+30A4_U+30E4_U+30FC 1
 62
   179
420
  2234388
370
     9
  0
INSERT
  5
10D
330
4F
100
AcDbEntity
  8
_U+30EC_U+30A4_U+30E4_U+30FC 1
100
AcDbBlockReference
  2
block 11
 10
0.0
 20
0.0
 30
0.0
  0
INSERT
  5
128
330
4F
100
AcDbEntity
  8
_U+30EC_U+30A4_U+30E4_U+30FC 1
100
AcDbBlockReference
  2
block 12
 10
0.0
 20
0.0
 30
0.0
  0
INSERT
  5
131
330
4F
100
AcDbEntity
  8
_U+30EC_U+30A4_U+30E4_U+30FC 1
100
AcDbBlockReference
  2
block 13
 10
0.0
 20
0.0
 30
0.0
  0
INSERT
  5
139
330
4F
100
AcDbEntity
  8
_U+30EC_U+30A4_U+30E4_U+30FC 1
100
AcDbBlockReference
  2
block 14
 10
0.0
 20
0.0
 30
0.0
  0
SPLINE
  5
15F
330
4F
100
AcDbEntity
  8
_U+30EC_U+30A4_U+30E4_U+30FC 1
370
     0
100
AcDbSpline
210
0.0
220
0.0
230
1.0
 70
    11
 71
     3
 72
    17
 73
    13
 74
     0
 42
0.0000000001
 43
0.0000000001
 12
1.0
 22
0.0
 32
0.0
 13
1.0
 23
0.0
 33
0.0
 40
0.0
 40
0.0
 40
0.0
 40
0.0
 40
1.0
 40
1.0
 40
1.0
 40
2.0
 40
2.0
 40
2.0
 40
3.0
 40
3.0
 40
3.0
 40
4.0
 40
4.0
 40
4.0
 40
4.0
 10
84.74815831214622
 20
-115.4223977489222
 30
0.0
 10
84.74815831214622
 20
-115.5540191377781
 30
0.0
 10
84.64168784061064
 20
-115.6606285821959
 30
0.0
 10
84.51010173285657
 20
-115.6606285821959
 30
0.0
 10
84.37848034732562
 20
-115.6606285821959
 30
0.0
 10
84.27201201670853
 20
-115.5540191377781
 30
0.0
 10
84.27201201670853
 20
-115.4223977489222
 30
0.0
 10
84.27201201670853
 20
-115.2908116378441
 30
0.0
 10
84.37848034732562
 20
-115.1843433045373
 30
0.0
 10
84.51010173285657
 20
-115.1843433045373
 30
0.0
 10
84.64168784061064
 20
-115.1843433045373
 30
0.0
 10
84.74815831214622
 20
-115.2908116378441
 30
0.0
 10
84.74815831214622
 20
-115.4223977489222
 30
0.0
  0
HATCH
  5
160
330
4F
100
AcDbEntity
  8
_U+30EC_U+30A4_U+30E4_U+30FC 1
 62
   179
420
  2234388
100
AcDbHatch
 10
0.0
 20
0.0
 30
0.0
210
0.0
220
0.0
230
1.0
  2
SOLID
 70
     1
 71
     0
 91
        1
 92
        1
 93
        1
 72
     4
 94
        3
 73
     0
 74
     1
 95
       17
 96
       13
 40
0.0
 40
0.0
 40
0.0
 40
0.0
 40
1.0
 40
1.0
 40
1.0
 40
2.0
 40
2.0
 40
2.0
 40
3.0
 40
3.0
 40
3.0
 40
4.0
 40
4.0
 40
4.0
 40
4.0
 10
84.74815831214622
 20
-115.4223977489222
 10
84.74815831214622
 20
-115.5540191377781
 10
84.64168784061064
 20
-115.6606285821959
 10
84.51010173285657
 20
-115.6606285821959
 10
84.37848034732562
 20
-115.6606285821959
 10
84.27201201670853
 20
-115.5540191377781
 10
84.27201201670853
 20
-115.4223977489222
 10
84.27201201670853
 20
-115.2908116378441
 10
84.37848034732562
 20
-115.1843433045373
 10
84.51010173285657
 20
-115.1843433045373
 10
84.64168784061064
 20
-115.1843433045373
 10
84.74815831214622
 20
-115.2908116378441
 10
84.74815831214622
 20
-115.4223977489222
 97
        0
 97
        0
 75
     2
 76
     1
 98
        0
  0
SPLINE
  5
161
330
4F
100
AcDbEntity
  8
_U+30EC_U+30A4_U+30E4_U+30FC 1
370
     0
100
AcDbSpline
210
0.0
220
0.0
230
1.0
 70
    11
 71
     3
 72
    17
 73
    13
 74
     0
 42
0.0000000001
 43
0.0000000001
 12
1.0
 22
0.0
 32
0.0
 13
1.0
 23
0.0
 33
0.0
 40
0.0
 40
0.0
 40
0.0
 40
0.0
 40
1.0
 40
1.0
 40
1.0
 40
2.0
 40
2.0
 40
2.0
 40
3.0
 40
3.0
 40
3.0
 40
4.0
 40
4.0
 40
4.0
 40
4.0
 10
104.7384848278986
 20
-103.8985588629142
 30
0.0
 10
104.7384848278986
 20
-104.0301802517704
 30
0.0
 10
104.6323692750503
 20
-104.1369660850768
 30
0.0
 10
104.5007831672962
 20
-104.1369660850768
 30
0.0
 10
104.3691617817653
 20
-104.1369660850768
 30
0.0
 10
104.2623759511563
 20
-104.0301802517704
 30
0.0
 10
104.2623759511563
 20
-103.8985588629142
 30
0.0
 10
104.2623759511563
 20
-103.7669727518361
 30
0.0
 10
104.3691617817653
 20
-103.6601516407515
 30
0.0
 10
104.5007831672962
 20
-103.6601516407515
 30
0.0
 10
104.6323692750503
 20
-103.6601516407515
 30
0.0
 10
104.7384848278986
 20
-103.7669727518361
 30
0.0
 10
104.7384848278986
 20
-103.8985588629142
 30
0.0
  0
HATCH
  5
162
330
4F
100
AcDbEntity
  8
_U+30EC_U+30A4_U+30E4_U+30FC 1
 62
   179
420
  2234388
100
AcDbHatch
 10
0.0
 20
0.0
 30
0.0
210
0.0
220
0.0
230
1.0
  2
SOLID
 70
     1
 71
     0
 91
        1
 92
        1
 93
        1
 72
     4
 94
        3
 73
     0
 74
     1
 95
       17
 96
       13
 40
0.0
 40
0.0
 40
0.0
 40
0.0
 40
1.0
 40
1.0
 40
1.0
 40
2.0
 40
2.0
 40
2.0
 40
3.0
 40
3.0
 40
3.0
 40
4.0
 40
4.0
 40
4.0
 40
4.0
 10
104.7384848278986
 20
-103.8985588629142
 10
104.7384848278986
 20
-104.0301802517704
 10
104.6323692750503
 20
-104.1369660850768
 10
104.5007831672962
 20
-104.1369660850768
 10
104.3691617817653
 20
-104.1369660850768
 10
104.2623759511563
 20
-104.0301802517704
 10
104.2623759511563
 20
-103.8985588629142
 10
104.2623759511563
 20
-103.7669727518361
 10
104.3691617817653
 20
-103.6601516407515
 10
104.5007831672962
 20
-103.6601516407515
 10
104.6323692750503
 20
-103.6601516407515
 10
104.7384848278986
 20
-103.7669727518361
 10
104.7384848278986
 20
-103.8985588629142
 97
        0
 97
        0
 75
     2
 76
     1
 98
        0
  0
SPLINE
  5
163
330
4F
100
AcDbEntity
  8
_U+30EC_U+30A4_U+30E4_U+30FC 1
370
     0
100
AcDbSpline
210
0.0
220
0.0
230
1.0
 70
    11
 71
     3
 72
    17
 73
    13
 74
     0
 42
0.0000000001
 43
0.0000000001
 12
1.0
 22
0.0
 32
0.0
 13
1.0
 23
0.0
 33
0.0
 40
0.0
 40
0.0
 40
0.0
 40
0.0
 40
1.0
 40
1.0
 40
1.0
 40
2.0
 40
2.0
 40
2.0
 40
3.0
 40
3.0
 40
3.0
 40
4.0
 40
4.0
 40
4.0
 40
4.0
 10
117.085706735117
 20
-111.1305033055506
 30
0.0
 10
117.085706735117
 20
-111.2621246944069
 30
0.0
 10
116.9795911822687
 20
-111.3689105277132
 30
0.0
 10
116.8480050745146
 20
-111.3689105277132
 30
0.0
 10
116.7163836889836
 20
-111.3689105277132
 30
0.0
 10
116.6095978583746
 20
-111.2621246944069
 30
0.0
 10
116.6095978583746
 20
-111.1305033055506
 30
0.0
 10
116.6095978583746
 20
-110.9989171944725
 30
0.0
 10
116.7163836889836
 20
-110.892096083388
 30
0.0
 10
116.8480050745146
 20
-110.892096083388
 30
0.0
 10
116.9795911822687
 20
-110.892096083388
 30
0.0
 10
117.085706735117
 20
-110.9989171944725
 30
0.0
 10
117.085706735117
 20
-111.1305033055506
 30
0.0
  0
HATCH
  5
164
330
4F
100
AcDbEntity
  8
_U+30EC_U+30A4_U+30E4_U+30FC 1
 62
   179
420
  2234388
100
AcDbHatch
 10
0.0
 20
0.0
 30
0.0
210
0.0
220
0.0
230
1.0
  2
SOLID
 70
     1
 71
     0
 91
        1
 92
        1
 93
        1
 72
     4
 94
        3
 73
     0
 74
     1
 95
       17
 96
       13
 40
0.0
 40
0.0
 40
0.0
 40
0.0
 40
1.0
 40
1.0
 40
1.0
 40
2.0
 40
2.0
 40
2.0
 40
3.0
 40
3.0
 40
3.0
 40
4.0
 40
4.0
 40
4.0
 40
4.0
 10
117.085706735117
 20
-111.1305033055506
 10
117.085706735117
 20
-111.2621246944069
 10
116.9795911822687
 20
-111.3689105277132
 10
116.8480050745146
 20
-111.3689105277132
 10
116.7163836889836
 20
-111.3689105277132
 10
116.6095978583746
 20
-111.2621246944069
 10
116.6095978583746
 20
-111.1305033055506
 10
116.6095978583746
 20
-110.9989171944725
 10
116.7163836889836
 20
-110.892096083388
 10
116.8480050745146
 20
-110.892096083388
 10
116.9795911822687
 20
-110.892096083388
 10
117.085706735117
 20
-110.9989171944725
 10
117.085706735117
 20
-111.1305033055506
 97
        0
 97
        0
 75
     2
 76
     1
 98
        0
  0
SPLINE
  5
165
330
4F
100
AcDbEntity
  8
_U+30EC_U+30A4_U+30E4_U+30FC 1
370
     0
100
AcDbSpline
210
0.0
220
0.0
230
1.0
 70
    11
 71
     3
 72
    17
 73
    13
 74
     0
 42
0.0000000001
 43
0.0000000001
 12
1.0
 22
0.0
 32
0.0
 13
1.0
 23
0.0
 33
0.0
 40
0.0
 40
0.0
 40
0.0
 40
0.0
 40
1.0
 40
1.0
 40
1.0
 40
2.0
 40
2.0
 40
2.0
 40
3.0
 40
3.0
 40
3.0
 40
4.0
 40
4.0
 40
4.0
 40
4.0
 10
120.1435844348818
 20
-118.303710248202
 30
0.0
 10
120.1435844348818
 20
-118.4353316370579
 30
0.0
 10
120.0367633264959
 20
-118.5421174703646
 30
0.0
 10
119.9051772187419
 20
-118.5421174703646
 30
0.0
 10
119.7735558332109
 20
-118.5421174703646
 30
0.0
 10
119.6674402803626
 20
-118.4353316370579
 30
0.0
 10
119.6674402803626
 20
-118.303710248202
 30
0.0
 10
119.6674402803626
 20
-118.1721241371236
 30
0.0
 10
119.7735558332109
 20
-118.0653030260394
 30
0.0
 10
119.9051772187419
 20
-118.0653030260394
 30
0.0
 10
120.0367633264959
 20
-118.0653030260394
 30
0.0
 10
120.1435844348818
 20
-118.1721241371236
 30
0.0
 10
120.1435844348818
 20
-118.303710248202
 30
0.0
  0
HATCH
  5
166
330
4F
100
AcDbEntity
  8
_U+30EC_U+30A4_U+30E4_U+30FC 1
 62
   179
420
  2234388
100
AcDbHatch
 10
0.0
 20
0.0
 30
0.0
210
0.0
220
0.0
230
1.0
  2
SOLID
 70
     1
 71
     0
 91
        1
 92
        1
 93
        1
 72
     4
 94
        3
 73
     0
 74
     1
 95
       17
 96
       13
 40
0.0
 40
0.0
 40
0.0
 40
0.0
 40
1.0
 40
1.0
 40
1.0
 40
2.0
 40
2.0
 40
2.0
 40
3.0
 40
3.0
 40
3.0
 40
4.0
 40
4.0
 40
4.0
 40
4.0
 10
120.1435844348818
 20
-118.303710248202
 10
120.1435844348818
 20
-118.4353316370579
 10
120.0367633264959
 20
-118.5421174703646
 10
119.9051772187419
 20
-118.5421174703646
 10
119.7735558332109
 20
-118.5421174703646
 10
119.6674402803626
 20
-118.4353316370579
 10
119.6674402803626
 20
-118.303710248202
 10
119.6674402803626
 20
-118.1721241371236
 10
119.7735558332109
 20
-118.0653030260394
 10
119.9051772187419
 20
-118.0653030260394
 10
120.0367633264959
 20
-118.0653030260394
 10
120.1435844348818
 20
-118.1721241371236
 10
120.1435844348818
 20
-118.303710248202
 97
        0
 97
        0
 75
     2
 76
     1
 98
        0
  0
SPLINE
  5
167
330
4F
100
AcDbEntity
  8
_U+30EC_U+30A4_U+30E4_U+30FC 1
370
     0
100
AcDbSpline
210
0.0
220
0.0
230
1.0
 70
    11
 71
     3
 72
    17
 73
    13
 74
     0
 42
0.0000000001
 43
0.0000000001
 12
1.0
 22
0.0
 32
0.0
 13
1.0
 23
0.0
 33
0.0
 40
0.0
 40
0.0
 40
0.0
 40
0.0
 40
1.0
 40
1.0
 40
1.0
 40
2.0
 40
2.0
 40
2.0
 40
3.0
 40
3.0
 40
3.0
 40
4.0
 40
4.0
 40
4.0
 40
4.0
 10
120.260706654116
 20
-129.7095802453507
 30
0.0
 10
120.260706654116
 20
-129.8418719119843
 30
0.0
 10
120.1545911012677
 20
-129.9486577452903
 30
0.0
 10
120.0230049935136
 20
-129.9486577452903
 30
0.0
 10
119.8913836079826
 20
-129.9486577452903
 30
0.0
 10
119.7845977773736
 20
-129.8418719119843
 30
0.0
 10
119.7845977773736
 20
-129.7095802453507
 30
0.0
 10
119.7845977773736
 20
-129.5779588564944
 30
0.0
 10
119.8913836079826
 20
-129.4718433009651
 30
0.0
 10
120.0230049935136
 20
-129.4718433009651
 30
0.0
 10
120.1545911012677
 20
-129.4718433009651
 30
0.0
 10
120.260706654116
 20
-129.5779588564944
 30
0.0
 10
120.260706654116
 20
-129.7095802453507
 30
0.0
  0
HATCH
  5
168
330
4F
100
AcDbEntity
  8
_U+30EC_U+30A4_U+30E4_U+30FC 1
 62
   179
420
  2234388
100
AcDbHatch
 10
0.0
 20
0.0
 30
0.0
210
0.0
220
0.0
230
1.0
  2
SOLID
 70
     1
 71
     0
 91
        1
 92
        1
 93
        1
 72
     4
 94
        3
 73
     0
 74
     1
 95
       17
 96
       13
 40
0.0
 40
0.0
 40
0.0
 40
0.0
 40
1.0
 40
1.0
 40
1.0
 40
2.0
 40
2.0
 40
2.0
 40
3.0
 40
3.0
 40
3.0
 40
4.0
 40
4.0
 40
4.0
 40
4.0
 10
120.260706654116
 20
-129.7095802453507
 10
120.260706654116
 20
-129.8418719119843
 10
120.1545911012677
 20
-129.9486577452903
 10
120.0230049935136
 20
-129.9486577452903
 10
119.8913836079826
 20
-129.9486577452903
 10
119.7845977773736
 20
-129.8418719119843
 10
119.7845977773736
 20
-129.7095802453507
 10
119.7845977773736
 20
-129.5779588564944
 10
119.8913836079826
 20
-129.4718433009651
 10
120.0230049935136
 20
-129.4718433009651
 10
120.1545911012677
 20
-129.4718433009651
 10
120.260706654116
 20
-129.5779588564944
 10
120.260706654116
 20
-129.7095802453507
 97
        0
 97
        0
 75
     2
 76
     1
 98
        0
  0
ENDBLK
  5
52
330
4F
100
AcDbEntity
  8
0
100
AcDbBlockEnd
  0
BLOCK
  5
A1
330
9F
100
AcDbEntity
  8
0
100
AcDbBlockBegin
  2
block 3
 70
     0
 10
0.0
 20
0.0
 30
0.0
  3
block 3
  1

  0
SPLINE
  5
A3
330
9F
100
AcDbEntity
  8
_U+30EC_U+30A4_U+30E4_U+30FC 1
 62
   179
420
  2234388
370
     9
100
AcDbSpline
210
0.0
220
0.0
230
1.0
 70
    11
 71
     3
 72
    17
 73
    13
 74
     0
 42
0.0000000001
 43
0.0000000001
 12
1.0
 22
0.0
 32
0.0
 13
1.0
 23
0.0
 33
0.0
 40
0.0
 40
0.0
 40
0.0
 40
0.0
 40
1.0
 40
1.0
 40
1.0
 40
2.0
 40
2.0
 40
2.0
 40
3.0
 40
3.0
 40
3.0
 40
4.0
 40
4.0
 40
4.0
 40
4.0
 10
114.4529615245061
 20
-118.0177838593844
 30
0.0
 10
114.684454296378
 20
-118.299582748203
 30
0.0
 10
114.7237537398199
 20
-118.6502791370042
 30
0.0
 10
114.5397801334023
 20
-118.8018677480773
 30
0.0
 10
114.3558065269848
 20
-118.9520805258175
 30
0.0
 10
114.0195740355628
 20
-118.8459649702885
 30
0.0
 10
113.7873757081533
 20
-118.5634605259147
 30
0.0
 10
113.5551773807438
 20
-118.2809913593187
 30
0.0
 10
113.5165834928396
 20
-117.929589414962
 30
0.0
 10
113.7005570992571
 20
-117.7793766372218
 30
0.0
 10
113.8838251501371
 20
-117.6277880261487
 30
0.0
 10
114.2207631970967
 20
-117.7345738594554
 30
0.0
 10
114.4529615245061
 20
-118.0177838593844
 30
0.0
  0
HATCH
  5
A4
330
9F
100
AcDbEntity
  8
_U+30EC_U+30A4_U+30E4_U+30FC 1
 62
     7
420
 16711422
100
AcDbHatch
 10
0.0
 20
0.0
 30
0.0
210
0.0
220
0.0
230
1.0
  2
SOLID
 70
     1
 71
     0
 91
        1
 92
        1
 93
        1
 72
     4
 94
        3
 73
     0
 74
     1
 95
       17
 96
       13
 40
0.0
 40
0.0
 40
0.0
 40
0.0
 40
1.0
 40
1.0
 40
1.0
 40
2.0
 40
2.0
 40
2.0
 40
3.0
 40
3.0
 40
3.0
 40
4.0
 40
4.0
 40
4.0
 40
4.0
 10
114.4529615245061
 20
-118.0177838593844
 10
114.684454296378
 20
-118.299582748203
 10
114.7237537398199
 20
-118.6502791370042
 10
114.5397801334023
 20
-118.8018677480773
 10
114.3558065269848
 20
-118.9520805258175
 10
114.0195740355628
 20
-118.8459649702885
 10
113.7873757081533
 20
-118.5634605259147
 10
113.5551773807438
 20
-118.2809913593187
 10
113.5165834928396
 20
-117.929589414962
 10
113.7005570992571
 20
-117.7793766372218
 10
113.8838251501371
 20
-117.6277880261487
 10
114.2207631970967
 20
-117.7345738594554
 10
114.4529615245061
 20
-118.0177838593844
 97
        0
 97
        0
 75
     2
 76
     1
 98
        0
  0
SPLINE
  5
A5
330
9F
100
AcDbEntity
  8
_U+30EC_U+30A4_U+30E4_U+30FC 1
 62
   179
420
  2234388
370
     9
100
AcDbSpline
210
0.0
220
0.0
230
1.0
 70
     8
 71
     3
 72
     8
 73
     4
 74
     0
 42
0.0000000001
 43
0.0000000001
 12
1.0
 22
0.0
 32
0.0
 13
1.0
 23
0.0
 33
0.0
 40
0.0
 40
0.0
 40
0.0
 40
0.0
 40
1.0
 40
1.0
 40
1.0
 40
1.0
 10
114.0229959799199
 20
-117.6835974705791
 30
0.0
 10
114.0229959799199
 20
-117.6835974705791
 30
0.0
 10
114.0229959799199
 20
-118.712297470322
 30
0.0
 10
114.6107590204804
 20
-118.6826641369961
 30
0.0
  0
ENDBLK
  5
A2
330
9F
100
AcDbEntity
  8
0
100
AcDbBlockEnd
  0
BLOCK
  5
A8
330
A6
100
AcDbEntity
  8
0
100
AcDbBlockBegin
  2
block 4
 70
     0
 10
0.0
 20
0.0
 30
0.0
  3
block 4
  1

  0
SPLINE
  5
AA
330
A6
100
AcDbEntity
  8
_U+30EC_U+30A4_U+30E4_U+30FC 1
 62
   179
420
  2234388
370
     9
100
AcDbSpline
210
0.0
220
0.0
230
1.0
 70
    11
 71
     3
 72
    17
 73
    13
 74
     0
 42
0.0000000001
 43
0.0000000001
 12
1.0
 22
0.0
 32
0.0
 13
1.0
 23
0.0
 33
0.0
 40
0.0
 40
0.0
 40
0.0
 40
0.0
 40
1.0
 40
1.0
 40
1.0
 40
2.0
 40
2.0
 40
2.0
 40
3.0
 40
3.0
 40
3.0
 40
4.0
 40
4.0
 40
4.0
 40
4.0
 10
109.3080505446526
 20
-114.9600824712601
 30
0.0
 10
109.5395785943014
 20
-115.2418813600784
 30
0.0
 10
109.5788427599664
 20
-115.5929305266573
 30
0.0
 10
109.3948691535488
 20
-115.7440252488419
 30
0.0
 10
109.2108955471313
 20
-115.8949083043595
 30
0.0
 10
108.8746630557093
 20
-115.7881224710531
 30
0.0
 10
108.6424647282998
 20
-115.5061119155678
 30
0.0
 10
108.4102664008904
 20
-115.2236427489718
 30
0.0
 10
108.3716725129861
 20
-114.8722408046151
 30
0.0
 10
108.5556461194036
 20
-114.7216752490975
 30
0.0
 10
108.7389141702836
 20
-114.5704394158018
 30
0.0
 10
109.0758522172432
 20
-114.6772252491085
 30
0.0
 10
109.3080505446526
 20
-114.9600824712601
 30
0.0
  0
HATCH
  5
AB
330
A6
100
AcDbEntity
  8
_U+30EC_U+30A4_U+30E4_U+30FC 1
 62
     7
420
 16711422
100
AcDbHatch
 10
0.0
 20
0.0
 30
0.0
210
0.0
220
0.0
230
1.0
  2
SOLID
 70
     1
 71
     0
 91
        1
 92
        1
 93
        1
 72
     4
 94
        3
 73
     0
 74
     1
 95
       17
 96
       13
 40
0.0
 40
0.0
 40
0.0
 40
0.0
 40
1.0
 40
1.0
 40
1.0
 40
2.0
 40
2.0
 40
2.0
 40
3.0
 40
3.0
 40
3.0
 40
4.0
 40
4.0
 40
4.0
 40
4.0
 10
109.3080505446526
 20
-114.9600824712601
 10
109.5395785943014
 20
-115.2418813600784
 10
109.5788427599664
 20
-115.5929305266573
 10
109.3948691535488
 20
-115.7440252488419
 10
109.2108955471313
 20
-115.8949083043595
 10
108.8746630557093
 20
-115.7881224710531
 10
108.6424647282998
 20
-115.5061119155678
 10
108.4102664008904
 20
-115.2236427489718
 10
108.3716725129861
 20
-114.8722408046151
 10
108.5556461194036
 20
-114.7216752490975
 10
108.7389141702836
 20
-114.5704394158018
 10
109.0758522172432
 20
-114.6772252491085
 10
109.3080505446526
 20
-114.9600824712601
 97
        0
 97
        0
 75
     2
 76
     1
 98
        0
  0
SPLINE
  5
AC
330
A6
100
AcDbEntity
  8
_U+30EC_U+30A4_U+30E4_U+30FC 1
 62
   179
420
  2234388
370
     9
100
AcDbSpline
210
0.0
220
0.0
230
1.0
 70
     8
 71
     3
 72
     8
 73
     4
 74
     0
 42
0.0000000001
 43
0.0000000001
 12
1.0
 22
0.0
 32
0.0
 13
1.0
 23
0.0
 33
0.0
 40
0.0
 40
0.0
 40
0.0
 40
0.0
 40
1.0
 40
1.0
 40
1.0
 40
1.0
 10
108.8781202778433
 20
-114.6258960824548
 30
0.0
 10
108.8781202778433
 20
-114.6258960824548
 30
0.0
 10
108.8781202778433
 20
-115.6544549710863
 30
0.0
 10
109.4658480406269
 20
-115.6253155266493
 30
0.0
  0
ENDBLK
  5
A9
330
A6
100
AcDbEntity
  8
0
100
AcDbBlockEnd
  0
BLOCK
  5
AF
330
AD
100
AcDbEntity
  8
0
100
AcDbBlockBegin
  2
block 5
 70
     0
 10
0.0
 20
0.0
 30
0.0
  3
block 5
  1

  0
SPLINE
  5
B1
330
AD
100
AcDbEntity
  8
_U+30EC_U+30A4_U+30E4_U+30FC 1
 62
   179
420
  2234388
370
     9
100
AcDbSpline
210
0.0
220
0.0
230
1.0
 70
    11
 71
     3
 72
    17
 73
    13
 74
     0
 42
0.0000000001
 43
0.0000000001
 12
1.0
 22
0.0
 32
0.0
 13
1.0
 23
0.0
 33
0.0
 40
0.0
 40
0.0
 40
0.0
 40
0.0
 40
1.0
 40
1.0
 40
1.0
 40
2.0
 40
2.0
 40
2.0
 40
3.0
 40
3.0
 40
3.0
 40
4.0
 40
4.0
 40
4.0
 40
4.0
 10
109.33768387723
 20
-119.1050449702238
 30
0.0
 10
109.5691766491019
 20
-119.3868438590421
 30
0.0
 10
109.6084760925437
 20
-119.7382458033988
 30
0.0
 10
109.4245024861261
 20
-119.8891641366945
 30
0.0
 10
109.2405288797086
 20
-120.0400471922121
 30
0.0
 10
108.9042963882866
 20
-119.9332613589057
 30
0.0
 10
108.6720980608771
 20
-119.6514271923093
 30
0.0
 10
108.4398997334677
 20
-119.3689580257133
 30
0.0
 10
108.4013058455634
 20
-119.0175560813566
 30
0.0
 10
108.585279451981
 20
-118.8666377480612
 30
0.0
 10
108.768547502861
 20
-118.7157546925433
 30
0.0
 10
109.1054855498205
 20
-118.82254052585
 30
0.0
 10
109.33768387723
 20
-119.1050449702238
 30
0.0
  0
HATCH
  5
B2
330
AD
100
AcDbEntity
  8
_U+30EC_U+30A4_U+30E4_U+30FC 1
 62
     7
420
 16711422
100
AcDbHatch
 10
0.0
 20
0.0
 30
0.0
210
0.0
220
0.0
230
1.0
  2
SOLID
 70
     1
 71
     0
 91
        1
 92
        1
 93
        1
 72
     4
 94
        3
 73
     0
 74
     1
 95
       17
 96
       13
 40
0.0
 40
0.0
 40
0.0
 40
0.0
 40
1.0
 40
1.0
 40
1.0
 40
2.0
 40
2.0
 40
2.0
 40
3.0
 40
3.0
 40
3.0
 40
4.0
 40
4.0
 40
4.0
 40
4.0
 10
109.33768387723
 20
-119.1050449702238
 10
109.5691766491019
 20
-119.3868438590421
 10
109.6084760925437
 20
-119.7382458033988
 10
109.4245024861261
 20
-119.8891641366945
 10
109.2405288797086
 20
-120.0400471922121
 10
108.9042963882866
 20
-119.9332613589057
 10
108.6720980608771
 20
-119.6514271923093
 10
108.4398997334677
 20
-119.3689580257133
 10
108.4013058455634
 20
-119.0175560813566
 10
108.585279451981
 20
-118.8666377480612
 10
108.768547502861
 20
-118.7157546925433
 10
109.1054855498205
 20
-118.82254052585
 10
109.33768387723
 20
-119.1050449702238
 97
        0
 97
        0
 75
     2
 76
     1
 98
        0
  0
SPLINE
  5
B3
330
AD
100
AcDbEntity
  8
_U+30EC_U+30A4_U+30E4_U+30FC 1
 62
   179
420
  2234388
370
     9
100
AcDbSpline
210
0.0
220
0.0
230
1.0
 70
     8
 71
     3
 72
     8
 73
     4
 74
     0
 42
0.0000000001
 43
0.0000000001
 12
1.0
 22
0.0
 32
0.0
 13
1.0
 23
0.0
 33
0.0
 40
0.0
 40
0.0
 40
0.0
 40
0.0
 40
1.0
 40
1.0
 40
1.0
 40
1.0
 10
108.9077183326437
 20
-118.7708585814185
 30
0.0
 10
108.9077183326437
 20
-118.7708585814185
 30
0.0
 10
108.9077183326437
 20
-119.7995938589389
 30
0.0
 10
109.4954813732042
 20
-119.7706308033908
 30
0.0
  0
ENDBLK
  5
B0
330
AD
100
AcDbEntity
  8
0
100
AcDbBlockEnd
  0
BLOCK
  5
B6
330
B4
100
AcDbEntity
  8
0
100
AcDbBlockBegin
  2
block 6
 70
     0
 10
0.0
 20
0.0
 30
0.0
  3
block 6
  1

  0
SPLINE
  5
B8
330
B4
100
AcDbEntity
  8
_U+30EC_U+30A4_U+30E4_U+30FC 1
 62
   179
420
  2234388
370
     9
100
AcDbSpline
210
0.0
220
0.0
230
1.0
 70
    11
 71
     3
 72
    17
 73
    13
 74
     0
 42
0.0000000001
 43
0.0000000001
 12
1.0
 22
0.0
 32
0.0
 13
1.0
 23
0.0
 33
0.0
 40
0.0
 40
0.0
 40
0.0
 40
0.0
 40
1.0
 40
1.0
 40
1.0
 40
2.0
 40
2.0
 40
2.0
 40
3.0
 40
3.0
 40
3.0
 40
4.0
 40
4.0
 40
4.0
 40
4.0
 10
114.5115226341232
 20
-122.2214838583335
 30
0.0
 10
114.743050683772
 20
-122.5032827471518
 30
0.0
 10
114.782314849437
 20
-122.8546846915085
 30
0.0
 10
114.5983412430194
 20
-123.0055677470264
 30
0.0
 10
114.4143676366019
 20
-123.1564860803218
 30
0.0
 10
114.0781351451799
 20
-123.0496649692376
 30
0.0
 10
113.8459368177704
 20
-122.767866080419
 30
0.0
 10
113.6137384903609
 20
-122.4853616360452
 30
0.0
 10
113.5751446024567
 20
-122.1339596916888
 30
0.0
 10
113.7591182088742
 20
-121.9830766361709
 30
0.0
 10
113.9423862597542
 20
-121.832193580653
 30
0.0
 10
114.2793243067138
 20
-121.9389794139597
 30
0.0
 10
114.5115226341232
 20
-122.2214838583335
 30
0.0
  0
HATCH
  5
B9
330
B4
100
AcDbEntity
  8
_U+30EC_U+30A4_U+30E4_U+30FC 1
 62
     7
420
 16711422
100
AcDbHatch
 10
0.0
 20
0.0
 30
0.0
210
0.0
220
0.0
230
1.0
  2
SOLID
 70
     1
 71
     0
 91
        1
 92
        1
 93
        1
 72
     4
 94
        3
 73
     0
 74
     1
 95
       17
 96
       13
 40
0.0
 40
0.0
 40
0.0
 40
0.0
 40
1.0
 40
1.0
 40
1.0
 40
2.0
 40
2.0
 40
2.0
 40
3.0
 40
3.0
 40
3.0
 40
4.0
 40
4.0
 40
4.0
 40
4.0
 10
114.5115226341232
 20
-122.2214838583335
 10
114.743050683772
 20
-122.5032827471518
 10
114.782314849437
 20
-122.8546846915085
 10
114.5983412430194
 20
-123.0055677470264
 10
114.4143676366019
 20
-123.1564860803218
 10
114.0781351451799
 20
-123.0496649692376
 10
113.8459368177704
 20
-122.767866080419
 10
113.6137384903609
 20
-122.4853616360452
 10
113.5751446024567
 20
-122.1339596916888
 10
113.7591182088742
 20
-121.9830766361709
 10
113.9423862597542
 20
-121.832193580653
 10
114.2793243067138
 20
-121.9389794139597
 10
114.5115226341232
 20
-122.2214838583335
 97
        0
 97
        0
 75
     2
 76
     1
 98
        0
  0
SPLINE
  5
BA
330
B4
100
AcDbEntity
  8
_U+30EC_U+30A4_U+30E4_U+30FC 1
 62
   179
420
  2234388
370
     9
100
AcDbSpline
210
0.0
220
0.0
230
1.0
 70
     8
 71
     3
 72
     8
 73
     4
 74
     0
 42
0.0000000001
 43
0.0000000001
 12
1.0
 22
0.0
 32
0.0
 13
1.0
 23
0.0
 33
0.0
 40
0.0
 40
0.0
 40
0.0
 40
0.0
 40
1.0
 40
1.0
 40
1.0
 40
1.0
 10
114.0815923673139
 20
-121.8872974695283
 30
0.0
 10
114.0815923673139
 20
-121.8872974695283
 30
0.0
 10
114.0815923673139
 20
-122.9159974692711
 30
0.0
 10
114.6693201300975
 20
-122.8870696915005
 30
0.0
  0
ENDBLK
  5
B7
330
B4
100
AcDbEntity
  8
0
100
AcDbBlockEnd
  0
BLOCK
  5
BD
330
BB
100
AcDbEntity
  8
0
100
AcDbBlockBegin
  2
block 7
 70
     0
 10
0.0
 20
0.0
 30
0.0
  3
block 7
  1

  0
SPLINE
  5
BF
330
BB
100
AcDbEntity
  8
_U+30EC_U+30A4_U+30E4_U+30FC 1
 62
   179
420
  2234388
370
     9
100
AcDbSpline
210
0.0
220
0.0
230
1.0
 70
    11
 71
     3
 72
    17
 73
    13
 74
     0
 42
0.0000000001
 43
0.0000000001
 12
1.0
 22
0.0
 32
0.0
 13
1.0
 23
0.0
 33
0.0
 40
0.0
 40
0.0
 40
0.0
 40
0.0
 40
1.0
 40
1.0
 40
1.0
 40
2.0
 40
2.0
 40
2.0
 40
3.0
 40
3.0
 40
3.0
 40
4.0
 40
4.0
 40
4.0
 40
4.0
 10
92.0812065397016
 20
-123.9467788579021
 30
0.0
 10
91.9323695990543
 20
-124.3200530244755
 30
0.0
 10
91.61956386598426
 20
-124.5467480244189
 30
0.0
 10
91.38253016863743
 20
-124.4523446911091
 30
0.0
 10
91.14412295249748
 20
-124.3579413577993
 30
0.0
 10
91.07180350989806
 20
-123.9784935801164
 30
0.0
 10
91.22060517276847
 20
-123.6050430246544
 30
0.0
 10
91.36873886604657
 20
-123.2315924691921
 30
0.0
 10
91.68157988323026
 20
-123.0055677470264
 30
0.0
 10
91.91928154383265
 20
-123.0999710803362
 30
0.0
 10
92.15698320443504
 20
-123.194374413646
 30
0.0
 10
92.22933792481135
 20
-123.5740338579953
 30
0.0
 10
92.0812065397016
 20
-123.9467788579021
 30
0.0
  0
HATCH
  5
C0
330
BB
100
AcDbEntity
  8
_U+30EC_U+30A4_U+30E4_U+30FC 1
 62
     7
420
 16711422
100
AcDbHatch
 10
0.0
 20
0.0
 30
0.0
210
0.0
220
0.0
230
1.0
  2
SOLID
 70
     1
 71
     0
 91
        1
 92
        1
 93
        1
 72
     4
 94
        3
 73
     0
 74
     1
 95
       17
 96
       13
 40
0.0
 40
0.0
 40
0.0
 40
0.0
 40
1.0
 40
1.0
 40
1.0
 40
2.0
 40
2.0
 40
2.0
 40
3.0
 40
3.0
 40
3.0
 40
4.0
 40
4.0
 40
4.0
 40
4.0
 10
92.0812065397016
 20
-123.9467788579021
 10
91.9323695990543
 20
-124.3200530244755
 10
91.61956386598426
 20
-124.5467480244189
 10
91.38253016863743
 20
-124.4523446911091
 10
91.14412295249748
 20
-124.3579413577993
 10
91.07180350989806
 20
-123.9784935801164
 10
91.22060517276847
 20
-123.6050430246544
 10
91.36873886604657
 20
-123.2315924691921
 10
91.68157988323026
 20
-123.0055677470264
 10
91.91928154383265
 20
-123.0999710803362
 10
92.15698320443504
 20
-123.194374413646
 10
92.22933792481135
 20
-123.5740338579953
 10
92.0812065397016
 20
-123.9467788579021
 97
        0
 97
        0
 75
     2
 76
     1
 98
        0
  0
SPLINE
  5
C1
330
BB
100
AcDbEntity
  8
_U+30EC_U+30A4_U+30E4_U+30FC 1
 62
   179
420
  2234388
370
     9
100
AcDbSpline
210
0.0
220
0.0
230
1.0
 70
     8
 71
     3
 72
     8
 73
     4
 74
     0
 42
0.0000000001
 43
0.0000000001
 12
1.0
 22
0.0
 32
0.0
 13
1.0
 23
0.0
 33
0.0
 40
0.0
 40
0.0
 40
0.0
 40
0.0
 40
1.0
 40
1.0
 40
1.0
 40
1.0
 10
91.18754989583401
 20
-124.0184280245511
 30
0.0
 10
91.18754989583401
 20
-124.0184280245511
 30
0.0
 10
92.00334848613237
 20
-124.1066224689735
 30
0.0
 10
91.6285221068061
 20
-123.1144349692215
 30
0.0
  0
ENDBLK
  5
BE
330
BB
100
AcDbEntity
  8
0
100
AcDbBlockEnd
  0
BLOCK
  5
C4
330
C2
100
AcDbEntity
  8
0
100
AcDbBlockBegin
  2
block 8
 70
     0
 10
0.0
 20
0.0
 30
0.0
  3
block 8
  1

  0
SPLINE
  5
C6
330
C2
100
AcDbEntity
  8
_U+30EC_U+30A4_U+30E4_U+30FC 1
 62
   179
420
  2234388
370
     9
100
AcDbSpline
210
0.0
220
0.0
230
1.0
 70
    11
 71
     3
 72
    17
 73
    13
 74
     0
 42
0.0000000001
 43
0.0000000001
 12
1.0
 22
0.0
 32
0.0
 13
1.0
 23
0.0
 33
0.0
 40
0.0
 40
0.0
 40
0.0
 40
0.0
 40
1.0
 40
1.0
 40
1.0
 40
2.0
 40
2.0
 40
2.0
 40
3.0
 40
3.0
 40
3.0
 40
4.0
 40
4.0
 40
4.0
 40
4.0
 10
92.14735237134741
 20
-118.9196955258255
 30
0.0
 10
91.99851543070011
 20
-119.2931460812878
 30
0.0
 10
91.68570738312495
 20
-119.5198410812312
 30
0.0
 10
91.44867600028324
 20
-119.4254377479214
 30
0.0
 10
91.2102687841433
 20
-119.3310344146117
 30
0.0
 10
91.13794934154387
 20
-118.9514102480398
 30
0.0
 10
91.28675100441428
 20
-118.5779596925778
 30
0.0
 10
91.43488238952403
 20
-118.2045091371156
 30
0.0
 10
91.74772571487607
 20
-117.9784844149499
 30
0.0
 10
91.98542737547847
 20
-118.0728877482596
 30
0.0
 10
92.22312903608085
 20
-118.1672910815694
 30
0.0
 10
92.29548608803725
 20
-118.5469505259188
 30
0.0
 10
92.14735237134741
 20
-118.9196955258255
 30
0.0
  0
HATCH
  5
C7
330
C2
100
AcDbEntity
  8
_U+30EC_U+30A4_U+30E4_U+30FC 1
 62
     7
420
 16711422
100
AcDbHatch
 10
0.0
 20
0.0
 30
0.0
210
0.0
220
0.0
230
1.0
  2
SOLID
 70
     1
 71
     0
 91
        1
 92
        1
 93
        1
 72
     4
 94
        3
 73
     0
 74
     1
 95
       17
 96
       13
 40
0.0
 40
0.0
 40
0.0
 40
0.0
 40
1.0
 40
1.0
 40
1.0
 40
2.0
 40
2.0
 40
2.0
 40
3.0
 40
3.0
 40
3.0
 40
4.0
 40
4.0
 40
4.0
 40
4.0
 10
92.14735237134741
 20
-118.9196955258255
 10
91.99851543070011
 20
-119.2931460812878
 10
91.68570738312495
 20
-119.5198410812312
 10
91.44867600028324
 20
-119.4254377479214
 10
91.2102687841433
 20
-119.3310344146117
 10
91.13794934154387
 20
-118.9514102480398
 10
91.28675100441428
 20
-118.5779596925778
 10
91.43488238952403
 20
-118.2045091371156
 10
91.74772571487607
 20
-117.9784844149499
 10
91.98542737547847
 20
-118.0728877482596
 10
92.22312903608085
 20
-118.1672910815694
 10
92.29548608803725
 20
-118.5469505259188
 10
92.14735237134741
 20
-118.9196955258255
 97
        0
 97
        0
 75
     2
 76
     1
 98
        0
  0
SPLINE
  5
C8
330
C2
100
AcDbEntity
  8
_U+30EC_U+30A4_U+30E4_U+30FC 1
 62
   179
420
  2234388
370
     9
100
AcDbSpline
210
0.0
220
0.0
230
1.0
 70
     8
 71
     3
 72
     8
 73
     4
 74
     0
 42
0.0000000001
 43
0.0000000001
 12
1.0
 22
0.0
 32
0.0
 13
1.0
 23
0.0
 33
0.0
 40
0.0
 40
0.0
 40
0.0
 40
0.0
 40
1.0
 40
1.0
 40
1.0
 40
1.0
 10
91.25369572747982
 20
-118.9913446924745
 30
0.0
 10
91.25369572747982
 20
-118.9913446924745
 30
0.0
 10
92.06949431777818
 20
-119.0795391368969
 30
0.0
 10
91.69466793845191
 20
-118.087351637145
 30
0.0
  0
ENDBLK
  5
C5
330
C2
100
AcDbEntity
  8
0
100
AcDbBlockEnd
  0
BLOCK
  5
CB
330
C9
100
AcDbEntity
  8
0
100
AcDbBlockBegin
  2
block 9
 70
     0
 10
0.0
 20
0.0
 30
0.0
  3
block 9
  1

  0
SPLINE
  5
CD
330
C9
100
AcDbEntity
  8
_U+30EC_U+30A4_U+30E4_U+30FC 1
 62
   179
420
  2234388
370
     9
100
AcDbSpline
210
0.0
220
0.0
230
1.0
 70
    11
 71
     3
 72
    17
 73
    13
 74
     0
 42
0.0000000001
 43
0.0000000001
 12
1.0
 22
0.0
 32
0.0
 13
1.0
 23
0.0
 33
0.0
 40
0.0
 40
0.0
 40
0.0
 40
0.0
 40
1.0
 40
1.0
 40
1.0
 40
2.0
 40
2.0
 40
2.0
 40
3.0
 40
3.0
 40
3.0
 40
4.0
 40
4.0
 40
4.0
 40
4.0
 10
88.22287608258026
 20
-121.0804594141742
 30
0.0
 10
88.07403914193296
 20
-121.4539099696365
 30
0.0
 10
87.761233311393
 20
-121.6806049695799
 30
0.0
 10
87.52384693374731
 20
-121.5862016362701
 30
0.0
 10
87.28579249537613
 20
-121.4917983029604
 30
0.0
 10
87.21343777499983
 20
-121.1121741363885
 30
0.0
 10
87.36192193787835
 20
-120.7387235809265
 30
0.0
 10
87.51040831145562
 20
-120.3652730254642
 30
0.0
 10
87.82324942610892
 20
-120.1392483032986
 30
0.0
 10
88.0609510867113
 20
-120.2336516366083
 30
0.0
 10
88.2986527473137
 20
-120.3280549699181
 30
0.0
 10
88.37100746768999
 20
-120.7077144142675
 30
0.0
 10
88.22287608258026
 20
-121.0804594141742
 30
0.0
  0
HATCH
  5
CE
330
C9
100
AcDbEntity
  8
_U+30EC_U+30A4_U+30E4_U+30FC 1
 62
     7
420
 16711422
100
AcDbHatch
 10
0.0
 20
0.0
 30
0.0
210
0.0
220
0.0
230
1.0
  2
SOLID
 70
     1
 71
     0
 91
        1
 92
        1
 93
        1
 72
     4
 94
        3
 73
     0
 74
     1
 95
       17
 96
       13
 40
0.0
 40
0.0
 40
0.0
 40
0.0
 40
1.0
 40
1.0
 40
1.0
 40
2.0
 40
2.0
 40
2.0
 40
3.0
 40
3.0
 40
3.0
 40
4.0
 40
4.0
 40
4.0
 40
4.0
 10
88.22287608258026
 20
-121.0804594141742
 10
88.07403914193296
 20
-121.4539099696365
 10
87.761233311393
 20
-121.6806049695799
 10
87.52384693374731
 20
-121.5862016362701
 10
87.28579249537613
 20
-121.4917983029604
 10
87.21343777499983
 20
-121.1121741363885
 10
87.36192193787835
 20
-120.7387235809265
 10
87.51040831145562
 20
-120.3652730254642
 10
87.82324942610892
 20
-120.1392483032986
 10
88.0609510867113
 20
-120.2336516366083
 10
88.2986527473137
 20
-120.3280549699181
 10
88.37100746768999
 20
-120.7077144142675
 10
88.22287608258026
 20
-121.0804594141742
 97
        0
 97
        0
 75
     2
 76
     1
 98
        0
  0
SPLINE
  5
CF
330
C9
100
AcDbEntity
  8
_U+30EC_U+30A4_U+30E4_U+30FC 1
 62
   179
420
  2234388
370
     9
100
AcDbSpline
210
0.0
220
0.0
230
1.0
 70
     8
 71
     3
 72
     8
 73
     4
 74
     0
 42
0.0000000001
 43
0.0000000001
 12
1.0
 22
0.0
 32
0.0
 13
1.0
 23
0.0
 33
0.0
 40
0.0
 40
0.0
 40
0.0
 40
0.0
 40
1.0
 40
1.0
 40
1.0
 40
1.0
 10
87.32921943871267
 20
-121.1521085808232
 30
0.0
 10
87.32921943871267
 20
-121.1521085808232
 30
0.0
 10
88.14501802901103
 20
-121.2403030252456
 30
0.0
 10
87.77019164968475
 20
-120.2481155254937
 30
0.0
  0
ENDBLK
  5
CC
330
C9
100
AcDbEntity
  8
0
100
AcDbBlockEnd
  0
BLOCK
  5
D2
330
D0
100
AcDbEntity
  8
0
100
AcDbBlockBegin
  2
block 10
 70
     0
 10
0.0
 20
0.0
 30
0.0
  3
block 10
  1

  0
SPLINE
  5
D4
330
D0
100
AcDbEntity
  8
_U+30EC_U+30A4_U+30E4_U+30FC 1
 62
   179
420
  2234388
370
     9
100
AcDbSpline
210
0.0
220
0.0
230
1.0
 70
    11
 71
     3
 72
    17
 73
    13
 74
     0
 42
0.0000000001
 43
0.0000000001
 12
1.0
 22
0.0
 32
0.0
 13
1.0
 23
0.0
 33
0.0
 40
0.0
 40
0.0
 40
0.0
 40
0.0
 40
1.0
 40
1.0
 40
1.0
 40
2.0
 40
2.0
 40
2.0
 40
3.0
 40
3.0
 40
3.0
 40
4.0
 40
4.0
 40
4.0
 40
4.0
 10
88.22287608258026
 20
-126.0853177462563
 30
0.0
 10
88.07403914193296
 20
-126.4587683017186
 30
0.0
 10
87.761233311393
 20
-126.685463301662
 30
0.0
 10
87.52384693374731
 20
-126.5910599683522
 30
0.0
 10
87.28579249537613
 20
-126.4966566350424
 30
0.0
 10
87.21343777499983
 20
-126.1170324684706
 30
0.0
 10
87.36192193787835
 20
-125.7435819130086
 30
0.0
 10
87.51040831145562
 20
-125.3701313575463
 30
0.0
 10
87.82324942610892
 20
-125.1441419131585
 30
0.0
 10
88.0609510867113
 20
-125.2385099686904
 30
0.0
 10
88.2986527473137
 20
-125.3329133020002
 30
0.0
 10
88.37100746768999
 20
-125.7125727463496
 30
0.0
 10
88.22287608258026
 20
-126.0853177462563
 30
0.0
  0
HATCH
  5
D5
330
D0
100
AcDbEntity
  8
_U+30EC_U+30A4_U+30E4_U+30FC 1
 62
     7
420
 16711422
100
AcDbHatch
 10
0.0
 20
0.0
 30
0.0
210
0.0
220
0.0
230
1.0
  2
SOLID
 70
     1
 71
     0
 91
        1
 92
        1
 93
        1
 72
     4
 94
        3
 73
     0
 74
     1
 95
       17
 96
       13
 40
0.0
 40
0.0
 40
0.0
 40
0.0
 40
1.0
 40
1.0
 40
1.0
 40
2.0
 40
2.0
 40
2.0
 40
3.0
 40
3.0
 40
3.0
 40
4.0
 40
4.0
 40
4.0
 40
4.0
 10
88.22287608258026
 20
-126.0853177462563
 10
88.07403914193296
 20
-126.4587683017186
 10
87.761233311393
 20
-126.685463301662
 10
87.52384693374731
 20
-126.5910599683522
 10
87.28579249537613
 20
-126.4966566350424
 10
87.21343777499983
 20
-126.1170324684706
 10
87.36192193787835
 20
-125.7435819130086
 10
87.51040831145562
 20
-125.3701313575463
 10
87.82324942610892
 20
-125.1441419131585
 10
88.0609510867113
 20
-125.2385099686904
 10
88.2986527473137
 20
-125.3329133020002
 10
88.37100746768999
 20
-125.7125727463496
 10
88.22287608258026
 20
-126.0853177462563
 97
        0
 97
        0
 75
     2
 76
     1
 98
        0
  0
SPLINE
  5
D6
330
D0
100
AcDbEntity
  8
_U+30EC_U+30A4_U+30E4_U+30FC 1
 62
   179
420
  2234388
370
     9
100
AcDbSpline
210
0.0
220
0.0
230
1.0
 70
     8
 71
     3
 72
     8
 73
     4
 74
     0
 42
0.0000000001
 43
0.0000000001
 12
1.0
 22
0.0
 32
0.0
 13
1.0
 23
0.0
 33
0.0
 40
0.0
 40
0.0
 40
0.0
 40
0.0
 40
1.0
 40
1.0
 40
1.0
 40
1.0
 10
87.32921943871267
 20
-126.1570021906828
 30
0.0
 10
87.32921943871267
 20
-126.1570021906828
 30
0.0
 10
88.14501802901103
 20
-126.2451966351052
 30
0.0
 10
87.77019164968475
 20
-125.2530091353533
 30
0.0
  0
ENDBLK
  5
D3
330
D0
100
AcDbEntity
  8
0
100
AcDbBlockEnd
  0
BLOCK
  5
10E
330
10C
100
AcDbEntity
  8
0
100
AcDbBlockBegin
  2
block 11
 70
     0
 10
0.0
 20
0.0
 30
0.0
  3
block 11
  1

  0
SPLINE
  5
110
330
10C
100
AcDbEntity
  8
_U+30EC_U+30A4_U+30E4_U+30FC 1
370
     0
100
AcDbSpline
210
0.0
220
0.0
230
1.0
 70
    11
 71
     3
 72
    26
 73
    22
 74
     0
 42
0.0000000001
 43
0.0000000001
 12
1.0
 22
0.0
 32
0.0
 13
1.0
 23
0.0
 33
0.0
 40
0.0
 40
0.0
 40
0.0
 40
0.0
 40
1.0
 40
1.0
 40
1.0
 40
2.0
 40
2.0
 40
2.0
 40
3.0
 40
3.0
 40
3.0
 40
4.0
 40
4.0
 40
4.0
 40
5.0
 40
5.0
 40
5.0
 40
6.0
 40
6.0
 40
6.0
 40
7.0
 40
7.0
 40
7.0
 40
7.0
 10
93.41410859209786
 20
-110.1279893387875
 30
0.0
 10
93.41410859209786
 20
-110.1279893387875
 30
0.0
 10
93.17708602271267
 20
-110.1279893387875
 30
0.0
 10
93.17708602271267
 20
-110.1279893387875
 30
0.0
 10
93.20257972930352
 20
-109.8191365285348
 30
0.0
 10
93.395160566929
 20
-109.300821912779
 30
0.0
 10
93.80133732463995
 20
-108.7952541503186
 30
0.0
 10
93.80133732463995
 20
-108.7952541503186
 30
0.0
 10
92.96349010262719
 20
-108.7952541503186
 30
0.0
 10
92.96349010262719
 20
-108.7952541503186
 30
0.0
 10
92.96349010262719
 20
-108.7952541503186
 30
0.0
 10
92.96349010262719
 20
-108.5837252875242
 30
0.0
 10
92.96349010262719
 20
-108.5837252875242
 30
0.0
 10
92.96349010262719
 20
-108.5837252875242
 30
0.0
 10
94.03835989402513
 20
-108.5837252875242
 30
0.0
 10
94.03835989402513
 20
-108.5837252875242
 30
0.0
 10
94.03835989402513
 20
-108.5837252875242
 30
0.0
 10
94.03835989402513
 20
-108.7952541503186
 30
0.0
 10
94.03835989402513
 20
-108.7952541503186
 30
0.0
 10
93.71452091841165
 20
-109.0849866806281
 30
0.0
 10
93.44787052785331
 20
-109.6773708493168
 30
0.0
 10
93.41410859209786
 20
-110.1279893387875
 30
0.0
  0
HATCH
  5
111
330
10C
100
AcDbEntity
  8
_U+30EC_U+30A4_U+30E4_U+30FC 1
 62
   179
420
  2234388
100
AcDbHatch
 10
0.0
 20
0.0
 30
0.0
210
0.0
220
0.0
230
1.0
  2
SOLID
 70
     1
 71
     0
 91
        1
 92
        1
 93
        1
 72
     4
 94
        3
 73
     0
 74
     1
 95
       26
 96
       22
 40
0.0
 40
0.0
 40
0.0
 40
0.0
 40
1.0
 40
1.0
 40
1.0
 40
2.0
 40
2.0
 40
2.0
 40
3.0
 40
3.0
 40
3.0
 40
4.0
 40
4.0
 40
4.0
 40
5.0
 40
5.0
 40
5.0
 40
6.0
 40
6.0
 40
6.0
 40
7.0
 40
7.0
 40
7.0
 40
7.0
 10
93.41410859209786
 20
-110.1279893387875
 10
93.41410859209786
 20
-110.1279893387875
 10
93.17708602271267
 20
-110.1279893387875
 10
93.17708602271267
 20
-110.1279893387875
 10
93.20257972930352
 20
-109.8191365285348
 10
93.395160566929
 20
-109.300821912779
 10
93.80133732463995
 20
-108.7952541503186
 10
93.80133732463995
 20
-108.7952541503186
 10
92.96349010262719
 20
-108.7952541503186
 10
92.96349010262719
 20
-108.7952541503186
 10
92.96349010262719
 20
-108.7952541503186
 10
92.96349010262719
 20
-108.5837252875242
 10
92.96349010262719
 20
-108.5837252875242
 10
92.96349010262719
 20
-108.5837252875242
 10
94.03835989402513
 20
-108.5837252875242
 10
94.03835989402513
 20
-108.5837252875242
 10
94.03835989402513
 20
-108.5837252875242
 10
94.03835989402513
 20
-108.7952541503186
 10
94.03835989402513
 20
-108.7952541503186
 10
93.71452091841165
 20
-109.0849866806281
 10
93.44787052785331
 20
-109.6773708493168
 10
93.41410859209786
 20
-110.1279893387875
 97
        0
 97
        0
 75
     2
 76
     1
 98
        0
  0
POLYLINE
  5
112
330
10C
100
AcDbEntity
  8
_U+30EC_U+30A4_U+30E4_U+30FC 1
370
     0
100
AcDb2dPolyline
 66
     1
 10
0.0
 20
0.0
 30
0.0
  0
VERTEX
  5
113
330
112
100
AcDbEntity
  8
_U+30EC_U+30A4_U+30E4_U+30FC 1
370
     0
100
AcDbVertex
100
AcDb2dVertex
 10
95.01194387815674
 20
-109.7810682234228
 30
0.0
  0
VERTEX
  5
114
330
112
100
AcDbEntity
  8
_U+30EC_U+30A4_U+30E4_U+30FC 1
370
     0
100
AcDbVertex
100
AcDb2dVertex
 10
95.01194387815674
 20
-110.1279893387875
 30
0.0
  0
VERTEX
  5
115
330
112
100
AcDbEntity
  8
_U+30EC_U+30A4_U+30E4_U+30FC 1
370
     0
100
AcDbVertex
100
AcDb2dVertex
 10
94.79421384348895
 20
-110.1279893387875
 30
0.0
  0
VERTEX
  5
116
330
112
100
AcDbEntity
  8
_U+30EC_U+30A4_U+30E4_U+30FC 1
370
     0
100
AcDbVertex
100
AcDb2dVertex
 10
94.79421384348895
 20
-109.7810682234228
 30
0.0
  0
VERTEX
  5
117
330
112
100
AcDbEntity
  8
_U+30EC_U+30A4_U+30E4_U+30FC 1
370
     0
100
AcDbVertex
100
AcDb2dVertex
 10
94.13826766309738
 20
-109.7810682234228
 30
0.0
  0
VERTEX
  5
118
330
112
100
AcDbEntity
  8
_U+30EC_U+30A4_U+30E4_U+30FC 1
370
     0
100
AcDbVertex
100
AcDb2dVertex
 10
94.13826766309738
 20
-109.556792507333
 30
0.0
  0
VERTEX
  5
119
330
112
100
AcDbEntity
  8
_U+30EC_U+30A4_U+30E4_U+30FC 1
370
     0
100
AcDbVertex
100
AcDb2dVertex
 10
94.81729598324013
 20
-108.5837252875242
 30
0.0
  0
VERTEX
  5
11A
330
112
100
AcDbEntity
  8
_U+30EC_U+30A4_U+30E4_U+30FC 1
370
     0
100
AcDbVertex
100
AcDb2dVertex
 10
95.01194387815674
 20
-108.5837252875242
 30
0.0
  0
VERTEX
  5
11B
330
112
100
AcDbEntity
  8
_U+30EC_U+30A4_U+30E4_U+30FC 1
370
     0
100
AcDbVertex
100
AcDb2dVertex
 10
95.01194387815674
 20
-109.5821139591496
 30
0.0
  0
VERTEX
  5
11C
330
112
100
AcDbEntity
  8
_U+30EC_U+30A4_U+30E4_U+30FC 1
370
     0
100
AcDbVertex
100
AcDb2dVertex
 10
95.21933862636878
 20
-109.5821139591496
 30
0.0
  0
VERTEX
  5
11D
330
112
100
AcDbEntity
  8
_U+30EC_U+30A4_U+30E4_U+30FC 1
370
     0
100
AcDbVertex
100
AcDb2dVertex
 10
95.21933862636878
 20
-109.7810682234228
 30
0.0
  0
VERTEX
  5
11E
330
112
100
AcDbEntity
  8
_U+30EC_U+30A4_U+30E4_U+30FC 1
370
     0
100
AcDbVertex
100
AcDb2dVertex
 10
95.01194387815674
 20
-109.7810682234228
 30
0.0
  0
SEQEND
  5
11F
330
112
100
AcDbEntity
  8
_U+30EC_U+30A4_U+30E4_U+30FC 1
370
     0
  0
POLYLINE
  5
120
330
10C
100
AcDbEntity
  8
_U+30EC_U+30A4_U+30E4_U+30FC 1
370
     0
100
AcDb2dPolyline
 66
     1
 10
0.0
 20
0.0
 30
0.0
  0
VERTEX
  5
121
330
120
100
AcDbEntity
  8
_U+30EC_U+30A4_U+30E4_U+30FC 1
370
     0
100
AcDbVertex
100
AcDb2dVertex
 10
94.79421384348895
 20
-108.9263400335323
 30
0.0
  0
VERTEX
  5
122
330
120
100
AcDbEntity
  8
_U+30EC_U+30A4_U+30E4_U+30FC 1
370
     0
100
AcDbVertex
100
AcDb2dVertex
 10
94.3370496725963
 20
-109.5821139591496
 30
0.0
  0
VERTEX
  5
123
330
120
100
AcDbEntity
  8
_U+30EC_U+30A4_U+30E4_U+30FC 1
370
     0
100
AcDbVertex
100
AcDb2dVertex
 10
94.79421384348895
 20
-109.5821139591496
 30
0.0
  0
VERTEX
  5
124
330
120
100
AcDbEntity
  8
_U+30EC_U+30A4_U+30E4_U+30FC 1
370
     0
100
AcDbVertex
100
AcDb2dVertex
 10
94.79421384348895
 20
-108.9263400335323
 30
0.0
  0
SEQEND
  5
125
330
120
100
AcDbEntity
  8
_U+30EC_U+30A4_U+30E4_U+30FC 1
370
     0
  0
HATCH
  5
126
330
10C
100
AcDbEntity
  8
_U+30EC_U+30A4_U+30E4_U+30FC 1
 62
   179
420
  2234388
100
AcDbHatch
 10
0.0
 20
0.0
 30
0.0
210
0.0
220
0.0
230
1.0
  2
SOLID
 70
     1
 71
     0
 91
        2
 92
        1
 93
       11
 72
     1
 10
95.01194387815674
 20
-109.7810682234228
 11
95.01194387815674
 21
-110.1279893387875
 72
     1
 10
95.01194387815674
 20
-110.1279893387875
 11
94.79421384348895
 21
-110.1279893387875
 72
     1
 10
94.79421384348895
 20
-110.1279893387875
 11
94.79421384348895
 21
-109.7810682234228
 72
     1
 10
94.79421384348895
 20
-109.7810682234228
 11
94.13826766309738
 21
-109.7810682234228
 72
     1
 10
94.13826766309738
 20
-109.7810682234228
 11
94.13826766309738
 21
-109.556792507333
 72
     1
 10
94.13826766309738
 20
-109.556792507333
 11
94.81729598324013
 21
-108.5837252875242
 72
     1
 10
94.81729598324013
 20
-108.5837252875242
 11
95.01194387815674
 21
-108.5837252875242
 72
     1
 10
95.01194387815674
 20
-108.5837252875242
 11
95.01194387815674
 21
-109.5821139591496
 72
     1
 10
95.01194387815674
 20
-109.5821139591496
 11
95.21933862636878
 21
-109.5821139591496
 72
     1
 10
95.21933862636878
 20
-109.5821139591496
 11
95.21933862636878
 21
-109.7810682234228
 72
     1
 10
95.21933862636878
 20
-109.7810682234228
 11
95.01194387815674
 21
-109.7810682234228
 97
        0
 92
        1
 93
        3
 72
     1
 10
94.79421384348895
 20
-108.9263400335323
 11
94.3370496725963
 21
-109.5821139591496
 72
     1
 10
94.3370496725963
 20
-109.5821139591496
 11
94.79421384348895
 21
-109.5821139591496
 72
     1
 10
94.79421384348895
 20
-109.5821139591496
 11
94.79421384348895
 21
-108.9263400335323
 97
        0
 75
     2
 76
     1
 98
        0
  0
ENDBLK
  5
10F
330
10C
100
AcDbEntity
  8
0
100
AcDbBlockEnd
  0
BLOCK
  5
129
330
127
100
AcDbEntity
  8
0
100
AcDbBlockBegin
  2
block 12
 70
     0
 10
0.0
 20
0.0
 30
0.0
  3
block 12
  1

  0
SPLINE
  5
12B
330
127
100
AcDbEntity
  8
_U+30EC_U+30A4_U+30E4_U+30FC 1
370
     0
100
AcDbSpline
210
0.0
220
0.0
230
1.0
 70
    11
 71
     3
 72
    53
 73
    49
 74
     0
 42
0.0000000001
 43
0.0000000001
 12
1.0
 22
0.0
 32
0.0
 13
1.0
 23
0.0
 33
0.0
 40
0.0
 40
0.0
 40
0.0
 40
0.0
 40
1.0
 40
1.0
 40
1.0
 40
2.0
 40
2.0
 40
2.0
 40
3.0
 40
3.0
 40
3.0
 40
4.0
 40
4.0
 40
4.0
 40
5.0
 40
5.0
 40
5.0
 40
6.0
 40
6.0
 40
6.0
 40
7.0
 40
7.0
 40
7.0
 40
8.0
 40
8.0
 40
8.0
 40
9.0
 40
9.0
 40
9.0
 40
10.0
 40
10.0
 40
10.0
 40
11.0
 40
11.0
 40
11.0
 40
12.0
 40
12.0
 40
12.0
 40
13.0
 40
13.0
 40
13.0
 40
14.0
 40
14.0
 40
14.0
 40
15.0
 40
15.0
 40
15.0
 40
16.0
 40
16.0
 40
16.0
 40
16.0
 10
110.1817328283574
 20
-108.2385267199022
 30
0.0
 10
110.1035291608422
 20
-108.2385267199022
 30
0.0
 10
110.0018988440273
 20
-108.2214734972502
 30
0.0
 10
109.9002685272124
 20
-108.1580837403216
 30
0.0
 10
109.7269802243044
 20
-108.0480129395679
 30
0.0
 10
109.7056206322958
 20
-107.9169270563541
 30
0.0
 10
109.686672607127
 20
-107.8090955676658
 30
0.0
 10
109.686672607127
 20
-107.8090955676658
 30
0.0
 10
109.9088812659256
 20
-107.8090955676658
 30
0.0
 10
109.9088812659256
 20
-107.8090955676658
 30
0.0
 10
109.963658284141
 20
-108.0078775771647
 30
0.0
 10
110.0907823075468
 20
-108.0375053983379
 30
0.0
 10
110.1837998856485
 20
-108.0375053983379
 30
0.0
 10
110.3233262528011
 20
-108.0375053983379
 30
0.0
 10
110.4755994732492
 20
-107.9381143935884
 30
0.0
 10
110.4755994732492
 20
-107.7053981935598
 30
0.0
 10
110.4755994732492
 20
-107.4494275990057
 30
0.0
 10
110.2957654889191
 20
-107.3796644154294
 30
0.0
 10
110.1751871469354
 20
-107.3796644154294
 30
0.0
 10
110.1434922684711
 20
-107.3796644154294
 30
0.0
 10
110.0018988440273
 20
-107.3796644154294
 30
0.0
 10
109.9130153805079
 20
-107.508683241352
 30
0.0
 10
109.9130153805079
 20
-107.508683241352
 30
0.0
 10
109.7373155107601
 20
-107.4895629614089
 30
0.0
 10
109.7373155107601
 20
-107.4895629614089
 30
0.0
 10
109.7373155107601
 20
-107.4895629614089
 30
0.0
 10
109.8578938527439
 20
-106.6434475102315
 30
0.0
 10
109.8578938527439
 20
-106.6434475102315
 30
0.0
 10
109.8578938527439
 20
-106.6434475102315
 30
0.0
 10
110.6364854324103
 20
-106.6434475102315
 30
0.0
 10
110.6364854324103
 20
-106.6434475102315
 30
0.0
 10
110.6364854324103
 20
-106.6434475102315
 30
0.0
 10
110.6364854324103
 20
-106.8380954051481
 30
0.0
 10
110.6364854324103
 20
-106.8380954051481
 30
0.0
 10
110.6364854324103
 20
-106.8380954051481
 30
0.0
 10
110.0208468691962
 20
-106.8380954051481
 30
0.0
 10
110.0208468691962
 20
-106.8380954051481
 30
0.0
 10
110.0208468691962
 20
-106.8380954051481
 30
0.0
 10
109.9553900549764
 20
-107.2611531307368
 30
0.0
 10
109.9553900549764
 20
-107.2611531307368
 30
0.0
 10
110.0167127546139
 20
-107.2272189402071
 30
0.0
 10
110.0990505367114
 20
-107.1870835778039
 30
0.0
 10
110.2175618214039
 20
-107.1870835778039
 30
0.0
 10
110.4714653586669
 20
-107.1870835778039
 30
0.0
 10
110.7084879280521
 20
-107.3732909887817
 30
0.0
 10
110.7084879280521
 20
-107.6862779136166
 30
0.0
 10
110.7084879280521
 20
-108.0037434625824
 30
0.0
 10
110.4842122119623
 20
-108.2385267199022
 30
0.0
 10
110.1817328283574
 20
-108.2385267199022
 30
0.0
  0
HATCH
  5
12C
330
127
100
AcDbEntity
  8
_U+30EC_U+30A4_U+30E4_U+30FC 1
 62
   179
420
  2234388
100
AcDbHatch
 10
0.0
 20
0.0
 30
0.0
210
0.0
220
0.0
230
1.0
  2
SOLID
 70
     1
 71
     0
 91
        1
 92
        1
 93
        1
 72
     4
 94
        3
 73
     0
 74
     1
 95
       53
 96
       49
 40
0.0
 40
0.0
 40
0.0
 40
0.0
 40
1.0
 40
1.0
 40
1.0
 40
2.0
 40
2.0
 40
2.0
 40
3.0
 40
3.0
 40
3.0
 40
4.0
 40
4.0
 40
4.0
 40
5.0
 40
5.0
 40
5.0
 40
6.0
 40
6.0
 40
6.0
 40
7.0
 40
7.0
 40
7.0
 40
8.0
 40
8.0
 40
8.0
 40
9.0
 40
9.0
 40
9.0
 40
10.0
 40
10.0
 40
10.0
 40
11.0
 40
11.0
 40
11.0
 40
12.0
 40
12.0
 40
12.0
 40
13.0
 40
13.0
 40
13.0
 40
14.0
 40
14.0
 40
14.0
 40
15.0
 40
15.0
 40
15.0
 40
16.0
 40
16.0
 40
16.0
 40
16.0
 10
110.1817328283574
 20
-108.2385267199022
 10
110.1035291608422
 20
-108.2385267199022
 10
110.0018988440273
 20
-108.2214734972502
 10
109.9002685272124
 20
-108.1580837403216
 10
109.7269802243044
 20
-108.0480129395679
 10
109.7056206322958
 20
-107.9169270563541
 10
109.686672607127
 20
-107.8090955676658
 10
109.686672607127
 20
-107.8090955676658
 10
109.9088812659256
 20
-107.8090955676658
 10
109.9088812659256
 20
-107.8090955676658
 10
109.963658284141
 20
-108.0078775771647
 10
110.0907823075468
 20
-108.0375053983379
 10
110.1837998856485
 20
-108.0375053983379
 10
110.3233262528011
 20
-108.0375053983379
 10
110.4755994732492
 20
-107.9381143935884
 10
110.4755994732492
 20
-107.7053981935598
 10
110.4755994732492
 20
-107.4494275990057
 10
110.2957654889191
 20
-107.3796644154294
 10
110.1751871469354
 20
-107.3796644154294
 10
110.1434922684711
 20
-107.3796644154294
 10
110.0018988440273
 20
-107.3796644154294
 10
109.9130153805079
 20
-107.508683241352
 10
109.9130153805079
 20
-107.508683241352
 10
109.7373155107601
 20
-107.4895629614089
 10
109.7373155107601
 20
-107.4895629614089
 10
109.7373155107601
 20
-107.4895629614089
 10
109.8578938527439
 20
-106.6434475102315
 10
109.8578938527439
 20
-106.6434475102315
 10
109.8578938527439
 20
-106.6434475102315
 10
110.6364854324103
 20
-106.6434475102315
 10
110.6364854324103
 20
-106.6434475102315
 10
110.6364854324103
 20
-106.6434475102315
 10
110.6364854324103
 20
-106.8380954051481
 10
110.6364854324103
 20
-106.8380954051481
 10
110.6364854324103
 20
-106.8380954051481
 10
110.0208468691962
 20
-106.8380954051481
 10
110.0208468691962
 20
-106.8380954051481
 10
110.0208468691962
 20
-106.8380954051481
 10
109.9553900549764
 20
-107.2611531307368
 10
109.9553900549764
 20
-107.2611531307368
 10
110.0167127546139
 20
-107.2272189402071
 10
110.0990505367114
 20
-107.1870835778039
 10
110.2175618214039
 20
-107.1870835778039
 10
110.4714653586669
 20
-107.1870835778039
 10
110.7084879280521
 20
-107.3732909887817
 10
110.7084879280521
 20
-107.6862779136166
 10
110.7084879280521
 20
-108.0037434625824
 10
110.4842122119623
 20
-108.2385267199022
 10
110.1817328283574
 20
-108.2385267199022
 97
        0
 97
        0
 75
     2
 76
     1
 98
        0
  0
SPLINE
  5
12D
330
127
100
AcDbEntity
  8
_U+30EC_U+30A4_U+30E4_U+30FC 1
370
     0
100
AcDbSpline
210
0.0
220
0.0
230
1.0
 70
    11
 71
     3
 72
    29
 73
    25
 74
     0
 42
0.0000000001
 43
0.0000000001
 12
1.0
 22
0.0
 32
0.0
 13
1.0
 23
0.0
 33
0.0
 40
0.0
 40
0.0
 40
0.0
 40
0.0
 40
1.0
 40
1.0
 40
1.0
 40
2.0
 40
2.0
 40
2.0
 40
3.0
 40
3.0
 40
3.0
 40
4.0
 40
4.0
 40
4.0
 40
5.0
 40
5.0
 40
5.0
 40
6.0
 40
6.0
 40
6.0
 40
7.0
 40
7.0
 40
7.0
 40
8.0
 40
8.0
 40
8.0
 40
8.0
 10
111.7754339998339
 20
-108.0099446344558
 30
0.0
 10
111.6672580015971
 20
-108.219406439959
 30
0.0
 10
111.493969698689
 20
-108.2385267199022
 30
0.0
 10
111.3775254712876
 20
-108.2385267199022
 30
0.0
 10
111.2166395121264
 20
-108.2385267199022
 30
0.0
 10
111.0750460876826
 20
-108.1920179308513
 30
0.0
 10
110.9799614522897
 20
-108.0099446344558
 30
0.0
 10
110.8762640781837
 20
-107.8152967395392
 30
0.0
 10
110.8573160530148
 20
-107.5784464249283
 30
0.0
 10
110.8573160530148
 20
-107.415493408476
 30
0.0
 10
110.8573160530148
 20
-107.2716606719668
 30
0.0
 10
110.8741970208926
 20
-107.0199964467693
 30
0.0
 10
110.9799614522897
 20
-106.8210421824961
 30
0.0
 10
111.0877929409781
 20
-106.6179538036407
 30
0.0
 10
111.2486789001392
 20
-106.5946994091152
 30
0.0
 10
111.3775254712876
 20
-106.5946994091152
 30
0.0
 10
111.5363443731576
 20
-106.5946994091152
 30
0.0
 10
111.6800048548925
 20
-106.6391411408749
 30
0.0
 10
111.7754339998339
 20
-106.8210421824961
 30
0.0
 10
111.8746527498091
 20
-107.0136230201216
 30
0.0
 10
111.8980793991088
 20
-107.2420328507937
 30
0.0
 10
111.8980793991088
 20
-107.415493408476
 30
0.0
 10
111.8980793991088
 20
-107.5868869088672
 30
0.0
 10
111.8767198071003
 20
-107.8175360516046
 30
0.0
 10
111.7754339998339
 20
-108.0099446344558
 30
0.0
  0
SPLINE
  5
12E
330
127
100
AcDbEntity
  8
_U+30EC_U+30A4_U+30E4_U+30FC 1
370
     0
100
AcDbSpline
210
0.0
220
0.0
230
1.0
 70
    11
 71
     3
 72
    17
 73
    13
 74
     0
 42
0.0000000001
 43
0.0000000001
 12
1.0
 22
0.0
 32
0.0
 13
1.0
 23
0.0
 33
0.0
 40
0.0
 40
0.0
 40
0.0
 40
0.0
 40
1.0
 40
1.0
 40
1.0
 40
2.0
 40
2.0
 40
2.0
 40
3.0
 40
3.0
 40
3.0
 40
4.0
 40
4.0
 40
4.0
 40
4.0
 10
111.3775254712876
 20
-106.7872802467407
 30
0.0
 10
111.1281005581555
 20
-106.7872802467407
 30
0.0
 10
111.0812472595561
 20
-107.0708116051767
 30
0.0
 10
111.0812472595561
 20
-107.415493408476
 30
0.0
 10
111.0812472595561
 20
-107.7350260147329
 30
0.0
 10
111.1174207621512
 20
-108.0438788249856
 30
0.0
 10
111.3775254712876
 20
-108.0438788249856
 30
0.0
 10
111.625227836677
 20
-108.0438788249856
 30
0.0
 10
111.6738036830191
 20
-107.7624145238406
 30
0.0
 10
111.6738036830191
 20
-107.415493408476
 30
0.0
 10
111.6738036830191
 20
-107.0961330569933
 30
0.0
 10
111.6355631231328
 20
-106.7872802467407
 30
0.0
 10
111.3775254712876
 20
-106.7872802467407
 30
0.0
  0
HATCH
  5
12F
330
127
100
AcDbEntity
  8
_U+30EC_U+30A4_U+30E4_U+30FC 1
 62
   179
420
  2234388
100
AcDbHatch
 10
0.0
 20
0.0
 30
0.0
210
0.0
220
0.0
230
1.0
  2
SOLID
 70
     1
 71
     0
 91
        2
 92
        1
 93
        1
 72
     4
 94
        3
 73
     0
 74
     1
 95
       29
 96
       25
 40
0.0
 40
0.0
 40
0.0
 40
0.0
 40
1.0
 40
1.0
 40
1.0
 40
2.0
 40
2.0
 40
2.0
 40
3.0
 40
3.0
 40
3.0
 40
4.0
 40
4.0
 40
4.0
 40
5.0
 40
5.0
 40
5.0
 40
6.0
 40
6.0
 40
6.0
 40
7.0
 40
7.0
 40
7.0
 40
8.0
 40
8.0
 40
8.0
 40
8.0
 10
111.7754339998339
 20
-108.0099446344558
 10
111.6672580015971
 20
-108.219406439959
 10
111.493969698689
 20
-108.2385267199022
 10
111.3775254712876
 20
-108.2385267199022
 10
111.2166395121264
 20
-108.2385267199022
 10
111.0750460876826
 20
-108.1920179308513
 10
110.9799614522897
 20
-108.0099446344558
 10
110.8762640781837
 20
-107.8152967395392
 10
110.8573160530148
 20
-107.5784464249283
 10
110.8573160530148
 20
-107.415493408476
 10
110.8573160530148
 20
-107.2716606719668
 10
110.8741970208926
 20
-107.0199964467693
 10
110.9799614522897
 20
-106.8210421824961
 10
111.0877929409781
 20
-106.6179538036407
 10
111.2486789001392
 20
-106.5946994091152
 10
111.3775254712876
 20
-106.5946994091152
 10
111.5363443731576
 20
-106.5946994091152
 10
111.6800048548925
 20
-106.6391411408749
 10
111.7754339998339
 20
-106.8210421824961
 10
111.8746527498091
 20
-107.0136230201216
 10
111.8980793991088
 20
-107.2420328507937
 10
111.8980793991088
 20
-107.415493408476
 10
111.8980793991088
 20
-107.5868869088672
 10
111.8767198071003
 20
-107.8175360516046
 10
111.7754339998339
 20
-108.0099446344558
 97
        0
 97
        0
 92
        1
 93
        1
 72
     4
 94
        3
 73
     0
 74
     1
 95
       17
 96
       13
 40
0.0
 40
0.0
 40
0.0
 40
0.0
 40
1.0
 40
1.0
 40
1.0
 40
2.0
 40
2.0
 40
2.0
 40
3.0
 40
3.0
 40
3.0
 40
4.0
 40
4.0
 40
4.0
 40
4.0
 10
111.3775254712876
 20
-106.7872802467407
 10
111.1281005581555
 20
-106.7872802467407
 10
111.0812472595561
 20
-107.0708116051767
 10
111.0812472595561
 20
-107.415493408476
 10
111.0812472595561
 20
-107.7350260147329
 10
111.1174207621512
 20
-108.0438788249856
 10
111.3775254712876
 20
-108.0438788249856
 10
111.625227836677
 20
-108.0438788249856
 10
111.6738036830191
 20
-107.7624145238406
 10
111.6738036830191
 20
-107.415493408476
 10
111.6738036830191
 20
-107.0961330569933
 10
111.6355631231328
 20
-106.7872802467407
 10
111.3775254712876
 20
-106.7872802467407
 97
        0
 97
        0
 75
     2
 76
     1
 98
        0
  0
ENDBLK
  5
12A
330
127
100
AcDbEntity
  8
0
100
AcDbBlockEnd
  0
BLOCK
  5
132
330
130
100
AcDbEntity
  8
0
100
AcDbBlockBegin
  2
block 13
 70
     0
 10
0.0
 20
0.0
 30
0.0
  3
block 13
  1

  0
SPLINE
  5
134
330
130
100
AcDbEntity
  8
_U+30EC_U+30A4_U+30E4_U+30FC 1
370
     0
100
AcDbSpline
210
0.0
220
0.0
230
1.0
 70
    11
 71
     3
 72
    62
 73
    58
 74
     0
 42
0.0000000001
 43
0.0000000001
 12
1.0
 22
0.0
 32
0.0
 13
1.0
 23
0.0
 33
0.0
 40
0.0
 40
0.0
 40
0.0
 40
0.0
 40
1.0
 40
1.0
 40
1.0
 40
2.0
 40
2.0
 40
2.0
 40
3.0
 40
3.0
 40
3.0
 40
4.0
 40
4.0
 40
4.0
 40
5.0
 40
5.0
 40
5.0
 40
6.0
 40
6.0
 40
6.0
 40
7.0
 40
7.0
 40
7.0
 40
8.0
 40
8.0
 40
8.0
 40
9.0
 40
9.0
 40
9.0
 40
10.0
 40
10.0
 40
10.0
 40
11.0
 40
11.0
 40
11.0
 40
12.0
 40
12.0
 40
12.0
 40
13.0
 40
13.0
 40
13.0
 40
14.0
 40
14.0
 40
14.0
 40
15.0
 40
15.0
 40
15.0
 40
16.0
 40
16.0
 40
16.0
 40
17.0
 40
17.0
 40
17.0
 40
18.0
 40
18.0
 40
18.0
 40
19.0
 40
19.0
 40
19.0
 40
19.0
 10
119.3646348442908
 20
-124.1131822063849
 30
0.0
 10
119.2692056993494
 20
-124.1131822063849
 30
0.0
 10
119.0514756646816
 20
-124.0919948691506
 30
0.0
 10
118.926418698567
 20
-123.9057874581729
 30
0.0
 10
118.8523491456341
 20
-123.793649600128
 30
0.0
 10
118.8482150310518
 20
-123.6942585953785
 30
0.0
 10
118.8440809164695
 20
-123.6096815012156
 30
0.0
 10
118.8440809164695
 20
-123.6096815012156
 30
0.0
 10
119.064222517977
 20
-123.6096815012156
 30
0.0
 10
119.064222517977
 20
-123.6096815012156
 30
0.0
 10
119.0662895752682
 20
-123.6837510541485
 30
0.0
 10
119.0766248617239
 20
-123.9185343114683
 30
0.0
 10
119.36015622016
 20
-123.9185343114683
 30
0.0
 10
119.4976155300214
 20
-123.9185343114683
 30
0.0
 10
119.650233260018
 20
-123.848771127892
 30
0.0
 10
119.650233260018
 20
-123.6201890424457
 30
0.0
 10
119.650233260018
 20
-123.5039170698185
 30
0.0
 10
119.6119927001317
 20
-123.4551689687022
 30
0.0
 10
119.5802978216674
 20
-123.4234740902379
 30
0.0
 10
119.5062282687346
 20
-123.349404537305
 30
0.0
 10
119.3897840413331
 20
-123.3368299387839
 30
0.0
 10
119.3350070231176
 20
-123.3368299387839
 30
0.0
 10
119.3157144884002
 20
-123.3368299387839
 30
0.0
 10
119.2798854953536
 20
-123.338896996075
 30
0.0
 10
119.2523247314716
 20
-123.3430311106573
 30
0.0
 10
119.2523247314716
 20
-123.3430311106573
 30
0.0
 10
119.2523247314716
 20
-123.1483832157407
 30
0.0
 10
119.2523247314716
 20
-123.1483832157407
 30
0.0
 10
119.2905652913579
 20
-123.1547566423884
 30
0.0
 10
119.332595456278
 20
-123.1569959544538
 30
0.0
 10
119.3391411376999
 20
-123.1569959544538
 30
0.0
 10
119.4045979519197
 20
-123.1569959544538
 30
0.0
 10
119.6033799614186
 20
-123.1358086172195
 30
0.0
 10
119.6033799614186
 20
-122.8987860478343
 30
0.0
 10
119.6033799614186
 20
-122.7211913755697
 30
0.0
 10
119.4724663329791
 20
-122.6660698478057
 30
0.0
 10
119.3622232774511
 20
-122.6660698478057
 30
0.0
 10
119.0979844537325
 20
-122.6660698478057
 30
0.0
 10
119.0893717150193
 20
-122.8987860478343
 30
0.0
 10
119.085237600437
 20
-122.9707885434761
 30
0.0
 10
119.085237600437
 20
-122.9707885434761
 30
0.0
 10
118.8819769668073
 20
-122.9707885434761
 30
0.0
 10
118.8819769668073
 20
-122.9707885434761
 30
0.0
 10
118.8905897055204
 20
-122.8459038321357
 30
0.0
 10
118.9181504694024
 20
-122.4693548955979
 30
0.0
 10
119.3749701307465
 20
-122.4693548955979
 30
0.0
 10
119.5992458468363
 20
-122.4693548955979
 30
0.0
 10
119.8404025308038
 20
-122.5963066642294
 30
0.0
 10
119.8404025308038
 20
-122.8924126211866
 30
0.0
 10
119.8404025308038
 20
-123.0786200321644
 30
0.0
 10
119.7453178954109
 20
-123.1611300690361
 30
0.0
 10
119.6457546358872
 20
-123.2224527686736
 30
0.0
 10
119.7070773355246
 20
-123.2500135325556
 30
0.0
 10
119.8889783771458
 20
-123.3304565121361
 30
0.0
 10
119.8889783771458
 20
-123.6076144439245
 30
0.0
 10
119.8889783771458
 20
-123.9460950753503
 30
0.0
 10
119.6416205213049
 20
-124.1131822063849
 30
0.0
 10
119.3646348442908
 20
-124.1131822063849
 30
0.0
  0
HATCH
  5
135
330
130
100
AcDbEntity
  8
_U+30EC_U+30A4_U+30E4_U+30FC 1
 62
   179
420
  2234388
100
AcDbHatch
 10
0.0
 20
0.0
 30
0.0
210
0.0
220
0.0
230
1.0
  2
SOLID
 70
     1
 71
     0
 91
        1
 92
        1
 93
        1
 72
     4
 94
        3
 73
     0
 74
     1
 95
       62
 96
       58
 40
0.0
 40
0.0
 40
0.0
 40
0.0
 40
1.0
 40
1.0
 40
1.0
 40
2.0
 40
2.0
 40
2.0
 40
3.0
 40
3.0
 40
3.0
 40
4.0
 40
4.0
 40
4.0
 40
5.0
 40
5.0
 40
5.0
 40
6.0
 40
6.0
 40
6.0
 40
7.0
 40
7.0
 40
7.0
 40
8.0
 40
8.0
 40
8.0
 40
9.0
 40
9.0
 40
9.0
 40
10.0
 40
10.0
 40
10.0
 40
11.0
 40
11.0
 40
11.0
 40
12.0
 40
12.0
 40
12.0
 40
13.0
 40
13.0
 40
13.0
 40
14.0
 40
14.0
 40
14.0
 40
15.0
 40
15.0
 40
15.0
 40
16.0
 40
16.0
 40
16.0
 40
17.0
 40
17.0
 40
17.0
 40
18.0
 40
18.0
 40
18.0
 40
19.0
 40
19.0
 40
19.0
 40
19.0
 10
119.3646348442908
 20
-124.1131822063849
 10
119.2692056993494
 20
-124.1131822063849
 10
119.0514756646816
 20
-124.0919948691506
 10
118.926418698567
 20
-123.9057874581729
 10
118.8523491456341
 20
-123.793649600128
 10
118.8482150310518
 20
-123.6942585953785
 10
118.8440809164695
 20
-123.6096815012156
 10
118.8440809164695
 20
-123.6096815012156
 10
119.064222517977
 20
-123.6096815012156
 10
119.064222517977
 20
-123.6096815012156
 10
119.0662895752682
 20
-123.6837510541485
 10
119.0766248617239
 20
-123.9185343114683
 10
119.36015622016
 20
-123.9185343114683
 10
119.4976155300214
 20
-123.9185343114683
 10
119.650233260018
 20
-123.848771127892
 10
119.650233260018
 20
-123.6201890424457
 10
119.650233260018
 20
-123.5039170698185
 10
119.6119927001317
 20
-123.4551689687022
 10
119.5802978216674
 20
-123.4234740902379
 10
119.5062282687346
 20
-123.349404537305
 10
119.3897840413331
 20
-123.3368299387839
 10
119.3350070231176
 20
-123.3368299387839
 10
119.3157144884002
 20
-123.3368299387839
 10
119.2798854953536
 20
-123.338896996075
 10
119.2523247314716
 20
-123.3430311106573
 10
119.2523247314716
 20
-123.3430311106573
 10
119.2523247314716
 20
-123.1483832157407
 10
119.2523247314716
 20
-123.1483832157407
 10
119.2905652913579
 20
-123.1547566423884
 10
119.332595456278
 20
-123.1569959544538
 10
119.3391411376999
 20
-123.1569959544538
 10
119.4045979519197
 20
-123.1569959544538
 10
119.6033799614186
 20
-123.1358086172195
 10
119.6033799614186
 20
-122.8987860478343
 10
119.6033799614186
 20
-122.7211913755697
 10
119.4724663329791
 20
-122.6660698478057
 10
119.3622232774511
 20
-122.6660698478057
 10
119.0979844537325
 20
-122.6660698478057
 10
119.0893717150193
 20
-122.8987860478343
 10
119.085237600437
 20
-122.9707885434761
 10
119.085237600437
 20
-122.9707885434761
 10
118.8819769668073
 20
-122.9707885434761
 10
118.8819769668073
 20
-122.9707885434761
 10
118.8905897055204
 20
-122.8459038321357
 10
118.9181504694024
 20
-122.4693548955979
 10
119.3749701307465
 20
-122.4693548955979
 10
119.5992458468363
 20
-122.4693548955979
 10
119.8404025308038
 20
-122.5963066642294
 10
119.8404025308038
 20
-122.8924126211866
 10
119.8404025308038
 20
-123.0786200321644
 10
119.7453178954109
 20
-123.1611300690361
 10
119.6457546358872
 20
-123.2224527686736
 10
119.7070773355246
 20
-123.2500135325556
 10
119.8889783771458
 20
-123.3304565121361
 10
119.8889783771458
 20
-123.6076144439245
 10
119.8889783771458
 20
-123.9460950753503
 10
119.6416205213049
 20
-124.1131822063849
 10
119.3646348442908
 20
-124.1131822063849
 97
        0
 97
        0
 75
     2
 76
     1
 98
        0
  0
SPLINE
  5
136
330
130
100
AcDbEntity
  8
_U+30EC_U+30A4_U+30E4_U+30FC 1
370
     0
100
AcDbSpline
210
0.0
220
0.0
230
1.0
 70
    11
 71
     3
 72
    44
 73
    40
 74
     0
 42
0.0000000001
 43
0.0000000001
 12
1.0
 22
0.0
 32
0.0
 13
1.0
 23
0.0
 33
0.0
 40
0.0
 40
0.0
 40
0.0
 40
0.0
 40
1.0
 40
1.0
 40
1.0
 40
2.0
 40
2.0
 40
2.0
 40
3.0
 40
3.0
 40
3.0
 40
4.0
 40
4.0
 40
4.0
 40
5.0
 40
5.0
 40
5.0
 40
6.0
 40
6.0
 40
6.0
 40
7.0
 40
7.0
 40
7.0
 40
8.0
 40
8.0
 40
8.0
 40
9.0
 40
9.0
 40
9.0
 40
10.0
 40
10.0
 40
10.0
 40
11.0
 40
11.0
 40
11.0
 40
12.0
 40
12.0
 40
12.0
 40
13.0
 40
13.0
 40
13.0
 40
13.0
 10
120.6427652693185
 20
-123.480662675293
 30
0.0
 10
120.4250352346507
 20
-123.6393093223888
 30
0.0
 10
120.3320176565489
 20
-123.7133788753217
 30
0.0
 10
120.2830973006584
 20
-123.8572116118308
 30
0.0
 10
120.2830973006584
 20
-123.8572116118308
 30
0.0
 10
121.0616888803249
 20
-123.8572116118308
 30
0.0
 10
121.0616888803249
 20
-123.8572116118308
 30
0.0
 10
121.0616888803249
 20
-123.8572116118308
 30
0.0
 10
121.0616888803249
 20
-124.0623670479775
 30
0.0
 10
121.0616888803249
 20
-124.0623670479775
 30
0.0
 10
121.0616888803249
 20
-124.0623670479775
 30
0.0
 10
120.0336723875263
 20
-124.0623670479775
 30
0.0
 10
120.0336723875263
 20
-124.0623670479775
 30
0.0
 10
120.0653672659906
 20
-123.7047661366085
 30
0.0
 10
120.1308240802104
 20
-123.6265624690934
 30
0.0
 10
120.5159857554613
 20
-123.3282172000707
 30
0.0
 10
120.7719563500153
 20
-123.1294351905718
 30
0.0
 10
120.8374131642351
 20
-123.0617390642867
 30
0.0
 10
120.8374131642351
 20
-122.9242797544252
 30
0.0
 10
120.8374131642351
 20
-122.8057684697326
 30
0.0
 10
120.7657551781419
 20
-122.6746825865188
 30
0.0
 10
120.5686957163856
 20
-122.6746825865188
 30
0.0
 10
120.3085910072492
 20
-122.6746825865188
 30
0.0
 10
120.3003227780846
 20
-122.905159474482
 30
0.0
 10
120.2958441539538
 20
-123.0216037018835
 30
0.0
 10
120.2958441539538
 20
-123.0216037018835
 30
0.0
 10
120.0715684378641
 20
-123.0216037018835
 30
0.0
 10
120.0715684378641
 20
-123.0216037018835
 30
0.0
 10
120.0801811765772
 20
-122.894651933252
 30
0.0
 10
120.0908609725815
 20
-122.7825140752072
 30
0.0
 10
120.1711316973878
 20
-122.6640027905146
 30
0.0
 10
120.2810302433673
 20
-122.5032890861277
 30
0.0
 10
120.4674099091193
 20
-122.4693548955979
 30
0.0
 10
120.5835096269722
 20
-122.4693548955979
 30
0.0
 10
120.8608398135348
 20
-122.4693548955979
 30
0.0
 10
121.0682345617468
 20
-122.6534952492845
 30
0.0
 10
121.0682345617468
 20
-122.9263468117163
 30
0.0
 10
121.0682345617468
 20
-123.1547566423884
 30
0.0
 10
120.9517903343454
 20
-123.2543199019121
 30
0.0
 10
120.6427652693185
 20
-123.480662675293
 30
0.0
  0
HATCH
  5
137
330
130
100
AcDbEntity
  8
_U+30EC_U+30A4_U+30E4_U+30FC 1
 62
   179
420
  2234388
100
AcDbHatch
 10
0.0
 20
0.0
 30
0.0
210
0.0
220
0.0
230
1.0
  2
SOLID
 70
     1
 71
     0
 91
        1
 92
        1
 93
        1
 72
     4
 94
        3
 73
     0
 74
     1
 95
       44
 96
       40
 40
0.0
 40
0.0
 40
0.0
 40
0.0
 40
1.0
 40
1.0
 40
1.0
 40
2.0
 40
2.0
 40
2.0
 40
3.0
 40
3.0
 40
3.0
 40
4.0
 40
4.0
 40
4.0
 40
5.0
 40
5.0
 40
5.0
 40
6.0
 40
6.0
 40
6.0
 40
7.0
 40
7.0
 40
7.0
 40
8.0
 40
8.0
 40
8.0
 40
9.0
 40
9.0
 40
9.0
 40
10.0
 40
10.0
 40
10.0
 40
11.0
 40
11.0
 40
11.0
 40
12.0
 40
12.0
 40
12.0
 40
13.0
 40
13.0
 40
13.0
 40
13.0
 10
120.6427652693185
 20
-123.480662675293
 10
120.4250352346507
 20
-123.6393093223888
 10
120.3320176565489
 20
-123.7133788753217
 10
120.2830973006584
 20
-123.8572116118308
 10
120.2830973006584
 20
-123.8572116118308
 10
121.0616888803249
 20
-123.8572116118308
 10
121.0616888803249
 20
-123.8572116118308
 10
121.0616888803249
 20
-123.8572116118308
 10
121.0616888803249
 20
-124.0623670479775
 10
121.0616888803249
 20
-124.0623670479775
 10
121.0616888803249
 20
-124.0623670479775
 10
120.0336723875263
 20
-124.0623670479775
 10
120.0336723875263
 20
-124.0623670479775
 10
120.0653672659906
 20
-123.7047661366085
 10
120.1308240802104
 20
-123.6265624690934
 10
120.5159857554613
 20
-123.3282172000707
 10
120.7719563500153
 20
-123.1294351905718
 10
120.8374131642351
 20
-123.0617390642867
 10
120.8374131642351
 20
-122.9242797544252
 10
120.8374131642351
 20
-122.8057684697326
 10
120.7657551781419
 20
-122.6746825865188
 10
120.5686957163856
 20
-122.6746825865188
 10
120.3085910072492
 20
-122.6746825865188
 10
120.3003227780846
 20
-122.905159474482
 10
120.2958441539538
 20
-123.0216037018835
 10
120.2958441539538
 20
-123.0216037018835
 10
120.0715684378641
 20
-123.0216037018835
 10
120.0715684378641
 20
-123.0216037018835
 10
120.0801811765772
 20
-122.894651933252
 10
120.0908609725815
 20
-122.7825140752072
 10
120.1711316973878
 20
-122.6640027905146
 10
120.2810302433673
 20
-122.5032890861277
 10
120.4674099091193
 20
-122.4693548955979
 10
120.5835096269722
 20
-122.4693548955979
 10
120.8608398135348
 20
-122.4693548955979
 10
121.0682345617468
 20
-122.6534952492845
 10
121.0682345617468
 20
-122.9263468117163
 10
121.0682345617468
 20
-123.1547566423884
 10
120.9517903343454
 20
-123.2543199019121
 10
120.6427652693185
 20
-123.480662675293
 97
        0
 97
        0
 75
     2
 76
     1
 98
        0
  0
ENDBLK
  5
133
330
130
100
AcDbEntity
  8
0
100
AcDbBlockEnd
  0
BLOCK
  5
13A
330
138
100
AcDbEntity
  8
0
100
AcDbBlockBegin
  2
block 14
 70
     0
 10
0.0
 20
0.0
 30
0.0
  3
block 14
  1

  0
SPLINE
  5
13C
330
138
100
AcDbEntity
  8
_U+30EC_U+30A4_U+30E4_U+30FC 1
370
     0
100
AcDbSpline
210
0.0
220
0.0
230
1.0
 70
    11
 71
     3
 72
    35
 73
    31
 74
     0
 42
0.0000000001
 43
0.0000000001
 12
1.0
 22
0.0
 32
0.0
 13
1.0
 23
0.0
 33
0.0
 40
0.0
 40
0.0
 40
0.0
 40
0.0
 40
1.0
 40
1.0
 40
1.0
 40
2.0
 40
2.0
 40
2.0
 40
3.0
 40
3.0
 40
3.0
 40
4.0
 40
4.0
 40
4.0
 40
5.0
 40
5.0
 40
5.0
 40
6.0
 40
6.0
 40
6.0
 40
7.0
 40
7.0
 40
7.0
 40
8.0
 40
8.0
 40
8.0
 40
9.0
 40
9.0
 40
9.0
 40
10.0
 40
10.0
 40
10.0
 40
10.0
 10
102.4871120620518
 20
-127.0427191522671
 30
0.0
 10
102.4871120620518
 20
-127.0427191522671
 30
0.0
 10
102.4364691584187
 20
-127.30713023076
 30
0.0
 10
102.4364691584187
 20
-127.30713023076
 30
0.0
 10
102.5759955255713
 20
-127.3198770840554
 30
0.0
 10
102.9039686157671
 20
-127.410827604866
 30
0.0
 10
102.9039686157671
 20
-127.8021904519904
 30
0.0
 10
102.9039686157671
 20
-128.2801974505688
 30
0.0
 10
102.4977918580561
 20
-128.4050821619091
 30
0.0
 10
102.2228732383332
 20
-128.4050821619091
 30
0.0
 10
102.2228732383332
 20
-128.4050821619091
 30
0.0
 10
102.1550048572738
 20
-128.7583767039215
 30
0.0
 10
102.1550048572738
 20
-128.7583767039215
 30
0.0
 10
102.1550048572738
 20
-128.7583767039215
 30
0.0
 10
101.9476101090617
 20
-128.7583767039215
 30
0.0
 10
101.9476101090617
 20
-128.7583767039215
 30
0.0
 10
101.9476101090617
 20
-128.7583767039215
 30
0.0
 10
102.0196126047034
 20
-128.3902682513226
 30
0.0
 10
102.0196126047034
 20
-128.3902682513226
 30
0.0
 10
101.9117811160151
 20
-128.3711479713794
 30
0.0
 10
101.5607258860682
 20
-128.309825271742
 30
0.0
 10
101.5607258860682
 20
-127.893140972801
 30
0.0
 10
101.5607258860682
 20
-127.4445895406215
 30
0.0
 10
101.9159152305974
 20
-127.2943833774646
 30
0.0
 10
102.2311414674978
 20
-127.2943833774646
 30
0.0
 10
102.2311414674978
 20
-127.2943833774646
 30
0.0
 10
102.2797173138398
 20
-127.0427191522671
 30
0.0
 10
102.2797173138398
 20
-127.0427191522671
 30
0.0
 10
102.2797173138398
 20
-127.0427191522671
 30
0.0
 10
102.4871120620518
 20
-127.0427191522671
 30
0.0
 10
102.4871120620518
 20
-127.0427191522671
 30
0.0
  0
SPLINE
  5
13D
330
138
100
AcDbEntity
  8
_U+30EC_U+30A4_U+30E4_U+30FC 1
370
     0
100
AcDbSpline
210
0.0
220
0.0
230
1.0
 70
    11
 71
     3
 72
    14
 73
    10
 74
     0
 42
0.0000000001
 43
0.0000000001
 12
1.0
 22
0.0
 32
0.0
 13
1.0
 23
0.0
 33
0.0
 40
0.0
 40
0.0
 40
0.0
 40
0.0
 40
1.0
 40
1.0
 40
1.0
 40
2.0
 40
2.0
 40
2.0
 40
3.0
 40
3.0
 40
3.0
 40
3.0
 10
102.1973795317423
 20
-127.4678439351469
 30
0.0
 10
102.0768011897586
 20
-127.4762844190858
 30
0.0
 10
101.7825900353183
 20
-127.4995388136112
 30
0.0
 10
101.7825900353183
 20
-127.8972750873833
 30
0.0
 10
101.7825900353183
 20
-127.9608370990862
 30
0.0
 10
101.7825900353183
 20
-128.1744330191717
 30
0.0
 10
102.0513074831677
 20
-128.2188747509314
 30
0.0
 10
102.0513074831677
 20
-128.2188747509314
 30
0.0
 10
102.1973795317423
 20
-127.4678439351469
 30
0.0
 10
102.1973795317423
 20
-127.4678439351469
 30
0.0
  0
SPLINE
  5
13E
330
138
100
AcDbEntity
  8
_U+30EC_U+30A4_U+30E4_U+30FC 1
370
     0
100
AcDbSpline
210
0.0
220
0.0
230
1.0
 70
    11
 71
     3
 72
    14
 73
    10
 74
     0
 42
0.0000000001
 43
0.0000000001
 12
1.0
 22
0.0
 32
0.0
 13
1.0
 23
0.0
 33
0.0
 40
0.0
 40
0.0
 40
0.0
 40
0.0
 40
1.0
 40
1.0
 40
1.0
 40
2.0
 40
2.0
 40
2.0
 40
3.0
 40
3.0
 40
3.0
 40
3.0
 10
102.2587022313798
 20
-128.2273152348702
 30
0.0
 10
102.440603273001
 20
-128.223181120288
 30
0.0
 10
102.6838270142596
 20
-128.1427381407074
 30
0.0
 10
102.6838270142596
 20
-127.7873765414039
 30
0.0
 10
102.6838270142596
 20
-127.6941867085279
 30
0.0
 10
102.6710801609642
 20
-127.505912240259
 30
0.0
 10
102.4002956558235
 20
-127.4785237311512
 30
0.0
 10
102.4002956558235
 20
-127.4785237311512
 30
0.0
 10
102.2587022313798
 20
-128.2273152348702
 30
0.0
 10
102.2587022313798
 20
-128.2273152348702
 30
0.0
  0
HATCH
  5
13F
330
138
100
AcDbEntity
  8
_U+30EC_U+30A4_U+30E4_U+30FC 1
 62
   179
420
  2234388
100
AcDbHatch
 10
0.0
 20
0.0
 30
0.0
210
0.0
220
0.0
230
1.0
  2
SOLID
 70
     1
 71
     0
 91
        3
 92
        1
 93
        1
 72
     4
 94
        3
 73
     0
 74
     1
 95
       35
 96
       31
 40
0.0
 40
0.0
 40
0.0
 40
0.0
 40
1.0
 40
1.0
 40
1.0
 40
2.0
 40
2.0
 40
2.0
 40
3.0
 40
3.0
 40
3.0
 40
4.0
 40
4.0
 40
4.0
 40
5.0
 40
5.0
 40
5.0
 40
6.0
 40
6.0
 40
6.0
 40
7.0
 40
7.0
 40
7.0
 40
8.0
 40
8.0
 40
8.0
 40
9.0
 40
9.0
 40
9.0
 40
10.0
 40
10.0
 40
10.0
 40
10.0
 10
102.4871120620518
 20
-127.0427191522671
 10
102.4871120620518
 20
-127.0427191522671
 10
102.4364691584187
 20
-127.30713023076
 10
102.4364691584187
 20
-127.30713023076
 10
102.5759955255713
 20
-127.3198770840554
 10
102.9039686157671
 20
-127.410827604866
 10
102.9039686157671
 20
-127.8021904519904
 10
102.9039686157671
 20
-128.2801974505688
 10
102.4977918580561
 20
-128.4050821619091
 10
102.2228732383332
 20
-128.4050821619091
 10
102.2228732383332
 20
-128.4050821619091
 10
102.1550048572738
 20
-128.7583767039215
 10
102.1550048572738
 20
-128.7583767039215
 10
102.1550048572738
 20
-128.7583767039215
 10
101.9476101090617
 20
-128.7583767039215
 10
101.9476101090617
 20
-128.7583767039215
 10
101.9476101090617
 20
-128.7583767039215
 10
102.0196126047034
 20
-128.3902682513226
 10
102.0196126047034
 20
-128.3902682513226
 10
101.9117811160151
 20
-128.3711479713794
 10
101.5607258860682
 20
-128.309825271742
 10
101.5607258860682
 20
-127.893140972801
 10
101.5607258860682
 20
-127.4445895406215
 10
101.9159152305974
 20
-127.2943833774646
 10
102.2311414674978
 20
-127.2943833774646
 10
102.2311414674978
 20
-127.2943833774646
 10
102.2797173138398
 20
-127.0427191522671
 10
102.2797173138398
 20
-127.0427191522671
 10
102.2797173138398
 20
-127.0427191522671
 10
102.4871120620518
 20
-127.0427191522671
 10
102.4871120620518
 20
-127.0427191522671
 97
        0
 97
        0
 92
        1
 93
        1
 72
     4
 94
        3
 73
     0
 74
     1
 95
       14
 96
       10
 40
0.0
 40
0.0
 40
0.0
 40
0.0
 40
1.0
 40
1.0
 40
1.0
 40
2.0
 40
2.0
 40
2.0
 40
3.0
 40
3.0
 40
3.0
 40
3.0
 10
102.1973795317423
 20
-127.4678439351469
 10
102.0768011897586
 20
-127.4762844190858
 10
101.7825900353183
 20
-127.4995388136112
 10
101.7825900353183
 20
-127.8972750873833
 10
101.7825900353183
 20
-127.9608370990862
 10
101.7825900353183
 20
-128.1744330191717
 10
102.0513074831677
 20
-128.2188747509314
 10
102.0513074831677
 20
-128.2188747509314
 10
102.1973795317423
 20
-127.4678439351469
 10
102.1973795317423
 20
-127.4678439351469
 97
        0
 97
        0
 92
        1
 93
        1
 72
     4
 94
        3
 73
     0
 74
     1
 95
       14
 96
       10
 40
0.0
 40
0.0
 40
0.0
 40
0.0
 40
1.0
 40
1.0
 40
1.0
 40
2.0
 40
2.0
 40
2.0
 40
3.0
 40
3.0
 40
3.0
 40
3.0
 10
102.2587022313798
 20
-128.2273152348702
 10
102.440603273001
 20
-128.223181120288
 10
102.6838270142596
 20
-128.1427381407074
 10
102.6838270142596
 20
-127.7873765414039
 10
102.6838270142596
 20
-127.6941867085279
 10
102.6710801609642
 20
-127.505912240259
 10
102.4002956558235
 20
-127.4785237311512
 10
102.4002956558235
 20
-127.4785237311512
 10
102.2587022313798
 20
-128.2273152348702
 10
102.2587022313798
 20
-128.2273152348702
 97
        0
 97
        0
 75
     2
 76
     1
 98
        0
  0
SPLINE
  5
140
330
138
100
AcDbEntity
  8
_U+30EC_U+30A4_U+30E4_U+30FC 1
370
     0
100
AcDbSpline
210
0.0
220
0.0
230
1.0
 70
    11
 71
     3
 72
    62
 73
    58
 74
     0
 42
0.0000000001
 43
0.0000000001
 12
1.0
 22
0.0
 32
0.0
 13
1.0
 23
0.0
 33
0.0
 40
0.0
 40
0.0
 40
0.0
 40
0.0
 40
1.0
 40
1.0
 40
1.0
 40
2.0
 40
2.0
 40
2.0
 40
3.0
 40
3.0
 40
3.0
 40
4.0
 40
4.0
 40
4.0
 40
5.0
 40
5.0
 40
5.0
 40
6.0
 40
6.0
 40
6.0
 40
7.0
 40
7.0
 40
7.0
 40
8.0
 40
8.0
 40
8.0
 40
9.0
 40
9.0
 40
9.0
 40
10.0
 40
10.0
 40
10.0
 40
11.0
 40
11.0
 40
11.0
 40
12.0
 40
12.0
 40
12.0
 40
13.0
 40
13.0
 40
13.0
 40
14.0
 40
14.0
 40
14.0
 40
15.0
 40
15.0
 40
15.0
 40
16.0
 40
16.0
 40
16.0
 40
17.0
 40
17.0
 40
17.0
 40
18.0
 40
18.0
 40
18.0
 40
19.0
 40
19.0
 40
19.0
 40
19.0
 10
103.6074571138551
 20
-128.4643378042555
 30
0.0
 10
103.5120279689137
 20
-128.4643378042555
 30
0.0
 10
103.2942979342459
 20
-128.4431504670212
 30
0.0
 10
103.1692409681313
 20
-128.2569430560434
 30
0.0
 10
103.0951714151984
 20
-128.1448051979985
 30
0.0
 10
103.0910373006161
 20
-128.0454141932491
 30
0.0
 10
103.0869031860338
 20
-127.9608370990862
 30
0.0
 10
103.0869031860338
 20
-127.9608370990862
 30
0.0
 10
103.3070447875413
 20
-127.9608370990862
 30
0.0
 10
103.3070447875413
 20
-127.9608370990862
 30
0.0
 10
103.3091118448324
 20
-128.0349066520191
 30
0.0
 10
103.3194471312882
 20
-128.2696899093388
 30
0.0
 10
103.6029784897243
 20
-128.2696899093388
 30
0.0
 10
103.7404377995857
 20
-128.2696899093388
 30
0.0
 10
103.8930555295823
 20
-128.1999267257625
 30
0.0
 10
103.8930555295823
 20
-127.9713446403162
 30
0.0
 10
103.8930555295823
 20
-127.855072667689
 30
0.0
 10
103.854814969696
 20
-127.8063245665727
 30
0.0
 10
103.8231200912317
 20
-127.7746296881084
 30
0.0
 10
103.7490505382989
 20
-127.7005601351756
 30
0.0
 10
103.6326063108974
 20
-127.6879855366544
 30
0.0
 10
103.5778292926819
 20
-127.6879855366544
 30
0.0
 10
103.5585367579645
 20
-127.6879855366544
 30
0.0
 10
103.5227077649179
 20
-127.6900525939456
 30
0.0
 10
103.4951470010359
 20
-127.6941867085279
 30
0.0
 10
103.4951470010359
 20
-127.6941867085279
 30
0.0
 10
103.4951470010359
 20
-127.4995388136112
 30
0.0
 10
103.4951470010359
 20
-127.4995388136112
 30
0.0
 10
103.5333875609222
 20
-127.505912240259
 30
0.0
 10
103.5754177258423
 20
-127.5081515523244
 30
0.0
 10
103.5819634072642
 20
-127.5081515523244
 30
0.0
 10
103.647420221484
 20
-127.5081515523244
 30
0.0
 10
103.8462022309829
 20
-127.4869642150901
 30
0.0
 10
103.8462022309829
 20
-127.2499416457049
 30
0.0
 10
103.8462022309829
 20
-127.0723469734402
 30
0.0
 10
103.7152886025434
 20
-127.0172254456763
 30
0.0
 10
103.6050455470154
 20
-127.0172254456763
 30
0.0
 10
103.3408067232968
 20
-127.0172254456763
 30
0.0
 10
103.3321939845836
 20
-127.2499416457049
 30
0.0
 10
103.3280598700013
 20
-127.3219441413466
 30
0.0
 10
103.3280598700013
 20
-127.3219441413466
 30
0.0
 10
103.1247992363716
 20
-127.3219441413466
 30
0.0
 10
103.1247992363716
 20
-127.3219441413466
 30
0.0
 10
103.1334119750847
 20
-127.1970594300063
 30
0.0
 10
103.1609727389667
 20
-126.8205104934685
 30
0.0
 10
103.6177924003108
 20
-126.8205104934685
 30
0.0
 10
103.8420681164006
 20
-126.8205104934685
 30
0.0
 10
104.0832248003681
 20
-126.9474622620999
 30
0.0
 10
104.0832248003681
 20
-127.2435682190572
 30
0.0
 10
104.0832248003681
 20
-127.4297756300349
 30
0.0
 10
103.9881401649752
 20
-127.5122856669067
 30
0.0
 10
103.8885769054515
 20
-127.5736083665441
 30
0.0
 10
103.9498996050889
 20
-127.6011691304261
 30
0.0
 10
104.1318006467101
 20
-127.6816121100067
 30
0.0
 10
104.1318006467101
 20
-127.958770041795
 30
0.0
 10
104.1318006467101
 20
-128.2972506732208
 30
0.0
 10
103.8844427908692
 20
-128.4643378042555
 30
0.0
 10
103.6074571138551
 20
-128.4643378042555
 30
0.0
  0
HATCH
  5
141
330
138
100
AcDbEntity
  8
_U+30EC_U+30A4_U+30E4_U+30FC 1
 62
   179
420
  2234388
100
AcDbHatch
 10
0.0
 20
0.0
 30
0.0
210
0.0
220
0.0
230
1.0
  2
SOLID
 70
     1
 71
     0
 91
        1
 92
        1
 93
        1
 72
     4
 94
        3
 73
     0
 74
     1
 95
       62
 96
       58
 40
0.0
 40
0.0
 40
0.0
 40
0.0
 40
1.0
 40
1.0
 40
1.0
 40
2.0
 40
2.0
 40
2.0
 40
3.0
 40
3.0
 40
3.0
 40
4.0
 40
4.0
 40
4.0
 40
5.0
 40
5.0
 40
5.0
 40
6.0
 40
6.0
 40
6.0
 40
7.0
 40
7.0
 40
7.0
 40
8.0
 40
8.0
 40
8.0
 40
9.0
 40
9.0
 40
9.0
 40
10.0
 40
10.0
 40
10.0
 40
11.0
 40
11.0
 40
11.0
 40
12.0
 40
12.0
 40
12.0
 40
13.0
 40
13.0
 40
13.0
 40
14.0
 40
14.0
 40
14.0
 40
15.0
 40
15.0
 40
15.0
 40
16.0
 40
16.0
 40
16.0
 40
17.0
 40
17.0
 40
17.0
 40
18.0
 40
18.0
 40
18.0
 40
19.0
 40
19.0
 40
19.0
 40
19.0
 10
103.6074571138551
 20
-128.4643378042555
 10
103.5120279689137
 20
-128.4643378042555
 10
103.2942979342459
 20
-128.4431504670212
 10
103.1692409681313
 20
-128.2569430560434
 10
103.0951714151984
 20
-128.1448051979985
 10
103.0910373006161
 20
-128.0454141932491
 10
103.0869031860338
 20
-127.9608370990862
 10
103.0869031860338
 20
-127.9608370990862
 10
103.3070447875413
 20
-127.9608370990862
 10
103.3070447875413
 20
-127.9608370990862
 10
103.3091118448324
 20
-128.0349066520191
 10
103.3194471312882
 20
-128.2696899093388
 10
103.6029784897243
 20
-128.2696899093388
 10
103.7404377995857
 20
-128.2696899093388
 10
103.8930555295823
 20
-128.1999267257625
 10
103.8930555295823
 20
-127.9713446403162
 10
103.8930555295823
 20
-127.855072667689
 10
103.854814969696
 20
-127.8063245665727
 10
103.8231200912317
 20
-127.7746296881084
 10
103.7490505382989
 20
-127.7005601351756
 10
103.6326063108974
 20
-127.6879855366544
 10
103.5778292926819
 20
-127.6879855366544
 10
103.5585367579645
 20
-127.6879855366544
 10
103.5227077649179
 20
-127.6900525939456
 10
103.4951470010359
 20
-127.6941867085279
 10
103.4951470010359
 20
-127.6941867085279
 10
103.4951470010359
 20
-127.4995388136112
 10
103.4951470010359
 20
-127.4995388136112
 10
103.5333875609222
 20
-127.505912240259
 10
103.5754177258423
 20
-127.5081515523244
 10
103.5819634072642
 20
-127.5081515523244
 10
103.647420221484
 20
-127.5081515523244
 10
103.8462022309829
 20
-127.4869642150901
 10
103.8462022309829
 20
-127.2499416457049
 10
103.8462022309829
 20
-127.0723469734402
 10
103.7152886025434
 20
-127.0172254456763
 10
103.6050455470154
 20
-127.0172254456763
 10
103.3408067232968
 20
-127.0172254456763
 10
103.3321939845836
 20
-127.2499416457049
 10
103.3280598700013
 20
-127.3219441413466
 10
103.3280598700013
 20
-127.3219441413466
 10
103.1247992363716
 20
-127.3219441413466
 10
103.1247992363716
 20
-127.3219441413466
 10
103.1334119750847
 20
-127.1970594300063
 10
103.1609727389667
 20
-126.8205104934685
 10
103.6177924003108
 20
-126.8205104934685
 10
103.8420681164006
 20
-126.8205104934685
 10
104.0832248003681
 20
-126.9474622620999
 10
104.0832248003681
 20
-127.2435682190572
 10
104.0832248003681
 20
-127.4297756300349
 10
103.9881401649752
 20
-127.5122856669067
 10
103.8885769054515
 20
-127.5736083665441
 10
103.9498996050889
 20
-127.6011691304261
 10
104.1318006467101
 20
-127.6816121100067
 10
104.1318006467101
 20
-127.958770041795
 10
104.1318006467101
 20
-128.2972506732208
 10
103.8844427908692
 20
-128.4643378042555
 10
103.6074571138551
 20
-128.4643378042555
 97
        0
 97
        0
 75
     2
 76
     1
 98
        0
  0
POLYLINE
  5
142
330
138
100
AcDbEntity
  8
_U+30EC_U+30A4_U+30E4_U+30FC 1
370
     0
100
AcDb2dPolyline
 66
     1
 10
0.0
 20
0.0
 30
0.0
  0
VERTEX
  5
143
330
142
100
AcDbEntity
  8
_U+30EC_U+30A4_U+30E4_U+30FC 1
370
     0
100
AcDbVertex
100
AcDb2dVertex
 10
104.3526312673146
 20
-128.413522645848
 30
0.0
  0
VERTEX
  5
144
330
142
100
AcDbEntity
  8
_U+30EC_U+30A4_U+30E4_U+30FC 1
370
     0
100
AcDbVertex
100
AcDb2dVertex
 10
104.3526312673146
 20
-128.1618584206505
 30
0.0
  0
VERTEX
  5
145
330
142
100
AcDbEntity
  8
_U+30EC_U+30A4_U+30E4_U+30FC 1
370
     0
100
AcDbVertex
100
AcDb2dVertex
 10
104.6044677472864
 20
-128.1618584206505
 30
0.0
  0
VERTEX
  5
146
330
142
100
AcDbEntity
  8
_U+30EC_U+30A4_U+30E4_U+30FC 1
370
     0
100
AcDbVertex
100
AcDb2dVertex
 10
104.6044677472864
 20
-128.413522645848
 30
0.0
  0
VERTEX
  5
147
330
142
100
AcDbEntity
  8
_U+30EC_U+30A4_U+30E4_U+30FC 1
370
     0
100
AcDbVertex
100
AcDb2dVertex
 10
104.3526312673146
 20
-128.413522645848
 30
0.0
  0
SEQEND
  5
148
330
142
100
AcDbEntity
  8
_U+30EC_U+30A4_U+30E4_U+30FC 1
370
     0
  0
HATCH
  5
149
330
138
100
AcDbEntity
  8
_U+30EC_U+30A4_U+30E4_U+30FC 1
 62
   179
420
  2234388
100
AcDbHatch
 10
0.0
 20
0.0
 30
0.0
210
0.0
220
0.0
230
1.0
  2
SOLID
 70
     1
 71
     0
 91
        1
 92
        1
 93
        4
 72
     1
 10
104.3526312673146
 20
-128.413522645848
 11
104.3526312673146
 21
-128.1618584206505
 72
     1
 10
104.3526312673146
 20
-128.1618584206505
 11
104.6044677472864
 21
-128.1618584206505
 72
     1
 10
104.6044677472864
 20
-128.1618584206505
 11
104.6044677472864
 21
-128.413522645848
 72
     1
 10
104.6044677472864
 20
-128.413522645848
 11
104.3526312673146
 21
-128.413522645848
 97
        0
 75
     2
 76
     1
 98
        0
  0
POLYLINE
  5
14A
330
138
100
AcDbEntity
  8
_U+30EC_U+30A4_U+30E4_U+30FC 1
370
     0
100
AcDb2dPolyline
 66
     1
 10
0.0
 20
0.0
 30
0.0
  0
VERTEX
  5
14B
330
14A
100
AcDbEntity
  8
_U+30EC_U+30A4_U+30E4_U+30FC 1
370
     0
100
AcDbVertex
100
AcDb2dVertex
 10
105.6727918572624
 20
-128.0666015304834
 30
0.0
  0
VERTEX
  5
14C
330
14A
100
AcDbEntity
  8
_U+30EC_U+30A4_U+30E4_U+30FC 1
370
     0
100
AcDbVertex
100
AcDb2dVertex
 10
105.6727918572624
 20
-128.413522645848
 30
0.0
  0
VERTEX
  5
14D
330
14A
100
AcDbEntity
  8
_U+30EC_U+30A4_U+30E4_U+30FC 1
370
     0
100
AcDbVertex
100
AcDb2dVertex
 10
105.4550618225946
 20
-128.413522645848
 30
0.0
  0
VERTEX
  5
14E
330
14A
100
AcDbEntity
  8
_U+30EC_U+30A4_U+30E4_U+30FC 1
370
     0
100
AcDbVertex
100
AcDb2dVertex
 10
105.4550618225946
 20
-128.0666015304834
 30
0.0
  0
VERTEX
  5
14F
330
14A
100
AcDbEntity
  8
_U+30EC_U+30A4_U+30E4_U+30FC 1
370
     0
100
AcDbVertex
100
AcDb2dVertex
 10
104.799115642203
 20
-128.0666015304834
 30
0.0
  0
VERTEX
  5
150
330
14A
100
AcDbEntity
  8
_U+30EC_U+30A4_U+30E4_U+30FC 1
370
     0
100
AcDbVertex
100
AcDb2dVertex
 10
104.799115642203
 20
-127.8423258143936
 30
0.0
  0
VERTEX
  5
151
330
14A
100
AcDbEntity
  8
_U+30EC_U+30A4_U+30E4_U+30FC 1
370
     0
100
AcDbVertex
100
AcDb2dVertex
 10
105.4784884718943
 20
-126.8692585945848
 30
0.0
  0
VERTEX
  5
152
330
14A
100
AcDbEntity
  8
_U+30EC_U+30A4_U+30E4_U+30FC 1
370
     0
100
AcDbVertex
100
AcDb2dVertex
 10
105.6727918572624
 20
-126.8692585945848
 30
0.0
  0
VERTEX
  5
153
330
14A
100
AcDbEntity
  8
_U+30EC_U+30A4_U+30E4_U+30FC 1
370
     0
100
AcDbVertex
100
AcDb2dVertex
 10
105.6727918572624
 20
-127.8676472662102
 30
0.0
  0
VERTEX
  5
154
330
14A
100
AcDbEntity
  8
_U+30EC_U+30A4_U+30E4_U+30FC 1
370
     0
100
AcDbVertex
100
AcDb2dVertex
 10
105.8801866054744
 20
-127.8676472662102
 30
0.0
  0
VERTEX
  5
155
330
14A
100
AcDbEntity
  8
_U+30EC_U+30A4_U+30E4_U+30FC 1
370
     0
100
AcDbVertex
100
AcDb2dVertex
 10
105.8801866054744
 20
-128.0666015304834
 30
0.0
  0
VERTEX
  5
156
330
14A
100
AcDbEntity
  8
_U+30EC_U+30A4_U+30E4_U+30FC 1
370
     0
100
AcDbVertex
100
AcDb2dVertex
 10
105.6727918572624
 20
-128.0666015304834
 30
0.0
  0
SEQEND
  5
157
330
14A
100
AcDbEntity
  8
_U+30EC_U+30A4_U+30E4_U+30FC 1
370
     0
  0
POLYLINE
  5
158
330
138
100
AcDbEntity
  8
_U+30EC_U+30A4_U+30E4_U+30FC 1
370
     0
100
AcDb2dPolyline
 66
     1
 10
0.0
 20
0.0
 30
0.0
  0
VERTEX
  5
159
330
158
100
AcDbEntity
  8
_U+30EC_U+30A4_U+30E4_U+30FC 1
370
     0
100
AcDbVertex
100
AcDb2dVertex
 10
105.4550618225946
 20
-127.2118733405929
 30
0.0
  0
VERTEX
  5
15A
330
158
100
AcDbEntity
  8
_U+30EC_U+30A4_U+30E4_U+30FC 1
370
     0
100
AcDbVertex
100
AcDb2dVertex
 10
104.9982421612504
 20
-127.8676472662102
 30
0.0
  0
VERTEX
  5
15B
330
158
100
AcDbEntity
  8
_U+30EC_U+30A4_U+30E4_U+30FC 1
370
     0
100
AcDbVertex
100
AcDb2dVertex
 10
105.4550618225946
 20
-127.8676472662102
 30
0.0
  0
VERTEX
  5
15C
330
158
100
AcDbEntity
  8
_U+30EC_U+30A4_U+30E4_U+30FC 1
370
     0
100
AcDbVertex
100
AcDb2dVertex
 10
105.4550618225946
 20
-127.2118733405929
 30
0.0
  0
SEQEND
  5
15D
330
158
100
AcDbEntity
  8
_U+30EC_U+30A4_U+30E4_U+30FC 1
370
     0
  0
HATCH
  5
15E
330
138
100
AcDbEntity
  8
_U+30EC_U+30A4_U+30E4_U+30FC 1
 62
   179
420
  2234388
100
AcDbHatch
 10
0.0
 20
0.0
 30
0.0
210
0.0
220
0.0
230
1.0
  2
SOLID
 70
     1
 71
     0
 91
        2
 92
        1
 93
       11
 72
     1
 10
105.6727918572624
 20
-128.0666015304834
 11
105.6727918572624
 21
-128.413522645848
 72
     1
 10
105.6727918572624
 20
-128.413522645848
 11
105.4550618225946
 21
-128.413522645848
 72
     1
 10
105.4550618225946
 20
-128.413522645848
 11
105.4550618225946
 21
-128.0666015304834
 72
     1
 10
105.4550618225946
 20
-128.0666015304834
 11
104.799115642203
 21
-128.0666015304834
 72
     1
 10
104.799115642203
 20
-128.0666015304834
 11
104.799115642203
 21
-127.8423258143936
 72
     1
 10
104.799115642203
 20
-127.8423258143936
 11
105.4784884718943
 21
-126.8692585945848
 72
     1
 10
105.4784884718943
 20
-126.8692585945848
 11
105.6727918572624
 21
-126.8692585945848
 72
     1
 10
105.6727918572624
 20
-126.8692585945848
 11
105.6727918572624
 21
-127.8676472662102
 72
     1
 10
105.6727918572624
 20
-127.8676472662102
 11
105.8801866054744
 21
-127.8676472662102
 72
     1
 10
105.8801866054744
 20
-127.8676472662102
 11
105.8801866054744
 21
-128.0666015304834
 72
     1
 10
105.8801866054744
 20
-128.0666015304834
 11
105.6727918572624
 21
-128.0666015304834
 97
        0
 92
        1
 93
        3
 72
     1
 10
105.4550618225946
 20
-127.2118733405929
 11
104.9982421612504
 21
-127.8676472662102
 72
     1
 10
104.9982421612504
 20
-127.8676472662102
 11
105.4550618225946
 21
-127.8676472662102
 72
     1
 10
105.4550618225946
 20
-127.8676472662102
 11
105.4550618225946
 21
-127.2118733405929
 97
        0
 75
     2
 76
     1
 98
        0
  0
ENDBLK
  5
13B
330
138
100
AcDbEntity
  8
0
100
AcDbBlockEnd
  0
ENDSEC
  0
SECTION
  2
ENTITIES
  0
POLYLINE
  5
41
330
1F
100
AcDbEntity
  8
_U+30EC_U+30A4_U+30E4_U+30FC 1
 62
     7
420
 16711422
370
    18
100
AcDb2dPolyline
 66
     1
 10
0.0
 20
0.0
 30
0.0
  0
VERTEX
  5
42
330
41
100
AcDbEntity
  8
_U+30EC_U+30A4_U+30E4_U+30FC 1
 62
     7
420
 16711422
370
    18
100
AcDbVertex
100
AcDb2dVertex
 10
201.8887904049434
 20
-282.8916179848324
 30
0.0
  0
VERTEX
  5
43
330
41
100
AcDbEntity
  8
_U+30EC_U+30A4_U+30E4_U+30FC 1
 62
     7
420
 16711422
370
    18
100
AcDbVertex
100
AcDb2dVertex
 10
-20.11108499497234
 20
-282.8916179848324
 30
0.0
  0
VERTEX
  5
44
330
41
100
AcDbEntity
  8
_U+30EC_U+30A4_U+30E4_U+30FC 1
 62
     7
420
 16711422
370
    18
100
AcDbVertex
100
AcDb2dVertex
 10
-20.11108499497234
 20
26.10830721569526
 30
0.0
  0
VERTEX
  5
45
330
41
100
AcDbEntity
  8
_U+30EC_U+30A4_U+30E4_U+30FC 1
 62
     7
420
 16711422
370
    18
100
AcDbVertex
100
AcDb2dVertex
 10
201.8887904049434
 20
26.10830721569526
 30
0.0
  0
VERTEX
  5
46
330
41
100
AcDbEntity
  8
_U+30EC_U+30A4_U+30E4_U+30FC 1
 62
     7
420
 16711422
370
    18
100
AcDbVertex
100
AcDb2dVertex
 10
201.8887904049434
 20
-282.8916179848324
 30
0.0
  0
SEQEND
  5
47
330
41
100
AcDbEntity
  8
_U+30EC_U+30A4_U+30E4_U+30FC 1
 62
     7
420
 16711422
370
    18
  0
POLYLINE
  5
48
330
1F
100
AcDbEntity
  8
_U+30EC_U+30A4_U+30E4_U+30FC 1
 62
     7
420
 16711422
370
    18
100
AcDb2dPolyline
 66
     1
 10
0.0
 20
0.0
 30
0.0
  0
VERTEX
  5
49
330
48
100
AcDbEntity
  8
_U+30EC_U+30A4_U+30E4_U+30FC 1
 62
     7
420
 16711422
370
    18
100
AcDbVertex
100
AcDb2dVertex
 10
201.8887904049434
 20
-282.8916179848324
 30
0.0
  0
VERTEX
  5
4A
330
48
100
AcDbEntity
  8
_U+30EC_U+30A4_U+30E4_U+30FC 1
 62
     7
420
 16711422
370
    18
100
AcDbVertex
100
AcDb2dVertex
 10
-20.11108499497234
 20
-282.8916179848324
 30
0.0
  0
VERTEX
  5
4B
330
48
100
AcDbEntity
  8
_U+30EC_U+30A4_U+30E4_U+30FC 1
 62
     7
420
 16711422
370
    18
100
AcDbVertex
100
AcDb2dVertex
 10
-20.11108499497234
 20
26.10830721569526
 30
0.0
  0
VERTEX
  5
4C
330
48
100
AcDbEntity
  8
_U+30EC_U+30A4_U+30E4_U+30FC 1
 62
     7
420
 16711422
370
    18
100
AcDbVertex
100
AcDb2dVertex
 10
201.8887904049434
 20
26.10830721569526
 30
0.0
  0
VERTEX
  5
4D
330
48
100
AcDbEntity
  8
_U+30EC_U+30A4_U+30E4_U+30FC 1
 62
     7
420
 16711422
370
    18
100
AcDbVertex
100
AcDb2dVertex
 10
201.8887904049434
 20
-282.8916179848324
 30
0.0
  0
SEQEND
  5
4E
330
48
100
AcDbEntity
  8
_U+30EC_U+30A4_U+30E4_U+30FC 1
 62
     7
420
 16711422
370
    18
  0
INSERT
  5
50
330
1F
100
AcDbEntity
  8
_U+30EC_U+30A4_U+30E4_U+30FC 1
100
AcDbBlockReference
  2
block 2
 10
0.0
 20
0.0
 30
0.0
  0
ENDSEC
  0
SECTION
  2
OBJECTS
  0
DICTIONARY
  5
C
330
0
100
AcDbDictionary
281
     1
  3
ACAD_GROUP
350
D
  3
ACAD_LAYOUT
350
1A
  3
ACAD_MATERIAL
350
3B
  3
ACAD_MLEADERSTYLE
350
16A
  3
ACAD_MLINESTYLE
350
17
  3
ACAD_PLOTSETTINGS
350
19
  3
ACAD_PLOTSTYLENAME
350
E
  3
ACAD_TABLESTYLE
350
169
  3
ACAD_VISUALSTYLE
350
2A
  0
SUN
  5
3F
330
29
100
AcDbSun
 90
        1
290
     0
 63
     7
421
 16777215
 40
1.0
291
     1
 91
  2455826
 92
 54000000
292
     0
 70
     2
 71
   256
280
     1
  0
DICTIONARY
  5
D
102
{ACAD_REACTORS
330
C
102
}
330
C
100
AcDbDictionary
281
     1
  0
DICTIONARY
  5
1A
102
{ACAD_REACTORS
330
C
102
}
330
C
100
AcDbDictionary
281
     1
  3
Layout1
350
1E
  3
Layout2
350
26
  3
Model
350
22
  0
DICTIONARY
  5
3B
102
{ACAD_REACTORS
330
C
102
}
330
C
100
AcDbDictionary
281
     1
  3
ByBlock
350
3D
  3
ByLayer
350
3C
  3
Global
350
3E
  0
DICTIONARY
  5
16A
102
{ACAD_REACTORS
330
C
102
}
330
C
100
AcDbDictionary
281
     1
  0
DICTIONARY
  5
17
102
{ACAD_REACTORS
330
C
102
}
330
C
100
AcDbDictionary
281
     1
  3
Standard
350
18
  0
DICTIONARY
  5
19
102
{ACAD_REACTORS
330
C
102
}
330
C
100
AcDbDictionary
281
     1
  0
ACDBDICTIONARYWDFLT
  5
E
102
{ACAD_REACTORS
330
C
102
}
330
C
100
AcDbDictionary
281
     1
  3
Normal
350
F
100
AcDbDictionaryWithDefault
340
F
  0
DICTIONARY
  5
169
102
{ACAD_REACTORS
330
C
102
}
330
C
100
AcDbDictionary
281
     1
  0
DICTIONARY
  5
2A
102
{ACAD_REACTORS
330
C
102
}
330
C
100
AcDbDictionary
281
     1
  3
2dWireframe
350
2F
  3
3D Hidden
350
31
  3
3dWireframe
350
30
  3
Basic
350
32
  3
Brighten
350
36
  3
ColorChange
350
3A
  3
Conceptual
350
34
  3
Dim
350
35
  3
Facepattern
350
39
  3
Flat
350
2B
  3
FlatWithEdges
350
2C
  3
Gouraud
350
2D
  3
GouraudWithEdges
350
2E
  3
Linepattern
350
38
  3
Realistic
350
33
  3
Thicken
350
37
  0
LAYOUT
  5
1E
102
{ACAD_REACTORS
330
1A
102
}
330
1A
100
AcDbPlotSettings
  1

  2
none_device
  4

  6

 40
0.0
 41
0.0
 42
0.0
 43
0.0
 44
0.0
 45
0.0
 46
0.0
 47
0.0
 48
0.0
 49
0.0
140
0.0
141
0.0
142
1.0
143
1.0
 70
   688
 72
     0
 73
     0
 74
     5
  7

 75
    16
 76
     0
 77
     2
 78
   300
147
1.0
148
0.0
149
0.0
100
AcDbLayout
  1
Layout1
 70
     1
 71
     1
 10
0.0
 20
0.0
 11
12.0
 21
9.0
 12
0.0
 22
0.0
 32
0.0
 14
1.000000000000000E+20
 24
1.000000000000000E+20
 34
1.000000000000000E+20
 15
-1.000000000000000E+20
 25
-1.000000000000000E+20
 35
-1.000000000000000E+20
146
0.0
 13
0.0
 23
0.0
 33
0.0
 16
1.0
 26
0.0
 36
0.0
 17
0.0
 27
1.0
 37
0.0
 76
     0
330
1B
  0
LAYOUT
  5
26
102
{ACAD_REACTORS
330
1A
102
}
330
1A
100
AcDbPlotSettings
  1

  2
none_device
  4

  6

 40
0.0
 41
0.0
 42
0.0
 43
0.0
 44
0.0
 45
0.0
 46
0.0
 47
0.0
 48
0.0
 49
0.0
140
0.0
141
0.0
142
1.0
143
1.0
 70
   688
 72
     0
 73
     0
 74
     5
  7

 75
    16
 76
     0
 77
     2
 78
   300
147
1.0
148
0.0
149
0.0
100
AcDbLayout
  1
Layout2
 70
     1
 71
     2
 10
0.0
 20
0.0
 11
0.0
 21
0.0
 12
0.0
 22
0.0
 32
0.0
 14
0.0
 24
0.0
 34
0.0
 15
0.0
 25
0.0
 35
0.0
146
0.0
 13
0.0
 23
0.0
 33
0.0
 16
1.0
 26
0.0
 36
0.0
 17
0.0
 27
1.0
 37
0.0
 76
     0
330
23
  0
LAYOUT
  5
22
102
{ACAD_REACTORS
330
1A
102
}
330
1A
100
AcDbPlotSettings
  1

  2
none_device
  4

  6

 40
0.0
 41
0.0
 42
0.0
 43
0.0
 44
0.0
 45
0.0
 46
0.0
 47
0.0
 48
0.0
 49
0.0
140
0.0
141
0.0
142
1.0
143
1.0
 70
  1712
 72
     0
 73
     0
 74
     0
  7

 75
     0
 76
     0
 77
     2
 78
   300
147
1.0
148
0.0
149
0.0
100
AcDbLayout
  1
Model
 70
     1
 71
     0
 10
0.0
 20
0.0
 11
12.0
 21
9.0
 12
0.0
 22
0.0
 32
0.0
 14
1.000000000000000E+20
 24
1.000000000000000E+20
 34
1.000000000000000E+20
 15
-1.000000000000000E+20
 25
-1.000000000000000E+20
 35
-1.000000000000000E+20
146
0.0
 13
0.0
 23
0.0
 33
0.0
 16
1.0
 26
0.0
 36
0.0
 17
0.0
 27
1.0
 37
0.0
 76
     0
330
1F
331
29
  0
MATERIAL
  5
3D
102
{ACAD_REACTORS
330
3B
102
}
330
3B
100
AcDbMaterial
  1
ByBlock
 72
     1
 94
      127
  0
MATERIAL
  5
3C
102
{ACAD_REACTORS
330
3B
102
}
330
3B
100
AcDbMaterial
  1
ByLayer
 72
     1
 94
      127
  0
MATERIAL
  5
3E
102
{ACAD_REACTORS
330
3B
102
}
330
3B
100
AcDbMaterial
  1
Global
 72
     1
 94
      127
  0
MLINESTYLE
  5
18
102
{ACAD_REACTORS
330
17
102
}
330
17
100
AcDbMlineStyle
  2
Standard
 70
     0
  3

 62
   256
 51
90.0
 52
90.0
 71
     2
 49
0.5
 62
   256
  6
BYLAYER
 49
-0.5
 62
   256
  6
BYLAYER
  0
ACDBPLACEHOLDER
  5
F
102
{ACAD_REACTORS
330
E
102
}
330
E
  0
VISUALSTYLE
  5
2F
102
{ACAD_REACTORS
330
2A
102
}
330
2A
100
AcDbVisualStyle
  2
2dWireframe
 70
     4
177
     2
291
     0
 71
     0
176
     1
 72
     2
176
     1
 73
     0
176
     1
 90
        0
176
     1
 40
-0.6
176
     1
 41
-30.0
176
     1
 62
     5
 63
     7
421
 16777215
176
     1
 74
     1
176
     1
 91
        4
176
     1
 64
     7
176
     1
 65
   257
176
     1
 75
     1
176
     1
175
     1
176
     1
 42
1.0
176
     1
 92
        0
176
     1
 66
   257
176
     1
 43
1.0
176
     1
 76
     1
176
     1
 77
     6
176
     1
 78
     2
176
     1
 67
     7
176
     1
 79
     5
176
     1
170
     0
176
     1
171
     0
176
     1
290
     0
176
     1
 93
        1
176
     1
 44
0.0
176
     1
173
     0
176
     1
  0
VISUALSTYLE
  5
31
102
{ACAD_REACTORS
330
2A
102
}
330
2A
100
AcDbVisualStyle
  2
3D Hidden
 70
     6
177
     2
291
     0
 71
     1
176
     1
 72
     2
176
     1
 73
     2
176
     1
 90
        0
176
     1
 40
-0.6
176
     1
 41
-30.0
176
     1
 62
     5
 63
     7
421
 16777215
176
     1
 74
     2
176
     1
 91
        2
176
     1
 64
     7
176
     1
 65
   257
176
     1
 75
     2
176
     1
175
     1
176
     1
 42
40.0
176
     1
 92
        0
176
     1
 66
   257
176
     1
 43
1.0
176
     1
 76
     1
176
     1
 77
     6
176
     1
 78
     2
176
     1
 67
     7
176
     1
 79
     3
176
     1
170
     0
176
     1
171
     0
176
     1
290
     0
176
     1
 93
        1
176
     1
 44
0.0
176
     1
173
     0
176
     1
  0
VISUALSTYLE
  5
30
102
{ACAD_REACTORS
330
2A
102
}
330
2A
100
AcDbVisualStyle
  2
3dWireframe
 70
     5
177
     2
291
     0
 71
     0
176
     1
 72
     2
176
     1
 73
     0
176
     1
 90
        0
176
     1
 40
-0.6
176
     1
 41
-30.0
176
     1
 62
     5
 63
     7
421
 16777215
176
     1
 74
     1
176
     1
 91
        4
176
     1
 64
     7
176
     1
 65
   257
176
     1
 75
     1
176
     1
175
     1
176
     1
 42
1.0
176
     1
 92
        0
176
     1
 66
   257
176
     1
 43
1.0
176
     1
 76
     1
176
     1
 77
     6
176
     1
 78
     2
176
     1
 67
     7
176
     1
 79
     5
176
     1
170
     0
176
     1
171
     0
176
     1
290
     0
176
     1
 93
        1
176
     1
 44
0.0
176
     1
173
     0
176
     1
  0
VISUALSTYLE
  5
32
102
{ACAD_REACTORS
330
2A
102
}
330
2A
100
AcDbVisualStyle
  2
Basic
 70
     7
177
     2
291
     1
 71
     1
176
     1
 72
     0
176
     1
 73
     1
176
     1
 90
        0
176
     1
 40
-0.6
176
     1
 41
-30.0
176
     1
 62
     5
 63
     7
421
 16777215
176
     1
 74
     0
176
     1
 91
        4
176
     1
 64
     7
176
     1
 65
   257
176
     1
 75
     1
176
     1
175
     1
176
     1
 42
1.0
176
     1
 92
        8
176
     1
 66
     7
176
     1
 43
1.0
176
     1
 76
     1
176
     1
 77
     6
176
     1
 78
     2
176
     1
 67
     7
176
     1
 79
     5
176
     1
170
     0
176
     1
171
     0
176
     1
290
     0
176
     1
 93
        1
176
     1
 44
0.0
176
     1
173
     0
176
     1
  0
VISUALSTYLE
  5
36
102
{ACAD_REACTORS
330
2A
102
}
330
2A
100
AcDbVisualStyle
  2
Brighten
 70
    12
177
     2
291
     1
 71
     2
176
     1
 72
     2
176
     1
 73
     0
176
     1
 90
        0
176
     1
 40
-0.6
176
     1
 41
-30.0
176
     1
 62
     5
 63
     7
421
 16777215
176
     1
 74
     1
176
     1
 91
        4
176
     1
 64
     7
176
     1
 65
   257
176
     1
 75
     1
176
     1
175
     1
176
     1
 42
1.0
176
     1
 92
        8
176
     1
 66
     7
176
     1
 43
1.0
176
     1
 76
     1
176
     1
 77
     6
176
     1
 78
     2
176
     1
 67
     7
176
     1
 79
     5
176
     1
170
     0
176
     1
171
     0
176
     1
290
     0
176
     1
 93
        1
176
     1
 44
50.0
176
     1
173
     0
176
     1
  0
VISUALSTYLE
  5
3A
102
{ACAD_REACTORS
330
2A
102
}
330
2A
100
AcDbVisualStyle
  2
ColorChange
 70
    16
177
     2
291
     1
 71
     2
176
     1
 72
     2
176
     1
 73
     3
176
     1
 90
        0
176
     1
 40
-0.6
176
     1
 41
-30.0
176
     1
 62
     5
 63
     8
421
  8421504
176
     1
 74
     1
176
     1
 91
        4
176
     1
 64
     7
176
     1
 65
   257
176
     1
 75
     1
176
     1
175
     1
176
     1
 42
1.0
176
     1
 92
        8
176
     1
 66
     8
424
  8421504
176
     1
 43
1.0
176
     1
 76
     1
176
     1
 77
     6
176
     1
 78
     2
176
     1
 67
     7
176
     1
 79
     5
176
     1
170
     0
176
     1
171
     0
176
     1
290
     0
176
     1
 93
        1
176
     1
 44
0.0
176
     1
173
     0
176
     1
  0
VISUALSTYLE
  5
34
102
{ACAD_REACTORS
330
2A
102
}
330
2A
100
AcDbVisualStyle
  2
Conceptual
 70
     9
177
     2
291
     0
 71
     3
176
     1
 72
     2
176
     1
 73
     0
176
     1
 90
        0
176
     1
 40
-0.6
176
     1
 41
-30.0
176
     1
 62
     5
 63
     7
421
 16777215
176
     1
 74
     2
176
     1
 91
        2
176
     1
 64
     7
176
     1
 65
   257
176
     1
 75
     1
176
     1
175
     1
176
     1
 42
40.0
176
     1
 92
        8
176
     1
 66
     7
176
     1
 43
1.0
176
     1
 76
     1
176
     1
 77
     6
176
     1
 78
     2
176
     1
 67
     7
176
     1
 79
     3
176
     1
170
     0
176
     1
171
     0
176
     1
290
     0
176
     1
 93
        1
176
     1
 44
0.0
176
     1
173
     0
176
     1
  0
VISUALSTYLE
  5
35
102
{ACAD_REACTORS
330
2A
102
}
330
2A
100
AcDbVisualStyle
  2
Dim
 70
    11
177
     2
291
     1
 71
     2
176
     1
 72
     2
176
     1
 73
     0
176
     1
 90
        0
176
     1
 40
-0.6
176
     1
 41
-30.0
176
     1
 62
     5
 63
     7
421
 16777215
176
     1
 74
     1
176
     1
 91
        4
176
     1
 64
     7
176
     1
 65
   257
176
     1
 75
     1
176
     1
175
     1
176
     1
 42
1.0
176
     1
 92
        8
176
     1
 66
     7
176
     1
 43
1.0
176
     1
 76
     1
176
     1
 77
     6
176
     1
 78
     2
176
     1
 67
     7
176
     1
 79
     5
176
     1
170
     0
176
     1
171
     0
176
     1
290
     0
176
     1
 93
        1
176
     1
 44
-50.0
176
     1
173
     0
176
     1
  0
VISUALSTYLE
  5
39
102
{ACAD_REACTORS
330
2A
102
}
330
2A
100
AcDbVisualStyle
  2
Facepattern
 70
    15
177
     2
291
     1
 71
     2
176
     1
 72
     2
176
     1
 73
     0
176
     1
 90
        0
176
     1
 40
-0.6
176
     1
 41
-30.0
176
     1
 62
     5
 63
     7
421
 16777215
176
     1
 74
     1
176
     1
 91
        4
176
     1
 64
     7
176
     1
 65
   257
176
     1
 75
     1
176
     1
175
     1
176
     1
 42
1.0
176
     1
 92
        8
176
     1
 66
     7
176
     1
 43
1.0
176
     1
 76
     1
176
     1
 77
     6
176
     1
 78
     2
176
     1
 67
     7
176
     1
 79
     5
176
     1
170
     0
176
     1
171
     0
176
     1
290
     0
176
     1
 93
        1
176
     1
 44
0.0
176
     1
173
     0
176
     1
  0
VISUALSTYLE
  5
2B
102
{ACAD_REACTORS
330
2A
102
}
330
2A
100
AcDbVisualStyle
  2
Flat
 70
     0
177
     2
291
     1
 71
     2
176
     1
 72
     1
176
     1
 73
     1
176
     1
 90
        2
176
     1
 40
-0.6
176
     1
 41
30.0
176
     1
 62
     5
 63
     7
421
 16777215
176
     1
 74
     0
176
     1
 91
        4
176
     1
 64
     7
176
     1
 65
   257
176
     1
 75
     1
176
     1
175
     1
176
     1
 42
1.0
176
     1
 92
        8
176
     1
 66
     7
176
     1
 43
1.0
176
     1
 76
     1
176
     1
 77
     6
176
     1
 78
     2
176
     1
 67
     7
176
     1
 79
     5
176
     1
170
     0
176
     1
171
     0
176
     1
290
     0
176
     1
 93
       13
176
     1
 44
0.0
176
     1
173
     0
176
     1
  0
VISUALSTYLE
  5
2C
102
{ACAD_REACTORS
330
2A
102
}
330
2A
100
AcDbVisualStyle
  2
FlatWithEdges
 70
     1
177
     2
291
     1
 71
     2
176
     1
 72
     1
176
     1
 73
     1
176
     1
 90
        2
176
     1
 40
-0.6
176
     1
 41
30.0
176
     1
 62
     5
 63
     7
421
 16777215
176
     1
 74
     1
176
     1
 91
        4
176
     1
 64
     7
176
     1
 65
   257
176
     1
 75
     1
176
     1
175
     1
176
     1
 42
1.0
176
     1
 92
        0
176
     1
 66
   257
176
     1
 43
1.0
176
     1
 76
     1
176
     1
 77
     6
176
     1
 78
     2
176
     1
 67
     7
176
     1
 79
     5
176
     1
170
     0
176
     1
171
     0
176
     1
290
     0
176
     1
 93
       13
176
     1
 44
0.0
176
     1
173
     0
176
     1
  0
VISUALSTYLE
  5
2D
102
{ACAD_REACTORS
330
2A
102
}
330
2A
100
AcDbVisualStyle
  2
Gouraud
 70
     2
177
     2
291
     1
 71
     2
176
     1
 72
     2
176
     1
 73
     1
176
     1
 90
        2
176
     1
 40
-0.6
176
     1
 41
30.0
176
     1
 62
     5
 63
     7
421
 16777215
176
     1
 74
     0
176
     1
 91
        4
176
     1
 64
     7
176
     1
 65
   257
176
     1
 75
     1
176
     1
175
     1
176
     1
 42
1.0
176
     1
 92
        0
176
     1
 66
     7
176
     1
 43
1.0
176
     1
 76
     1
176
     1
 77
     6
176
     1
 78
     2
176
     1
 67
     7
176
     1
 79
     5
176
     1
170
     0
176
     1
171
     0
176
     1
290
     0
176
     1
 93
       13
176
     1
 44
0.0
176
     1
173
     0
176
     1
  0
VISUALSTYLE
  5
2E
102
{ACAD_REACTORS
330
2A
102
}
330
2A
100
AcDbVisualStyle
  2
GouraudWithEdges
 70
     3
177
     2
291
     1
 71
     2
176
     1
 72
     2
176
     1
 73
     1
176
     1
 90
        2
176
     1
 40
-0.6
176
     1
 41
30.0
176
     1
 62
     5
 63
     7
421
 16777215
176
     1
 74
     1
176
     1
 91
        4
176
     1
 64
     7
176
     1
 65
   257
176
     1
 75
     1
176
     1
175
     1
176
     1
 42
1.0
176
     1
 92
        0
176
     1
 66
   257
176
     1
 43
1.0
176
     1
 76
     1
176
     1
 77
     6
176
     1
 78
     2
176
     1
 67
     7
176
     1
 79
     5
176
     1
170
     0
176
     1
171
     0
176
     1
290
     0
176
     1
 93
       13
176
     1
 44
0.0
176
     1
173
     0
176
     1
  0
VISUALSTYLE
  5
38
102
{ACAD_REACTORS
330
2A
102
}
330
2A
100
AcDbVisualStyle
  2
Linepattern
 70
    14
177
     2
291
     1
 71
     2
176
     1
 72
     2
176
     1
 73
     0
176
     1
 90
        0
176
     1
 40
-0.6
176
     1
 41
-30.0
176
     1
 62
     5
 63
     7
421
 16777215
176
     1
 74
     1
176
     1
 91
        4
176
     1
 64
     7
176
     1
 65
   257
176
     1
 75
     7
176
     1
175
     7
176
     1
 42
1.0
176
     1
 92
        8
176
     1
 66
     7
176
     1
 43
1.0
176
     1
 76
     1
176
     1
 77
     6
176
     1
 78
     2
176
     1
 67
     7
176
     1
 79
     5
176
     1
170
     0
176
     1
171
     0
176
     1
290
     0
176
     1
 93
        1
176
     1
 44
0.0
176
     1
173
     0
176
     1
  0
VISUALSTYLE
  5
33
102
{ACAD_REACTORS
330
2A
102
}
330
2A
100
AcDbVisualStyle
  2
Realistic
 70
     8
177
     2
291
     0
 71
     2
176
     1
 72
     2
176
     1
 73
     0
176
     1
 90
        0
176
     1
 40
-0.6
176
     1
 41
-30.0
176
     1
 62
     5
 63
     7
421
 16777215
176
     1
 74
     1
176
     1
 91
        0
176
     1
 64
     7
176
     1
 65
   257
176
     1
 75
     1
176
     1
175
     1
176
     1
 42
1.0
176
     1
 92
        8
176
     1
 66
     8
424
  7895160
176
     1
 43
1.0
176
     1
 76
     1
176
     1
 77
     6
176
     1
 78
     2
176
     1
 67
     7
176
     1
 79
     5
176
     1
170
     0
176
     1
171
     0
176
     1
290
     0
176
     1
 93
       13
176
     1
 44
0.0
176
     1
173
     0
176
     1
  0
VISUALSTYLE
  5
37
102
{ACAD_REACTORS
330
2A
102
}
330
2A
100
AcDbVisualStyle
  2
Thicken
 70
    13
177
     2
291
     1
 71
     2
176
     1
 72
     2
176
     1
 73
     0
176
     1
 90
        0
176
     1
 40
-0.6
176
     1
 41
-30.0
176
     1
 62
     5
 63
     7
421
 16777215
176
     1
 74
     1
176
     1
 91
        4
176
     1
 64
     7
176
     1
 65
   257
176
     1
 75
     1
176
     1
175
     1
176
     1
 42
1.0
176
     1
 92
       12
176
     1
 66
     7
176
     1
 43
1.0
176
     1
 76
     1
176
     1
 77
     6
176
     1
 78
     2
176
     1
 67
     7
176
     1
 79
     5
176
     1
170
     0
176
     1
171
     0
176
     1
290
     0
176
     1
 93
        1
176
     1
 44
0.0
176
     1
173
     0
176
     1
  0
ENDSEC
  0
EOF
