  0
SECTION
  2
HEADER
  9
$ACADVER
  1
AC1024
  9
$ACADMAINTVER
 70
     6
  9
$DWGCODEPAGE
  3
UNDEFINED
  9
$INSBASE
 10
0.0
 20
0.0
 30
0.0
  9
$EXTMIN
 10
1.000000000000000E+20
 20
1.000000000000000E+20
 30
1.000000000000000E+20
  9
$EXTMAX
 10
-1.000000000000000E+20
 20
-1.000000000000000E+20
 30
-1.000000000000000E+20
  9
$LIMMIN
 10
0.0
 20
0.0
  9
$LIMMAX
 10
12.0
 20
9.0
  9
$ORTHOMODE
 70
     0
  9
$REGENMODE
 70
     1
  9
$FILLMODE
 70
     1
  9
$QTEXTMODE
 70
     0
  9
$MIRRTEXT
 70
     1
  9
$LTSCALE
 40
1.0
  9
$ATTMODE
 70
     1
  9
$TEXTSIZE
 40
0.2
  9
$TRACEWID
 40
0.05
  9
$TEXTSTYLE
  7
Standard
  9
$CLAYER
  8
0
  9
$CELTYPE
  6
ByLayer
  9
$CECOLOR
 62
   256
  9
$CELTSCALE
 40
1.0
  9
$DISPSILH
 70
     0
  9
$DIMSCALE
 40
1.0
  9
$DIMASZ
 40
0.18
  9
$DIMEXO
 40
0.0625
  9
$DIMDLI
 40
0.38
  9
$DIMRND
 40
0.0
  9
$DIMDLE
 40
0.0
  9
$DIMEXE
 40
0.18
  9
$DIMTP
 40
0.0
  9
$DIMTM
 40
0.0
  9
$DIMTXT
 40
0.18
  9
$DIMCEN
 40
0.09
  9
$DIMTSZ
 40
0.0
  9
$DIMTOL
 70
     0
  9
$DIMLIM
 70
     0
  9
$DIMTIH
 70
     1
  9
$DIMTOH
 70
     1
  9
$DIMSE1
 70
     0
  9
$DIMSE2
 70
     0
  9
$DIMTAD
 70
     0
  9
$DIMZIN
 70
     0
  9
$DIMBLK
  1

  9
$DIMASO
 70
     1
  9
$DIMSHO
 70
     1
  9
$DIMPOST
  1

  9
$DIMAPOST
  1

  9
$DIMALT
 70
     0
  9
$DIMALTD
 70
     2
  9
$DIMALTF
 40
25.4
  9
$DIMLFAC
 40
1.0
  9
$DIMTOFL
 70
     0
  9
$DIMTVP
 40
0.0
  9
$DIMTIX
 70
     0
  9
$DIMSOXD
 70
     0
  9
$DIMSAH
 70
     0
  9
$DIMBLK1
  1

  9
$DIMBLK2
  1

  9
$DIMSTYLE
  2
Standard
  9
$DIMCLRD
 70
     0
  9
$DIMCLRE
 70
     0
  9
$DIMCLRT
 70
     0
  9
$DIMTFAC
 40
1.0
  9
$DIMGAP
 40
0.09
  9
$DIMJUST
 70
     0
  9
$DIMSD1
 70
     0
  9
$DIMSD2
 70
     0
  9
$DIMTOLJ
 70
     1
  9
$DIMTZIN
 70
     0
  9
$DIMALTZ
 70
     0
  9
$DIMALTTZ
 70
     0
  9
$DIMUPT
 70
     0
  9
$DIMDEC
 70
     4
  9
$DIMTDEC
 70
     4
  9
$DIMALTU
 70
     2
  9
$DIMALTTD
 70
     2
  9
$DIMTXSTY
  7
Standard
  9
$DIMAUNIT
 70
     0
  9
$DIMADEC
 70
     0
  9
$DIMALTRND
 40
0.0
  9
$DIMAZIN
 70
     0
  9
$DIMDSEP
 70
    46
  9
$DIMATFIT
 70
     3
  9
$DIMFRAC
 70
     0
  9
$DIMLDRBLK
  1

  9
$DIMLUNIT
 70
     2
  9
$DIMLWD
 70
    -2
  9
$DIMLWE
 70
    -2
  9
$DIMTMOVE
 70
     0
  9
$DIMFXL
 40
1.0
  9
$DIMFXLON
 70
     0
  9
$DIMJOGANG
 40
0.7853981633974483
  9
$DIMTFILL
 70
     0
  9
$DIMTFILLCLR
 70
     0
  9
$DIMARCSYM
 70
     0
  9
$DIMLTYPE
  6

  9
$DIMLTEX1
  6

  9
$DIMLTEX2
  6

  9
$DIMTXTDIRECTION
 70
     0
  9
$LUNITS
 70
     2
  9
$LUPREC
 70
     4
  9
$SKETCHINC
 40
0.1
  9
$FILLETRAD
 40
0.5
  9
$AUNITS
 70
     0
  9
$AUPREC
 70
     0
  9
$MENU
  1
.
  9
$ELEVATION
 40
0.0
  9
$PELEVATION
 40
0.0
  9
$THICKNESS
 40
0.0
  9
$LIMCHECK
 70
     0
  9
$CHAMFERA
 40
0.5
  9
$CHAMFERB
 40
0.5
  9
$CHAMFERC
 40
1.0
  9
$CHAMFERD
 40
0.0
  9
$SKPOLY
 70
     0
  9
$TDCREATE
 40
2457917.646574062
  9
$TDUCREATE
 40
2457917.271574074
  9
$TDUPDATE
 40
2457917.646574062
  9
$TDUUPDATE
 40
2457917.271574074
  9
$TDINDWG
 40
0.0000000116
  9
$TDUSRTIMER
 40
0.0000000116
  9
$USRTIMER
 70
     1
  9
$ANGBASE
 50
0.0
  9
$ANGDIR
 70
     0
  9
$PDMODE
 70
     0
  9
$PDSIZE
 40
0.0
  9
$PLINEWID
 40
0.0
  9
$SPLFRAME
 70
     0
  9
$SPLINETYPE
 70
     6
  9
$SPLINESEGS
 70
     8
  9
$HANDSEED
  5
115
  9
$SURFTAB1
 70
     6
  9
$SURFTAB2
 70
     6
  9
$SURFTYPE
 70
     6
  9
$SURFU
 70
     6
  9
$SURFV
 70
     6
  9
$UCSBASE
  2

  9
$UCSNAME
  2

  9
$UCSORG
 10
0.0
 20
0.0
 30
0.0
  9
$UCSXDIR
 10
1.0
 20
0.0
 30
0.0
  9
$UCSYDIR
 10
0.0
 20
1.0
 30
0.0
  9
$UCSORTHOREF
  2

  9
$UCSORTHOVIEW
 70
     0
  9
$UCSORGTOP
 10
0.0
 20
0.0
 30
0.0
  9
$UCSORGBOTTOM
 10
0.0
 20
0.0
 30
0.0
  9
$UCSORGLEFT
 10
0.0
 20
0.0
 30
0.0
  9
$UCSORGRIGHT
 10
0.0
 20
0.0
 30
0.0
  9
$UCSORGFRONT
 10
0.0
 20
0.0
 30
0.0
  9
$UCSORGBACK
 10
0.0
 20
0.0
 30
0.0
  9
$PUCSBASE
  2

  9
$PUCSNAME
  2

  9
$PUCSORG
 10
0.0
 20
0.0
 30
0.0
  9
$PUCSXDIR
 10
1.0
 20
0.0
 30
0.0
  9
$PUCSYDIR
 10
0.0
 20
1.0
 30
0.0
  9
$PUCSORTHOREF
  2

  9
$PUCSORTHOVIEW
 70
     0
  9
$PUCSORGTOP
 10
0.0
 20
0.0
 30
0.0
  9
$PUCSORGBOTTOM
 10
0.0
 20
0.0
 30
0.0
  9
$PUCSORGLEFT
 10
0.0
 20
0.0
 30
0.0
  9
$PUCSORGRIGHT
 10
0.0
 20
0.0
 30
0.0
  9
$PUCSORGFRONT
 10
0.0
 20
0.0
 30
0.0
  9
$PUCSORGBACK
 10
0.0
 20
0.0
 30
0.0
  9
$USERI1
 70
     0
  9
$USERI2
 70
     0
  9
$USERI3
 70
     0
  9
$USERI4
 70
     0
  9
$USERI5
 70
     0
  9
$USERR1
 40
0.0
  9
$USERR2
 40
0.0
  9
$USERR3
 40
0.0
  9
$USERR4
 40
0.0
  9
$USERR5
 40
0.0
  9
$WORLDVIEW
 70
     1
  9
$SHADEDGE
 70
     3
  9
$SHADEDIF
 70
    70
  9
$TILEMODE
 70
     1
  9
$MAXACTVP
 70
    64
  9
$PINSBASE
 10
0.0
 20
0.0
 30
0.0
  9
$PLIMCHECK
 70
     0
  9
$PEXTMIN
 10
1.000000000000000E+20
 20
1.000000000000000E+20
 30
1.000000000000000E+20
  9
$PEXTMAX
 10
-1.000000000000000E+20
 20
-1.000000000000000E+20
 30
-1.000000000000000E+20
  9
$PLIMMIN
 10
0.0
 20
0.0
  9
$PLIMMAX
 10
12.0
 20
9.0
  9
$UNITMODE
 70
     0
  9
$VISRETAIN
 70
     1
  9
$PLINEGEN
 70
     0
  9
$PSLTSCALE
 70
     1
  9
$TREEDEPTH
 70
  3020
  9
$CMLSTYLE
  2
Standard
  9
$CMLJUST
 70
     0
  9
$CMLSCALE
 40
1.0
  9
$PROXYGRAPHICS
 70
     1
  9
$MEASUREMENT
 70
     0
  9
$CELWEIGHT
370
    -1
  9
$ENDCAPS
280
     0
  9
$JOINSTYLE
280
     0
  9
$LWDISPLAY
290
     1
  9
$INSUNITS
 70
     1
  9
$HYPERLINKBASE
  1

  9
$STYLESHEET
  1

  9
$XEDIT
290
     1
  9
$CEPSNTYPE
380
     0
  9
$PSTYLEMODE
290
     1
  9
$FINGERPRINTGUID
  2
{1B0CD796-B9F9-FEC2-5393-3CEA7042ADEB}
  9
$VERSIONGUID
  2
{FAEB1C32-E019-11D5-929B-00C0DF256EC4}
  9
$EXTNAMES
290
     1
  9
$PSVPSCALE
 40
0.0
  9
$OLESTARTUP
290
     0
  9
$SORTENTS
280
   127
  9
$INDEXCTL
280
     0
  9
$HIDETEXT
280
     1
  9
$XCLIPFRAME
280
     2
  9
$HALOGAP
280
     0
  9
$OBSCOLOR
 70
   257
  9
$OBSLTYPE
280
     0
  9
$INTERSECTIONDISPLAY
280
     0
  9
$INTERSECTIONCOLOR
 70
   257
  9
$DIMASSOC
280
     2
  9
$PROJECTNAME
  1

  9
$CAMERADISPLAY
290
     0
  9
$LENSLENGTH
 40
50.0
  9
$CAMERAHEIGHT
 40
0.0
  9
$STEPSPERSEC
 40
2.0
  9
$STEPSIZE
 40
6.0
  9
$3DDWFPREC
 40
2.0
  9
$PSOLWIDTH
 40
0.25
  9
$PSOLHEIGHT
 40
4.0
  9
$LOFTANG1
 40
1.570796326794897
  9
$LOFTANG2
 40
1.570796326794897
  9
$LOFTMAG1
 40
0.0
  9
$LOFTMAG2
 40
0.0
  9
$LOFTPARAM
 70
     7
  9
$LOFTNORMALS
280
     1
  9
$LATITUDE
 40
37.795
  9
$LONGITUDE
 40
-122.394
  9
$NORTHDIRECTION
 40
0.0
  9
$TIMEZONE
 70
 -8000
  9
$LIGHTGLYPHDISPLAY
280
     1
  9
$TILEMODELIGHTSYNCH
280
     1
  9
$CMATERIAL
347
3C
  9
$SOLIDHIST
280
     1
  9
$SHOWHIST
280
     1
  9
$DWFFRAME
280
     2
  9
$DGNFRAME
280
     2
  9
$REALWORLDSCALE
290
     1
  9
$INTERFERECOLOR
 62
   256
  9
$CSHADOW
280
     0
  9
$SHADOWPLANELOCATION
 40
0.0
  0
ENDSEC
  0
SECTION
  2
CLASSES
  0
CLASS
  1
ACDBDICTIONARYWDFLT
  2
AcDbDictionaryWithDefault
  3
ObjectDBX Classes
 90
        0
 91
        4
280
     0
281
     0
  0
CLASS
  1
VISUALSTYLE
  2
AcDbVisualStyle
  3
ObjectDBX Classes
 90
     4095
 91
        4
280
     0
281
     0
  0
CLASS
  1
MATERIAL
  2
AcDbMaterial
  3
ObjectDBX Classes
 90
     1153
 91
        4
280
     0
281
     0
  0
CLASS
  1
SUN
  2
AcDbSun
  3
SCENEOE
 90
     1024
 91
        4
280
     0
281
     0
  0
ENDSEC
  0
SECTION
  2
TABLES
  0
TABLE
  2
VPORT
  5
8
330
0
100
AcDbSymbolTable
 70
     1
  0
VPORT
  5
29
330
8
100
AcDbSymbolTableRecord
100
AcDbViewportTableRecord
  2
*Active
 70
     0
 10
0.0
 20
0.0
 11
1.0
 21
1.0
 12
0.0
 22
0.0
 13
0.0
 23
0.0
 14
0.5
 24
0.5
 15
0.5
 25
0.5
 16
0.0
 26
0.0
 36
1.0
 17
91.00082462281999
 27
-128.4993055234307
 37
0.0
 40
256.9986110468615
 41
0.7081814508812795
 42
50.0
 43
0.0
 44
0.0
 50
0.0
 51
0.0
 71
     0
 72
   100
 73
     1
 74
     3
 75
     0
 76
     0
 77
     0
 78
     0
281
     0
 65
     1
110
0.0
120
0.0
130
0.0
111
1.0
121
0.0
131
0.0
112
0.0
122
1.0
132
0.0
 79
     0
146
0.0
 60
     3
 61
     5
292
     1
282
     1
141
0.0
142
0.0
 63
   250
361
3F
  0
ENDTAB
  0
TABLE
  2
LTYPE
  5
5
330
0
100
AcDbSymbolTable
 70
     1
  0
LTYPE
  5
14
330
5
100
AcDbSymbolTableRecord
100
AcDbLinetypeTableRecord
  2
ByBlock
 70
     0
  3

 72
    65
 73
     0
 40
0.0
  0
LTYPE
  5
15
330
5
100
AcDbSymbolTableRecord
100
AcDbLinetypeTableRecord
  2
ByLayer
 70
     0
  3

 72
    65
 73
     0
 40
0.0
  0
LTYPE
  5
16
330
5
100
AcDbSymbolTableRecord
100
AcDbLinetypeTableRecord
  2
Continuous
 70
     0
  3
Solid line
 72
    65
 73
     0
 40
0.0
  0
ENDTAB
  0
TABLE
  2
LAYER
  5
2
330
0
100
AcDbSymbolTable
 70
     2
  0
LAYER
  5
10
330
2
100
AcDbSymbolTableRecord
100
AcDbLayerTableRecord
  2
0
 70
     0
 62
     7
  6
Continuous
370
    -3
390
F
347
3E
  0
LAYER
  5
40
330
2
100
AcDbSymbolTableRecord
100
AcDbLayerTableRecord
  2
_U+30EC_U+30A4_U+30E4_U+30FC 1
 70
     0
 62
     7
  6
Continuous
370
    -3
390
F
347
3E
  0
ENDTAB
  0
TABLE
  2
STYLE
  5
3
330
0
100
AcDbSymbolTable
 70
     1
  0
STYLE
  5
11
330
3
100
AcDbSymbolTableRecord
100
AcDbTextStyleTableRecord
  2
Standard
 70
     0
 40
0.0
 41
1.0
 50
0.0
 71
     0
 42
0.2
  3
txt
  4

  0
ENDTAB
  0
TABLE
  2
VIEW
  5
6
330
0
100
AcDbSymbolTable
 70
     0
  0
ENDTAB
  0
TABLE
  2
UCS
  5
7
330
0
100
AcDbSymbolTable
 70
     0
  0
ENDTAB
  0
TABLE
  2
APPID
  5
9
330
0
100
AcDbSymbolTable
 70
     1
  0
APPID
  5
12
330
9
100
AcDbSymbolTableRecord
100
AcDbRegAppTableRecord
  2
ACAD
 70
     0
  0
ENDTAB
  0
TABLE
  2
DIMSTYLE
  5
A
330
0
100
AcDbSymbolTable
 70
     1
100
AcDbDimStyleTable
  0
DIMSTYLE
105
27
330
A
100
AcDbSymbolTableRecord
100
AcDbDimStyleTableRecord
  2
Standard
 70
     0
178
     0
340
11
  0
ENDTAB
  0
TABLE
  2
BLOCK_RECORD
  5
1
330
0
100
AcDbSymbolTable
 70
     9
  0
BLOCK_RECORD
  5
1F
330
1
100
AcDbSymbolTableRecord
100
AcDbBlockTableRecord
  2
*Model_Space
340
22
 70
     0
280
     1
281
     0
  0
BLOCK_RECORD
  5
1B
330
1
100
AcDbSymbolTableRecord
100
AcDbBlockTableRecord
  2
*Paper_Space
340
1E
 70
     0
280
     1
281
     0
  0
BLOCK_RECORD
  5
23
330
1
100
AcDbSymbolTableRecord
100
AcDbBlockTableRecord
  2
*Paper_Space0
340
26
 70
     0
280
     1
281
     0
  0
BLOCK_RECORD
  5
41
330
1
100
AcDbSymbolTableRecord
100
AcDbBlockTableRecord
  2
block 2
340
0
102
{BLKREFS
331
42
102
}
 70
     0
280
     1
281
     0
  0
BLOCK_RECORD
  5
6C
330
1
100
AcDbSymbolTableRecord
100
AcDbBlockTableRecord
  2
block 3
340
0
102
{BLKREFS
331
6D
102
}
 70
     0
280
     1
281
     0
  0
BLOCK_RECORD
  5
73
330
1
100
AcDbSymbolTableRecord
100
AcDbBlockTableRecord
  2
block 4
340
0
102
{BLKREFS
331
74
102
}
 70
     0
280
     1
281
     0
  0
BLOCK_RECORD
  5
7A
330
1
100
AcDbSymbolTableRecord
100
AcDbBlockTableRecord
  2
block 5
340
0
102
{BLKREFS
331
7B
102
}
 70
     0
280
     1
281
     0
  0
BLOCK_RECORD
  5
B6
330
1
100
AcDbSymbolTableRecord
100
AcDbBlockTableRecord
  2
block 6
340
0
102
{BLKREFS
331
B7
102
}
 70
     0
280
     1
281
     0
  0
BLOCK_RECORD
  5
D1
330
1
100
AcDbSymbolTableRecord
100
AcDbBlockTableRecord
  2
block 7
340
0
102
{BLKREFS
331
D2
102
}
 70
     0
280
     1
281
     0
  0
BLOCK_RECORD
  5
DA
330
1
100
AcDbSymbolTableRecord
100
AcDbBlockTableRecord
  2
block 8
340
0
102
{BLKREFS
331
DB
102
}
 70
     0
280
     1
281
     0
  0
BLOCK_RECORD
  5
E2
330
1
100
AcDbSymbolTableRecord
100
AcDbBlockTableRecord
  2
block 9
340
0
102
{BLKREFS
331
E3
102
}
 70
     0
280
     1
281
     0
  0
ENDTAB
  0
ENDSEC
  0
SECTION
  2
BLOCKS
  0
BLOCK
  5
20
330
1F
100
AcDbEntity
  8
0
100
AcDbBlockBegin
  2
*Model_Space
 70
     0
 10
0.0
 20
0.0
 30
0.0
  3
*Model_Space
  1

  0
ENDBLK
  5
21
330
1F
100
AcDbEntity
  8
0
100
AcDbBlockEnd
  0
BLOCK
  5
1C
330
1B
100
AcDbEntity
 67
     1
  8
0
100
AcDbBlockBegin
  2
*Paper_Space
 70
     0
 10
0.0
 20
0.0
 30
0.0
  3
*Paper_Space
  1

  0
ENDBLK
  5
1D
330
1B
100
AcDbEntity
 67
     1
  8
0
100
AcDbBlockEnd
  0
BLOCK
  5
24
330
23
100
AcDbEntity
  8
0
100
AcDbBlockBegin
  2
*Paper_Space0
 70
     0
 10
0.0
 20
0.0
 30
0.0
  3
*Paper_Space0
  1

  0
ENDBLK
  5
25
330
23
100
AcDbEntity
  8
0
100
AcDbBlockEnd
  0
BLOCK
  5
43
330
41
100
AcDbEntity
  8
0
100
AcDbBlockBegin
  2
block 2
 70
     0
 10
0.0
 20
0.0
 30
0.0
  3
block 2
  1

  0
SPLINE
  5
45
330
41
100
AcDbEntity
  8
_U+30EC_U+30A4_U+30E4_U+30FC 1
370
     0
100
AcDbSpline
210
0.0
220
0.0
230
1.0
 70
    11
 71
     3
 72
    59
 73
    55
 74
     0
 42
0.0000000001
 43
0.0000000001
 12
1.0
 22
0.0
 32
0.0
 13
1.0
 23
0.0
 33
0.0
 40
0.0
 40
0.0
 40
0.0
 40
0.0
 40
1.0
 40
1.0
 40
1.0
 40
2.0
 40
2.0
 40
2.0
 40
3.0
 40
3.0
 40
3.0
 40
4.0
 40
4.0
 40
4.0
 40
5.0
 40
5.0
 40
5.0
 40
6.0
 40
6.0
 40
6.0
 40
7.0
 40
7.0
 40
7.0
 40
8.0
 40
8.0
 40
8.0
 40
9.0
 40
9.0
 40
9.0
 40
10.0
 40
10.0
 40
10.0
 40
11.0
 40
11.0
 40
11.0
 40
12.0
 40
12.0
 40
12.0
 40
13.0
 40
13.0
 40
13.0
 40
14.0
 40
14.0
 40
14.0
 40
15.0
 40
15.0
 40
15.0
 40
16.0
 40
16.0
 40
16.0
 40
17.0
 40
17.0
 40
17.0
 40
18.0
 40
18.0
 40
18.0
 40
18.0
 10
71.24318818243485
 20
-130.7034610784351
 30
0.0
 10
71.24318818243485
 20
-130.7034610784351
 30
0.0
 10
71.24318818243485
 20
-140.1692296871796
 30
0.0
 10
71.24318818243485
 20
-140.1692296871796
 30
0.0
 10
71.24318818243485
 20
-140.1692296871796
 30
0.0
 10
73.88902144826734
 20
-141.7570824645605
 30
0.0
 10
73.88902144826734
 20
-141.7570824645605
 30
0.0
 10
73.88902144826734
 20
-141.7570824645605
 30
0.0
 10
75.41778390926537
 20
-140.9926130203074
 30
0.0
 10
75.41778390926537
 20
-140.9926130203074
 30
0.0
 10
75.41778390926537
 20
-140.9926130203074
 30
0.0
 10
75.77056167804304
 20
-140.4041796871213
 30
0.0
 10
76.12333944682071
 20
-140.4041796871213
 30
0.0
 10
76.12333944682071
 20
-140.4041796871213
 30
0.0
 10
82.76737955509489
 20
-136.4065019103428
 30
0.0
 10
82.76737955509489
 20
-136.4065019103428
 30
0.0
 10
82.76737955509489
 20
-136.4065019103428
 30
0.0
 10
83.35528370676288
 20
-136.4065019103428
 30
0.0
 10
83.35528370676288
 20
-136.4065019103428
 30
0.0
 10
83.35528370676288
 20
-136.4065019103428
 30
0.0
 10
84.3548795145944
 20
-135.8773352438084
 30
0.0
 10
84.3548795145944
 20
-135.8773352438084
 30
0.0
 10
84.3548795145944
 20
-135.8773352438084
 30
0.0
 10
84.3548795145944
 20
-135.4073999661483
 30
0.0
 10
84.3548795145944
 20
-135.4073999661483
 30
0.0
 10
84.3548795145944
 20
-135.4073999661483
 30
0.0
 10
82.41460178631723
 20
-134.3490666330795
 30
0.0
 10
82.41460178631723
 20
-134.3490666330795
 30
0.0
 10
82.41460178631723
 20
-134.3490666330795
 30
0.0
 10
81.59121847399015
 20
-133.5842796888261
 30
0.0
 10
82.70846566770902
 20
-132.878724133447
 30
0.0
 10
82.70846566770902
 20
-132.878724133447
 30
0.0
 10
90.70487935259241
 20
-128.1164005235265
 30
0.0
 10
90.70487935259241
 20
-128.1164005235265
 30
0.0
 10
90.70487935259241
 20
-128.1164005235265
 30
0.0
 10
90.76361685109389
 20
-129.4101777454254
 30
0.0
 10
90.76361685109389
 20
-129.4101777454254
 30
0.0
 10
90.76361685109389
 20
-129.4101777454254
 30
0.0
 10
103.4048790285884
 20
-136.9356685768772
 30
0.0
 10
103.4048790285884
 20
-136.9356685768772
 30
0.0
 10
103.4048790285884
 20
-136.9356685768772
 30
0.0
 10
103.816570684752
 20
-136.6418046880616
 30
0.0
 10
103.816570684752
 20
-136.6418046880616
 30
0.0
 10
103.816570684752
 20
-136.6418046880616
 30
0.0
 10
103.8751317943691
 20
-127.2344560793025
 30
0.0
 10
103.8751317943691
 20
-127.2344560793025
 30
0.0
 10
103.8751317943691
 20
-127.2344560793025
 30
0.0
 10
92.05707654031721
 20
-120.0612491366515
 30
0.0
 10
92.05707654031721
 20
-120.0612491366515
 30
0.0
 10
92.05707654031721
 20
-120.0612491366515
 30
0.0
 10
90.94018212436711
 20
-118.9441783035973
 30
0.0
 10
89.6465460462594
 20
-120.0025116366661
 30
0.0
 10
89.6465460462594
 20
-120.0025116366661
 30
0.0
 10
71.24318818243485
 20
-130.7034610784351
 30
0.0
 10
71.24318818243485
 20
-130.7034610784351
 30
0.0
  0
SPLINE
  5
46
330
41
100
AcDbEntity
  8
_U+30EC_U+30A4_U+30E4_U+30FC 1
 62
   179
420
  2234388
370
     9
100
AcDbSpline
210
0.0
220
0.0
230
1.0
 70
     8
 71
     3
 72
    71
 73
    67
 74
     0
 42
0.0000000001
 43
0.0000000001
 12
1.0
 22
0.0
 32
0.0
 13
1.0
 23
0.0
 33
0.0
 40
0.0
 40
0.0
 40
0.0
 40
0.0
 40
1.0
 40
1.0
 40
1.0
 40
2.0
 40
2.0
 40
2.0
 40
3.0
 40
3.0
 40
3.0
 40
4.0
 40
4.0
 40
4.0
 40
5.0
 40
5.0
 40
5.0
 40
6.0
 40
6.0
 40
6.0
 40
7.0
 40
7.0
 40
7.0
 40
8.0
 40
8.0
 40
8.0
 40
9.0
 40
9.0
 40
9.0
 40
10.0
 40
10.0
 40
10.0
 40
11.0
 40
11.0
 40
11.0
 40
12.0
 40
12.0
 40
12.0
 40
13.0
 40
13.0
 40
13.0
 40
14.0
 40
14.0
 40
14.0
 40
15.0
 40
15.0
 40
15.0
 40
16.0
 40
16.0
 40
16.0
 40
17.0
 40
17.0
 40
17.0
 40
18.0
 40
18.0
 40
18.0
 40
19.0
 40
19.0
 40
19.0
 40
20.0
 40
20.0
 40
20.0
 40
21.0
 40
21.0
 40
21.0
 40
22.0
 40
22.0
 40
22.0
 40
22.0
 10
90.79289740590244
 20
-119.9437388589028
 30
0.0
 10
90.79289740590244
 20
-119.9437388589028
 30
0.0
 10
90.73415990740095
 20
-129.4101777454254
 30
0.0
 10
90.73415990740095
 20
-129.4101777454254
 30
0.0
 10
90.73415990740095
 20
-129.4101777454254
 30
0.0
 10
103.434159583397
 20
-137.0238630212996
 30
0.0
 10
103.434159583397
 20
-137.0238630212996
 30
0.0
 10
103.434159583397
 20
-137.0238630212996
 30
0.0
 10
103.816570684752
 20
-136.729999132484
 30
0.0
 10
103.816570684752
 20
-136.729999132484
 30
0.0
 10
103.816570684752
 20
-136.729999132484
 30
0.0
 10
103.8454984617917
 20
-127.2051402459766
 30
0.0
 10
103.8454984617917
 20
-127.2051402459766
 30
0.0
 10
103.8454984617917
 20
-127.2051402459766
 30
0.0
 10
92.18661653701237
 20
-120.1495846921849
 30
0.0
 10
92.18661653701237
 20
-120.1495846921849
 30
0.0
 10
92.18661653701237
 20
-120.1495846921849
 30
0.0
 10
90.93982934659833
 20
-118.8559838591749
 30
0.0
 10
89.46998077298619
 20
-120.1201277477476
 30
0.0
 10
89.46998077298619
 20
-120.1201277477476
 30
0.0
 10
71.27264512612778
 20
-130.6738630228871
 30
0.0
 10
71.27264512612778
 20
-130.6738630228871
 30
0.0
 10
71.27264512612778
 20
-130.6738630228871
 30
0.0
 10
71.27264512612778
 20
-140.2277907982765
 30
0.0
 10
71.27264512612778
 20
-140.2277907982765
 30
0.0
 10
71.27264512612778
 20
-140.2277907982765
 30
0.0
 10
73.88902144826734
 20
-141.8452769089829
 30
0.0
 10
73.88902144826734
 20
-141.8452769089829
 30
0.0
 10
73.88902144826734
 20
-141.8452769089829
 30
0.0
 10
75.41778390926537
 20
-141.0515269091814
 30
0.0
 10
75.41778390926537
 20
-141.0515269091814
 30
0.0
 10
75.41778390926537
 20
-141.0515269091814
 30
0.0
 10
75.7411047343501
 20
-140.463446353773
 30
0.0
 10
76.18207694532218
 20
-140.3456185760244
 30
0.0
 10
76.18207694532218
 20
-140.3456185760244
 30
0.0
 10
82.79666010990344
 20
-136.4357824658912
 30
0.0
 10
82.79666010990344
 20
-136.4357824658912
 30
0.0
 10
82.79666010990344
 20
-136.4357824658912
 30
0.0
 10
83.32600315195434
 20
-136.4946963547652
 30
0.0
 10
83.4434781489573
 20
-136.4065019103428
 30
0.0
 10
83.4434781489573
 20
-136.4065019103428
 30
0.0
 10
84.38416006940295
 20
-135.8773352438084
 30
0.0
 10
84.38416006940295
 20
-135.8773352438084
 30
0.0
 10
84.38416006940295
 20
-135.8773352438084
 30
0.0
 10
84.41361701309589
 20
-135.4659610772445
 30
0.0
 10
84.41361701309589
 20
-135.4659610772445
 30
0.0
 10
84.41361701309589
 20
-135.4659610772445
 30
0.0
 10
83.50221564745878
 20
-136.0537241326532
 30
0.0
 10
83.50221564745878
 20
-136.0537241326532
 30
0.0
 10
83.50221564745878
 20
-136.0537241326532
 30
0.0
 10
82.79666010990344
 20
-136.1129555215275
 30
0.0
 10
82.79666010990344
 20
-136.1129555215275
 30
0.0
 10
82.79666010990344
 20
-136.1129555215275
 30
0.0
 10
75.7411047343501
 20
-140.2574241316021
 30
0.0
 10
75.7411047343501
 20
-140.2574241316021
 30
0.0
 10
75.7411047343501
 20
-140.2574241316021
 30
0.0
 10
75.3588700218795
 20
-140.5516407981954
 30
0.0
 10
75.30013252337802
 20
-140.8162241314626
 30
0.0
 10
75.30013252337802
 20
-140.8162241314626
 30
0.0
 10
73.91847839196029
 20
-141.5217796868418
 30
0.0
 10
73.91847839196029
 20
-141.5217796868418
 30
0.0
 10
73.91847839196029
 20
-141.5217796868418
 30
0.0
 10
71.65470344971399
 20
-140.1395963538541
 30
0.0
 10
71.65470344971399
 20
-140.1395963538541
 30
0.0
 10
71.65470344971399
 20
-140.1395963538541
 30
0.0
 10
71.65470344971399
 20
-130.8798499672799
 30
0.0
 10
71.65470344971399
 20
-130.8798499672799
 30
0.0
  0
SPLINE
  5
47
330
41
100
AcDbEntity
  8
_U+30EC_U+30A4_U+30E4_U+30FC 1
 62
   179
420
  2234388
370
     9
100
AcDbSpline
210
0.0
220
0.0
230
1.0
 70
     8
 71
     3
 72
    23
 73
    19
 74
     0
 42
0.0000000001
 43
0.0000000001
 12
1.0
 22
0.0
 32
0.0
 13
1.0
 23
0.0
 33
0.0
 40
0.0
 40
0.0
 40
0.0
 40
0.0
 40
1.0
 40
1.0
 40
1.0
 40
2.0
 40
2.0
 40
2.0
 40
3.0
 40
3.0
 40
3.0
 40
4.0
 40
4.0
 40
4.0
 40
5.0
 40
5.0
 40
5.0
 40
6.0
 40
6.0
 40
6.0
 40
6.0
 10
71.62524650602106
 20
-130.8798499672799
 30
0.0
 10
71.62524650602106
 20
-130.8798499672799
 30
0.0
 10
89.05846550570703
 20
-120.7376652475933
 30
0.0
 10
89.05846550570703
 20
-120.7376652475933
 30
0.0
 10
89.05846550570703
 20
-120.7376652475933
 30
0.0
 10
90.46940019193332
 20
-119.7969833033842
 30
0.0
 10
90.79289740590244
 20
-119.9144583033547
 30
0.0
 10
91.11639461987156
 20
-120.0319333033252
 30
0.0
 10
90.8518112932883
 20
-119.9144583033547
 30
0.0
 10
90.8518112932883
 20
-119.9144583033547
 30
0.0
 10
90.8518112932883
 20
-119.9144583033547
 30
0.0
 10
92.29202653432313
 20
-120.5318194143115
 30
0.0
 10
92.6448043031008
 20
-120.7669458031417
 30
0.0
 10
92.6448043031008
 20
-120.7669458031417
 30
0.0
 10
103.4927206930141
 20
-127.293334690399
 30
0.0
 10
103.4927206930141
 20
-127.293334690399
 30
0.0
 10
103.4927206930141
 20
-127.293334690399
 30
0.0
 10
103.4755051378977
 20
-136.9652666324252
 30
0.0
 10
103.4755051378977
 20
-136.9652666324252
 30
0.0
  0
SPLINE
  5
48
330
41
100
AcDbEntity
  8
_U+30EC_U+30A4_U+30E4_U+30FC 1
 62
   179
420
  2234388
370
     9
100
AcDbSpline
210
0.0
220
0.0
230
1.0
 70
     8
 71
     3
 72
    14
 73
    10
 74
     0
 42
0.0000000001
 43
0.0000000001
 12
1.0
 22
0.0
 32
0.0
 13
1.0
 23
0.0
 33
0.0
 40
0.0
 40
0.0
 40
0.0
 40
0.0
 40
1.0
 40
1.0
 40
1.0
 40
2.0
 40
2.0
 40
2.0
 40
3.0
 40
3.0
 40
3.0
 40
3.0
 10
90.73415990740095
 20
-128.2045949679489
 30
0.0
 10
90.73415990740095
 20
-128.2045949679489
 30
0.0
 10
82.64955178032315
 20
-132.9965166334174
 30
0.0
 10
82.64955178032315
 20
-132.9965166334174
 30
0.0
 10
82.64955178032315
 20
-132.9965166334174
 30
0.0
 10
81.73815041468606
 20
-133.4085610777587
 30
0.0
 10
82.20857956935107
 20
-134.2312388553309
 30
0.0
 10
82.20857956935107
 20
-134.2312388553309
 30
0.0
 10
84.35470312571002
 20
-135.4659610772445
 30
0.0
 10
84.35470312571002
 20
-135.4659610772445
 30
0.0
  0
SPLINE
  5
49
330
41
100
AcDbEntity
  8
_U+30EC_U+30A4_U+30E4_U+30FC 1
 62
   179
420
  2234388
370
     9
100
AcDbSpline
210
0.0
220
0.0
230
1.0
 70
     8
 71
     3
 72
    17
 73
    13
 74
     0
 42
0.0000000001
 43
0.0000000001
 12
1.0
 22
0.0
 32
0.0
 13
1.0
 23
0.0
 33
0.0
 40
0.0
 40
0.0
 40
0.0
 40
0.0
 40
1.0
 40
1.0
 40
1.0
 40
2.0
 40
2.0
 40
2.0
 40
3.0
 40
3.0
 40
3.0
 40
4.0
 40
4.0
 40
4.0
 40
4.0
 10
83.03178649279376
 20
-136.024761077105
 30
0.0
 10
83.03178649279376
 20
-136.024761077105
 30
0.0
 10
82.35568789893136
 20
-135.0546221884587
 30
0.0
 10
81.20916015040395
 20
-135.7009463549636
 30
0.0
 10
81.20916015040395
 20
-135.7009463549636
 30
0.0
 10
75.2119380811836
 20
-139.1694574652078
 30
0.0
 10
75.2119380811836
 20
-139.1694574652078
 30
0.0
 10
75.2119380811836
 20
-139.1694574652078
 30
0.0
 10
73.59498117799116
 20
-139.7571852428383
 30
0.0
 10
74.829703368713
 20
-140.3159852426989
 30
0.0
 10
74.829703368713
 20
-140.3159852426989
 30
0.0
 10
75.32941307818656
 20
-140.6398352426178
 30
0.0
 10
75.32941307818656
 20
-140.6398352426178
 30
0.0
  0
POLYLINE
  5
4A
330
41
100
AcDbEntity
  8
_U+30EC_U+30A4_U+30E4_U+30FC 1
 62
   179
420
  2234388
370
     9
100
AcDb2dPolyline
 66
     1
 10
0.0
 20
0.0
 30
0.0
  0
VERTEX
  5
4B
330
4A
100
AcDbEntity
  8
_U+30EC_U+30A4_U+30E4_U+30FC 1
 62
   179
420
  2234388
370
     9
100
AcDbVertex
100
AcDb2dVertex
 10
71.65470344971399
 20
-140.0810352427573
 30
0.0
  0
VERTEX
  5
4C
330
4A
100
AcDbEntity
  8
_U+30EC_U+30A4_U+30E4_U+30FC 1
 62
   179
420
  2234388
370
     9
100
AcDbVertex
100
AcDb2dVertex
 10
82.06164762865518
 20
-134.0844832998123
 30
0.0
  0
SEQEND
  5
4D
330
4A
100
AcDbEntity
  8
_U+30EC_U+30A4_U+30E4_U+30FC 1
 62
   179
420
  2234388
370
     9
  0
POLYLINE
  5
4E
330
41
100
AcDbEntity
  8
_U+30EC_U+30A4_U+30E4_U+30FC 1
 62
   179
420
  2234388
370
     9
100
AcDb2dPolyline
 66
     1
 10
0.0
 20
0.0
 30
0.0
  0
VERTEX
  5
4F
330
4E
100
AcDbEntity
  8
_U+30EC_U+30A4_U+30E4_U+30FC 1
 62
   179
420
  2234388
370
     9
100
AcDbVertex
100
AcDb2dVertex
 10
82.35568789893136
 20
-124.676817191053
 30
0.0
  0
VERTEX
  5
50
330
4E
100
AcDbEntity
  8
_U+30EC_U+30A4_U+30E4_U+30FC 1
 62
   179
420
  2234388
370
     9
100
AcDbVertex
100
AcDb2dVertex
 10
82.35568789893136
 20
-128.2634735790453
 30
0.0
  0
SEQEND
  5
51
330
4E
100
AcDbEntity
  8
_U+30EC_U+30A4_U+30E4_U+30FC 1
 62
   179
420
  2234388
370
     9
  0
POLYLINE
  5
52
330
41
100
AcDbEntity
  8
_U+30EC_U+30A4_U+30E4_U+30FC 1
 62
   179
420
  2234388
370
     9
100
AcDb2dPolyline
 66
     1
 10
0.0
 20
0.0
 30
0.0
  0
VERTEX
  5
53
330
52
100
AcDbEntity
  8
_U+30EC_U+30A4_U+30E4_U+30FC 1
 62
   179
420
  2234388
370
     9
100
AcDbVertex
100
AcDb2dVertex
 10
85.00152116476386
 20
-123.0893171914499
 30
0.0
  0
VERTEX
  5
54
330
52
100
AcDbEntity
  8
_U+30EC_U+30A4_U+30E4_U+30FC 1
 62
   179
420
  2234388
370
     9
100
AcDbVertex
100
AcDb2dVertex
 10
85.06025866326534
 20
-126.7934838571906
 30
0.0
  0
SEQEND
  5
55
330
52
100
AcDbEntity
  8
_U+30EC_U+30A4_U+30E4_U+30FC 1
 62
   179
420
  2234388
370
     9
  0
POLYLINE
  5
56
330
41
100
AcDbEntity
  8
_U+30EC_U+30A4_U+30E4_U+30FC 1
 62
   179
420
  2234388
370
     9
100
AcDb2dPolyline
 66
     1
 10
0.0
 20
0.0
 30
0.0
  0
VERTEX
  5
57
330
56
100
AcDbEntity
  8
_U+30EC_U+30A4_U+30E4_U+30FC 1
 62
   179
420
  2234388
370
     9
100
AcDbVertex
100
AcDb2dVertex
 10
87.38277110401312
 20
-121.766400525114
 30
0.0
  0
VERTEX
  5
58
330
56
100
AcDbEntity
  8
_U+30EC_U+30A4_U+30E4_U+30FC 1
 62
   179
420
  2234388
370
     9
100
AcDbVertex
100
AcDb2dVertex
 10
87.38277110401312
 20
-125.3530569131063
 30
0.0
  0
SEQEND
  5
59
330
56
100
AcDbEntity
  8
_U+30EC_U+30A4_U+30E4_U+30FC 1
 62
   179
420
  2234388
370
     9
  0
POLYLINE
  5
5A
330
41
100
AcDbEntity
  8
_U+30EC_U+30A4_U+30E4_U+30FC 1
 62
   179
420
  2234388
370
     9
100
AcDb2dPolyline
 66
     1
 10
0.0
 20
0.0
 30
0.0
  0
VERTEX
  5
5B
330
5A
100
AcDbEntity
  8
_U+30EC_U+30A4_U+30E4_U+30FC 1
 62
   179
420
  2234388
370
     9
100
AcDbVertex
100
AcDb2dVertex
 10
84.91332672256945
 20
-131.6150388559853
 30
0.0
  0
VERTEX
  5
5C
330
5A
100
AcDbEntity
  8
_U+30EC_U+30A4_U+30E4_U+30FC 1
 62
   179
420
  2234388
370
     9
100
AcDbVertex
100
AcDb2dVertex
 10
84.85458922406796
 20
-127.5286374681177
 30
0.0
  0
SEQEND
  5
5D
330
5A
100
AcDbEntity
  8
_U+30EC_U+30A4_U+30E4_U+30FC 1
 62
   179
420
  2234388
370
     9
  0
POLYLINE
  5
5E
330
41
100
AcDbEntity
  8
_U+30EC_U+30A4_U+30E4_U+30FC 1
 62
   179
420
  2234388
370
     9
100
AcDb2dPolyline
 66
     1
 10
0.0
 20
0.0
 30
0.0
  0
VERTEX
  5
5F
330
5E
100
AcDbEntity
  8
_U+30EC_U+30A4_U+30E4_U+30FC 1
 62
   179
420
  2234388
370
     9
100
AcDbVertex
100
AcDb2dVertex
 10
86.58902112426337
 20
-130.6448999673389
 30
0.0
  0
VERTEX
  5
60
330
5E
100
AcDbEntity
  8
_U+30EC_U+30A4_U+30E4_U+30FC 1
 62
   179
420
  2234388
370
     9
100
AcDbVertex
100
AcDb2dVertex
 10
86.58902112426337
 20
-126.5289005239234
 30
0.0
  0
SEQEND
  5
61
330
5E
100
AcDbEntity
  8
_U+30EC_U+30A4_U+30E4_U+30FC 1
 62
   179
420
  2234388
370
     9
  0
POLYLINE
  5
62
330
41
100
AcDbEntity
  8
_U+30EC_U+30A4_U+30E4_U+30FC 1
 62
   179
420
  2234388
370
     9
100
AcDb2dPolyline
 66
     1
 10
0.0
 20
0.0
 30
0.0
  0
VERTEX
  5
63
330
62
100
AcDbEntity
  8
_U+30EC_U+30A4_U+30E4_U+30FC 1
 62
   179
420
  2234388
370
     9
100
AcDbVertex
100
AcDb2dVertex
 10
86.9123419493481
 20
-130.3803166340717
 30
0.0
  0
VERTEX
  5
64
330
62
100
AcDbEntity
  8
_U+30EC_U+30A4_U+30E4_U+30FC 1
 62
   179
420
  2234388
370
     9
100
AcDbVertex
100
AcDb2dVertex
 10
86.85360445084662
 20
-126.3525116350786
 30
0.0
  0
SEQEND
  5
65
330
62
100
AcDbEntity
  8
_U+30EC_U+30A4_U+30E4_U+30FC 1
 62
   179
420
  2234388
370
     9
  0
POLYLINE
  5
66
330
41
100
AcDbEntity
  8
_U+30EC_U+30A4_U+30E4_U+30FC 1
 62
   179
420
  2234388
370
     9
100
AcDb2dPolyline
 66
     1
 10
0.0
 20
0.0
 30
0.0
  0
VERTEX
  5
67
330
66
100
AcDbEntity
  8
_U+30EC_U+30A4_U+30E4_U+30FC 1
 62
   179
420
  2234388
370
     9
100
AcDbVertex
100
AcDb2dVertex
 10
87.76500581648372
 20
-129.9393444119597
 30
0.0
  0
VERTEX
  5
68
330
66
100
AcDbEntity
  8
_U+30EC_U+30A4_U+30E4_U+30FC 1
 62
   179
420
  2234388
370
     9
100
AcDbVertex
100
AcDb2dVertex
 10
87.76500581648372
 20
-125.8529430240922
 30
0.0
  0
SEQEND
  5
69
330
66
100
AcDbEntity
  8
_U+30EC_U+30A4_U+30E4_U+30FC 1
 62
   179
420
  2234388
370
     9
  0
SPLINE
  5
6A
330
41
100
AcDbEntity
  8
_U+30EC_U+30A4_U+30E4_U+30FC 1
 62
   179
420
  2234388
370
     9
100
AcDbSpline
210
0.0
220
0.0
230
1.0
 70
    11
 71
     3
 72
    23
 73
    19
 74
     0
 42
0.0000000001
 43
0.0000000001
 12
1.0
 22
0.0
 32
0.0
 13
1.0
 23
0.0
 33
0.0
 40
0.0
 40
0.0
 40
0.0
 40
0.0
 40
1.0
 40
1.0
 40
1.0
 40
2.0
 40
2.0
 40
2.0
 40
3.0
 40
3.0
 40
3.0
 40
4.0
 40
4.0
 40
4.0
 40
5.0
 40
5.0
 40
5.0
 40
6.0
 40
6.0
 40
6.0
 40
6.0
 10
73.03653397001612
 20
-135.4073999661483
 30
0.0
 10
73.03653397001612
 20
-135.4073999661483
 30
0.0
 10
88.64695023842789
 20
-126.3525116350786
 30
0.0
 10
88.64695023842789
 20
-126.3525116350786
 30
0.0
 10
88.64695023842789
 20
-126.3525116350786
 30
0.0
 10
89.3228724434059
 20
-125.9118569129665
 30
0.0
 10
89.46998077298619
 20
-126.2057208017818
 30
0.0
 10
89.46998077298619
 20
-126.2057208017818
 30
0.0
 10
89.44070021817764
 20
-126.6756560794423
 30
0.0
 10
88.97027106351261
 20
-126.8816783016129
 30
0.0
 10
88.97027106351261
 20
-126.8816783016129
 30
0.0
 10
73.30111729659937
 20
-135.9069332993565
 30
0.0
 10
73.30111729659937
 20
-135.9069332993565
 30
0.0
 10
73.30111729659937
 20
-135.9069332993565
 30
0.0
 10
72.53664787165816
 20
-136.2593935770464
 30
0.0
 10
72.53664787165816
 20
-135.9655296882308
 30
0.0
 10
72.53664787165816
 20
-135.9655296882308
 30
0.0
 10
72.38989231984665
 20
-135.6423499660893
 30
0.0
 10
73.03653397001612
 20
-135.4073999661483
 30
0.0
  0
SPLINE
  5
6B
330
41
100
AcDbEntity
  8
_U+30EC_U+30A4_U+30E4_U+30FC 1
 62
   179
420
  2234388
370
     9
100
AcDbSpline
210
0.0
220
0.0
230
1.0
 70
    11
 71
     3
 72
    20
 73
    16
 74
     0
 42
0.0000000001
 43
0.0000000001
 12
1.0
 22
0.0
 32
0.0
 13
1.0
 23
0.0
 33
0.0
 40
0.0
 40
0.0
 40
0.0
 40
0.0
 40
1.0
 40
1.0
 40
1.0
 40
2.0
 40
2.0
 40
2.0
 40
3.0
 40
3.0
 40
3.0
 40
4.0
 40
4.0
 40
4.0
 40
5.0
 40
5.0
 40
5.0
 40
5.0
 10
92.4394876416722
 20
-126.1175263573594
 30
0.0
 10
92.4394876416722
 20
-126.1175263573594
 30
0.0
 10
92.08670987289453
 20
-125.9411374685146
 30
0.0
 10
91.99851543070011
 20
-126.2350013573302
 30
0.0
 10
91.99851543070011
 20
-126.2350013573302
 30
0.0
 10
91.96888209812279
 20
-126.5292180239233
 30
0.0
 10
92.17490431508895
 20
-126.6466930238938
 30
0.0
 10
92.17490431508895
 20
-126.6466930238938
 30
0.0
 10
102.2290707252525
 20
-132.673372189054
 30
0.0
 10
102.2290707252525
 20
-132.673372189054
 30
0.0
 10
102.2290707252525
 20
-132.673372189054
 30
0.0
 10
102.6700429362245
 20
-132.6437388557278
 30
0.0
 10
102.375826277064
 20
-132.1442055225196
 30
0.0
 10
102.375826277064
 20
-132.1442055225196
 30
0.0
 10
92.4394876416722
 20
-126.1175263573594
 30
0.0
 10
92.4394876416722
 20
-126.1175263573594
 30
0.0
  0
INSERT
  5
6D
330
41
100
AcDbEntity
  8
_U+30EC_U+30A4_U+30E4_U+30FC 1
100
AcDbBlockReference
  2
block 3
 10
0.0
 20
0.0
 30
0.0
  0
INSERT
  5
74
330
41
100
AcDbEntity
  8
_U+30EC_U+30A4_U+30E4_U+30FC 1
100
AcDbBlockReference
  2
block 4
 10
0.0
 20
0.0
 30
0.0
  0
INSERT
  5
7B
330
41
100
AcDbEntity
  8
_U+30EC_U+30A4_U+30E4_U+30FC 1
100
AcDbBlockReference
  2
block 5
 10
0.0
 20
0.0
 30
0.0
  0
POLYLINE
  5
81
330
41
100
AcDbEntity
  8
_U+30EC_U+30A4_U+30E4_U+30FC 1
 62
   179
420
  2234388
370
     9
100
AcDb2dPolyline
 66
     1
 10
0.0
 20
0.0
 30
0.0
  0
VERTEX
  5
82
330
81
100
AcDbEntity
  8
_U+30EC_U+30A4_U+30E4_U+30FC 1
 62
   179
420
  2234388
370
     9
100
AcDbVertex
100
AcDb2dVertex
 10
71.30192568093632
 20
-125.8822235796406
 30
0.0
  0
VERTEX
  5
83
330
81
100
AcDbEntity
  8
_U+30EC_U+30A4_U+30E4_U+30FC 1
 62
   179
420
  2234388
370
     9
100
AcDbVertex
100
AcDb2dVertex
 10
71.30192568093632
 20
-129.3509463565511
 30
0.0
  0
SEQEND
  5
84
330
81
100
AcDbEntity
  8
_U+30EC_U+30A4_U+30E4_U+30FC 1
 62
   179
420
  2234388
370
     9
  0
POLYLINE
  5
85
330
41
100
AcDbEntity
  8
_U+30EC_U+30A4_U+30E4_U+30FC 1
 62
   179
420
  2234388
370
     9
100
AcDb2dPolyline
 66
     1
 10
0.0
 20
0.0
 30
0.0
  0
VERTEX
  5
86
330
85
100
AcDbEntity
  8
_U+30EC_U+30A4_U+30E4_U+30FC 1
 62
   179
420
  2234388
370
     9
100
AcDbVertex
100
AcDb2dVertex
 10
71.30192568093632
 20
-126.8816783016129
 30
0.0
  0
VERTEX
  5
87
330
85
100
AcDbEntity
  8
_U+30EC_U+30A4_U+30E4_U+30FC 1
 62
   179
420
  2234388
370
     9
100
AcDbVertex
100
AcDb2dVertex
 10
78.5338699408785
 20
-122.8836124692792
 30
0.0
  0
SEQEND
  5
88
330
85
100
AcDbEntity
  8
_U+30EC_U+30A4_U+30E4_U+30FC 1
 62
   179
420
  2234388
370
     9
  0
POLYLINE
  5
89
330
41
100
AcDbEntity
  8
_U+30EC_U+30A4_U+30E4_U+30FC 1
 62
   179
420
  2234388
370
     9
100
AcDb2dPolyline
 66
     1
 10
0.0
 20
0.0
 30
0.0
  0
VERTEX
  5
8A
330
89
100
AcDbEntity
  8
_U+30EC_U+30A4_U+30E4_U+30FC 1
 62
   179
420
  2234388
370
     9
100
AcDbVertex
100
AcDb2dVertex
 10
90.70470296370802
 20
-115.2987491378421
 30
0.0
  0
VERTEX
  5
8B
330
89
100
AcDbEntity
  8
_U+30EC_U+30A4_U+30E4_U+30FC 1
 62
   179
420
  2234388
370
     9
100
AcDbVertex
100
AcDb2dVertex
 10
90.70470296370802
 20
-118.7090166369893
 30
0.0
  0
SEQEND
  5
8C
330
89
100
AcDbEntity
  8
_U+30EC_U+30A4_U+30E4_U+30FC 1
 62
   179
420
  2234388
370
     9
  0
POLYLINE
  5
8D
330
41
100
AcDbEntity
  8
_U+30EC_U+30A4_U+30E4_U+30FC 1
 62
   179
420
  2234388
370
     9
100
AcDb2dPolyline
 66
     1
 10
0.0
 20
0.0
 30
0.0
  0
VERTEX
  5
8E
330
8D
100
AcDbEntity
  8
_U+30EC_U+30A4_U+30E4_U+30FC 1
 62
   179
420
  2234388
370
     9
100
AcDbVertex
100
AcDb2dVertex
 10
81.76778374726338
 20
-121.0608449697348
 30
0.0
  0
VERTEX
  5
8F
330
8D
100
AcDbEntity
  8
_U+30EC_U+30A4_U+30E4_U+30FC 1
 62
   179
420
  2234388
370
     9
100
AcDbVertex
100
AcDb2dVertex
 10
90.76361685109389
 20
-116.1806935820661
 30
0.0
  0
VERTEX
  5
90
330
8D
100
AcDbEntity
  8
_U+30EC_U+30A4_U+30E4_U+30FC 1
 62
   179
420
  2234388
370
     9
100
AcDbVertex
100
AcDb2dVertex
 10
95.34990423408794
 20
-118.6501380258931
 30
0.0
  0
SEQEND
  5
91
330
8D
100
AcDbEntity
  8
_U+30EC_U+30A4_U+30E4_U+30FC 1
 62
   179
420
  2234388
370
     9
  0
POLYLINE
  5
92
330
41
100
AcDbEntity
  8
_U+30EC_U+30A4_U+30E4_U+30FC 1
 62
   179
420
  2234388
370
     9
100
AcDb2dPolyline
 66
     1
 10
0.0
 20
0.0
 30
0.0
  0
VERTEX
  5
93
330
92
100
AcDbEntity
  8
_U+30EC_U+30A4_U+30E4_U+30FC 1
 62
   179
420
  2234388
370
     9
100
AcDbVertex
100
AcDb2dVertex
 10
98.64202637232114
 20
-120.4140269143411
 30
0.0
  0
VERTEX
  5
94
330
92
100
AcDbEntity
  8
_U+30EC_U+30A4_U+30E4_U+30FC 1
 62
   179
420
  2234388
370
     9
100
AcDbVertex
100
AcDb2dVertex
 10
103.816570684752
 20
-123.2949866358428
 30
0.0
  0
SEQEND
  5
95
330
92
100
AcDbEntity
  8
_U+30EC_U+30A4_U+30E4_U+30FC 1
 62
   179
420
  2234388
370
     9
  0
POLYLINE
  5
96
330
41
100
AcDbEntity
  8
_U+30EC_U+30A4_U+30E4_U+30FC 1
 62
   179
420
  2234388
370
     9
100
AcDb2dPolyline
 66
     1
 10
0.0
 20
0.0
 30
0.0
  0
VERTEX
  5
97
330
96
100
AcDbEntity
  8
_U+30EC_U+30A4_U+30E4_U+30FC 1
 62
   179
420
  2234388
370
     9
100
AcDbVertex
100
AcDb2dVertex
 10
103.7573040195973
 20
-122.4719560804931
 30
0.0
  0
VERTEX
  5
98
330
96
100
AcDbEntity
  8
_U+30EC_U+30A4_U+30E4_U+30FC 1
 62
   179
420
  2234388
370
     9
100
AcDbVertex
100
AcDb2dVertex
 10
103.7573040195973
 20
-125.7058346907959
 30
0.0
  0
SEQEND
  5
99
330
96
100
AcDbEntity
  8
_U+30EC_U+30A4_U+30E4_U+30FC 1
 62
   179
420
  2234388
370
     9
  0
POLYLINE
  5
9A
330
41
100
AcDbEntity
  8
_U+30EC_U+30A4_U+30E4_U+30FC 1
 62
   179
420
  2234388
370
     9
100
AcDb2dPolyline
 66
     1
 10
0.0
 20
0.0
 30
0.0
  0
VERTEX
  5
9B
330
9A
100
AcDbEntity
  8
_U+30EC_U+30A4_U+30E4_U+30FC 1
 62
   179
420
  2234388
370
     9
100
AcDbVertex
100
AcDb2dVertex
 10
104.874903991085
 20
-127.6461124680886
 30
0.0
  0
VERTEX
  5
9C
330
9A
100
AcDbEntity
  8
_U+30EC_U+30A4_U+30E4_U+30FC 1
 62
   179
420
  2234388
370
     9
100
AcDbVertex
100
AcDb2dVertex
 10
109.6374038695835
 20
-130.2328908007751
 30
0.0
  0
SEQEND
  5
9D
330
9A
100
AcDbEntity
  8
_U+30EC_U+30A4_U+30E4_U+30FC 1
 62
   179
420
  2234388
370
     9
  0
POLYLINE
  5
9E
330
41
100
AcDbEntity
  8
_U+30EC_U+30A4_U+30E4_U+30FC 1
 62
   179
420
  2234388
370
     9
100
AcDb2dPolyline
 66
     1
 10
0.0
 20
0.0
 30
0.0
  0
VERTEX
  5
9F
330
9E
100
AcDbEntity
  8
_U+30EC_U+30A4_U+30E4_U+30FC 1
 62
   179
420
  2234388
370
     9
100
AcDbVertex
100
AcDb2dVertex
 10
108.5790705632505
 20
-129.7037241342407
 30
0.0
  0
VERTEX
  5
A0
330
9E
100
AcDbEntity
  8
_U+30EC_U+30A4_U+30E4_U+30FC 1
 62
   179
420
  2234388
370
     9
100
AcDbVertex
100
AcDb2dVertex
 10
108.5790705632505
 20
-133.2315019111366
 30
0.0
  0
SEQEND
  5
A1
330
9E
100
AcDbEntity
  8
_U+30EC_U+30A4_U+30E4_U+30FC 1
 62
   179
420
  2234388
370
     9
  0
POLYLINE
  5
A2
330
41
100
AcDbEntity
  8
_U+30EC_U+30A4_U+30E4_U+30FC 1
 62
   179
420
  2234388
370
     9
100
AcDb2dPolyline
 66
     1
 10
0.0
 20
0.0
 30
0.0
  0
VERTEX
  5
A3
330
A2
100
AcDbEntity
  8
_U+30EC_U+30A4_U+30E4_U+30FC 1
 62
   179
420
  2234388
370
     9
100
AcDbVertex
100
AcDb2dVertex
 10
104.7570762163132
 20
-137.4648352434116
 30
0.0
  0
VERTEX
  5
A4
330
A2
100
AcDbEntity
  8
_U+30EC_U+30A4_U+30E4_U+30FC 1
 62
   179
420
  2234388
370
     9
100
AcDbVertex
100
AcDb2dVertex
 10
109.40174832004
 20
-140.1692296871796
 30
0.0
  0
SEQEND
  5
A5
330
A2
100
AcDbEntity
  8
_U+30EC_U+30A4_U+30E4_U+30FC 1
 62
   179
420
  2234388
370
     9
  0
POLYLINE
  5
A6
330
41
100
AcDbEntity
  8
_U+30EC_U+30A4_U+30E4_U+30FC 1
 62
   179
420
  2234388
370
     9
100
AcDb2dPolyline
 66
     1
 10
0.0
 20
0.0
 30
0.0
  0
VERTEX
  5
A7
330
A6
100
AcDbEntity
  8
_U+30EC_U+30A4_U+30E4_U+30FC 1
 62
   179
420
  2234388
370
     9
100
AcDbVertex
100
AcDb2dVertex
 10
108.5198038980958
 20
-139.6400630206453
 30
0.0
  0
VERTEX
  5
A8
330
A6
100
AcDbEntity
  8
_U+30EC_U+30A4_U+30E4_U+30FC 1
 62
   179
420
  2234388
370
     9
100
AcDbVertex
100
AcDb2dVertex
 10
108.5198038980958
 20
-136.230113021498
 30
0.0
  0
SEQEND
  5
A9
330
A6
100
AcDbEntity
  8
_U+30EC_U+30A4_U+30E4_U+30FC 1
 62
   179
420
  2234388
370
     9
  0
POLYLINE
  5
AA
330
41
100
AcDbEntity
  8
_U+30EC_U+30A4_U+30E4_U+30FC 1
 62
   179
420
  2234388
370
     9
100
AcDb2dPolyline
 66
     1
 10
0.0
 20
0.0
 30
0.0
  0
VERTEX
  5
AB
330
AA
100
AcDbEntity
  8
_U+30EC_U+30A4_U+30E4_U+30FC 1
 62
   179
420
  2234388
370
     9
100
AcDbVertex
100
AcDb2dVertex
 10
94.7029098061497
 20
-129.0573999677358
 30
0.0
  0
VERTEX
  5
AC
330
AA
100
AcDbEntity
  8
_U+30EC_U+30A4_U+30E4_U+30FC 1
 62
   179
420
  2234388
370
     9
100
AcDbVertex
100
AcDb2dVertex
 10
93.87952649382264
 20
-129.5865666342702
 30
0.0
  0
VERTEX
  5
AD
330
AA
100
AcDbEntity
  8
_U+30EC_U+30A4_U+30E4_U+30FC 1
 62
   179
420
  2234388
370
     9
100
AcDbVertex
100
AcDb2dVertex
 10
94.46795981214377
 20
-129.6451277453664
 30
0.0
  0
VERTEX
  5
AE
330
AA
100
AcDbEntity
  8
_U+30EC_U+30A4_U+30E4_U+30FC 1
 62
   179
420
  2234388
370
     9
100
AcDbVertex
100
AcDb2dVertex
 10
94.7029098061497
 20
-130.2328908007751
 30
0.0
  0
VERTEX
  5
AF
330
AA
100
AcDbEntity
  8
_U+30EC_U+30A4_U+30E4_U+30FC 1
 62
   179
420
  2234388
370
     9
100
AcDbVertex
100
AcDb2dVertex
 10
94.7029098061497
 20
-129.0573999677358
 30
0.0
  0
SEQEND
  5
B1
330
AA
100
AcDbEntity
  8
_U+30EC_U+30A4_U+30E4_U+30FC 1
 62
   179
420
  2234388
370
     9
  0
HATCH
  5
B0
330
41
100
AcDbEntity
  8
_U+30EC_U+30A4_U+30E4_U+30FC 1
 62
   179
420
  2234388
100
AcDbHatch
 10
0.0
 20
0.0
 30
0.0
210
0.0
220
0.0
230
1.0
  2
SOLID
 70
     1
 71
     0
 91
        1
 92
        1
 93
        4
 72
     1
 10
94.7029098061497
 20
-129.0573999677358
 11
93.87952649382264
 21
-129.5865666342702
 72
     1
 10
93.87952649382264
 20
-129.5865666342702
 11
94.46795981214377
 21
-129.6451277453664
 72
     1
 10
94.46795981214377
 20
-129.6451277453664
 11
94.7029098061497
 21
-130.2328908007751
 72
     1
 10
94.7029098061497
 20
-130.2328908007751
 11
94.7029098061497
 21
-129.0573999677358
 97
        0
 75
     2
 76
     1
 98
        0
  0
POLYLINE
  5
B2
330
41
100
AcDbEntity
  8
_U+30EC_U+30A4_U+30E4_U+30FC 1
 62
   179
420
  2234388
370
     9
100
AcDb2dPolyline
 66
     1
 10
0.0
 20
0.0
 30
0.0
  0
VERTEX
  5
B3
330
B2
100
AcDbEntity
  8
_U+30EC_U+30A4_U+30E4_U+30FC 1
 62
   179
420
  2234388
370
     9
100
AcDbVertex
100
AcDb2dVertex
 10
91.35152100276187
 20
-134.6426130218949
 30
0.0
  0
VERTEX
  5
B4
330
B2
100
AcDbEntity
  8
_U+30EC_U+30A4_U+30E4_U+30FC 1
 62
   179
420
  2234388
370
     9
100
AcDbVertex
100
AcDb2dVertex
 10
94.46795981214377
 20
-129.4687388565216
 30
0.0
  0
SEQEND
  5
B5
330
B2
100
AcDbEntity
  8
_U+30EC_U+30A4_U+30E4_U+30FC 1
 62
   179
420
  2234388
370
     9
  0
INSERT
  5
B7
330
41
100
AcDbEntity
  8
_U+30EC_U+30A4_U+30E4_U+30FC 1
100
AcDbBlockReference
  2
block 6
 10
0.0
 20
0.0
 30
0.0
  0
INSERT
  5
D2
330
41
100
AcDbEntity
  8
_U+30EC_U+30A4_U+30E4_U+30FC 1
100
AcDbBlockReference
  2
block 7
 10
0.0
 20
0.0
 30
0.0
  0
INSERT
  5
DB
330
41
100
AcDbEntity
  8
_U+30EC_U+30A4_U+30E4_U+30FC 1
100
AcDbBlockReference
  2
block 8
 10
0.0
 20
0.0
 30
0.0
  0
INSERT
  5
E3
330
41
100
AcDbEntity
  8
_U+30EC_U+30A4_U+30E4_U+30FC 1
100
AcDbBlockReference
  2
block 9
 10
0.0
 20
0.0
 30
0.0
  0
SPLINE
  5
109
330
41
100
AcDbEntity
  8
_U+30EC_U+30A4_U+30E4_U+30FC 1
370
     0
100
AcDbSpline
210
0.0
220
0.0
230
1.0
 70
    11
 71
     3
 72
    17
 73
    13
 74
     0
 42
0.0000000001
 43
0.0000000001
 12
1.0
 22
0.0
 32
0.0
 13
1.0
 23
0.0
 33
0.0
 40
0.0
 40
0.0
 40
0.0
 40
0.0
 40
1.0
 40
1.0
 40
1.0
 40
2.0
 40
2.0
 40
2.0
 40
3.0
 40
3.0
 40
3.0
 40
4.0
 40
4.0
 40
4.0
 40
4.0
 10
71.54308456367274
 20
-126.7669549683082
 30
0.0
 10
71.54308456367274
 20
-126.8985410793866
 30
0.0
 10
71.43647512194813
 20
-127.0050094126931
 30
0.0
 10
71.30485553772927
 20
-127.0050094126931
 30
0.0
 10
71.1734440175475
 20
-127.0050094126931
 30
0.0
 10
71.066799298046
 20
-126.8985410793866
 30
0.0
 10
71.066799298046
 20
-126.7669549683082
 30
0.0
 10
71.066799298046
 20
-126.6356863572301
 30
0.0
 10
71.1734440175475
 20
-126.5289005239234
 30
0.0
 10
71.30485553772927
 20
-126.5289005239234
 30
0.0
 10
71.43647512194813
 20
-126.5289005239234
 30
0.0
 10
71.54308456367274
 20
-126.6356863572301
 30
0.0
 10
71.54308456367274
 20
-126.7669549683082
 30
0.0
  0
HATCH
  5
10A
330
41
100
AcDbEntity
  8
_U+30EC_U+30A4_U+30E4_U+30FC 1
 62
   179
420
  2234388
100
AcDbHatch
 10
0.0
 20
0.0
 30
0.0
210
0.0
220
0.0
230
1.0
  2
SOLID
 70
     1
 71
     0
 91
        1
 92
        1
 93
        1
 72
     4
 94
        3
 73
     0
 74
     1
 95
       17
 96
       13
 40
0.0
 40
0.0
 40
0.0
 40
0.0
 40
1.0
 40
1.0
 40
1.0
 40
2.0
 40
2.0
 40
2.0
 40
3.0
 40
3.0
 40
3.0
 40
4.0
 40
4.0
 40
4.0
 40
4.0
 10
71.54308456367274
 20
-126.7669549683082
 10
71.54308456367274
 20
-126.8985410793866
 10
71.43647512194813
 20
-127.0050094126931
 10
71.30485553772927
 20
-127.0050094126931
 10
71.1734440175475
 20
-127.0050094126931
 10
71.066799298046
 20
-126.8985410793866
 10
71.066799298046
 20
-126.7669549683082
 10
71.066799298046
 20
-126.6356863572301
 10
71.1734440175475
 20
-126.5289005239234
 10
71.30485553772927
 20
-126.5289005239234
 10
71.43647512194813
 20
-126.5289005239234
 10
71.54308456367274
 20
-126.6356863572301
 10
71.54308456367274
 20
-126.7669549683082
 97
        0
 97
        0
 75
     2
 76
     1
 98
        0
  0
SPLINE
  5
10B
330
41
100
AcDbEntity
  8
_U+30EC_U+30A4_U+30E4_U+30FC 1
370
     0
100
AcDbSpline
210
0.0
220
0.0
230
1.0
 70
    11
 71
     3
 72
    17
 73
    13
 74
     0
 42
0.0000000001
 43
0.0000000001
 12
1.0
 22
0.0
 32
0.0
 13
1.0
 23
0.0
 33
0.0
 40
0.0
 40
0.0
 40
0.0
 40
0.0
 40
1.0
 40
1.0
 40
1.0
 40
2.0
 40
2.0
 40
2.0
 40
3.0
 40
3.0
 40
3.0
 40
4.0
 40
4.0
 40
4.0
 40
4.0
 10
90.93397323563663
 20
-116.2718160820431
 30
0.0
 10
90.93397323563663
 20
-116.4034021931215
 30
0.0
 10
90.82736379391201
 20
-116.509870526428
 30
0.0
 10
90.69574240838107
 20
-116.509870526428
 30
0.0
 10
90.56433268951139
 20
-116.509870526428
 30
0.0
 10
90.4576879700099
 20
-116.4034021931215
 30
0.0
 10
90.4576879700099
 20
-116.2718160820431
 30
0.0
 10
90.4576879700099
 20
-116.140547470965
 30
0.0
 10
90.56433268951139
 20
-116.0337616376583
 30
0.0
 10
90.69574240838107
 20
-116.0337616376583
 30
0.0
 10
90.82736379391201
 20
-116.0337616376583
 30
0.0
 10
90.93397323563663
 20
-116.140547470965
 30
0.0
 10
90.93397323563663
 20
-116.2718160820431
 30
0.0
  0
HATCH
  5
10C
330
41
100
AcDbEntity
  8
_U+30EC_U+30A4_U+30E4_U+30FC 1
 62
   179
420
  2234388
100
AcDbHatch
 10
0.0
 20
0.0
 30
0.0
210
0.0
220
0.0
230
1.0
  2
SOLID
 70
     1
 71
     0
 91
        1
 92
        1
 93
        1
 72
     4
 94
        3
 73
     0
 74
     1
 95
       17
 96
       13
 40
0.0
 40
0.0
 40
0.0
 40
0.0
 40
1.0
 40
1.0
 40
1.0
 40
2.0
 40
2.0
 40
2.0
 40
3.0
 40
3.0
 40
3.0
 40
4.0
 40
4.0
 40
4.0
 40
4.0
 10
90.93397323563663
 20
-116.2718160820431
 10
90.93397323563663
 20
-116.4034021931215
 10
90.82736379391201
 20
-116.509870526428
 10
90.69574240838107
 20
-116.509870526428
 10
90.56433268951139
 20
-116.509870526428
 10
90.4576879700099
 20
-116.4034021931215
 10
90.4576879700099
 20
-116.2718160820431
 10
90.4576879700099
 20
-116.140547470965
 10
90.56433268951139
 20
-116.0337616376583
 10
90.69574240838107
 20
-116.0337616376583
 10
90.82736379391201
 20
-116.0337616376583
 10
90.93397323563663
 20
-116.140547470965
 10
90.93397323563663
 20
-116.2718160820431
 97
        0
 97
        0
 75
     2
 76
     1
 98
        0
  0
SPLINE
  5
10D
330
41
100
AcDbEntity
  8
_U+30EC_U+30A4_U+30E4_U+30FC 1
370
     0
100
AcDbSpline
210
0.0
220
0.0
230
1.0
 70
    11
 71
     3
 72
    17
 73
    13
 74
     0
 42
0.0000000001
 43
0.0000000001
 12
1.0
 22
0.0
 32
0.0
 13
1.0
 23
0.0
 33
0.0
 40
0.0
 40
0.0
 40
0.0
 40
0.0
 40
1.0
 40
1.0
 40
1.0
 40
2.0
 40
2.0
 40
2.0
 40
3.0
 40
3.0
 40
3.0
 40
4.0
 40
4.0
 40
4.0
 40
4.0
 10
103.9984629023337
 20
-123.2391771914124
 30
0.0
 10
103.9984629023337
 20
-123.3707633024908
 30
0.0
 10
103.8920298494935
 20
-123.4772316357972
 30
0.0
 10
103.7604110851709
 20
-123.4772316357972
 30
0.0
 10
103.6291777518706
 20
-123.4772316357972
 30
0.0
 10
103.5223540255914
 20
-123.3707633024908
 30
0.0
 10
103.5223540255914
 20
-123.2391771914124
 30
0.0
 10
103.5223540255914
 20
-123.1079085803342
 30
0.0
 10
103.6291777518706
 20
-123.0011227470275
 30
0.0
 10
103.7604110851709
 20
-123.0011227470275
 30
0.0
 10
103.8920298494935
 20
-123.0011227470275
 30
0.0
 10
103.9984629023337
 20
-123.1079085803342
 30
0.0
 10
103.9984629023337
 20
-123.2391771914124
 30
0.0
  0
HATCH
  5
10E
330
41
100
AcDbEntity
  8
_U+30EC_U+30A4_U+30E4_U+30FC 1
 62
   179
420
  2234388
100
AcDbHatch
 10
0.0
 20
0.0
 30
0.0
210
0.0
220
0.0
230
1.0
  2
SOLID
 70
     1
 71
     0
 91
        1
 92
        1
 93
        1
 72
     4
 94
        3
 73
     0
 74
     1
 95
       17
 96
       13
 40
0.0
 40
0.0
 40
0.0
 40
0.0
 40
1.0
 40
1.0
 40
1.0
 40
2.0
 40
2.0
 40
2.0
 40
3.0
 40
3.0
 40
3.0
 40
4.0
 40
4.0
 40
4.0
 40
4.0
 10
103.9984629023337
 20
-123.2391771914124
 10
103.9984629023337
 20
-123.3707633024908
 10
103.8920298494935
 20
-123.4772316357972
 10
103.7604110851709
 20
-123.4772316357972
 10
103.6291777518706
 20
-123.4772316357972
 10
103.5223540255914
 20
-123.3707633024908
 10
103.5223540255914
 20
-123.2391771914124
 10
103.5223540255914
 20
-123.1079085803342
 10
103.6291777518706
 20
-123.0011227470275
 10
103.7604110851709
 20
-123.0011227470275
 10
103.8920298494935
 20
-123.0011227470275
 10
103.9984629023337
 20
-123.1079085803342
 10
103.9984629023337
 20
-123.2391771914124
 97
        0
 97
        0
 75
     2
 76
     1
 98
        0
  0
SPLINE
  5
10F
330
41
100
AcDbEntity
  8
_U+30EC_U+30A4_U+30E4_U+30FC 1
370
     0
100
AcDbSpline
210
0.0
220
0.0
230
1.0
 70
    11
 71
     3
 72
    17
 73
    13
 74
     0
 42
0.0000000001
 43
0.0000000001
 12
1.0
 22
0.0
 32
0.0
 13
1.0
 23
0.0
 33
0.0
 40
0.0
 40
0.0
 40
0.0
 40
0.0
 40
1.0
 40
1.0
 40
1.0
 40
2.0
 40
2.0
 40
2.0
 40
3.0
 40
3.0
 40
3.0
 40
4.0
 40
4.0
 40
4.0
 40
4.0
 10
108.7609627808322
 20
-129.6775127453583
 30
0.0
 10
108.7609627808322
 20
-129.8091341342146
 30
0.0
 10
108.6548499728361
 20
-129.9152496897432
 30
0.0
 10
108.5232638617581
 20
-129.9152496897432
 30
0.0
 10
108.39167775068
 20
-129.9152496897432
 30
0.0
 10
108.2848539040899
 20
-129.8091341342146
 30
0.0
 10
108.2848539040899
 20
-129.6775127453583
 30
0.0
 10
108.2848539040899
 20
-129.5459266342802
 30
0.0
 10
108.39167775068
 20
-129.4391408009735
 30
0.0
 10
108.5232638617581
 20
-129.4391408009735
 30
0.0
 10
108.6548499728361
 20
-129.4391408009735
 30
0.0
 10
108.7609627808322
 20
-129.5459266342802
 30
0.0
 10
108.7609627808322
 20
-129.6775127453583
 30
0.0
  0
HATCH
  5
110
330
41
100
AcDbEntity
  8
_U+30EC_U+30A4_U+30E4_U+30FC 1
 62
   179
420
  2234388
100
AcDbHatch
 10
0.0
 20
0.0
 30
0.0
210
0.0
220
0.0
230
1.0
  2
SOLID
 70
     1
 71
     0
 91
        1
 92
        1
 93
        1
 72
     4
 94
        3
 73
     0
 74
     1
 95
       17
 96
       13
 40
0.0
 40
0.0
 40
0.0
 40
0.0
 40
1.0
 40
1.0
 40
1.0
 40
2.0
 40
2.0
 40
2.0
 40
3.0
 40
3.0
 40
3.0
 40
4.0
 40
4.0
 40
4.0
 40
4.0
 10
108.7609627808322
 20
-129.6775127453583
 10
108.7609627808322
 20
-129.8091341342146
 10
108.6548499728361
 20
-129.9152496897432
 10
108.5232638617581
 20
-129.9152496897432
 10
108.39167775068
 20
-129.9152496897432
 10
108.2848539040899
 20
-129.8091341342146
 10
108.2848539040899
 20
-129.6775127453583
 10
108.2848539040899
 20
-129.5459266342802
 10
108.39167775068
 20
-129.4391408009735
 10
108.5232638617581
 20
-129.4391408009735
 10
108.6548499728361
 20
-129.4391408009735
 10
108.7609627808322
 20
-129.5459266342802
 10
108.7609627808322
 20
-129.6775127453583
 97
        0
 97
        0
 75
     2
 76
     1
 98
        0
  0
SPLINE
  5
111
330
41
100
AcDbEntity
  8
_U+30EC_U+30A4_U+30E4_U+30FC 1
370
     0
100
AcDbSpline
210
0.0
220
0.0
230
1.0
 70
    11
 71
     3
 72
    17
 73
    13
 74
     0
 42
0.0000000001
 43
0.0000000001
 12
1.0
 22
0.0
 32
0.0
 13
1.0
 23
0.0
 33
0.0
 40
0.0
 40
0.0
 40
0.0
 40
0.0
 40
1.0
 40
1.0
 40
1.0
 40
2.0
 40
2.0
 40
2.0
 40
3.0
 40
3.0
 40
3.0
 40
4.0
 40
4.0
 40
4.0
 40
4.0
 10
108.7609627808322
 20
-139.6545269095309
 30
0.0
 10
108.7609627808322
 20
-139.786113020609
 30
0.0
 10
108.6548499728361
 20
-139.8929341316932
 30
0.0
 10
108.5232638617581
 20
-139.8929341316932
 30
0.0
 10
108.39167775068
 20
-139.8929341316932
 30
0.0
 10
108.2848539040899
 20
-139.786113020609
 30
0.0
 10
108.2848539040899
 20
-139.6545269095309
 30
0.0
 10
108.2848539040899
 20
-139.5236110762302
 30
0.0
 10
108.39167775068
 20
-139.4168252429235
 30
0.0
 10
108.5232638617581
 20
-139.4168252429235
 30
0.0
 10
108.6548499728361
 20
-139.4168252429235
 30
0.0
 10
108.7609627808322
 20
-139.5236110762302
 30
0.0
 10
108.7609627808322
 20
-139.6545269095309
 30
0.0
  0
HATCH
  5
112
330
41
100
AcDbEntity
  8
_U+30EC_U+30A4_U+30E4_U+30FC 1
 62
   179
420
  2234388
100
AcDbHatch
 10
0.0
 20
0.0
 30
0.0
210
0.0
220
0.0
230
1.0
  2
SOLID
 70
     1
 71
     0
 91
        1
 92
        1
 93
        1
 72
     4
 94
        3
 73
     0
 74
     1
 95
       17
 96
       13
 40
0.0
 40
0.0
 40
0.0
 40
0.0
 40
1.0
 40
1.0
 40
1.0
 40
2.0
 40
2.0
 40
2.0
 40
3.0
 40
3.0
 40
3.0
 40
4.0
 40
4.0
 40
4.0
 40
4.0
 10
108.7609627808322
 20
-139.6545269095309
 10
108.7609627808322
 20
-139.786113020609
 10
108.6548499728361
 20
-139.8929341316932
 10
108.5232638617581
 20
-139.8929341316932
 10
108.39167775068
 20
-139.8929341316932
 10
108.2848539040899
 20
-139.786113020609
 10
108.2848539040899
 20
-139.6545269095309
 10
108.2848539040899
 20
-139.5236110762302
 10
108.39167775068
 20
-139.4168252429235
 10
108.5232638617581
 20
-139.4168252429235
 10
108.6548499728361
 20
-139.4168252429235
 10
108.7609627808322
 20
-139.5236110762302
 10
108.7609627808322
 20
-139.6545269095309
 97
        0
 97
        0
 75
     2
 76
     1
 98
        0
  0
ENDBLK
  5
44
330
41
100
AcDbEntity
  8
0
100
AcDbBlockEnd
  0
BLOCK
  5
6E
330
6C
100
AcDbEntity
  8
0
100
AcDbBlockBegin
  2
block 3
 70
     0
 10
0.0
 20
0.0
 30
0.0
  3
block 3
  1

  0
SPLINE
  5
70
330
6C
100
AcDbEntity
  8
_U+30EC_U+30A4_U+30E4_U+30FC 1
 62
   179
420
  2234388
370
     9
100
AcDbSpline
210
0.0
220
0.0
230
1.0
 70
    11
 71
     3
 72
    17
 73
    13
 74
     0
 42
0.0000000001
 43
0.0000000001
 12
1.0
 22
0.0
 32
0.0
 13
1.0
 23
0.0
 33
0.0
 40
0.0
 40
0.0
 40
0.0
 40
0.0
 40
1.0
 40
1.0
 40
1.0
 40
2.0
 40
2.0
 40
2.0
 40
3.0
 40
3.0
 40
3.0
 40
4.0
 40
4.0
 40
4.0
 40
4.0
 10
101.5590046312362
 20
-128.5115469123166
 30
0.0
 10
101.7756833078893
 20
-128.7818099678049
 30
0.0
 10
101.8104999025978
 20
-129.1145852454991
 30
0.0
 10
101.6365099070366
 20
-129.2537913565753
 30
0.0
 10
101.4625551892523
 20
-129.3929621898739
 30
0.0
 10
101.1459371417744
 20
-129.2861763565672
 30
0.0
 10
100.9289082584224
 20
-129.015384134413
 30
0.0
 10
100.7121968750622
 20
-128.7440627455918
 30
0.0
 10
100.6774129870608
 20
-128.4119577456749
 30
0.0
 10
100.8510527525652
 20
-128.2724341345985
 30
0.0
 10
101.0253577004062
 20
-128.1332633013001
 30
0.0
 10
101.342293247876
 20
-128.2404019123843
 30
0.0
 10
101.5590046312362
 20
-128.5115469123166
 30
0.0
  0
HATCH
  5
71
330
6C
100
AcDbEntity
  8
_U+30EC_U+30A4_U+30E4_U+30FC 1
 62
     7
420
 16711422
100
AcDbHatch
 10
0.0
 20
0.0
 30
0.0
210
0.0
220
0.0
230
1.0
  2
SOLID
 70
     1
 71
     0
 91
        1
 92
        1
 93
        1
 72
     4
 94
        3
 73
     0
 74
     1
 95
       17
 96
       13
 40
0.0
 40
0.0
 40
0.0
 40
0.0
 40
1.0
 40
1.0
 40
1.0
 40
2.0
 40
2.0
 40
2.0
 40
3.0
 40
3.0
 40
3.0
 40
4.0
 40
4.0
 40
4.0
 40
4.0
 10
101.5590046312362
 20
-128.5115469123166
 10
101.7756833078893
 20
-128.7818099678049
 10
101.8104999025978
 20
-129.1145852454991
 10
101.6365099070366
 20
-129.2537913565753
 10
101.4625551892523
 20
-129.3929621898739
 10
101.1459371417744
 20
-129.2861763565672
 10
100.9289082584224
 20
-129.015384134413
 10
100.7121968750622
 20
-128.7440627455918
 10
100.6774129870608
 20
-128.4119577456749
 10
100.8510527525652
 20
-128.2724341345985
 10
101.0253577004062
 20
-128.1332633013001
 10
101.342293247876
 20
-128.2404019123843
 10
101.5590046312362
 20
-128.5115469123166
 97
        0
 97
        0
 75
     2
 76
     1
 98
        0
  0
SPLINE
  5
72
330
6C
100
AcDbEntity
  8
_U+30EC_U+30A4_U+30E4_U+30FC 1
 62
   179
420
  2234388
370
     9
100
AcDbSpline
210
0.0
220
0.0
230
1.0
 70
     8
 71
     3
 72
     8
 73
     4
 74
     0
 42
0.0000000001
 43
0.0000000001
 12
1.0
 22
0.0
 32
0.0
 13
1.0
 23
0.0
 33
0.0
 40
0.0
 40
0.0
 40
0.0
 40
0.0
 40
1.0
 40
1.0
 40
1.0
 40
1.0
 10
101.1114707537648
 20
-128.2341930234969
 30
0.0
 10
101.1114707537648
 20
-128.2341930234969
 30
0.0
 10
100.9354346471447
 20
-128.8513777455648
 30
0.0
 10
101.699904072086
 20
-129.2337888565806
 30
0.0
  0
ENDBLK
  5
6F
330
6C
100
AcDbEntity
  8
0
100
AcDbBlockEnd
  0
BLOCK
  5
75
330
73
100
AcDbEntity
  8
0
100
AcDbBlockBegin
  2
block 4
 70
     0
 10
0.0
 20
0.0
 30
0.0
  3
block 4
  1

  0
SPLINE
  5
77
330
73
100
AcDbEntity
  8
_U+30EC_U+30A4_U+30E4_U+30FC 1
 62
   179
420
  2234388
370
     9
100
AcDbSpline
210
0.0
220
0.0
230
1.0
 70
    11
 71
     3
 72
    17
 73
    13
 74
     0
 42
0.0000000001
 43
0.0000000001
 12
1.0
 22
0.0
 32
0.0
 13
1.0
 23
0.0
 33
0.0
 40
0.0
 40
0.0
 40
0.0
 40
0.0
 40
1.0
 40
1.0
 40
1.0
 40
2.0
 40
2.0
 40
2.0
 40
3.0
 40
3.0
 40
3.0
 40
4.0
 40
4.0
 40
4.0
 40
4.0
 10
96.32625198695702
 20
-125.3661802464362
 30
0.0
 10
96.54261059254837
 20
-125.636619690813
 30
0.0
 10
96.57774725831862
 20
-125.9690421907298
 30
0.0
 10
96.40375726275748
 20
-126.1082483018063
 30
0.0
 10
96.22976726719632
 20
-126.247419135105
 30
0.0
 10
95.91283171972647
 20
-126.1406333017983
 30
0.0
 10
95.69612033636635
 20
-125.8698410796437
 30
0.0
 10
95.4794442307831
 20
-125.5986960797114
 30
0.0
 10
95.44430756501285
 20
-125.2665910797945
 30
0.0
 10
95.61826228279712
 20
-125.1270674687181
 30
0.0
 10
95.79225227835826
 20
-124.9878966354198
 30
0.0
 10
96.10918782582812
 20
-125.0950352465039
 30
0.0
 10
96.32625198695702
 20
-125.3661802464362
 30
0.0
  0
HATCH
  5
78
330
73
100
AcDbEntity
  8
_U+30EC_U+30A4_U+30E4_U+30FC 1
 62
     7
420
 16711422
100
AcDbHatch
 10
0.0
 20
0.0
 30
0.0
210
0.0
220
0.0
230
1.0
  2
SOLID
 70
     1
 71
     0
 91
        1
 92
        1
 93
        1
 72
     4
 94
        3
 73
     0
 74
     1
 95
       17
 96
       13
 40
0.0
 40
0.0
 40
0.0
 40
0.0
 40
1.0
 40
1.0
 40
1.0
 40
2.0
 40
2.0
 40
2.0
 40
3.0
 40
3.0
 40
3.0
 40
4.0
 40
4.0
 40
4.0
 40
4.0
 10
96.32625198695702
 20
-125.3661802464362
 10
96.54261059254837
 20
-125.636619690813
 10
96.57774725831862
 20
-125.9690421907298
 10
96.40375726275748
 20
-126.1082483018063
 10
96.22976726719632
 20
-126.247419135105
 10
95.91283171972647
 20
-126.1406333017983
 10
95.69612033636635
 20
-125.8698410796437
 10
95.4794442307831
 20
-125.5986960797114
 10
95.44430756501285
 20
-125.2665910797945
 10
95.61826228279712
 20
-125.1270674687181
 10
95.79225227835826
 20
-124.9878966354198
 10
96.10918782582812
 20
-125.0950352465039
 10
96.32625198695702
 20
-125.3661802464362
 97
        0
 97
        0
 75
     2
 76
     1
 98
        0
  0
SPLINE
  5
79
330
73
100
AcDbEntity
  8
_U+30EC_U+30A4_U+30E4_U+30FC 1
 62
   179
420
  2234388
370
     9
100
AcDbSpline
210
0.0
220
0.0
230
1.0
 70
     8
 71
     3
 72
     8
 73
     4
 74
     0
 42
0.0000000001
 43
0.0000000001
 12
1.0
 22
0.0
 32
0.0
 13
1.0
 23
0.0
 33
0.0
 40
0.0
 40
0.0
 40
0.0
 40
0.0
 40
1.0
 40
1.0
 40
1.0
 40
1.0
 10
95.87871810948567
 20
-125.0888263576168
 30
0.0
 10
95.87871810948567
 20
-125.0888263576168
 30
0.0
 10
95.70268200286561
 20
-125.7061874685736
 30
0.0
 10
96.46679865003804
 20
-126.0882458018113
 30
0.0
  0
ENDBLK
  5
76
330
73
100
AcDbEntity
  8
0
100
AcDbBlockEnd
  0
BLOCK
  5
7C
330
7A
100
AcDbEntity
  8
0
100
AcDbBlockBegin
  2
block 5
 70
     0
 10
0.0
 20
0.0
 30
0.0
  3
block 5
  1

  0
SPLINE
  5
7E
330
7A
100
AcDbEntity
  8
_U+30EC_U+30A4_U+30E4_U+30FC 1
 62
   179
420
  2234388
370
     9
100
AcDbSpline
210
0.0
220
0.0
230
1.0
 70
    11
 71
     3
 72
    17
 73
    13
 74
     0
 42
0.0000000001
 43
0.0000000001
 12
1.0
 22
0.0
 32
0.0
 13
1.0
 23
0.0
 33
0.0
 40
0.0
 40
0.0
 40
0.0
 40
0.0
 40
1.0
 40
1.0
 40
1.0
 40
2.0
 40
2.0
 40
2.0
 40
3.0
 40
3.0
 40
3.0
 40
4.0
 40
4.0
 40
4.0
 40
4.0
 10
76.18451111192675
 20
-130.6586935784466
 30
0.0
 10
76.3224824972957
 20
-130.3410524674147
 30
0.0
 10
76.60033026798499
 20
-130.1550327452391
 30
0.0
 10
76.80462387388414
 20
-130.2438974674388
 30
0.0
 10
77.0089194251921
 20
-130.3327974674168
 30
0.0
 10
77.06229275619934
 20
-130.6628210784452
 30
0.0
 10
76.92396859306162
 20
-130.9811677450326
 30
0.0
 10
76.785326929932
 20
-131.2994791338418
 30
0.0
 10
76.50797498087286
 20
-131.4848285782401
 30
0.0
 10
76.30353833111234
 20
-131.3966341338177
 30
0.0
 10
76.09889194744441
 20
-131.3077341338397
 30
0.0
 10
76.04601055990464
 20
-130.9770049672558
 30
0.0
 10
76.18451111192675
 20
-130.6586935784466
 30
0.0
  0
HATCH
  5
7F
330
7A
100
AcDbEntity
  8
_U+30EC_U+30A4_U+30E4_U+30FC 1
 62
     7
420
 16711422
100
AcDbHatch
 10
0.0
 20
0.0
 30
0.0
210
0.0
220
0.0
230
1.0
  2
SOLID
 70
     1
 71
     0
 91
        1
 92
        1
 93
        1
 72
     4
 94
        3
 73
     0
 74
     1
 95
       17
 96
       13
 40
0.0
 40
0.0
 40
0.0
 40
0.0
 40
1.0
 40
1.0
 40
1.0
 40
2.0
 40
2.0
 40
2.0
 40
3.0
 40
3.0
 40
3.0
 40
4.0
 40
4.0
 40
4.0
 40
4.0
 10
76.18451111192675
 20
-130.6586935784466
 10
76.3224824972957
 20
-130.3410524674147
 10
76.60033026798499
 20
-130.1550327452391
 10
76.80462387388414
 20
-130.2438974674388
 10
77.0089194251921
 20
-130.3327974674168
 10
77.06229275619934
 20
-130.6628210784452
 10
76.92396859306162
 20
-130.9811677450326
 10
76.785326929932
 20
-131.2994791338418
 10
76.50797498087286
 20
-131.4848285782401
 10
76.30353833111234
 20
-131.3966341338177
 10
76.09889194744441
 20
-131.3077341338397
 10
76.04601055990464
 20
-130.9770049672558
 10
76.18451111192675
 20
-130.6586935784466
 97
        0
 97
        0
 75
     2
 76
     1
 98
        0
  0
SPLINE
  5
80
330
7A
100
AcDbEntity
  8
_U+30EC_U+30A4_U+30E4_U+30FC 1
 62
   179
420
  2234388
370
     9
100
AcDbSpline
210
0.0
220
0.0
230
1.0
 70
     8
 71
     3
 72
     8
 73
     4
 74
     0
 42
0.0000000001
 43
0.0000000001
 12
1.0
 22
0.0
 32
0.0
 13
1.0
 23
0.0
 33
0.0
 40
0.0
 40
0.0
 40
0.0
 40
0.0
 40
1.0
 40
1.0
 40
1.0
 40
1.0
 10
76.14814164762966
 20
-131.1837327449816
 30
0.0
 10
76.14814164762966
 20
-131.1837327449816
 30
0.0
 10
76.77618998572065
 20
-131.051441078348
 30
0.0
 10
76.75742220842169
 20
-130.1970485785619
 30
0.0
  0
ENDBLK
  5
7D
330
7A
100
AcDbEntity
  8
0
100
AcDbBlockEnd
  0
BLOCK
  5
B8
330
B6
100
AcDbEntity
  8
0
100
AcDbBlockBegin
  2
block 6
 70
     0
 10
0.0
 20
0.0
 30
0.0
  3
block 6
  1

  0
SPLINE
  5
BA
330
B6
100
AcDbEntity
  8
_U+30EC_U+30A4_U+30E4_U+30FC 1
370
     0
100
AcDbSpline
210
0.0
220
0.0
230
1.0
 70
    11
 71
     3
 72
    26
 73
    22
 74
     0
 42
0.0000000001
 43
0.0000000001
 12
1.0
 22
0.0
 32
0.0
 13
1.0
 23
0.0
 33
0.0
 40
0.0
 40
0.0
 40
0.0
 40
0.0
 40
1.0
 40
1.0
 40
1.0
 40
2.0
 40
2.0
 40
2.0
 40
3.0
 40
3.0
 40
3.0
 40
4.0
 40
4.0
 40
4.0
 40
5.0
 40
5.0
 40
5.0
 40
6.0
 40
6.0
 40
6.0
 40
7.0
 40
7.0
 40
7.0
 40
7.0
 10
79.73880206339864
 20
-122.5305053404611
 30
0.0
 10
79.73880206339864
 20
-122.5305053404611
 30
0.0
 10
79.5019517487877
 20
-122.5305053404611
 30
0.0
 10
79.5019517487877
 20
-122.5305053404611
 30
0.0
 10
79.5272732006043
 20
-122.2216525302085
 30
0.0
 10
79.71985403822977
 20
-121.7033379144526
 30
0.0
 10
80.12603079594072
 20
-121.1977701519922
 30
0.0
 10
80.12603079594072
 20
-121.1977701519922
 30
0.0
 10
79.28818357392795
 20
-121.1977701519922
 30
0.0
 10
79.28818357392795
 20
-121.1977701519922
 30
0.0
 10
79.28818357392795
 20
-121.1977701519922
 30
0.0
 10
79.28818357392795
 20
-120.9862412891979
 30
0.0
 10
79.28818357392795
 20
-120.9862412891979
 30
0.0
 10
79.28818357392795
 20
-120.9862412891979
 30
0.0
 10
80.36288111055164
 20
-120.9862412891979
 30
0.0
 10
80.36288111055164
 20
-120.9862412891979
 30
0.0
 10
80.36288111055164
 20
-120.9862412891979
 30
0.0
 10
80.36288111055164
 20
-121.1977701519922
 30
0.0
 10
80.36288111055164
 20
-121.1977701519922
 30
0.0
 10
80.03921438971243
 20
-121.4875026823017
 30
0.0
 10
79.77273625392834
 20
-122.0798868509904
 30
0.0
 10
79.73880206339864
 20
-122.5305053404611
 30
0.0
  0
HATCH
  5
BB
330
B6
100
AcDbEntity
  8
_U+30EC_U+30A4_U+30E4_U+30FC 1
 62
   179
420
  2234388
100
AcDbHatch
 10
0.0
 20
0.0
 30
0.0
210
0.0
220
0.0
230
1.0
  2
SOLID
 70
     1
 71
     0
 91
        1
 92
        1
 93
        1
 72
     4
 94
        3
 73
     0
 74
     1
 95
       26
 96
       22
 40
0.0
 40
0.0
 40
0.0
 40
0.0
 40
1.0
 40
1.0
 40
1.0
 40
2.0
 40
2.0
 40
2.0
 40
3.0
 40
3.0
 40
3.0
 40
4.0
 40
4.0
 40
4.0
 40
5.0
 40
5.0
 40
5.0
 40
6.0
 40
6.0
 40
6.0
 40
7.0
 40
7.0
 40
7.0
 40
7.0
 10
79.73880206339864
 20
-122.5305053404611
 10
79.73880206339864
 20
-122.5305053404611
 10
79.5019517487877
 20
-122.5305053404611
 10
79.5019517487877
 20
-122.5305053404611
 10
79.5272732006043
 20
-122.2216525302085
 10
79.71985403822977
 20
-121.7033379144526
 10
80.12603079594072
 20
-121.1977701519922
 10
80.12603079594072
 20
-121.1977701519922
 10
79.28818357392795
 20
-121.1977701519922
 10
79.28818357392795
 20
-121.1977701519922
 10
79.28818357392795
 20
-121.1977701519922
 10
79.28818357392795
 20
-120.9862412891979
 10
79.28818357392795
 20
-120.9862412891979
 10
79.28818357392795
 20
-120.9862412891979
 10
80.36288111055164
 20
-120.9862412891979
 10
80.36288111055164
 20
-120.9862412891979
 10
80.36288111055164
 20
-120.9862412891979
 10
80.36288111055164
 20
-121.1977701519922
 10
80.36288111055164
 20
-121.1977701519922
 10
80.03921438971243
 20
-121.4875026823017
 10
79.77273625392834
 20
-122.0798868509904
 10
79.73880206339864
 20
-122.5305053404611
 97
        0
 97
        0
 75
     2
 76
     1
 98
        0
  0
POLYLINE
  5
BC
330
B6
100
AcDbEntity
  8
_U+30EC_U+30A4_U+30E4_U+30FC 1
370
     0
100
AcDb2dPolyline
 66
     1
 10
0.0
 20
0.0
 30
0.0
  0
VERTEX
  5
BD
330
BC
100
AcDbEntity
  8
_U+30EC_U+30A4_U+30E4_U+30FC 1
370
     0
100
AcDbVertex
100
AcDb2dVertex
 10
81.3366373494575
 20
-122.1835842250965
 30
0.0
  0
VERTEX
  5
BE
330
BC
100
AcDbEntity
  8
_U+30EC_U+30A4_U+30E4_U+30FC 1
370
     0
100
AcDbVertex
100
AcDb2dVertex
 10
81.3366373494575
 20
-122.5305053404611
 30
0.0
  0
VERTEX
  5
BF
330
BC
100
AcDbEntity
  8
_U+30EC_U+30A4_U+30E4_U+30FC 1
370
     0
100
AcDbVertex
100
AcDb2dVertex
 10
81.11890731478972
 20
-122.5305053404611
 30
0.0
  0
VERTEX
  5
C0
330
BC
100
AcDbEntity
  8
_U+30EC_U+30A4_U+30E4_U+30FC 1
370
     0
100
AcDbVertex
100
AcDb2dVertex
 10
81.11890731478972
 20
-122.1835842250965
 30
0.0
  0
VERTEX
  5
C1
330
BC
100
AcDbEntity
  8
_U+30EC_U+30A4_U+30E4_U+30FC 1
370
     0
100
AcDbVertex
100
AcDb2dVertex
 10
80.46296113439816
 20
-122.1835842250965
 30
0.0
  0
VERTEX
  5
C2
330
BC
100
AcDbEntity
  8
_U+30EC_U+30A4_U+30E4_U+30FC 1
370
     0
100
AcDbVertex
100
AcDb2dVertex
 10
80.46296113439816
 20
-121.9593085090067
 30
0.0
  0
VERTEX
  5
C3
330
BC
100
AcDbEntity
  8
_U+30EC_U+30A4_U+30E4_U+30FC 1
370
     0
100
AcDbVertex
100
AcDb2dVertex
 10
81.14216170931516
 20
-120.9862412891979
 30
0.0
  0
VERTEX
  5
C4
330
BC
100
AcDbEntity
  8
_U+30EC_U+30A4_U+30E4_U+30FC 1
370
     0
100
AcDbVertex
100
AcDb2dVertex
 10
81.3366373494575
 20
-120.9862412891979
 30
0.0
  0
VERTEX
  5
C5
330
BC
100
AcDbEntity
  8
_U+30EC_U+30A4_U+30E4_U+30FC 1
370
     0
100
AcDbVertex
100
AcDb2dVertex
 10
81.3366373494575
 20
-121.9846299608233
 30
0.0
  0
VERTEX
  5
C6
330
BC
100
AcDbEntity
  8
_U+30EC_U+30A4_U+30E4_U+30FC 1
370
     0
100
AcDbVertex
100
AcDb2dVertex
 10
81.54403209766956
 20
-121.9846299608233
 30
0.0
  0
VERTEX
  5
C7
330
BC
100
AcDbEntity
  8
_U+30EC_U+30A4_U+30E4_U+30FC 1
370
     0
100
AcDbVertex
100
AcDb2dVertex
 10
81.54403209766956
 20
-122.1835842250965
 30
0.0
  0
VERTEX
  5
C8
330
BC
100
AcDbEntity
  8
_U+30EC_U+30A4_U+30E4_U+30FC 1
370
     0
100
AcDbVertex
100
AcDb2dVertex
 10
81.3366373494575
 20
-122.1835842250965
 30
0.0
  0
SEQEND
  5
C9
330
BC
100
AcDbEntity
  8
_U+30EC_U+30A4_U+30E4_U+30FC 1
370
     0
  0
POLYLINE
  5
CA
330
B6
100
AcDbEntity
  8
_U+30EC_U+30A4_U+30E4_U+30FC 1
370
     0
100
AcDb2dPolyline
 66
     1
 10
0.0
 20
0.0
 30
0.0
  0
VERTEX
  5
CB
330
CA
100
AcDbEntity
  8
_U+30EC_U+30A4_U+30E4_U+30FC 1
370
     0
100
AcDbVertex
100
AcDb2dVertex
 10
81.11890731478972
 20
-121.328856035206
 30
0.0
  0
VERTEX
  5
CC
330
CA
100
AcDbEntity
  8
_U+30EC_U+30A4_U+30E4_U+30FC 1
370
     0
100
AcDbVertex
100
AcDb2dVertex
 10
80.66191539867133
 20
-121.9846299608233
 30
0.0
  0
VERTEX
  5
CD
330
CA
100
AcDbEntity
  8
_U+30EC_U+30A4_U+30E4_U+30FC 1
370
     0
100
AcDbVertex
100
AcDb2dVertex
 10
81.11890731478972
 20
-121.9846299608233
 30
0.0
  0
VERTEX
  5
CE
330
CA
100
AcDbEntity
  8
_U+30EC_U+30A4_U+30E4_U+30FC 1
370
     0
100
AcDbVertex
100
AcDb2dVertex
 10
81.11890731478972
 20
-121.328856035206
 30
0.0
  0
SEQEND
  5
CF
330
CA
100
AcDbEntity
  8
_U+30EC_U+30A4_U+30E4_U+30FC 1
370
     0
  0
HATCH
  5
D0
330
B6
100
AcDbEntity
  8
_U+30EC_U+30A4_U+30E4_U+30FC 1
 62
   179
420
  2234388
100
AcDbHatch
 10
0.0
 20
0.0
 30
0.0
210
0.0
220
0.0
230
1.0
  2
SOLID
 70
     1
 71
     0
 91
        2
 92
        1
 93
       11
 72
     1
 10
81.3366373494575
 20
-122.1835842250965
 11
81.3366373494575
 21
-122.5305053404611
 72
     1
 10
81.3366373494575
 20
-122.5305053404611
 11
81.11890731478972
 21
-122.5305053404611
 72
     1
 10
81.11890731478972
 20
-122.5305053404611
 11
81.11890731478972
 21
-122.1835842250965
 72
     1
 10
81.11890731478972
 20
-122.1835842250965
 11
80.46296113439816
 21
-122.1835842250965
 72
     1
 10
80.46296113439816
 20
-122.1835842250965
 11
80.46296113439816
 21
-121.9593085090067
 72
     1
 10
80.46296113439816
 20
-121.9593085090067
 11
81.14216170931516
 21
-120.9862412891979
 72
     1
 10
81.14216170931516
 20
-120.9862412891979
 11
81.3366373494575
 21
-120.9862412891979
 72
     1
 10
81.3366373494575
 20
-120.9862412891979
 11
81.3366373494575
 21
-121.9846299608233
 72
     1
 10
81.3366373494575
 20
-121.9846299608233
 11
81.54403209766956
 21
-121.9846299608233
 72
     1
 10
81.54403209766956
 20
-121.9846299608233
 11
81.54403209766956
 21
-122.1835842250965
 72
     1
 10
81.54403209766956
 20
-122.1835842250965
 11
81.3366373494575
 21
-122.1835842250965
 97
        0
 92
        1
 93
        3
 72
     1
 10
81.11890731478972
 20
-121.328856035206
 11
80.66191539867133
 21
-121.9846299608233
 72
     1
 10
80.66191539867133
 20
-121.9846299608233
 11
81.11890731478972
 21
-121.9846299608233
 72
     1
 10
81.11890731478972
 20
-121.9846299608233
 11
81.11890731478972
 21
-121.328856035206
 97
        0
 75
     2
 76
     1
 98
        0
  0
ENDBLK
  5
B9
330
B6
100
AcDbEntity
  8
0
100
AcDbBlockEnd
  0
BLOCK
  5
D3
330
D1
100
AcDbEntity
  8
0
100
AcDbBlockBegin
  2
block 7
 70
     0
 10
0.0
 20
0.0
 30
0.0
  3
block 7
  1

  0
SPLINE
  5
D5
330
D1
100
AcDbEntity
  8
_U+30EC_U+30A4_U+30E4_U+30FC 1
370
     0
100
AcDbSpline
210
0.0
220
0.0
230
1.0
 70
    11
 71
     3
 72
    53
 73
    49
 74
     0
 42
0.0000000001
 43
0.0000000001
 12
1.0
 22
0.0
 32
0.0
 13
1.0
 23
0.0
 33
0.0
 40
0.0
 40
0.0
 40
0.0
 40
0.0
 40
1.0
 40
1.0
 40
1.0
 40
2.0
 40
2.0
 40
2.0
 40
3.0
 40
3.0
 40
3.0
 40
4.0
 40
4.0
 40
4.0
 40
5.0
 40
5.0
 40
5.0
 40
6.0
 40
6.0
 40
6.0
 40
7.0
 40
7.0
 40
7.0
 40
8.0
 40
8.0
 40
8.0
 40
9.0
 40
9.0
 40
9.0
 40
10.0
 40
10.0
 40
10.0
 40
11.0
 40
11.0
 40
11.0
 40
12.0
 40
12.0
 40
12.0
 40
13.0
 40
13.0
 40
13.0
 40
14.0
 40
14.0
 40
14.0
 40
15.0
 40
15.0
 40
15.0
 40
16.0
 40
16.0
 40
16.0
 40
16.0
 10
96.38929305315962
 20
-120.1709594426135
 30
0.0
 10
96.31108938564445
 20
-120.1709594426135
 30
0.0
 10
96.20945906882959
 20
-120.1539062199615
 30
0.0
 10
96.10782875201471
 20
-120.0905164630329
 30
0.0
 10
95.93454044910665
 20
-119.9804456622792
 30
0.0
 10
95.9131808570981
 20
-119.8493597790654
 30
0.0
 10
95.89423283192923
 20
-119.7415282903771
 30
0.0
 10
95.89423283192923
 20
-119.7415282903771
 30
0.0
 10
96.11644149072784
 20
-119.7415282903771
 30
0.0
 10
96.11644149072784
 20
-119.7415282903771
 30
0.0
 10
96.17121850894331
 20
-119.940310299876
 30
0.0
 10
96.29834253234903
 20
-119.9699381210492
 30
0.0
 10
96.39136011045078
 20
-119.9699381210492
 30
0.0
 10
96.53088647760339
 20
-119.9699381210492
 30
0.0
 10
96.68315969805144
 20
-119.8705471162997
 30
0.0
 10
96.68315969805144
 20
-119.6378309162711
 30
0.0
 10
96.68315969805144
 20
-119.381860321717
 30
0.0
 10
96.5033257137214
 20
-119.3120971381407
 30
0.0
 10
96.38274737173765
 20
-119.3120971381407
 30
0.0
 10
96.35105249327336
 20
-119.3120971381407
 30
0.0
 10
96.20945906882959
 20
-119.3120971381407
 30
0.0
 10
96.12057560531014
 20
-119.4411159640633
 30
0.0
 10
96.12057560531014
 20
-119.4411159640633
 30
0.0
 10
95.94487573556239
 20
-119.4219956841202
 30
0.0
 10
95.94487573556239
 20
-119.4219956841202
 30
0.0
 10
95.94487573556239
 20
-119.4219956841202
 30
0.0
 10
96.06545407754614
 20
-118.5758802329428
 30
0.0
 10
96.06545407754614
 20
-118.5758802329428
 30
0.0
 10
96.06545407754614
 20
-118.5758802329428
 30
0.0
 10
96.8440456572126
 20
-118.5758802329428
 30
0.0
 10
96.8440456572126
 20
-118.5758802329428
 30
0.0
 10
96.8440456572126
 20
-118.5758802329428
 30
0.0
 10
96.8440456572126
 20
-118.7705281278594
 30
0.0
 10
96.8440456572126
 20
-118.7705281278594
 30
0.0
 10
96.8440456572126
 20
-118.7705281278594
 30
0.0
 10
96.22840709399846
 20
-118.7705281278594
 30
0.0
 10
96.22840709399846
 20
-118.7705281278594
 30
0.0
 10
96.22840709399846
 20
-118.7705281278594
 30
0.0
 10
96.16295027977871
 20
-119.1935858534481
 30
0.0
 10
96.16295027977871
 20
-119.1935858534481
 30
0.0
 10
96.22427297941616
 20
-119.1596516629184
 30
0.0
 10
96.30661076151362
 20
-119.1195163005153
 30
0.0
 10
96.42512204620623
 20
-119.1195163005153
 30
0.0
 10
96.67902558346914
 20
-119.1195163005153
 30
0.0
 10
96.91604815285433
 20
-119.305723711493
 30
0.0
 10
96.91604815285433
 20
-119.618710636328
 30
0.0
 10
96.91604815285433
 20
-119.9361761852937
 30
0.0
 10
96.69177243676457
 20
-120.1709594426135
 30
0.0
 10
96.38929305315962
 20
-120.1709594426135
 30
0.0
  0
HATCH
  5
D6
330
D1
100
AcDbEntity
  8
_U+30EC_U+30A4_U+30E4_U+30FC 1
 62
   179
420
  2234388
100
AcDbHatch
 10
0.0
 20
0.0
 30
0.0
210
0.0
220
0.0
230
1.0
  2
SOLID
 70
     1
 71
     0
 91
        1
 92
        1
 93
        1
 72
     4
 94
        3
 73
     0
 74
     1
 95
       53
 96
       49
 40
0.0
 40
0.0
 40
0.0
 40
0.0
 40
1.0
 40
1.0
 40
1.0
 40
2.0
 40
2.0
 40
2.0
 40
3.0
 40
3.0
 40
3.0
 40
4.0
 40
4.0
 40
4.0
 40
5.0
 40
5.0
 40
5.0
 40
6.0
 40
6.0
 40
6.0
 40
7.0
 40
7.0
 40
7.0
 40
8.0
 40
8.0
 40
8.0
 40
9.0
 40
9.0
 40
9.0
 40
10.0
 40
10.0
 40
10.0
 40
11.0
 40
11.0
 40
11.0
 40
12.0
 40
12.0
 40
12.0
 40
13.0
 40
13.0
 40
13.0
 40
14.0
 40
14.0
 40
14.0
 40
15.0
 40
15.0
 40
15.0
 40
16.0
 40
16.0
 40
16.0
 40
16.0
 10
96.38929305315962
 20
-120.1709594426135
 10
96.31108938564445
 20
-120.1709594426135
 10
96.20945906882959
 20
-120.1539062199615
 10
96.10782875201471
 20
-120.0905164630329
 10
95.93454044910665
 20
-119.9804456622792
 10
95.9131808570981
 20
-119.8493597790654
 10
95.89423283192923
 20
-119.7415282903771
 10
95.89423283192923
 20
-119.7415282903771
 10
96.11644149072784
 20
-119.7415282903771
 10
96.11644149072784
 20
-119.7415282903771
 10
96.17121850894331
 20
-119.940310299876
 10
96.29834253234903
 20
-119.9699381210492
 10
96.39136011045078
 20
-119.9699381210492
 10
96.53088647760339
 20
-119.9699381210492
 10
96.68315969805144
 20
-119.8705471162997
 10
96.68315969805144
 20
-119.6378309162711
 10
96.68315969805144
 20
-119.381860321717
 10
96.5033257137214
 20
-119.3120971381407
 10
96.38274737173765
 20
-119.3120971381407
 10
96.35105249327336
 20
-119.3120971381407
 10
96.20945906882959
 20
-119.3120971381407
 10
96.12057560531014
 20
-119.4411159640633
 10
96.12057560531014
 20
-119.4411159640633
 10
95.94487573556239
 20
-119.4219956841202
 10
95.94487573556239
 20
-119.4219956841202
 10
95.94487573556239
 20
-119.4219956841202
 10
96.06545407754614
 20
-118.5758802329428
 10
96.06545407754614
 20
-118.5758802329428
 10
96.06545407754614
 20
-118.5758802329428
 10
96.8440456572126
 20
-118.5758802329428
 10
96.8440456572126
 20
-118.5758802329428
 10
96.8440456572126
 20
-118.5758802329428
 10
96.8440456572126
 20
-118.7705281278594
 10
96.8440456572126
 20
-118.7705281278594
 10
96.8440456572126
 20
-118.7705281278594
 10
96.22840709399846
 20
-118.7705281278594
 10
96.22840709399846
 20
-118.7705281278594
 10
96.22840709399846
 20
-118.7705281278594
 10
96.16295027977871
 20
-119.1935858534481
 10
96.16295027977871
 20
-119.1935858534481
 10
96.22427297941616
 20
-119.1596516629184
 10
96.30661076151362
 20
-119.1195163005153
 10
96.42512204620623
 20
-119.1195163005153
 10
96.67902558346914
 20
-119.1195163005153
 10
96.91604815285433
 20
-119.305723711493
 10
96.91604815285433
 20
-119.618710636328
 10
96.91604815285433
 20
-119.9361761852937
 10
96.69177243676457
 20
-120.1709594426135
 10
96.38929305315962
 20
-120.1709594426135
 97
        0
 97
        0
 75
     2
 76
     1
 98
        0
  0
SPLINE
  5
D7
330
D1
100
AcDbEntity
  8
_U+30EC_U+30A4_U+30E4_U+30FC 1
370
     0
100
AcDbSpline
210
0.0
220
0.0
230
1.0
 70
    11
 71
     3
 72
    29
 73
    25
 74
     0
 42
0.0000000001
 43
0.0000000001
 12
1.0
 22
0.0
 32
0.0
 13
1.0
 23
0.0
 33
0.0
 40
0.0
 40
0.0
 40
0.0
 40
0.0
 40
1.0
 40
1.0
 40
1.0
 40
2.0
 40
2.0
 40
2.0
 40
3.0
 40
3.0
 40
3.0
 40
4.0
 40
4.0
 40
4.0
 40
5.0
 40
5.0
 40
5.0
 40
6.0
 40
6.0
 40
6.0
 40
7.0
 40
7.0
 40
7.0
 40
8.0
 40
8.0
 40
8.0
 40
8.0
 10
97.9829942246362
 20
-119.9423773571672
 30
0.0
 10
97.87481822639936
 20
-120.1518391626704
 30
0.0
 10
97.7015299234913
 20
-120.1709594426135
 30
0.0
 10
97.58508569608985
 20
-120.1709594426135
 30
0.0
 10
97.42419973692867
 20
-120.1709594426135
 30
0.0
 10
97.2826063124849
 20
-120.1244506535626
 30
0.0
 10
97.18752167709201
 20
-119.9423773571672
 30
0.0
 10
97.08382430298599
 20
-119.7477294622506
 30
0.0
 10
97.06487627781712
 20
-119.5108791476396
 30
0.0
 10
97.06487627781712
 20
-119.3479261311873
 30
0.0
 10
97.06487627781712
 20
-119.2040933946782
 30
0.0
 10
97.08175724569485
 20
-118.9524291694807
 30
0.0
 10
97.18752167709201
 20
-118.7534749052075
 30
0.0
 10
97.29535316578033
 20
-118.550386526352
 30
0.0
 10
97.4562391249415
 20
-118.5271321318266
 30
0.0
 10
97.58508569608985
 20
-118.5271321318266
 30
0.0
 10
97.74390459795985
 20
-118.5271321318266
 30
0.0
 10
97.88756507969478
 20
-118.5715738635863
 30
0.0
 10
97.9829942246362
 20
-118.7534749052075
 30
0.0
 10
98.0822129746114
 20
-118.9460557428329
 30
0.0
 10
98.10563962391109
 20
-119.174465573505
 30
0.0
 10
98.10563962391109
 20
-119.3479261311873
 30
0.0
 10
98.10563962391109
 20
-119.5193196315785
 30
0.0
 10
98.08428003190255
 20
-119.749968774316
 30
0.0
 10
97.9829942246362
 20
-119.9423773571672
 30
0.0
  0
SPLINE
  5
D8
330
D1
100
AcDbEntity
  8
_U+30EC_U+30A4_U+30E4_U+30FC 1
370
     0
100
AcDbSpline
210
0.0
220
0.0
230
1.0
 70
    11
 71
     3
 72
    17
 73
    13
 74
     0
 42
0.0000000001
 43
0.0000000001
 12
1.0
 22
0.0
 32
0.0
 13
1.0
 23
0.0
 33
0.0
 40
0.0
 40
0.0
 40
0.0
 40
0.0
 40
1.0
 40
1.0
 40
1.0
 40
2.0
 40
2.0
 40
2.0
 40
3.0
 40
3.0
 40
3.0
 40
4.0
 40
4.0
 40
4.0
 40
4.0
 10
97.58508569608985
 20
-118.719712969452
 30
0.0
 10
97.33566078295776
 20
-118.719712969452
 30
0.0
 10
97.28880748435836
 20
-119.0032443278881
 30
0.0
 10
97.28880748435836
 20
-119.3479261311873
 30
0.0
 10
97.28880748435836
 20
-119.6674587374442
 30
0.0
 10
97.32498098695348
 20
-119.9763115476969
 30
0.0
 10
97.58508569608985
 20
-119.9763115476969
 30
0.0
 10
97.8327880614793
 20
-119.9763115476969
 30
0.0
 10
97.88136390782132
 20
-119.694847246552
 30
0.0
 10
97.88136390782132
 20
-119.3479261311873
 30
0.0
 10
97.88136390782132
 20
-119.0285657797047
 30
0.0
 10
97.84312334793506
 20
-118.719712969452
 30
0.0
 10
97.58508569608985
 20
-118.719712969452
 30
0.0
  0
HATCH
  5
D9
330
D1
100
AcDbEntity
  8
_U+30EC_U+30A4_U+30E4_U+30FC 1
 62
   179
420
  2234388
100
AcDbHatch
 10
0.0
 20
0.0
 30
0.0
210
0.0
220
0.0
230
1.0
  2
SOLID
 70
     1
 71
     0
 91
        2
 92
        1
 93
        1
 72
     4
 94
        3
 73
     0
 74
     1
 95
       29
 96
       25
 40
0.0
 40
0.0
 40
0.0
 40
0.0
 40
1.0
 40
1.0
 40
1.0
 40
2.0
 40
2.0
 40
2.0
 40
3.0
 40
3.0
 40
3.0
 40
4.0
 40
4.0
 40
4.0
 40
5.0
 40
5.0
 40
5.0
 40
6.0
 40
6.0
 40
6.0
 40
7.0
 40
7.0
 40
7.0
 40
8.0
 40
8.0
 40
8.0
 40
8.0
 10
97.9829942246362
 20
-119.9423773571672
 10
97.87481822639936
 20
-120.1518391626704
 10
97.7015299234913
 20
-120.1709594426135
 10
97.58508569608985
 20
-120.1709594426135
 10
97.42419973692867
 20
-120.1709594426135
 10
97.2826063124849
 20
-120.1244506535626
 10
97.18752167709201
 20
-119.9423773571672
 10
97.08382430298599
 20
-119.7477294622506
 10
97.06487627781712
 20
-119.5108791476396
 10
97.06487627781712
 20
-119.3479261311873
 10
97.06487627781712
 20
-119.2040933946782
 10
97.08175724569485
 20
-118.9524291694807
 10
97.18752167709201
 20
-118.7534749052075
 10
97.29535316578033
 20
-118.550386526352
 10
97.4562391249415
 20
-118.5271321318266
 10
97.58508569608985
 20
-118.5271321318266
 10
97.74390459795985
 20
-118.5271321318266
 10
97.88756507969478
 20
-118.5715738635863
 10
97.9829942246362
 20
-118.7534749052075
 10
98.0822129746114
 20
-118.9460557428329
 10
98.10563962391109
 20
-119.174465573505
 10
98.10563962391109
 20
-119.3479261311873
 10
98.10563962391109
 20
-119.5193196315785
 10
98.08428003190255
 20
-119.749968774316
 10
97.9829942246362
 20
-119.9423773571672
 97
        0
 97
        0
 92
        1
 93
        1
 72
     4
 94
        3
 73
     0
 74
     1
 95
       17
 96
       13
 40
0.0
 40
0.0
 40
0.0
 40
0.0
 40
1.0
 40
1.0
 40
1.0
 40
2.0
 40
2.0
 40
2.0
 40
3.0
 40
3.0
 40
3.0
 40
4.0
 40
4.0
 40
4.0
 40
4.0
 10
97.58508569608985
 20
-118.719712969452
 10
97.33566078295776
 20
-118.719712969452
 10
97.28880748435836
 20
-119.0032443278881
 10
97.28880748435836
 20
-119.3479261311873
 10
97.28880748435836
 20
-119.6674587374442
 10
97.32498098695348
 20
-119.9763115476969
 10
97.58508569608985
 20
-119.9763115476969
 10
97.8327880614793
 20
-119.9763115476969
 10
97.88136390782132
 20
-119.694847246552
 10
97.88136390782132
 20
-119.3479261311873
 10
97.88136390782132
 20
-119.0285657797047
 10
97.84312334793506
 20
-118.719712969452
 10
97.58508569608985
 20
-118.719712969452
 97
        0
 97
        0
 75
     2
 76
     1
 98
        0
  0
ENDBLK
  5
D4
330
D1
100
AcDbEntity
  8
0
100
AcDbBlockEnd
  0
BLOCK
  5
DC
330
DA
100
AcDbEntity
  8
0
100
AcDbBlockBegin
  2
block 8
 70
     0
 10
0.0
 20
0.0
 30
0.0
  3
block 8
  1

  0
SPLINE
  5
DE
330
DA
100
AcDbEntity
  8
_U+30EC_U+30A4_U+30E4_U+30FC 1
370
     0
100
AcDbSpline
210
0.0
220
0.0
230
1.0
 70
    11
 71
     3
 72
    62
 73
    58
 74
     0
 42
0.0000000001
 43
0.0000000001
 12
1.0
 22
0.0
 32
0.0
 13
1.0
 23
0.0
 33
0.0
 40
0.0
 40
0.0
 40
0.0
 40
0.0
 40
1.0
 40
1.0
 40
1.0
 40
2.0
 40
2.0
 40
2.0
 40
3.0
 40
3.0
 40
3.0
 40
4.0
 40
4.0
 40
4.0
 40
5.0
 40
5.0
 40
5.0
 40
6.0
 40
6.0
 40
6.0
 40
7.0
 40
7.0
 40
7.0
 40
8.0
 40
8.0
 40
8.0
 40
9.0
 40
9.0
 40
9.0
 40
10.0
 40
10.0
 40
10.0
 40
11.0
 40
11.0
 40
11.0
 40
12.0
 40
12.0
 40
12.0
 40
13.0
 40
13.0
 40
13.0
 40
14.0
 40
14.0
 40
14.0
 40
15.0
 40
15.0
 40
15.0
 40
16.0
 40
16.0
 40
16.0
 40
17.0
 40
17.0
 40
17.0
 40
18.0
 40
18.0
 40
18.0
 40
19.0
 40
19.0
 40
19.0
 40
19.0
 10
107.9827283801224
 20
-135.3402316284913
 30
0.0
 10
107.887299235181
 20
-135.3402316284913
 30
0.0
 10
107.6695692005132
 20
-135.3192165460313
 30
0.0
 10
107.5445122343986
 20
-135.1331813898278
 30
0.0
 10
107.4704426814657
 20
-135.0208712770087
 30
0.0
 10
107.4663085668834
 20
-134.9216525270335
 30
0.0
 10
107.4621744523011
 20
-134.8369031780963
 30
0.0
 10
107.4621744523011
 20
-134.8369031780963
 30
0.0
 10
107.6823160538086
 20
-134.8369031780963
 30
0.0
 10
107.6823160538086
 20
-134.8369031780963
 30
0.0
 10
107.6843831110997
 20
-134.9109727310292
 30
0.0
 10
107.6947183975555
 20
-135.1455837335747
 30
0.0
 10
107.9782497559916
 20
-135.1455837335747
 30
0.0
 10
108.115709065853
 20
-135.1455837335747
 30
0.0
 10
108.2683267958496
 20
-135.0759928047727
 30
0.0
 10
108.2683267958496
 20
-134.8475829741006
 30
0.0
 10
108.2683267958496
 20
-134.7311387466992
 30
0.0
 10
108.2300862359633
 20
-134.6825629003571
 30
0.0
 10
108.198391357499
 20
-134.6508680218928
 30
0.0
 10
108.1243218045662
 20
-134.57679846896
 30
0.0
 10
108.0078775771647
 20
-134.5640516156645
 30
0.0
 10
107.9531005589492
 20
-134.5640516156645
 30
0.0
 10
107.9338080242318
 20
-134.5640516156645
 30
0.0
 10
107.8979790311852
 20
-134.5661186729557
 30
0.0
 10
107.8704182673032
 20
-134.570252787538
 30
0.0
 10
107.8704182673032
 20
-134.570252787538
 30
0.0
 10
107.8704182673032
 20
-134.3756048926214
 30
0.0
 10
107.8704182673032
 20
-134.3756048926214
 30
0.0
 10
107.9086588271895
 20
-134.3821505740434
 30
0.0
 10
107.9506889921095
 20
-134.3842176313345
 30
0.0
 10
107.9572346735315
 20
-134.3842176313345
 30
0.0
 10
108.0226914877513
 20
-134.3842176313345
 30
0.0
 10
108.2214734972502
 20
-134.362858039326
 30
0.0
 10
108.2214734972502
 20
-134.1261799794893
 30
0.0
 10
108.2214734972502
 20
-133.9484130524504
 30
0.0
 10
108.0905598688107
 20
-133.8932915246864
 30
0.0
 10
107.9803168132827
 20
-133.8932915246864
 30
0.0
 10
107.716077989564
 20
-133.8932915246864
 30
0.0
 10
107.7074652508509
 20
-134.1261799794893
 30
0.0
 10
107.7033311362686
 20
-134.1978379655825
 30
0.0
 10
107.7033311362686
 20
-134.1978379655825
 30
0.0
 10
107.5000705026389
 20
-134.1978379655825
 30
0.0
 10
107.5000705026389
 20
-134.1978379655825
 30
0.0
 10
107.508683241352
 20
-134.0731255090164
 30
0.0
 10
107.536244005234
 20
-133.6965765724786
 30
0.0
 10
107.9930636665781
 20
-133.6965765724786
 30
0.0
 10
108.2173393826679
 20
-133.6965765724786
 30
0.0
 10
108.4584960666354
 20
-133.8237005958844
 30
0.0
 10
108.4584960666354
 20
-134.1196342980673
 30
0.0
 10
108.4584960666354
 20
-134.3060139638193
 30
0.0
 10
108.3634114312425
 20
-134.3883517459168
 30
0.0
 10
108.2638481717188
 20
-134.4496744455543
 30
0.0
 10
108.3251708713562
 20
-134.4772352094363
 30
0.0
 10
108.5070719129774
 20
-134.5575059342426
 30
0.0
 10
108.5070719129774
 20
-134.8348361208052
 30
0.0
 10
108.5070719129774
 20
-135.1731444974567
 30
0.0
 10
108.2597140571365
 20
-135.3402316284913
 30
0.0
 10
107.9827283801224
 20
-135.3402316284913
 30
0.0
  0
HATCH
  5
DF
330
DA
100
AcDbEntity
  8
_U+30EC_U+30A4_U+30E4_U+30FC 1
 62
   179
420
  2234388
100
AcDbHatch
 10
0.0
 20
0.0
 30
0.0
210
0.0
220
0.0
230
1.0
  2
SOLID
 70
     1
 71
     0
 91
        1
 92
        1
 93
        1
 72
     4
 94
        3
 73
     0
 74
     1
 95
       62
 96
       58
 40
0.0
 40
0.0
 40
0.0
 40
0.0
 40
1.0
 40
1.0
 40
1.0
 40
2.0
 40
2.0
 40
2.0
 40
3.0
 40
3.0
 40
3.0
 40
4.0
 40
4.0
 40
4.0
 40
5.0
 40
5.0
 40
5.0
 40
6.0
 40
6.0
 40
6.0
 40
7.0
 40
7.0
 40
7.0
 40
8.0
 40
8.0
 40
8.0
 40
9.0
 40
9.0
 40
9.0
 40
10.0
 40
10.0
 40
10.0
 40
11.0
 40
11.0
 40
11.0
 40
12.0
 40
12.0
 40
12.0
 40
13.0
 40
13.0
 40
13.0
 40
14.0
 40
14.0
 40
14.0
 40
15.0
 40
15.0
 40
15.0
 40
16.0
 40
16.0
 40
16.0
 40
17.0
 40
17.0
 40
17.0
 40
18.0
 40
18.0
 40
18.0
 40
19.0
 40
19.0
 40
19.0
 40
19.0
 10
107.9827283801224
 20
-135.3402316284913
 10
107.887299235181
 20
-135.3402316284913
 10
107.6695692005132
 20
-135.3192165460313
 10
107.5445122343986
 20
-135.1331813898278
 10
107.4704426814657
 20
-135.0208712770087
 10
107.4663085668834
 20
-134.9216525270335
 10
107.4621744523011
 20
-134.8369031780963
 10
107.4621744523011
 20
-134.8369031780963
 10
107.6823160538086
 20
-134.8369031780963
 10
107.6823160538086
 20
-134.8369031780963
 10
107.6843831110997
 20
-134.9109727310292
 10
107.6947183975555
 20
-135.1455837335747
 10
107.9782497559916
 20
-135.1455837335747
 10
108.115709065853
 20
-135.1455837335747
 10
108.2683267958496
 20
-135.0759928047727
 10
108.2683267958496
 20
-134.8475829741006
 10
108.2683267958496
 20
-134.7311387466992
 10
108.2300862359633
 20
-134.6825629003571
 10
108.198391357499
 20
-134.6508680218928
 10
108.1243218045662
 20
-134.57679846896
 10
108.0078775771647
 20
-134.5640516156645
 10
107.9531005589492
 20
-134.5640516156645
 10
107.9338080242318
 20
-134.5640516156645
 10
107.8979790311852
 20
-134.5661186729557
 10
107.8704182673032
 20
-134.570252787538
 10
107.8704182673032
 20
-134.570252787538
 10
107.8704182673032
 20
-134.3756048926214
 10
107.8704182673032
 20
-134.3756048926214
 10
107.9086588271895
 20
-134.3821505740434
 10
107.9506889921095
 20
-134.3842176313345
 10
107.9572346735315
 20
-134.3842176313345
 10
108.0226914877513
 20
-134.3842176313345
 10
108.2214734972502
 20
-134.362858039326
 10
108.2214734972502
 20
-134.1261799794893
 10
108.2214734972502
 20
-133.9484130524504
 10
108.0905598688107
 20
-133.8932915246864
 10
107.9803168132827
 20
-133.8932915246864
 10
107.716077989564
 20
-133.8932915246864
 10
107.7074652508509
 20
-134.1261799794893
 10
107.7033311362686
 20
-134.1978379655825
 10
107.7033311362686
 20
-134.1978379655825
 10
107.5000705026389
 20
-134.1978379655825
 10
107.5000705026389
 20
-134.1978379655825
 10
107.508683241352
 20
-134.0731255090164
 10
107.536244005234
 20
-133.6965765724786
 10
107.9930636665781
 20
-133.6965765724786
 10
108.2173393826679
 20
-133.6965765724786
 10
108.4584960666354
 20
-133.8237005958844
 10
108.4584960666354
 20
-134.1196342980673
 10
108.4584960666354
 20
-134.3060139638193
 10
108.3634114312425
 20
-134.3883517459168
 10
108.2638481717188
 20
-134.4496744455543
 10
108.3251708713562
 20
-134.4772352094363
 10
108.5070719129774
 20
-134.5575059342426
 10
108.5070719129774
 20
-134.8348361208052
 10
108.5070719129774
 20
-135.1731444974567
 10
108.2597140571365
 20
-135.3402316284913
 10
107.9827283801224
 20
-135.3402316284913
 97
        0
 97
        0
 75
     2
 76
     1
 98
        0
  0
SPLINE
  5
E0
330
DA
100
AcDbEntity
  8
_U+30EC_U+30A4_U+30E4_U+30FC 1
370
     0
100
AcDbSpline
210
0.0
220
0.0
230
1.0
 70
    11
 71
     3
 72
    44
 73
    40
 74
     0
 42
0.0000000001
 43
0.0000000001
 12
1.0
 22
0.0
 32
0.0
 13
1.0
 23
0.0
 33
0.0
 40
0.0
 40
0.0
 40
0.0
 40
0.0
 40
1.0
 40
1.0
 40
1.0
 40
2.0
 40
2.0
 40
2.0
 40
3.0
 40
3.0
 40
3.0
 40
4.0
 40
4.0
 40
4.0
 40
5.0
 40
5.0
 40
5.0
 40
6.0
 40
6.0
 40
6.0
 40
7.0
 40
7.0
 40
7.0
 40
8.0
 40
8.0
 40
8.0
 40
9.0
 40
9.0
 40
9.0
 40
10.0
 40
10.0
 40
10.0
 40
11.0
 40
11.0
 40
11.0
 40
12.0
 40
12.0
 40
12.0
 40
13.0
 40
13.0
 40
13.0
 40
13.0
 10
109.2608588051501
 20
-134.7077120973995
 30
0.0
 10
109.0431287704823
 20
-134.8665309992695
 30
0.0
 10
108.9501111923805
 20
-134.9406005522024
 30
0.0
 10
108.90119083649
 20
-135.0842610339373
 30
0.0
 10
108.90119083649
 20
-135.0842610339373
 30
0.0
 10
109.6797824161564
 20
-135.0842610339373
 30
0.0
 10
109.6797824161564
 20
-135.0842610339373
 30
0.0
 10
109.6797824161564
 20
-135.0842610339373
 30
0.0
 10
109.6797824161564
 20
-135.2895887248582
 30
0.0
 10
109.6797824161564
 20
-135.2895887248582
 30
0.0
 10
109.6797824161564
 20
-135.2895887248582
 30
0.0
 10
108.6517659233579
 20
-135.2895887248582
 30
0.0
 10
108.6517659233579
 20
-135.2895887248582
 30
0.0
 10
108.6834608018222
 20
-134.9319878134892
 30
0.0
 10
108.7489176160419
 20
-134.8537841459741
 30
0.0
 10
109.1340792912929
 20
-134.5554388769514
 30
0.0
 10
109.3900498858469
 20
-134.3566568674525
 30
0.0
 10
109.4555067000667
 20
-134.2887884863931
 30
0.0
 10
109.4555067000667
 20
-134.1513291765316
 30
0.0
 10
109.4555067000667
 20
-134.032817891839
 30
0.0
 10
109.3838487139735
 20
-133.9019042633995
 30
0.0
 10
109.1867892522172
 20
-133.9019042633995
 30
0.0
 10
108.9266845430808
 20
-133.9019042633995
 30
0.0
 10
108.9184163139162
 20
-134.1323811513628
 30
0.0
 10
108.9139376897854
 20
-134.2488253787642
 30
0.0
 10
108.9139376897854
 20
-134.2488253787642
 30
0.0
 10
108.6896619736956
 20
-134.2488253787642
 30
0.0
 10
108.6896619736956
 20
-134.2488253787642
 30
0.0
 10
108.6982747124088
 20
-134.1217013553585
 30
0.0
 10
108.708954508413
 20
-134.0097357520879
 30
0.0
 10
108.7892252332194
 20
-133.8912244673953
 30
0.0
 10
108.8991237791988
 20
-133.7303385082341
 30
0.0
 10
109.0855034449508
 20
-133.6965765724786
 30
0.0
 10
109.2016031628038
 20
-133.6965765724786
 30
0.0
 10
109.4789333493664
 20
-133.6965765724786
 30
0.0
 10
109.6863280975784
 20
-133.880544671391
 30
0.0
 10
109.6863280975784
 20
-134.1533962338228
 30
0.0
 10
109.6863280975784
 20
-134.3821505740434
 30
0.0
 10
109.569883870177
 20
-134.4813693240185
 30
0.0
 10
109.2608588051501
 20
-134.7077120973995
 30
0.0
  0
HATCH
  5
E1
330
DA
100
AcDbEntity
  8
_U+30EC_U+30A4_U+30E4_U+30FC 1
 62
   179
420
  2234388
100
AcDbHatch
 10
0.0
 20
0.0
 30
0.0
210
0.0
220
0.0
230
1.0
  2
SOLID
 70
     1
 71
     0
 91
        1
 92
        1
 93
        1
 72
     4
 94
        3
 73
     0
 74
     1
 95
       44
 96
       40
 40
0.0
 40
0.0
 40
0.0
 40
0.0
 40
1.0
 40
1.0
 40
1.0
 40
2.0
 40
2.0
 40
2.0
 40
3.0
 40
3.0
 40
3.0
 40
4.0
 40
4.0
 40
4.0
 40
5.0
 40
5.0
 40
5.0
 40
6.0
 40
6.0
 40
6.0
 40
7.0
 40
7.0
 40
7.0
 40
8.0
 40
8.0
 40
8.0
 40
9.0
 40
9.0
 40
9.0
 40
10.0
 40
10.0
 40
10.0
 40
11.0
 40
11.0
 40
11.0
 40
12.0
 40
12.0
 40
12.0
 40
13.0
 40
13.0
 40
13.0
 40
13.0
 10
109.2608588051501
 20
-134.7077120973995
 10
109.0431287704823
 20
-134.8665309992695
 10
108.9501111923805
 20
-134.9406005522024
 10
108.90119083649
 20
-135.0842610339373
 10
108.90119083649
 20
-135.0842610339373
 10
109.6797824161564
 20
-135.0842610339373
 10
109.6797824161564
 20
-135.0842610339373
 10
109.6797824161564
 20
-135.0842610339373
 10
109.6797824161564
 20
-135.2895887248582
 10
109.6797824161564
 20
-135.2895887248582
 10
109.6797824161564
 20
-135.2895887248582
 10
108.6517659233579
 20
-135.2895887248582
 10
108.6517659233579
 20
-135.2895887248582
 10
108.6834608018222
 20
-134.9319878134892
 10
108.7489176160419
 20
-134.8537841459741
 10
109.1340792912929
 20
-134.5554388769514
 10
109.3900498858469
 20
-134.3566568674525
 10
109.4555067000667
 20
-134.2887884863931
 10
109.4555067000667
 20
-134.1513291765316
 10
109.4555067000667
 20
-134.032817891839
 10
109.3838487139735
 20
-133.9019042633995
 10
109.1867892522172
 20
-133.9019042633995
 10
108.9266845430808
 20
-133.9019042633995
 10
108.9184163139162
 20
-134.1323811513628
 10
108.9139376897854
 20
-134.2488253787642
 10
108.9139376897854
 20
-134.2488253787642
 10
108.6896619736956
 20
-134.2488253787642
 10
108.6896619736956
 20
-134.2488253787642
 10
108.6982747124088
 20
-134.1217013553585
 10
108.708954508413
 20
-134.0097357520879
 10
108.7892252332194
 20
-133.8912244673953
 10
108.8991237791988
 20
-133.7303385082341
 10
109.0855034449508
 20
-133.6965765724786
 10
109.2016031628038
 20
-133.6965765724786
 10
109.4789333493664
 20
-133.6965765724786
 10
109.6863280975784
 20
-133.880544671391
 10
109.6863280975784
 20
-134.1533962338228
 10
109.6863280975784
 20
-134.3821505740434
 10
109.569883870177
 20
-134.4813693240185
 10
109.2608588051501
 20
-134.7077120973995
 97
        0
 97
        0
 75
     2
 76
     1
 98
        0
  0
ENDBLK
  5
DD
330
DA
100
AcDbEntity
  8
0
100
AcDbBlockEnd
  0
BLOCK
  5
E4
330
E2
100
AcDbEntity
  8
0
100
AcDbBlockBegin
  2
block 9
 70
     0
 10
0.0
 20
0.0
 30
0.0
  3
block 9
  1

  0
SPLINE
  5
E6
330
E2
100
AcDbEntity
  8
_U+30EC_U+30A4_U+30E4_U+30FC 1
370
     0
100
AcDbSpline
210
0.0
220
0.0
230
1.0
 70
    11
 71
     3
 72
    35
 73
    31
 74
     0
 42
0.0000000001
 43
0.0000000001
 12
1.0
 22
0.0
 32
0.0
 13
1.0
 23
0.0
 33
0.0
 40
0.0
 40
0.0
 40
0.0
 40
0.0
 40
1.0
 40
1.0
 40
1.0
 40
2.0
 40
2.0
 40
2.0
 40
3.0
 40
3.0
 40
3.0
 40
4.0
 40
4.0
 40
4.0
 40
5.0
 40
5.0
 40
5.0
 40
6.0
 40
6.0
 40
6.0
 40
7.0
 40
7.0
 40
7.0
 40
8.0
 40
8.0
 40
8.0
 40
9.0
 40
9.0
 40
9.0
 40
10.0
 40
10.0
 40
10.0
 40
10.0
 10
88.63558889928208
 20
-135.3295518324871
 30
0.0
 10
88.63558889928208
 20
-135.3295518324871
 30
0.0
 10
88.58494599564891
 20
-135.5937906562057
 30
0.0
 10
88.58494599564891
 20
-135.5937906562057
 30
0.0
 10
88.72447236280152
 20
-135.6065375095012
 30
0.0
 10
89.0524454529973
 20
-135.6974880303117
 30
0.0
 10
89.0524454529973
 20
-136.0888508774361
 30
0.0
 10
89.0524454529973
 20
-136.5670301307888
 30
0.0
 10
88.64626869528635
 20
-136.6917425873548
 30
0.0
 10
88.37117782078916
 20
-136.6917425873548
 30
0.0
 10
88.37117782078916
 20
-136.6917425873548
 30
0.0
 10
88.303481694504
 20
-137.0452093841415
 30
0.0
 10
88.303481694504
 20
-137.0452093841415
 30
0.0
 10
88.303481694504
 20
-137.0452093841415
 30
0.0
 10
88.09625920106622
 20
-137.0452093841415
 30
0.0
 10
88.09625920106622
 20
-137.0452093841415
 30
0.0
 10
88.09625920106622
 20
-137.0452093841415
 30
0.0
 10
88.16808944193367
 20
-136.6769286767683
 30
0.0
 10
88.16808944193367
 20
-136.6769286767683
 30
0.0
 10
88.06025795324535
 20
-136.6579806515994
 30
0.0
 10
87.70903046852413
 20
-136.596657951962
 30
0.0
 10
87.70903046852413
 20
-136.1798013982467
 30
0.0
 10
87.70903046852413
 20
-135.7315944756157
 30
0.0
 10
88.06456432260192
 20
-135.5813883124588
 30
0.0
 10
88.37961830472801
 20
-135.5813883124588
 30
0.0
 10
88.37961830472801
 20
-135.5813883124588
 30
0.0
 10
88.4283664058443
 20
-135.3295518324871
 30
0.0
 10
88.4283664058443
 20
-135.3295518324871
 30
0.0
 10
88.4283664058443
 20
-135.3295518324871
 30
0.0
 10
88.63558889928208
 20
-135.3295518324871
 30
0.0
 10
88.63558889928208
 20
-135.3295518324871
 30
0.0
  0
SPLINE
  5
E7
330
E2
100
AcDbEntity
  8
_U+30EC_U+30A4_U+30E4_U+30FC 1
370
     0
100
AcDbSpline
210
0.0
220
0.0
230
1.0
 70
    11
 71
     3
 72
    14
 73
    10
 74
     0
 42
0.0000000001
 43
0.0000000001
 12
1.0
 22
0.0
 32
0.0
 13
1.0
 23
0.0
 33
0.0
 40
0.0
 40
0.0
 40
0.0
 40
0.0
 40
1.0
 40
1.0
 40
1.0
 40
2.0
 40
2.0
 40
2.0
 40
3.0
 40
3.0
 40
3.0
 40
3.0
 10
88.34585636897256
 20
-135.7546766153669
 30
0.0
 10
88.22527802698882
 20
-135.76328935408
 30
0.0
 10
87.93123912732275
 20
-135.7863714938312
 30
0.0
 10
87.93123912732275
 20
-136.1842800223775
 30
0.0
 10
87.93123912732275
 20
-136.2476697793061
 30
0.0
 10
87.93123912732275
 20
-136.4612656993916
 30
0.0
 10
88.19995657517224
 20
-136.5057074311514
 30
0.0
 10
88.19995657517224
 20
-136.5057074311514
 30
0.0
 10
88.34585636897256
 20
-135.7546766153669
 30
0.0
 10
88.34585636897256
 20
-135.7546766153669
 30
0.0
  0
SPLINE
  5
E8
330
E2
100
AcDbEntity
  8
_U+30EC_U+30A4_U+30E4_U+30FC 1
370
     0
100
AcDbSpline
210
0.0
220
0.0
230
1.0
 70
    11
 71
     3
 72
    14
 73
    10
 74
     0
 42
0.0000000001
 43
0.0000000001
 12
1.0
 22
0.0
 32
0.0
 13
1.0
 23
0.0
 33
0.0
 40
0.0
 40
0.0
 40
0.0
 40
0.0
 40
1.0
 40
1.0
 40
1.0
 40
2.0
 40
2.0
 40
2.0
 40
3.0
 40
3.0
 40
3.0
 40
3.0
 10
88.40717906861002
 20
-136.5143201698645
 30
0.0
 10
88.58908011023121
 20
-136.5098415457337
 30
0.0
 10
88.83247610626411
 20
-136.4295708209273
 30
0.0
 10
88.83247610626411
 20
-136.0740369668495
 30
0.0
 10
88.83247610626411
 20
-135.9810193887478
 30
0.0
 10
88.81972925296868
 20
-135.7929171752532
 30
0.0
 10
88.54894474782805
 20
-135.7653564113712
 30
0.0
 10
88.54894474782805
 20
-135.7653564113712
 30
0.0
 10
88.40717906861002
 20
-136.5143201698645
 30
0.0
 10
88.40717906861002
 20
-136.5143201698645
 30
0.0
  0
HATCH
  5
E9
330
E2
100
AcDbEntity
  8
_U+30EC_U+30A4_U+30E4_U+30FC 1
 62
   179
420
  2234388
100
AcDbHatch
 10
0.0
 20
0.0
 30
0.0
210
0.0
220
0.0
230
1.0
  2
SOLID
 70
     1
 71
     0
 91
        3
 92
        1
 93
        1
 72
     4
 94
        3
 73
     0
 74
     1
 95
       35
 96
       31
 40
0.0
 40
0.0
 40
0.0
 40
0.0
 40
1.0
 40
1.0
 40
1.0
 40
2.0
 40
2.0
 40
2.0
 40
3.0
 40
3.0
 40
3.0
 40
4.0
 40
4.0
 40
4.0
 40
5.0
 40
5.0
 40
5.0
 40
6.0
 40
6.0
 40
6.0
 40
7.0
 40
7.0
 40
7.0
 40
8.0
 40
8.0
 40
8.0
 40
9.0
 40
9.0
 40
9.0
 40
10.0
 40
10.0
 40
10.0
 40
10.0
 10
88.63558889928208
 20
-135.3295518324871
 10
88.63558889928208
 20
-135.3295518324871
 10
88.58494599564891
 20
-135.5937906562057
 10
88.58494599564891
 20
-135.5937906562057
 10
88.72447236280152
 20
-135.6065375095012
 10
89.0524454529973
 20
-135.6974880303117
 10
89.0524454529973
 20
-136.0888508774361
 10
89.0524454529973
 20
-136.5670301307888
 10
88.64626869528635
 20
-136.6917425873548
 10
88.37117782078916
 20
-136.6917425873548
 10
88.37117782078916
 20
-136.6917425873548
 10
88.303481694504
 20
-137.0452093841415
 10
88.303481694504
 20
-137.0452093841415
 10
88.303481694504
 20
-137.0452093841415
 10
88.09625920106622
 20
-137.0452093841415
 10
88.09625920106622
 20
-137.0452093841415
 10
88.09625920106622
 20
-137.0452093841415
 10
88.16808944193367
 20
-136.6769286767683
 10
88.16808944193367
 20
-136.6769286767683
 10
88.06025795324535
 20
-136.6579806515994
 10
87.70903046852413
 20
-136.596657951962
 10
87.70903046852413
 20
-136.1798013982467
 10
87.70903046852413
 20
-135.7315944756157
 10
88.06456432260192
 20
-135.5813883124588
 10
88.37961830472801
 20
-135.5813883124588
 10
88.37961830472801
 20
-135.5813883124588
 10
88.4283664058443
 20
-135.3295518324871
 10
88.4283664058443
 20
-135.3295518324871
 10
88.4283664058443
 20
-135.3295518324871
 10
88.63558889928208
 20
-135.3295518324871
 10
88.63558889928208
 20
-135.3295518324871
 97
        0
 97
        0
 92
        1
 93
        1
 72
     4
 94
        3
 73
     0
 74
     1
 95
       14
 96
       10
 40
0.0
 40
0.0
 40
0.0
 40
0.0
 40
1.0
 40
1.0
 40
1.0
 40
2.0
 40
2.0
 40
2.0
 40
3.0
 40
3.0
 40
3.0
 40
3.0
 10
88.34585636897256
 20
-135.7546766153669
 10
88.22527802698882
 20
-135.76328935408
 10
87.93123912732275
 20
-135.7863714938312
 10
87.93123912732275
 20
-136.1842800223775
 10
87.93123912732275
 20
-136.2476697793061
 10
87.93123912732275
 20
-136.4612656993916
 10
88.19995657517224
 20
-136.5057074311514
 10
88.19995657517224
 20
-136.5057074311514
 10
88.34585636897256
 20
-135.7546766153669
 10
88.34585636897256
 20
-135.7546766153669
 97
        0
 97
        0
 92
        1
 93
        1
 72
     4
 94
        3
 73
     0
 74
     1
 95
       14
 96
       10
 40
0.0
 40
0.0
 40
0.0
 40
0.0
 40
1.0
 40
1.0
 40
1.0
 40
2.0
 40
2.0
 40
2.0
 40
3.0
 40
3.0
 40
3.0
 40
3.0
 10
88.40717906861002
 20
-136.5143201698645
 10
88.58908011023121
 20
-136.5098415457337
 10
88.83247610626411
 20
-136.4295708209273
 10
88.83247610626411
 20
-136.0740369668495
 10
88.83247610626411
 20
-135.9810193887478
 10
88.81972925296868
 20
-135.7929171752532
 10
88.54894474782805
 20
-135.7653564113712
 10
88.54894474782805
 20
-135.7653564113712
 10
88.40717906861002
 20
-136.5143201698645
 10
88.40717906861002
 20
-136.5143201698645
 97
        0
 97
        0
 75
     2
 76
     1
 98
        0
  0
SPLINE
  5
EA
330
E2
100
AcDbEntity
  8
_U+30EC_U+30A4_U+30E4_U+30FC 1
370
     0
100
AcDbSpline
210
0.0
220
0.0
230
1.0
 70
    11
 71
     3
 72
    62
 73
    58
 74
     0
 42
0.0000000001
 43
0.0000000001
 12
1.0
 22
0.0
 32
0.0
 13
1.0
 23
0.0
 33
0.0
 40
0.0
 40
0.0
 40
0.0
 40
0.0
 40
1.0
 40
1.0
 40
1.0
 40
2.0
 40
2.0
 40
2.0
 40
3.0
 40
3.0
 40
3.0
 40
4.0
 40
4.0
 40
4.0
 40
5.0
 40
5.0
 40
5.0
 40
6.0
 40
6.0
 40
6.0
 40
7.0
 40
7.0
 40
7.0
 40
8.0
 40
8.0
 40
8.0
 40
9.0
 40
9.0
 40
9.0
 40
10.0
 40
10.0
 40
10.0
 40
11.0
 40
11.0
 40
11.0
 40
12.0
 40
12.0
 40
12.0
 40
13.0
 40
13.0
 40
13.0
 40
14.0
 40
14.0
 40
14.0
 40
15.0
 40
15.0
 40
15.0
 40
16.0
 40
16.0
 40
16.0
 40
17.0
 40
17.0
 40
17.0
 40
18.0
 40
18.0
 40
18.0
 40
19.0
 40
19.0
 40
19.0
 40
19.0
 10
89.75576169631107
 20
-136.7509982297011
 30
0.0
 10
89.6605048061439
 20
-136.7509982297011
 30
0.0
 10
89.44260251670185
 20
-136.7299831472411
 30
0.0
 10
89.31789006013581
 20
-136.5439479910376
 30
0.0
 10
89.24382050720294
 20
-136.4316378782185
 30
0.0
 10
89.23951413784637
 20
-136.3324191282433
 30
0.0
 10
89.23538002326407
 20
-136.2476697793061
 30
0.0
 10
89.23538002326407
 20
-136.2476697793061
 30
0.0
 10
89.45534936999728
 20
-136.2476697793061
 30
0.0
 10
89.45534936999728
 20
-136.2476697793061
 30
0.0
 10
89.45741642728842
 20
-136.321739332239
 30
0.0
 10
89.4680962232927
 20
-136.5563503347845
 30
0.0
 10
89.75162758172877
 20
-136.5563503347845
 30
0.0
 10
89.88908689159024
 20
-136.5563503347845
 30
0.0
 10
90.04136011203828
 20
-136.4867594059825
 30
0.0
 10
90.04136011203828
 20
-136.2583495753104
 30
0.0
 10
90.04136011203828
 20
-136.141905347909
 30
0.0
 10
90.00329180692627
 20
-136.093329501567
 30
0.0
 10
89.97159692846196
 20
-136.0616346231027
 30
0.0
 10
89.8975273755291
 20
-135.9875650701698
 30
0.0
 10
89.78108314812765
 20
-135.9748182168744
 30
0.0
 10
89.72613387513792
 20
-135.9748182168744
 30
0.0
 10
89.70718584996904
 20
-135.9748182168744
 30
0.0
 10
89.67118460214817
 20
-135.9768852741655
 30
0.0
 10
89.64362383826618
 20
-135.9810193887478
 30
0.0
 10
89.64362383826618
 20
-135.9810193887478
 30
0.0
 10
89.64362383826618
 20
-135.7863714938312
 30
0.0
 10
89.64362383826618
 20
-135.7863714938312
 30
0.0
 10
89.68169214337819
 20
-135.7929171752532
 30
0.0
 10
89.72406681784676
 20
-135.7949842325443
 30
0.0
 10
89.73044024449447
 20
-135.7949842325443
 30
0.0
 10
89.79589705871422
 20
-135.7949842325443
 30
0.0
 10
89.9948513229874
 20
-135.7736246405358
 30
0.0
 10
89.9948513229874
 20
-135.5369465806991
 30
0.0
 10
89.9948513229874
 20
-135.3591796536602
 30
0.0
 10
89.86359318499939
 20
-135.3040581258962
 30
0.0
 10
89.75369463901991
 20
-135.3040581258962
 30
0.0
 10
89.48928356052699
 20
-135.3040581258962
 30
0.0
 10
89.48084307658813
 20
-135.5369465806991
 30
0.0
 10
89.47653670723156
 20
-135.6086045667923
 30
0.0
 10
89.47653670723156
 20
-135.6086045667923
 30
0.0
 10
89.27344832837609
 20
-135.6086045667923
 30
0.0
 10
89.27344832837609
 20
-135.6086045667923
 30
0.0
 10
89.28188881231495
 20
-135.4838921102263
 30
0.0
 10
89.30944957619695
 20
-135.1073431736884
 30
0.0
 10
89.76626923754108
 20
-135.1073431736884
 30
0.0
 10
89.99054495363085
 20
-135.1073431736884
 30
0.0
 10
90.23170163759833
 20
-135.2344671970942
 30
0.0
 10
90.23170163759833
 20
-135.5304008992771
 30
0.0
 10
90.23170163759833
 20
-135.7167805650292
 30
0.0
 10
90.13661700220543
 20
-135.7991183471266
 30
0.0
 10
90.0370537426817
 20
-135.8604410467641
 30
0.0
 10
90.09854869709342
 20
-135.8880018106461
 30
0.0
 10
90.28044973871461
 20
-135.9682725354524
 30
0.0
 10
90.28044973871461
 20
-136.245602722015
 30
0.0
 10
90.28044973871461
 20
-136.5839110986665
 30
0.0
 10
90.0329196280994
 20
-136.7509982297011
 30
0.0
 10
89.75576169631107
 20
-136.7509982297011
 30
0.0
  0
HATCH
  5
EB
330
E2
100
AcDbEntity
  8
_U+30EC_U+30A4_U+30E4_U+30FC 1
 62
   179
420
  2234388
100
AcDbHatch
 10
0.0
 20
0.0
 30
0.0
210
0.0
220
0.0
230
1.0
  2
SOLID
 70
     1
 71
     0
 91
        1
 92
        1
 93
        1
 72
     4
 94
        3
 73
     0
 74
     1
 95
       62
 96
       58
 40
0.0
 40
0.0
 40
0.0
 40
0.0
 40
1.0
 40
1.0
 40
1.0
 40
2.0
 40
2.0
 40
2.0
 40
3.0
 40
3.0
 40
3.0
 40
4.0
 40
4.0
 40
4.0
 40
5.0
 40
5.0
 40
5.0
 40
6.0
 40
6.0
 40
6.0
 40
7.0
 40
7.0
 40
7.0
 40
8.0
 40
8.0
 40
8.0
 40
9.0
 40
9.0
 40
9.0
 40
10.0
 40
10.0
 40
10.0
 40
11.0
 40
11.0
 40
11.0
 40
12.0
 40
12.0
 40
12.0
 40
13.0
 40
13.0
 40
13.0
 40
14.0
 40
14.0
 40
14.0
 40
15.0
 40
15.0
 40
15.0
 40
16.0
 40
16.0
 40
16.0
 40
17.0
 40
17.0
 40
17.0
 40
18.0
 40
18.0
 40
18.0
 40
19.0
 40
19.0
 40
19.0
 40
19.0
 10
89.75576169631107
 20
-136.7509982297011
 10
89.6605048061439
 20
-136.7509982297011
 10
89.44260251670185
 20
-136.7299831472411
 10
89.31789006013581
 20
-136.5439479910376
 10
89.24382050720294
 20
-136.4316378782185
 10
89.23951413784637
 20
-136.3324191282433
 10
89.23538002326407
 20
-136.2476697793061
 10
89.23538002326407
 20
-136.2476697793061
 10
89.45534936999728
 20
-136.2476697793061
 10
89.45534936999728
 20
-136.2476697793061
 10
89.45741642728842
 20
-136.321739332239
 10
89.4680962232927
 20
-136.5563503347845
 10
89.75162758172877
 20
-136.5563503347845
 10
89.88908689159024
 20
-136.5563503347845
 10
90.04136011203828
 20
-136.4867594059825
 10
90.04136011203828
 20
-136.2583495753104
 10
90.04136011203828
 20
-136.141905347909
 10
90.00329180692627
 20
-136.093329501567
 10
89.97159692846196
 20
-136.0616346231027
 10
89.8975273755291
 20
-135.9875650701698
 10
89.78108314812765
 20
-135.9748182168744
 10
89.72613387513792
 20
-135.9748182168744
 10
89.70718584996904
 20
-135.9748182168744
 10
89.67118460214817
 20
-135.9768852741655
 10
89.64362383826618
 20
-135.9810193887478
 10
89.64362383826618
 20
-135.9810193887478
 10
89.64362383826618
 20
-135.7863714938312
 10
89.64362383826618
 20
-135.7863714938312
 10
89.68169214337819
 20
-135.7929171752532
 10
89.72406681784676
 20
-135.7949842325443
 10
89.73044024449447
 20
-135.7949842325443
 10
89.79589705871422
 20
-135.7949842325443
 10
89.9948513229874
 20
-135.7736246405358
 10
89.9948513229874
 20
-135.5369465806991
 10
89.9948513229874
 20
-135.3591796536602
 10
89.86359318499939
 20
-135.3040581258962
 10
89.75369463901991
 20
-135.3040581258962
 10
89.48928356052699
 20
-135.3040581258962
 10
89.48084307658813
 20
-135.5369465806991
 10
89.47653670723156
 20
-135.6086045667923
 10
89.47653670723156
 20
-135.6086045667923
 10
89.27344832837609
 20
-135.6086045667923
 10
89.27344832837609
 20
-135.6086045667923
 10
89.28188881231495
 20
-135.4838921102263
 10
89.30944957619695
 20
-135.1073431736884
 10
89.76626923754108
 20
-135.1073431736884
 10
89.99054495363085
 20
-135.1073431736884
 10
90.23170163759833
 20
-135.2344671970942
 10
90.23170163759833
 20
-135.5304008992771
 10
90.23170163759833
 20
-135.7167805650292
 10
90.13661700220543
 20
-135.7991183471266
 10
90.0370537426817
 20
-135.8604410467641
 10
90.09854869709342
 20
-135.8880018106461
 10
90.28044973871461
 20
-135.9682725354524
 10
90.28044973871461
 20
-136.245602722015
 10
90.28044973871461
 20
-136.5839110986665
 10
90.0329196280994
 20
-136.7509982297011
 10
89.75576169631107
 20
-136.7509982297011
 97
        0
 97
        0
 75
     2
 76
     1
 98
        0
  0
POLYLINE
  5
EC
330
E2
100
AcDbEntity
  8
_U+30EC_U+30A4_U+30E4_U+30FC 1
370
     0
100
AcDb2dPolyline
 66
     1
 10
0.0
 20
0.0
 30
0.0
  0
VERTEX
  5
ED
330
EC
100
AcDbEntity
  8
_U+30EC_U+30A4_U+30E4_U+30FC 1
370
     0
100
AcDbVertex
100
AcDb2dVertex
 10
90.50110810454487
 20
-136.700355326068
 30
0.0
  0
VERTEX
  5
EE
330
EC
100
AcDbEntity
  8
_U+30EC_U+30A4_U+30E4_U+30FC 1
370
     0
100
AcDbVertex
100
AcDb2dVertex
 10
90.50110810454487
 20
-136.4485188460962
 30
0.0
  0
VERTEX
  5
EF
330
EC
100
AcDbEntity
  8
_U+30EC_U+30A4_U+30E4_U+30FC 1
370
     0
100
AcDbVertex
100
AcDb2dVertex
 10
90.75277232974237
 20
-136.4485188460962
 30
0.0
  0
VERTEX
  5
F0
330
EC
100
AcDbEntity
  8
_U+30EC_U+30A4_U+30E4_U+30FC 1
370
     0
100
AcDbVertex
100
AcDb2dVertex
 10
90.75277232974237
 20
-136.700355326068
 30
0.0
  0
VERTEX
  5
F1
330
EC
100
AcDbEntity
  8
_U+30EC_U+30A4_U+30E4_U+30FC 1
370
     0
100
AcDbVertex
100
AcDb2dVertex
 10
90.50110810454487
 20
-136.700355326068
 30
0.0
  0
SEQEND
  5
F2
330
EC
100
AcDbEntity
  8
_U+30EC_U+30A4_U+30E4_U+30FC 1
370
     0
  0
HATCH
  5
F3
330
E2
100
AcDbEntity
  8
_U+30EC_U+30A4_U+30E4_U+30FC 1
 62
   179
420
  2234388
100
AcDbHatch
 10
0.0
 20
0.0
 30
0.0
210
0.0
220
0.0
230
1.0
  2
SOLID
 70
     1
 71
     0
 91
        1
 92
        1
 93
        4
 72
     1
 10
90.50110810454487
 20
-136.700355326068
 11
90.50110810454487
 21
-136.4485188460962
 72
     1
 10
90.50110810454487
 20
-136.4485188460962
 11
90.75277232974237
 21
-136.4485188460962
 72
     1
 10
90.75277232974237
 20
-136.4485188460962
 11
90.75277232974237
 21
-136.700355326068
 72
     1
 10
90.75277232974237
 20
-136.700355326068
 11
90.50110810454487
 21
-136.700355326068
 97
        0
 75
     2
 76
     1
 98
        0
  0
POLYLINE
  5
F4
330
E2
100
AcDbEntity
  8
_U+30EC_U+30A4_U+30E4_U+30FC 1
370
     0
100
AcDb2dPolyline
 66
     1
 10
0.0
 20
0.0
 30
0.0
  0
VERTEX
  5
F5
330
F4
100
AcDbEntity
  8
_U+30EC_U+30A4_U+30E4_U+30FC 1
370
     0
100
AcDbVertex
100
AcDb2dVertex
 10
91.82144094926687
 20
-136.3534342107033
 30
0.0
  0
VERTEX
  5
F6
330
F4
100
AcDbEntity
  8
_U+30EC_U+30A4_U+30E4_U+30FC 1
370
     0
100
AcDbVertex
100
AcDb2dVertex
 10
91.82144094926687
 20
-136.700355326068
 30
0.0
  0
VERTEX
  5
F7
330
F4
100
AcDbEntity
  8
_U+30EC_U+30A4_U+30E4_U+30FC 1
370
     0
100
AcDbVertex
100
AcDb2dVertex
 10
91.60336640505055
 20
-136.700355326068
 30
0.0
  0
VERTEX
  5
F8
330
F4
100
AcDbEntity
  8
_U+30EC_U+30A4_U+30E4_U+30FC 1
370
     0
100
AcDbVertex
100
AcDb2dVertex
 10
91.60336640505055
 20
-136.3534342107033
 30
0.0
  0
VERTEX
  5
F9
330
F4
100
AcDbEntity
  8
_U+30EC_U+30A4_U+30E4_U+30FC 1
370
     0
100
AcDbVertex
100
AcDb2dVertex
 10
90.94776473420751
 20
-136.3534342107033
 30
0.0
  0
VERTEX
  5
FA
330
F4
100
AcDbEntity
  8
_U+30EC_U+30A4_U+30E4_U+30FC 1
370
     0
100
AcDbVertex
100
AcDb2dVertex
 10
90.94776473420751
 20
-136.1291584946136
 30
0.0
  0
VERTEX
  5
FB
330
F4
100
AcDbEntity
  8
_U+30EC_U+30A4_U+30E4_U+30FC 1
370
     0
100
AcDbVertex
100
AcDb2dVertex
 10
91.62679305435024
 20
-135.1559190200305
 30
0.0
  0
VERTEX
  5
FC
330
F4
100
AcDbEntity
  8
_U+30EC_U+30A4_U+30E4_U+30FC 1
370
     0
100
AcDbVertex
100
AcDb2dVertex
 10
91.82144094926687
 20
-135.1559190200305
 30
0.0
  0
VERTEX
  5
FD
330
F4
100
AcDbEntity
  8
_U+30EC_U+30A4_U+30E4_U+30FC 1
370
     0
100
AcDbVertex
100
AcDb2dVertex
 10
91.82144094926687
 20
-136.1546522012044
 30
0.0
  0
VERTEX
  5
FE
330
F4
100
AcDbEntity
  8
_U+30EC_U+30A4_U+30E4_U+30FC 1
370
     0
100
AcDbVertex
100
AcDb2dVertex
 10
92.02883569747891
 20
-136.1546522012044
 30
0.0
  0
VERTEX
  5
FF
330
F4
100
AcDbEntity
  8
_U+30EC_U+30A4_U+30E4_U+30FC 1
370
     0
100
AcDbVertex
100
AcDb2dVertex
 10
92.02883569747891
 20
-136.3534342107033
 30
0.0
  0
VERTEX
  5
100
330
F4
100
AcDbEntity
  8
_U+30EC_U+30A4_U+30E4_U+30FC 1
370
     0
100
AcDbVertex
100
AcDb2dVertex
 10
91.82144094926687
 20
-136.3534342107033
 30
0.0
  0
SEQEND
  5
101
330
F4
100
AcDbEntity
  8
_U+30EC_U+30A4_U+30E4_U+30FC 1
370
     0
  0
POLYLINE
  5
102
330
E2
100
AcDbEntity
  8
_U+30EC_U+30A4_U+30E4_U+30FC 1
370
     0
100
AcDb2dPolyline
 66
     1
 10
0.0
 20
0.0
 30
0.0
  0
VERTEX
  5
103
330
102
100
AcDbEntity
  8
_U+30EC_U+30A4_U+30E4_U+30FC 1
370
     0
100
AcDbVertex
100
AcDb2dVertex
 10
91.60336640505055
 20
-135.4987060208128
 30
0.0
  0
VERTEX
  5
104
330
102
100
AcDbEntity
  8
_U+30EC_U+30A4_U+30E4_U+30FC 1
370
     0
100
AcDbVertex
100
AcDb2dVertex
 10
91.14654674370642
 20
-136.1546522012044
 30
0.0
  0
VERTEX
  5
105
330
102
100
AcDbEntity
  8
_U+30EC_U+30A4_U+30E4_U+30FC 1
370
     0
100
AcDbVertex
100
AcDb2dVertex
 10
91.60336640505055
 20
-136.1546522012044
 30
0.0
  0
VERTEX
  5
106
330
102
100
AcDbEntity
  8
_U+30EC_U+30A4_U+30E4_U+30FC 1
370
     0
100
AcDbVertex
100
AcDb2dVertex
 10
91.60336640505055
 20
-135.4987060208128
 30
0.0
  0
SEQEND
  5
107
330
102
100
AcDbEntity
  8
_U+30EC_U+30A4_U+30E4_U+30FC 1
370
     0
  0
HATCH
  5
108
330
E2
100
AcDbEntity
  8
_U+30EC_U+30A4_U+30E4_U+30FC 1
 62
   179
420
  2234388
100
AcDbHatch
 10
0.0
 20
0.0
 30
0.0
210
0.0
220
0.0
230
1.0
  2
SOLID
 70
     1
 71
     0
 91
        2
 92
        1
 93
       11
 72
     1
 10
91.82144094926687
 20
-136.3534342107033
 11
91.82144094926687
 21
-136.700355326068
 72
     1
 10
91.82144094926687
 20
-136.700355326068
 11
91.60336640505055
 21
-136.700355326068
 72
     1
 10
91.60336640505055
 20
-136.700355326068
 11
91.60336640505055
 21
-136.3534342107033
 72
     1
 10
91.60336640505055
 20
-136.3534342107033
 11
90.94776473420751
 21
-136.3534342107033
 72
     1
 10
90.94776473420751
 20
-136.3534342107033
 11
90.94776473420751
 21
-136.1291584946136
 72
     1
 10
90.94776473420751
 20
-136.1291584946136
 11
91.62679305435024
 21
-135.1559190200305
 72
     1
 10
91.62679305435024
 20
-135.1559190200305
 11
91.82144094926687
 21
-135.1559190200305
 72
     1
 10
91.82144094926687
 20
-135.1559190200305
 11
91.82144094926687
 21
-136.1546522012044
 72
     1
 10
91.82144094926687
 20
-136.1546522012044
 11
92.02883569747891
 21
-136.1546522012044
 72
     1
 10
92.02883569747891
 20
-136.1546522012044
 11
92.02883569747891
 21
-136.3534342107033
 72
     1
 10
92.02883569747891
 20
-136.3534342107033
 11
91.82144094926687
 21
-136.3534342107033
 97
        0
 92
        1
 93
        3
 72
     1
 10
91.60336640505055
 20
-135.4987060208128
 11
91.14654674370642
 21
-136.1546522012044
 72
     1
 10
91.14654674370642
 20
-136.1546522012044
 11
91.60336640505055
 21
-136.1546522012044
 72
     1
 10
91.60336640505055
 20
-136.1546522012044
 11
91.60336640505055
 21
-135.4987060208128
 97
        0
 75
     2
 76
     1
 98
        0
  0
ENDBLK
  5
E5
330
E2
100
AcDbEntity
  8
0
100
AcDbBlockEnd
  0
ENDSEC
  0
SECTION
  2
ENTITIES
  0
INSERT
  5
42
330
1F
100
AcDbEntity
  8
_U+30EC_U+30A4_U+30E4_U+30FC 1
100
AcDbBlockReference
  2
block 2
 10
0.0
 20
0.0
 30
0.0
  0
ENDSEC
  0
SECTION
  2
OBJECTS
  0
DICTIONARY
  5
C
330
0
100
AcDbDictionary
281
     1
  3
ACAD_GROUP
350
D
  3
ACAD_LAYOUT
350
1A
  3
ACAD_MATERIAL
350
3B
  3
ACAD_MLEADERSTYLE
350
114
  3
ACAD_MLINESTYLE
350
17
  3
ACAD_PLOTSETTINGS
350
19
  3
ACAD_PLOTSTYLENAME
350
E
  3
ACAD_TABLESTYLE
350
113
  3
ACAD_VISUALSTYLE
350
2A
  0
SUN
  5
3F
330
29
100
AcDbSun
 90
        1
290
     0
 63
     7
421
 16777215
 40
1.0
291
     1
 91
  2455826
 92
 54000000
292
     0
 70
     2
 71
   256
280
     1
  0
DICTIONARY
  5
D
102
{ACAD_REACTORS
330
C
102
}
330
C
100
AcDbDictionary
281
     1
  0
DICTIONARY
  5
1A
102
{ACAD_REACTORS
330
C
102
}
330
C
100
AcDbDictionary
281
     1
  3
Layout1
350
1E
  3
Layout2
350
26
  3
Model
350
22
  0
DICTIONARY
  5
3B
102
{ACAD_REACTORS
330
C
102
}
330
C
100
AcDbDictionary
281
     1
  3
ByBlock
350
3D
  3
ByLayer
350
3C
  3
Global
350
3E
  0
DICTIONARY
  5
114
102
{ACAD_REACTORS
330
C
102
}
330
C
100
AcDbDictionary
281
     1
  0
DICTIONARY
  5
17
102
{ACAD_REACTORS
330
C
102
}
330
C
100
AcDbDictionary
281
     1
  3
Standard
350
18
  0
DICTIONARY
  5
19
102
{ACAD_REACTORS
330
C
102
}
330
C
100
AcDbDictionary
281
     1
  0
ACDBDICTIONARYWDFLT
  5
E
102
{ACAD_REACTORS
330
C
102
}
330
C
100
AcDbDictionary
281
     1
  3
Normal
350
F
100
AcDbDictionaryWithDefault
340
F
  0
DICTIONARY
  5
113
102
{ACAD_REACTORS
330
C
102
}
330
C
100
AcDbDictionary
281
     1
  0
DICTIONARY
  5
2A
102
{ACAD_REACTORS
330
C
102
}
330
C
100
AcDbDictionary
281
     1
  3
2dWireframe
350
2F
  3
3D Hidden
350
31
  3
3dWireframe
350
30
  3
Basic
350
32
  3
Brighten
350
36
  3
ColorChange
350
3A
  3
Conceptual
350
34
  3
Dim
350
35
  3
Facepattern
350
39
  3
Flat
350
2B
  3
FlatWithEdges
350
2C
  3
Gouraud
350
2D
  3
GouraudWithEdges
350
2E
  3
Linepattern
350
38
  3
Realistic
350
33
  3
Thicken
350
37
  0
LAYOUT
  5
1E
102
{ACAD_REACTORS
330
1A
102
}
330
1A
100
AcDbPlotSettings
  1

  2
none_device
  4

  6

 40
0.0
 41
0.0
 42
0.0
 43
0.0
 44
0.0
 45
0.0
 46
0.0
 47
0.0
 48
0.0
 49
0.0
140
0.0
141
0.0
142
1.0
143
1.0
 70
   688
 72
     0
 73
     0
 74
     5
  7

 75
    16
 76
     0
 77
     2
 78
   300
147
1.0
148
0.0
149
0.0
100
AcDbLayout
  1
Layout1
 70
     1
 71
     1
 10
0.0
 20
0.0
 11
12.0
 21
9.0
 12
0.0
 22
0.0
 32
0.0
 14
1.000000000000000E+20
 24
1.000000000000000E+20
 34
1.000000000000000E+20
 15
-1.000000000000000E+20
 25
-1.000000000000000E+20
 35
-1.000000000000000E+20
146
0.0
 13
0.0
 23
0.0
 33
0.0
 16
1.0
 26
0.0
 36
0.0
 17
0.0
 27
1.0
 37
0.0
 76
     0
330
1B
  0
LAYOUT
  5
26
102
{ACAD_REACTORS
330
1A
102
}
330
1A
100
AcDbPlotSettings
  1

  2
none_device
  4

  6

 40
0.0
 41
0.0
 42
0.0
 43
0.0
 44
0.0
 45
0.0
 46
0.0
 47
0.0
 48
0.0
 49
0.0
140
0.0
141
0.0
142
1.0
143
1.0
 70
   688
 72
     0
 73
     0
 74
     5
  7

 75
    16
 76
     0
 77
     2
 78
   300
147
1.0
148
0.0
149
0.0
100
AcDbLayout
  1
Layout2
 70
     1
 71
     2
 10
0.0
 20
0.0
 11
0.0
 21
0.0
 12
0.0
 22
0.0
 32
0.0
 14
0.0
 24
0.0
 34
0.0
 15
0.0
 25
0.0
 35
0.0
146
0.0
 13
0.0
 23
0.0
 33
0.0
 16
1.0
 26
0.0
 36
0.0
 17
0.0
 27
1.0
 37
0.0
 76
     0
330
23
  0
LAYOUT
  5
22
102
{ACAD_REACTORS
330
1A
102
}
330
1A
100
AcDbPlotSettings
  1

  2
none_device
  4

  6

 40
0.0
 41
0.0
 42
0.0
 43
0.0
 44
0.0
 45
0.0
 46
0.0
 47
0.0
 48
0.0
 49
0.0
140
0.0
141
0.0
142
1.0
143
1.0
 70
  1712
 72
     0
 73
     0
 74
     0
  7

 75
     0
 76
     0
 77
     2
 78
   300
147
1.0
148
0.0
149
0.0
100
AcDbLayout
  1
Model
 70
     1
 71
     0
 10
0.0
 20
0.0
 11
12.0
 21
9.0
 12
0.0
 22
0.0
 32
0.0
 14
1.000000000000000E+20
 24
1.000000000000000E+20
 34
1.000000000000000E+20
 15
-1.000000000000000E+20
 25
-1.000000000000000E+20
 35
-1.000000000000000E+20
146
0.0
 13
0.0
 23
0.0
 33
0.0
 16
1.0
 26
0.0
 36
0.0
 17
0.0
 27
1.0
 37
0.0
 76
     0
330
1F
331
29
  0
MATERIAL
  5
3D
102
{ACAD_REACTORS
330
3B
102
}
330
3B
100
AcDbMaterial
  1
ByBlock
 72
     1
 94
      127
  0
MATERIAL
  5
3C
102
{ACAD_REACTORS
330
3B
102
}
330
3B
100
AcDbMaterial
  1
ByLayer
 72
     1
 94
      127
  0
MATERIAL
  5
3E
102
{ACAD_REACTORS
330
3B
102
}
330
3B
100
AcDbMaterial
  1
Global
 72
     1
 94
      127
  0
MLINESTYLE
  5
18
102
{ACAD_REACTORS
330
17
102
}
330
17
100
AcDbMlineStyle
  2
Standard
 70
     0
  3

 62
   256
 51
90.0
 52
90.0
 71
     2
 49
0.5
 62
   256
  6
BYLAYER
 49
-0.5
 62
   256
  6
BYLAYER
  0
ACDBPLACEHOLDER
  5
F
102
{ACAD_REACTORS
330
E
102
}
330
E
  0
VISUALSTYLE
  5
2F
102
{ACAD_REACTORS
330
2A
102
}
330
2A
100
AcDbVisualStyle
  2
2dWireframe
 70
     4
177
     2
291
     0
 71
     0
176
     1
 72
     2
176
     1
 73
     0
176
     1
 90
        0
176
     1
 40
-0.6
176
     1
 41
-30.0
176
     1
 62
     5
 63
     7
421
 16777215
176
     1
 74
     1
176
     1
 91
        4
176
     1
 64
     7
176
     1
 65
   257
176
     1
 75
     1
176
     1
175
     1
176
     1
 42
1.0
176
     1
 92
        0
176
     1
 66
   257
176
     1
 43
1.0
176
     1
 76
     1
176
     1
 77
     6
176
     1
 78
     2
176
     1
 67
     7
176
     1
 79
     5
176
     1
170
     0
176
     1
171
     0
176
     1
290
     0
176
     1
 93
        1
176
     1
 44
0.0
176
     1
173
     0
176
     1
  0
VISUALSTYLE
  5
31
102
{ACAD_REACTORS
330
2A
102
}
330
2A
100
AcDbVisualStyle
  2
3D Hidden
 70
     6
177
     2
291
     0
 71
     1
176
     1
 72
     2
176
     1
 73
     2
176
     1
 90
        0
176
     1
 40
-0.6
176
     1
 41
-30.0
176
     1
 62
     5
 63
     7
421
 16777215
176
     1
 74
     2
176
     1
 91
        2
176
     1
 64
     7
176
     1
 65
   257
176
     1
 75
     2
176
     1
175
     1
176
     1
 42
40.0
176
     1
 92
        0
176
     1
 66
   257
176
     1
 43
1.0
176
     1
 76
     1
176
     1
 77
     6
176
     1
 78
     2
176
     1
 67
     7
176
     1
 79
     3
176
     1
170
     0
176
     1
171
     0
176
     1
290
     0
176
     1
 93
        1
176
     1
 44
0.0
176
     1
173
     0
176
     1
  0
VISUALSTYLE
  5
30
102
{ACAD_REACTORS
330
2A
102
}
330
2A
100
AcDbVisualStyle
  2
3dWireframe
 70
     5
177
     2
291
     0
 71
     0
176
     1
 72
     2
176
     1
 73
     0
176
     1
 90
        0
176
     1
 40
-0.6
176
     1
 41
-30.0
176
     1
 62
     5
 63
     7
421
 16777215
176
     1
 74
     1
176
     1
 91
        4
176
     1
 64
     7
176
     1
 65
   257
176
     1
 75
     1
176
     1
175
     1
176
     1
 42
1.0
176
     1
 92
        0
176
     1
 66
   257
176
     1
 43
1.0
176
     1
 76
     1
176
     1
 77
     6
176
     1
 78
     2
176
     1
 67
     7
176
     1
 79
     5
176
     1
170
     0
176
     1
171
     0
176
     1
290
     0
176
     1
 93
        1
176
     1
 44
0.0
176
     1
173
     0
176
     1
  0
VISUALSTYLE
  5
32
102
{ACAD_REACTORS
330
2A
102
}
330
2A
100
AcDbVisualStyle
  2
Basic
 70
     7
177
     2
291
     1
 71
     1
176
     1
 72
     0
176
     1
 73
     1
176
     1
 90
        0
176
     1
 40
-0.6
176
     1
 41
-30.0
176
     1
 62
     5
 63
     7
421
 16777215
176
     1
 74
     0
176
     1
 91
        4
176
     1
 64
     7
176
     1
 65
   257
176
     1
 75
     1
176
     1
175
     1
176
     1
 42
1.0
176
     1
 92
        8
176
     1
 66
     7
176
     1
 43
1.0
176
     1
 76
     1
176
     1
 77
     6
176
     1
 78
     2
176
     1
 67
     7
176
     1
 79
     5
176
     1
170
     0
176
     1
171
     0
176
     1
290
     0
176
     1
 93
        1
176
     1
 44
0.0
176
     1
173
     0
176
     1
  0
VISUALSTYLE
  5
36
102
{ACAD_REACTORS
330
2A
102
}
330
2A
100
AcDbVisualStyle
  2
Brighten
 70
    12
177
     2
291
     1
 71
     2
176
     1
 72
     2
176
     1
 73
     0
176
     1
 90
        0
176
     1
 40
-0.6
176
     1
 41
-30.0
176
     1
 62
     5
 63
     7
421
 16777215
176
     1
 74
     1
176
     1
 91
        4
176
     1
 64
     7
176
     1
 65
   257
176
     1
 75
     1
176
     1
175
     1
176
     1
 42
1.0
176
     1
 92
        8
176
     1
 66
     7
176
     1
 43
1.0
176
     1
 76
     1
176
     1
 77
     6
176
     1
 78
     2
176
     1
 67
     7
176
     1
 79
     5
176
     1
170
     0
176
     1
171
     0
176
     1
290
     0
176
     1
 93
        1
176
     1
 44
50.0
176
     1
173
     0
176
     1
  0
VISUALSTYLE
  5
3A
102
{ACAD_REACTORS
330
2A
102
}
330
2A
100
AcDbVisualStyle
  2
ColorChange
 70
    16
177
     2
291
     1
 71
     2
176
     1
 72
     2
176
     1
 73
     3
176
     1
 90
        0
176
     1
 40
-0.6
176
     1
 41
-30.0
176
     1
 62
     5
 63
     8
421
  8421504
176
     1
 74
     1
176
     1
 91
        4
176
     1
 64
     7
176
     1
 65
   257
176
     1
 75
     1
176
     1
175
     1
176
     1
 42
1.0
176
     1
 92
        8
176
     1
 66
     8
424
  8421504
176
     1
 43
1.0
176
     1
 76
     1
176
     1
 77
     6
176
     1
 78
     2
176
     1
 67
     7
176
     1
 79
     5
176
     1
170
     0
176
     1
171
     0
176
     1
290
     0
176
     1
 93
        1
176
     1
 44
0.0
176
     1
173
     0
176
     1
  0
VISUALSTYLE
  5
34
102
{ACAD_REACTORS
330
2A
102
}
330
2A
100
AcDbVisualStyle
  2
Conceptual
 70
     9
177
     2
291
     0
 71
     3
176
     1
 72
     2
176
     1
 73
     0
176
     1
 90
        0
176
     1
 40
-0.6
176
     1
 41
-30.0
176
     1
 62
     5
 63
     7
421
 16777215
176
     1
 74
     2
176
     1
 91
        2
176
     1
 64
     7
176
     1
 65
   257
176
     1
 75
     1
176
     1
175
     1
176
     1
 42
40.0
176
     1
 92
        8
176
     1
 66
     7
176
     1
 43
1.0
176
     1
 76
     1
176
     1
 77
     6
176
     1
 78
     2
176
     1
 67
     7
176
     1
 79
     3
176
     1
170
     0
176
     1
171
     0
176
     1
290
     0
176
     1
 93
        1
176
     1
 44
0.0
176
     1
173
     0
176
     1
  0
VISUALSTYLE
  5
35
102
{ACAD_REACTORS
330
2A
102
}
330
2A
100
AcDbVisualStyle
  2
Dim
 70
    11
177
     2
291
     1
 71
     2
176
     1
 72
     2
176
     1
 73
     0
176
     1
 90
        0
176
     1
 40
-0.6
176
     1
 41
-30.0
176
     1
 62
     5
 63
     7
421
 16777215
176
     1
 74
     1
176
     1
 91
        4
176
     1
 64
     7
176
     1
 65
   257
176
     1
 75
     1
176
     1
175
     1
176
     1
 42
1.0
176
     1
 92
        8
176
     1
 66
     7
176
     1
 43
1.0
176
     1
 76
     1
176
     1
 77
     6
176
     1
 78
     2
176
     1
 67
     7
176
     1
 79
     5
176
     1
170
     0
176
     1
171
     0
176
     1
290
     0
176
     1
 93
        1
176
     1
 44
-50.0
176
     1
173
     0
176
     1
  0
VISUALSTYLE
  5
39
102
{ACAD_REACTORS
330
2A
102
}
330
2A
100
AcDbVisualStyle
  2
Facepattern
 70
    15
177
     2
291
     1
 71
     2
176
     1
 72
     2
176
     1
 73
     0
176
     1
 90
        0
176
     1
 40
-0.6
176
     1
 41
-30.0
176
     1
 62
     5
 63
     7
421
 16777215
176
     1
 74
     1
176
     1
 91
        4
176
     1
 64
     7
176
     1
 65
   257
176
     1
 75
     1
176
     1
175
     1
176
     1
 42
1.0
176
     1
 92
        8
176
     1
 66
     7
176
     1
 43
1.0
176
     1
 76
     1
176
     1
 77
     6
176
     1
 78
     2
176
     1
 67
     7
176
     1
 79
     5
176
     1
170
     0
176
     1
171
     0
176
     1
290
     0
176
     1
 93
        1
176
     1
 44
0.0
176
     1
173
     0
176
     1
  0
VISUALSTYLE
  5
2B
102
{ACAD_REACTORS
330
2A
102
}
330
2A
100
AcDbVisualStyle
  2
Flat
 70
     0
177
     2
291
     1
 71
     2
176
     1
 72
     1
176
     1
 73
     1
176
     1
 90
        2
176
     1
 40
-0.6
176
     1
 41
30.0
176
     1
 62
     5
 63
     7
421
 16777215
176
     1
 74
     0
176
     1
 91
        4
176
     1
 64
     7
176
     1
 65
   257
176
     1
 75
     1
176
     1
175
     1
176
     1
 42
1.0
176
     1
 92
        8
176
     1
 66
     7
176
     1
 43
1.0
176
     1
 76
     1
176
     1
 77
     6
176
     1
 78
     2
176
     1
 67
     7
176
     1
 79
     5
176
     1
170
     0
176
     1
171
     0
176
     1
290
     0
176
     1
 93
       13
176
     1
 44
0.0
176
     1
173
     0
176
     1
  0
VISUALSTYLE
  5
2C
102
{ACAD_REACTORS
330
2A
102
}
330
2A
100
AcDbVisualStyle
  2
FlatWithEdges
 70
     1
177
     2
291
     1
 71
     2
176
     1
 72
     1
176
     1
 73
     1
176
     1
 90
        2
176
     1
 40
-0.6
176
     1
 41
30.0
176
     1
 62
     5
 63
     7
421
 16777215
176
     1
 74
     1
176
     1
 91
        4
176
     1
 64
     7
176
     1
 65
   257
176
     1
 75
     1
176
     1
175
     1
176
     1
 42
1.0
176
     1
 92
        0
176
     1
 66
   257
176
     1
 43
1.0
176
     1
 76
     1
176
     1
 77
     6
176
     1
 78
     2
176
     1
 67
     7
176
     1
 79
     5
176
     1
170
     0
176
     1
171
     0
176
     1
290
     0
176
     1
 93
       13
176
     1
 44
0.0
176
     1
173
     0
176
     1
  0
VISUALSTYLE
  5
2D
102
{ACAD_REACTORS
330
2A
102
}
330
2A
100
AcDbVisualStyle
  2
Gouraud
 70
     2
177
     2
291
     1
 71
     2
176
     1
 72
     2
176
     1
 73
     1
176
     1
 90
        2
176
     1
 40
-0.6
176
     1
 41
30.0
176
     1
 62
     5
 63
     7
421
 16777215
176
     1
 74
     0
176
     1
 91
        4
176
     1
 64
     7
176
     1
 65
   257
176
     1
 75
     1
176
     1
175
     1
176
     1
 42
1.0
176
     1
 92
        0
176
     1
 66
     7
176
     1
 43
1.0
176
     1
 76
     1
176
     1
 77
     6
176
     1
 78
     2
176
     1
 67
     7
176
     1
 79
     5
176
     1
170
     0
176
     1
171
     0
176
     1
290
     0
176
     1
 93
       13
176
     1
 44
0.0
176
     1
173
     0
176
     1
  0
VISUALSTYLE
  5
2E
102
{ACAD_REACTORS
330
2A
102
}
330
2A
100
AcDbVisualStyle
  2
GouraudWithEdges
 70
     3
177
     2
291
     1
 71
     2
176
     1
 72
     2
176
     1
 73
     1
176
     1
 90
        2
176
     1
 40
-0.6
176
     1
 41
30.0
176
     1
 62
     5
 63
     7
421
 16777215
176
     1
 74
     1
176
     1
 91
        4
176
     1
 64
     7
176
     1
 65
   257
176
     1
 75
     1
176
     1
175
     1
176
     1
 42
1.0
176
     1
 92
        0
176
     1
 66
   257
176
     1
 43
1.0
176
     1
 76
     1
176
     1
 77
     6
176
     1
 78
     2
176
     1
 67
     7
176
     1
 79
     5
176
     1
170
     0
176
     1
171
     0
176
     1
290
     0
176
     1
 93
       13
176
     1
 44
0.0
176
     1
173
     0
176
     1
  0
VISUALSTYLE
  5
38
102
{ACAD_REACTORS
330
2A
102
}
330
2A
100
AcDbVisualStyle
  2
Linepattern
 70
    14
177
     2
291
     1
 71
     2
176
     1
 72
     2
176
     1
 73
     0
176
     1
 90
        0
176
     1
 40
-0.6
176
     1
 41
-30.0
176
     1
 62
     5
 63
     7
421
 16777215
176
     1
 74
     1
176
     1
 91
        4
176
     1
 64
     7
176
     1
 65
   257
176
     1
 75
     7
176
     1
175
     7
176
     1
 42
1.0
176
     1
 92
        8
176
     1
 66
     7
176
     1
 43
1.0
176
     1
 76
     1
176
     1
 77
     6
176
     1
 78
     2
176
     1
 67
     7
176
     1
 79
     5
176
     1
170
     0
176
     1
171
     0
176
     1
290
     0
176
     1
 93
        1
176
     1
 44
0.0
176
     1
173
     0
176
     1
  0
VISUALSTYLE
  5
33
102
{ACAD_REACTORS
330
2A
102
}
330
2A
100
AcDbVisualStyle
  2
Realistic
 70
     8
177
     2
291
     0
 71
     2
176
     1
 72
     2
176
     1
 73
     0
176
     1
 90
        0
176
     1
 40
-0.6
176
     1
 41
-30.0
176
     1
 62
     5
 63
     7
421
 16777215
176
     1
 74
     1
176
     1
 91
        0
176
     1
 64
     7
176
     1
 65
   257
176
     1
 75
     1
176
     1
175
     1
176
     1
 42
1.0
176
     1
 92
        8
176
     1
 66
     8
424
  7895160
176
     1
 43
1.0
176
     1
 76
     1
176
     1
 77
     6
176
     1
 78
     2
176
     1
 67
     7
176
     1
 79
     5
176
     1
170
     0
176
     1
171
     0
176
     1
290
     0
176
     1
 93
       13
176
     1
 44
0.0
176
     1
173
     0
176
     1
  0
VISUALSTYLE
  5
37
102
{ACAD_REACTORS
330
2A
102
}
330
2A
100
AcDbVisualStyle
  2
Thicken
 70
    13
177
     2
291
     1
 71
     2
176
     1
 72
     2
176
     1
 73
     0
176
     1
 90
        0
176
     1
 40
-0.6
176
     1
 41
-30.0
176
     1
 62
     5
 63
     7
421
 16777215
176
     1
 74
     1
176
     1
 91
        4
176
     1
 64
     7
176
     1
 65
   257
176
     1
 75
     1
176
     1
175
     1
176
     1
 42
1.0
176
     1
 92
       12
176
     1
 66
     7
176
     1
 43
1.0
176
     1
 76
     1
176
     1
 77
     6
176
     1
 78
     2
176
     1
 67
     7
176
     1
 79
     5
176
     1
170
     0
176
     1
171
     0
176
     1
290
     0
176
     1
 93
        1
176
     1
 44
0.0
176
     1
173
     0
176
     1
  0
ENDSEC
  0
EOF
