  0
SECTION
  2
HEADER
  9
$ACADVER
  1
AC1024
  9
$ACADMAINTVER
 70
     6
  9
$DWGCODEPAGE
  3
UNDEFINED
  9
$INSBASE
 10
0.0
 20
0.0
 30
0.0
  9
$EXTMIN
 10
1.000000000000000E+20
 20
1.000000000000000E+20
 30
1.000000000000000E+20
  9
$EXTMAX
 10
-1.000000000000000E+20
 20
-1.000000000000000E+20
 30
-1.000000000000000E+20
  9
$LIMMIN
 10
0.0
 20
0.0
  9
$LIMMAX
 10
12.0
 20
9.0
  9
$ORTHOMODE
 70
     0
  9
$REGENMODE
 70
     1
  9
$FILLMODE
 70
     1
  9
$QTEXTMODE
 70
     0
  9
$MIRRTEXT
 70
     1
  9
$LTSCALE
 40
1.0
  9
$ATTMODE
 70
     1
  9
$TEXTSIZE
 40
0.2
  9
$TRACEWID
 40
0.05
  9
$TEXTSTYLE
  7
Standard
  9
$CLAYER
  8
0
  9
$CELTYPE
  6
ByLayer
  9
$CECOLOR
 62
   256
  9
$CELTSCALE
 40
1.0
  9
$DISPSILH
 70
     0
  9
$DIMSCALE
 40
1.0
  9
$DIMASZ
 40
0.18
  9
$DIMEXO
 40
0.0625
  9
$DIMDLI
 40
0.38
  9
$DIMRND
 40
0.0
  9
$DIMDLE
 40
0.0
  9
$DIMEXE
 40
0.18
  9
$DIMTP
 40
0.0
  9
$DIMTM
 40
0.0
  9
$DIMTXT
 40
0.18
  9
$DIMCEN
 40
0.09
  9
$DIMTSZ
 40
0.0
  9
$DIMTOL
 70
     0
  9
$DIMLIM
 70
     0
  9
$DIMTIH
 70
     1
  9
$DIMTOH
 70
     1
  9
$DIMSE1
 70
     0
  9
$DIMSE2
 70
     0
  9
$DIMTAD
 70
     0
  9
$DIMZIN
 70
     0
  9
$DIMBLK
  1

  9
$DIMASO
 70
     1
  9
$DIMSHO
 70
     1
  9
$DIMPOST
  1

  9
$DIMAPOST
  1

  9
$DIMALT
 70
     0
  9
$DIMALTD
 70
     2
  9
$DIMALTF
 40
25.4
  9
$DIMLFAC
 40
1.0
  9
$DIMTOFL
 70
     0
  9
$DIMTVP
 40
0.0
  9
$DIMTIX
 70
     0
  9
$DIMSOXD
 70
     0
  9
$DIMSAH
 70
     0
  9
$DIMBLK1
  1

  9
$DIMBLK2
  1

  9
$DIMSTYLE
  2
Standard
  9
$DIMCLRD
 70
     0
  9
$DIMCLRE
 70
     0
  9
$DIMCLRT
 70
     0
  9
$DIMTFAC
 40
1.0
  9
$DIMGAP
 40
0.09
  9
$DIMJUST
 70
     0
  9
$DIMSD1
 70
     0
  9
$DIMSD2
 70
     0
  9
$DIMTOLJ
 70
     1
  9
$DIMTZIN
 70
     0
  9
$DIMALTZ
 70
     0
  9
$DIMALTTZ
 70
     0
  9
$DIMUPT
 70
     0
  9
$DIMDEC
 70
     4
  9
$DIMTDEC
 70
     4
  9
$DIMALTU
 70
     2
  9
$DIMALTTD
 70
     2
  9
$DIMTXSTY
  7
Standard
  9
$DIMAUNIT
 70
     0
  9
$DIMADEC
 70
     0
  9
$DIMALTRND
 40
0.0
  9
$DIMAZIN
 70
     0
  9
$DIMDSEP
 70
    46
  9
$DIMATFIT
 70
     3
  9
$DIMFRAC
 70
     0
  9
$DIMLDRBLK
  1

  9
$DIMLUNIT
 70
     2
  9
$DIMLWD
 70
    -2
  9
$DIMLWE
 70
    -2
  9
$DIMTMOVE
 70
     0
  9
$DIMFXL
 40
1.0
  9
$DIMFXLON
 70
     0
  9
$DIMJOGANG
 40
0.7853981633974483
  9
$DIMTFILL
 70
     0
  9
$DIMTFILLCLR
 70
     0
  9
$DIMARCSYM
 70
     0
  9
$DIMLTYPE
  6

  9
$DIMLTEX1
  6

  9
$DIMLTEX2
  6

  9
$DIMTXTDIRECTION
 70
     0
  9
$LUNITS
 70
     2
  9
$LUPREC
 70
     4
  9
$SKETCHINC
 40
0.1
  9
$FILLETRAD
 40
0.5
  9
$AUNITS
 70
     0
  9
$AUPREC
 70
     0
  9
$MENU
  1
.
  9
$ELEVATION
 40
0.0
  9
$PELEVATION
 40
0.0
  9
$THICKNESS
 40
0.0
  9
$LIMCHECK
 70
     0
  9
$CHAMFERA
 40
0.5
  9
$CHAMFERB
 40
0.5
  9
$CHAMFERC
 40
1.0
  9
$CHAMFERD
 40
0.0
  9
$SKPOLY
 70
     0
  9
$TDCREATE
 40
2457917.646562488
  9
$TDUCREATE
 40
2457917.2715625
  9
$TDUPDATE
 40
2457917.646562488
  9
$TDUUPDATE
 40
2457917.2715625
  9
$TDINDWG
 40
0.0000000116
  9
$TDUSRTIMER
 40
0.0000000116
  9
$USRTIMER
 70
     1
  9
$ANGBASE
 50
0.0
  9
$ANGDIR
 70
     0
  9
$PDMODE
 70
     0
  9
$PDSIZE
 40
0.0
  9
$PLINEWID
 40
0.0
  9
$SPLFRAME
 70
     0
  9
$SPLINETYPE
 70
     6
  9
$SPLINESEGS
 70
     8
  9
$HANDSEED
  5
F5
  9
$SURFTAB1
 70
     6
  9
$SURFTAB2
 70
     6
  9
$SURFTYPE
 70
     6
  9
$SURFU
 70
     6
  9
$SURFV
 70
     6
  9
$UCSBASE
  2

  9
$UCSNAME
  2

  9
$UCSORG
 10
0.0
 20
0.0
 30
0.0
  9
$UCSXDIR
 10
1.0
 20
0.0
 30
0.0
  9
$UCSYDIR
 10
0.0
 20
1.0
 30
0.0
  9
$UCSORTHOREF
  2

  9
$UCSORTHOVIEW
 70
     0
  9
$UCSORGTOP
 10
0.0
 20
0.0
 30
0.0
  9
$UCSORGBOTTOM
 10
0.0
 20
0.0
 30
0.0
  9
$UCSORGLEFT
 10
0.0
 20
0.0
 30
0.0
  9
$UCSORGRIGHT
 10
0.0
 20
0.0
 30
0.0
  9
$UCSORGFRONT
 10
0.0
 20
0.0
 30
0.0
  9
$UCSORGBACK
 10
0.0
 20
0.0
 30
0.0
  9
$PUCSBASE
  2

  9
$PUCSNAME
  2

  9
$PUCSORG
 10
0.0
 20
0.0
 30
0.0
  9
$PUCSXDIR
 10
1.0
 20
0.0
 30
0.0
  9
$PUCSYDIR
 10
0.0
 20
1.0
 30
0.0
  9
$PUCSORTHOREF
  2

  9
$PUCSORTHOVIEW
 70
     0
  9
$PUCSORGTOP
 10
0.0
 20
0.0
 30
0.0
  9
$PUCSORGBOTTOM
 10
0.0
 20
0.0
 30
0.0
  9
$PUCSORGLEFT
 10
0.0
 20
0.0
 30
0.0
  9
$PUCSORGRIGHT
 10
0.0
 20
0.0
 30
0.0
  9
$PUCSORGFRONT
 10
0.0
 20
0.0
 30
0.0
  9
$PUCSORGBACK
 10
0.0
 20
0.0
 30
0.0
  9
$USERI1
 70
     0
  9
$USERI2
 70
     0
  9
$USERI3
 70
     0
  9
$USERI4
 70
     0
  9
$USERI5
 70
     0
  9
$USERR1
 40
0.0
  9
$USERR2
 40
0.0
  9
$USERR3
 40
0.0
  9
$USERR4
 40
0.0
  9
$USERR5
 40
0.0
  9
$WORLDVIEW
 70
     1
  9
$SHADEDGE
 70
     3
  9
$SHADEDIF
 70
    70
  9
$TILEMODE
 70
     1
  9
$MAXACTVP
 70
    64
  9
$PINSBASE
 10
0.0
 20
0.0
 30
0.0
  9
$PLIMCHECK
 70
     0
  9
$PEXTMIN
 10
1.000000000000000E+20
 20
1.000000000000000E+20
 30
1.000000000000000E+20
  9
$PEXTMAX
 10
-1.000000000000000E+20
 20
-1.000000000000000E+20
 30
-1.000000000000000E+20
  9
$PLIMMIN
 10
0.0
 20
0.0
  9
$PLIMMAX
 10
12.0
 20
9.0
  9
$UNITMODE
 70
     0
  9
$VISRETAIN
 70
     1
  9
$PLINEGEN
 70
     0
  9
$PSLTSCALE
 70
     1
  9
$TREEDEPTH
 70
  3020
  9
$CMLSTYLE
  2
Standard
  9
$CMLJUST
 70
     0
  9
$CMLSCALE
 40
1.0
  9
$PROXYGRAPHICS
 70
     1
  9
$MEASUREMENT
 70
     0
  9
$CELWEIGHT
370
    -1
  9
$ENDCAPS
280
     0
  9
$JOINSTYLE
280
     0
  9
$LWDISPLAY
290
     1
  9
$INSUNITS
 70
     1
  9
$HYPERLINKBASE
  1

  9
$STYLESHEET
  1

  9
$XEDIT
290
     1
  9
$CEPSNTYPE
380
     0
  9
$PSTYLEMODE
290
     1
  9
$FINGERPRINTGUID
  2
{2691B972-2194-C903-9EA5-46888035F524}
  9
$VERSIONGUID
  2
{FAEB1C32-E019-11D5-929B-00C0DF256EC4}
  9
$EXTNAMES
290
     1
  9
$PSVPSCALE
 40
0.0
  9
$OLESTARTUP
290
     0
  9
$SORTENTS
280
   127
  9
$INDEXCTL
280
     0
  9
$HIDETEXT
280
     1
  9
$XCLIPFRAME
280
     2
  9
$HALOGAP
280
     0
  9
$OBSCOLOR
 70
   257
  9
$OBSLTYPE
280
     0
  9
$INTERSECTIONDISPLAY
280
     0
  9
$INTERSECTIONCOLOR
 70
   257
  9
$DIMASSOC
280
     2
  9
$PROJECTNAME
  1

  9
$CAMERADISPLAY
290
     0
  9
$LENSLENGTH
 40
50.0
  9
$CAMERAHEIGHT
 40
0.0
  9
$STEPSPERSEC
 40
2.0
  9
$STEPSIZE
 40
6.0
  9
$3DDWFPREC
 40
2.0
  9
$PSOLWIDTH
 40
0.25
  9
$PSOLHEIGHT
 40
4.0
  9
$LOFTANG1
 40
1.570796326794897
  9
$LOFTANG2
 40
1.570796326794897
  9
$LOFTMAG1
 40
0.0
  9
$LOFTMAG2
 40
0.0
  9
$LOFTPARAM
 70
     7
  9
$LOFTNORMALS
280
     1
  9
$LATITUDE
 40
37.795
  9
$LONGITUDE
 40
-122.394
  9
$NORTHDIRECTION
 40
0.0
  9
$TIMEZONE
 70
 -8000
  9
$LIGHTGLYPHDISPLAY
280
     1
  9
$TILEMODELIGHTSYNCH
280
     1
  9
$CMATERIAL
347
3C
  9
$SOLIDHIST
280
     1
  9
$SHOWHIST
280
     1
  9
$DWFFRAME
280
     2
  9
$DGNFRAME
280
     2
  9
$REALWORLDSCALE
290
     1
  9
$INTERFERECOLOR
 62
   256
  9
$CSHADOW
280
     0
  9
$SHADOWPLANELOCATION
 40
0.0
  0
ENDSEC
  0
SECTION
  2
CLASSES
  0
CLASS
  1
ACDBDICTIONARYWDFLT
  2
AcDbDictionaryWithDefault
  3
ObjectDBX Classes
 90
        0
 91
        4
280
     0
281
     0
  0
CLASS
  1
VISUALSTYLE
  2
AcDbVisualStyle
  3
ObjectDBX Classes
 90
     4095
 91
        4
280
     0
281
     0
  0
CLASS
  1
MATERIAL
  2
AcDbMaterial
  3
ObjectDBX Classes
 90
     1153
 91
        4
280
     0
281
     0
  0
CLASS
  1
SUN
  2
AcDbSun
  3
SCENEOE
 90
     1024
 91
        4
280
     0
281
     0
  0
ENDSEC
  0
SECTION
  2
TABLES
  0
TABLE
  2
VPORT
  5
8
330
0
100
AcDbSymbolTable
 70
     1
  0
VPORT
  5
29
330
8
100
AcDbSymbolTableRecord
100
AcDbViewportTableRecord
  2
*Active
 70
     0
 10
0.0
 20
0.0
 11
1.0
 21
1.0
 12
0.0
 22
0.0
 13
0.0
 23
0.0
 14
0.5
 24
0.5
 15
0.5
 25
0.5
 16
0.0
 26
0.0
 36
1.0
 17
91.00082462281999
 27
-128.4993055234307
 37
0.0
 40
256.9986110468615
 41
0.7081814508812795
 42
50.0
 43
0.0
 44
0.0
 50
0.0
 51
0.0
 71
     0
 72
   100
 73
     1
 74
     3
 75
     0
 76
     0
 77
     0
 78
     0
281
     0
 65
     1
110
0.0
120
0.0
130
0.0
111
1.0
121
0.0
131
0.0
112
0.0
122
1.0
132
0.0
 79
     0
146
0.0
 60
     3
 61
     5
292
     1
282
     1
141
0.0
142
0.0
 63
   250
361
3F
  0
ENDTAB
  0
TABLE
  2
LTYPE
  5
5
330
0
100
AcDbSymbolTable
 70
     1
  0
LTYPE
  5
14
330
5
100
AcDbSymbolTableRecord
100
AcDbLinetypeTableRecord
  2
ByBlock
 70
     0
  3

 72
    65
 73
     0
 40
0.0
  0
LTYPE
  5
15
330
5
100
AcDbSymbolTableRecord
100
AcDbLinetypeTableRecord
  2
ByLayer
 70
     0
  3

 72
    65
 73
     0
 40
0.0
  0
LTYPE
  5
16
330
5
100
AcDbSymbolTableRecord
100
AcDbLinetypeTableRecord
  2
Continuous
 70
     0
  3
Solid line
 72
    65
 73
     0
 40
0.0
  0
ENDTAB
  0
TABLE
  2
LAYER
  5
2
330
0
100
AcDbSymbolTable
 70
     2
  0
LAYER
  5
10
330
2
100
AcDbSymbolTableRecord
100
AcDbLayerTableRecord
  2
0
 70
     0
 62
     7
  6
Continuous
370
    -3
390
F
347
3E
  0
LAYER
  5
40
330
2
100
AcDbSymbolTableRecord
100
AcDbLayerTableRecord
  2
_U+30EC_U+30A4_U+30E4_U+30FC 1
 70
     0
 62
     7
  6
Continuous
370
    -3
390
F
347
3E
  0
ENDTAB
  0
TABLE
  2
STYLE
  5
3
330
0
100
AcDbSymbolTable
 70
     1
  0
STYLE
  5
11
330
3
100
AcDbSymbolTableRecord
100
AcDbTextStyleTableRecord
  2
Standard
 70
     0
 40
0.0
 41
1.0
 50
0.0
 71
     0
 42
0.2
  3
txt
  4

  0
ENDTAB
  0
TABLE
  2
VIEW
  5
6
330
0
100
AcDbSymbolTable
 70
     0
  0
ENDTAB
  0
TABLE
  2
UCS
  5
7
330
0
100
AcDbSymbolTable
 70
     0
  0
ENDTAB
  0
TABLE
  2
APPID
  5
9
330
0
100
AcDbSymbolTable
 70
     1
  0
APPID
  5
12
330
9
100
AcDbSymbolTableRecord
100
AcDbRegAppTableRecord
  2
ACAD
 70
     0
  0
ENDTAB
  0
TABLE
  2
DIMSTYLE
  5
A
330
0
100
AcDbSymbolTable
 70
     1
100
AcDbDimStyleTable
  0
DIMSTYLE
105
27
330
A
100
AcDbSymbolTableRecord
100
AcDbDimStyleTableRecord
  2
Standard
 70
     0
178
     0
340
11
  0
ENDTAB
  0
TABLE
  2
BLOCK_RECORD
  5
1
330
0
100
AcDbSymbolTable
 70
     8
  0
BLOCK_RECORD
  5
1F
330
1
100
AcDbSymbolTableRecord
100
AcDbBlockTableRecord
  2
*Model_Space
340
22
 70
     0
280
     1
281
     0
  0
BLOCK_RECORD
  5
1B
330
1
100
AcDbSymbolTableRecord
100
AcDbBlockTableRecord
  2
*Paper_Space
340
1E
 70
     0
280
     1
281
     0
  0
BLOCK_RECORD
  5
23
330
1
100
AcDbSymbolTableRecord
100
AcDbBlockTableRecord
  2
*Paper_Space0
340
26
 70
     0
280
     1
281
     0
  0
BLOCK_RECORD
  5
41
330
1
100
AcDbSymbolTableRecord
100
AcDbBlockTableRecord
  2
block 2
340
0
102
{BLKREFS
331
42
102
}
 70
     0
280
     1
281
     0
  0
BLOCK_RECORD
  5
67
330
1
100
AcDbSymbolTableRecord
100
AcDbBlockTableRecord
  2
block 3
340
0
102
{BLKREFS
331
68
102
}
 70
     0
280
     1
281
     0
  0
BLOCK_RECORD
  5
6E
330
1
100
AcDbSymbolTableRecord
100
AcDbBlockTableRecord
  2
block 4
340
0
102
{BLKREFS
331
6F
102
}
 70
     0
280
     1
281
     0
  0
BLOCK_RECORD
  5
B0
330
1
100
AcDbSymbolTableRecord
100
AcDbBlockTableRecord
  2
block 5
340
0
102
{BLKREFS
331
B1
102
}
 70
     0
280
     1
281
     0
  0
BLOCK_RECORD
  5
D7
330
1
100
AcDbSymbolTableRecord
100
AcDbBlockTableRecord
  2
block 6
340
0
102
{BLKREFS
331
D8
102
}
 70
     0
280
     1
281
     0
  0
BLOCK_RECORD
  5
E2
330
1
100
AcDbSymbolTableRecord
100
AcDbBlockTableRecord
  2
block 7
340
0
102
{BLKREFS
331
E3
102
}
 70
     0
280
     1
281
     0
  0
BLOCK_RECORD
  5
EA
330
1
100
AcDbSymbolTableRecord
100
AcDbBlockTableRecord
  2
block 8
340
0
102
{BLKREFS
331
EB
102
}
 70
     0
280
     1
281
     0
  0
ENDTAB
  0
ENDSEC
  0
SECTION
  2
BLOCKS
  0
BLOCK
  5
20
330
1F
100
AcDbEntity
  8
0
100
AcDbBlockBegin
  2
*Model_Space
 70
     0
 10
0.0
 20
0.0
 30
0.0
  3
*Model_Space
  1

  0
ENDBLK
  5
21
330
1F
100
AcDbEntity
  8
0
100
AcDbBlockEnd
  0
BLOCK
  5
1C
330
1B
100
AcDbEntity
 67
     1
  8
0
100
AcDbBlockBegin
  2
*Paper_Space
 70
     0
 10
0.0
 20
0.0
 30
0.0
  3
*Paper_Space
  1

  0
ENDBLK
  5
1D
330
1B
100
AcDbEntity
 67
     1
  8
0
100
AcDbBlockEnd
  0
BLOCK
  5
24
330
23
100
AcDbEntity
  8
0
100
AcDbBlockBegin
  2
*Paper_Space0
 70
     0
 10
0.0
 20
0.0
 30
0.0
  3
*Paper_Space0
  1

  0
ENDBLK
  5
25
330
23
100
AcDbEntity
  8
0
100
AcDbBlockEnd
  0
BLOCK
  5
43
330
41
100
AcDbEntity
  8
0
100
AcDbBlockBegin
  2
block 2
 70
     0
 10
0.0
 20
0.0
 30
0.0
  3
block 2
  1

  0
SPLINE
  5
45
330
41
100
AcDbEntity
  8
_U+30EC_U+30A4_U+30E4_U+30FC 1
370
     0
100
AcDbSpline
210
0.0
220
0.0
230
1.0
 70
    11
 71
     3
 72
    59
 73
    55
 74
     0
 42
0.0000000001
 43
0.0000000001
 12
1.0
 22
0.0
 32
0.0
 13
1.0
 23
0.0
 33
0.0
 40
0.0
 40
0.0
 40
0.0
 40
0.0
 40
1.0
 40
1.0
 40
1.0
 40
2.0
 40
2.0
 40
2.0
 40
3.0
 40
3.0
 40
3.0
 40
4.0
 40
4.0
 40
4.0
 40
5.0
 40
5.0
 40
5.0
 40
6.0
 40
6.0
 40
6.0
 40
7.0
 40
7.0
 40
7.0
 40
8.0
 40
8.0
 40
8.0
 40
9.0
 40
9.0
 40
9.0
 40
10.0
 40
10.0
 40
10.0
 40
11.0
 40
11.0
 40
11.0
 40
12.0
 40
12.0
 40
12.0
 40
13.0
 40
13.0
 40
13.0
 40
14.0
 40
14.0
 40
14.0
 40
15.0
 40
15.0
 40
15.0
 40
16.0
 40
16.0
 40
16.0
 40
17.0
 40
17.0
 40
17.0
 40
18.0
 40
18.0
 40
18.0
 40
18.0
 10
78.00110495447048
 20
-142.9704263531465
 30
0.0
 10
78.00110495447048
 20
-142.9704263531465
 30
0.0
 10
80.2059660093309
 20
-141.6471569090328
 30
0.0
 10
80.2059660093309
 20
-141.6471569090328
 30
0.0
 10
80.2059660093309
 20
-141.6471569090328
 30
0.0
 10
80.2059660093309
 20
-141.029795798076
 30
0.0
 10
80.2059660093309
 20
-141.029795798076
 30
0.0
 10
80.2059660093309
 20
-141.029795798076
 30
0.0
 10
85.80631308867636
 20
-137.5023707989579
 30
0.0
 10
85.80631308867636
 20
-137.5023707989579
 30
0.0
 10
85.80631308867636
 20
-137.5023707989579
 30
0.0
 10
86.64416028952331
 20
-137.6787596878027
 30
0.0
 10
86.64416028952331
 20
-137.6787596878027
 30
0.0
 10
86.64416028952331
 20
-137.6787596878027
 30
0.0
 10
92.11221570557716
 20
-134.4159180219519
 30
0.0
 10
92.11221570557716
 20
-134.4159180219519
 30
0.0
 10
92.11221570557716
 20
-134.4159180219519
 30
0.0
 10
92.11221570557716
 20
-133.9749457998399
 30
0.0
 10
92.11221570557716
 20
-133.9749457998399
 30
0.0
 10
92.11221570557716
 20
-133.9749457998399
 30
0.0
 10
97.97714611150587
 20
-130.5794596895776
 30
0.0
 10
97.97714611150587
 20
-130.5794596895776
 30
0.0
 10
97.97714611150587
 20
-130.5794596895776
 30
0.0
 10
98.41811832247795
 20
-131.329112467168
 30
0.0
 10
100.6670765984356
 20
-129.4770291342977
 30
0.0
 10
100.6670765984356
 20
-129.4770291342977
 30
0.0
 10
100.75527104063
 20
-128.682926356718
 30
0.0
 10
100.75527104063
 20
-128.682926356718
 30
0.0
 10
100.75527104063
 20
-128.682926356718
 30
0.0
 10
98.28582665918633
 20
-126.9631346904813
 30
0.0
 10
98.28582665918633
 20
-126.9631346904813
 30
0.0
 10
98.28582665918633
 20
-126.9631346904813
 30
0.0
 10
98.28582665918633
 20
-115.3655652489363
 30
0.0
 10
98.28582665918633
 20
-115.3655652489363
 30
0.0
 10
98.28582665918633
 20
-115.3655652489363
 30
0.0
 10
98.02124333260308
 20
-115.1009819156691
 30
0.0
 10
98.02124333260308
 20
-115.1009819156691
 30
0.0
 10
98.02124333260308
 20
-115.1009819156691
 30
0.0
 10
97.22749335285333
 20
-114.9245930268243
 30
0.0
 10
97.22749335285333
 20
-114.9245930268243
 30
0.0
 10
97.22749335285333
 20
-114.9245930268243
 30
0.0
 10
75.0465911409575
 20
-127.7127874680717
 30
0.0
 10
75.0465911409575
 20
-127.7127874680717
 30
0.0
 10
75.0465911409575
 20
-127.7127874680717
 30
0.0
 10
74.16464671901335
 20
-127.8009819124941
 30
0.0
 10
74.16464671901335
 20
-129.1238985788303
 30
0.0
 10
74.16464671901335
 20
-129.1238985788303
 30
0.0
 10
74.12054949791613
 20
-139.9714624650072
 30
0.0
 10
74.12054949791613
 20
-139.9714624650072
 30
0.0
 10
74.12054949791613
 20
-139.9714624650072
 30
0.0
 10
73.85596617133288
 20
-141.2061846869208
 30
0.0
 10
75.17888280424913
 20
-141.7353513534552
 30
0.0
 10
75.17888280424913
 20
-141.7353513534552
 30
0.0
 10
78.00110495447048
 20
-142.9704263531465
 30
0.0
 10
78.00110495447048
 20
-142.9704263531465
 30
0.0
  0
SPLINE
  5
46
330
41
100
AcDbEntity
  8
_U+30EC_U+30A4_U+30E4_U+30FC 1
 62
   179
420
  2234388
370
     9
100
AcDbSpline
210
0.0
220
0.0
230
1.0
 70
    11
 71
     3
 72
    44
 73
    40
 74
     0
 42
0.0000000001
 43
0.0000000001
 12
1.0
 22
0.0
 32
0.0
 13
1.0
 23
0.0
 33
0.0
 40
0.0
 40
0.0
 40
0.0
 40
0.0
 40
1.0
 40
1.0
 40
1.0
 40
2.0
 40
2.0
 40
2.0
 40
3.0
 40
3.0
 40
3.0
 40
4.0
 40
4.0
 40
4.0
 40
5.0
 40
5.0
 40
5.0
 40
6.0
 40
6.0
 40
6.0
 40
7.0
 40
7.0
 40
7.0
 40
8.0
 40
8.0
 40
8.0
 40
9.0
 40
9.0
 40
9.0
 40
10.0
 40
10.0
 40
10.0
 40
11.0
 40
11.0
 40
11.0
 40
12.0
 40
12.0
 40
12.0
 40
13.0
 40
13.0
 40
13.0
 40
13.0
 10
80.19474767628375
 20
-141.0270441314096
 30
0.0
 10
80.19474767628375
 20
-141.0270441314096
 30
0.0
 10
80.19474767628375
 20
-141.651989964587
 30
0.0
 10
80.19474767628375
 20
-141.651989964587
 30
0.0
 10
80.19474767628375
 20
-141.651989964587
 30
0.0
 10
77.98180801051834
 20
-142.9518349642622
 30
0.0
 10
77.98180801051834
 20
-142.9518349642622
 30
0.0
 10
77.98180801051834
 20
-142.9518349642622
 30
0.0
 10
74.75875975941182
 20
-141.556210797944
 30
0.0
 10
74.75875975941182
 20
-141.556210797944
 30
0.0
 10
74.75875975941182
 20
-141.556210797944
 30
0.0
 10
74.133284775369
 20
-141.2192727424729
 30
0.0
 10
74.133284775369
 20
-140.353203298245
 30
0.0
 10
74.133284775369
 20
-140.353203298245
 30
0.0
 10
74.18133310747652
 20
-129.0491449677378
 30
0.0
 10
74.18133310747652
 20
-129.0491449677378
 30
0.0
 10
74.18133310747652
 20
-129.0491449677378
 30
0.0
 10
73.74847478518633
 20
-128.2309474679423
 30
0.0
 10
75.33597474468583
 20
-127.5095169125671
 30
0.0
 10
75.33597474468583
 20
-127.5095169125671
 30
0.0
 10
97.22438890848808
 20
-114.9538735823727
 30
0.0
 10
97.22438890848808
 20
-114.9538735823727
 30
0.0
 10
97.22438890848808
 20
-114.9538735823727
 30
0.0
 10
97.94613694563031
 20
-115.0982302490033
 30
0.0
 10
97.94613694563031
 20
-115.0982302490033
 30
0.0
 10
97.94613694563031
 20
-115.0982302490033
 30
0.0
 10
74.85485831461959
 20
-128.5199783012035
 30
0.0
 10
74.85485831461959
 20
-128.5199783012035
 30
0.0
 10
74.85485831461959
 20
-128.5199783012035
 30
0.0
 10
74.71049976064303
 20
-139.7286102428454
 30
0.0
 10
74.71049976064303
 20
-139.7286102428454
 30
0.0
 10
74.71049976064303
 20
-139.7286102428454
 30
0.0
 10
74.56631948654359
 20
-140.9305946869899
 30
0.0
 10
75.23966641380953
 20
-141.2192727424729
 30
0.0
 10
75.23966641380953
 20
-141.2192727424729
 30
0.0
 10
77.93375967841081
 20
-142.3744435755173
 30
0.0
 10
77.93375967841081
 20
-142.3744435755173
 30
0.0
 10
77.93375967841081
 20
-142.3744435755173
 30
0.0
 10
80.19474767628375
 20
-141.0270441314096
 30
0.0
 10
80.19474767628375
 20
-141.0270441314096
 30
0.0
  0
SPLINE
  5
47
330
41
100
AcDbEntity
  8
_U+30EC_U+30A4_U+30E4_U+30FC 1
 62
   179
420
  2234388
370
     9
100
AcDbSpline
210
0.0
220
0.0
230
1.0
 70
     8
 71
     3
 72
    14
 73
    10
 74
     0
 42
0.0000000001
 43
0.0000000001
 12
1.0
 22
0.0
 32
0.0
 13
1.0
 23
0.0
 33
0.0
 40
0.0
 40
0.0
 40
0.0
 40
0.0
 40
1.0
 40
1.0
 40
1.0
 40
2.0
 40
2.0
 40
2.0
 40
3.0
 40
3.0
 40
3.0
 40
3.0
 10
97.94613694563031
 20
-115.0982302490033
 30
0.0
 10
97.94613694563031
 20
-115.0982302490033
 30
0.0
 10
98.28272221482108
 20
-114.9060016379403
 30
0.0
 10
98.28272221482108
 20
-115.6756216377479
 30
0.0
 10
98.28272221482108
 20
-115.6756216377479
 30
0.0
 10
98.28272221482108
 20
-127.0286102460207
 30
0.0
 10
98.28272221482108
 20
-127.0286102460207
 30
0.0
 10
98.28272221482108
 20
-127.0286102460207
 30
0.0
 10
74.95116664792889
 20
-140.6418813537287
 30
0.0
 10
74.95116664792889
 20
-140.6418813537287
 30
0.0
  0
POLYLINE
  5
48
330
41
100
AcDbEntity
  8
_U+30EC_U+30A4_U+30E4_U+30FC 1
 62
   179
420
  2234388
370
     9
100
AcDb2dPolyline
 66
     1
 10
0.0
 20
0.0
 30
0.0
  0
VERTEX
  5
49
330
48
100
AcDbEntity
  8
_U+30EC_U+30A4_U+30E4_U+30FC 1
 62
   179
420
  2234388
370
     9
100
AcDbVertex
100
AcDb2dVertex
 10
86.59283331168514
 20
-137.1788735768161
 30
0.0
  0
VERTEX
  5
4A
330
48
100
AcDbEntity
  8
_U+30EC_U+30A4_U+30E4_U+30FC 1
 62
   179
420
  2234388
370
     9
100
AcDbVertex
100
AcDb2dVertex
 10
86.59283331168514
 20
-137.6601682989184
 30
0.0
  0
VERTEX
  5
4B
330
48
100
AcDbEntity
  8
_U+30EC_U+30A4_U+30E4_U+30FC 1
 62
   179
420
  2234388
370
     9
100
AcDbVertex
100
AcDb2dVertex
 10
92.12117626090411
 20
-134.4813582997131
 30
0.0
  0
VERTEX
  5
4C
330
48
100
AcDbEntity
  8
_U+30EC_U+30A4_U+30E4_U+30FC 1
 62
   179
420
  2234388
370
     9
100
AcDbVertex
100
AcDb2dVertex
 10
92.12117626090411
 20
-133.8557421887584
 30
0.0
  0
SEQEND
  5
4D
330
48
100
AcDbEntity
  8
_U+30EC_U+30A4_U+30E4_U+30FC 1
 62
   179
420
  2234388
370
     9
  0
POLYLINE
  5
4E
330
41
100
AcDbEntity
  8
_U+30EC_U+30A4_U+30E4_U+30FC 1
 62
   179
420
  2234388
370
     9
100
AcDb2dPolyline
 66
     1
 10
0.0
 20
0.0
 30
0.0
  0
VERTEX
  5
4F
330
4E
100
AcDbEntity
  8
_U+30EC_U+30A4_U+30E4_U+30FC 1
 62
   179
420
  2234388
370
     9
100
AcDbVertex
100
AcDb2dVertex
 10
80.19474767628375
 20
-141.0270441314096
 30
0.0
  0
VERTEX
  5
50
330
4E
100
AcDbEntity
  8
_U+30EC_U+30A4_U+30E4_U+30FC 1
 62
   179
420
  2234388
370
     9
100
AcDbVertex
100
AcDb2dVertex
 10
85.82317586602393
 20
-137.5154588545101
 30
0.0
  0
VERTEX
  5
51
330
4E
100
AcDbEntity
  8
_U+30EC_U+30A4_U+30E4_U+30FC 1
 62
   179
420
  2234388
370
     9
100
AcDbVertex
100
AcDb2dVertex
 10
86.59283331168514
 20
-137.6601682989184
 30
0.0
  0
SEQEND
  5
52
330
4E
100
AcDbEntity
  8
_U+30EC_U+30A4_U+30E4_U+30FC 1
 62
   179
420
  2234388
370
     9
  0
SPLINE
  5
53
330
41
100
AcDbEntity
  8
_U+30EC_U+30A4_U+30E4_U+30FC 1
 62
   179
420
  2234388
370
     9
100
AcDbSpline
210
0.0
220
0.0
230
1.0
 70
     8
 71
     3
 72
    17
 73
    13
 74
     0
 42
0.0000000001
 43
0.0000000001
 12
1.0
 22
0.0
 32
0.0
 13
1.0
 23
0.0
 33
0.0
 40
0.0
 40
0.0
 40
0.0
 40
0.0
 40
1.0
 40
1.0
 40
1.0
 40
2.0
 40
2.0
 40
2.0
 40
3.0
 40
3.0
 40
3.0
 40
4.0
 40
4.0
 40
4.0
 40
4.0
 10
92.22108292502195
 20
-134.0038735776099
 30
0.0
 10
92.22108292502195
 20
-134.0038735776099
 30
0.0
 10
97.94613694563031
 20
-130.5884202451305
 30
0.0
 10
97.94613694563031
 20
-130.5884202451305
 30
0.0
 10
97.94613694563031
 20
-130.5884202451305
 30
0.0
 10
98.28307499258986
 20
-131.021102189467
 30
0.0
 10
98.9562455309714
 20
-130.5401955229206
 30
0.0
 10
98.9562455309714
 20
-130.5401955229206
 30
0.0
 10
100.5919702114628
 20
-129.5783116342722
 30
0.0
 10
100.5919702114628
 20
-129.5783116342722
 30
0.0
 10
100.5919702114628
 20
-129.5783116342722
 30
0.0
 10
100.7800713177751
 20
-129.4825324676292
 30
0.0
 10
100.7800713177751
 20
-128.7604316344766
 30
0.0
  0
POLYLINE
  5
54
330
41
100
AcDbEntity
  8
_U+30EC_U+30A4_U+30E4_U+30FC 1
 62
   179
420
  2234388
370
     9
100
AcDb2dPolyline
 66
     1
 10
0.0
 20
0.0
 30
0.0
  0
VERTEX
  5
55
330
54
100
AcDbEntity
  8
_U+30EC_U+30A4_U+30E4_U+30FC 1
 62
   179
420
  2234388
370
     9
100
AcDbVertex
100
AcDb2dVertex
 10
98.4270788778049
 20
-130.2514821896594
 30
0.0
  0
VERTEX
  5
56
330
54
100
AcDbEntity
  8
_U+30EC_U+30A4_U+30E4_U+30FC 1
 62
   179
420
  2234388
370
     9
100
AcDbVertex
100
AcDb2dVertex
 10
98.4270788778049
 20
-130.7330944117613
 30
0.0
  0
SEQEND
  5
57
330
54
100
AcDbEntity
  8
_U+30EC_U+30A4_U+30E4_U+30FC 1
 62
   179
420
  2234388
370
     9
  0
POLYLINE
  5
58
330
41
100
AcDbEntity
  8
_U+30EC_U+30A4_U+30E4_U+30FC 1
 62
   179
420
  2234388
370
     9
100
AcDb2dPolyline
 66
     1
 10
0.0
 20
0.0
 30
0.0
  0
VERTEX
  5
59
330
58
100
AcDbEntity
  8
_U+30EC_U+30A4_U+30E4_U+30FC 1
 62
   179
420
  2234388
370
     9
100
AcDbVertex
100
AcDb2dVertex
 10
77.93375967841081
 20
-142.4226682977278
 30
0.0
  0
VERTEX
  5
5A
330
58
100
AcDbEntity
  8
_U+30EC_U+30A4_U+30E4_U+30FC 1
 62
   179
420
  2234388
370
     9
100
AcDbVertex
100
AcDb2dVertex
 10
77.93375967841081
 20
-142.9036102420517
 30
0.0
  0
SEQEND
  5
5B
330
58
100
AcDbEntity
  8
_U+30EC_U+30A4_U+30E4_U+30FC 1
 62
   179
420
  2234388
370
     9
  0
SPLINE
  5
5C
330
41
100
AcDbEntity
  8
_U+30EC_U+30A4_U+30E4_U+30FC 1
 62
   179
420
  2234388
370
     9
100
AcDbSpline
210
0.0
220
0.0
230
1.0
 70
     8
 71
     3
 72
    44
 73
    40
 74
     0
 42
0.0000000001
 43
0.0000000001
 12
1.0
 22
0.0
 32
0.0
 13
1.0
 23
0.0
 33
0.0
 40
0.0
 40
0.0
 40
0.0
 40
0.0
 40
1.0
 40
1.0
 40
1.0
 40
2.0
 40
2.0
 40
2.0
 40
3.0
 40
3.0
 40
3.0
 40
4.0
 40
4.0
 40
4.0
 40
5.0
 40
5.0
 40
5.0
 40
6.0
 40
6.0
 40
6.0
 40
7.0
 40
7.0
 40
7.0
 40
8.0
 40
8.0
 40
8.0
 40
9.0
 40
9.0
 40
9.0
 40
10.0
 40
10.0
 40
10.0
 40
11.0
 40
11.0
 40
11.0
 40
12.0
 40
12.0
 40
12.0
 40
13.0
 40
13.0
 40
13.0
 40
13.0
 10
98.18659027282916
 20
-127.0286102460207
 30
0.0
 10
98.18659027282916
 20
-127.0286102460207
 30
0.0
 10
100.5437454904709
 20
-128.3756216345729
 30
0.0
 10
100.5437454904709
 20
-128.3756216345729
 30
0.0
 10
100.5437454904709
 20
-128.3756216345729
 30
0.0
 10
101.0729121436374
 20
-128.8086916344647
 30
0.0
 10
100.5919702114628
 20
-129.0491449677378
 30
0.0
 10
100.5919702114628
 20
-129.0491449677378
 30
0.0
 10
99.00447025196331
 20
-129.9634744119537
 30
0.0
 10
99.00447025196331
 20
-129.9634744119537
 30
0.0
 10
99.00447025196331
 20
-129.9634744119537
 30
0.0
 10
98.1862374950604
 20
-130.3479316340797
 30
0.0
 10
97.8979122246384
 20
-130.0592535785961
 30
0.0
 10
97.8979122246384
 20
-130.0592535785961
 30
0.0
 10
96.93567558252045
 20
-129.2413735788005
 30
0.0
 10
96.02169893917126
 20
-129.6265363564821
 30
0.0
 10
96.02169893917126
 20
-129.6265363564821
 30
0.0
 10
91.4996523878716
 20
-132.3681488557969
 30
0.0
 10
91.4996523878716
 20
-132.3681488557969
 30
0.0
 10
91.4996523878716
 20
-132.3681488557969
 30
0.0
 10
90.10459270124034
 20
-132.8497610778988
 30
0.0
 10
92.17317570402193
 20
-133.8116449665472
 30
0.0
 10
92.17317570402193
 20
-133.8116449665472
 30
0.0
 10
86.54474751428177
 20
-137.2270982990266
 30
0.0
 10
86.54474751428177
 20
-137.2270982990266
 30
0.0
 10
86.54474751428177
 20
-137.2270982990266
 30
0.0
 10
85.6307708709326
 20
-136.7944163546901
 30
0.0
 10
85.6307708709326
 20
-136.7944163546901
 30
0.0
 10
85.6307708709326
 20
-136.7944163546901
 30
0.0
 10
84.76466617080654
 20
-136.3134744103662
 30
0.0
 10
84.18745118553252
 20
-136.6021877436274
 30
0.0
 10
84.18745118553252
 20
-136.6021877436274
 30
0.0
 10
79.61735831342897
 20
-139.3434474651639
 30
0.0
 10
79.61735831342897
 20
-139.3434474651639
 30
0.0
 10
79.61735831342897
 20
-139.3434474651639
 30
0.0
 10
78.46274994269292
 20
-139.7286102428454
 30
0.0
 10
79.42495130703401
 20
-140.4978774648752
 30
0.0
 10
79.42495130703401
 20
-140.4978774648752
 30
0.0
 10
80.19474767628375
 20
-141.0270441314096
 30
0.0
 10
80.19474767628375
 20
-141.0270441314096
 30
0.0
  0
POLYLINE
  5
5D
330
41
100
AcDbEntity
  8
_U+30EC_U+30A4_U+30E4_U+30FC 1
 62
   179
420
  2234388
370
     9
100
AcDb2dPolyline
 66
     1
 10
0.0
 20
0.0
 30
0.0
  0
VERTEX
  5
5E
330
5D
100
AcDbEntity
  8
_U+30EC_U+30A4_U+30E4_U+30FC 1
 62
   179
420
  2234388
370
     9
100
AcDbVertex
100
AcDb2dVertex
 10
91.88449997702857
 20
-133.6194163554839
 30
0.0
  0
VERTEX
  5
5F
330
5D
100
AcDbEntity
  8
_U+30EC_U+30A4_U+30E4_U+30FC 1
 62
   179
420
  2234388
370
     9
100
AcDbVertex
100
AcDb2dVertex
 10
97.75355556165458
 20
-129.9634744119537
 30
0.0
  0
SEQEND
  5
60
330
5D
100
AcDbEntity
  8
_U+30EC_U+30A4_U+30E4_U+30FC 1
 62
   179
420
  2234388
370
     9
  0
POLYLINE
  5
61
330
41
100
AcDbEntity
  8
_U+30EC_U+30A4_U+30E4_U+30FC 1
 62
   179
420
  2234388
370
     9
100
AcDb2dPolyline
 66
     1
 10
0.0
 20
0.0
 30
0.0
  0
VERTEX
  5
62
330
61
100
AcDbEntity
  8
_U+30EC_U+30A4_U+30E4_U+30FC 1
 62
   179
420
  2234388
370
     9
100
AcDbVertex
100
AcDb2dVertex
 10
79.906069628093
 20
-140.6901060759386
 30
0.0
  0
VERTEX
  5
63
330
61
100
AcDbEntity
  8
_U+30EC_U+30A4_U+30E4_U+30FC 1
 62
   179
420
  2234388
370
     9
100
AcDbVertex
100
AcDb2dVertex
 10
85.58254614994068
 20
-137.2270982990266
 30
0.0
  0
VERTEX
  5
64
330
61
100
AcDbEntity
  8
_U+30EC_U+30A4_U+30E4_U+30FC 1
 62
   179
420
  2234388
370
     9
100
AcDbVertex
100
AcDb2dVertex
 10
86.54474751428177
 20
-137.2270982990266
 30
0.0
  0
SEQEND
  5
65
330
61
100
AcDbEntity
  8
_U+30EC_U+30A4_U+30E4_U+30FC 1
 62
   179
420
  2234388
370
     9
  0
SPLINE
  5
66
330
41
100
AcDbEntity
  8
_U+30EC_U+30A4_U+30E4_U+30FC 1
 62
   179
420
  2234388
370
     9
100
AcDbSpline
210
0.0
220
0.0
230
1.0
 70
    11
 71
     3
 72
    23
 73
    19
 74
     0
 42
0.0000000001
 43
0.0000000001
 12
1.0
 22
0.0
 32
0.0
 13
1.0
 23
0.0
 33
0.0
 40
0.0
 40
0.0
 40
0.0
 40
0.0
 40
1.0
 40
1.0
 40
1.0
 40
2.0
 40
2.0
 40
2.0
 40
3.0
 40
3.0
 40
3.0
 40
4.0
 40
4.0
 40
4.0
 40
5.0
 40
5.0
 40
5.0
 40
6.0
 40
6.0
 40
6.0
 40
6.0
 10
77.30828469436801
 20
-135.1586916328772
 30
0.0
 10
77.30828469436801
 20
-135.1586916328772
 30
0.0
 10
96.31041226513891
 20
-124.1422883022979
 30
0.0
 10
96.31041226513891
 20
-124.1422883022979
 30
0.0
 10
96.31041226513891
 20
-124.1422883022979
 30
0.0
 10
96.74309419854471
 20
-123.8053502468265
 30
0.0
 10
96.79131891953662
 20
-124.3345169133609
 30
0.0
 10
96.79131891953662
 20
-124.3345169133609
 30
0.0
 10
96.64664719806083
 20
-124.6711021910545
 30
0.0
 10
96.31041226513891
 20
-124.8636835798952
 30
0.0
 10
96.31041226513891
 20
-124.8636835798952
 30
0.0
 10
77.06783331406639
 20
-135.9765363548946
 30
0.0
 10
77.06783331406639
 20
-135.9765363548946
 30
0.0
 10
77.06783331406639
 20
-135.9765363548946
 30
0.0
 10
76.34608333002693
 20
-136.2170249659459
 30
0.0
 10
76.77911804120151
 20
-135.4955944105707
 30
0.0
 10
76.77911804120151
 20
-135.4955944105707
 30
0.0
 10
77.06765497828476
 20
-135.2062107995315
 30
0.0
 10
77.30828469436801
 20
-135.1586916328772
 30
0.0
  0
INSERT
  5
68
330
41
100
AcDbEntity
  8
_U+30EC_U+30A4_U+30E4_U+30FC 1
100
AcDbBlockReference
  2
block 3
 10
0.0
 20
0.0
 30
0.0
  0
INSERT
  5
6F
330
41
100
AcDbEntity
  8
_U+30EC_U+30A4_U+30E4_U+30FC 1
100
AcDbBlockReference
  2
block 4
 10
0.0
 20
0.0
 30
0.0
  0
POLYLINE
  5
75
330
41
100
AcDbEntity
  8
_U+30EC_U+30A4_U+30E4_U+30FC 1
 62
   179
420
  2234388
370
     9
100
AcDb2dPolyline
 66
     1
 10
0.0
 20
0.0
 30
0.0
  0
VERTEX
  5
76
330
75
100
AcDbEntity
  8
_U+30EC_U+30A4_U+30E4_U+30FC 1
 62
   179
420
  2234388
370
     9
100
AcDbVertex
100
AcDb2dVertex
 10
81.35249375785831
 20
-130.0351235786021
 30
0.0
  0
VERTEX
  5
77
330
75
100
AcDbEntity
  8
_U+30EC_U+30A4_U+30E4_U+30FC 1
 62
   179
420
  2234388
370
     9
100
AcDbVertex
100
AcDb2dVertex
 10
81.05845553529092
 20
-129.3888346898753
 30
0.0
  0
VERTEX
  5
78
330
75
100
AcDbEntity
  8
_U+30EC_U+30A4_U+30E4_U+30FC 1
 62
   179
420
  2234388
370
     9
100
AcDbVertex
100
AcDb2dVertex
 10
80.76459164647564
 20
-130.447168022944
 30
0.0
  0
VERTEX
  5
79
330
75
100
AcDbEntity
  8
_U+30EC_U+30A4_U+30E4_U+30FC 1
 62
   179
420
  2234388
370
     9
100
AcDbVertex
100
AcDb2dVertex
 10
81.88166041102481
 20
-129.9765624675059
 30
0.0
  0
VERTEX
  5
7A
330
75
100
AcDbEntity
  8
_U+30EC_U+30A4_U+30E4_U+30FC 1
 62
   179
420
  2234388
370
     9
100
AcDbVertex
100
AcDb2dVertex
 10
81.35249375785831
 20
-130.0351235786021
 30
0.0
  0
SEQEND
  5
7C
330
75
100
AcDbEntity
  8
_U+30EC_U+30A4_U+30E4_U+30FC 1
 62
   179
420
  2234388
370
     9
  0
HATCH
  5
7B
330
41
100
AcDbEntity
  8
_U+30EC_U+30A4_U+30E4_U+30FC 1
 62
   179
420
  2234388
100
AcDbHatch
 10
0.0
 20
0.0
 30
0.0
210
0.0
220
0.0
230
1.0
  2
SOLID
 70
     1
 71
     0
 91
        1
 92
        1
 93
        4
 72
     1
 10
81.35249375785831
 20
-130.0351235786021
 11
81.05845553529092
 21
-129.3888346898753
 72
     1
 10
81.05845553529092
 20
-129.3888346898753
 11
80.76459164647564
 21
-130.447168022944
 72
     1
 10
80.76459164647564
 20
-130.447168022944
 11
81.88166041102481
 21
-129.9765624675059
 72
     1
 10
81.88166041102481
 20
-129.9765624675059
 11
81.35249375785831
 21
-130.0351235786021
 97
        0
 75
     2
 76
     1
 98
        0
  0
POLYLINE
  5
7D
330
41
100
AcDbEntity
  8
_U+30EC_U+30A4_U+30E4_U+30FC 1
 62
   179
420
  2234388
370
     9
100
AcDb2dPolyline
 66
     1
 10
0.0
 20
0.0
 30
0.0
  0
VERTEX
  5
7E
330
7D
100
AcDbEntity
  8
_U+30EC_U+30A4_U+30E4_U+30FC 1
 62
   179
420
  2234388
370
     9
100
AcDbVertex
100
AcDb2dVertex
 10
81.35249375785831
 20
-130.0351235786021
 30
0.0
  0
VERTEX
  5
7F
330
7D
100
AcDbEntity
  8
_U+30EC_U+30A4_U+30E4_U+30FC 1
 62
   179
420
  2234388
370
     9
100
AcDbVertex
100
AcDb2dVertex
 10
83.23403609030271
 20
-127.8009819124941
 30
0.0
  0
SEQEND
  5
80
330
7D
100
AcDbEntity
  8
_U+30EC_U+30A4_U+30E4_U+30FC 1
 62
   179
420
  2234388
370
     9
  0
POLYLINE
  5
81
330
41
100
AcDbEntity
  8
_U+30EC_U+30A4_U+30E4_U+30FC 1
 62
   179
420
  2234388
370
     9
100
AcDb2dPolyline
 66
     1
 10
0.0
 20
0.0
 30
0.0
  0
VERTEX
  5
82
330
81
100
AcDbEntity
  8
_U+30EC_U+30A4_U+30E4_U+30FC 1
 62
   179
420
  2234388
370
     9
100
AcDbVertex
100
AcDb2dVertex
 10
79.2358271451923
 20
-143.4403263530291
 30
0.0
  0
VERTEX
  5
83
330
81
100
AcDbEntity
  8
_U+30EC_U+30A4_U+30E4_U+30FC 1
 62
   179
420
  2234388
370
     9
100
AcDbVertex
100
AcDb2dVertex
 10
81.82292497954438
 20
-144.6750485749427
 30
0.0
  0
SEQEND
  5
84
330
81
100
AcDbEntity
  8
_U+30EC_U+30A4_U+30E4_U+30FC 1
 62
   179
420
  2234388
370
     9
  0
POLYLINE
  5
85
330
41
100
AcDbEntity
  8
_U+30EC_U+30A4_U+30E4_U+30FC 1
 62
   179
420
  2234388
370
     9
100
AcDb2dPolyline
 66
     1
 10
0.0
 20
0.0
 30
0.0
  0
VERTEX
  5
86
330
85
100
AcDbEntity
  8
_U+30EC_U+30A4_U+30E4_U+30FC 1
 62
   179
420
  2234388
370
     9
100
AcDbVertex
100
AcDb2dVertex
 10
80.70567775760134
 20
-144.20514857506
 30
0.0
  0
VERTEX
  5
87
330
85
100
AcDbEntity
  8
_U+30EC_U+30A4_U+30E4_U+30FC 1
 62
   179
420
  2234388
370
     9
100
AcDbVertex
100
AcDb2dVertex
 10
90.52471574607765
 20
-138.0900985765885
 30
0.0
  0
SEQEND
  5
88
330
85
100
AcDbEntity
  8
_U+30EC_U+30A4_U+30E4_U+30FC 1
 62
   179
420
  2234388
370
     9
  0
POLYLINE
  5
89
330
41
100
AcDbEntity
  8
_U+30EC_U+30A4_U+30E4_U+30FC 1
 62
   179
420
  2234388
370
     9
100
AcDb2dPolyline
 66
     1
 10
0.0
 20
0.0
 30
0.0
  0
VERTEX
  5
8A
330
89
100
AcDbEntity
  8
_U+30EC_U+30A4_U+30E4_U+30FC 1
 62
   179
420
  2234388
370
     9
100
AcDbVertex
100
AcDb2dVertex
 10
93.93466565908258
 20
-136.032345799325
 30
0.0
  0
VERTEX
  5
8B
330
89
100
AcDbEntity
  8
_U+30EC_U+30A4_U+30E4_U+30FC 1
 62
   179
420
  2234388
370
     9
100
AcDbVertex
100
AcDb2dVertex
 10
103.6360543004684
 20
-130.1529513563507
 30
0.0
  0
SEQEND
  5
8C
330
89
100
AcDbEntity
  8
_U+30EC_U+30A4_U+30E4_U+30FC 1
 62
   179
420
  2234388
370
     9
  0
POLYLINE
  5
8D
330
41
100
AcDbEntity
  8
_U+30EC_U+30A4_U+30E4_U+30FC 1
 62
   179
420
  2234388
370
     9
100
AcDb2dPolyline
 66
     1
 10
0.0
 20
0.0
 30
0.0
  0
VERTEX
  5
8E
330
8D
100
AcDbEntity
  8
_U+30EC_U+30A4_U+30E4_U+30FC 1
 62
   179
420
  2234388
370
     9
100
AcDbVertex
100
AcDb2dVertex
 10
102.1078210061236
 20
-129.3888346898753
 30
0.0
  0
VERTEX
  5
8F
330
8D
100
AcDbEntity
  8
_U+30EC_U+30A4_U+30E4_U+30FC 1
 62
   179
420
  2234388
370
     9
100
AcDbVertex
100
AcDb2dVertex
 10
104.8122153815732
 20
-130.6235569117888
 30
0.0
  0
SEQEND
  5
90
330
8D
100
AcDbEntity
  8
_U+30EC_U+30A4_U+30E4_U+30FC 1
 62
   179
420
  2234388
370
     9
  0
POLYLINE
  5
91
330
41
100
AcDbEntity
  8
_U+30EC_U+30A4_U+30E4_U+30FC 1
 62
   179
420
  2234388
370
     9
100
AcDb2dPolyline
 66
     1
 10
0.0
 20
0.0
 30
0.0
  0
VERTEX
  5
92
330
91
100
AcDbEntity
  8
_U+30EC_U+30A4_U+30E4_U+30FC 1
 62
   179
420
  2234388
370
     9
100
AcDbVertex
100
AcDb2dVertex
 10
99.40272107513643
 20
-114.8660319157281
 30
0.0
  0
VERTEX
  5
93
330
91
100
AcDbEntity
  8
_U+30EC_U+30A4_U+30E4_U+30FC 1
 62
   179
420
  2234388
370
     9
100
AcDbVertex
100
AcDb2dVertex
 10
103.2832765316908
 20
-112.2787596941524
 30
0.0
  0
SEQEND
  5
94
330
91
100
AcDbEntity
  8
_U+30EC_U+30A4_U+30E4_U+30FC 1
 62
   179
420
  2234388
370
     9
  0
POLYLINE
  5
95
330
41
100
AcDbEntity
  8
_U+30EC_U+30A4_U+30E4_U+30FC 1
 62
   179
420
  2234388
370
     9
100
AcDb2dPolyline
 66
     1
 10
0.0
 20
0.0
 30
0.0
  0
VERTEX
  5
96
330
95
100
AcDbEntity
  8
_U+30EC_U+30A4_U+30E4_U+30FC 1
 62
   179
420
  2234388
370
     9
100
AcDbVertex
100
AcDb2dVertex
 10
102.0485543409689
 20
-113.1607041383764
 30
0.0
  0
VERTEX
  5
97
330
95
100
AcDbEntity
  8
_U+30EC_U+30A4_U+30E4_U+30FC 1
 62
   179
420
  2234388
370
     9
100
AcDbVertex
100
AcDb2dVertex
 10
102.0485543409689
 20
-117.5704263594962
 30
0.0
  0
SEQEND
  5
98
330
95
100
AcDbEntity
  8
_U+30EC_U+30A4_U+30E4_U+30FC 1
 62
   179
420
  2234388
370
     9
  0
POLYLINE
  5
99
330
41
100
AcDbEntity
  8
_U+30EC_U+30A4_U+30E4_U+30FC 1
 62
   179
420
  2234388
370
     9
100
AcDb2dPolyline
 66
     1
 10
0.0
 20
0.0
 30
0.0
  0
VERTEX
  5
9A
330
99
100
AcDbEntity
  8
_U+30EC_U+30A4_U+30E4_U+30FC 1
 62
   179
420
  2234388
370
     9
100
AcDbVertex
100
AcDb2dVertex
 10
99.6383766246799
 20
-126.6837346905513
 30
0.0
  0
VERTEX
  5
9B
330
99
100
AcDbEntity
  8
_U+30EC_U+30A4_U+30E4_U+30FC 1
 62
   179
420
  2234388
370
     9
100
AcDbVertex
100
AcDb2dVertex
 10
103.2247154220737
 20
-124.2142902467243
 30
0.0
  0
SEQEND
  5
9C
330
99
100
AcDbEntity
  8
_U+30EC_U+30A4_U+30E4_U+30FC 1
 62
   179
420
  2234388
370
     9
  0
POLYLINE
  5
9D
330
41
100
AcDbEntity
  8
_U+30EC_U+30A4_U+30E4_U+30FC 1
 62
   179
420
  2234388
370
     9
100
AcDb2dPolyline
 66
     1
 10
0.0
 20
0.0
 30
0.0
  0
VERTEX
  5
9E
330
9D
100
AcDbEntity
  8
_U+30EC_U+30A4_U+30E4_U+30FC 1
 62
   179
420
  2234388
370
     9
100
AcDbVertex
100
AcDb2dVertex
 10
102.1078210061236
 20
-120.863254136451
 30
0.0
  0
VERTEX
  5
9F
330
9D
100
AcDbEntity
  8
_U+30EC_U+30A4_U+30E4_U+30FC 1
 62
   179
420
  2234388
370
     9
100
AcDbVertex
100
AcDb2dVertex
 10
102.0485543409689
 20
-124.9787596909774
 30
0.0
  0
VERTEX
  5
A0
330
9D
100
AcDbEntity
  8
_U+30EC_U+30A4_U+30E4_U+30FC 1
 62
   179
420
  2234388
370
     9
100
AcDbVertex
100
AcDb2dVertex
 10
104.5179987224126
 20
-126.213481912891
 30
0.0
  0
SEQEND
  5
A1
330
9D
100
AcDbEntity
  8
_U+30EC_U+30A4_U+30E4_U+30FC 1
 62
   179
420
  2234388
370
     9
  0
POLYLINE
  5
A2
330
41
100
AcDbEntity
  8
_U+30EC_U+30A4_U+30E4_U+30FC 1
 62
   179
420
  2234388
370
     9
100
AcDb2dPolyline
 66
     1
 10
0.0
 20
0.0
 30
0.0
  0
VERTEX
  5
A3
330
A2
100
AcDbEntity
  8
_U+30EC_U+30A4_U+30E4_U+30FC 1
 62
   179
420
  2234388
370
     9
100
AcDbVertex
100
AcDb2dVertex
 10
102.4605987749012
 20
-127.8598958013684
 30
0.0
  0
VERTEX
  5
A4
330
A2
100
AcDbEntity
  8
_U+30EC_U+30A4_U+30E4_U+30FC 1
 62
   179
420
  2234388
370
     9
100
AcDbVertex
100
AcDb2dVertex
 10
105.7527209131344
 20
-125.6254013574826
 30
0.0
  0
SEQEND
  5
A5
330
A2
100
AcDbEntity
  8
_U+30EC_U+30A4_U+30E4_U+30FC 1
 62
   179
420
  2234388
370
     9
  0
SPLINE
  5
A6
330
41
100
AcDbEntity
  8
_U+30EC_U+30A4_U+30E4_U+30FC 1
370
     0
100
AcDbSpline
210
0.0
220
0.0
230
1.0
 70
    11
 71
     3
 72
    17
 73
    13
 74
     0
 42
0.0000000001
 43
0.0000000001
 12
1.0
 22
0.0
 32
0.0
 13
1.0
 23
0.0
 33
0.0
 40
0.0
 40
0.0
 40
0.0
 40
0.0
 40
1.0
 40
1.0
 40
1.0
 40
2.0
 40
2.0
 40
2.0
 40
3.0
 40
3.0
 40
3.0
 40
4.0
 40
4.0
 40
4.0
 40
4.0
 10
102.2897132237053
 20
-113.1048946939459
 30
0.0
 10
102.2897132237053
 20
-113.2365160828018
 30
0.0
 10
102.1832448930882
 20
-113.3429491383308
 30
0.0
 10
102.0516587853342
 20
-113.3429491383308
 30
0.0
 10
101.920390177572
 20
-113.3429491383308
 30
0.0
 10
101.813604346963
 20
-113.2365160828018
 30
0.0
 10
101.813604346963
 20
-113.1048946939459
 30
0.0
 10
101.813604346963
 20
-112.9733085828679
 30
0.0
 10
101.920390177572
 20
-112.8664874717833
 30
0.0
 10
102.0516587853342
 20
-112.8664874717833
 30
0.0
 10
102.1832448930882
 20
-112.8664874717833
 30
0.0
 10
102.2897132237053
 20
-112.9733085828679
 30
0.0
 10
102.2897132237053
 20
-113.1048946939459
 30
0.0
  0
HATCH
  5
A7
330
41
100
AcDbEntity
  8
_U+30EC_U+30A4_U+30E4_U+30FC 1
 62
   179
420
  2234388
100
AcDbHatch
 10
0.0
 20
0.0
 30
0.0
210
0.0
220
0.0
230
1.0
  2
SOLID
 70
     1
 71
     0
 91
        1
 92
        1
 93
        1
 72
     4
 94
        3
 73
     0
 74
     1
 95
       17
 96
       13
 40
0.0
 40
0.0
 40
0.0
 40
0.0
 40
1.0
 40
1.0
 40
1.0
 40
2.0
 40
2.0
 40
2.0
 40
3.0
 40
3.0
 40
3.0
 40
4.0
 40
4.0
 40
4.0
 40
4.0
 10
102.2897132237053
 20
-113.1048946939459
 10
102.2897132237053
 20
-113.2365160828018
 10
102.1832448930882
 20
-113.3429491383308
 10
102.0516587853342
 20
-113.3429491383308
 10
101.920390177572
 20
-113.3429491383308
 10
101.813604346963
 20
-113.2365160828018
 10
101.813604346963
 20
-113.1048946939459
 10
101.813604346963
 20
-112.9733085828679
 10
101.920390177572
 20
-112.8664874717833
 10
102.0516587853342
 20
-112.8664874717833
 10
102.1832448930882
 20
-112.8664874717833
 10
102.2897132237053
 20
-112.9733085828679
 10
102.2897132237053
 20
-113.1048946939459
 97
        0
 97
        0
 75
     2
 76
     1
 98
        0
  0
SPLINE
  5
A8
330
41
100
AcDbEntity
  8
_U+30EC_U+30A4_U+30E4_U+30FC 1
370
     0
100
AcDbSpline
210
0.0
220
0.0
230
1.0
 70
    11
 71
     3
 72
    17
 73
    13
 74
     0
 42
0.0000000001
 43
0.0000000001
 12
1.0
 22
0.0
 32
0.0
 13
1.0
 23
0.0
 33
0.0
 40
0.0
 40
0.0
 40
0.0
 40
0.0
 40
1.0
 40
1.0
 40
1.0
 40
2.0
 40
2.0
 40
2.0
 40
3.0
 40
3.0
 40
3.0
 40
4.0
 40
4.0
 40
4.0
 40
4.0
 10
102.2897132237053
 20
-124.922950246547
 30
0.0
 10
102.2897132237053
 20
-125.0545716354029
 30
0.0
 10
102.1832448930882
 20
-125.1613574687096
 30
0.0
 10
102.0516587853342
 20
-125.1613574687096
 30
0.0
 10
101.920390177572
 20
-125.1613574687096
 30
0.0
 10
101.813604346963
 20
-125.0545716354029
 30
0.0
 10
101.813604346963
 20
-124.922950246547
 30
0.0
 10
101.813604346963
 20
-124.7913641354689
 30
0.0
 10
101.920390177572
 20
-124.6848958021621
 30
0.0
 10
102.0516587853342
 20
-124.6848958021621
 30
0.0
 10
102.1832448930882
 20
-124.6848958021621
 30
0.0
 10
102.2897132237053
 20
-124.7913641354689
 30
0.0
 10
102.2897132237053
 20
-124.922950246547
 30
0.0
  0
HATCH
  5
A9
330
41
100
AcDbEntity
  8
_U+30EC_U+30A4_U+30E4_U+30FC 1
 62
   179
420
  2234388
100
AcDbHatch
 10
0.0
 20
0.0
 30
0.0
210
0.0
220
0.0
230
1.0
  2
SOLID
 70
     1
 71
     0
 91
        1
 92
        1
 93
        1
 72
     4
 94
        3
 73
     0
 74
     1
 95
       17
 96
       13
 40
0.0
 40
0.0
 40
0.0
 40
0.0
 40
1.0
 40
1.0
 40
1.0
 40
2.0
 40
2.0
 40
2.0
 40
3.0
 40
3.0
 40
3.0
 40
4.0
 40
4.0
 40
4.0
 40
4.0
 10
102.2897132237053
 20
-124.922950246547
 10
102.2897132237053
 20
-125.0545716354029
 10
102.1832448930882
 20
-125.1613574687096
 10
102.0516587853342
 20
-125.1613574687096
 10
101.920390177572
 20
-125.1613574687096
 10
101.813604346963
 20
-125.0545716354029
 10
101.813604346963
 20
-124.922950246547
 10
101.813604346963
 20
-124.7913641354689
 10
101.920390177572
 20
-124.6848958021621
 10
102.0516587853342
 20
-124.6848958021621
 10
102.1832448930882
 20
-124.6848958021621
 10
102.2897132237053
 20
-124.7913641354689
 10
102.2897132237053
 20
-124.922950246547
 97
        0
 97
        0
 75
     2
 76
     1
 98
        0
  0
SPLINE
  5
AA
330
41
100
AcDbEntity
  8
_U+30EC_U+30A4_U+30E4_U+30FC 1
370
     0
100
AcDbSpline
210
0.0
220
0.0
230
1.0
 70
    11
 71
     3
 72
    17
 73
    13
 74
     0
 42
0.0000000001
 43
0.0000000001
 12
1.0
 22
0.0
 32
0.0
 13
1.0
 23
0.0
 33
0.0
 40
0.0
 40
0.0
 40
0.0
 40
0.0
 40
1.0
 40
1.0
 40
1.0
 40
2.0
 40
2.0
 40
2.0
 40
3.0
 40
3.0
 40
3.0
 40
4.0
 40
4.0
 40
4.0
 40
4.0
 10
104.9355464895378
 20
-126.2751474684313
 30
0.0
 10
104.9355464895378
 20
-126.4067688572872
 30
0.0
 10
104.8290781589207
 20
-126.5135546905939
 30
0.0
 10
104.6974920511667
 20
-126.5135546905939
 30
0.0
 10
104.5662234434045
 20
-126.5135546905939
 30
0.0
 10
104.4594376127955
 20
-126.4067688572872
 30
0.0
 10
104.4594376127955
 20
-126.2751474684313
 30
0.0
 10
104.4594376127955
 20
-126.1435613573529
 30
0.0
 10
104.5662234434045
 20
-126.0370930240462
 30
0.0
 10
104.6974920511667
 20
-126.0370930240462
 30
0.0
 10
104.8290781589207
 20
-126.0370930240462
 30
0.0
 10
104.9355464895378
 20
-126.1435613573529
 30
0.0
 10
104.9355464895378
 20
-126.2751474684313
 30
0.0
  0
HATCH
  5
AB
330
41
100
AcDbEntity
  8
_U+30EC_U+30A4_U+30E4_U+30FC 1
 62
   179
420
  2234388
100
AcDbHatch
 10
0.0
 20
0.0
 30
0.0
210
0.0
220
0.0
230
1.0
  2
SOLID
 70
     1
 71
     0
 91
        1
 92
        1
 93
        1
 72
     4
 94
        3
 73
     0
 74
     1
 95
       17
 96
       13
 40
0.0
 40
0.0
 40
0.0
 40
0.0
 40
1.0
 40
1.0
 40
1.0
 40
2.0
 40
2.0
 40
2.0
 40
3.0
 40
3.0
 40
3.0
 40
4.0
 40
4.0
 40
4.0
 40
4.0
 10
104.9355464895378
 20
-126.2751474684313
 10
104.9355464895378
 20
-126.4067688572872
 10
104.8290781589207
 20
-126.5135546905939
 10
104.6974920511667
 20
-126.5135546905939
 10
104.5662234434045
 20
-126.5135546905939
 10
104.4594376127955
 20
-126.4067688572872
 10
104.4594376127955
 20
-126.2751474684313
 10
104.4594376127955
 20
-126.1435613573529
 10
104.5662234434045
 20
-126.0370930240462
 10
104.6974920511667
 20
-126.0370930240462
 10
104.8290781589207
 20
-126.0370930240462
 10
104.9355464895378
 20
-126.1435613573529
 10
104.9355464895378
 20
-126.2751474684313
 97
        0
 97
        0
 75
     2
 76
     1
 98
        0
  0
SPLINE
  5
AC
330
41
100
AcDbEntity
  8
_U+30EC_U+30A4_U+30E4_U+30FC 1
370
     0
100
AcDbSpline
210
0.0
220
0.0
230
1.0
 70
    11
 71
     3
 72
    17
 73
    13
 74
     0
 42
0.0000000001
 43
0.0000000001
 12
1.0
 22
0.0
 32
0.0
 13
1.0
 23
0.0
 33
0.0
 40
0.0
 40
0.0
 40
0.0
 40
0.0
 40
1.0
 40
1.0
 40
1.0
 40
2.0
 40
2.0
 40
2.0
 40
3.0
 40
3.0
 40
3.0
 40
4.0
 40
4.0
 40
4.0
 40
4.0
 10
103.8772131832048
 20
-130.1557030230164
 30
0.0
 10
103.8772131832048
 20
-130.2873244118726
 30
0.0
 10
103.7707448525877
 20
-130.3941102451793
 30
0.0
 10
103.6391587448337
 20
-130.3941102451793
 30
0.0
 10
103.5078901370715
 20
-130.3941102451793
 30
0.0
 10
103.4011043064625
 20
-130.2873244118726
 30
0.0
 10
103.4011043064625
 20
-130.1557030230164
 30
0.0
 10
103.4011043064625
 20
-130.0241169119384
 30
0.0
 10
103.5078901370715
 20
-129.9180013564097
 30
0.0
 10
103.6391587448337
 20
-129.9180013564097
 30
0.0
 10
103.7707448525877
 20
-129.9180013564097
 30
0.0
 10
103.8772131832048
 20
-130.0241169119384
 30
0.0
 10
103.8772131832048
 20
-130.1557030230164
 30
0.0
  0
HATCH
  5
AD
330
41
100
AcDbEntity
  8
_U+30EC_U+30A4_U+30E4_U+30FC 1
 62
   179
420
  2234388
100
AcDbHatch
 10
0.0
 20
0.0
 30
0.0
210
0.0
220
0.0
230
1.0
  2
SOLID
 70
     1
 71
     0
 91
        1
 92
        1
 93
        1
 72
     4
 94
        3
 73
     0
 74
     1
 95
       17
 96
       13
 40
0.0
 40
0.0
 40
0.0
 40
0.0
 40
1.0
 40
1.0
 40
1.0
 40
2.0
 40
2.0
 40
2.0
 40
3.0
 40
3.0
 40
3.0
 40
4.0
 40
4.0
 40
4.0
 40
4.0
 10
103.8772131832048
 20
-130.1557030230164
 10
103.8772131832048
 20
-130.2873244118726
 10
103.7707448525877
 20
-130.3941102451793
 10
103.6391587448337
 20
-130.3941102451793
 10
103.5078901370715
 20
-130.3941102451793
 10
103.4011043064625
 20
-130.2873244118726
 10
103.4011043064625
 20
-130.1557030230164
 10
103.4011043064625
 20
-130.0241169119384
 10
103.5078901370715
 20
-129.9180013564097
 10
103.6391587448337
 20
-129.9180013564097
 10
103.7707448525877
 20
-129.9180013564097
 10
103.8772131832048
 20
-130.0241169119384
 10
103.8772131832048
 20
-130.1557030230164
 97
        0
 97
        0
 75
     2
 76
     1
 98
        0
  0
SPLINE
  5
AE
330
41
100
AcDbEntity
  8
_U+30EC_U+30A4_U+30E4_U+30FC 1
370
     0
100
AcDbSpline
210
0.0
220
0.0
230
1.0
 70
    11
 71
     3
 72
    17
 73
    13
 74
     0
 42
0.0000000001
 43
0.0000000001
 12
1.0
 22
0.0
 32
0.0
 13
1.0
 23
0.0
 33
0.0
 40
0.0
 40
0.0
 40
0.0
 40
0.0
 40
1.0
 40
1.0
 40
1.0
 40
2.0
 40
2.0
 40
2.0
 40
3.0
 40
3.0
 40
3.0
 40
4.0
 40
4.0
 40
4.0
 40
4.0
 10
80.94683460154087
 20
-144.0900724639772
 30
0.0
 10
80.94683460154087
 20
-144.2216938528334
 30
0.0
 10
80.84018988203938
 20
-144.3284796861401
 30
0.0
 10
80.70860377428531
 20
-144.3284796861401
 30
0.0
 10
80.57715877763876
 20
-144.3284796861401
 30
0.0
 10
80.47054933591414
 20
-144.2216938528334
 30
0.0
 10
80.47054933591414
 20
-144.0900724639772
 30
0.0
 10
80.47054933591414
 20
-143.9584863528991
 30
0.0
 10
80.57715877763876
 20
-143.8523707973704
 30
0.0
 10
80.70860377428531
 20
-143.8523707973704
 30
0.0
 10
80.84018988203938
 20
-143.8523707973704
 30
0.0
 10
80.94683460154087
 20
-143.9584863528991
 30
0.0
 10
80.94683460154087
 20
-144.0900724639772
 30
0.0
  0
HATCH
  5
AF
330
41
100
AcDbEntity
  8
_U+30EC_U+30A4_U+30E4_U+30FC 1
 62
   179
420
  2234388
100
AcDbHatch
 10
0.0
 20
0.0
 30
0.0
210
0.0
220
0.0
230
1.0
  2
SOLID
 70
     1
 71
     0
 91
        1
 92
        1
 93
        1
 72
     4
 94
        3
 73
     0
 74
     1
 95
       17
 96
       13
 40
0.0
 40
0.0
 40
0.0
 40
0.0
 40
1.0
 40
1.0
 40
1.0
 40
2.0
 40
2.0
 40
2.0
 40
3.0
 40
3.0
 40
3.0
 40
4.0
 40
4.0
 40
4.0
 40
4.0
 10
80.94683460154087
 20
-144.0900724639772
 10
80.94683460154087
 20
-144.2216938528334
 10
80.84018988203938
 20
-144.3284796861401
 10
80.70860377428531
 20
-144.3284796861401
 10
80.57715877763876
 20
-144.3284796861401
 10
80.47054933591414
 20
-144.2216938528334
 10
80.47054933591414
 20
-144.0900724639772
 10
80.47054933591414
 20
-143.9584863528991
 10
80.57715877763876
 20
-143.8523707973704
 10
80.70860377428531
 20
-143.8523707973704
 10
80.84018988203938
 20
-143.8523707973704
 10
80.94683460154087
 20
-143.9584863528991
 10
80.94683460154087
 20
-144.0900724639772
 97
        0
 97
        0
 75
     2
 76
     1
 98
        0
  0
INSERT
  5
B1
330
41
100
AcDbEntity
  8
_U+30EC_U+30A4_U+30E4_U+30FC 1
100
AcDbBlockReference
  2
block 5
 10
0.0
 20
0.0
 30
0.0
  0
INSERT
  5
D8
330
41
100
AcDbEntity
  8
_U+30EC_U+30A4_U+30E4_U+30FC 1
100
AcDbBlockReference
  2
block 6
 10
0.0
 20
0.0
 30
0.0
  0
INSERT
  5
E3
330
41
100
AcDbEntity
  8
_U+30EC_U+30A4_U+30E4_U+30FC 1
100
AcDbBlockReference
  2
block 7
 10
0.0
 20
0.0
 30
0.0
  0
INSERT
  5
EB
330
41
100
AcDbEntity
  8
_U+30EC_U+30A4_U+30E4_U+30FC 1
100
AcDbBlockReference
  2
block 8
 10
0.0
 20
0.0
 30
0.0
  0
ENDBLK
  5
44
330
41
100
AcDbEntity
  8
0
100
AcDbBlockEnd
  0
BLOCK
  5
69
330
67
100
AcDbEntity
  8
0
100
AcDbBlockBegin
  2
block 3
 70
     0
 10
0.0
 20
0.0
 30
0.0
  3
block 3
  1

  0
SPLINE
  5
6B
330
67
100
AcDbEntity
  8
_U+30EC_U+30A4_U+30E4_U+30FC 1
 62
   179
420
  2234388
370
     9
100
AcDbSpline
210
0.0
220
0.0
230
1.0
 70
    11
 71
     3
 72
    17
 73
    13
 74
     0
 42
0.0000000001
 43
0.0000000001
 12
1.0
 22
0.0
 32
0.0
 13
1.0
 23
0.0
 33
0.0
 40
0.0
 40
0.0
 40
0.0
 40
0.0
 40
1.0
 40
1.0
 40
1.0
 40
2.0
 40
2.0
 40
2.0
 40
3.0
 40
3.0
 40
3.0
 40
4.0
 40
4.0
 40
4.0
 40
4.0
 10
92.9907029053873
 20
-124.2380674689405
 30
0.0
 10
92.9907029053873
 20
-124.6897288577166
 30
0.0
 10
92.72164164348645
 20
-125.0559474687361
 30
0.0
 10
92.38953430961328
 20
-125.0559474687361
 30
0.0
 10
92.05742931808598
 20
-125.0559474687361
 30
0.0
 10
91.78836571383926
 20
-124.6897288577166
 30
0.0
 10
91.78836571383926
 20
-124.2380674689405
 30
0.0
 10
91.78836571383926
 20
-123.7864060801644
 30
0.0
 10
92.05742931808598
 20
-123.4201874691449
 30
0.0
 10
92.38953430961328
 20
-123.4201874691449
 30
0.0
 10
92.72164164348645
 20
-123.4201874691449
 30
0.0
 10
92.9907029053873
 20
-123.7864060801644
 30
0.0
 10
92.9907029053873
 20
-124.2380674689405
 30
0.0
  0
HATCH
  5
6C
330
67
100
AcDbEntity
  8
_U+30EC_U+30A4_U+30E4_U+30FC 1
 62
     7
420
 16711422
100
AcDbHatch
 10
0.0
 20
0.0
 30
0.0
210
0.0
220
0.0
230
1.0
  2
SOLID
 70
     1
 71
     0
 91
        1
 92
        1
 93
        1
 72
     4
 94
        3
 73
     0
 74
     1
 95
       17
 96
       13
 40
0.0
 40
0.0
 40
0.0
 40
0.0
 40
1.0
 40
1.0
 40
1.0
 40
2.0
 40
2.0
 40
2.0
 40
3.0
 40
3.0
 40
3.0
 40
4.0
 40
4.0
 40
4.0
 40
4.0
 10
92.9907029053873
 20
-124.2380674689405
 10
92.9907029053873
 20
-124.6897288577166
 10
92.72164164348645
 20
-125.0559474687361
 10
92.38953430961328
 20
-125.0559474687361
 10
92.05742931808598
 20
-125.0559474687361
 10
91.78836571383926
 20
-124.6897288577166
 10
91.78836571383926
 20
-124.2380674689405
 10
91.78836571383926
 20
-123.7864060801644
 10
92.05742931808598
 20
-123.4201874691449
 10
92.38953430961328
 20
-123.4201874691449
 10
92.72164164348645
 20
-123.4201874691449
 10
92.9907029053873
 20
-123.7864060801644
 10
92.9907029053873
 20
-124.2380674689405
 97
        0
 97
        0
 75
     2
 76
     1
 98
        0
  0
SPLINE
  5
6D
330
67
100
AcDbEntity
  8
_U+30EC_U+30A4_U+30E4_U+30FC 1
 62
   179
420
  2234388
370
     9
100
AcDbSpline
210
0.0
220
0.0
230
1.0
 70
     8
 71
     3
 72
     8
 73
     4
 74
     0
 42
0.0000000001
 43
0.0000000001
 12
1.0
 22
0.0
 32
0.0
 13
1.0
 23
0.0
 33
0.0
 40
0.0
 40
0.0
 40
0.0
 40
0.0
 40
1.0
 40
1.0
 40
1.0
 40
1.0
 10
92.38953430961328
 20
-123.4201874691449
 30
0.0
 10
92.38953430961328
 20
-123.4201874691449
 30
0.0
 10
92.9907029053873
 20
-124.1422883022979
 30
0.0
 10
92.6062456929734
 20
-124.9119435798832
 30
0.0
  0
ENDBLK
  5
6A
330
67
100
AcDbEntity
  8
0
100
AcDbBlockEnd
  0
BLOCK
  5
70
330
6E
100
AcDbEntity
  8
0
100
AcDbBlockBegin
  2
block 4
 70
     0
 10
0.0
 20
0.0
 30
0.0
  3
block 4
  1

  0
SPLINE
  5
72
330
6E
100
AcDbEntity
  8
_U+30EC_U+30A4_U+30E4_U+30FC 1
 62
   179
420
  2234388
370
     9
100
AcDbSpline
210
0.0
220
0.0
230
1.0
 70
    11
 71
     3
 72
    17
 73
    13
 74
     0
 42
0.0000000001
 43
0.0000000001
 12
1.0
 22
0.0
 32
0.0
 13
1.0
 23
0.0
 33
0.0
 40
0.0
 40
0.0
 40
0.0
 40
0.0
 40
1.0
 40
1.0
 40
1.0
 40
2.0
 40
2.0
 40
2.0
 40
3.0
 40
3.0
 40
3.0
 40
4.0
 40
4.0
 40
4.0
 40
4.0
 10
80.77199997980702
 20
-131.4545249671365
 30
0.0
 10
80.77199997980702
 20
-131.9058335781349
 30
0.0
 10
80.50275794620354
 20
-132.2723696891539
 30
0.0
 10
80.17065295467624
 20
-132.2723696891539
 30
0.0
 10
79.83854998004047
 20
-132.2723696891539
 30
0.0
 10
79.56930797001783
 20
-131.9058335781349
 30
0.0
 10
79.56930797001783
 20
-131.4545249671365
 30
0.0
 10
79.56930797001783
 20
-131.0025108005827
 30
0.0
 10
79.83854998004047
 20
-130.6366449673409
 30
0.0
 10
80.17065295467624
 20
-130.6366449673409
 30
0.0
 10
80.50275794620354
 20
-130.6366449673409
 30
0.0
 10
80.77199997980702
 20
-131.0025108005827
 30
0.0
 10
80.77199997980702
 20
-131.4545249671365
 30
0.0
  0
HATCH
  5
73
330
6E
100
AcDbEntity
  8
_U+30EC_U+30A4_U+30E4_U+30FC 1
 62
     7
420
 16711422
100
AcDbHatch
 10
0.0
 20
0.0
 30
0.0
210
0.0
220
0.0
230
1.0
  2
SOLID
 70
     1
 71
     0
 91
        1
 92
        1
 93
        1
 72
     4
 94
        3
 73
     0
 74
     1
 95
       17
 96
       13
 40
0.0
 40
0.0
 40
0.0
 40
0.0
 40
1.0
 40
1.0
 40
1.0
 40
2.0
 40
2.0
 40
2.0
 40
3.0
 40
3.0
 40
3.0
 40
4.0
 40
4.0
 40
4.0
 40
4.0
 10
80.77199997980702
 20
-131.4545249671365
 10
80.77199997980702
 20
-131.9058335781349
 10
80.50275794620354
 20
-132.2723696891539
 10
80.17065295467624
 20
-132.2723696891539
 10
79.83854998004047
 20
-132.2723696891539
 10
79.56930797001783
 20
-131.9058335781349
 10
79.56930797001783
 20
-131.4545249671365
 10
79.56930797001783
 20
-131.0025108005827
 10
79.83854998004047
 20
-130.6366449673409
 10
80.17065295467624
 20
-130.6366449673409
 10
80.50275794620354
 20
-130.6366449673409
 10
80.77199997980702
 20
-131.0025108005827
 10
80.77199997980702
 20
-131.4545249671365
 97
        0
 97
        0
 75
     2
 76
     1
 98
        0
  0
SPLINE
  5
74
330
6E
100
AcDbEntity
  8
_U+30EC_U+30A4_U+30E4_U+30FC 1
 62
   179
420
  2234388
370
     9
100
AcDbSpline
210
0.0
220
0.0
230
1.0
 70
     8
 71
     3
 72
     8
 73
     4
 74
     0
 42
0.0000000001
 43
0.0000000001
 12
1.0
 22
0.0
 32
0.0
 13
1.0
 23
0.0
 33
0.0
 40
0.0
 40
0.0
 40
0.0
 40
0.0
 40
1.0
 40
1.0
 40
1.0
 40
1.0
 10
80.17065295467624
 20
-130.6366449673409
 30
0.0
 10
80.17065295467624
 20
-130.6366449673409
 30
0.0
 10
80.77199997980702
 20
-131.3587458004935
 30
0.0
 10
80.3871526713751
 20
-132.1283658003011
 30
0.0
  0
ENDBLK
  5
71
330
6E
100
AcDbEntity
  8
0
100
AcDbBlockEnd
  0
BLOCK
  5
B2
330
B0
100
AcDbEntity
  8
0
100
AcDbBlockBegin
  2
block 5
 70
     0
 10
0.0
 20
0.0
 30
0.0
  3
block 5
  1

  0
SPLINE
  5
B4
330
B0
100
AcDbEntity
  8
_U+30EC_U+30A4_U+30E4_U+30FC 1
370
     0
100
AcDbSpline
210
0.0
220
0.0
230
1.0
 70
    11
 71
     3
 72
    35
 73
    31
 74
     0
 42
0.0000000001
 43
0.0000000001
 12
1.0
 22
0.0
 32
0.0
 13
1.0
 23
0.0
 33
0.0
 40
0.0
 40
0.0
 40
0.0
 40
0.0
 40
1.0
 40
1.0
 40
1.0
 40
2.0
 40
2.0
 40
2.0
 40
3.0
 40
3.0
 40
3.0
 40
4.0
 40
4.0
 40
4.0
 40
5.0
 40
5.0
 40
5.0
 40
6.0
 40
6.0
 40
6.0
 40
7.0
 40
7.0
 40
7.0
 40
8.0
 40
8.0
 40
8.0
 40
9.0
 40
9.0
 40
9.0
 40
10.0
 40
10.0
 40
10.0
 40
10.0
 10
83.45778263972583
 20
-125.6657144868127
 30
0.0
 10
83.45778263972583
 20
-125.6657144868127
 30
0.0
 10
83.40713973609266
 20
-125.9301255653057
 30
0.0
 10
83.40713973609266
 20
-125.9301255653057
 30
0.0
 10
83.54666610324529
 20
-125.9428724186011
 30
0.0
 10
83.87463919344107
 20
-126.0338229394117
 30
0.0
 10
83.87463919344107
 20
-126.4251857865361
 30
0.0
 10
83.87463919344107
 20
-126.9031927851145
 30
0.0
 10
83.46846243573012
 20
-127.0280774964548
 30
0.0
 10
83.19337156123291
 20
-127.0280774964548
 30
0.0
 10
83.19337156123291
 20
-127.0280774964548
 30
0.0
 10
83.12567543494775
 20
-127.3813720384672
 30
0.0
 10
83.12567543494775
 20
-127.3813720384672
 30
0.0
 10
83.12567543494775
 20
-127.3813720384672
 30
0.0
 10
82.91845294150997
 20
-127.3813720384672
 30
0.0
 10
82.91845294150997
 20
-127.3813720384672
 30
0.0
 10
82.91845294150997
 20
-127.3813720384672
 30
0.0
 10
82.99028318237744
 20
-127.0132635858682
 30
0.0
 10
82.99028318237744
 20
-127.0132635858682
 30
0.0
 10
82.88245169368912
 20
-126.9941433059251
 30
0.0
 10
82.5312242089679
 20
-126.9328206062876
 30
0.0
 10
82.5312242089679
 20
-126.5161363073467
 30
0.0
 10
82.5312242089679
 20
-126.0675848751671
 30
0.0
 10
82.88675806304568
 20
-125.9173787120102
 30
0.0
 10
83.20181204517178
 20
-125.9173787120102
 30
0.0
 10
83.20181204517178
 20
-125.9173787120102
 30
0.0
 10
83.25056014628805
 20
-125.6657144868127
 30
0.0
 10
83.25056014628805
 20
-125.6657144868127
 30
0.0
 10
83.25056014628805
 20
-125.6657144868127
 30
0.0
 10
83.45778263972583
 20
-125.6657144868127
 30
0.0
 10
83.45778263972583
 20
-125.6657144868127
 30
0.0
  0
SPLINE
  5
B5
330
B0
100
AcDbEntity
  8
_U+30EC_U+30A4_U+30E4_U+30FC 1
370
     0
100
AcDbSpline
210
0.0
220
0.0
230
1.0
 70
    11
 71
     3
 72
    14
 73
    10
 74
     0
 42
0.0000000001
 43
0.0000000001
 12
1.0
 22
0.0
 32
0.0
 13
1.0
 23
0.0
 33
0.0
 40
0.0
 40
0.0
 40
0.0
 40
0.0
 40
1.0
 40
1.0
 40
1.0
 40
2.0
 40
2.0
 40
2.0
 40
3.0
 40
3.0
 40
3.0
 40
3.0
 10
83.16805010941633
 20
-126.0908392696926
 30
0.0
 10
83.04747176743258
 20
-126.0992797536314
 30
0.0
 10
82.7534328677665
 20
-126.1225341481569
 30
0.0
 10
82.7534328677665
 20
-126.520270421929
 30
0.0
 10
82.7534328677665
 20
-126.5838324336318
 30
0.0
 10
82.7534328677665
 20
-126.7974283537173
 30
0.0
 10
83.02215031561599
 20
-126.841870085477
 30
0.0
 10
83.02215031561599
 20
-126.841870085477
 30
0.0
 10
83.16805010941633
 20
-126.0908392696926
 30
0.0
 10
83.16805010941633
 20
-126.0908392696926
 30
0.0
  0
SPLINE
  5
B6
330
B0
100
AcDbEntity
  8
_U+30EC_U+30A4_U+30E4_U+30FC 1
370
     0
100
AcDbSpline
210
0.0
220
0.0
230
1.0
 70
    11
 71
     3
 72
    14
 73
    10
 74
     0
 42
0.0000000001
 43
0.0000000001
 12
1.0
 22
0.0
 32
0.0
 13
1.0
 23
0.0
 33
0.0
 40
0.0
 40
0.0
 40
0.0
 40
0.0
 40
1.0
 40
1.0
 40
1.0
 40
2.0
 40
2.0
 40
2.0
 40
3.0
 40
3.0
 40
3.0
 40
3.0
 10
83.22937280905377
 20
-126.8503105694159
 30
0.0
 10
83.41127385067496
 20
-126.8461764548336
 30
0.0
 10
83.65466984670786
 20
-126.765733475253
 30
0.0
 10
83.65466984670786
 20
-126.4103718759495
 30
0.0
 10
83.65466984670786
 20
-126.3171820430735
 30
0.0
 10
83.64192299341244
 20
-126.1289075748046
 30
0.0
 10
83.3711384882718
 20
-126.1015190656968
 30
0.0
 10
83.3711384882718
 20
-126.1015190656968
 30
0.0
 10
83.22937280905377
 20
-126.8503105694159
 30
0.0
 10
83.22937280905377
 20
-126.8503105694159
 30
0.0
  0
HATCH
  5
B7
330
B0
100
AcDbEntity
  8
_U+30EC_U+30A4_U+30E4_U+30FC 1
 62
   179
420
  2234388
100
AcDbHatch
 10
0.0
 20
0.0
 30
0.0
210
0.0
220
0.0
230
1.0
  2
SOLID
 70
     1
 71
     0
 91
        3
 92
        1
 93
        1
 72
     4
 94
        3
 73
     0
 74
     1
 95
       35
 96
       31
 40
0.0
 40
0.0
 40
0.0
 40
0.0
 40
1.0
 40
1.0
 40
1.0
 40
2.0
 40
2.0
 40
2.0
 40
3.0
 40
3.0
 40
3.0
 40
4.0
 40
4.0
 40
4.0
 40
5.0
 40
5.0
 40
5.0
 40
6.0
 40
6.0
 40
6.0
 40
7.0
 40
7.0
 40
7.0
 40
8.0
 40
8.0
 40
8.0
 40
9.0
 40
9.0
 40
9.0
 40
10.0
 40
10.0
 40
10.0
 40
10.0
 10
83.45778263972583
 20
-125.6657144868127
 10
83.45778263972583
 20
-125.6657144868127
 10
83.40713973609266
 20
-125.9301255653057
 10
83.40713973609266
 20
-125.9301255653057
 10
83.54666610324529
 20
-125.9428724186011
 10
83.87463919344107
 20
-126.0338229394117
 10
83.87463919344107
 20
-126.4251857865361
 10
83.87463919344107
 20
-126.9031927851145
 10
83.46846243573012
 20
-127.0280774964548
 10
83.19337156123291
 20
-127.0280774964548
 10
83.19337156123291
 20
-127.0280774964548
 10
83.12567543494775
 20
-127.3813720384672
 10
83.12567543494775
 20
-127.3813720384672
 10
83.12567543494775
 20
-127.3813720384672
 10
82.91845294150997
 20
-127.3813720384672
 10
82.91845294150997
 20
-127.3813720384672
 10
82.91845294150997
 20
-127.3813720384672
 10
82.99028318237744
 20
-127.0132635858682
 10
82.99028318237744
 20
-127.0132635858682
 10
82.88245169368912
 20
-126.9941433059251
 10
82.5312242089679
 20
-126.9328206062876
 10
82.5312242089679
 20
-126.5161363073467
 10
82.5312242089679
 20
-126.0675848751671
 10
82.88675806304568
 20
-125.9173787120102
 10
83.20181204517178
 20
-125.9173787120102
 10
83.20181204517178
 20
-125.9173787120102
 10
83.25056014628805
 20
-125.6657144868127
 10
83.25056014628805
 20
-125.6657144868127
 10
83.25056014628805
 20
-125.6657144868127
 10
83.45778263972583
 20
-125.6657144868127
 10
83.45778263972583
 20
-125.6657144868127
 97
        0
 97
        0
 92
        1
 93
        1
 72
     4
 94
        3
 73
     0
 74
     1
 95
       14
 96
       10
 40
0.0
 40
0.0
 40
0.0
 40
0.0
 40
1.0
 40
1.0
 40
1.0
 40
2.0
 40
2.0
 40
2.0
 40
3.0
 40
3.0
 40
3.0
 40
3.0
 10
83.16805010941633
 20
-126.0908392696926
 10
83.04747176743258
 20
-126.0992797536314
 10
82.7534328677665
 20
-126.1225341481569
 10
82.7534328677665
 20
-126.520270421929
 10
82.7534328677665
 20
-126.5838324336318
 10
82.7534328677665
 20
-126.7974283537173
 10
83.02215031561599
 20
-126.841870085477
 10
83.02215031561599
 20
-126.841870085477
 10
83.16805010941633
 20
-126.0908392696926
 10
83.16805010941633
 20
-126.0908392696926
 97
        0
 97
        0
 92
        1
 93
        1
 72
     4
 94
        3
 73
     0
 74
     1
 95
       14
 96
       10
 40
0.0
 40
0.0
 40
0.0
 40
0.0
 40
1.0
 40
1.0
 40
1.0
 40
2.0
 40
2.0
 40
2.0
 40
3.0
 40
3.0
 40
3.0
 40
3.0
 10
83.22937280905377
 20
-126.8503105694159
 10
83.41127385067496
 20
-126.8461764548336
 10
83.65466984670786
 20
-126.765733475253
 10
83.65466984670786
 20
-126.4103718759495
 10
83.65466984670786
 20
-126.3171820430735
 10
83.64192299341244
 20
-126.1289075748046
 10
83.3711384882718
 20
-126.1015190656968
 10
83.3711384882718
 20
-126.1015190656968
 10
83.22937280905377
 20
-126.8503105694159
 10
83.22937280905377
 20
-126.8503105694159
 97
        0
 97
        0
 75
     2
 76
     1
 98
        0
  0
SPLINE
  5
B8
330
B0
100
AcDbEntity
  8
_U+30EC_U+30A4_U+30E4_U+30FC 1
370
     0
100
AcDbSpline
210
0.0
220
0.0
230
1.0
 70
    11
 71
     3
 72
    62
 73
    58
 74
     0
 42
0.0000000001
 43
0.0000000001
 12
1.0
 22
0.0
 32
0.0
 13
1.0
 23
0.0
 33
0.0
 40
0.0
 40
0.0
 40
0.0
 40
0.0
 40
1.0
 40
1.0
 40
1.0
 40
2.0
 40
2.0
 40
2.0
 40
3.0
 40
3.0
 40
3.0
 40
4.0
 40
4.0
 40
4.0
 40
5.0
 40
5.0
 40
5.0
 40
6.0
 40
6.0
 40
6.0
 40
7.0
 40
7.0
 40
7.0
 40
8.0
 40
8.0
 40
8.0
 40
9.0
 40
9.0
 40
9.0
 40
10.0
 40
10.0
 40
10.0
 40
11.0
 40
11.0
 40
11.0
 40
12.0
 40
12.0
 40
12.0
 40
13.0
 40
13.0
 40
13.0
 40
14.0
 40
14.0
 40
14.0
 40
15.0
 40
15.0
 40
15.0
 40
16.0
 40
16.0
 40
16.0
 40
17.0
 40
17.0
 40
17.0
 40
18.0
 40
18.0
 40
18.0
 40
19.0
 40
19.0
 40
19.0
 40
19.0
 10
84.57795543675482
 20
-127.0873331388011
 30
0.0
 10
84.48269854658766
 20
-127.0873331388011
 30
0.0
 10
84.2647962571456
 20
-127.0661458015668
 30
0.0
 10
84.14008380057956
 20
-126.879938390589
 30
0.0
 10
84.06601424764669
 20
-126.7678005325442
 30
0.0
 10
84.06170787829014
 20
-126.6684095277947
 30
0.0
 10
84.05757376370784
 20
-126.5838324336318
 30
0.0
 10
84.05757376370784
 20
-126.5838324336318
 30
0.0
 10
84.27754311044103
 20
-126.5838324336318
 30
0.0
 10
84.27754311044103
 20
-126.5838324336318
 30
0.0
 10
84.27961016773219
 20
-126.6579019865647
 30
0.0
 10
84.29028996373646
 20
-126.8926852438845
 30
0.0
 10
84.57364906739826
 20
-126.8926852438845
 30
0.0
 10
84.71128063203399
 20
-126.8926852438845
 30
0.0
 10
84.86355385248203
 20
-126.8229220603082
 30
0.0
 10
84.86355385248203
 20
-126.5943399748618
 30
0.0
 10
84.86355385248203
 20
-126.4780680022347
 30
0.0
 10
84.82548554737002
 20
-126.4293199011184
 30
0.0
 10
84.79379066890573
 20
-126.3976250226541
 30
0.0
 10
84.71972111597285
 20
-126.3235554697212
 30
0.0
 10
84.6032768885714
 20
-126.3109808712
 30
0.0
 10
84.54832761558167
 20
-126.3109808712
 30
0.0
 10
84.5293795904128
 20
-126.3109808712
 30
0.0
 10
84.49337834259194
 20
-126.3130479284912
 30
0.0
 10
84.46581757870995
 20
-126.3171820430735
 30
0.0
 10
84.46581757870995
 20
-126.3171820430735
 30
0.0
 10
84.46581757870995
 20
-126.1225341481569
 30
0.0
 10
84.46581757870995
 20
-126.1225341481569
 30
0.0
 10
84.50388588382195
 20
-126.1289075748046
 30
0.0
 10
84.54626055829053
 20
-126.13114688687
 30
0.0
 10
84.55263398493824
 20
-126.13114688687
 30
0.0
 10
84.61809079915798
 20
-126.13114688687
 30
0.0
 10
84.81704506343117
 20
-126.1099595496357
 30
0.0
 10
84.81704506343117
 20
-125.8729369802505
 30
0.0
 10
84.81704506343117
 20
-125.6953423079859
 30
0.0
 10
84.68578692544314
 20
-125.6402207802219
 30
0.0
 10
84.57588837946368
 20
-125.6402207802219
 30
0.0
 10
84.31147730097075
 20
-125.6402207802219
 30
0.0
 10
84.30286456225762
 20
-125.8729369802505
 30
0.0
 10
84.29873044767533
 20
-125.9449394758922
 30
0.0
 10
84.29873044767533
 20
-125.9449394758922
 30
0.0
 10
84.09564206881984
 20
-125.9449394758922
 30
0.0
 10
84.09564206881984
 20
-125.9449394758922
 30
0.0
 10
84.10408255275871
 20
-125.8200547645519
 30
0.0
 10
84.1316433166407
 20
-125.4435058280141
 30
0.0
 10
84.58846297798483
 20
-125.4435058280141
 30
0.0
 10
84.8127386940746
 20
-125.4435058280141
 30
0.0
 10
85.05389537804209
 20
-125.5704575966456
 30
0.0
 10
85.05389537804209
 20
-125.8665635536028
 30
0.0
 10
85.05389537804209
 20
-126.0527709645806
 30
0.0
 10
84.95881074264919
 20
-126.1352810014523
 30
0.0
 10
84.85924748312547
 20
-126.1966037010897
 30
0.0
 10
84.92074243753719
 20
-126.2241644649717
 30
0.0
 10
85.10264347915837
 20
-126.3046074445523
 30
0.0
 10
85.10264347915837
 20
-126.5817653763407
 30
0.0
 10
85.10264347915837
 20
-126.9202460077665
 30
0.0
 10
84.85511336854317
 20
-127.0873331388011
 30
0.0
 10
84.57795543675482
 20
-127.0873331388011
 30
0.0
  0
HATCH
  5
B9
330
B0
100
AcDbEntity
  8
_U+30EC_U+30A4_U+30E4_U+30FC 1
 62
   179
420
  2234388
100
AcDbHatch
 10
0.0
 20
0.0
 30
0.0
210
0.0
220
0.0
230
1.0
  2
SOLID
 70
     1
 71
     0
 91
        1
 92
        1
 93
        1
 72
     4
 94
        3
 73
     0
 74
     1
 95
       62
 96
       58
 40
0.0
 40
0.0
 40
0.0
 40
0.0
 40
1.0
 40
1.0
 40
1.0
 40
2.0
 40
2.0
 40
2.0
 40
3.0
 40
3.0
 40
3.0
 40
4.0
 40
4.0
 40
4.0
 40
5.0
 40
5.0
 40
5.0
 40
6.0
 40
6.0
 40
6.0
 40
7.0
 40
7.0
 40
7.0
 40
8.0
 40
8.0
 40
8.0
 40
9.0
 40
9.0
 40
9.0
 40
10.0
 40
10.0
 40
10.0
 40
11.0
 40
11.0
 40
11.0
 40
12.0
 40
12.0
 40
12.0
 40
13.0
 40
13.0
 40
13.0
 40
14.0
 40
14.0
 40
14.0
 40
15.0
 40
15.0
 40
15.0
 40
16.0
 40
16.0
 40
16.0
 40
17.0
 40
17.0
 40
17.0
 40
18.0
 40
18.0
 40
18.0
 40
19.0
 40
19.0
 40
19.0
 40
19.0
 10
84.57795543675482
 20
-127.0873331388011
 10
84.48269854658766
 20
-127.0873331388011
 10
84.2647962571456
 20
-127.0661458015668
 10
84.14008380057956
 20
-126.879938390589
 10
84.06601424764669
 20
-126.7678005325442
 10
84.06170787829014
 20
-126.6684095277947
 10
84.05757376370784
 20
-126.5838324336318
 10
84.05757376370784
 20
-126.5838324336318
 10
84.27754311044103
 20
-126.5838324336318
 10
84.27754311044103
 20
-126.5838324336318
 10
84.27961016773219
 20
-126.6579019865647
 10
84.29028996373646
 20
-126.8926852438845
 10
84.57364906739826
 20
-126.8926852438845
 10
84.71128063203399
 20
-126.8926852438845
 10
84.86355385248203
 20
-126.8229220603082
 10
84.86355385248203
 20
-126.5943399748618
 10
84.86355385248203
 20
-126.4780680022347
 10
84.82548554737002
 20
-126.4293199011184
 10
84.79379066890573
 20
-126.3976250226541
 10
84.71972111597285
 20
-126.3235554697212
 10
84.6032768885714
 20
-126.3109808712
 10
84.54832761558167
 20
-126.3109808712
 10
84.5293795904128
 20
-126.3109808712
 10
84.49337834259194
 20
-126.3130479284912
 10
84.46581757870995
 20
-126.3171820430735
 10
84.46581757870995
 20
-126.3171820430735
 10
84.46581757870995
 20
-126.1225341481569
 10
84.46581757870995
 20
-126.1225341481569
 10
84.50388588382195
 20
-126.1289075748046
 10
84.54626055829053
 20
-126.13114688687
 10
84.55263398493824
 20
-126.13114688687
 10
84.61809079915798
 20
-126.13114688687
 10
84.81704506343117
 20
-126.1099595496357
 10
84.81704506343117
 20
-125.8729369802505
 10
84.81704506343117
 20
-125.6953423079859
 10
84.68578692544314
 20
-125.6402207802219
 10
84.57588837946368
 20
-125.6402207802219
 10
84.31147730097075
 20
-125.6402207802219
 10
84.30286456225762
 20
-125.8729369802505
 10
84.29873044767533
 20
-125.9449394758922
 10
84.29873044767533
 20
-125.9449394758922
 10
84.09564206881984
 20
-125.9449394758922
 10
84.09564206881984
 20
-125.9449394758922
 10
84.10408255275871
 20
-125.8200547645519
 10
84.1316433166407
 20
-125.4435058280141
 10
84.58846297798483
 20
-125.4435058280141
 10
84.8127386940746
 20
-125.4435058280141
 10
85.05389537804209
 20
-125.5704575966456
 10
85.05389537804209
 20
-125.8665635536028
 10
85.05389537804209
 20
-126.0527709645806
 10
84.95881074264919
 20
-126.1352810014523
 10
84.85924748312547
 20
-126.1966037010897
 10
84.92074243753719
 20
-126.2241644649717
 10
85.10264347915837
 20
-126.3046074445523
 10
85.10264347915837
 20
-126.5817653763407
 10
85.10264347915837
 20
-126.9202460077665
 10
84.85511336854317
 20
-127.0873331388011
 10
84.57795543675482
 20
-127.0873331388011
 97
        0
 97
        0
 75
     2
 76
     1
 98
        0
  0
POLYLINE
  5
BA
330
B0
100
AcDbEntity
  8
_U+30EC_U+30A4_U+30E4_U+30FC 1
370
     0
100
AcDb2dPolyline
 66
     1
 10
0.0
 20
0.0
 30
0.0
  0
VERTEX
  5
BB
330
BA
100
AcDbEntity
  8
_U+30EC_U+30A4_U+30E4_U+30FC 1
370
     0
100
AcDbVertex
100
AcDb2dVertex
 10
85.32330184498862
 20
-127.0365179803937
 30
0.0
  0
VERTEX
  5
BC
330
BA
100
AcDbEntity
  8
_U+30EC_U+30A4_U+30E4_U+30FC 1
370
     0
100
AcDbVertex
100
AcDb2dVertex
 10
85.32330184498862
 20
-126.7848537551962
 30
0.0
  0
VERTEX
  5
BD
330
BA
100
AcDbEntity
  8
_U+30EC_U+30A4_U+30E4_U+30FC 1
370
     0
100
AcDbVertex
100
AcDb2dVertex
 10
85.57496607018612
 20
-126.7848537551962
 30
0.0
  0
VERTEX
  5
BE
330
BA
100
AcDbEntity
  8
_U+30EC_U+30A4_U+30E4_U+30FC 1
370
     0
100
AcDbVertex
100
AcDb2dVertex
 10
85.57496607018612
 20
-127.0365179803937
 30
0.0
  0
VERTEX
  5
BF
330
BA
100
AcDbEntity
  8
_U+30EC_U+30A4_U+30E4_U+30FC 1
370
     0
100
AcDbVertex
100
AcDb2dVertex
 10
85.32330184498862
 20
-127.0365179803937
 30
0.0
  0
SEQEND
  5
C0
330
BA
100
AcDbEntity
  8
_U+30EC_U+30A4_U+30E4_U+30FC 1
370
     0
  0
HATCH
  5
C1
330
B0
100
AcDbEntity
  8
_U+30EC_U+30A4_U+30E4_U+30FC 1
 62
   179
420
  2234388
100
AcDbHatch
 10
0.0
 20
0.0
 30
0.0
210
0.0
220
0.0
230
1.0
  2
SOLID
 70
     1
 71
     0
 91
        1
 92
        1
 93
        4
 72
     1
 10
85.32330184498862
 20
-127.0365179803937
 11
85.32330184498862
 21
-126.7848537551962
 72
     1
 10
85.32330184498862
 20
-126.7848537551962
 11
85.57496607018612
 21
-126.7848537551962
 72
     1
 10
85.57496607018612
 20
-126.7848537551962
 11
85.57496607018612
 21
-127.0365179803937
 72
     1
 10
85.57496607018612
 20
-127.0365179803937
 11
85.32330184498862
 21
-127.0365179803937
 97
        0
 75
     2
 76
     1
 98
        0
  0
POLYLINE
  5
C2
330
B0
100
AcDbEntity
  8
_U+30EC_U+30A4_U+30E4_U+30FC 1
370
     0
100
AcDb2dPolyline
 66
     1
 10
0.0
 20
0.0
 30
0.0
  0
VERTEX
  5
C3
330
C2
100
AcDbEntity
  8
_U+30EC_U+30A4_U+30E4_U+30FC 1
370
     0
100
AcDbVertex
100
AcDb2dVertex
 10
86.64363468971062
 20
-126.689596865029
 30
0.0
  0
VERTEX
  5
C4
330
C2
100
AcDbEntity
  8
_U+30EC_U+30A4_U+30E4_U+30FC 1
370
     0
100
AcDbVertex
100
AcDb2dVertex
 10
86.64363468971062
 20
-127.0365179803937
 30
0.0
  0
VERTEX
  5
C5
330
C2
100
AcDbEntity
  8
_U+30EC_U+30A4_U+30E4_U+30FC 1
370
     0
100
AcDbVertex
100
AcDb2dVertex
 10
86.42573240026857
 20
-127.0365179803937
 30
0.0
  0
VERTEX
  5
C6
330
C2
100
AcDbEntity
  8
_U+30EC_U+30A4_U+30E4_U+30FC 1
370
     0
100
AcDbVertex
100
AcDb2dVertex
 10
86.42573240026857
 20
-126.689596865029
 30
0.0
  0
VERTEX
  5
C7
330
C2
100
AcDbEntity
  8
_U+30EC_U+30A4_U+30E4_U+30FC 1
370
     0
100
AcDbVertex
100
AcDb2dVertex
 10
85.76995847465126
 20
-126.689596865029
 30
0.0
  0
VERTEX
  5
C8
330
C2
100
AcDbEntity
  8
_U+30EC_U+30A4_U+30E4_U+30FC 1
370
     0
100
AcDbVertex
100
AcDb2dVertex
 10
85.76995847465126
 20
-126.4653211489392
 30
0.0
  0
VERTEX
  5
C9
330
C2
100
AcDbEntity
  8
_U+30EC_U+30A4_U+30E4_U+30FC 1
370
     0
100
AcDbVertex
100
AcDb2dVertex
 10
86.44898679479401
 20
-125.4922539291304
 30
0.0
  0
VERTEX
  5
CA
330
C2
100
AcDbEntity
  8
_U+30EC_U+30A4_U+30E4_U+30FC 1
370
     0
100
AcDbVertex
100
AcDb2dVertex
 10
86.64363468971062
 20
-125.4922539291304
 30
0.0
  0
VERTEX
  5
CB
330
C2
100
AcDbEntity
  8
_U+30EC_U+30A4_U+30E4_U+30FC 1
370
     0
100
AcDbVertex
100
AcDb2dVertex
 10
86.64363468971062
 20
-126.4906426007558
 30
0.0
  0
VERTEX
  5
CC
330
C2
100
AcDbEntity
  8
_U+30EC_U+30A4_U+30E4_U+30FC 1
370
     0
100
AcDbVertex
100
AcDb2dVertex
 10
86.8508571831484
 20
-126.4906426007558
 30
0.0
  0
VERTEX
  5
CD
330
C2
100
AcDbEntity
  8
_U+30EC_U+30A4_U+30E4_U+30FC 1
370
     0
100
AcDbVertex
100
AcDb2dVertex
 10
86.8508571831484
 20
-126.689596865029
 30
0.0
  0
VERTEX
  5
CE
330
C2
100
AcDbEntity
  8
_U+30EC_U+30A4_U+30E4_U+30FC 1
370
     0
100
AcDbVertex
100
AcDb2dVertex
 10
86.64363468971062
 20
-126.689596865029
 30
0.0
  0
SEQEND
  5
CF
330
C2
100
AcDbEntity
  8
_U+30EC_U+30A4_U+30E4_U+30FC 1
370
     0
  0
POLYLINE
  5
D0
330
B0
100
AcDbEntity
  8
_U+30EC_U+30A4_U+30E4_U+30FC 1
370
     0
100
AcDb2dPolyline
 66
     1
 10
0.0
 20
0.0
 30
0.0
  0
VERTEX
  5
D1
330
D0
100
AcDbEntity
  8
_U+30EC_U+30A4_U+30E4_U+30FC 1
370
     0
100
AcDbVertex
100
AcDb2dVertex
 10
86.42573240026857
 20
-125.8348686751385
 30
0.0
  0
VERTEX
  5
D2
330
D0
100
AcDbEntity
  8
_U+30EC_U+30A4_U+30E4_U+30FC 1
370
     0
100
AcDbVertex
100
AcDb2dVertex
 10
85.96874048415017
 20
-126.4906426007558
 30
0.0
  0
VERTEX
  5
D3
330
D0
100
AcDbEntity
  8
_U+30EC_U+30A4_U+30E4_U+30FC 1
370
     0
100
AcDbVertex
100
AcDb2dVertex
 10
86.42573240026857
 20
-126.4906426007558
 30
0.0
  0
VERTEX
  5
D4
330
D0
100
AcDbEntity
  8
_U+30EC_U+30A4_U+30E4_U+30FC 1
370
     0
100
AcDbVertex
100
AcDb2dVertex
 10
86.42573240026857
 20
-125.8348686751385
 30
0.0
  0
SEQEND
  5
D5
330
D0
100
AcDbEntity
  8
_U+30EC_U+30A4_U+30E4_U+30FC 1
370
     0
  0
HATCH
  5
D6
330
B0
100
AcDbEntity
  8
_U+30EC_U+30A4_U+30E4_U+30FC 1
 62
   179
420
  2234388
100
AcDbHatch
 10
0.0
 20
0.0
 30
0.0
210
0.0
220
0.0
230
1.0
  2
SOLID
 70
     1
 71
     0
 91
        2
 92
        1
 93
       11
 72
     1
 10
86.64363468971062
 20
-126.689596865029
 11
86.64363468971062
 21
-127.0365179803937
 72
     1
 10
86.64363468971062
 20
-127.0365179803937
 11
86.42573240026857
 21
-127.0365179803937
 72
     1
 10
86.42573240026857
 20
-127.0365179803937
 11
86.42573240026857
 21
-126.689596865029
 72
     1
 10
86.42573240026857
 20
-126.689596865029
 11
85.76995847465126
 21
-126.689596865029
 72
     1
 10
85.76995847465126
 20
-126.689596865029
 11
85.76995847465126
 21
-126.4653211489392
 72
     1
 10
85.76995847465126
 20
-126.4653211489392
 11
86.44898679479401
 21
-125.4922539291304
 72
     1
 10
86.44898679479401
 20
-125.4922539291304
 11
86.64363468971062
 21
-125.4922539291304
 72
     1
 10
86.64363468971062
 20
-125.4922539291304
 11
86.64363468971062
 21
-126.4906426007558
 72
     1
 10
86.64363468971062
 20
-126.4906426007558
 11
86.8508571831484
 21
-126.4906426007558
 72
     1
 10
86.8508571831484
 20
-126.4906426007558
 11
86.8508571831484
 21
-126.689596865029
 72
     1
 10
86.8508571831484
 20
-126.689596865029
 11
86.64363468971062
 21
-126.689596865029
 97
        0
 92
        1
 93
        3
 72
     1
 10
86.42573240026857
 20
-125.8348686751385
 11
85.96874048415017
 21
-126.4906426007558
 72
     1
 10
85.96874048415017
 20
-126.4906426007558
 11
86.42573240026857
 21
-126.4906426007558
 72
     1
 10
86.42573240026857
 20
-126.4906426007558
 11
86.42573240026857
 21
-125.8348686751385
 97
        0
 75
     2
 76
     1
 98
        0
  0
ENDBLK
  5
B3
330
B0
100
AcDbEntity
  8
0
100
AcDbBlockEnd
  0
BLOCK
  5
D9
330
D7
100
AcDbEntity
  8
0
100
AcDbBlockBegin
  2
block 6
 70
     0
 10
0.0
 20
0.0
 30
0.0
  3
block 6
  1

  0
SPLINE
  5
DB
330
D7
100
AcDbEntity
  8
_U+30EC_U+30A4_U+30E4_U+30FC 1
370
     0
100
AcDbSpline
210
0.0
220
0.0
230
1.0
 70
    11
 71
     3
 72
    29
 73
    25
 74
     0
 42
0.0000000001
 43
0.0000000001
 12
1.0
 22
0.0
 32
0.0
 13
1.0
 23
0.0
 33
0.0
 40
0.0
 40
0.0
 40
0.0
 40
0.0
 40
1.0
 40
1.0
 40
1.0
 40
2.0
 40
2.0
 40
2.0
 40
3.0
 40
3.0
 40
3.0
 40
4.0
 40
4.0
 40
4.0
 40
5.0
 40
5.0
 40
5.0
 40
6.0
 40
6.0
 40
6.0
 40
7.0
 40
7.0
 40
7.0
 40
8.0
 40
8.0
 40
8.0
 40
8.0
 10
91.75977374008089
 20
-137.7294053475121
 30
0.0
 10
91.49312334952256
 20
-137.7294053475121
 30
0.0
 10
91.23921981225965
 20
-137.5919460376506
 30
0.0
 10
91.23921981225965
 20
-137.2429578649948
 30
0.0
 10
91.23921981225965
 20
-136.9869872704407
 30
0.0
 10
91.38081323670342
 20
-136.8919026350479
 30
0.0
 10
91.48657766810058
 20
-136.8305799354104
 30
0.0
 10
91.36186521153454
 20
-136.7713242930641
 30
0.0
 10
91.28572860131051
 20
-136.6569471229538
 30
0.0
 10
91.28572860131051
 20
-136.4960611637927
 30
0.0
 10
91.28572860131051
 20
-136.2211425440697
 30
0.0
 10
91.48451061080944
 20
-136.0857502914994
 30
0.0
 10
91.75977374008089
 20
-136.0857502914994
 30
0.0
 10
92.04296058896843
 20
-136.0857502914994
 30
0.0
 10
92.23347436930274
 20
-136.2297552827828
 30
0.0
 10
92.23347436930274
 20
-136.4960611637927
 30
0.0
 10
92.23347436930274
 20
-136.6569471229538
 30
0.0
 10
92.15527070178757
 20
-136.7713242930641
 30
0.0
 10
92.03055824522153
 20
-136.8305799354104
 30
0.0
 10
92.11909719919245
 20
-136.8812228390436
 30
0.0
 10
92.27791610106247
 20
-136.9763074744365
 30
0.0
 10
92.27791610106247
 20
-137.2388237504125
 30
0.0
 10
92.27791610106247
 20
-137.6133056296592
 30
0.0
 10
91.99851885720871
 20
-137.7294053475121
 30
0.0
 10
91.75977374008089
 20
-137.7294053475121
 30
0.0
  0
SPLINE
  5
DC
330
D7
100
AcDbEntity
  8
_U+30EC_U+30A4_U+30E4_U+30FC 1
370
     0
100
AcDbSpline
210
0.0
220
0.0
230
1.0
 70
    11
 71
     3
 72
    17
 73
    13
 74
     0
 42
0.0000000001
 43
0.0000000001
 12
1.0
 22
0.0
 32
0.0
 13
1.0
 23
0.0
 33
0.0
 40
0.0
 40
0.0
 40
0.0
 40
0.0
 40
1.0
 40
1.0
 40
1.0
 40
2.0
 40
2.0
 40
2.0
 40
3.0
 40
3.0
 40
3.0
 40
4.0
 40
4.0
 40
4.0
 40
4.0
 10
91.75977374008089
 20
-136.9384114240987
 30
0.0
 10
91.61576874879745
 20
-136.9384114240987
 30
0.0
 10
91.46349552834941
 20
-137.025227830327
 30
0.0
 10
91.46349552834941
 20
-137.2281439544082
 30
0.0
 10
91.46349552834941
 20
-137.4334716453291
 30
0.0
 10
91.5902750422066
 20
-137.5347574525955
 30
0.0
 10
91.75977374008089
 20
-137.5347574525955
 30
0.0
 10
91.94580889628439
 20
-137.5347574525955
 30
0.0
 10
92.05570744226385
 20
-137.4121120533206
 30
0.0
 10
92.05570744226385
 20
-137.2343451262817
 30
0.0
 10
92.05570744226385
 20
-137.0124809770316
 30
0.0
 10
91.89275442581153
 20
-136.9384114240987
 30
0.0
 10
91.75977374008089
 20
-136.9384114240987
 30
0.0
  0
SPLINE
  5
DD
330
D7
100
AcDbEntity
  8
_U+30EC_U+30A4_U+30E4_U+30FC 1
370
     0
100
AcDbSpline
210
0.0
220
0.0
230
1.0
 70
    11
 71
     3
 72
    17
 73
    13
 74
     0
 42
0.0000000001
 43
0.0000000001
 12
1.0
 22
0.0
 32
0.0
 13
1.0
 23
0.0
 33
0.0
 40
0.0
 40
0.0
 40
0.0
 40
0.0
 40
1.0
 40
1.0
 40
1.0
 40
2.0
 40
2.0
 40
2.0
 40
3.0
 40
3.0
 40
3.0
 40
4.0
 40
4.0
 40
4.0
 40
4.0
 10
91.75977374008089
 20
-136.2783311291249
 30
0.0
 10
91.59475366633743
 20
-136.2783311291249
 30
0.0
 10
91.51000431740029
 20
-136.3734157645178
 30
0.0
 10
91.51000431740029
 20
-136.5088080170881
 30
0.0
 10
91.51000431740029
 20
-136.631453416363
 30
0.0
 10
91.582006813042
 20
-136.7499647010556
 30
0.0
 10
91.75977374008089
 20
-136.7499647010556
 30
0.0
 10
91.93719615757126
 20
-136.7499647010556
 30
0.0
 10
92.00919865321298
 20
-136.631453416363
 30
0.0
 10
92.00919865321298
 20
-136.5088080170881
 30
0.0
 10
92.00919865321298
 20
-136.3734157645178
 30
0.0
 10
91.92238224698468
 20
-136.2783311291249
 30
0.0
 10
91.75977374008089
 20
-136.2783311291249
 30
0.0
  0
HATCH
  5
DE
330
D7
100
AcDbEntity
  8
_U+30EC_U+30A4_U+30E4_U+30FC 1
 62
   179
420
  2234388
100
AcDbHatch
 10
0.0
 20
0.0
 30
0.0
210
0.0
220
0.0
230
1.0
  2
SOLID
 70
     1
 71
     0
 91
        3
 92
        1
 93
        1
 72
     4
 94
        3
 73
     0
 74
     1
 95
       29
 96
       25
 40
0.0
 40
0.0
 40
0.0
 40
0.0
 40
1.0
 40
1.0
 40
1.0
 40
2.0
 40
2.0
 40
2.0
 40
3.0
 40
3.0
 40
3.0
 40
4.0
 40
4.0
 40
4.0
 40
5.0
 40
5.0
 40
5.0
 40
6.0
 40
6.0
 40
6.0
 40
7.0
 40
7.0
 40
7.0
 40
8.0
 40
8.0
 40
8.0
 40
8.0
 10
91.75977374008089
 20
-137.7294053475121
 10
91.49312334952256
 20
-137.7294053475121
 10
91.23921981225965
 20
-137.5919460376506
 10
91.23921981225965
 20
-137.2429578649948
 10
91.23921981225965
 20
-136.9869872704407
 10
91.38081323670342
 20
-136.8919026350479
 10
91.48657766810058
 20
-136.8305799354104
 10
91.36186521153454
 20
-136.7713242930641
 10
91.28572860131051
 20
-136.6569471229538
 10
91.28572860131051
 20
-136.4960611637927
 10
91.28572860131051
 20
-136.2211425440697
 10
91.48451061080944
 20
-136.0857502914994
 10
91.75977374008089
 20
-136.0857502914994
 10
92.04296058896843
 20
-136.0857502914994
 10
92.23347436930274
 20
-136.2297552827828
 10
92.23347436930274
 20
-136.4960611637927
 10
92.23347436930274
 20
-136.6569471229538
 10
92.15527070178757
 20
-136.7713242930641
 10
92.03055824522153
 20
-136.8305799354104
 10
92.11909719919245
 20
-136.8812228390436
 10
92.27791610106247
 20
-136.9763074744365
 10
92.27791610106247
 20
-137.2388237504125
 10
92.27791610106247
 20
-137.6133056296592
 10
91.99851885720871
 20
-137.7294053475121
 10
91.75977374008089
 20
-137.7294053475121
 97
        0
 97
        0
 92
        1
 93
        1
 72
     4
 94
        3
 73
     0
 74
     1
 95
       17
 96
       13
 40
0.0
 40
0.0
 40
0.0
 40
0.0
 40
1.0
 40
1.0
 40
1.0
 40
2.0
 40
2.0
 40
2.0
 40
3.0
 40
3.0
 40
3.0
 40
4.0
 40
4.0
 40
4.0
 40
4.0
 10
91.75977374008089
 20
-136.9384114240987
 10
91.61576874879745
 20
-136.9384114240987
 10
91.46349552834941
 20
-137.025227830327
 10
91.46349552834941
 20
-137.2281439544082
 10
91.46349552834941
 20
-137.4334716453291
 10
91.5902750422066
 20
-137.5347574525955
 10
91.75977374008089
 20
-137.5347574525955
 10
91.94580889628439
 20
-137.5347574525955
 10
92.05570744226385
 20
-137.4121120533206
 10
92.05570744226385
 20
-137.2343451262817
 10
92.05570744226385
 20
-137.0124809770316
 10
91.89275442581153
 20
-136.9384114240987
 10
91.75977374008089
 20
-136.9384114240987
 97
        0
 97
        0
 92
        1
 93
        1
 72
     4
 94
        3
 73
     0
 74
     1
 95
       17
 96
       13
 40
0.0
 40
0.0
 40
0.0
 40
0.0
 40
1.0
 40
1.0
 40
1.0
 40
2.0
 40
2.0
 40
2.0
 40
3.0
 40
3.0
 40
3.0
 40
4.0
 40
4.0
 40
4.0
 40
4.0
 10
91.75977374008089
 20
-136.2783311291249
 10
91.59475366633743
 20
-136.2783311291249
 10
91.51000431740029
 20
-136.3734157645178
 10
91.51000431740029
 20
-136.5088080170881
 10
91.51000431740029
 20
-136.631453416363
 10
91.582006813042
 20
-136.7499647010556
 10
91.75977374008089
 20
-136.7499647010556
 10
91.93719615757126
 20
-136.7499647010556
 10
92.00919865321298
 20
-136.631453416363
 10
92.00919865321298
 20
-136.5088080170881
 10
92.00919865321298
 20
-136.3734157645178
 10
91.92238224698468
 20
-136.2783311291249
 10
91.75977374008089
 20
-136.2783311291249
 97
        0
 97
        0
 75
     2
 76
     1
 98
        0
  0
SPLINE
  5
DF
330
D7
100
AcDbEntity
  8
_U+30EC_U+30A4_U+30E4_U+30FC 1
370
     0
100
AcDbSpline
210
0.0
220
0.0
230
1.0
 70
    11
 71
     3
 72
    29
 73
    25
 74
     0
 42
0.0000000001
 43
0.0000000001
 12
1.0
 22
0.0
 32
0.0
 13
1.0
 23
0.0
 33
0.0
 40
0.0
 40
0.0
 40
0.0
 40
0.0
 40
1.0
 40
1.0
 40
1.0
 40
2.0
 40
2.0
 40
2.0
 40
3.0
 40
3.0
 40
3.0
 40
4.0
 40
4.0
 40
4.0
 40
5.0
 40
5.0
 40
5.0
 40
6.0
 40
6.0
 40
6.0
 40
7.0
 40
7.0
 40
7.0
 40
8.0
 40
8.0
 40
8.0
 40
8.0
 10
93.33418237684008
 20
-137.50099551684
 30
0.0
 10
93.22635088815176
 20
-137.7104573223432
 30
0.0
 10
93.05271807569515
 20
-137.7294053475121
 30
0.0
 10
92.93661835784224
 20
-137.7294053475121
 30
0.0
 10
92.77573239868107
 20
-137.7294053475121
 30
0.0
 10
92.6341389742373
 20
-137.6828965584612
 30
0.0
 10
92.53870982929588
 20
-137.50099551684
 30
0.0
 10
92.43501245518986
 20
-137.3063476219234
 30
0.0
 10
92.41606443002098
 20
-137.0693250525382
 30
0.0
 10
92.41606443002098
 20
-136.9067165456344
 30
0.0
 10
92.41606443002098
 20
-136.762711554351
 30
0.0
 10
92.4329453978987
 20
-136.5108750743792
 30
0.0
 10
92.53870982929588
 20
-136.3120930648803
 30
0.0
 10
92.6465413179842
 20
-136.1091769407991
 30
0.0
 10
92.80742727714536
 20
-136.0857502914994
 30
0.0
 10
92.93661835784224
 20
-136.0857502914994
 30
0.0
 10
93.09509275016373
 20
-136.0857502914994
 30
0.0
 10
93.23909774144717
 20
-136.1301920232591
 30
0.0
 10
93.33418237684008
 20
-136.3120930648803
 30
0.0
 10
93.4337456363638
 20
-136.5046739025058
 30
0.0
 10
93.45682777611496
 20
-136.7330837331778
 30
0.0
 10
93.45682777611496
 20
-136.9067165456344
 30
0.0
 10
93.45682777611496
 20
-137.0779377912513
 30
0.0
 10
93.43581269365494
 20
-137.3084146792146
 30
0.0
 10
93.33418237684008
 20
-137.50099551684
 30
0.0
  0
SPLINE
  5
E0
330
D7
100
AcDbEntity
  8
_U+30EC_U+30A4_U+30E4_U+30FC 1
370
     0
100
AcDbSpline
210
0.0
220
0.0
230
1.0
 70
    11
 71
     3
 72
    17
 73
    13
 74
     0
 42
0.0000000001
 43
0.0000000001
 12
1.0
 22
0.0
 32
0.0
 13
1.0
 23
0.0
 33
0.0
 40
0.0
 40
0.0
 40
0.0
 40
0.0
 40
1.0
 40
1.0
 40
1.0
 40
2.0
 40
2.0
 40
2.0
 40
3.0
 40
3.0
 40
3.0
 40
4.0
 40
4.0
 40
4.0
 40
4.0
 10
92.93661835784224
 20
-136.2783311291249
 30
0.0
 10
92.68684893516162
 20
-136.2783311291249
 30
0.0
 10
92.64034014611076
 20
-136.5618624875609
 30
0.0
 10
92.64034014611076
 20
-136.9067165456344
 30
0.0
 10
92.64034014611076
 20
-137.2260768971171
 30
0.0
 10
92.67616913915735
 20
-137.5347574525955
 30
0.0
 10
92.93661835784224
 20
-137.5347574525955
 30
0.0
 10
93.18397621368318
 20
-137.5347574525955
 30
0.0
 10
93.2325520600252
 20
-137.2536376609991
 30
0.0
 10
93.2325520600252
 20
-136.9067165456344
 30
0.0
 10
93.2325520600252
 20
-136.5870116846033
 30
0.0
 10
93.19465600968745
 20
-136.2783311291249
 30
0.0
 10
92.93661835784224
 20
-136.2783311291249
 30
0.0
  0
HATCH
  5
E1
330
D7
100
AcDbEntity
  8
_U+30EC_U+30A4_U+30E4_U+30FC 1
 62
   179
420
  2234388
100
AcDbHatch
 10
0.0
 20
0.0
 30
0.0
210
0.0
220
0.0
230
1.0
  2
SOLID
 70
     1
 71
     0
 91
        2
 92
        1
 93
        1
 72
     4
 94
        3
 73
     0
 74
     1
 95
       29
 96
       25
 40
0.0
 40
0.0
 40
0.0
 40
0.0
 40
1.0
 40
1.0
 40
1.0
 40
2.0
 40
2.0
 40
2.0
 40
3.0
 40
3.0
 40
3.0
 40
4.0
 40
4.0
 40
4.0
 40
5.0
 40
5.0
 40
5.0
 40
6.0
 40
6.0
 40
6.0
 40
7.0
 40
7.0
 40
7.0
 40
8.0
 40
8.0
 40
8.0
 40
8.0
 10
93.33418237684008
 20
-137.50099551684
 10
93.22635088815176
 20
-137.7104573223432
 10
93.05271807569515
 20
-137.7294053475121
 10
92.93661835784224
 20
-137.7294053475121
 10
92.77573239868107
 20
-137.7294053475121
 10
92.6341389742373
 20
-137.6828965584612
 10
92.53870982929588
 20
-137.50099551684
 10
92.43501245518986
 20
-137.3063476219234
 10
92.41606443002098
 20
-137.0693250525382
 10
92.41606443002098
 20
-136.9067165456344
 10
92.41606443002098
 20
-136.762711554351
 10
92.4329453978987
 20
-136.5108750743792
 10
92.53870982929588
 20
-136.3120930648803
 10
92.6465413179842
 20
-136.1091769407991
 10
92.80742727714536
 20
-136.0857502914994
 10
92.93661835784224
 20
-136.0857502914994
 10
93.09509275016373
 20
-136.0857502914994
 10
93.23909774144717
 20
-136.1301920232591
 10
93.33418237684008
 20
-136.3120930648803
 10
93.4337456363638
 20
-136.5046739025058
 10
93.45682777611496
 20
-136.7330837331778
 10
93.45682777611496
 20
-136.9067165456344
 10
93.45682777611496
 20
-137.0779377912513
 10
93.43581269365494
 20
-137.3084146792146
 10
93.33418237684008
 20
-137.50099551684
 97
        0
 97
        0
 92
        1
 93
        1
 72
     4
 94
        3
 73
     0
 74
     1
 95
       17
 96
       13
 40
0.0
 40
0.0
 40
0.0
 40
0.0
 40
1.0
 40
1.0
 40
1.0
 40
2.0
 40
2.0
 40
2.0
 40
3.0
 40
3.0
 40
3.0
 40
4.0
 40
4.0
 40
4.0
 40
4.0
 10
92.93661835784224
 20
-136.2783311291249
 10
92.68684893516162
 20
-136.2783311291249
 10
92.64034014611076
 20
-136.5618624875609
 10
92.64034014611076
 20
-136.9067165456344
 10
92.64034014611076
 20
-137.2260768971171
 10
92.67616913915735
 20
-137.5347574525955
 10
92.93661835784224
 20
-137.5347574525955
 10
93.18397621368318
 20
-137.5347574525955
 10
93.2325520600252
 20
-137.2536376609991
 10
93.2325520600252
 20
-136.9067165456344
 10
93.2325520600252
 20
-136.5870116846033
 10
93.19465600968745
 20
-136.2783311291249
 10
92.93661835784224
 20
-136.2783311291249
 97
        0
 97
        0
 75
     2
 76
     1
 98
        0
  0
ENDBLK
  5
DA
330
D7
100
AcDbEntity
  8
0
100
AcDbBlockEnd
  0
BLOCK
  5
E4
330
E2
100
AcDbEntity
  8
0
100
AcDbBlockBegin
  2
block 7
 70
     0
 10
0.0
 20
0.0
 30
0.0
  3
block 7
  1

  0
SPLINE
  5
E6
330
E2
100
AcDbEntity
  8
_U+30EC_U+30A4_U+30E4_U+30FC 1
370
     0
100
AcDbSpline
210
0.0
220
0.0
230
1.0
 70
    11
 71
     3
 72
    62
 73
    58
 74
     0
 42
0.0000000001
 43
0.0000000001
 12
1.0
 22
0.0
 32
0.0
 13
1.0
 23
0.0
 33
0.0
 40
0.0
 40
0.0
 40
0.0
 40
0.0
 40
1.0
 40
1.0
 40
1.0
 40
2.0
 40
2.0
 40
2.0
 40
3.0
 40
3.0
 40
3.0
 40
4.0
 40
4.0
 40
4.0
 40
5.0
 40
5.0
 40
5.0
 40
6.0
 40
6.0
 40
6.0
 40
7.0
 40
7.0
 40
7.0
 40
8.0
 40
8.0
 40
8.0
 40
9.0
 40
9.0
 40
9.0
 40
10.0
 40
10.0
 40
10.0
 40
11.0
 40
11.0
 40
11.0
 40
12.0
 40
12.0
 40
12.0
 40
13.0
 40
13.0
 40
13.0
 40
14.0
 40
14.0
 40
14.0
 40
15.0
 40
15.0
 40
15.0
 40
16.0
 40
16.0
 40
16.0
 40
17.0
 40
17.0
 40
17.0
 40
18.0
 40
18.0
 40
18.0
 40
19.0
 40
19.0
 40
19.0
 40
19.0
 10
101.8056721750694
 20
-119.7379109401176
 30
0.0
 10
101.710243030128
 20
-119.7379109401176
 30
0.0
 10
101.4925129954602
 20
-119.7167236028833
 30
0.0
 10
101.3674560293456
 20
-119.5305161919056
 30
0.0
 10
101.2933864764128
 20
-119.4183783338607
 30
0.0
 10
101.2892523618305
 20
-119.3189873291112
 30
0.0
 10
101.2851182472482
 20
-119.2344102349483
 30
0.0
 10
101.2851182472482
 20
-119.2344102349483
 30
0.0
 10
101.5052598487556
 20
-119.2344102349483
 30
0.0
 10
101.5052598487556
 20
-119.2344102349483
 30
0.0
 10
101.5073269060468
 20
-119.3084797878812
 30
0.0
 10
101.5176621925025
 20
-119.543263045201
 30
0.0
 10
101.8011935509386
 20
-119.543263045201
 30
0.0
 10
101.9386528608001
 20
-119.543263045201
 30
0.0
 10
102.0912705907966
 20
-119.4734998616247
 30
0.0
 10
102.0912705907966
 20
-119.2449177761784
 30
0.0
 10
102.0912705907966
 20
-119.1286458035512
 30
0.0
 10
102.0530300309104
 20
-119.0798977024349
 30
0.0
 10
102.0213351524461
 20
-119.0482028239706
 30
0.0
 10
101.9472655995132
 20
-118.9741332710377
 30
0.0
 10
101.8308213721117
 20
-118.9615586725166
 30
0.0
 10
101.7760443538963
 20
-118.9615586725166
 30
0.0
 10
101.7567518191789
 20
-118.9615586725166
 30
0.0
 10
101.7209228261323
 20
-118.9636257298077
 30
0.0
 10
101.6933620622503
 20
-118.96775984439
 30
0.0
 10
101.6933620622503
 20
-118.96775984439
 30
0.0
 10
101.6933620622503
 20
-118.7731119494734
 30
0.0
 10
101.6933620622503
 20
-118.7731119494734
 30
0.0
 10
101.7316026221365
 20
-118.7794853761211
 30
0.0
 10
101.7736327870566
 20
-118.7817246881865
 30
0.0
 10
101.7801784684786
 20
-118.7817246881865
 30
0.0
 10
101.8456352826983
 20
-118.7817246881865
 30
0.0
 10
102.0444172921972
 20
-118.7605373509522
 30
0.0
 10
102.0444172921972
 20
-118.523514781567
 30
0.0
 10
102.0444172921972
 20
-118.3459201093024
 30
0.0
 10
101.9135036637577
 20
-118.2907985815384
 30
0.0
 10
101.8032606082297
 20
-118.2907985815384
 30
0.0
 10
101.5390217845111
 20
-118.2907985815384
 30
0.0
 10
101.530409045798
 20
-118.523514781567
 30
0.0
 10
101.5262749312157
 20
-118.5955172772088
 30
0.0
 10
101.5262749312157
 20
-118.5955172772088
 30
0.0
 10
101.3230142975859
 20
-118.5955172772088
 30
0.0
 10
101.3230142975859
 20
-118.5955172772088
 30
0.0
 10
101.331627036299
 20
-118.4706325658685
 30
0.0
 10
101.359187800181
 20
-118.0940836293307
 30
0.0
 10
101.8160074615252
 20
-118.0940836293307
 30
0.0
 10
102.0402831776149
 20
-118.0940836293307
 30
0.0
 10
102.2814398615824
 20
-118.2210353979621
 30
0.0
 10
102.2814398615824
 20
-118.5171413549193
 30
0.0
 10
102.2814398615824
 20
-118.7033487658971
 30
0.0
 10
102.1863552261895
 20
-118.7858588027688
 30
0.0
 10
102.0867919666658
 20
-118.8471815024063
 30
0.0
 10
102.1481146663033
 20
-118.8747422662883
 30
0.0
 10
102.3300157079244
 20
-118.9551852458688
 30
0.0
 10
102.3300157079244
 20
-119.2323431776572
 30
0.0
 10
102.3300157079244
 20
-119.570823809083
 30
0.0
 10
102.0826578520835
 20
-119.7379109401176
 30
0.0
 10
101.8056721750694
 20
-119.7379109401176
 30
0.0
  0
HATCH
  5
E7
330
E2
100
AcDbEntity
  8
_U+30EC_U+30A4_U+30E4_U+30FC 1
 62
   179
420
  2234388
100
AcDbHatch
 10
0.0
 20
0.0
 30
0.0
210
0.0
220
0.0
230
1.0
  2
SOLID
 70
     1
 71
     0
 91
        1
 92
        1
 93
        1
 72
     4
 94
        3
 73
     0
 74
     1
 95
       62
 96
       58
 40
0.0
 40
0.0
 40
0.0
 40
0.0
 40
1.0
 40
1.0
 40
1.0
 40
2.0
 40
2.0
 40
2.0
 40
3.0
 40
3.0
 40
3.0
 40
4.0
 40
4.0
 40
4.0
 40
5.0
 40
5.0
 40
5.0
 40
6.0
 40
6.0
 40
6.0
 40
7.0
 40
7.0
 40
7.0
 40
8.0
 40
8.0
 40
8.0
 40
9.0
 40
9.0
 40
9.0
 40
10.0
 40
10.0
 40
10.0
 40
11.0
 40
11.0
 40
11.0
 40
12.0
 40
12.0
 40
12.0
 40
13.0
 40
13.0
 40
13.0
 40
14.0
 40
14.0
 40
14.0
 40
15.0
 40
15.0
 40
15.0
 40
16.0
 40
16.0
 40
16.0
 40
17.0
 40
17.0
 40
17.0
 40
18.0
 40
18.0
 40
18.0
 40
19.0
 40
19.0
 40
19.0
 40
19.0
 10
101.8056721750694
 20
-119.7379109401176
 10
101.710243030128
 20
-119.7379109401176
 10
101.4925129954602
 20
-119.7167236028833
 10
101.3674560293456
 20
-119.5305161919056
 10
101.2933864764128
 20
-119.4183783338607
 10
101.2892523618305
 20
-119.3189873291112
 10
101.2851182472482
 20
-119.2344102349483
 10
101.2851182472482
 20
-119.2344102349483
 10
101.5052598487556
 20
-119.2344102349483
 10
101.5052598487556
 20
-119.2344102349483
 10
101.5073269060468
 20
-119.3084797878812
 10
101.5176621925025
 20
-119.543263045201
 10
101.8011935509386
 20
-119.543263045201
 10
101.9386528608001
 20
-119.543263045201
 10
102.0912705907966
 20
-119.4734998616247
 10
102.0912705907966
 20
-119.2449177761784
 10
102.0912705907966
 20
-119.1286458035512
 10
102.0530300309104
 20
-119.0798977024349
 10
102.0213351524461
 20
-119.0482028239706
 10
101.9472655995132
 20
-118.9741332710377
 10
101.8308213721117
 20
-118.9615586725166
 10
101.7760443538963
 20
-118.9615586725166
 10
101.7567518191789
 20
-118.9615586725166
 10
101.7209228261323
 20
-118.9636257298077
 10
101.6933620622503
 20
-118.96775984439
 10
101.6933620622503
 20
-118.96775984439
 10
101.6933620622503
 20
-118.7731119494734
 10
101.6933620622503
 20
-118.7731119494734
 10
101.7316026221365
 20
-118.7794853761211
 10
101.7736327870566
 20
-118.7817246881865
 10
101.7801784684786
 20
-118.7817246881865
 10
101.8456352826983
 20
-118.7817246881865
 10
102.0444172921972
 20
-118.7605373509522
 10
102.0444172921972
 20
-118.523514781567
 10
102.0444172921972
 20
-118.3459201093024
 10
101.9135036637577
 20
-118.2907985815384
 10
101.8032606082297
 20
-118.2907985815384
 10
101.5390217845111
 20
-118.2907985815384
 10
101.530409045798
 20
-118.523514781567
 10
101.5262749312157
 20
-118.5955172772088
 10
101.5262749312157
 20
-118.5955172772088
 10
101.3230142975859
 20
-118.5955172772088
 10
101.3230142975859
 20
-118.5955172772088
 10
101.331627036299
 20
-118.4706325658685
 10
101.359187800181
 20
-118.0940836293307
 10
101.8160074615252
 20
-118.0940836293307
 10
102.0402831776149
 20
-118.0940836293307
 10
102.2814398615824
 20
-118.2210353979621
 10
102.2814398615824
 20
-118.5171413549193
 10
102.2814398615824
 20
-118.7033487658971
 10
102.1863552261895
 20
-118.7858588027688
 10
102.0867919666658
 20
-118.8471815024063
 10
102.1481146663033
 20
-118.8747422662883
 10
102.3300157079244
 20
-118.9551852458688
 10
102.3300157079244
 20
-119.2323431776572
 10
102.3300157079244
 20
-119.570823809083
 10
102.0826578520835
 20
-119.7379109401176
 10
101.8056721750694
 20
-119.7379109401176
 97
        0
 97
        0
 75
     2
 76
     1
 98
        0
  0
SPLINE
  5
E8
330
E2
100
AcDbEntity
  8
_U+30EC_U+30A4_U+30E4_U+30FC 1
370
     0
100
AcDbSpline
210
0.0
220
0.0
230
1.0
 70
    11
 71
     3
 72
    44
 73
    40
 74
     0
 42
0.0000000001
 43
0.0000000001
 12
1.0
 22
0.0
 32
0.0
 13
1.0
 23
0.0
 33
0.0
 40
0.0
 40
0.0
 40
0.0
 40
0.0
 40
1.0
 40
1.0
 40
1.0
 40
2.0
 40
2.0
 40
2.0
 40
3.0
 40
3.0
 40
3.0
 40
4.0
 40
4.0
 40
4.0
 40
5.0
 40
5.0
 40
5.0
 40
6.0
 40
6.0
 40
6.0
 40
7.0
 40
7.0
 40
7.0
 40
8.0
 40
8.0
 40
8.0
 40
9.0
 40
9.0
 40
9.0
 40
10.0
 40
10.0
 40
10.0
 40
11.0
 40
11.0
 40
11.0
 40
12.0
 40
12.0
 40
12.0
 40
13.0
 40
13.0
 40
13.0
 40
13.0
 10
103.0838026000971
 20
-119.1053914090257
 30
0.0
 10
102.8660725654293
 20
-119.2640380561215
 30
0.0
 10
102.7730549873276
 20
-119.3381076090544
 30
0.0
 10
102.724134631437
 20
-119.4819403455635
 30
0.0
 10
102.724134631437
 20
-119.4819403455635
 30
0.0
 10
103.5027262111035
 20
-119.4819403455635
 30
0.0
 10
103.5027262111035
 20
-119.4819403455635
 30
0.0
 10
103.5027262111035
 20
-119.4819403455635
 30
0.0
 10
103.5027262111035
 20
-119.6870957817102
 30
0.0
 10
103.5027262111035
 20
-119.6870957817102
 30
0.0
 10
103.5027262111035
 20
-119.6870957817102
 30
0.0
 10
102.4747097183049
 20
-119.6870957817102
 30
0.0
 10
102.4747097183049
 20
-119.6870957817102
 30
0.0
 10
102.5064045967692
 20
-119.3294948703412
 30
0.0
 10
102.571861410989
 20
-119.2512912028261
 30
0.0
 10
102.9570230862399
 20
-118.9529459338034
 30
0.0
 10
103.212993680794
 20
-118.7541639243045
 30
0.0
 10
103.2784504950137
 20
-118.6864677980194
 30
0.0
 10
103.2784504950137
 20
-118.5490084881579
 30
0.0
 10
103.2784504950137
 20
-118.4304972034653
 30
0.0
 10
103.2067925089205
 20
-118.2994113202515
 30
0.0
 10
103.0097330471642
 20
-118.2994113202515
 30
0.0
 10
102.7496283380279
 20
-118.2994113202515
 30
0.0
 10
102.7413601088633
 20
-118.5298882082148
 30
0.0
 10
102.7368814847325
 20
-118.6463324356162
 30
0.0
 10
102.7368814847325
 20
-118.6463324356162
 30
0.0
 10
102.5126057686427
 20
-118.6463324356162
 30
0.0
 10
102.5126057686427
 20
-118.6463324356162
 30
0.0
 10
102.5212185073558
 20
-118.5193806669847
 30
0.0
 10
102.5318983033601
 20
-118.4072428089399
 30
0.0
 10
102.6121690281664
 20
-118.2887315242473
 30
0.0
 10
102.7220675741459
 20
-118.1280178198604
 30
0.0
 10
102.9084472398979
 20
-118.0940836293307
 30
0.0
 10
103.0245469577508
 20
-118.0940836293307
 30
0.0
 10
103.3018771443134
 20
-118.0940836293307
 30
0.0
 10
103.5092718925255
 20
-118.2782239830173
 30
0.0
 10
103.5092718925255
 20
-118.551075545449
 30
0.0
 10
103.5092718925255
 20
-118.7794853761211
 30
0.0
 10
103.392827665124
 20
-118.8790486356448
 30
0.0
 10
103.0838026000971
 20
-119.1053914090257
 30
0.0
  0
HATCH
  5
E9
330
E2
100
AcDbEntity
  8
_U+30EC_U+30A4_U+30E4_U+30FC 1
 62
   179
420
  2234388
100
AcDbHatch
 10
0.0
 20
0.0
 30
0.0
210
0.0
220
0.0
230
1.0
  2
SOLID
 70
     1
 71
     0
 91
        1
 92
        1
 93
        1
 72
     4
 94
        3
 73
     0
 74
     1
 95
       44
 96
       40
 40
0.0
 40
0.0
 40
0.0
 40
0.0
 40
1.0
 40
1.0
 40
1.0
 40
2.0
 40
2.0
 40
2.0
 40
3.0
 40
3.0
 40
3.0
 40
4.0
 40
4.0
 40
4.0
 40
5.0
 40
5.0
 40
5.0
 40
6.0
 40
6.0
 40
6.0
 40
7.0
 40
7.0
 40
7.0
 40
8.0
 40
8.0
 40
8.0
 40
9.0
 40
9.0
 40
9.0
 40
10.0
 40
10.0
 40
10.0
 40
11.0
 40
11.0
 40
11.0
 40
12.0
 40
12.0
 40
12.0
 40
13.0
 40
13.0
 40
13.0
 40
13.0
 10
103.0838026000971
 20
-119.1053914090257
 10
102.8660725654293
 20
-119.2640380561215
 10
102.7730549873276
 20
-119.3381076090544
 10
102.724134631437
 20
-119.4819403455635
 10
102.724134631437
 20
-119.4819403455635
 10
103.5027262111035
 20
-119.4819403455635
 10
103.5027262111035
 20
-119.4819403455635
 10
103.5027262111035
 20
-119.4819403455635
 10
103.5027262111035
 20
-119.6870957817102
 10
103.5027262111035
 20
-119.6870957817102
 10
103.5027262111035
 20
-119.6870957817102
 10
102.4747097183049
 20
-119.6870957817102
 10
102.4747097183049
 20
-119.6870957817102
 10
102.5064045967692
 20
-119.3294948703412
 10
102.571861410989
 20
-119.2512912028261
 10
102.9570230862399
 20
-118.9529459338034
 10
103.212993680794
 20
-118.7541639243045
 10
103.2784504950137
 20
-118.6864677980194
 10
103.2784504950137
 20
-118.5490084881579
 10
103.2784504950137
 20
-118.4304972034653
 10
103.2067925089205
 20
-118.2994113202515
 10
103.0097330471642
 20
-118.2994113202515
 10
102.7496283380279
 20
-118.2994113202515
 10
102.7413601088633
 20
-118.5298882082148
 10
102.7368814847325
 20
-118.6463324356162
 10
102.7368814847325
 20
-118.6463324356162
 10
102.5126057686427
 20
-118.6463324356162
 10
102.5126057686427
 20
-118.6463324356162
 10
102.5212185073558
 20
-118.5193806669847
 10
102.5318983033601
 20
-118.4072428089399
 10
102.6121690281664
 20
-118.2887315242473
 10
102.7220675741459
 20
-118.1280178198604
 10
102.9084472398979
 20
-118.0940836293307
 10
103.0245469577508
 20
-118.0940836293307
 10
103.3018771443134
 20
-118.0940836293307
 10
103.5092718925255
 20
-118.2782239830173
 10
103.5092718925255
 20
-118.551075545449
 10
103.5092718925255
 20
-118.7794853761211
 10
103.392827665124
 20
-118.8790486356448
 10
103.0838026000971
 20
-119.1053914090257
 97
        0
 97
        0
 75
     2
 76
     1
 98
        0
  0
ENDBLK
  5
E5
330
E2
100
AcDbEntity
  8
0
100
AcDbBlockEnd
  0
BLOCK
  5
EC
330
EA
100
AcDbEntity
  8
0
100
AcDbBlockBegin
  2
block 8
 70
     0
 10
0.0
 20
0.0
 30
0.0
  3
block 8
  1

  0
SPLINE
  5
EE
330
EA
100
AcDbEntity
  8
_U+30EC_U+30A4_U+30E4_U+30FC 1
370
     0
100
AcDbSpline
210
0.0
220
0.0
230
1.0
 70
    11
 71
     3
 72
    26
 73
    22
 74
     0
 42
0.0000000001
 43
0.0000000001
 12
1.0
 22
0.0
 32
0.0
 13
1.0
 23
0.0
 33
0.0
 40
0.0
 40
0.0
 40
0.0
 40
0.0
 40
1.0
 40
1.0
 40
1.0
 40
2.0
 40
2.0
 40
2.0
 40
3.0
 40
3.0
 40
3.0
 40
4.0
 40
4.0
 40
4.0
 40
5.0
 40
5.0
 40
5.0
 40
6.0
 40
6.0
 40
6.0
 40
7.0
 40
7.0
 40
7.0
 40
7.0
 10
104.6461534026579
 20
-124.214295758877
 30
0.0
 10
104.6461534026579
 20
-124.214295758877
 30
0.0
 10
104.6461534026579
 20
-123.1099704010801
 30
0.0
 10
104.6461534026579
 20
-123.1099704010801
 30
0.0
 10
104.6461534026579
 20
-123.1099704010801
 30
0.0
 10
104.316113255171
 20
-123.1099704010801
 30
0.0
 10
104.316113255171
 20
-123.1099704010801
 30
0.0
 10
104.316113255171
 20
-123.1099704010801
 30
0.0
 10
104.316113255171
 20
-122.9620035499887
 30
0.0
 10
104.316113255171
 20
-122.9620035499887
 30
0.0
 10
104.6482204599491
 20
-122.9471896394021
 30
0.0
 10
104.6947292489999
 20
-122.7842366229498
 30
0.0
 10
104.7243570701731
 20
-122.6700317076137
 30
0.0
 10
104.7243570701731
 20
-122.6700317076137
 30
0.0
 10
104.8704291187477
 20
-122.6700317076137
 30
0.0
 10
104.8704291187477
 20
-122.6700317076137
 30
0.0
 10
104.8704291187477
 20
-122.6700317076137
 30
0.0
 10
104.8704291187477
 20
-124.214295758877
 30
0.0
 10
104.8704291187477
 20
-124.214295758877
 30
0.0
 10
104.8704291187477
 20
-124.214295758877
 30
0.0
 10
104.6461534026579
 20
-124.214295758877
 30
0.0
 10
104.6461534026579
 20
-124.214295758877
 30
0.0
  0
HATCH
  5
EF
330
EA
100
AcDbEntity
  8
_U+30EC_U+30A4_U+30E4_U+30FC 1
 62
   179
420
  2234388
100
AcDbHatch
 10
0.0
 20
0.0
 30
0.0
210
0.0
220
0.0
230
1.0
  2
SOLID
 70
     1
 71
     0
 91
        1
 92
        1
 93
        1
 72
     4
 94
        3
 73
     0
 74
     1
 95
       26
 96
       22
 40
0.0
 40
0.0
 40
0.0
 40
0.0
 40
1.0
 40
1.0
 40
1.0
 40
2.0
 40
2.0
 40
2.0
 40
3.0
 40
3.0
 40
3.0
 40
4.0
 40
4.0
 40
4.0
 40
5.0
 40
5.0
 40
5.0
 40
6.0
 40
6.0
 40
6.0
 40
7.0
 40
7.0
 40
7.0
 40
7.0
 10
104.6461534026579
 20
-124.214295758877
 10
104.6461534026579
 20
-124.214295758877
 10
104.6461534026579
 20
-123.1099704010801
 10
104.6461534026579
 20
-123.1099704010801
 10
104.6461534026579
 20
-123.1099704010801
 10
104.316113255171
 20
-123.1099704010801
 10
104.316113255171
 20
-123.1099704010801
 10
104.316113255171
 20
-123.1099704010801
 10
104.316113255171
 20
-122.9620035499887
 10
104.316113255171
 20
-122.9620035499887
 10
104.6482204599491
 20
-122.9471896394021
 10
104.6947292489999
 20
-122.7842366229498
 10
104.7243570701731
 20
-122.6700317076137
 10
104.7243570701731
 20
-122.6700317076137
 10
104.8704291187477
 20
-122.6700317076137
 10
104.8704291187477
 20
-122.6700317076137
 10
104.8704291187477
 20
-122.6700317076137
 10
104.8704291187477
 20
-124.214295758877
 10
104.8704291187477
 20
-124.214295758877
 10
104.8704291187477
 20
-124.214295758877
 10
104.6461534026579
 20
-124.214295758877
 10
104.6461534026579
 20
-124.214295758877
 97
        0
 97
        0
 75
     2
 76
     1
 98
        0
  0
SPLINE
  5
F0
330
EA
100
AcDbEntity
  8
_U+30EC_U+30A4_U+30E4_U+30FC 1
370
     0
100
AcDbSpline
210
0.0
220
0.0
230
1.0
 70
    11
 71
     3
 72
    29
 73
    25
 74
     0
 42
0.0000000001
 43
0.0000000001
 12
1.0
 22
0.0
 32
0.0
 13
1.0
 23
0.0
 33
0.0
 40
0.0
 40
0.0
 40
0.0
 40
0.0
 40
1.0
 40
1.0
 40
1.0
 40
2.0
 40
2.0
 40
2.0
 40
3.0
 40
3.0
 40
3.0
 40
4.0
 40
4.0
 40
4.0
 40
5.0
 40
5.0
 40
5.0
 40
6.0
 40
6.0
 40
6.0
 40
7.0
 40
7.0
 40
7.0
 40
8.0
 40
8.0
 40
8.0
 40
8.0
 10
106.2694823953076
 20
-124.0365288318381
 30
0.0
 10
106.1613063970708
 20
-124.2459906373413
 30
0.0
 10
105.9880180941627
 20
-124.2651109172844
 30
0.0
 10
105.8715738667613
 20
-124.2651109172844
 30
0.0
 10
105.7106879076001
 20
-124.2651109172844
 30
0.0
 10
105.5690944831563
 20
-124.2186021282336
 30
0.0
 10
105.4740098477634
 20
-124.0365288318381
 30
0.0
 10
105.3703124736574
 20
-123.8418809369215
 30
0.0
 10
105.3513644484886
 20
-123.6050306223106
 30
0.0
 10
105.3513644484886
 20
-123.4420776058582
 30
0.0
 10
105.3513644484886
 20
-123.2982448693491
 30
0.0
 10
105.3682454163663
 20
-123.0465806441516
 30
0.0
 10
105.4740098477634
 20
-122.8476263798784
 30
0.0
 10
105.5818413364518
 20
-122.6445380010229
 30
0.0
 10
105.7427272956129
 20
-122.6212836064975
 30
0.0
 10
105.8715738667613
 20
-122.6212836064975
 30
0.0
 10
106.0303927686313
 20
-122.6212836064975
 30
0.0
 10
106.1740532503662
 20
-122.6657253382572
 30
0.0
 10
106.2694823953076
 20
-122.8476263798784
 30
0.0
 10
106.3687011452828
 20
-123.0402072175038
 30
0.0
 10
106.3921277945825
 20
-123.2686170481759
 30
0.0
 10
106.3921277945825
 20
-123.4420776058582
 30
0.0
 10
106.3921277945825
 20
-123.6134711062494
 30
0.0
 10
106.370768202574
 20
-123.8441202489869
 30
0.0
 10
106.2694823953076
 20
-124.0365288318381
 30
0.0
  0
SPLINE
  5
F1
330
EA
100
AcDbEntity
  8
_U+30EC_U+30A4_U+30E4_U+30FC 1
370
     0
100
AcDbSpline
210
0.0
220
0.0
230
1.0
 70
    11
 71
     3
 72
    17
 73
    13
 74
     0
 42
0.0000000001
 43
0.0000000001
 12
1.0
 22
0.0
 32
0.0
 13
1.0
 23
0.0
 33
0.0
 40
0.0
 40
0.0
 40
0.0
 40
0.0
 40
1.0
 40
1.0
 40
1.0
 40
2.0
 40
2.0
 40
2.0
 40
3.0
 40
3.0
 40
3.0
 40
4.0
 40
4.0
 40
4.0
 40
4.0
 10
105.8715738667613
 20
-122.8138644441229
 30
0.0
 10
105.6221489536292
 20
-122.8138644441229
 30
0.0
 10
105.5752956550298
 20
-123.097395802559
 30
0.0
 10
105.5752956550298
 20
-123.4420776058582
 30
0.0
 10
105.5752956550298
 20
-123.7616102121152
 30
0.0
 10
105.6114691576249
 20
-124.0704630223678
 30
0.0
 10
105.8715738667613
 20
-124.0704630223678
 30
0.0
 10
106.1192762321507
 20
-124.0704630223678
 30
0.0
 10
106.1678520784928
 20
-123.7889987212229
 30
0.0
 10
106.1678520784928
 20
-123.4420776058582
 30
0.0
 10
106.1678520784928
 20
-123.1227172543756
 30
0.0
 10
106.1296115186065
 20
-122.8138644441229
 30
0.0
 10
105.8715738667613
 20
-122.8138644441229
 30
0.0
  0
HATCH
  5
F2
330
EA
100
AcDbEntity
  8
_U+30EC_U+30A4_U+30E4_U+30FC 1
 62
   179
420
  2234388
100
AcDbHatch
 10
0.0
 20
0.0
 30
0.0
210
0.0
220
0.0
230
1.0
  2
SOLID
 70
     1
 71
     0
 91
        2
 92
        1
 93
        1
 72
     4
 94
        3
 73
     0
 74
     1
 95
       29
 96
       25
 40
0.0
 40
0.0
 40
0.0
 40
0.0
 40
1.0
 40
1.0
 40
1.0
 40
2.0
 40
2.0
 40
2.0
 40
3.0
 40
3.0
 40
3.0
 40
4.0
 40
4.0
 40
4.0
 40
5.0
 40
5.0
 40
5.0
 40
6.0
 40
6.0
 40
6.0
 40
7.0
 40
7.0
 40
7.0
 40
8.0
 40
8.0
 40
8.0
 40
8.0
 10
106.2694823953076
 20
-124.0365288318381
 10
106.1613063970708
 20
-124.2459906373413
 10
105.9880180941627
 20
-124.2651109172844
 10
105.8715738667613
 20
-124.2651109172844
 10
105.7106879076001
 20
-124.2651109172844
 10
105.5690944831563
 20
-124.2186021282336
 10
105.4740098477634
 20
-124.0365288318381
 10
105.3703124736574
 20
-123.8418809369215
 10
105.3513644484886
 20
-123.6050306223106
 10
105.3513644484886
 20
-123.4420776058582
 10
105.3513644484886
 20
-123.2982448693491
 10
105.3682454163663
 20
-123.0465806441516
 10
105.4740098477634
 20
-122.8476263798784
 10
105.5818413364518
 20
-122.6445380010229
 10
105.7427272956129
 20
-122.6212836064975
 10
105.8715738667613
 20
-122.6212836064975
 10
106.0303927686313
 20
-122.6212836064975
 10
106.1740532503662
 20
-122.6657253382572
 10
106.2694823953076
 20
-122.8476263798784
 10
106.3687011452828
 20
-123.0402072175038
 10
106.3921277945825
 20
-123.2686170481759
 10
106.3921277945825
 20
-123.4420776058582
 10
106.3921277945825
 20
-123.6134711062494
 10
106.370768202574
 20
-123.8441202489869
 10
106.2694823953076
 20
-124.0365288318381
 97
        0
 97
        0
 92
        1
 93
        1
 72
     4
 94
        3
 73
     0
 74
     1
 95
       17
 96
       13
 40
0.0
 40
0.0
 40
0.0
 40
0.0
 40
1.0
 40
1.0
 40
1.0
 40
2.0
 40
2.0
 40
2.0
 40
3.0
 40
3.0
 40
3.0
 40
4.0
 40
4.0
 40
4.0
 40
4.0
 10
105.8715738667613
 20
-122.8138644441229
 10
105.6221489536292
 20
-122.8138644441229
 10
105.5752956550298
 20
-123.097395802559
 10
105.5752956550298
 20
-123.4420776058582
 10
105.5752956550298
 20
-123.7616102121152
 10
105.6114691576249
 20
-124.0704630223678
 10
105.8715738667613
 20
-124.0704630223678
 10
106.1192762321507
 20
-124.0704630223678
 10
106.1678520784928
 20
-123.7889987212229
 10
106.1678520784928
 20
-123.4420776058582
 10
106.1678520784928
 20
-123.1227172543756
 10
106.1296115186065
 20
-122.8138644441229
 10
105.8715738667613
 20
-122.8138644441229
 97
        0
 97
        0
 75
     2
 76
     1
 98
        0
  0
ENDBLK
  5
ED
330
EA
100
AcDbEntity
  8
0
100
AcDbBlockEnd
  0
ENDSEC
  0
SECTION
  2
ENTITIES
  0
INSERT
  5
42
330
1F
100
AcDbEntity
  8
_U+30EC_U+30A4_U+30E4_U+30FC 1
100
AcDbBlockReference
  2
block 2
 10
0.0
 20
0.0
 30
0.0
  0
ENDSEC
  0
SECTION
  2
OBJECTS
  0
DICTIONARY
  5
C
330
0
100
AcDbDictionary
281
     1
  3
ACAD_GROUP
350
D
  3
ACAD_LAYOUT
350
1A
  3
ACAD_MATERIAL
350
3B
  3
ACAD_MLEADERSTYLE
350
F4
  3
ACAD_MLINESTYLE
350
17
  3
ACAD_PLOTSETTINGS
350
19
  3
ACAD_PLOTSTYLENAME
350
E
  3
ACAD_TABLESTYLE
350
F3
  3
ACAD_VISUALSTYLE
350
2A
  0
SUN
  5
3F
330
29
100
AcDbSun
 90
        1
290
     0
 63
     7
421
 16777215
 40
1.0
291
     1
 91
  2455826
 92
 54000000
292
     0
 70
     2
 71
   256
280
     1
  0
DICTIONARY
  5
D
102
{ACAD_REACTORS
330
C
102
}
330
C
100
AcDbDictionary
281
     1
  0
DICTIONARY
  5
1A
102
{ACAD_REACTORS
330
C
102
}
330
C
100
AcDbDictionary
281
     1
  3
Layout1
350
1E
  3
Layout2
350
26
  3
Model
350
22
  0
DICTIONARY
  5
3B
102
{ACAD_REACTORS
330
C
102
}
330
C
100
AcDbDictionary
281
     1
  3
ByBlock
350
3D
  3
ByLayer
350
3C
  3
Global
350
3E
  0
DICTIONARY
  5
F4
102
{ACAD_REACTORS
330
C
102
}
330
C
100
AcDbDictionary
281
     1
  0
DICTIONARY
  5
17
102
{ACAD_REACTORS
330
C
102
}
330
C
100
AcDbDictionary
281
     1
  3
Standard
350
18
  0
DICTIONARY
  5
19
102
{ACAD_REACTORS
330
C
102
}
330
C
100
AcDbDictionary
281
     1
  0
ACDBDICTIONARYWDFLT
  5
E
102
{ACAD_REACTORS
330
C
102
}
330
C
100
AcDbDictionary
281
     1
  3
Normal
350
F
100
AcDbDictionaryWithDefault
340
F
  0
DICTIONARY
  5
F3
102
{ACAD_REACTORS
330
C
102
}
330
C
100
AcDbDictionary
281
     1
  0
DICTIONARY
  5
2A
102
{ACAD_REACTORS
330
C
102
}
330
C
100
AcDbDictionary
281
     1
  3
2dWireframe
350
2F
  3
3D Hidden
350
31
  3
3dWireframe
350
30
  3
Basic
350
32
  3
Brighten
350
36
  3
ColorChange
350
3A
  3
Conceptual
350
34
  3
Dim
350
35
  3
Facepattern
350
39
  3
Flat
350
2B
  3
FlatWithEdges
350
2C
  3
Gouraud
350
2D
  3
GouraudWithEdges
350
2E
  3
Linepattern
350
38
  3
Realistic
350
33
  3
Thicken
350
37
  0
LAYOUT
  5
1E
102
{ACAD_REACTORS
330
1A
102
}
330
1A
100
AcDbPlotSettings
  1

  2
none_device
  4

  6

 40
0.0
 41
0.0
 42
0.0
 43
0.0
 44
0.0
 45
0.0
 46
0.0
 47
0.0
 48
0.0
 49
0.0
140
0.0
141
0.0
142
1.0
143
1.0
 70
   688
 72
     0
 73
     0
 74
     5
  7

 75
    16
 76
     0
 77
     2
 78
   300
147
1.0
148
0.0
149
0.0
100
AcDbLayout
  1
Layout1
 70
     1
 71
     1
 10
0.0
 20
0.0
 11
12.0
 21
9.0
 12
0.0
 22
0.0
 32
0.0
 14
1.000000000000000E+20
 24
1.000000000000000E+20
 34
1.000000000000000E+20
 15
-1.000000000000000E+20
 25
-1.000000000000000E+20
 35
-1.000000000000000E+20
146
0.0
 13
0.0
 23
0.0
 33
0.0
 16
1.0
 26
0.0
 36
0.0
 17
0.0
 27
1.0
 37
0.0
 76
     0
330
1B
  0
LAYOUT
  5
26
102
{ACAD_REACTORS
330
1A
102
}
330
1A
100
AcDbPlotSettings
  1

  2
none_device
  4

  6

 40
0.0
 41
0.0
 42
0.0
 43
0.0
 44
0.0
 45
0.0
 46
0.0
 47
0.0
 48
0.0
 49
0.0
140
0.0
141
0.0
142
1.0
143
1.0
 70
   688
 72
     0
 73
     0
 74
     5
  7

 75
    16
 76
     0
 77
     2
 78
   300
147
1.0
148
0.0
149
0.0
100
AcDbLayout
  1
Layout2
 70
     1
 71
     2
 10
0.0
 20
0.0
 11
0.0
 21
0.0
 12
0.0
 22
0.0
 32
0.0
 14
0.0
 24
0.0
 34
0.0
 15
0.0
 25
0.0
 35
0.0
146
0.0
 13
0.0
 23
0.0
 33
0.0
 16
1.0
 26
0.0
 36
0.0
 17
0.0
 27
1.0
 37
0.0
 76
     0
330
23
  0
LAYOUT
  5
22
102
{ACAD_REACTORS
330
1A
102
}
330
1A
100
AcDbPlotSettings
  1

  2
none_device
  4

  6

 40
0.0
 41
0.0
 42
0.0
 43
0.0
 44
0.0
 45
0.0
 46
0.0
 47
0.0
 48
0.0
 49
0.0
140
0.0
141
0.0
142
1.0
143
1.0
 70
  1712
 72
     0
 73
     0
 74
     0
  7

 75
     0
 76
     0
 77
     2
 78
   300
147
1.0
148
0.0
149
0.0
100
AcDbLayout
  1
Model
 70
     1
 71
     0
 10
0.0
 20
0.0
 11
12.0
 21
9.0
 12
0.0
 22
0.0
 32
0.0
 14
1.000000000000000E+20
 24
1.000000000000000E+20
 34
1.000000000000000E+20
 15
-1.000000000000000E+20
 25
-1.000000000000000E+20
 35
-1.000000000000000E+20
146
0.0
 13
0.0
 23
0.0
 33
0.0
 16
1.0
 26
0.0
 36
0.0
 17
0.0
 27
1.0
 37
0.0
 76
     0
330
1F
331
29
  0
MATERIAL
  5
3D
102
{ACAD_REACTORS
330
3B
102
}
330
3B
100
AcDbMaterial
  1
ByBlock
 72
     1
 94
      127
  0
MATERIAL
  5
3C
102
{ACAD_REACTORS
330
3B
102
}
330
3B
100
AcDbMaterial
  1
ByLayer
 72
     1
 94
      127
  0
MATERIAL
  5
3E
102
{ACAD_REACTORS
330
3B
102
}
330
3B
100
AcDbMaterial
  1
Global
 72
     1
 94
      127
  0
MLINESTYLE
  5
18
102
{ACAD_REACTORS
330
17
102
}
330
17
100
AcDbMlineStyle
  2
Standard
 70
     0
  3

 62
   256
 51
90.0
 52
90.0
 71
     2
 49
0.5
 62
   256
  6
BYLAYER
 49
-0.5
 62
   256
  6
BYLAYER
  0
ACDBPLACEHOLDER
  5
F
102
{ACAD_REACTORS
330
E
102
}
330
E
  0
VISUALSTYLE
  5
2F
102
{ACAD_REACTORS
330
2A
102
}
330
2A
100
AcDbVisualStyle
  2
2dWireframe
 70
     4
177
     2
291
     0
 71
     0
176
     1
 72
     2
176
     1
 73
     0
176
     1
 90
        0
176
     1
 40
-0.6
176
     1
 41
-30.0
176
     1
 62
     5
 63
     7
421
 16777215
176
     1
 74
     1
176
     1
 91
        4
176
     1
 64
     7
176
     1
 65
   257
176
     1
 75
     1
176
     1
175
     1
176
     1
 42
1.0
176
     1
 92
        0
176
     1
 66
   257
176
     1
 43
1.0
176
     1
 76
     1
176
     1
 77
     6
176
     1
 78
     2
176
     1
 67
     7
176
     1
 79
     5
176
     1
170
     0
176
     1
171
     0
176
     1
290
     0
176
     1
 93
        1
176
     1
 44
0.0
176
     1
173
     0
176
     1
  0
VISUALSTYLE
  5
31
102
{ACAD_REACTORS
330
2A
102
}
330
2A
100
AcDbVisualStyle
  2
3D Hidden
 70
     6
177
     2
291
     0
 71
     1
176
     1
 72
     2
176
     1
 73
     2
176
     1
 90
        0
176
     1
 40
-0.6
176
     1
 41
-30.0
176
     1
 62
     5
 63
     7
421
 16777215
176
     1
 74
     2
176
     1
 91
        2
176
     1
 64
     7
176
     1
 65
   257
176
     1
 75
     2
176
     1
175
     1
176
     1
 42
40.0
176
     1
 92
        0
176
     1
 66
   257
176
     1
 43
1.0
176
     1
 76
     1
176
     1
 77
     6
176
     1
 78
     2
176
     1
 67
     7
176
     1
 79
     3
176
     1
170
     0
176
     1
171
     0
176
     1
290
     0
176
     1
 93
        1
176
     1
 44
0.0
176
     1
173
     0
176
     1
  0
VISUALSTYLE
  5
30
102
{ACAD_REACTORS
330
2A
102
}
330
2A
100
AcDbVisualStyle
  2
3dWireframe
 70
     5
177
     2
291
     0
 71
     0
176
     1
 72
     2
176
     1
 73
     0
176
     1
 90
        0
176
     1
 40
-0.6
176
     1
 41
-30.0
176
     1
 62
     5
 63
     7
421
 16777215
176
     1
 74
     1
176
     1
 91
        4
176
     1
 64
     7
176
     1
 65
   257
176
     1
 75
     1
176
     1
175
     1
176
     1
 42
1.0
176
     1
 92
        0
176
     1
 66
   257
176
     1
 43
1.0
176
     1
 76
     1
176
     1
 77
     6
176
     1
 78
     2
176
     1
 67
     7
176
     1
 79
     5
176
     1
170
     0
176
     1
171
     0
176
     1
290
     0
176
     1
 93
        1
176
     1
 44
0.0
176
     1
173
     0
176
     1
  0
VISUALSTYLE
  5
32
102
{ACAD_REACTORS
330
2A
102
}
330
2A
100
AcDbVisualStyle
  2
Basic
 70
     7
177
     2
291
     1
 71
     1
176
     1
 72
     0
176
     1
 73
     1
176
     1
 90
        0
176
     1
 40
-0.6
176
     1
 41
-30.0
176
     1
 62
     5
 63
     7
421
 16777215
176
     1
 74
     0
176
     1
 91
        4
176
     1
 64
     7
176
     1
 65
   257
176
     1
 75
     1
176
     1
175
     1
176
     1
 42
1.0
176
     1
 92
        8
176
     1
 66
     7
176
     1
 43
1.0
176
     1
 76
     1
176
     1
 77
     6
176
     1
 78
     2
176
     1
 67
     7
176
     1
 79
     5
176
     1
170
     0
176
     1
171
     0
176
     1
290
     0
176
     1
 93
        1
176
     1
 44
0.0
176
     1
173
     0
176
     1
  0
VISUALSTYLE
  5
36
102
{ACAD_REACTORS
330
2A
102
}
330
2A
100
AcDbVisualStyle
  2
Brighten
 70
    12
177
     2
291
     1
 71
     2
176
     1
 72
     2
176
     1
 73
     0
176
     1
 90
        0
176
     1
 40
-0.6
176
     1
 41
-30.0
176
     1
 62
     5
 63
     7
421
 16777215
176
     1
 74
     1
176
     1
 91
        4
176
     1
 64
     7
176
     1
 65
   257
176
     1
 75
     1
176
     1
175
     1
176
     1
 42
1.0
176
     1
 92
        8
176
     1
 66
     7
176
     1
 43
1.0
176
     1
 76
     1
176
     1
 77
     6
176
     1
 78
     2
176
     1
 67
     7
176
     1
 79
     5
176
     1
170
     0
176
     1
171
     0
176
     1
290
     0
176
     1
 93
        1
176
     1
 44
50.0
176
     1
173
     0
176
     1
  0
VISUALSTYLE
  5
3A
102
{ACAD_REACTORS
330
2A
102
}
330
2A
100
AcDbVisualStyle
  2
ColorChange
 70
    16
177
     2
291
     1
 71
     2
176
     1
 72
     2
176
     1
 73
     3
176
     1
 90
        0
176
     1
 40
-0.6
176
     1
 41
-30.0
176
     1
 62
     5
 63
     8
421
  8421504
176
     1
 74
     1
176
     1
 91
        4
176
     1
 64
     7
176
     1
 65
   257
176
     1
 75
     1
176
     1
175
     1
176
     1
 42
1.0
176
     1
 92
        8
176
     1
 66
     8
424
  8421504
176
     1
 43
1.0
176
     1
 76
     1
176
     1
 77
     6
176
     1
 78
     2
176
     1
 67
     7
176
     1
 79
     5
176
     1
170
     0
176
     1
171
     0
176
     1
290
     0
176
     1
 93
        1
176
     1
 44
0.0
176
     1
173
     0
176
     1
  0
VISUALSTYLE
  5
34
102
{ACAD_REACTORS
330
2A
102
}
330
2A
100
AcDbVisualStyle
  2
Conceptual
 70
     9
177
     2
291
     0
 71
     3
176
     1
 72
     2
176
     1
 73
     0
176
     1
 90
        0
176
     1
 40
-0.6
176
     1
 41
-30.0
176
     1
 62
     5
 63
     7
421
 16777215
176
     1
 74
     2
176
     1
 91
        2
176
     1
 64
     7
176
     1
 65
   257
176
     1
 75
     1
176
     1
175
     1
176
     1
 42
40.0
176
     1
 92
        8
176
     1
 66
     7
176
     1
 43
1.0
176
     1
 76
     1
176
     1
 77
     6
176
     1
 78
     2
176
     1
 67
     7
176
     1
 79
     3
176
     1
170
     0
176
     1
171
     0
176
     1
290
     0
176
     1
 93
        1
176
     1
 44
0.0
176
     1
173
     0
176
     1
  0
VISUALSTYLE
  5
35
102
{ACAD_REACTORS
330
2A
102
}
330
2A
100
AcDbVisualStyle
  2
Dim
 70
    11
177
     2
291
     1
 71
     2
176
     1
 72
     2
176
     1
 73
     0
176
     1
 90
        0
176
     1
 40
-0.6
176
     1
 41
-30.0
176
     1
 62
     5
 63
     7
421
 16777215
176
     1
 74
     1
176
     1
 91
        4
176
     1
 64
     7
176
     1
 65
   257
176
     1
 75
     1
176
     1
175
     1
176
     1
 42
1.0
176
     1
 92
        8
176
     1
 66
     7
176
     1
 43
1.0
176
     1
 76
     1
176
     1
 77
     6
176
     1
 78
     2
176
     1
 67
     7
176
     1
 79
     5
176
     1
170
     0
176
     1
171
     0
176
     1
290
     0
176
     1
 93
        1
176
     1
 44
-50.0
176
     1
173
     0
176
     1
  0
VISUALSTYLE
  5
39
102
{ACAD_REACTORS
330
2A
102
}
330
2A
100
AcDbVisualStyle
  2
Facepattern
 70
    15
177
     2
291
     1
 71
     2
176
     1
 72
     2
176
     1
 73
     0
176
     1
 90
        0
176
     1
 40
-0.6
176
     1
 41
-30.0
176
     1
 62
     5
 63
     7
421
 16777215
176
     1
 74
     1
176
     1
 91
        4
176
     1
 64
     7
176
     1
 65
   257
176
     1
 75
     1
176
     1
175
     1
176
     1
 42
1.0
176
     1
 92
        8
176
     1
 66
     7
176
     1
 43
1.0
176
     1
 76
     1
176
     1
 77
     6
176
     1
 78
     2
176
     1
 67
     7
176
     1
 79
     5
176
     1
170
     0
176
     1
171
     0
176
     1
290
     0
176
     1
 93
        1
176
     1
 44
0.0
176
     1
173
     0
176
     1
  0
VISUALSTYLE
  5
2B
102
{ACAD_REACTORS
330
2A
102
}
330
2A
100
AcDbVisualStyle
  2
Flat
 70
     0
177
     2
291
     1
 71
     2
176
     1
 72
     1
176
     1
 73
     1
176
     1
 90
        2
176
     1
 40
-0.6
176
     1
 41
30.0
176
     1
 62
     5
 63
     7
421
 16777215
176
     1
 74
     0
176
     1
 91
        4
176
     1
 64
     7
176
     1
 65
   257
176
     1
 75
     1
176
     1
175
     1
176
     1
 42
1.0
176
     1
 92
        8
176
     1
 66
     7
176
     1
 43
1.0
176
     1
 76
     1
176
     1
 77
     6
176
     1
 78
     2
176
     1
 67
     7
176
     1
 79
     5
176
     1
170
     0
176
     1
171
     0
176
     1
290
     0
176
     1
 93
       13
176
     1
 44
0.0
176
     1
173
     0
176
     1
  0
VISUALSTYLE
  5
2C
102
{ACAD_REACTORS
330
2A
102
}
330
2A
100
AcDbVisualStyle
  2
FlatWithEdges
 70
     1
177
     2
291
     1
 71
     2
176
     1
 72
     1
176
     1
 73
     1
176
     1
 90
        2
176
     1
 40
-0.6
176
     1
 41
30.0
176
     1
 62
     5
 63
     7
421
 16777215
176
     1
 74
     1
176
     1
 91
        4
176
     1
 64
     7
176
     1
 65
   257
176
     1
 75
     1
176
     1
175
     1
176
     1
 42
1.0
176
     1
 92
        0
176
     1
 66
   257
176
     1
 43
1.0
176
     1
 76
     1
176
     1
 77
     6
176
     1
 78
     2
176
     1
 67
     7
176
     1
 79
     5
176
     1
170
     0
176
     1
171
     0
176
     1
290
     0
176
     1
 93
       13
176
     1
 44
0.0
176
     1
173
     0
176
     1
  0
VISUALSTYLE
  5
2D
102
{ACAD_REACTORS
330
2A
102
}
330
2A
100
AcDbVisualStyle
  2
Gouraud
 70
     2
177
     2
291
     1
 71
     2
176
     1
 72
     2
176
     1
 73
     1
176
     1
 90
        2
176
     1
 40
-0.6
176
     1
 41
30.0
176
     1
 62
     5
 63
     7
421
 16777215
176
     1
 74
     0
176
     1
 91
        4
176
     1
 64
     7
176
     1
 65
   257
176
     1
 75
     1
176
     1
175
     1
176
     1
 42
1.0
176
     1
 92
        0
176
     1
 66
     7
176
     1
 43
1.0
176
     1
 76
     1
176
     1
 77
     6
176
     1
 78
     2
176
     1
 67
     7
176
     1
 79
     5
176
     1
170
     0
176
     1
171
     0
176
     1
290
     0
176
     1
 93
       13
176
     1
 44
0.0
176
     1
173
     0
176
     1
  0
VISUALSTYLE
  5
2E
102
{ACAD_REACTORS
330
2A
102
}
330
2A
100
AcDbVisualStyle
  2
GouraudWithEdges
 70
     3
177
     2
291
     1
 71
     2
176
     1
 72
     2
176
     1
 73
     1
176
     1
 90
        2
176
     1
 40
-0.6
176
     1
 41
30.0
176
     1
 62
     5
 63
     7
421
 16777215
176
     1
 74
     1
176
     1
 91
        4
176
     1
 64
     7
176
     1
 65
   257
176
     1
 75
     1
176
     1
175
     1
176
     1
 42
1.0
176
     1
 92
        0
176
     1
 66
   257
176
     1
 43
1.0
176
     1
 76
     1
176
     1
 77
     6
176
     1
 78
     2
176
     1
 67
     7
176
     1
 79
     5
176
     1
170
     0
176
     1
171
     0
176
     1
290
     0
176
     1
 93
       13
176
     1
 44
0.0
176
     1
173
     0
176
     1
  0
VISUALSTYLE
  5
38
102
{ACAD_REACTORS
330
2A
102
}
330
2A
100
AcDbVisualStyle
  2
Linepattern
 70
    14
177
     2
291
     1
 71
     2
176
     1
 72
     2
176
     1
 73
     0
176
     1
 90
        0
176
     1
 40
-0.6
176
     1
 41
-30.0
176
     1
 62
     5
 63
     7
421
 16777215
176
     1
 74
     1
176
     1
 91
        4
176
     1
 64
     7
176
     1
 65
   257
176
     1
 75
     7
176
     1
175
     7
176
     1
 42
1.0
176
     1
 92
        8
176
     1
 66
     7
176
     1
 43
1.0
176
     1
 76
     1
176
     1
 77
     6
176
     1
 78
     2
176
     1
 67
     7
176
     1
 79
     5
176
     1
170
     0
176
     1
171
     0
176
     1
290
     0
176
     1
 93
        1
176
     1
 44
0.0
176
     1
173
     0
176
     1
  0
VISUALSTYLE
  5
33
102
{ACAD_REACTORS
330
2A
102
}
330
2A
100
AcDbVisualStyle
  2
Realistic
 70
     8
177
     2
291
     0
 71
     2
176
     1
 72
     2
176
     1
 73
     0
176
     1
 90
        0
176
     1
 40
-0.6
176
     1
 41
-30.0
176
     1
 62
     5
 63
     7
421
 16777215
176
     1
 74
     1
176
     1
 91
        0
176
     1
 64
     7
176
     1
 65
   257
176
     1
 75
     1
176
     1
175
     1
176
     1
 42
1.0
176
     1
 92
        8
176
     1
 66
     8
424
  7895160
176
     1
 43
1.0
176
     1
 76
     1
176
     1
 77
     6
176
     1
 78
     2
176
     1
 67
     7
176
     1
 79
     5
176
     1
170
     0
176
     1
171
     0
176
     1
290
     0
176
     1
 93
       13
176
     1
 44
0.0
176
     1
173
     0
176
     1
  0
VISUALSTYLE
  5
37
102
{ACAD_REACTORS
330
2A
102
}
330
2A
100
AcDbVisualStyle
  2
Thicken
 70
    13
177
     2
291
     1
 71
     2
176
     1
 72
     2
176
     1
 73
     0
176
     1
 90
        0
176
     1
 40
-0.6
176
     1
 41
-30.0
176
     1
 62
     5
 63
     7
421
 16777215
176
     1
 74
     1
176
     1
 91
        4
176
     1
 64
     7
176
     1
 65
   257
176
     1
 75
     1
176
     1
175
     1
176
     1
 42
1.0
176
     1
 92
       12
176
     1
 66
     7
176
     1
 43
1.0
176
     1
 76
     1
176
     1
 77
     6
176
     1
 78
     2
176
     1
 67
     7
176
     1
 79
     5
176
     1
170
     0
176
     1
171
     0
176
     1
290
     0
176
     1
 93
        1
176
     1
 44
0.0
176
     1
173
     0
176
     1
  0
ENDSEC
  0
EOF
