  0
SECTION
  2
HEADER
  9
$ACADVER
  1
AC1024
  9
$ACADMAINTVER
 70
     6
  9
$DWGCODEPAGE
  3
UNDEFINED
  9
$INSBASE
 10
0.0
 20
0.0
 30
0.0
  9
$EXTMIN
 10
1.000000000000000E+20
 20
1.000000000000000E+20
 30
1.000000000000000E+20
  9
$EXTMAX
 10
-1.000000000000000E+20
 20
-1.000000000000000E+20
 30
-1.000000000000000E+20
  9
$LIMMIN
 10
0.0
 20
0.0
  9
$LIMMAX
 10
12.0
 20
9.0
  9
$ORTHOMODE
 70
     0
  9
$REGENMODE
 70
     1
  9
$FILLMODE
 70
     1
  9
$QTEXTMODE
 70
     0
  9
$MIRRTEXT
 70
     1
  9
$LTSCALE
 40
1.0
  9
$ATTMODE
 70
     1
  9
$TEXTSIZE
 40
0.2
  9
$TRACEWID
 40
0.05
  9
$TEXTSTYLE
  7
Standard
  9
$CLAYER
  8
0
  9
$CELTYPE
  6
ByLayer
  9
$CECOLOR
 62
   256
  9
$CELTSCALE
 40
1.0
  9
$DISPSILH
 70
     0
  9
$DIMSCALE
 40
1.0
  9
$DIMASZ
 40
0.18
  9
$DIMEXO
 40
0.0625
  9
$DIMDLI
 40
0.38
  9
$DIMRND
 40
0.0
  9
$DIMDLE
 40
0.0
  9
$DIMEXE
 40
0.18
  9
$DIMTP
 40
0.0
  9
$DIMTM
 40
0.0
  9
$DIMTXT
 40
0.18
  9
$DIMCEN
 40
0.09
  9
$DIMTSZ
 40
0.0
  9
$DIMTOL
 70
     0
  9
$DIMLIM
 70
     0
  9
$DIMTIH
 70
     1
  9
$DIMTOH
 70
     1
  9
$DIMSE1
 70
     0
  9
$DIMSE2
 70
     0
  9
$DIMTAD
 70
     0
  9
$DIMZIN
 70
     0
  9
$DIMBLK
  1

  9
$DIMASO
 70
     1
  9
$DIMSHO
 70
     1
  9
$DIMPOST
  1

  9
$DIMAPOST
  1

  9
$DIMALT
 70
     0
  9
$DIMALTD
 70
     2
  9
$DIMALTF
 40
25.4
  9
$DIMLFAC
 40
1.0
  9
$DIMTOFL
 70
     0
  9
$DIMTVP
 40
0.0
  9
$DIMTIX
 70
     0
  9
$DIMSOXD
 70
     0
  9
$DIMSAH
 70
     0
  9
$DIMBLK1
  1

  9
$DIMBLK2
  1

  9
$DIMSTYLE
  2
Standard
  9
$DIMCLRD
 70
     0
  9
$DIMCLRE
 70
     0
  9
$DIMCLRT
 70
     0
  9
$DIMTFAC
 40
1.0
  9
$DIMGAP
 40
0.09
  9
$DIMJUST
 70
     0
  9
$DIMSD1
 70
     0
  9
$DIMSD2
 70
     0
  9
$DIMTOLJ
 70
     1
  9
$DIMTZIN
 70
     0
  9
$DIMALTZ
 70
     0
  9
$DIMALTTZ
 70
     0
  9
$DIMUPT
 70
     0
  9
$DIMDEC
 70
     4
  9
$DIMTDEC
 70
     4
  9
$DIMALTU
 70
     2
  9
$DIMALTTD
 70
     2
  9
$DIMTXSTY
  7
Standard
  9
$DIMAUNIT
 70
     0
  9
$DIMADEC
 70
     0
  9
$DIMALTRND
 40
0.0
  9
$DIMAZIN
 70
     0
  9
$DIMDSEP
 70
    46
  9
$DIMATFIT
 70
     3
  9
$DIMFRAC
 70
     0
  9
$DIMLDRBLK
  1

  9
$DIMLUNIT
 70
     2
  9
$DIMLWD
 70
    -2
  9
$DIMLWE
 70
    -2
  9
$DIMTMOVE
 70
     0
  9
$DIMFXL
 40
1.0
  9
$DIMFXLON
 70
     0
  9
$DIMJOGANG
 40
0.7853981633974483
  9
$DIMTFILL
 70
     0
  9
$DIMTFILLCLR
 70
     0
  9
$DIMARCSYM
 70
     0
  9
$DIMLTYPE
  6

  9
$DIMLTEX1
  6

  9
$DIMLTEX2
  6

  9
$DIMTXTDIRECTION
 70
     0
  9
$LUNITS
 70
     2
  9
$LUPREC
 70
     4
  9
$SKETCHINC
 40
0.1
  9
$FILLETRAD
 40
0.5
  9
$AUNITS
 70
     0
  9
$AUPREC
 70
     0
  9
$MENU
  1
.
  9
$ELEVATION
 40
0.0
  9
$PELEVATION
 40
0.0
  9
$THICKNESS
 40
0.0
  9
$LIMCHECK
 70
     0
  9
$CHAMFERA
 40
0.5
  9
$CHAMFERB
 40
0.5
  9
$CHAMFERC
 40
1.0
  9
$CHAMFERD
 40
0.0
  9
$SKPOLY
 70
     0
  9
$TDCREATE
 40
2457917.646539352
  9
$TDUCREATE
 40
2457917.271539352
  9
$TDUPDATE
 40
2457917.646539352
  9
$TDUUPDATE
 40
2457917.271539352
  9
$TDINDWG
 40
0.0000000116
  9
$TDUSRTIMER
 40
0.0000000116
  9
$USRTIMER
 70
     1
  9
$ANGBASE
 50
0.0
  9
$ANGDIR
 70
     0
  9
$PDMODE
 70
     0
  9
$PDSIZE
 40
0.0
  9
$PLINEWID
 40
0.0
  9
$SPLFRAME
 70
     0
  9
$SPLINETYPE
 70
     6
  9
$SPLINESEGS
 70
     8
  9
$HANDSEED
  5
14A
  9
$SURFTAB1
 70
     6
  9
$SURFTAB2
 70
     6
  9
$SURFTYPE
 70
     6
  9
$SURFU
 70
     6
  9
$SURFV
 70
     6
  9
$UCSBASE
  2

  9
$UCSNAME
  2

  9
$UCSORG
 10
0.0
 20
0.0
 30
0.0
  9
$UCSXDIR
 10
1.0
 20
0.0
 30
0.0
  9
$UCSYDIR
 10
0.0
 20
1.0
 30
0.0
  9
$UCSORTHOREF
  2

  9
$UCSORTHOVIEW
 70
     0
  9
$UCSORGTOP
 10
0.0
 20
0.0
 30
0.0
  9
$UCSORGBOTTOM
 10
0.0
 20
0.0
 30
0.0
  9
$UCSORGLEFT
 10
0.0
 20
0.0
 30
0.0
  9
$UCSORGRIGHT
 10
0.0
 20
0.0
 30
0.0
  9
$UCSORGFRONT
 10
0.0
 20
0.0
 30
0.0
  9
$UCSORGBACK
 10
0.0
 20
0.0
 30
0.0
  9
$PUCSBASE
  2

  9
$PUCSNAME
  2

  9
$PUCSORG
 10
0.0
 20
0.0
 30
0.0
  9
$PUCSXDIR
 10
1.0
 20
0.0
 30
0.0
  9
$PUCSYDIR
 10
0.0
 20
1.0
 30
0.0
  9
$PUCSORTHOREF
  2

  9
$PUCSORTHOVIEW
 70
     0
  9
$PUCSORGTOP
 10
0.0
 20
0.0
 30
0.0
  9
$PUCSORGBOTTOM
 10
0.0
 20
0.0
 30
0.0
  9
$PUCSORGLEFT
 10
0.0
 20
0.0
 30
0.0
  9
$PUCSORGRIGHT
 10
0.0
 20
0.0
 30
0.0
  9
$PUCSORGFRONT
 10
0.0
 20
0.0
 30
0.0
  9
$PUCSORGBACK
 10
0.0
 20
0.0
 30
0.0
  9
$USERI1
 70
     0
  9
$USERI2
 70
     0
  9
$USERI3
 70
     0
  9
$USERI4
 70
     0
  9
$USERI5
 70
     0
  9
$USERR1
 40
0.0
  9
$USERR2
 40
0.0
  9
$USERR3
 40
0.0
  9
$USERR4
 40
0.0
  9
$USERR5
 40
0.0
  9
$WORLDVIEW
 70
     1
  9
$SHADEDGE
 70
     3
  9
$SHADEDIF
 70
    70
  9
$TILEMODE
 70
     1
  9
$MAXACTVP
 70
    64
  9
$PINSBASE
 10
0.0
 20
0.0
 30
0.0
  9
$PLIMCHECK
 70
     0
  9
$PEXTMIN
 10
1.000000000000000E+20
 20
1.000000000000000E+20
 30
1.000000000000000E+20
  9
$PEXTMAX
 10
-1.000000000000000E+20
 20
-1.000000000000000E+20
 30
-1.000000000000000E+20
  9
$PLIMMIN
 10
0.0
 20
0.0
  9
$PLIMMAX
 10
12.0
 20
9.0
  9
$UNITMODE
 70
     0
  9
$VISRETAIN
 70
     1
  9
$PLINEGEN
 70
     0
  9
$PSLTSCALE
 70
     1
  9
$TREEDEPTH
 70
  3020
  9
$CMLSTYLE
  2
Standard
  9
$CMLJUST
 70
     0
  9
$CMLSCALE
 40
1.0
  9
$PROXYGRAPHICS
 70
     1
  9
$MEASUREMENT
 70
     0
  9
$CELWEIGHT
370
    -1
  9
$ENDCAPS
280
     0
  9
$JOINSTYLE
280
     0
  9
$LWDISPLAY
290
     1
  9
$INSUNITS
 70
     1
  9
$HYPERLINKBASE
  1

  9
$STYLESHEET
  1

  9
$XEDIT
290
     1
  9
$CEPSNTYPE
380
     0
  9
$PSTYLEMODE
290
     1
  9
$FINGERPRINTGUID
  2
{ABB93139-0BE2-3AEA-6315-DD512FCFF3BC}
  9
$VERSIONGUID
  2
{FAEB1C32-E019-11D5-929B-00C0DF256EC4}
  9
$EXTNAMES
290
     1
  9
$PSVPSCALE
 40
0.0
  9
$OLESTARTUP
290
     0
  9
$SORTENTS
280
   127
  9
$INDEXCTL
280
     0
  9
$HIDETEXT
280
     1
  9
$XCLIPFRAME
280
     2
  9
$HALOGAP
280
     0
  9
$OBSCOLOR
 70
   257
  9
$OBSLTYPE
280
     0
  9
$INTERSECTIONDISPLAY
280
     0
  9
$INTERSECTIONCOLOR
 70
   257
  9
$DIMASSOC
280
     2
  9
$PROJECTNAME
  1

  9
$CAMERADISPLAY
290
     0
  9
$LENSLENGTH
 40
50.0
  9
$CAMERAHEIGHT
 40
0.0
  9
$STEPSPERSEC
 40
2.0
  9
$STEPSIZE
 40
6.0
  9
$3DDWFPREC
 40
2.0
  9
$PSOLWIDTH
 40
0.25
  9
$PSOLHEIGHT
 40
4.0
  9
$LOFTANG1
 40
1.570796326794897
  9
$LOFTANG2
 40
1.570796326794897
  9
$LOFTMAG1
 40
0.0
  9
$LOFTMAG2
 40
0.0
  9
$LOFTPARAM
 70
     7
  9
$LOFTNORMALS
280
     1
  9
$LATITUDE
 40
37.795
  9
$LONGITUDE
 40
-122.394
  9
$NORTHDIRECTION
 40
0.0
  9
$TIMEZONE
 70
 -8000
  9
$LIGHTGLYPHDISPLAY
280
     1
  9
$TILEMODELIGHTSYNCH
280
     1
  9
$CMATERIAL
347
3C
  9
$SOLIDHIST
280
     1
  9
$SHOWHIST
280
     1
  9
$DWFFRAME
280
     2
  9
$DGNFRAME
280
     2
  9
$REALWORLDSCALE
290
     1
  9
$INTERFERECOLOR
 62
   256
  9
$CSHADOW
280
     0
  9
$SHADOWPLANELOCATION
 40
0.0
  0
ENDSEC
  0
SECTION
  2
CLASSES
  0
CLASS
  1
ACDBDICTIONARYWDFLT
  2
AcDbDictionaryWithDefault
  3
ObjectDBX Classes
 90
        0
 91
        4
280
     0
281
     0
  0
CLASS
  1
VISUALSTYLE
  2
AcDbVisualStyle
  3
ObjectDBX Classes
 90
     4095
 91
        4
280
     0
281
     0
  0
CLASS
  1
MATERIAL
  2
AcDbMaterial
  3
ObjectDBX Classes
 90
     1153
 91
        4
280
     0
281
     0
  0
CLASS
  1
SUN
  2
AcDbSun
  3
SCENEOE
 90
     1024
 91
        4
280
     0
281
     0
  0
ENDSEC
  0
SECTION
  2
TABLES
  0
TABLE
  2
VPORT
  5
8
330
0
100
AcDbSymbolTable
 70
     1
  0
VPORT
  5
29
330
8
100
AcDbSymbolTableRecord
100
AcDbViewportTableRecord
  2
*Active
 70
     0
 10
0.0
 20
0.0
 11
1.0
 21
1.0
 12
0.0
 22
0.0
 13
0.0
 23
0.0
 14
0.5
 24
0.5
 15
0.5
 25
0.5
 16
0.0
 26
0.0
 36
1.0
 17
91.00082462281999
 27
-128.4993055234307
 37
0.0
 40
256.9986110468615
 41
0.7081814508812795
 42
50.0
 43
0.0
 44
0.0
 50
0.0
 51
0.0
 71
     0
 72
   100
 73
     1
 74
     3
 75
     0
 76
     0
 77
     0
 78
     0
281
     0
 65
     1
110
0.0
120
0.0
130
0.0
111
1.0
121
0.0
131
0.0
112
0.0
122
1.0
132
0.0
 79
     0
146
0.0
 60
     3
 61
     5
292
     1
282
     1
141
0.0
142
0.0
 63
   250
361
3F
  0
ENDTAB
  0
TABLE
  2
LTYPE
  5
5
330
0
100
AcDbSymbolTable
 70
     1
  0
LTYPE
  5
14
330
5
100
AcDbSymbolTableRecord
100
AcDbLinetypeTableRecord
  2
ByBlock
 70
     0
  3

 72
    65
 73
     0
 40
0.0
  0
LTYPE
  5
15
330
5
100
AcDbSymbolTableRecord
100
AcDbLinetypeTableRecord
  2
ByLayer
 70
     0
  3

 72
    65
 73
     0
 40
0.0
  0
LTYPE
  5
16
330
5
100
AcDbSymbolTableRecord
100
AcDbLinetypeTableRecord
  2
Continuous
 70
     0
  3
Solid line
 72
    65
 73
     0
 40
0.0
  0
ENDTAB
  0
TABLE
  2
LAYER
  5
2
330
0
100
AcDbSymbolTable
 70
     2
  0
LAYER
  5
10
330
2
100
AcDbSymbolTableRecord
100
AcDbLayerTableRecord
  2
0
 70
     0
 62
     7
  6
Continuous
370
    -3
390
F
347
3E
  0
LAYER
  5
40
330
2
100
AcDbSymbolTableRecord
100
AcDbLayerTableRecord
  2
_U+30EC_U+30A4_U+30E4_U+30FC 1
 70
     0
 62
     7
  6
Continuous
370
    -3
390
F
347
3E
  0
ENDTAB
  0
TABLE
  2
STYLE
  5
3
330
0
100
AcDbSymbolTable
 70
     1
  0
STYLE
  5
11
330
3
100
AcDbSymbolTableRecord
100
AcDbTextStyleTableRecord
  2
Standard
 70
     0
 40
0.0
 41
1.0
 50
0.0
 71
     0
 42
0.2
  3
txt
  4

  0
ENDTAB
  0
TABLE
  2
VIEW
  5
6
330
0
100
AcDbSymbolTable
 70
     0
  0
ENDTAB
  0
TABLE
  2
UCS
  5
7
330
0
100
AcDbSymbolTable
 70
     0
  0
ENDTAB
  0
TABLE
  2
APPID
  5
9
330
0
100
AcDbSymbolTable
 70
     1
  0
APPID
  5
12
330
9
100
AcDbSymbolTableRecord
100
AcDbRegAppTableRecord
  2
ACAD
 70
     0
  0
ENDTAB
  0
TABLE
  2
DIMSTYLE
  5
A
330
0
100
AcDbSymbolTable
 70
     1
100
AcDbDimStyleTable
  0
DIMSTYLE
105
27
330
A
100
AcDbSymbolTableRecord
100
AcDbDimStyleTableRecord
  2
Standard
 70
     0
178
     0
340
11
  0
ENDTAB
  0
TABLE
  2
BLOCK_RECORD
  5
1
330
0
100
AcDbSymbolTable
 70
    15
  0
BLOCK_RECORD
  5
1F
330
1
100
AcDbSymbolTableRecord
100
AcDbBlockTableRecord
  2
*Model_Space
340
22
 70
     0
280
     1
281
     0
  0
BLOCK_RECORD
  5
1B
330
1
100
AcDbSymbolTableRecord
100
AcDbBlockTableRecord
  2
*Paper_Space
340
1E
 70
     0
280
     1
281
     0
  0
BLOCK_RECORD
  5
23
330
1
100
AcDbSymbolTableRecord
100
AcDbBlockTableRecord
  2
*Paper_Space0
340
26
 70
     0
280
     1
281
     0
  0
BLOCK_RECORD
  5
41
330
1
100
AcDbSymbolTableRecord
100
AcDbBlockTableRecord
  2
block 2
340
0
102
{BLKREFS
331
42
102
}
 70
     0
280
     1
281
     0
  0
BLOCK_RECORD
  5
50
330
1
100
AcDbSymbolTableRecord
100
AcDbBlockTableRecord
  2
block 3
340
0
102
{BLKREFS
331
51
102
}
 70
     0
280
     1
281
     0
  0
BLOCK_RECORD
  5
57
330
1
100
AcDbSymbolTableRecord
100
AcDbBlockTableRecord
  2
block 4
340
0
102
{BLKREFS
331
58
102
}
 70
     0
280
     1
281
     0
  0
BLOCK_RECORD
  5
5E
330
1
100
AcDbSymbolTableRecord
100
AcDbBlockTableRecord
  2
block 5
340
0
102
{BLKREFS
331
5F
102
}
 70
     0
280
     1
281
     0
  0
BLOCK_RECORD
  5
65
330
1
100
AcDbSymbolTableRecord
100
AcDbBlockTableRecord
  2
block 6
340
0
102
{BLKREFS
331
66
102
}
 70
     0
280
     1
281
     0
  0
BLOCK_RECORD
  5
6C
330
1
100
AcDbSymbolTableRecord
100
AcDbBlockTableRecord
  2
block 7
340
0
102
{BLKREFS
331
6D
102
}
 70
     0
280
     1
281
     0
  0
BLOCK_RECORD
  5
73
330
1
100
AcDbSymbolTableRecord
100
AcDbBlockTableRecord
  2
block 8
340
0
102
{BLKREFS
331
74
102
}
 70
     0
280
     1
281
     0
  0
BLOCK_RECORD
  5
D2
330
1
100
AcDbSymbolTableRecord
100
AcDbBlockTableRecord
  2
block 9
340
0
102
{BLKREFS
331
D3
102
}
 70
     0
280
     1
281
     0
  0
BLOCK_RECORD
  5
DA
330
1
100
AcDbSymbolTableRecord
100
AcDbBlockTableRecord
  2
block 10
340
0
102
{BLKREFS
331
DB
102
}
 70
     0
280
     1
281
     0
  0
BLOCK_RECORD
  5
E2
330
1
100
AcDbSymbolTableRecord
100
AcDbBlockTableRecord
  2
block 11
340
0
102
{BLKREFS
331
E3
102
}
 70
     0
280
     1
281
     0
  0
BLOCK_RECORD
  5
EB
330
1
100
AcDbSymbolTableRecord
100
AcDbBlockTableRecord
  2
block 12
340
0
102
{BLKREFS
331
EC
102
}
 70
     0
280
     1
281
     0
  0
BLOCK_RECORD
  5
F4
330
1
100
AcDbSymbolTableRecord
100
AcDbBlockTableRecord
  2
block 13
340
0
102
{BLKREFS
331
F5
102
}
 70
     0
280
     1
281
     0
  0
BLOCK_RECORD
  5
108
330
1
100
AcDbSymbolTableRecord
100
AcDbBlockTableRecord
  2
block 14
340
0
102
{BLKREFS
331
109
102
}
 70
     0
280
     1
281
     0
  0
BLOCK_RECORD
  5
12F
330
1
100
AcDbSymbolTableRecord
100
AcDbBlockTableRecord
  2
block 15
340
0
102
{BLKREFS
331
130
102
}
 70
     0
280
     1
281
     0
  0
ENDTAB
  0
ENDSEC
  0
SECTION
  2
BLOCKS
  0
BLOCK
  5
20
330
1F
100
AcDbEntity
  8
0
100
AcDbBlockBegin
  2
*Model_Space
 70
     0
 10
0.0
 20
0.0
 30
0.0
  3
*Model_Space
  1

  0
ENDBLK
  5
21
330
1F
100
AcDbEntity
  8
0
100
AcDbBlockEnd
  0
BLOCK
  5
1C
330
1B
100
AcDbEntity
 67
     1
  8
0
100
AcDbBlockBegin
  2
*Paper_Space
 70
     0
 10
0.0
 20
0.0
 30
0.0
  3
*Paper_Space
  1

  0
ENDBLK
  5
1D
330
1B
100
AcDbEntity
 67
     1
  8
0
100
AcDbBlockEnd
  0
BLOCK
  5
24
330
23
100
AcDbEntity
  8
0
100
AcDbBlockBegin
  2
*Paper_Space0
 70
     0
 10
0.0
 20
0.0
 30
0.0
  3
*Paper_Space0
  1

  0
ENDBLK
  5
25
330
23
100
AcDbEntity
  8
0
100
AcDbBlockEnd
  0
BLOCK
  5
43
330
41
100
AcDbEntity
  8
0
100
AcDbBlockBegin
  2
block 2
 70
     0
 10
0.0
 20
0.0
 30
0.0
  3
block 2
  1

  0
SPLINE
  5
45
330
41
100
AcDbEntity
  8
_U+30EC_U+30A4_U+30E4_U+30FC 1
370
     0
100
AcDbSpline
210
0.0
220
0.0
230
1.0
 70
    11
 71
     3
 72
    44
 73
    40
 74
     0
 42
0.0000000001
 43
0.0000000001
 12
1.0
 22
0.0
 32
0.0
 13
1.0
 23
0.0
 33
0.0
 40
0.0
 40
0.0
 40
0.0
 40
0.0
 40
1.0
 40
1.0
 40
1.0
 40
2.0
 40
2.0
 40
2.0
 40
3.0
 40
3.0
 40
3.0
 40
4.0
 40
4.0
 40
4.0
 40
5.0
 40
5.0
 40
5.0
 40
6.0
 40
6.0
 40
6.0
 40
7.0
 40
7.0
 40
7.0
 40
8.0
 40
8.0
 40
8.0
 40
9.0
 40
9.0
 40
9.0
 40
10.0
 40
10.0
 40
10.0
 40
11.0
 40
11.0
 40
11.0
 40
12.0
 40
12.0
 40
12.0
 40
13.0
 40
13.0
 40
13.0
 40
13.0
 10
82.03942262922219
 20
-123.1308038581061
 30
0.0
 10
82.03942262922219
 20
-123.1308038581061
 30
0.0
 10
82.03942262922219
 20
-123.6599705246404
 30
0.0
 10
82.03942262922219
 20
-123.6599705246404
 30
0.0
 10
82.03942262922219
 20
-123.6599705246404
 30
0.0
 10
87.37518638198439
 20
-126.7026788572131
 30
0.0
 10
87.37518638198439
 20
-126.7026788572131
 30
0.0
 10
87.37518638198439
 20
-126.7026788572131
 30
0.0
 10
87.81615859295648
 20
-127.0554566349027
 30
0.0
 10
87.81615859295648
 20
-127.6287205236483
 30
0.0
 10
87.81615859295648
 20
-127.6287205236483
 30
0.0
 10
87.68386692966486
 20
-135.3016371883967
 30
0.0
 10
87.68386692966486
 20
-135.3016371883967
 30
0.0
 10
87.68386692966486
 20
-135.3016371883967
 30
0.0
 10
87.68386692966486
 20
-136.3158732992542
 30
0.0
 10
88.60990857270623
 20
-136.6245538547326
 30
0.0
 10
88.60990857270623
 20
-136.6245538547326
 30
0.0
 10
93.76928344107961
 20
-139.7113594095165
 30
0.0
 10
93.76928344107961
 20
-139.7113594095165
 30
0.0
 10
93.76928344107961
 20
-139.7113594095165
 30
0.0
 10
99.72240828920275
 20
-136.3158732992542
 30
0.0
 10
99.72240828920275
 20
-136.3158732992542
 30
0.0
 10
99.72240828920275
 20
-136.3158732992542
 30
0.0
 10
99.72240828920275
 20
-136.0071927437759
 30
0.0
 10
99.72240828920275
 20
-136.0071927437759
 30
0.0
 10
99.72240828920275
 20
-136.0071927437759
 30
0.0
 10
94.03386676766286
 20
-132.3471233002464
 30
0.0
 10
94.03386676766286
 20
-132.3471233002464
 30
0.0
 10
94.03386676766286
 20
-132.3471233002464
 30
0.0
 10
93.98976954656565
 20
-124.0568455245412
 30
0.0
 10
93.98976954656565
 20
-124.0568455245412
 30
0.0
 10
93.98976954656565
 20
-124.0568455245412
 30
0.0
 10
94.2102556520517
 20
-123.2189983025285
 30
0.0
 10
93.37240845120473
 20
-122.9544149692613
 30
0.0
 10
93.37240845120473
 20
-122.9544149692613
 30
0.0
 10
87.99254747734531
 20
-119.779414970055
 30
0.0
 10
87.99254747734531
 20
-119.779414970055
 30
0.0
 10
87.99254747734531
 20
-119.779414970055
 30
0.0
 10
82.03942262922219
 20
-123.1308038581061
 30
0.0
 10
82.03942262922219
 20
-123.1308038581061
 30
0.0
  0
SPLINE
  5
46
330
41
100
AcDbEntity
  8
_U+30EC_U+30A4_U+30E4_U+30FC 1
 62
   179
420
  2234388
370
     9
100
AcDbSpline
210
0.0
220
0.0
230
1.0
 70
    11
 71
     3
 72
    44
 73
    40
 74
     0
 42
0.0000000001
 43
0.0000000001
 12
1.0
 22
0.0
 32
0.0
 13
1.0
 23
0.0
 33
0.0
 40
0.0
 40
0.0
 40
0.0
 40
0.0
 40
1.0
 40
1.0
 40
1.0
 40
2.0
 40
2.0
 40
2.0
 40
3.0
 40
3.0
 40
3.0
 40
4.0
 40
4.0
 40
4.0
 40
5.0
 40
5.0
 40
5.0
 40
6.0
 40
6.0
 40
6.0
 40
7.0
 40
7.0
 40
7.0
 40
8.0
 40
8.0
 40
8.0
 40
9.0
 40
9.0
 40
9.0
 40
10.0
 40
10.0
 40
10.0
 40
11.0
 40
11.0
 40
11.0
 40
12.0
 40
12.0
 40
12.0
 40
13.0
 40
13.0
 40
13.0
 40
13.0
 10
82.03942262922219
 20
-123.1600844136545
 30
0.0
 10
82.03942262922219
 20
-123.1600844136545
 30
0.0
 10
82.03942262922219
 20
-123.6306899690923
 30
0.0
 10
82.03942262922219
 20
-123.6306899690923
 30
0.0
 10
82.03942262922219
 20
-123.6306899690923
 30
0.0
 10
87.1839808313069
 20
-126.5996677461279
 30
0.0
 10
87.1839808313069
 20
-126.5996677461279
 30
0.0
 10
87.1839808313069
 20
-126.5996677461279
 30
0.0
 10
87.83065775925324
 20
-126.8056899682986
 30
0.0
 10
87.80134192666782
 20
-127.5994399681002
 30
0.0
 10
87.80134192666782
 20
-127.5994399681002
 30
0.0
 10
87.7131474844734
 20
-135.1841621884259
 30
0.0
 10
87.7131474844734
 20
-135.1841621884259
 30
0.0
 10
87.7131474844734
 20
-135.1841621884259
 30
0.0
 10
87.59567248747044
 20
-136.1246677437467
 30
0.0
 10
88.21303358283136
 20
-136.4481649658878
 30
0.0
 10
88.21303358283136
 20
-136.4481649658878
 30
0.0
 10
93.76928344107961
 20
-139.7113594095165
 30
0.0
 10
93.76928344107961
 20
-139.7113594095165
 30
0.0
 10
93.76928344107961
 20
-139.7113594095165
 30
0.0
 10
99.7369074554995
 20
-136.330689965917
 30
0.0
 10
99.7369074554995
 20
-136.330689965917
 30
0.0
 10
99.7369074554995
 20
-136.330689965917
 30
0.0
 10
99.7369074554995
 20
-135.9482788549019
 30
0.0
 10
99.7369074554995
 20
-135.9482788549019
 30
0.0
 10
99.7369074554995
 20
-135.9482788549019
 30
0.0
 10
94.03386676766286
 20
-132.3619399669092
 30
0.0
 10
94.03386676766286
 20
-132.3619399669092
 30
0.0
 10
94.03386676766286
 20
-132.3619399669092
 30
0.0
 10
94.03386676766286
 20
-124.1305760800786
 30
0.0
 10
94.03386676766286
 20
-124.1305760800786
 30
0.0
 10
94.03386676766286
 20
-124.1305760800786
 30
0.0
 10
94.09246315505683
 20
-123.277559413625
 30
0.0
 10
93.62217511149933
 20
-123.1308038581061
 30
0.0
 10
93.62217511149933
 20
-123.1308038581061
 30
0.0
 10
87.94845025624811
 20
-119.7501344145069
 30
0.0
 10
87.94845025624811
 20
-119.7501344145069
 30
0.0
 10
87.94845025624811
 20
-119.7501344145069
 30
0.0
 10
82.03942262922219
 20
-123.1600844136545
 30
0.0
 10
82.03942262922219
 20
-123.1600844136545
 30
0.0
  0
POLYLINE
  5
47
330
41
100
AcDbEntity
  8
_U+30EC_U+30A4_U+30E4_U+30FC 1
 62
   179
420
  2234388
370
     9
100
AcDb2dPolyline
 66
     1
 10
0.0
 20
0.0
 30
0.0
  0
VERTEX
  5
48
330
47
100
AcDbEntity
  8
_U+30EC_U+30A4_U+30E4_U+30FC 1
 62
   179
420
  2234388
370
     9
100
AcDbVertex
100
AcDb2dVertex
 10
88.38942246722019
 20
-126.6585816350019
 30
0.0
  0
VERTEX
  5
49
330
47
100
AcDbEntity
  8
_U+30EC_U+30A4_U+30E4_U+30FC 1
 62
   179
420
  2234388
370
     9
100
AcDbVertex
100
AcDb2dVertex
 10
93.916074270668
 20
-123.4835816357957
 30
0.0
  0
SEQEND
  5
4A
330
47
100
AcDbEntity
  8
_U+30EC_U+30A4_U+30E4_U+30FC 1
 62
   179
420
  2234388
370
     9
  0
SPLINE
  5
4B
330
41
100
AcDbEntity
  8
_U+30EC_U+30A4_U+30E4_U+30FC 1
 62
   179
420
  2234388
370
     9
100
AcDbSpline
210
0.0
220
0.0
230
1.0
 70
     8
 71
     3
 72
    23
 73
    19
 74
     0
 42
0.0000000001
 43
0.0000000001
 12
1.0
 22
0.0
 32
0.0
 13
1.0
 23
0.0
 33
0.0
 40
0.0
 40
0.0
 40
0.0
 40
0.0
 40
1.0
 40
1.0
 40
1.0
 40
2.0
 40
2.0
 40
2.0
 40
3.0
 40
3.0
 40
3.0
 40
4.0
 40
4.0
 40
4.0
 40
5.0
 40
5.0
 40
5.0
 40
6.0
 40
6.0
 40
6.0
 40
6.0
 10
82.03942262922219
 20
-123.1600844136545
 30
0.0
 10
82.03942262922219
 20
-123.1600844136545
 30
0.0
 10
87.56607443266999
 20
-126.3647177461866
 30
0.0
 10
87.56607443266999
 20
-126.3647177461866
 30
0.0
 10
87.56607443266999
 20
-126.3647177461866
 30
0.0
 10
88.06592525325107
 20
-126.4232788572831
 30
0.0
 10
88.09524108583649
 20
-127.7169149680707
 30
0.0
 10
88.09524108583649
 20
-127.7169149680707
 30
0.0
 10
88.09524108583649
 20
-135.1252482995519
 30
0.0
 10
88.09524108583649
 20
-135.1252482995519
 30
0.0
 10
88.09524108583649
 20
-135.1252482995519
 30
0.0
 10
87.97773081105665
 20
-135.9189982993535
 30
0.0
 10
88.71260218119741
 20
-136.2717760770431
 30
0.0
 10
88.71260218119741
 20
-136.2717760770431
 30
0.0
 10
93.82787982847358
 20
-139.3878621873753
 30
0.0
 10
93.82787982847358
 20
-139.3878621873753
 30
0.0
 10
93.82787982847358
 20
-139.3878621873753
 30
0.0
 10
99.7369074554995
 20
-135.9482788549019
 30
0.0
 10
99.7369074554995
 20
-135.9482788549019
 30
0.0
  0
POLYLINE
  5
4C
330
41
100
AcDbEntity
  8
_U+30EC_U+30A4_U+30E4_U+30FC 1
 62
   179
420
  2234388
370
     9
100
AcDb2dPolyline
 66
     1
 10
0.0
 20
0.0
 30
0.0
  0
VERTEX
  5
4D
330
4C
100
AcDbEntity
  8
_U+30EC_U+30A4_U+30E4_U+30FC 1
 62
   179
420
  2234388
370
     9
100
AcDbVertex
100
AcDb2dVertex
 10
88.27162997022532
 20
-135.8600844104795
 30
0.0
  0
VERTEX
  5
4E
330
4C
100
AcDbEntity
  8
_U+30EC_U+30A4_U+30E4_U+30FC 1
 62
   179
420
  2234388
370
     9
100
AcDbVertex
100
AcDb2dVertex
 10
93.85747788327403
 20
-132.5968899668509
 30
0.0
  0
SEQEND
  5
4F
330
4C
100
AcDbEntity
  8
_U+30EC_U+30A4_U+30E4_U+30FC 1
 62
   179
420
  2234388
370
     9
  0
INSERT
  5
51
330
41
100
AcDbEntity
  8
_U+30EC_U+30A4_U+30E4_U+30FC 1
100
AcDbBlockReference
  2
block 3
 10
0.0
 20
0.0
 30
0.0
  0
INSERT
  5
58
330
41
100
AcDbEntity
  8
_U+30EC_U+30A4_U+30E4_U+30FC 1
100
AcDbBlockReference
  2
block 4
 10
0.0
 20
0.0
 30
0.0
  0
INSERT
  5
5F
330
41
100
AcDbEntity
  8
_U+30EC_U+30A4_U+30E4_U+30FC 1
100
AcDbBlockReference
  2
block 5
 10
0.0
 20
0.0
 30
0.0
  0
INSERT
  5
66
330
41
100
AcDbEntity
  8
_U+30EC_U+30A4_U+30E4_U+30FC 1
100
AcDbBlockReference
  2
block 6
 10
0.0
 20
0.0
 30
0.0
  0
INSERT
  5
6D
330
41
100
AcDbEntity
  8
_U+30EC_U+30A4_U+30E4_U+30FC 1
100
AcDbBlockReference
  2
block 7
 10
0.0
 20
0.0
 30
0.0
  0
INSERT
  5
74
330
41
100
AcDbEntity
  8
_U+30EC_U+30A4_U+30E4_U+30FC 1
100
AcDbBlockReference
  2
block 8
 10
0.0
 20
0.0
 30
0.0
  0
POLYLINE
  5
7A
330
41
100
AcDbEntity
  8
_U+30EC_U+30A4_U+30E4_U+30FC 1
 62
   179
420
  2234388
370
     9
100
AcDb2dPolyline
 66
     1
 10
0.0
 20
0.0
 30
0.0
  0
VERTEX
  5
7B
330
7A
100
AcDbEntity
  8
_U+30EC_U+30A4_U+30E4_U+30FC 1
 62
   179
420
  2234388
370
     9
100
AcDbVertex
100
AcDb2dVertex
 10
95.13629729509307
 20
-134.4196927441727
 30
0.0
  0
VERTEX
  5
7C
330
7A
100
AcDbEntity
  8
_U+30EC_U+30A4_U+30E4_U+30FC 1
 62
   179
420
  2234388
370
     9
100
AcDbVertex
100
AcDb2dVertex
 10
94.87171396850982
 20
-133.9346232998496
 30
0.0
  0
VERTEX
  5
7D
330
7A
100
AcDbEntity
  8
_U+30EC_U+30A4_U+30E4_U+30FC 1
 62
   179
420
  2234388
370
     9
100
AcDbVertex
100
AcDb2dVertex
 10
94.7835195263154
 20
-134.8165677440735
 30
0.0
  0
VERTEX
  5
7E
330
7A
100
AcDbEntity
  8
_U+30EC_U+30A4_U+30E4_U+30FC 1
 62
   179
420
  2234388
370
     9
100
AcDbVertex
100
AcDb2dVertex
 10
95.66546394825957
 20
-134.6401788552287
 30
0.0
  0
VERTEX
  5
7F
330
7A
100
AcDbEntity
  8
_U+30EC_U+30A4_U+30E4_U+30FC 1
 62
   179
420
  2234388
370
     9
100
AcDbVertex
100
AcDb2dVertex
 10
95.13629729509307
 20
-134.4196927441727
 30
0.0
  0
SEQEND
  5
81
330
7A
100
AcDbEntity
  8
_U+30EC_U+30A4_U+30E4_U+30FC 1
 62
   179
420
  2234388
370
     9
  0
HATCH
  5
80
330
41
100
AcDbEntity
  8
_U+30EC_U+30A4_U+30E4_U+30FC 1
 62
   179
420
  2234388
100
AcDbHatch
 10
0.0
 20
0.0
 30
0.0
210
0.0
220
0.0
230
1.0
  2
SOLID
 70
     1
 71
     0
 91
        1
 92
        1
 93
        4
 72
     1
 10
95.13629729509307
 20
-134.4196927441727
 11
94.87171396850982
 21
-133.9346232998496
 72
     1
 10
94.87171396850982
 20
-133.9346232998496
 11
94.7835195263154
 21
-134.8165677440735
 72
     1
 10
94.7835195263154
 20
-134.8165677440735
 11
95.66546394825957
 21
-134.6401788552287
 72
     1
 10
95.66546394825957
 20
-134.6401788552287
 11
95.13629729509307
 21
-134.4196927441727
 97
        0
 75
     2
 76
     1
 98
        0
  0
POLYLINE
  5
82
330
41
100
AcDbEntity
  8
_U+30EC_U+30A4_U+30E4_U+30FC 1
 62
   179
420
  2234388
370
     9
100
AcDb2dPolyline
 66
     1
 10
0.0
 20
0.0
 30
0.0
  0
VERTEX
  5
83
330
82
100
AcDbEntity
  8
_U+30EC_U+30A4_U+30E4_U+30FC 1
 62
   179
420
  2234388
370
     9
100
AcDbVertex
100
AcDb2dVertex
 10
92.31407514487174
 20
-122.1165677472485
 30
0.0
  0
VERTEX
  5
84
330
82
100
AcDbEntity
  8
_U+30EC_U+30A4_U+30E4_U+30FC 1
 62
   179
420
  2234388
370
     9
100
AcDbVertex
100
AcDb2dVertex
 10
92.04949181828849
 20
-121.6314983029253
 30
0.0
  0
VERTEX
  5
85
330
82
100
AcDbEntity
  8
_U+30EC_U+30A4_U+30E4_U+30FC 1
 62
   179
420
  2234388
370
     9
100
AcDbVertex
100
AcDb2dVertex
 10
91.96129737609407
 20
-122.5134427471493
 30
0.0
  0
VERTEX
  5
86
330
82
100
AcDbEntity
  8
_U+30EC_U+30A4_U+30E4_U+30FC 1
 62
   179
420
  2234388
370
     9
100
AcDbVertex
100
AcDb2dVertex
 10
92.84324179803824
 20
-122.3370538583045
 30
0.0
  0
VERTEX
  5
87
330
82
100
AcDbEntity
  8
_U+30EC_U+30A4_U+30E4_U+30FC 1
 62
   179
420
  2234388
370
     9
100
AcDbVertex
100
AcDb2dVertex
 10
92.31407514487174
 20
-122.1165677472485
 30
0.0
  0
SEQEND
  5
89
330
82
100
AcDbEntity
  8
_U+30EC_U+30A4_U+30E4_U+30FC 1
 62
   179
420
  2234388
370
     9
  0
HATCH
  5
88
330
41
100
AcDbEntity
  8
_U+30EC_U+30A4_U+30E4_U+30FC 1
 62
   179
420
  2234388
100
AcDbHatch
 10
0.0
 20
0.0
 30
0.0
210
0.0
220
0.0
230
1.0
  2
SOLID
 70
     1
 71
     0
 91
        1
 92
        1
 93
        4
 72
     1
 10
92.31407514487174
 20
-122.1165677472485
 11
92.04949181828849
 21
-121.6314983029253
 72
     1
 10
92.04949181828849
 20
-121.6314983029253
 11
91.96129737609407
 21
-122.5134427471493
 72
     1
 10
91.96129737609407
 20
-122.5134427471493
 11
92.84324179803824
 21
-122.3370538583045
 72
     1
 10
92.84324179803824
 20
-122.3370538583045
 11
92.31407514487174
 21
-122.1165677472485
 97
        0
 75
     2
 76
     1
 98
        0
  0
POLYLINE
  5
8A
330
41
100
AcDbEntity
  8
_U+30EC_U+30A4_U+30E4_U+30FC 1
 62
   179
420
  2234388
370
     9
100
AcDb2dPolyline
 66
     1
 10
0.0
 20
0.0
 30
0.0
  0
VERTEX
  5
8B
330
8A
100
AcDbEntity
  8
_U+30EC_U+30A4_U+30E4_U+30FC 1
 62
   179
420
  2234388
370
     9
100
AcDbVertex
100
AcDb2dVertex
 10
89.4918529946504
 20
-121.4992066362917
 30
0.0
  0
VERTEX
  5
8C
330
8A
100
AcDbEntity
  8
_U+30EC_U+30A4_U+30E4_U+30FC 1
 62
   179
420
  2234388
370
     9
100
AcDbVertex
100
AcDb2dVertex
 10
89.22726966806715
 20
-121.0141371919686
 30
0.0
  0
VERTEX
  5
8D
330
8A
100
AcDbEntity
  8
_U+30EC_U+30A4_U+30E4_U+30FC 1
 62
   179
420
  2234388
370
     9
100
AcDbVertex
100
AcDb2dVertex
 10
89.13907522587273
 20
-121.8960816361925
 30
0.0
  0
VERTEX
  5
8E
330
8A
100
AcDbEntity
  8
_U+30EC_U+30A4_U+30E4_U+30FC 1
 62
   179
420
  2234388
370
     9
100
AcDbVertex
100
AcDb2dVertex
 10
90.0210196478169
 20
-121.7196927473477
 30
0.0
  0
VERTEX
  5
8F
330
8A
100
AcDbEntity
  8
_U+30EC_U+30A4_U+30E4_U+30FC 1
 62
   179
420
  2234388
370
     9
100
AcDbVertex
100
AcDb2dVertex
 10
89.4918529946504
 20
-121.4992066362917
 30
0.0
  0
SEQEND
  5
91
330
8A
100
AcDbEntity
  8
_U+30EC_U+30A4_U+30E4_U+30FC 1
 62
   179
420
  2234388
370
     9
  0
HATCH
  5
90
330
41
100
AcDbEntity
  8
_U+30EC_U+30A4_U+30E4_U+30FC 1
 62
   179
420
  2234388
100
AcDbHatch
 10
0.0
 20
0.0
 30
0.0
210
0.0
220
0.0
230
1.0
  2
SOLID
 70
     1
 71
     0
 91
        1
 92
        1
 93
        4
 72
     1
 10
89.4918529946504
 20
-121.4992066362917
 11
89.22726966806715
 21
-121.0141371919686
 72
     1
 10
89.22726966806715
 20
-121.0141371919686
 11
89.13907522587273
 21
-121.8960816361925
 72
     1
 10
89.13907522587273
 20
-121.8960816361925
 11
90.0210196478169
 21
-121.7196927473477
 72
     1
 10
90.0210196478169
 20
-121.7196927473477
 11
89.4918529946504
 21
-121.4992066362917
 97
        0
 75
     2
 76
     1
 98
        0
  0
POLYLINE
  5
92
330
41
100
AcDbEntity
  8
_U+30EC_U+30A4_U+30E4_U+30FC 1
 62
   179
420
  2234388
370
     9
100
AcDb2dPolyline
 66
     1
 10
0.0
 20
0.0
 30
0.0
  0
VERTEX
  5
93
330
92
100
AcDbEntity
  8
_U+30EC_U+30A4_U+30E4_U+30FC 1
 62
   179
420
  2234388
370
     9
100
AcDbVertex
100
AcDb2dVertex
 10
95.13629729509307
 20
-134.4196927441727
 30
0.0
  0
VERTEX
  5
94
330
92
100
AcDbEntity
  8
_U+30EC_U+30A4_U+30E4_U+30FC 1
 62
   179
420
  2234388
370
     9
100
AcDbVertex
100
AcDb2dVertex
 10
97.56164445543953
 20
-131.4651788560225
 30
0.0
  0
VERTEX
  5
95
330
92
100
AcDbEntity
  8
_U+30EC_U+30A4_U+30E4_U+30FC 1
 62
   179
420
  2234388
370
     9
100
AcDbVertex
100
AcDb2dVertex
 10
103.4706720824655
 20
-131.4651788560225
 30
0.0
  0
SEQEND
  5
96
330
92
100
AcDbEntity
  8
_U+30EC_U+30A4_U+30E4_U+30FC 1
 62
   179
420
  2234388
370
     9
  0
POLYLINE
  5
97
330
41
100
AcDbEntity
  8
_U+30EC_U+30A4_U+30E4_U+30FC 1
 62
   179
420
  2234388
370
     9
100
AcDb2dPolyline
 66
     1
 10
0.0
 20
0.0
 30
0.0
  0
VERTEX
  5
98
330
97
100
AcDbEntity
  8
_U+30EC_U+30A4_U+30E4_U+30FC 1
 62
   179
420
  2234388
370
     9
100
AcDbVertex
100
AcDb2dVertex
 10
81.95122818702777
 20
-133.6259427443712
 30
0.0
  0
VERTEX
  5
99
330
97
100
AcDbEntity
  8
_U+30EC_U+30A4_U+30E4_U+30FC 1
 62
   179
420
  2234388
370
     9
100
AcDbVertex
100
AcDb2dVertex
 10
81.95122818702777
 20
-136.6245538547326
 30
0.0
  0
SEQEND
  5
9A
330
97
100
AcDbEntity
  8
_U+30EC_U+30A4_U+30E4_U+30FC 1
 62
   179
420
  2234388
370
     9
  0
POLYLINE
  5
9B
330
41
100
AcDbEntity
  8
_U+30EC_U+30A4_U+30E4_U+30FC 1
 62
   179
420
  2234388
370
     9
100
AcDb2dPolyline
 66
     1
 10
0.0
 20
0.0
 30
0.0
  0
VERTEX
  5
9C
330
9B
100
AcDbEntity
  8
_U+30EC_U+30A4_U+30E4_U+30FC 1
 62
   179
420
  2234388
370
     9
100
AcDbVertex
100
AcDb2dVertex
 10
81.95122818702777
 20
-135.2134427439743
 30
0.0
  0
VERTEX
  5
9D
330
9B
100
AcDbEntity
  8
_U+30EC_U+30A4_U+30E4_U+30FC 1
 62
   179
420
  2234388
370
     9
100
AcDbVertex
100
AcDb2dVertex
 10
83.58282536762448
 20
-136.1835816326206
 30
0.0
  0
SEQEND
  5
9E
330
9B
100
AcDbEntity
  8
_U+30EC_U+30A4_U+30E4_U+30FC 1
 62
   179
420
  2234388
370
     9
  0
POLYLINE
  5
9F
330
41
100
AcDbEntity
  8
_U+30EC_U+30A4_U+30E4_U+30FC 1
 62
   179
420
  2234388
370
     9
100
AcDb2dPolyline
 66
     1
 10
0.0
 20
0.0
 30
0.0
  0
VERTEX
  5
A0
330
9F
100
AcDbEntity
  8
_U+30EC_U+30A4_U+30E4_U+30FC 1
 62
   179
420
  2234388
370
     9
100
AcDbVertex
100
AcDb2dVertex
 10
85.65539475919327
 20
-137.3301094101118
 30
0.0
  0
VERTEX
  5
A1
330
9F
100
AcDbEntity
  8
_U+30EC_U+30A4_U+30E4_U+30FC 1
 62
   179
420
  2234388
370
     9
100
AcDbVertex
100
AcDb2dVertex
 10
89.71233910013645
 20
-139.7113594095165
 30
0.0
  0
SEQEND
  5
A2
330
9F
100
AcDbEntity
  8
_U+30EC_U+30A4_U+30E4_U+30FC 1
 62
   179
420
  2234388
370
     9
  0
POLYLINE
  5
A3
330
41
100
AcDbEntity
  8
_U+30EC_U+30A4_U+30E4_U+30FC 1
 62
   179
420
  2234388
370
     9
100
AcDb2dPolyline
 66
     1
 10
0.0
 20
0.0
 30
0.0
  0
VERTEX
  5
A4
330
A3
100
AcDbEntity
  8
_U+30EC_U+30A4_U+30E4_U+30FC 1
 62
   179
420
  2234388
370
     9
100
AcDbVertex
100
AcDb2dVertex
 10
87.81615859295648
 20
-137.2860121879006
 30
0.0
  0
VERTEX
  5
A5
330
A3
100
AcDbEntity
  8
_U+30EC_U+30A4_U+30E4_U+30FC 1
 62
   179
420
  2234388
370
     9
100
AcDbVertex
100
AcDb2dVertex
 10
87.81615859295648
 20
-140.1082344094173
 30
0.0
  0
SEQEND
  5
A6
330
A3
100
AcDbEntity
  8
_U+30EC_U+30A4_U+30E4_U+30FC 1
 62
   179
420
  2234388
370
     9
  0
POLYLINE
  5
A7
330
41
100
AcDbEntity
  8
_U+30EC_U+30A4_U+30E4_U+30FC 1
 62
   179
420
  2234388
370
     9
100
AcDb2dPolyline
 66
     1
 10
0.0
 20
0.0
 30
0.0
  0
VERTEX
  5
A8
330
A7
100
AcDbEntity
  8
_U+30EC_U+30A4_U+30E4_U+30FC 1
 62
   179
420
  2234388
370
     9
100
AcDbVertex
100
AcDb2dVertex
 10
91.82900571280244
 20
-140.9019844092188
 30
0.0
  0
VERTEX
  5
A9
330
A7
100
AcDbEntity
  8
_U+30EC_U+30A4_U+30E4_U+30FC 1
 62
   179
420
  2234388
370
     9
100
AcDbVertex
100
AcDb2dVertex
 10
93.81338066217683
 20
-142.1367066311324
 30
0.0
  0
SEQEND
  5
AA
330
A7
100
AcDbEntity
  8
_U+30EC_U+30A4_U+30E4_U+30FC 1
 62
   179
420
  2234388
370
     9
  0
POLYLINE
  5
AB
330
41
100
AcDbEntity
  8
_U+30EC_U+30A4_U+30E4_U+30FC 1
 62
   179
420
  2234388
370
     9
100
AcDb2dPolyline
 66
     1
 10
0.0
 20
0.0
 30
0.0
  0
VERTEX
  5
AC
330
AB
100
AcDbEntity
  8
_U+30EC_U+30A4_U+30E4_U+30FC 1
 62
   179
420
  2234388
370
     9
100
AcDbVertex
100
AcDb2dVertex
 10
93.76928344107961
 20
-140.7696927425852
 30
0.0
  0
VERTEX
  5
AD
330
AB
100
AcDbEntity
  8
_U+30EC_U+30A4_U+30E4_U+30FC 1
 62
   179
420
  2234388
370
     9
100
AcDbVertex
100
AcDb2dVertex
 10
93.76928344107961
 20
-143.5478177418907
 30
0.0
  0
SEQEND
  5
AE
330
AB
100
AcDbEntity
  8
_U+30EC_U+30A4_U+30E4_U+30FC 1
 62
   179
420
  2234388
370
     9
  0
POLYLINE
  5
AF
330
41
100
AcDbEntity
  8
_U+30EC_U+30A4_U+30E4_U+30FC 1
 62
   179
420
  2234388
370
     9
100
AcDb2dPolyline
 66
     1
 10
0.0
 20
0.0
 30
0.0
  0
VERTEX
  5
B0
330
AF
100
AcDbEntity
  8
_U+30EC_U+30A4_U+30E4_U+30FC 1
 62
   179
420
  2234388
370
     9
100
AcDbVertex
100
AcDb2dVertex
 10
78.33525605705668
 20
-130.7155260784321
 30
0.0
  0
VERTEX
  5
B1
330
AF
100
AcDbEntity
  8
_U+30EC_U+30A4_U+30E4_U+30FC 1
 62
   179
420
  2234388
370
     9
100
AcDbVertex
100
AcDb2dVertex
 10
86.75782528662347
 20
-135.5221232994527
 30
0.0
  0
SEQEND
  5
B2
330
AF
100
AcDbEntity
  8
_U+30EC_U+30A4_U+30E4_U+30FC 1
 62
   179
420
  2234388
370
     9
  0
POLYLINE
  5
B3
330
41
100
AcDbEntity
  8
_U+30EC_U+30A4_U+30E4_U+30FC 1
 62
   179
420
  2234388
370
     9
100
AcDb2dPolyline
 66
     1
 10
0.0
 20
0.0
 30
0.0
  0
VERTEX
  5
B4
330
B3
100
AcDbEntity
  8
_U+30EC_U+30A4_U+30E4_U+30FC 1
 62
   179
420
  2234388
370
     9
100
AcDbVertex
100
AcDb2dVertex
 10
79.87865879545897
 20
-131.6415677448673
 30
0.0
  0
VERTEX
  5
B5
330
B3
100
AcDbEntity
  8
_U+30EC_U+30A4_U+30E4_U+30FC 1
 62
   179
420
  2234388
370
     9
100
AcDbVertex
100
AcDb2dVertex
 10
79.87865879545897
 20
-128.5106649678722
 30
0.0
  0
SEQEND
  5
B6
330
B3
100
AcDbEntity
  8
_U+30EC_U+30A4_U+30E4_U+30FC 1
 62
   179
420
  2234388
370
     9
  0
POLYLINE
  5
B7
330
41
100
AcDbEntity
  8
_U+30EC_U+30A4_U+30E4_U+30FC 1
 62
   179
420
  2234388
370
     9
100
AcDb2dPolyline
 66
     1
 10
0.0
 20
0.0
 30
0.0
  0
VERTEX
  5
B8
330
B7
100
AcDbEntity
  8
_U+30EC_U+30A4_U+30E4_U+30FC 1
 62
   179
420
  2234388
370
     9
100
AcDbVertex
100
AcDb2dVertex
 10
79.87865879545897
 20
-126.1294149684675
 30
0.0
  0
VERTEX
  5
B9
330
B7
100
AcDbEntity
  8
_U+30EC_U+30A4_U+30E4_U+30FC 1
 62
   179
420
  2234388
370
     9
100
AcDbVertex
100
AcDb2dVertex
 10
79.87865879545897
 20
-122.1606649694597
 30
0.0
  0
VERTEX
  5
BA
330
B7
100
AcDbEntity
  8
_U+30EC_U+30A4_U+30E4_U+30FC 1
 62
   179
420
  2234388
370
     9
100
AcDbVertex
100
AcDb2dVertex
 10
81.51025597605567
 20
-121.102331636391
 30
0.0
  0
SEQEND
  5
BB
330
B7
100
AcDbEntity
  8
_U+30EC_U+30A4_U+30E4_U+30FC 1
 62
   179
420
  2234388
370
     9
  0
POLYLINE
  5
BC
330
41
100
AcDbEntity
  8
_U+30EC_U+30A4_U+30E4_U+30FC 1
 62
   179
420
  2234388
370
     9
100
AcDb2dPolyline
 66
     1
 10
0.0
 20
0.0
 30
0.0
  0
VERTEX
  5
BD
330
BC
100
AcDbEntity
  8
_U+30EC_U+30A4_U+30E4_U+30FC 1
 62
   179
420
  2234388
370
     9
100
AcDbVertex
100
AcDb2dVertex
 10
78.55574216254271
 20
-121.2787205252358
 30
0.0
  0
VERTEX
  5
BE
330
BC
100
AcDbEntity
  8
_U+30EC_U+30A4_U+30E4_U+30FC 1
 62
   179
420
  2234388
370
     9
100
AcDbVertex
100
AcDb2dVertex
 10
81.20157542837522
 20
-122.9544149692613
 30
0.0
  0
SEQEND
  5
BF
330
BC
100
AcDbEntity
  8
_U+30EC_U+30A4_U+30E4_U+30FC 1
 62
   179
420
  2234388
370
     9
  0
POLYLINE
  5
C0
330
41
100
AcDbEntity
  8
_U+30EC_U+30A4_U+30E4_U+30FC 1
 62
   179
420
  2234388
370
     9
100
AcDb2dPolyline
 66
     1
 10
0.0
 20
0.0
 30
0.0
  0
VERTEX
  5
C1
330
C0
100
AcDbEntity
  8
_U+30EC_U+30A4_U+30E4_U+30FC 1
 62
   179
420
  2234388
370
     9
100
AcDbVertex
100
AcDb2dVertex
 10
83.89150591530493
 20
-119.6030260812102
 30
0.0
  0
VERTEX
  5
C2
330
C0
100
AcDbEntity
  8
_U+30EC_U+30A4_U+30E4_U+30FC 1
 62
   179
420
  2234388
370
     9
100
AcDbVertex
100
AcDb2dVertex
 10
85.8317836435821
 20
-118.5005955259303
 30
0.0
  0
SEQEND
  5
C3
330
C0
100
AcDbEntity
  8
_U+30EC_U+30A4_U+30E4_U+30FC 1
 62
   179
420
  2234388
370
     9
  0
POLYLINE
  5
C4
330
41
100
AcDbEntity
  8
_U+30EC_U+30A4_U+30E4_U+30FC 1
 62
   179
420
  2234388
370
     9
100
AcDb2dPolyline
 66
     1
 10
0.0
 20
0.0
 30
0.0
  0
VERTEX
  5
C5
330
C4
100
AcDbEntity
  8
_U+30EC_U+30A4_U+30E4_U+30FC 1
 62
   179
420
  2234388
370
     9
100
AcDbVertex
100
AcDb2dVertex
 10
84.55296423176306
 20
-117.7068455261287
 30
0.0
  0
VERTEX
  5
C6
330
C4
100
AcDbEntity
  8
_U+30EC_U+30A4_U+30E4_U+30FC 1
 62
   179
420
  2234388
370
     9
100
AcDbVertex
100
AcDb2dVertex
 10
87.06650583430394
 20
-119.3825399701542
 30
0.0
  0
SEQEND
  5
C7
330
C4
100
AcDbEntity
  8
_U+30EC_U+30A4_U+30E4_U+30FC 1
 62
   179
420
  2234388
370
     9
  0
POLYLINE
  5
C8
330
41
100
AcDbEntity
  8
_U+30EC_U+30A4_U+30E4_U+30FC 1
 62
   179
420
  2234388
370
     9
100
AcDb2dPolyline
 66
     1
 10
0.0
 20
0.0
 30
0.0
  0
VERTEX
  5
C9
330
C8
100
AcDbEntity
  8
_U+30EC_U+30A4_U+30E4_U+30FC 1
 62
   179
420
  2234388
370
     9
100
AcDbVertex
100
AcDb2dVertex
 10
89.4918529946504
 20
-121.4992066362917
 30
0.0
  0
VERTEX
  5
CA
330
C8
100
AcDbEntity
  8
_U+30EC_U+30A4_U+30E4_U+30FC 1
 62
   179
420
  2234388
370
     9
100
AcDbVertex
100
AcDb2dVertex
 10
93.6810889988852
 20
-116.5162205264264
 30
0.0
  0
VERTEX
  5
CB
330
C8
100
AcDbEntity
  8
_U+30EC_U+30A4_U+30E4_U+30FC 1
 62
   179
420
  2234388
370
     9
100
AcDbVertex
100
AcDb2dVertex
 10
103.3383804191738
 20
-116.5162205264264
 30
0.0
  0
SEQEND
  5
CC
330
C8
100
AcDbEntity
  8
_U+30EC_U+30A4_U+30E4_U+30FC 1
 62
   179
420
  2234388
370
     9
  0
POLYLINE
  5
CD
330
41
100
AcDbEntity
  8
_U+30EC_U+30A4_U+30E4_U+30FC 1
 62
   179
420
  2234388
370
     9
100
AcDb2dPolyline
 66
     1
 10
0.0
 20
0.0
 30
0.0
  0
VERTEX
  5
CE
330
CD
100
AcDbEntity
  8
_U+30EC_U+30A4_U+30E4_U+30FC 1
 62
   179
420
  2234388
370
     9
100
AcDbVertex
100
AcDb2dVertex
 10
92.31407514487174
 20
-122.1165677472485
 30
0.0
  0
VERTEX
  5
CF
330
CD
100
AcDbEntity
  8
_U+30EC_U+30A4_U+30E4_U+30FC 1
 62
   179
420
  2234388
370
     9
100
AcDbVertex
100
AcDb2dVertex
 10
94.7394223052182
 20
-119.0738594146759
 30
0.0
  0
VERTEX
  5
D0
330
CD
100
AcDbEntity
  8
_U+30EC_U+30A4_U+30E4_U+30FC 1
 62
   179
420
  2234388
370
     9
100
AcDbVertex
100
AcDb2dVertex
 10
103.2942831980766
 20
-119.0738594146759
 30
0.0
  0
SEQEND
  5
D1
330
CD
100
AcDbEntity
  8
_U+30EC_U+30A4_U+30E4_U+30FC 1
 62
   179
420
  2234388
370
     9
  0
INSERT
  5
D3
330
41
100
AcDbEntity
  8
_U+30EC_U+30A4_U+30E4_U+30FC 1
100
AcDbBlockReference
  2
block 9
 10
0.0
 20
0.0
 30
0.0
  0
INSERT
  5
DB
330
41
100
AcDbEntity
  8
_U+30EC_U+30A4_U+30E4_U+30FC 1
100
AcDbBlockReference
  2
block 10
 10
0.0
 20
0.0
 30
0.0
  0
INSERT
  5
E3
330
41
100
AcDbEntity
  8
_U+30EC_U+30A4_U+30E4_U+30FC 1
100
AcDbBlockReference
  2
block 11
 10
0.0
 20
0.0
 30
0.0
  0
INSERT
  5
EC
330
41
100
AcDbEntity
  8
_U+30EC_U+30A4_U+30E4_U+30FC 1
100
AcDbBlockReference
  2
block 12
 10
0.0
 20
0.0
 30
0.0
  0
INSERT
  5
F5
330
41
100
AcDbEntity
  8
_U+30EC_U+30A4_U+30E4_U+30FC 1
100
AcDbBlockReference
  2
block 13
 10
0.0
 20
0.0
 30
0.0
  0
INSERT
  5
109
330
41
100
AcDbEntity
  8
_U+30EC_U+30A4_U+30E4_U+30FC 1
100
AcDbBlockReference
  2
block 14
 10
0.0
 20
0.0
 30
0.0
  0
INSERT
  5
130
330
41
100
AcDbEntity
  8
_U+30EC_U+30A4_U+30E4_U+30FC 1
100
AcDbBlockReference
  2
block 15
 10
0.0
 20
0.0
 30
0.0
  0
SPLINE
  5
13C
330
41
100
AcDbEntity
  8
_U+30EC_U+30A4_U+30E4_U+30FC 1
370
     0
100
AcDbSpline
210
0.0
220
0.0
230
1.0
 70
    11
 71
     3
 72
    17
 73
    13
 74
     0
 42
0.0000000001
 43
0.0000000001
 12
1.0
 22
0.0
 32
0.0
 13
1.0
 23
0.0
 33
0.0
 40
0.0
 40
0.0
 40
0.0
 40
0.0
 40
1.0
 40
1.0
 40
1.0
 40
2.0
 40
2.0
 40
2.0
 40
3.0
 40
3.0
 40
3.0
 40
4.0
 40
4.0
 40
4.0
 40
4.0
 10
88.07178136421278
 20
-138.6264971875657
 30
0.0
 10
88.07178136421278
 20
-138.7581185764213
 30
0.0
 10
87.96534831137255
 20
-138.8645516319503
 30
0.0
 10
87.8337269258416
 20
-138.8645516319503
 30
0.0
 10
87.70249359585631
 20
-138.8645516319503
 30
0.0
 10
87.59567248747044
 20
-138.7581185764213
 30
0.0
 10
87.59567248747044
 20
-138.6264971875657
 30
0.0
 10
87.59567248747044
 20
-138.4949110764877
 30
0.0
 10
87.70249359585631
 20
-138.3884427431805
 30
0.0
 10
87.8337269258416
 20
-138.3884427431805
 30
0.0
 10
87.96534831137255
 20
-138.3884427431805
 30
0.0
 10
88.07178136421278
 20
-138.4949110764877
 30
0.0
 10
88.07178136421278
 20
-138.6264971875657
 30
0.0
  0
HATCH
  5
13D
330
41
100
AcDbEntity
  8
_U+30EC_U+30A4_U+30E4_U+30FC 1
 62
   179
420
  2234388
100
AcDbHatch
 10
0.0
 20
0.0
 30
0.0
210
0.0
220
0.0
230
1.0
  2
SOLID
 70
     1
 71
     0
 91
        1
 92
        1
 93
        1
 72
     4
 94
        3
 73
     0
 74
     1
 95
       17
 96
       13
 40
0.0
 40
0.0
 40
0.0
 40
0.0
 40
1.0
 40
1.0
 40
1.0
 40
2.0
 40
2.0
 40
2.0
 40
3.0
 40
3.0
 40
3.0
 40
4.0
 40
4.0
 40
4.0
 40
4.0
 10
88.07178136421278
 20
-138.6264971875657
 10
88.07178136421278
 20
-138.7581185764213
 10
87.96534831137255
 20
-138.8645516319503
 10
87.8337269258416
 20
-138.8645516319503
 10
87.70249359585631
 20
-138.8645516319503
 10
87.59567248747044
 20
-138.7581185764213
 10
87.59567248747044
 20
-138.6264971875657
 10
87.59567248747044
 20
-138.4949110764877
 10
87.70249359585631
 20
-138.3884427431805
 10
87.8337269258416
 20
-138.3884427431805
 10
87.96534831137255
 20
-138.3884427431805
 10
88.07178136421278
 20
-138.4949110764877
 10
88.07178136421278
 20
-138.6264971875657
 97
        0
 97
        0
 75
     2
 76
     1
 98
        0
  0
SPLINE
  5
13E
330
41
100
AcDbEntity
  8
_U+30EC_U+30A4_U+30E4_U+30FC 1
370
     0
100
AcDbSpline
210
0.0
220
0.0
230
1.0
 70
    11
 71
     3
 72
    17
 73
    13
 74
     0
 42
0.0000000001
 43
0.0000000001
 12
1.0
 22
0.0
 32
0.0
 13
1.0
 23
0.0
 33
0.0
 40
0.0
 40
0.0
 40
0.0
 40
0.0
 40
1.0
 40
1.0
 40
1.0
 40
2.0
 40
2.0
 40
2.0
 40
3.0
 40
3.0
 40
3.0
 40
4.0
 40
4.0
 40
4.0
 40
4.0
 10
93.9808089912387
 20
-142.1101777422504
 30
0.0
 10
93.9808089912387
 20
-142.2417991311059
 30
0.0
 10
93.87437593839847
 20
-142.3482321866349
 30
0.0
 10
93.74275455286754
 20
-142.3482321866349
 30
0.0
 10
93.61152122288225
 20
-142.3482321866349
 30
0.0
 10
93.50470011449636
 20
-142.2417991311059
 30
0.0
 10
93.50470011449636
 20
-142.1101777422504
 30
0.0
 10
93.50470011449636
 20
-141.9785916311723
 30
0.0
 10
93.61152122288225
 20
-141.8721232978652
 30
0.0
 10
93.74275455286754
 20
-141.8721232978652
 30
0.0
 10
93.87437593839847
 20
-141.8721232978652
 30
0.0
 10
93.9808089912387
 20
-141.9785916311723
 30
0.0
 10
93.9808089912387
 20
-142.1101777422504
 30
0.0
  0
HATCH
  5
13F
330
41
100
AcDbEntity
  8
_U+30EC_U+30A4_U+30E4_U+30FC 1
 62
   179
420
  2234388
100
AcDbHatch
 10
0.0
 20
0.0
 30
0.0
210
0.0
220
0.0
230
1.0
  2
SOLID
 70
     1
 71
     0
 91
        1
 92
        1
 93
        1
 72
     4
 94
        3
 73
     0
 74
     1
 95
       17
 96
       13
 40
0.0
 40
0.0
 40
0.0
 40
0.0
 40
1.0
 40
1.0
 40
1.0
 40
2.0
 40
2.0
 40
2.0
 40
3.0
 40
3.0
 40
3.0
 40
4.0
 40
4.0
 40
4.0
 40
4.0
 10
93.9808089912387
 20
-142.1101777422504
 10
93.9808089912387
 20
-142.2417991311059
 10
93.87437593839847
 20
-142.3482321866349
 10
93.74275455286754
 20
-142.3482321866349
 10
93.61152122288225
 20
-142.3482321866349
 10
93.50470011449636
 20
-142.2417991311059
 10
93.50470011449636
 20
-142.1101777422504
 10
93.50470011449636
 20
-141.9785916311723
 10
93.61152122288225
 20
-141.8721232978652
 10
93.74275455286754
 20
-141.8721232978652
 10
93.87437593839847
 20
-141.8721232978652
 10
93.9808089912387
 20
-141.9785916311723
 10
93.9808089912387
 20
-142.1101777422504
 97
        0
 97
        0
 75
     2
 76
     1
 98
        0
  0
SPLINE
  5
140
330
41
100
AcDbEntity
  8
_U+30EC_U+30A4_U+30E4_U+30FC 1
370
     0
100
AcDbSpline
210
0.0
220
0.0
230
1.0
 70
    11
 71
     3
 72
    17
 73
    13
 74
     0
 42
0.0000000001
 43
0.0000000001
 12
1.0
 22
0.0
 32
0.0
 13
1.0
 23
0.0
 33
0.0
 40
0.0
 40
0.0
 40
0.0
 40
0.0
 40
1.0
 40
1.0
 40
1.0
 40
2.0
 40
2.0
 40
2.0
 40
3.0
 40
3.0
 40
3.0
 40
4.0
 40
4.0
 40
4.0
 40
4.0
 10
82.16275373718685
 20
-135.2310110773035
 30
0.0
 10
82.16275373718685
 20
-135.3626324661591
 30
0.0
 10
82.05632068434663
 20
-135.469065521688
 30
0.0
 10
81.92469929881568
 20
-135.469065521688
 30
0.0
 10
81.79346596883039
 20
-135.469065521688
 30
0.0
 10
81.68664486044452
 20
-135.3626324661591
 30
0.0
 10
81.68664486044452
 20
-135.2310110773035
 30
0.0
 10
81.68664486044452
 20
-135.0994249662254
 30
0.0
 10
81.79346596883039
 20
-134.9929566329183
 30
0.0
 10
81.92469929881568
 20
-134.9929566329183
 30
0.0
 10
82.05632068434663
 20
-134.9929566329183
 30
0.0
 10
82.16275373718685
 20
-135.0994249662254
 30
0.0
 10
82.16275373718685
 20
-135.2310110773035
 30
0.0
  0
HATCH
  5
141
330
41
100
AcDbEntity
  8
_U+30EC_U+30A4_U+30E4_U+30FC 1
 62
   179
420
  2234388
100
AcDbHatch
 10
0.0
 20
0.0
 30
0.0
210
0.0
220
0.0
230
1.0
  2
SOLID
 70
     1
 71
     0
 91
        1
 92
        1
 93
        1
 72
     4
 94
        3
 73
     0
 74
     1
 95
       17
 96
       13
 40
0.0
 40
0.0
 40
0.0
 40
0.0
 40
1.0
 40
1.0
 40
1.0
 40
2.0
 40
2.0
 40
2.0
 40
3.0
 40
3.0
 40
3.0
 40
4.0
 40
4.0
 40
4.0
 40
4.0
 10
82.16275373718685
 20
-135.2310110773035
 10
82.16275373718685
 20
-135.3626324661591
 10
82.05632068434663
 20
-135.469065521688
 10
81.92469929881568
 20
-135.469065521688
 10
81.79346596883039
 20
-135.469065521688
 10
81.68664486044452
 20
-135.3626324661591
 10
81.68664486044452
 20
-135.2310110773035
 10
81.68664486044452
 20
-135.0994249662254
 10
81.79346596883039
 20
-134.9929566329183
 10
81.92469929881568
 20
-134.9929566329183
 10
82.05632068434663
 20
-134.9929566329183
 10
82.16275373718685
 20
-135.0994249662254
 10
82.16275373718685
 20
-135.2310110773035
 97
        0
 97
        0
 75
     2
 76
     1
 98
        0
  0
SPLINE
  5
142
330
41
100
AcDbEntity
  8
_U+30EC_U+30A4_U+30E4_U+30FC 1
370
     0
100
AcDbSpline
210
0.0
220
0.0
230
1.0
 70
    11
 71
     3
 72
    17
 73
    13
 74
     0
 42
0.0000000001
 43
0.0000000001
 12
1.0
 22
0.0
 32
0.0
 13
1.0
 23
0.0
 33
0.0
 40
0.0
 40
0.0
 40
0.0
 40
0.0
 40
1.0
 40
1.0
 40
1.0
 40
2.0
 40
2.0
 40
2.0
 40
3.0
 40
3.0
 40
3.0
 40
4.0
 40
4.0
 40
4.0
 40
4.0
 10
80.09018434561806
 20
-131.5709416337741
 30
0.0
 10
80.09018434561806
 20
-131.7025630226296
 30
0.0
 10
79.98375129277784
 20
-131.8089960781586
 30
0.0
 10
79.85212990724689
 20
-131.8089960781586
 30
0.0
 10
79.7208965772616
 20
-131.8089960781586
 30
0.0
 10
79.61407546887573
 20
-131.7025630226296
 30
0.0
 10
79.61407546887573
 20
-131.5709416337741
 30
0.0
 10
79.61407546887573
 20
-131.439355522696
 30
0.0
 10
79.7208965772616
 20
-131.3328871893889
 30
0.0
 10
79.85212990724689
 20
-131.3328871893889
 30
0.0
 10
79.98375129277784
 20
-131.3328871893889
 30
0.0
 10
80.09018434561806
 20
-131.439355522696
 30
0.0
 10
80.09018434561806
 20
-131.5709416337741
 30
0.0
  0
HATCH
  5
143
330
41
100
AcDbEntity
  8
_U+30EC_U+30A4_U+30E4_U+30FC 1
 62
   179
420
  2234388
100
AcDbHatch
 10
0.0
 20
0.0
 30
0.0
210
0.0
220
0.0
230
1.0
  2
SOLID
 70
     1
 71
     0
 91
        1
 92
        1
 93
        1
 72
     4
 94
        3
 73
     0
 74
     1
 95
       17
 96
       13
 40
0.0
 40
0.0
 40
0.0
 40
0.0
 40
1.0
 40
1.0
 40
1.0
 40
2.0
 40
2.0
 40
2.0
 40
3.0
 40
3.0
 40
3.0
 40
4.0
 40
4.0
 40
4.0
 40
4.0
 10
80.09018434561806
 20
-131.5709416337741
 10
80.09018434561806
 20
-131.7025630226296
 10
79.98375129277784
 20
-131.8089960781586
 10
79.85212990724689
 20
-131.8089960781586
 10
79.7208965772616
 20
-131.8089960781586
 10
79.61407546887573
 20
-131.7025630226296
 10
79.61407546887573
 20
-131.5709416337741
 10
79.61407546887573
 20
-131.439355522696
 10
79.7208965772616
 20
-131.3328871893889
 10
79.85212990724689
 20
-131.3328871893889
 10
79.98375129277784
 20
-131.3328871893889
 10
80.09018434561806
 20
-131.439355522696
 10
80.09018434561806
 20
-131.5709416337741
 97
        0
 97
        0
 75
     2
 76
     1
 98
        0
  0
SPLINE
  5
144
330
41
100
AcDbEntity
  8
_U+30EC_U+30A4_U+30E4_U+30FC 1
370
     0
100
AcDbSpline
210
0.0
220
0.0
230
1.0
 70
    11
 71
     3
 72
    17
 73
    13
 74
     0
 42
0.0000000001
 43
0.0000000001
 12
1.0
 22
0.0
 32
0.0
 13
1.0
 23
0.0
 33
0.0
 40
0.0
 40
0.0
 40
0.0
 40
0.0
 40
1.0
 40
1.0
 40
1.0
 40
2.0
 40
2.0
 40
2.0
 40
3.0
 40
3.0
 40
3.0
 40
4.0
 40
4.0
 40
4.0
 40
4.0
 10
80.17837878781248
 20
-122.1341360805777
 30
0.0
 10
80.17837878781248
 20
-122.2657574694336
 30
0.0
 10
80.07194573497226
 20
-122.3721905249625
 30
0.0
 10
79.94032434944131
 20
-122.3721905249625
 30
0.0
 10
79.80909101945602
 20
-122.3721905249625
 30
0.0
 10
79.70226991107013
 20
-122.2657574694336
 30
0.0
 10
79.70226991107013
 20
-122.1341360805777
 30
0.0
 10
79.70226991107013
 20
-122.0025499694993
 30
0.0
 10
79.80909101945602
 20
-121.8960816361925
 30
0.0
 10
79.94032434944131
 20
-121.8960816361925
 30
0.0
 10
80.07194573497226
 20
-121.8960816361925
 30
0.0
 10
80.17837878781248
 20
-122.0025499694993
 30
0.0
 10
80.17837878781248
 20
-122.1341360805777
 30
0.0
  0
HATCH
  5
145
330
41
100
AcDbEntity
  8
_U+30EC_U+30A4_U+30E4_U+30FC 1
 62
   179
420
  2234388
100
AcDbHatch
 10
0.0
 20
0.0
 30
0.0
210
0.0
220
0.0
230
1.0
  2
SOLID
 70
     1
 71
     0
 91
        1
 92
        1
 93
        1
 72
     4
 94
        3
 73
     0
 74
     1
 95
       17
 96
       13
 40
0.0
 40
0.0
 40
0.0
 40
0.0
 40
1.0
 40
1.0
 40
1.0
 40
2.0
 40
2.0
 40
2.0
 40
3.0
 40
3.0
 40
3.0
 40
4.0
 40
4.0
 40
4.0
 40
4.0
 10
80.17837878781248
 20
-122.1341360805777
 10
80.17837878781248
 20
-122.2657574694336
 10
80.07194573497226
 20
-122.3721905249625
 10
79.94032434944131
 20
-122.3721905249625
 10
79.80909101945602
 20
-122.3721905249625
 10
79.70226991107013
 20
-122.2657574694336
 10
79.70226991107013
 20
-122.1341360805777
 10
79.70226991107013
 20
-122.0025499694993
 10
79.80909101945602
 20
-121.8960816361925
 10
79.94032434944131
 20
-121.8960816361925
 10
80.07194573497226
 20
-121.8960816361925
 10
80.17837878781248
 20
-122.0025499694993
 10
80.17837878781248
 20
-122.1341360805777
 97
        0
 97
        0
 75
     2
 76
     1
 98
        0
  0
SPLINE
  5
146
330
41
100
AcDbEntity
  8
_U+30EC_U+30A4_U+30E4_U+30FC 1
370
     0
100
AcDbSpline
210
0.0
220
0.0
230
1.0
 70
    11
 71
     3
 72
    17
 73
    13
 74
     0
 42
0.0000000001
 43
0.0000000001
 12
1.0
 22
0.0
 32
0.0
 13
1.0
 23
0.0
 33
0.0
 40
0.0
 40
0.0
 40
0.0
 40
0.0
 40
1.0
 40
1.0
 40
1.0
 40
2.0
 40
2.0
 40
2.0
 40
3.0
 40
3.0
 40
3.0
 40
4.0
 40
4.0
 40
4.0
 40
4.0
 10
85.95511475154677
 20
-118.5181638592595
 30
0.0
 10
85.95511475154677
 20
-118.6497852481154
 30
0.0
 10
85.84868169870656
 20
-118.7562183036443
 30
0.0
 10
85.71706031317561
 20
-118.7562183036443
 30
0.0
 10
85.58582698319032
 20
-118.7562183036443
 30
0.0
 10
85.47900587480443
 20
-118.6497852481154
 30
0.0
 10
85.47900587480443
 20
-118.5181638592595
 30
0.0
 10
85.47900587480443
 20
-118.3865777481811
 30
0.0
 10
85.58582698319032
 20
-118.2801094148743
 30
0.0
 10
85.71706031317561
 20
-118.2801094148743
 30
0.0
 10
85.84868169870656
 20
-118.2801094148743
 30
0.0
 10
85.95511475154677
 20
-118.3865777481811
 30
0.0
 10
85.95511475154677
 20
-118.5181638592595
 30
0.0
  0
HATCH
  5
147
330
41
100
AcDbEntity
  8
_U+30EC_U+30A4_U+30E4_U+30FC 1
 62
   179
420
  2234388
100
AcDbHatch
 10
0.0
 20
0.0
 30
0.0
210
0.0
220
0.0
230
1.0
  2
SOLID
 70
     1
 71
     0
 91
        1
 92
        1
 93
        1
 72
     4
 94
        3
 73
     0
 74
     1
 95
       17
 96
       13
 40
0.0
 40
0.0
 40
0.0
 40
0.0
 40
1.0
 40
1.0
 40
1.0
 40
2.0
 40
2.0
 40
2.0
 40
3.0
 40
3.0
 40
3.0
 40
4.0
 40
4.0
 40
4.0
 40
4.0
 10
85.95511475154677
 20
-118.5181638592595
 10
85.95511475154677
 20
-118.6497852481154
 10
85.84868169870656
 20
-118.7562183036443
 10
85.71706031317561
 20
-118.7562183036443
 10
85.58582698319032
 20
-118.7562183036443
 10
85.47900587480443
 20
-118.6497852481154
 10
85.47900587480443
 20
-118.5181638592595
 10
85.47900587480443
 20
-118.3865777481811
 10
85.58582698319032
 20
-118.2801094148743
 10
85.71706031317561
 20
-118.2801094148743
 10
85.84868169870656
 20
-118.2801094148743
 10
85.95511475154677
 20
-118.3865777481811
 10
85.95511475154677
 20
-118.5181638592595
 97
        0
 97
        0
 75
     2
 76
     1
 98
        0
  0
ENDBLK
  5
44
330
41
100
AcDbEntity
  8
0
100
AcDbBlockEnd
  0
BLOCK
  5
52
330
50
100
AcDbEntity
  8
0
100
AcDbBlockBegin
  2
block 3
 70
     0
 10
0.0
 20
0.0
 30
0.0
  3
block 3
  1

  0
SPLINE
  5
54
330
50
100
AcDbEntity
  8
_U+30EC_U+30A4_U+30E4_U+30FC 1
 62
   179
420
  2234388
370
     9
100
AcDbSpline
210
0.0
220
0.0
230
1.0
 70
    11
 71
     3
 72
    17
 73
    13
 74
     0
 42
0.0000000001
 43
0.0000000001
 12
1.0
 22
0.0
 32
0.0
 13
1.0
 23
0.0
 33
0.0
 40
0.0
 40
0.0
 40
0.0
 40
0.0
 40
1.0
 40
1.0
 40
1.0
 40
2.0
 40
2.0
 40
2.0
 40
3.0
 40
3.0
 40
3.0
 40
4.0
 40
4.0
 40
4.0
 40
4.0
 10
92.1814659815882
 20
-123.2568866358526
 30
0.0
 10
92.1814659815882
 20
-123.4887674691279
 30
0.0
 10
91.85521942148078
 20
-123.6775388579696
 30
0.0
 10
91.45248600018604
 20
-123.6775388579696
 30
0.0
 10
91.05042517711013
 20
-123.6775388579696
 30
0.0
 10
90.72382351877577
 20
-123.4887674691279
 30
0.0
 10
90.72382351877577
 20
-123.2568866358526
 30
0.0
 10
90.72382351877577
 20
-123.0236652470219
 30
0.0
 10
91.05042517711013
 20
-122.8355641359579
 30
0.0
 10
91.45248600018604
 20
-122.8355641359579
 30
0.0
 10
91.85521942148078
 20
-122.8355641359579
 30
0.0
 10
92.1814659815882
 20
-123.0236652470219
 30
0.0
 10
92.1814659815882
 20
-123.2568866358526
 30
0.0
  0
SPLINE
  5
55
330
50
100
AcDbEntity
  8
_U+30EC_U+30A4_U+30E4_U+30FC 1
 62
   179
420
  2234388
370
     9
100
AcDbSpline
210
0.0
220
0.0
230
1.0
 70
    11
 71
     3
 72
    17
 73
    13
 74
     0
 42
0.0000000001
 43
0.0000000001
 12
1.0
 22
0.0
 32
0.0
 13
1.0
 23
0.0
 33
0.0
 40
0.0
 40
0.0
 40
0.0
 40
0.0
 40
1.0
 40
1.0
 40
1.0
 40
2.0
 40
2.0
 40
2.0
 40
3.0
 40
3.0
 40
3.0
 40
4.0
 40
4.0
 40
4.0
 40
4.0
 10
92.11151015003959
 20
-123.345081080275
 30
0.0
 10
92.11151015003959
 20
-123.5077116357897
 30
0.0
 10
91.81662321311835
 20
-123.6400033024233
 30
0.0
 10
91.45248600018604
 20
-123.6400033024233
 30
0.0
 10
91.08866628724563
 20
-123.6400033024233
 30
0.0
 10
90.79409685031628
 20
-123.5077116357897
 30
0.0
 10
90.79409685031628
 20
-123.345081080275
 30
0.0
 10
90.79409685031628
 20
-123.1818155247602
 30
0.0
 10
91.08866628724563
 20
-123.0495238581266
 30
0.0
 10
91.45248600018604
 20
-123.0495238581266
 30
0.0
 10
91.81662321311835
 20
-123.0495238581266
 30
0.0
 10
92.11151015003959
 20
-123.1818155247602
 30
0.0
 10
92.11151015003959
 20
-123.345081080275
 30
0.0
  0
HATCH
  5
56
330
50
100
AcDbEntity
  8
_U+30EC_U+30A4_U+30E4_U+30FC 1
 62
     7
420
 16711422
100
AcDbHatch
 10
0.0
 20
0.0
 30
0.0
210
0.0
220
0.0
230
1.0
  2
SOLID
 70
     1
 71
     0
 91
        1
 92
        1
 93
        1
 72
     4
 94
        3
 73
     0
 74
     1
 95
       17
 96
       13
 40
0.0
 40
0.0
 40
0.0
 40
0.0
 40
1.0
 40
1.0
 40
1.0
 40
2.0
 40
2.0
 40
2.0
 40
3.0
 40
3.0
 40
3.0
 40
4.0
 40
4.0
 40
4.0
 40
4.0
 10
92.11151015003959
 20
-123.345081080275
 10
92.11151015003959
 20
-123.5077116357897
 10
91.81662321311835
 20
-123.6400033024233
 10
91.45248600018604
 20
-123.6400033024233
 10
91.08866628724563
 20
-123.6400033024233
 10
90.79409685031628
 20
-123.5077116357897
 10
90.79409685031628
 20
-123.345081080275
 10
90.79409685031628
 20
-123.1818155247602
 10
91.08866628724563
 20
-123.0495238581266
 10
91.45248600018604
 20
-123.0495238581266
 10
91.81662321311835
 20
-123.0495238581266
 10
92.11151015003959
 20
-123.1818155247602
 10
92.11151015003959
 20
-123.345081080275
 97
        0
 97
        0
 75
     2
 76
     1
 98
        0
  0
ENDBLK
  5
53
330
50
100
AcDbEntity
  8
0
100
AcDbBlockEnd
  0
BLOCK
  5
59
330
57
100
AcDbEntity
  8
0
100
AcDbBlockBegin
  2
block 4
 70
     0
 10
0.0
 20
0.0
 30
0.0
  3
block 4
  1

  0
SPLINE
  5
5B
330
57
100
AcDbEntity
  8
_U+30EC_U+30A4_U+30E4_U+30FC 1
 62
   179
420
  2234388
370
     9
100
AcDbSpline
210
0.0
220
0.0
230
1.0
 70
    11
 71
     3
 72
    17
 73
    13
 74
     0
 42
0.0000000001
 43
0.0000000001
 12
1.0
 22
0.0
 32
0.0
 13
1.0
 23
0.0
 33
0.0
 40
0.0
 40
0.0
 40
0.0
 40
0.0
 40
1.0
 40
1.0
 40
1.0
 40
2.0
 40
2.0
 40
2.0
 40
3.0
 40
3.0
 40
3.0
 40
4.0
 40
4.0
 40
4.0
 40
4.0
 10
98.06121305380559
 20
-135.9568866326776
 30
0.0
 10
98.06121305380559
 20
-136.1887674659526
 30
0.0
 10
97.73461386445513
 20
-136.3775388547946
 30
0.0
 10
97.33219779462654
 20
-136.3775388547946
 30
0.0
 10
96.92981947155873
 20
-136.3775388547946
 30
0.0
 10
96.60321781322436
 20
-136.1887674659526
 30
0.0
 10
96.60321781322436
 20
-135.9568866326776
 30
0.0
 10
96.60321781322436
 20
-135.7236652438466
 30
0.0
 10
96.92981947155873
 20
-135.5355641327826
 30
0.0
 10
97.33219779462654
 20
-135.5355641327826
 30
0.0
 10
97.73461386445513
 20
-135.5355641327826
 30
0.0
 10
98.06121305380559
 20
-135.7236652438466
 30
0.0
 10
98.06121305380559
 20
-135.9568866326776
 30
0.0
  0
SPLINE
  5
5C
330
57
100
AcDbEntity
  8
_U+30EC_U+30A4_U+30E4_U+30FC 1
 62
   179
420
  2234388
370
     9
100
AcDbSpline
210
0.0
220
0.0
230
1.0
 70
    11
 71
     3
 72
    17
 73
    13
 74
     0
 42
0.0000000001
 43
0.0000000001
 12
1.0
 22
0.0
 32
0.0
 13
1.0
 23
0.0
 33
0.0
 40
0.0
 40
0.0
 40
0.0
 40
0.0
 40
1.0
 40
1.0
 40
1.0
 40
2.0
 40
2.0
 40
2.0
 40
3.0
 40
3.0
 40
3.0
 40
4.0
 40
4.0
 40
4.0
 40
4.0
 10
97.99161000002576
 20
-136.0450810771
 30
0.0
 10
97.99161000002576
 20
-136.2077116326147
 30
0.0
 10
97.69668778532763
 20
-136.3400032992483
 30
0.0
 10
97.33219779462654
 20
-136.3400032992483
 30
0.0
 10
96.96841335946301
 20
-136.3400032992483
 30
0.0
 10
96.67352642254176
 20
-136.2077116326147
 30
0.0
 10
96.67352642254176
 20
-136.0450810771
 30
0.0
 10
96.67352642254176
 20
-135.8818155215849
 30
0.0
 10
96.96841335946301
 20
-135.7495238549513
 30
0.0
 10
97.33219779462654
 20
-135.7495238549513
 30
0.0
 10
97.69668778532763
 20
-135.7495238549513
 30
0.0
 10
97.99161000002576
 20
-135.8818155215849
 30
0.0
 10
97.99161000002576
 20
-136.0450810771
 30
0.0
  0
HATCH
  5
5D
330
57
100
AcDbEntity
  8
_U+30EC_U+30A4_U+30E4_U+30FC 1
 62
     7
420
 16711422
100
AcDbHatch
 10
0.0
 20
0.0
 30
0.0
210
0.0
220
0.0
230
1.0
  2
SOLID
 70
     1
 71
     0
 91
        1
 92
        1
 93
        1
 72
     4
 94
        3
 73
     0
 74
     1
 95
       17
 96
       13
 40
0.0
 40
0.0
 40
0.0
 40
0.0
 40
1.0
 40
1.0
 40
1.0
 40
2.0
 40
2.0
 40
2.0
 40
3.0
 40
3.0
 40
3.0
 40
4.0
 40
4.0
 40
4.0
 40
4.0
 10
97.99161000002576
 20
-136.0450810771
 10
97.99161000002576
 20
-136.2077116326147
 10
97.69668778532763
 20
-136.3400032992483
 10
97.33219779462654
 20
-136.3400032992483
 10
96.96841335946301
 20
-136.3400032992483
 10
96.67352642254176
 20
-136.2077116326147
 10
96.67352642254176
 20
-136.0450810771
 10
96.67352642254176
 20
-135.8818155215849
 10
96.96841335946301
 20
-135.7495238549513
 10
97.33219779462654
 20
-135.7495238549513
 10
97.69668778532763
 20
-135.7495238549513
 10
97.99161000002576
 20
-135.8818155215849
 10
97.99161000002576
 20
-136.0450810771
 97
        0
 97
        0
 75
     2
 76
     1
 98
        0
  0
ENDBLK
  5
5A
330
57
100
AcDbEntity
  8
0
100
AcDbBlockEnd
  0
BLOCK
  5
60
330
5E
100
AcDbEntity
  8
0
100
AcDbBlockBegin
  2
block 5
 70
     0
 10
0.0
 20
0.0
 30
0.0
  3
block 5
  1

  0
SPLINE
  5
62
330
5E
100
AcDbEntity
  8
_U+30EC_U+30A4_U+30E4_U+30FC 1
 62
   179
420
  2234388
370
     9
100
AcDbSpline
210
0.0
220
0.0
230
1.0
 70
    11
 71
     3
 72
    17
 73
    13
 74
     0
 42
0.0000000001
 43
0.0000000001
 12
1.0
 22
0.0
 32
0.0
 13
1.0
 23
0.0
 33
0.0
 40
0.0
 40
0.0
 40
0.0
 40
0.0
 40
1.0
 40
1.0
 40
1.0
 40
2.0
 40
2.0
 40
2.0
 40
3.0
 40
3.0
 40
3.0
 40
4.0
 40
4.0
 40
4.0
 40
4.0
 10
90.97634184566682
 20
-135.8686921882552
 30
0.0
 10
90.97634184566682
 20
-136.1005730215302
 30
0.0
 10
90.65009296510124
 20
-136.2893444103722
 30
0.0
 10
90.24736186426465
 20
-136.2893444103722
 30
0.0
 10
89.84533631896562
 20
-136.2893444103722
 30
0.0
 10
89.51873466063125
 20
-136.1005730215302
 30
0.0
 10
89.51873466063125
 20
-135.8686921882552
 30
0.0
 10
89.51873466063125
 20
-135.6354707994242
 30
0.0
 10
89.84533631896562
 20
-135.4473696883602
 30
0.0
 10
90.24736186426465
 20
-135.4473696883602
 30
0.0
 10
90.65009296510124
 20
-135.4473696883602
 30
0.0
 10
90.97634184566682
 20
-135.6354707994242
 30
0.0
 10
90.97634184566682
 20
-135.8686921882552
 30
0.0
  0
SPLINE
  5
63
330
5E
100
AcDbEntity
  8
_U+30EC_U+30A4_U+30E4_U+30FC 1
 62
   179
420
  2234388
370
     9
100
AcDbSpline
210
0.0
220
0.0
230
1.0
 70
    11
 71
     3
 72
    17
 73
    13
 74
     0
 42
0.0000000001
 43
0.0000000001
 12
1.0
 22
0.0
 32
0.0
 13
1.0
 23
0.0
 33
0.0
 40
0.0
 40
0.0
 40
0.0
 40
0.0
 40
1.0
 40
1.0
 40
1.0
 40
2.0
 40
2.0
 40
2.0
 40
3.0
 40
3.0
 40
3.0
 40
4.0
 40
4.0
 40
4.0
 40
4.0
 10
90.90642129189509
 20
-135.9568866326776
 30
0.0
 10
90.90642129189509
 20
-136.1195171881923
 30
0.0
 10
90.61153435497384
 20
-136.2518088548259
 30
0.0
 10
90.24736186426465
 20
-136.2518088548259
 30
0.0
 10
89.88357742910112
 20
-136.2518088548259
 30
0.0
 10
89.58900799217177
 20
-136.1195171881923
 30
0.0
 10
89.58900799217177
 20
-135.9568866326776
 30
0.0
 10
89.58900799217177
 20
-135.7936210771625
 30
0.0
 10
89.88357742910112
 20
-135.6613294105289
 30
0.0
 10
90.24736186426465
 20
-135.6613294105289
 30
0.0
 10
90.61153435497384
 20
-135.6613294105289
 30
0.0
 10
90.90642129189509
 20
-135.7936210771625
 30
0.0
 10
90.90642129189509
 20
-135.9568866326776
 30
0.0
  0
HATCH
  5
64
330
5E
100
AcDbEntity
  8
_U+30EC_U+30A4_U+30E4_U+30FC 1
 62
     7
420
 16711422
100
AcDbHatch
 10
0.0
 20
0.0
 30
0.0
210
0.0
220
0.0
230
1.0
  2
SOLID
 70
     1
 71
     0
 91
        1
 92
        1
 93
        1
 72
     4
 94
        3
 73
     0
 74
     1
 95
       17
 96
       13
 40
0.0
 40
0.0
 40
0.0
 40
0.0
 40
1.0
 40
1.0
 40
1.0
 40
2.0
 40
2.0
 40
2.0
 40
3.0
 40
3.0
 40
3.0
 40
4.0
 40
4.0
 40
4.0
 40
4.0
 10
90.90642129189509
 20
-135.9568866326776
 10
90.90642129189509
 20
-136.1195171881923
 10
90.61153435497384
 20
-136.2518088548259
 10
90.24736186426465
 20
-136.2518088548259
 10
89.88357742910112
 20
-136.2518088548259
 10
89.58900799217177
 20
-136.1195171881923
 10
89.58900799217177
 20
-135.9568866326776
 10
89.58900799217177
 20
-135.7936210771625
 10
89.88357742910112
 20
-135.6613294105289
 10
90.24736186426465
 20
-135.6613294105289
 10
90.61153435497384
 20
-135.6613294105289
 10
90.90642129189509
 20
-135.7936210771625
 10
90.90642129189509
 20
-135.9568866326776
 97
        0
 97
        0
 75
     2
 76
     1
 98
        0
  0
ENDBLK
  5
61
330
5E
100
AcDbEntity
  8
0
100
AcDbBlockEnd
  0
BLOCK
  5
67
330
65
100
AcDbEntity
  8
0
100
AcDbBlockBegin
  2
block 6
 70
     0
 10
0.0
 20
0.0
 30
0.0
  3
block 6
  1

  0
SPLINE
  5
69
330
65
100
AcDbEntity
  8
_U+30EC_U+30A4_U+30E4_U+30FC 1
 62
   179
420
  2234388
370
     9
100
AcDbSpline
210
0.0
220
0.0
230
1.0
 70
    11
 71
     3
 72
    17
 73
    13
 74
     0
 42
0.0000000001
 43
0.0000000001
 12
1.0
 22
0.0
 32
0.0
 13
1.0
 23
0.0
 33
0.0
 40
0.0
 40
0.0
 40
0.0
 40
0.0
 40
1.0
 40
1.0
 40
1.0
 40
2.0
 40
2.0
 40
2.0
 40
3.0
 40
3.0
 40
3.0
 40
4.0
 40
4.0
 40
4.0
 40
4.0
 10
89.65310771275867
 20
-123.223831358083
 30
0.0
 10
89.65310771275867
 20
-123.749540802396
 30
0.0
 10
88.91343856496253
 20
-124.1770721911778
 30
0.0
 10
88.00150803267226
 20
-124.1770721911778
 30
0.0
 10
87.08993027815077
 20
-124.1770721911778
 30
0.0
 10
86.34994363036274
 20
-123.749540802396
 30
0.0
 10
86.34994363036274
 20
-123.223831358083
 30
0.0
 10
86.34994363036274
 20
-122.6953702471038
 30
0.0
 10
87.08993027815077
 20
-122.2691794138771
 30
0.0
 10
88.00150803267226
 20
-122.2691794138771
 30
0.0
 10
88.91343856496253
 20
-122.2691794138771
 30
0.0
 10
89.65310771275867
 20
-122.6953702471038
 30
0.0
 10
89.65310771275867
 20
-123.223831358083
 30
0.0
  0
SPLINE
  5
6A
330
65
100
AcDbEntity
  8
_U+30EC_U+30A4_U+30E4_U+30FC 1
 62
   179
420
  2234388
370
     9
100
AcDbSpline
210
0.0
220
0.0
230
1.0
 70
    11
 71
     3
 72
    17
 73
    13
 74
     0
 42
0.0000000001
 43
0.0000000001
 12
1.0
 22
0.0
 32
0.0
 13
1.0
 23
0.0
 33
0.0
 40
0.0
 40
0.0
 40
0.0
 40
0.0
 40
1.0
 40
1.0
 40
1.0
 40
2.0
 40
2.0
 40
2.0
 40
3.0
 40
3.0
 40
3.0
 40
4.0
 40
4.0
 40
4.0
 40
4.0
 10
89.49495743901564
 20
-123.4236446913662
 30
0.0
 10
89.49495743901564
 20
-123.792262191274
 30
0.0
 10
88.82697497779314
 20
-124.0919821911993
 30
0.0
 10
88.00150803267226
 20
-124.0919821911993
 30
0.0
 10
87.17674888704695
 20
-124.0919821911993
 30
0.0
 10
86.50911695963522
 20
-123.792262191274
 30
0.0
 10
86.50911695963522
 20
-123.4236446913662
 30
0.0
 10
86.50911695963522
 20
-123.0536513581255
 30
0.0
 10
87.17674888704695
 20
-122.7542488582002
 30
0.0
 10
88.00150803267226
 20
-122.7542488582002
 30
0.0
 10
88.82697497779314
 20
-122.7542488582002
 30
0.0
 10
89.49495743901564
 20
-123.0536513581255
 30
0.0
 10
89.49495743901564
 20
-123.4236446913662
 30
0.0
  0
HATCH
  5
6B
330
65
100
AcDbEntity
  8
_U+30EC_U+30A4_U+30E4_U+30FC 1
 62
     7
420
 16711422
100
AcDbHatch
 10
0.0
 20
0.0
 30
0.0
210
0.0
220
0.0
230
1.0
  2
SOLID
 70
     1
 71
     0
 91
        1
 92
        1
 93
        1
 72
     4
 94
        3
 73
     0
 74
     1
 95
       17
 96
       13
 40
0.0
 40
0.0
 40
0.0
 40
0.0
 40
1.0
 40
1.0
 40
1.0
 40
2.0
 40
2.0
 40
2.0
 40
3.0
 40
3.0
 40
3.0
 40
4.0
 40
4.0
 40
4.0
 40
4.0
 10
89.49495743901564
 20
-123.4236446913662
 10
89.49495743901564
 20
-123.792262191274
 10
88.82697497779314
 20
-124.0919821911993
 10
88.00150803267226
 20
-124.0919821911993
 10
87.17674888704695
 20
-124.0919821911993
 10
86.50911695963522
 20
-123.792262191274
 10
86.50911695963522
 20
-123.4236446913662
 10
86.50911695963522
 20
-123.0536513581255
 10
87.17674888704695
 20
-122.7542488582002
 10
88.00150803267226
 20
-122.7542488582002
 10
88.82697497779314
 20
-122.7542488582002
 10
89.49495743901564
 20
-123.0536513581255
 10
89.49495743901564
 20
-123.4236446913662
 97
        0
 97
        0
 75
     2
 76
     1
 98
        0
  0
ENDBLK
  5
68
330
65
100
AcDbEntity
  8
0
100
AcDbBlockEnd
  0
BLOCK
  5
6E
330
6C
100
AcDbEntity
  8
0
100
AcDbBlockBegin
  2
block 7
 70
     0
 10
0.0
 20
0.0
 30
0.0
  3
block 7
  1

  0
SPLINE
  5
70
330
6C
100
AcDbEntity
  8
_U+30EC_U+30A4_U+30E4_U+30FC 1
 62
   179
420
  2234388
370
     9
100
AcDbSpline
210
0.0
220
0.0
230
1.0
 70
    11
 71
     3
 72
    17
 73
    13
 74
     0
 42
0.0000000001
 43
0.0000000001
 12
1.0
 22
0.0
 32
0.0
 13
1.0
 23
0.0
 33
0.0
 40
0.0
 40
0.0
 40
0.0
 40
0.0
 40
1.0
 40
1.0
 40
1.0
 40
2.0
 40
2.0
 40
2.0
 40
3.0
 40
3.0
 40
3.0
 40
4.0
 40
4.0
 40
4.0
 40
4.0
 10
95.18007701619838
 20
-135.8790285771416
 30
0.0
 10
95.18007701619838
 20
-136.2349107992747
 30
0.0
 10
94.56546758743393
 20
-136.5239769103136
 30
0.0
 10
93.80752455121511
 20
-136.5239769103136
 30
0.0
 10
93.04996957054195
 20
-136.5239769103136
 30
0.0
 10
92.4353601417775
 20
-136.2349107992747
 30
0.0
 10
92.4353601417775
 20
-135.8790285771416
 30
0.0
 10
92.4353601417775
 20
-135.5218057994531
 30
0.0
 10
93.04996957054195
 20
-135.2334452439696
 30
0.0
 10
93.80752455121511
 20
-135.2334452439696
 30
0.0
 10
94.56546758743393
 20
-135.2334452439696
 30
0.0
 10
95.18007701619838
 20
-135.5218057994531
 30
0.0
 10
95.18007701619838
 20
-135.8790285771416
 30
0.0
  0
SPLINE
  5
71
330
6C
100
AcDbEntity
  8
_U+30EC_U+30A4_U+30E4_U+30FC 1
 62
   179
420
  2234388
370
     9
100
AcDbSpline
210
0.0
220
0.0
230
1.0
 70
    11
 71
     3
 72
    17
 73
    13
 74
     0
 42
0.0000000001
 43
0.0000000001
 12
1.0
 22
0.0
 32
0.0
 13
1.0
 23
0.0
 33
0.0
 40
0.0
 40
0.0
 40
0.0
 40
0.0
 40
1.0
 40
1.0
 40
1.0
 40
2.0
 40
2.0
 40
2.0
 40
3.0
 40
3.0
 40
3.0
 40
4.0
 40
4.0
 40
4.0
 40
4.0
 10
95.04880840843622
 20
-136.0144246882187
 30
0.0
 10
95.04880840843622
 20
-136.2635210770451
 30
0.0
 10
94.4934656448264
 20
-136.4664388547725
 30
0.0
 10
93.80752455121511
 20
-136.4664388547725
 30
0.0
 10
93.12232429091824
 20
-136.4664388547725
 30
0.0
 10
92.56765180506912
 20
-136.2635210770451
 30
0.0
 10
92.56765180506912
 20
-136.0144246882187
 30
0.0
 10
92.56765180506912
 20
-135.7639877438369
 30
0.0
 10
93.12232429091824
 20
-135.5614227438872
 30
0.0
 10
93.80752455121511
 20
-135.5614227438872
 30
0.0
 10
94.4934656448264
 20
-135.5614227438872
 30
0.0
 10
95.04880840843622
 20
-135.7639877438369
 30
0.0
 10
95.04880840843622
 20
-136.0144246882187
 30
0.0
  0
HATCH
  5
72
330
6C
100
AcDbEntity
  8
_U+30EC_U+30A4_U+30E4_U+30FC 1
 62
     7
420
 16711422
100
AcDbHatch
 10
0.0
 20
0.0
 30
0.0
210
0.0
220
0.0
230
1.0
  2
SOLID
 70
     1
 71
     0
 91
        1
 92
        1
 93
        1
 72
     4
 94
        3
 73
     0
 74
     1
 95
       17
 96
       13
 40
0.0
 40
0.0
 40
0.0
 40
0.0
 40
1.0
 40
1.0
 40
1.0
 40
2.0
 40
2.0
 40
2.0
 40
3.0
 40
3.0
 40
3.0
 40
4.0
 40
4.0
 40
4.0
 40
4.0
 10
95.04880840843622
 20
-136.0144246882187
 10
95.04880840843622
 20
-136.2635210770451
 10
94.4934656448264
 20
-136.4664388547725
 10
93.80752455121511
 20
-136.4664388547725
 10
93.12232429091824
 20
-136.4664388547725
 10
92.56765180506912
 20
-136.2635210770451
 10
92.56765180506912
 20
-136.0144246882187
 10
92.56765180506912
 20
-135.7639877438369
 10
93.12232429091824
 20
-135.5614227438872
 10
93.80752455121511
 20
-135.5614227438872
 10
94.4934656448264
 20
-135.5614227438872
 10
95.04880840843622
 20
-135.7639877438369
 10
95.04880840843622
 20
-136.0144246882187
 97
        0
 97
        0
 75
     2
 76
     1
 98
        0
  0
ENDBLK
  5
6F
330
6C
100
AcDbEntity
  8
0
100
AcDbBlockEnd
  0
BLOCK
  5
75
330
73
100
AcDbEntity
  8
0
100
AcDbBlockBegin
  2
block 8
 70
     0
 10
0.0
 20
0.0
 30
0.0
  3
block 8
  1

  0
SPLINE
  5
77
330
73
100
AcDbEntity
  8
_U+30EC_U+30A4_U+30E4_U+30FC 1
 62
   179
420
  2234388
370
     9
100
AcDbSpline
210
0.0
220
0.0
230
1.0
 70
    11
 71
     3
 72
    17
 73
    13
 74
     0
 42
0.0000000001
 43
0.0000000001
 12
1.0
 22
0.0
 32
0.0
 13
1.0
 23
0.0
 33
0.0
 40
0.0
 40
0.0
 40
0.0
 40
0.0
 40
1.0
 40
1.0
 40
1.0
 40
2.0
 40
2.0
 40
2.0
 40
3.0
 40
3.0
 40
3.0
 40
4.0
 40
4.0
 40
4.0
 40
4.0
 10
85.09663005122633
 20
-123.1394116358818
 30
0.0
 10
85.09663005122633
 20
-123.3712924691571
 30
0.0
 10
84.77003053436293
 20
-123.5600638579988
 30
0.0
 10
84.36761479204728
 20
-123.5600638579988
 30
0.0
 10
83.96523646897947
 20
-123.5600638579988
 30
0.0
 10
83.6386348106451
 20
-123.3712924691571
 30
0.0
 10
83.6386348106451
 20
-123.1394116358818
 30
0.0
 10
83.6386348106451
 20
-122.9061902470511
 30
0.0
 10
83.96523646897947
 20
-122.7180891359871
 30
0.0
 10
84.36761479204728
 20
-122.7180891359871
 30
0.0
 10
84.77003053436293
 20
-122.7180891359871
 30
0.0
 10
85.09663005122633
 20
-122.9061902470511
 30
0.0
 10
85.09663005122633
 20
-123.1394116358818
 30
0.0
  0
SPLINE
  5
78
330
73
100
AcDbEntity
  8
_U+30EC_U+30A4_U+30E4_U+30FC 1
 62
   179
420
  2234388
370
     9
100
AcDbSpline
210
0.0
220
0.0
230
1.0
 70
    11
 71
     3
 72
    17
 73
    13
 74
     0
 42
0.0000000001
 43
0.0000000001
 12
1.0
 22
0.0
 32
0.0
 13
1.0
 23
0.0
 33
0.0
 40
0.0
 40
0.0
 40
0.0
 40
0.0
 40
1.0
 40
1.0
 40
1.0
 40
2.0
 40
2.0
 40
2.0
 40
3.0
 40
3.0
 40
3.0
 40
4.0
 40
4.0
 40
4.0
 40
4.0
 10
85.02702699744648
 20
-123.2276060803042
 30
0.0
 10
85.02702699744648
 20
-123.3902366358192
 30
0.0
 10
84.73210478274837
 20
-123.5225283024528
 30
0.0
 10
84.36761479204728
 20
-123.5225283024528
 30
0.0
 10
84.00383035688374
 20
-123.5225283024528
 30
0.0
 10
83.7089434199625
 20
-123.3902366358192
 30
0.0
 10
83.7089434199625
 20
-123.2276060803042
 30
0.0
 10
83.7089434199625
 20
-123.0643405247894
 30
0.0
 10
84.00383035688374
 20
-122.9320488581558
 30
0.0
 10
84.36761479204728
 20
-122.9320488581558
 30
0.0
 10
84.73210478274837
 20
-122.9320488581558
 30
0.0
 10
85.02702699744648
 20
-123.0643405247894
 30
0.0
 10
85.02702699744648
 20
-123.2276060803042
 30
0.0
  0
HATCH
  5
79
330
73
100
AcDbEntity
  8
_U+30EC_U+30A4_U+30E4_U+30FC 1
 62
     7
420
 16711422
100
AcDbHatch
 10
0.0
 20
0.0
 30
0.0
210
0.0
220
0.0
230
1.0
  2
SOLID
 70
     1
 71
     0
 91
        1
 92
        1
 93
        1
 72
     4
 94
        3
 73
     0
 74
     1
 95
       17
 96
       13
 40
0.0
 40
0.0
 40
0.0
 40
0.0
 40
1.0
 40
1.0
 40
1.0
 40
2.0
 40
2.0
 40
2.0
 40
3.0
 40
3.0
 40
3.0
 40
4.0
 40
4.0
 40
4.0
 40
4.0
 10
85.02702699744648
 20
-123.2276060803042
 10
85.02702699744648
 20
-123.3902366358192
 10
84.73210478274837
 20
-123.5225283024528
 10
84.36761479204728
 20
-123.5225283024528
 10
84.00383035688374
 20
-123.5225283024528
 10
83.7089434199625
 20
-123.3902366358192
 10
83.7089434199625
 20
-123.2276060803042
 10
83.7089434199625
 20
-123.0643405247894
 10
84.00383035688374
 20
-122.9320488581558
 10
84.36761479204728
 20
-122.9320488581558
 10
84.73210478274837
 20
-122.9320488581558
 10
85.02702699744648
 20
-123.0643405247894
 10
85.02702699744648
 20
-123.2276060803042
 97
        0
 97
        0
 75
     2
 76
     1
 98
        0
  0
ENDBLK
  5
76
330
73
100
AcDbEntity
  8
0
100
AcDbBlockEnd
  0
BLOCK
  5
D4
330
D2
100
AcDbEntity
  8
0
100
AcDbBlockBegin
  2
block 9
 70
     0
 10
0.0
 20
0.0
 30
0.0
  3
block 9
  1

  0
SPLINE
  5
D6
330
D2
100
AcDbEntity
  8
_U+30EC_U+30A4_U+30E4_U+30FC 1
370
     0
100
AcDbSpline
210
0.0
220
0.0
230
1.0
 70
    11
 71
     3
 72
    44
 73
    40
 74
     0
 42
0.0000000001
 43
0.0000000001
 12
1.0
 22
0.0
 32
0.0
 13
1.0
 23
0.0
 33
0.0
 40
0.0
 40
0.0
 40
0.0
 40
0.0
 40
1.0
 40
1.0
 40
1.0
 40
2.0
 40
2.0
 40
2.0
 40
3.0
 40
3.0
 40
3.0
 40
4.0
 40
4.0
 40
4.0
 40
5.0
 40
5.0
 40
5.0
 40
6.0
 40
6.0
 40
6.0
 40
7.0
 40
7.0
 40
7.0
 40
8.0
 40
8.0
 40
8.0
 40
9.0
 40
9.0
 40
9.0
 40
10.0
 40
10.0
 40
10.0
 40
11.0
 40
11.0
 40
11.0
 40
12.0
 40
12.0
 40
12.0
 40
13.0
 40
13.0
 40
13.0
 40
13.0
 10
82.05924612748866
 20
-119.8150810789872
 30
0.0
 10
81.84134383804661
 20
-119.973727726083
 30
0.0
 10
81.7481540051706
 20
-120.0477972790158
 30
0.0
 10
81.69957815882859
 20
-120.191630015525
 30
0.0
 10
81.69957815882859
 20
-120.191630015525
 30
0.0
 10
82.47799748372078
 20
-120.191630015525
 30
0.0
 10
82.47799748372078
 20
-120.191630015525
 30
0.0
 10
82.47799748372078
 20
-120.191630015525
 30
0.0
 10
82.47799748372078
 20
-120.3967854516716
 30
0.0
 10
82.47799748372078
 20
-120.3967854516716
 30
0.0
 10
82.47799748372078
 20
-120.3967854516716
 30
0.0
 10
81.44998099092223
 20
-120.3967854516716
 30
0.0
 10
81.44998099092223
 20
-120.3967854516716
 30
0.0
 10
81.48167586938654
 20
-120.0391845403027
 30
0.0
 10
81.54713268360628
 20
-119.9609808727875
 30
0.0
 10
81.9322943588572
 20
-119.6626356037649
 30
0.0
 10
82.18826495341128
 20
-119.463853594266
 30
0.0
 10
82.25372176763102
 20
-119.3961574679808
 30
0.0
 10
82.25372176763102
 20
-119.2586981581194
 30
0.0
 10
82.25372176763102
 20
-119.1401868734268
 30
0.0
 10
82.18189152676356
 20
-119.009100990213
 30
0.0
 10
81.9851765745558
 20
-119.009100990213
 30
0.0
 10
81.72489961064517
 20
-119.009100990213
 30
0.0
 10
81.71645912670631
 20
-119.2395778781762
 30
0.0
 10
81.71215275734974
 20
-119.3560221055777
 30
0.0
 10
81.71215275734974
 20
-119.3560221055777
 30
0.0
 10
81.48804929603425
 20
-119.3560221055777
 30
0.0
 10
81.48804929603425
 20
-119.3560221055777
 30
0.0
 10
81.4964897799731
 20
-119.2290703369462
 30
0.0
 10
81.50699732120312
 20
-119.1169324789013
 30
0.0
 10
81.5874403007837
 20
-118.9984211942087
 30
0.0
 10
81.69733884676317
 20
-118.8377074898218
 30
0.0
 10
81.88354625774092
 20
-118.8037732992921
 30
0.0
 10
81.99999048514236
 20
-118.8037732992921
 30
0.0
 10
82.27714841693071
 20
-118.8037732992921
 30
0.0
 10
82.4843709103685
 20
-118.9879136529787
 30
0.0
 10
82.4843709103685
 20
-119.2607652154105
 30
0.0
 10
82.4843709103685
 20
-119.4891750460826
 30
0.0
 10
82.36809893774131
 20
-119.5887383056063
 30
0.0
 10
82.05924612748866
 20
-119.8150810789872
 30
0.0
  0
HATCH
  5
D7
330
D2
100
AcDbEntity
  8
_U+30EC_U+30A4_U+30E4_U+30FC 1
 62
   179
420
  2234388
100
AcDbHatch
 10
0.0
 20
0.0
 30
0.0
210
0.0
220
0.0
230
1.0
  2
SOLID
 70
     1
 71
     0
 91
        1
 92
        1
 93
        1
 72
     4
 94
        3
 73
     0
 74
     1
 95
       44
 96
       40
 40
0.0
 40
0.0
 40
0.0
 40
0.0
 40
1.0
 40
1.0
 40
1.0
 40
2.0
 40
2.0
 40
2.0
 40
3.0
 40
3.0
 40
3.0
 40
4.0
 40
4.0
 40
4.0
 40
5.0
 40
5.0
 40
5.0
 40
6.0
 40
6.0
 40
6.0
 40
7.0
 40
7.0
 40
7.0
 40
8.0
 40
8.0
 40
8.0
 40
9.0
 40
9.0
 40
9.0
 40
10.0
 40
10.0
 40
10.0
 40
11.0
 40
11.0
 40
11.0
 40
12.0
 40
12.0
 40
12.0
 40
13.0
 40
13.0
 40
13.0
 40
13.0
 10
82.05924612748866
 20
-119.8150810789872
 10
81.84134383804661
 20
-119.973727726083
 10
81.7481540051706
 20
-120.0477972790158
 10
81.69957815882859
 20
-120.191630015525
 10
81.69957815882859
 20
-120.191630015525
 10
82.47799748372078
 20
-120.191630015525
 10
82.47799748372078
 20
-120.191630015525
 10
82.47799748372078
 20
-120.191630015525
 10
82.47799748372078
 20
-120.3967854516716
 10
82.47799748372078
 20
-120.3967854516716
 10
82.47799748372078
 20
-120.3967854516716
 10
81.44998099092223
 20
-120.3967854516716
 10
81.44998099092223
 20
-120.3967854516716
 10
81.48167586938654
 20
-120.0391845403027
 10
81.54713268360628
 20
-119.9609808727875
 10
81.9322943588572
 20
-119.6626356037649
 10
82.18826495341128
 20
-119.463853594266
 10
82.25372176763102
 20
-119.3961574679808
 10
82.25372176763102
 20
-119.2586981581194
 10
82.25372176763102
 20
-119.1401868734268
 10
82.18189152676356
 20
-119.009100990213
 10
81.9851765745558
 20
-119.009100990213
 10
81.72489961064517
 20
-119.009100990213
 10
81.71645912670631
 20
-119.2395778781762
 10
81.71215275734974
 20
-119.3560221055777
 10
81.71215275734974
 20
-119.3560221055777
 10
81.48804929603425
 20
-119.3560221055777
 10
81.48804929603425
 20
-119.3560221055777
 10
81.4964897799731
 20
-119.2290703369462
 10
81.50699732120312
 20
-119.1169324789013
 10
81.5874403007837
 20
-118.9984211942087
 10
81.69733884676317
 20
-118.8377074898218
 10
81.88354625774092
 20
-118.8037732992921
 10
81.99999048514236
 20
-118.8037732992921
 10
82.27714841693071
 20
-118.8037732992921
 10
82.4843709103685
 20
-118.9879136529787
 10
82.4843709103685
 20
-119.2607652154105
 10
82.4843709103685
 20
-119.4891750460826
 10
82.36809893774131
 20
-119.5887383056063
 10
82.05924612748866
 20
-119.8150810789872
 97
        0
 97
        0
 75
     2
 76
     1
 98
        0
  0
SPLINE
  5
D8
330
D2
100
AcDbEntity
  8
_U+30EC_U+30A4_U+30E4_U+30FC 1
370
     0
100
AcDbSpline
210
0.0
220
0.0
230
1.0
 70
    11
 71
     3
 72
    53
 73
    49
 74
     0
 42
0.0000000001
 43
0.0000000001
 12
1.0
 22
0.0
 32
0.0
 13
1.0
 23
0.0
 33
0.0
 40
0.0
 40
0.0
 40
0.0
 40
0.0
 40
1.0
 40
1.0
 40
1.0
 40
2.0
 40
2.0
 40
2.0
 40
3.0
 40
3.0
 40
3.0
 40
4.0
 40
4.0
 40
4.0
 40
5.0
 40
5.0
 40
5.0
 40
6.0
 40
6.0
 40
6.0
 40
7.0
 40
7.0
 40
7.0
 40
8.0
 40
8.0
 40
8.0
 40
9.0
 40
9.0
 40
9.0
 40
10.0
 40
10.0
 40
10.0
 40
11.0
 40
11.0
 40
11.0
 40
12.0
 40
12.0
 40
12.0
 40
13.0
 40
13.0
 40
13.0
 40
14.0
 40
14.0
 40
14.0
 40
15.0
 40
15.0
 40
15.0
 40
16.0
 40
16.0
 40
16.0
 40
16.0
 10
83.12395288720512
 20
-120.4476006100791
 30
0.0
 10
83.0455769649157
 20
-120.4476006100791
 30
0.0
 10
82.94411890287509
 20
-120.4305473874271
 30
0.0
 10
82.84248858606021
 20
-120.3671576304985
 30
0.0
 10
82.66902802837788
 20
-120.2570868297448
 30
0.0
 10
82.6478406911436
 20
-120.126000946531
 30
0.0
 10
82.62889266597473
 20
-120.0181694578427
 30
0.0
 10
82.62889266597473
 20
-120.0181694578427
 30
0.0
 10
82.85110132477334
 20
-120.0181694578427
 30
0.0
 10
82.85110132477334
 20
-120.0181694578427
 30
0.0
 10
82.90605059776307
 20
-120.2169514673416
 30
0.0
 10
83.03300236639453
 20
-120.2465792885148
 30
0.0
 10
83.12601994449628
 20
-120.2465792885148
 30
0.0
 10
83.26571856642316
 20
-120.2465792885148
 30
0.0
 10
83.4179917868712
 20
-120.1471882837653
 30
0.0
 10
83.4179917868712
 20
-119.9144720837367
 30
0.0
 10
83.4179917868712
 20
-119.6585014891826
 30
0.0
 10
83.23815780254115
 20
-119.5887383056063
 30
0.0
 10
83.11757946055741
 20
-119.5887383056063
 30
0.0
 10
83.08588458209312
 20
-119.5887383056063
 30
0.0
 10
82.94411890287509
 20
-119.5887383056063
 30
0.0
 10
82.85523543935564
 20
-119.7177571315289
 30
0.0
 10
82.85523543935564
 20
-119.7177571315289
 30
0.0
 10
82.67970782438216
 20
-119.6986368515858
 30
0.0
 10
82.67970782438216
 20
-119.6986368515858
 30
0.0
 10
82.67970782438216
 20
-119.6986368515858
 30
0.0
 10
82.80028616636591
 20
-118.8525214004084
 30
0.0
 10
82.80028616636591
 20
-118.8525214004084
 30
0.0
 10
82.80028616636591
 20
-118.8525214004084
 30
0.0
 10
83.5787054912581
 20
-118.8525214004084
 30
0.0
 10
83.5787054912581
 20
-118.8525214004084
 30
0.0
 10
83.5787054912581
 20
-118.8525214004084
 30
0.0
 10
83.5787054912581
 20
-119.047169295325
 30
0.0
 10
83.5787054912581
 20
-119.047169295325
 30
0.0
 10
83.5787054912581
 20
-119.047169295325
 30
0.0
 10
82.96306692804396
 20
-119.047169295325
 30
0.0
 10
82.96306692804396
 20
-119.047169295325
 30
0.0
 10
82.96306692804396
 20
-119.047169295325
 30
0.0
 10
82.89761011382421
 20
-119.4702270209137
 30
0.0
 10
82.89761011382421
 20
-119.4702270209137
 30
0.0
 10
82.95893281346166
 20
-119.436292830384
 30
0.0
 10
83.0414428503334
 20
-119.3961574679808
 30
0.0
 10
83.15995413502598
 20
-119.3961574679808
 30
0.0
 10
83.41368541751464
 20
-119.3961574679808
 30
0.0
 10
83.65070798689983
 20
-119.5823648789586
 30
0.0
 10
83.65070798689983
 20
-119.8953518037935
 30
0.0
 10
83.65070798689983
 20
-120.2128173527593
 30
0.0
 10
83.42643227081007
 20
-120.4476006100791
 30
0.0
 10
83.12395288720512
 20
-120.4476006100791
 30
0.0
  0
HATCH
  5
D9
330
D2
100
AcDbEntity
  8
_U+30EC_U+30A4_U+30E4_U+30FC 1
 62
   179
420
  2234388
100
AcDbHatch
 10
0.0
 20
0.0
 30
0.0
210
0.0
220
0.0
230
1.0
  2
SOLID
 70
     1
 71
     0
 91
        1
 92
        1
 93
        1
 72
     4
 94
        3
 73
     0
 74
     1
 95
       53
 96
       49
 40
0.0
 40
0.0
 40
0.0
 40
0.0
 40
1.0
 40
1.0
 40
1.0
 40
2.0
 40
2.0
 40
2.0
 40
3.0
 40
3.0
 40
3.0
 40
4.0
 40
4.0
 40
4.0
 40
5.0
 40
5.0
 40
5.0
 40
6.0
 40
6.0
 40
6.0
 40
7.0
 40
7.0
 40
7.0
 40
8.0
 40
8.0
 40
8.0
 40
9.0
 40
9.0
 40
9.0
 40
10.0
 40
10.0
 40
10.0
 40
11.0
 40
11.0
 40
11.0
 40
12.0
 40
12.0
 40
12.0
 40
13.0
 40
13.0
 40
13.0
 40
14.0
 40
14.0
 40
14.0
 40
15.0
 40
15.0
 40
15.0
 40
16.0
 40
16.0
 40
16.0
 40
16.0
 10
83.12395288720512
 20
-120.4476006100791
 10
83.0455769649157
 20
-120.4476006100791
 10
82.94411890287509
 20
-120.4305473874271
 10
82.84248858606021
 20
-120.3671576304985
 10
82.66902802837788
 20
-120.2570868297448
 10
82.6478406911436
 20
-120.126000946531
 10
82.62889266597473
 20
-120.0181694578427
 10
82.62889266597473
 20
-120.0181694578427
 10
82.85110132477334
 20
-120.0181694578427
 10
82.85110132477334
 20
-120.0181694578427
 10
82.90605059776307
 20
-120.2169514673416
 10
83.03300236639453
 20
-120.2465792885148
 10
83.12601994449628
 20
-120.2465792885148
 10
83.26571856642316
 20
-120.2465792885148
 10
83.4179917868712
 20
-120.1471882837653
 10
83.4179917868712
 20
-119.9144720837367
 10
83.4179917868712
 20
-119.6585014891826
 10
83.23815780254115
 20
-119.5887383056063
 10
83.11757946055741
 20
-119.5887383056063
 10
83.08588458209312
 20
-119.5887383056063
 10
82.94411890287509
 20
-119.5887383056063
 10
82.85523543935564
 20
-119.7177571315289
 10
82.85523543935564
 20
-119.7177571315289
 10
82.67970782438216
 20
-119.6986368515858
 10
82.67970782438216
 20
-119.6986368515858
 10
82.67970782438216
 20
-119.6986368515858
 10
82.80028616636591
 20
-118.8525214004084
 10
82.80028616636591
 20
-118.8525214004084
 10
82.80028616636591
 20
-118.8525214004084
 10
83.5787054912581
 20
-118.8525214004084
 10
83.5787054912581
 20
-118.8525214004084
 10
83.5787054912581
 20
-118.8525214004084
 10
83.5787054912581
 20
-119.047169295325
 10
83.5787054912581
 20
-119.047169295325
 10
83.5787054912581
 20
-119.047169295325
 10
82.96306692804396
 20
-119.047169295325
 10
82.96306692804396
 20
-119.047169295325
 10
82.96306692804396
 20
-119.047169295325
 10
82.89761011382421
 20
-119.4702270209137
 10
82.89761011382421
 20
-119.4702270209137
 10
82.95893281346166
 20
-119.436292830384
 10
83.0414428503334
 20
-119.3961574679808
 10
83.15995413502598
 20
-119.3961574679808
 10
83.41368541751464
 20
-119.3961574679808
 10
83.65070798689983
 20
-119.5823648789586
 10
83.65070798689983
 20
-119.8953518037935
 10
83.65070798689983
 20
-120.2128173527593
 10
83.42643227081007
 20
-120.4476006100791
 10
83.12395288720512
 20
-120.4476006100791
 97
        0
 97
        0
 75
     2
 76
     1
 98
        0
  0
ENDBLK
  5
D5
330
D2
100
AcDbEntity
  8
0
100
AcDbBlockEnd
  0
BLOCK
  5
DC
330
DA
100
AcDbEntity
  8
0
100
AcDbBlockBegin
  2
block 10
 70
     0
 10
0.0
 20
0.0
 30
0.0
  3
block 10
  1

  0
SPLINE
  5
DE
330
DA
100
AcDbEntity
  8
_U+30EC_U+30A4_U+30E4_U+30FC 1
370
     0
100
AcDbSpline
210
0.0
220
0.0
230
1.0
 70
    11
 71
     3
 72
    62
 73
    58
 74
     0
 42
0.0000000001
 43
0.0000000001
 12
1.0
 22
0.0
 32
0.0
 13
1.0
 23
0.0
 33
0.0
 40
0.0
 40
0.0
 40
0.0
 40
0.0
 40
1.0
 40
1.0
 40
1.0
 40
2.0
 40
2.0
 40
2.0
 40
3.0
 40
3.0
 40
3.0
 40
4.0
 40
4.0
 40
4.0
 40
5.0
 40
5.0
 40
5.0
 40
6.0
 40
6.0
 40
6.0
 40
7.0
 40
7.0
 40
7.0
 40
8.0
 40
8.0
 40
8.0
 40
9.0
 40
9.0
 40
9.0
 40
10.0
 40
10.0
 40
10.0
 40
11.0
 40
11.0
 40
11.0
 40
12.0
 40
12.0
 40
12.0
 40
13.0
 40
13.0
 40
13.0
 40
14.0
 40
14.0
 40
14.0
 40
15.0
 40
15.0
 40
15.0
 40
16.0
 40
16.0
 40
16.0
 40
17.0
 40
17.0
 40
17.0
 40
18.0
 40
18.0
 40
18.0
 40
19.0
 40
19.0
 40
19.0
 40
19.0
 10
79.04719914473473
 20
-127.8559339415603
 30
0.0
 10
78.95194225456757
 20
-127.8559339415603
 30
0.0
 10
78.73403996512552
 20
-127.834746604326
 30
0.0
 10
78.60932750855947
 20
-127.6485391933483
 30
0.0
 10
78.5352579556266
 20
-127.5364013353034
 30
0.0
 10
78.53095158627005
 20
-127.4370103305539
 30
0.0
 10
78.52681747168775
 20
-127.3524332363911
 30
0.0
 10
78.52681747168775
 20
-127.3524332363911
 30
0.0
 10
78.74678681842094
 20
-127.3524332363911
 30
0.0
 10
78.74678681842094
 20
-127.3524332363911
 30
0.0
 10
78.7488538757121
 20
-127.4265027893239
 30
0.0
 10
78.75953367171637
 20
-127.6612860466437
 30
0.0
 10
79.04289277537816
 20
-127.6612860466437
 30
0.0
 10
79.1805243400139
 20
-127.6612860466437
 30
0.0
 10
79.33279756046194
 20
-127.5915228630674
 30
0.0
 10
79.33279756046194
 20
-127.3629407776211
 30
0.0
 10
79.33279756046194
 20
-127.2466688049939
 30
0.0
 10
79.29472925534994
 20
-127.1979207038776
 30
0.0
 10
79.26303437688563
 20
-127.1662258254133
 30
0.0
 10
79.18896482395276
 20
-127.0921562724804
 30
0.0
 10
79.07252059655131
 20
-127.0795816739593
 30
0.0
 10
79.01757132356158
 20
-127.0795816739593
 30
0.0
 10
78.99862329839272
 20
-127.0795816739593
 30
0.0
 10
78.96262205057185
 20
-127.0816487312504
 30
0.0
 10
78.93506128668984
 20
-127.0857828458327
 30
0.0
 10
78.93506128668984
 20
-127.0857828458327
 30
0.0
 10
78.93506128668984
 20
-126.8911349509161
 30
0.0
 10
78.93506128668984
 20
-126.8911349509161
 30
0.0
 10
78.97312959180186
 20
-126.8975083775638
 30
0.0
 10
79.01550426627043
 20
-126.8997476896292
 30
0.0
 10
79.02187769291814
 20
-126.8997476896292
 30
0.0
 10
79.0873345071379
 20
-126.8997476896292
 30
0.0
 10
79.28628877141107
 20
-126.878560352395
 30
0.0
 10
79.28628877141107
 20
-126.6415377830098
 30
0.0
 10
79.28628877141107
 20
-126.4639431107451
 30
0.0
 10
79.15503063342305
 20
-126.4088215829811
 30
0.0
 10
79.04513208744358
 20
-126.4088215829811
 30
0.0
 10
78.78072100895065
 20
-126.4088215829811
 30
0.0
 10
78.77210827023754
 20
-126.6415377830098
 30
0.0
 10
78.76797415565524
 20
-126.7135402786515
 30
0.0
 10
78.76797415565524
 20
-126.7135402786515
 30
0.0
 10
78.56488577679976
 20
-126.7135402786515
 30
0.0
 10
78.56488577679976
 20
-126.7135402786515
 30
0.0
 10
78.57332626073861
 20
-126.5886555673112
 30
0.0
 10
78.60088702462062
 20
-126.2121066307734
 30
0.0
 10
79.05770668596475
 20
-126.2121066307734
 30
0.0
 10
79.28198240205451
 20
-126.2121066307734
 30
0.0
 10
79.523139086022
 20
-126.3390583994048
 30
0.0
 10
79.523139086022
 20
-126.6351643563621
 30
0.0
 10
79.523139086022
 20
-126.8213717673398
 30
0.0
 10
79.4280544506291
 20
-126.9038818042115
 30
0.0
 10
79.32849119110539
 20
-126.965204503849
 30
0.0
 10
79.38998614551708
 20
-126.992765267731
 30
0.0
 10
79.57188718713829
 20
-127.0732082473116
 30
0.0
 10
79.57188718713829
 20
-127.3503661790999
 30
0.0
 10
79.57188718713829
 20
-127.6888468105257
 30
0.0
 10
79.32435707652309
 20
-127.8559339415603
 30
0.0
 10
79.04719914473473
 20
-127.8559339415603
 30
0.0
  0
HATCH
  5
DF
330
DA
100
AcDbEntity
  8
_U+30EC_U+30A4_U+30E4_U+30FC 1
 62
   179
420
  2234388
100
AcDbHatch
 10
0.0
 20
0.0
 30
0.0
210
0.0
220
0.0
230
1.0
  2
SOLID
 70
     1
 71
     0
 91
        1
 92
        1
 93
        1
 72
     4
 94
        3
 73
     0
 74
     1
 95
       62
 96
       58
 40
0.0
 40
0.0
 40
0.0
 40
0.0
 40
1.0
 40
1.0
 40
1.0
 40
2.0
 40
2.0
 40
2.0
 40
3.0
 40
3.0
 40
3.0
 40
4.0
 40
4.0
 40
4.0
 40
5.0
 40
5.0
 40
5.0
 40
6.0
 40
6.0
 40
6.0
 40
7.0
 40
7.0
 40
7.0
 40
8.0
 40
8.0
 40
8.0
 40
9.0
 40
9.0
 40
9.0
 40
10.0
 40
10.0
 40
10.0
 40
11.0
 40
11.0
 40
11.0
 40
12.0
 40
12.0
 40
12.0
 40
13.0
 40
13.0
 40
13.0
 40
14.0
 40
14.0
 40
14.0
 40
15.0
 40
15.0
 40
15.0
 40
16.0
 40
16.0
 40
16.0
 40
17.0
 40
17.0
 40
17.0
 40
18.0
 40
18.0
 40
18.0
 40
19.0
 40
19.0
 40
19.0
 40
19.0
 10
79.04719914473473
 20
-127.8559339415603
 10
78.95194225456757
 20
-127.8559339415603
 10
78.73403996512552
 20
-127.834746604326
 10
78.60932750855947
 20
-127.6485391933483
 10
78.5352579556266
 20
-127.5364013353034
 10
78.53095158627005
 20
-127.4370103305539
 10
78.52681747168775
 20
-127.3524332363911
 10
78.52681747168775
 20
-127.3524332363911
 10
78.74678681842094
 20
-127.3524332363911
 10
78.74678681842094
 20
-127.3524332363911
 10
78.7488538757121
 20
-127.4265027893239
 10
78.75953367171637
 20
-127.6612860466437
 10
79.04289277537816
 20
-127.6612860466437
 10
79.1805243400139
 20
-127.6612860466437
 10
79.33279756046194
 20
-127.5915228630674
 10
79.33279756046194
 20
-127.3629407776211
 10
79.33279756046194
 20
-127.2466688049939
 10
79.29472925534994
 20
-127.1979207038776
 10
79.26303437688563
 20
-127.1662258254133
 10
79.18896482395276
 20
-127.0921562724804
 10
79.07252059655131
 20
-127.0795816739593
 10
79.01757132356158
 20
-127.0795816739593
 10
78.99862329839272
 20
-127.0795816739593
 10
78.96262205057185
 20
-127.0816487312504
 10
78.93506128668984
 20
-127.0857828458327
 10
78.93506128668984
 20
-127.0857828458327
 10
78.93506128668984
 20
-126.8911349509161
 10
78.93506128668984
 20
-126.8911349509161
 10
78.97312959180186
 20
-126.8975083775638
 10
79.01550426627043
 20
-126.8997476896292
 10
79.02187769291814
 20
-126.8997476896292
 10
79.0873345071379
 20
-126.8997476896292
 10
79.28628877141107
 20
-126.878560352395
 10
79.28628877141107
 20
-126.6415377830098
 10
79.28628877141107
 20
-126.4639431107451
 10
79.15503063342305
 20
-126.4088215829811
 10
79.04513208744358
 20
-126.4088215829811
 10
78.78072100895065
 20
-126.4088215829811
 10
78.77210827023754
 20
-126.6415377830098
 10
78.76797415565524
 20
-126.7135402786515
 10
78.76797415565524
 20
-126.7135402786515
 10
78.56488577679976
 20
-126.7135402786515
 10
78.56488577679976
 20
-126.7135402786515
 10
78.57332626073861
 20
-126.5886555673112
 10
78.60088702462062
 20
-126.2121066307734
 10
79.05770668596475
 20
-126.2121066307734
 10
79.28198240205451
 20
-126.2121066307734
 10
79.523139086022
 20
-126.3390583994048
 10
79.523139086022
 20
-126.6351643563621
 10
79.523139086022
 20
-126.8213717673398
 10
79.4280544506291
 20
-126.9038818042115
 10
79.32849119110539
 20
-126.965204503849
 10
79.38998614551708
 20
-126.992765267731
 10
79.57188718713829
 20
-127.0732082473116
 10
79.57188718713829
 20
-127.3503661790999
 10
79.57188718713829
 20
-127.6888468105257
 10
79.32435707652309
 20
-127.8559339415603
 10
79.04719914473473
 20
-127.8559339415603
 97
        0
 97
        0
 75
     2
 76
     1
 98
        0
  0
SPLINE
  5
E0
330
DA
100
AcDbEntity
  8
_U+30EC_U+30A4_U+30E4_U+30FC 1
370
     0
100
AcDbSpline
210
0.0
220
0.0
230
1.0
 70
    11
 71
     3
 72
    53
 73
    49
 74
     0
 42
0.0000000001
 43
0.0000000001
 12
1.0
 22
0.0
 32
0.0
 13
1.0
 23
0.0
 33
0.0
 40
0.0
 40
0.0
 40
0.0
 40
0.0
 40
1.0
 40
1.0
 40
1.0
 40
2.0
 40
2.0
 40
2.0
 40
3.0
 40
3.0
 40
3.0
 40
4.0
 40
4.0
 40
4.0
 40
5.0
 40
5.0
 40
5.0
 40
6.0
 40
6.0
 40
6.0
 40
7.0
 40
7.0
 40
7.0
 40
8.0
 40
8.0
 40
8.0
 40
9.0
 40
9.0
 40
9.0
 40
10.0
 40
10.0
 40
10.0
 40
11.0
 40
11.0
 40
11.0
 40
12.0
 40
12.0
 40
12.0
 40
13.0
 40
13.0
 40
13.0
 40
14.0
 40
14.0
 40
14.0
 40
15.0
 40
15.0
 40
15.0
 40
16.0
 40
16.0
 40
16.0
 40
16.0
 10
80.21353622126607
 20
-127.8559339415603
 30
0.0
 10
80.13516029897663
 20
-127.8559339415603
 30
0.0
 10
80.03370223693602
 20
-127.8388807189083
 30
0.0
 10
79.93207192012115
 20
-127.7754909619797
 30
0.0
 10
79.75861136243883
 20
-127.665420161226
 30
0.0
 10
79.73742402520453
 20
-127.5343342780123
 30
0.0
 10
79.71847600003566
 20
-127.4265027893239
 30
0.0
 10
79.71847600003566
 20
-127.4265027893239
 30
0.0
 10
79.94068465883427
 20
-127.4265027893239
 30
0.0
 10
79.94068465883427
 20
-127.4265027893239
 30
0.0
 10
79.99563393182402
 20
-127.6252847988228
 30
0.0
 10
80.12258570045547
 20
-127.654912619996
 30
0.0
 10
80.21560327855721
 20
-127.654912619996
 30
0.0
 10
80.3553019004841
 20
-127.654912619996
 30
0.0
 10
80.50757512093213
 20
-127.5555216152465
 30
0.0
 10
80.50757512093213
 20
-127.3228054152179
 30
0.0
 10
80.50757512093213
 20
-127.0668348206639
 30
0.0
 10
80.3277411366021
 20
-126.9970716370875
 30
0.0
 10
80.20716279461836
 20
-126.9970716370875
 30
0.0
 10
80.17546791615405
 20
-126.9970716370875
 30
0.0
 10
80.03370223693602
 20
-126.9970716370875
 30
0.0
 10
79.94481877341657
 20
-127.1260904630101
 30
0.0
 10
79.94481877341657
 20
-127.1260904630101
 30
0.0
 10
79.7692911584431
 20
-127.106970183067
 30
0.0
 10
79.7692911584431
 20
-127.106970183067
 30
0.0
 10
79.7692911584431
 20
-127.106970183067
 30
0.0
 10
79.88986950042684
 20
-126.2608547318897
 30
0.0
 10
79.88986950042684
 20
-126.2608547318897
 30
0.0
 10
79.88986950042684
 20
-126.2608547318897
 30
0.0
 10
80.66828882531904
 20
-126.2608547318897
 30
0.0
 10
80.66828882531904
 20
-126.2608547318897
 30
0.0
 10
80.66828882531904
 20
-126.2608547318897
 30
0.0
 10
80.66828882531904
 20
-126.4555026268063
 30
0.0
 10
80.66828882531904
 20
-126.4555026268063
 30
0.0
 10
80.66828882531904
 20
-126.4555026268063
 30
0.0
 10
80.05265026210489
 20
-126.4555026268063
 30
0.0
 10
80.05265026210489
 20
-126.4555026268063
 30
0.0
 10
80.05265026210489
 20
-126.4555026268063
 30
0.0
 10
79.98719344788515
 20
-126.878560352395
 30
0.0
 10
79.98719344788515
 20
-126.878560352395
 30
0.0
 10
80.04851614752259
 20
-126.8446261618652
 30
0.0
 10
80.13102618439433
 20
-126.8044907994621
 30
0.0
 10
80.24953746908693
 20
-126.8044907994621
 30
0.0
 10
80.50326875157558
 20
-126.8044907994621
 30
0.0
 10
80.74029132096076
 20
-126.9906982104398
 30
0.0
 10
80.74029132096076
 20
-127.3036851352748
 30
0.0
 10
80.74029132096076
 20
-127.6211506842405
 30
0.0
 10
80.516015604871
 20
-127.8559339415603
 30
0.0
 10
80.21353622126607
 20
-127.8559339415603
 30
0.0
  0
HATCH
  5
E1
330
DA
100
AcDbEntity
  8
_U+30EC_U+30A4_U+30E4_U+30FC 1
 62
   179
420
  2234388
100
AcDbHatch
 10
0.0
 20
0.0
 30
0.0
210
0.0
220
0.0
230
1.0
  2
SOLID
 70
     1
 71
     0
 91
        1
 92
        1
 93
        1
 72
     4
 94
        3
 73
     0
 74
     1
 95
       53
 96
       49
 40
0.0
 40
0.0
 40
0.0
 40
0.0
 40
1.0
 40
1.0
 40
1.0
 40
2.0
 40
2.0
 40
2.0
 40
3.0
 40
3.0
 40
3.0
 40
4.0
 40
4.0
 40
4.0
 40
5.0
 40
5.0
 40
5.0
 40
6.0
 40
6.0
 40
6.0
 40
7.0
 40
7.0
 40
7.0
 40
8.0
 40
8.0
 40
8.0
 40
9.0
 40
9.0
 40
9.0
 40
10.0
 40
10.0
 40
10.0
 40
11.0
 40
11.0
 40
11.0
 40
12.0
 40
12.0
 40
12.0
 40
13.0
 40
13.0
 40
13.0
 40
14.0
 40
14.0
 40
14.0
 40
15.0
 40
15.0
 40
15.0
 40
16.0
 40
16.0
 40
16.0
 40
16.0
 10
80.21353622126607
 20
-127.8559339415603
 10
80.13516029897663
 20
-127.8559339415603
 10
80.03370223693602
 20
-127.8388807189083
 10
79.93207192012115
 20
-127.7754909619797
 10
79.75861136243883
 20
-127.665420161226
 10
79.73742402520453
 20
-127.5343342780123
 10
79.71847600003566
 20
-127.4265027893239
 10
79.71847600003566
 20
-127.4265027893239
 10
79.94068465883427
 20
-127.4265027893239
 10
79.94068465883427
 20
-127.4265027893239
 10
79.99563393182402
 20
-127.6252847988228
 10
80.12258570045547
 20
-127.654912619996
 10
80.21560327855721
 20
-127.654912619996
 10
80.3553019004841
 20
-127.654912619996
 10
80.50757512093213
 20
-127.5555216152465
 10
80.50757512093213
 20
-127.3228054152179
 10
80.50757512093213
 20
-127.0668348206639
 10
80.3277411366021
 20
-126.9970716370875
 10
80.20716279461836
 20
-126.9970716370875
 10
80.17546791615405
 20
-126.9970716370875
 10
80.03370223693602
 20
-126.9970716370875
 10
79.94481877341657
 20
-127.1260904630101
 10
79.94481877341657
 20
-127.1260904630101
 10
79.7692911584431
 20
-127.106970183067
 10
79.7692911584431
 20
-127.106970183067
 10
79.7692911584431
 20
-127.106970183067
 10
79.88986950042684
 20
-126.2608547318897
 10
79.88986950042684
 20
-126.2608547318897
 10
79.88986950042684
 20
-126.2608547318897
 10
80.66828882531904
 20
-126.2608547318897
 10
80.66828882531904
 20
-126.2608547318897
 10
80.66828882531904
 20
-126.2608547318897
 10
80.66828882531904
 20
-126.4555026268063
 10
80.66828882531904
 20
-126.4555026268063
 10
80.66828882531904
 20
-126.4555026268063
 10
80.05265026210489
 20
-126.4555026268063
 10
80.05265026210489
 20
-126.4555026268063
 10
80.05265026210489
 20
-126.4555026268063
 10
79.98719344788515
 20
-126.878560352395
 10
79.98719344788515
 20
-126.878560352395
 10
80.04851614752259
 20
-126.8446261618652
 10
80.13102618439433
 20
-126.8044907994621
 10
80.24953746908693
 20
-126.8044907994621
 10
80.50326875157558
 20
-126.8044907994621
 10
80.74029132096076
 20
-126.9906982104398
 10
80.74029132096076
 20
-127.3036851352748
 10
80.74029132096076
 20
-127.6211506842405
 10
80.516015604871
 20
-127.8559339415603
 10
80.21353622126607
 20
-127.8559339415603
 97
        0
 97
        0
 75
     2
 76
     1
 98
        0
  0
ENDBLK
  5
DD
330
DA
100
AcDbEntity
  8
0
100
AcDbBlockEnd
  0
BLOCK
  5
E4
330
E2
100
AcDbEntity
  8
0
100
AcDbBlockBegin
  2
block 11
 70
     0
 10
0.0
 20
0.0
 30
0.0
  3
block 11
  1

  0
SPLINE
  5
E6
330
E2
100
AcDbEntity
  8
_U+30EC_U+30A4_U+30E4_U+30FC 1
370
     0
100
AcDbSpline
210
0.0
220
0.0
230
1.0
 70
    11
 71
     3
 72
    62
 73
    58
 74
     0
 42
0.0000000001
 43
0.0000000001
 12
1.0
 22
0.0
 32
0.0
 13
1.0
 23
0.0
 33
0.0
 40
0.0
 40
0.0
 40
0.0
 40
0.0
 40
1.0
 40
1.0
 40
1.0
 40
2.0
 40
2.0
 40
2.0
 40
3.0
 40
3.0
 40
3.0
 40
4.0
 40
4.0
 40
4.0
 40
5.0
 40
5.0
 40
5.0
 40
6.0
 40
6.0
 40
6.0
 40
7.0
 40
7.0
 40
7.0
 40
8.0
 40
8.0
 40
8.0
 40
9.0
 40
9.0
 40
9.0
 40
10.0
 40
10.0
 40
10.0
 40
11.0
 40
11.0
 40
11.0
 40
12.0
 40
12.0
 40
12.0
 40
13.0
 40
13.0
 40
13.0
 40
14.0
 40
14.0
 40
14.0
 40
15.0
 40
15.0
 40
15.0
 40
16.0
 40
16.0
 40
16.0
 40
17.0
 40
17.0
 40
17.0
 40
18.0
 40
18.0
 40
18.0
 40
19.0
 40
19.0
 40
19.0
 40
19.0
 10
83.54511581027693
 20
-137.8217339065168
 30
0.0
 10
83.44985892010976
 20
-137.8217339065168
 30
0.0
 10
83.23195663066771
 20
-137.8007188240568
 30
0.0
 10
83.10724417410167
 20
-137.6146836678533
 30
0.0
 10
83.0331746211688
 20
-137.5023735550341
 30
0.0
 10
83.02886825181223
 20
-137.4031548050589
 30
0.0
 10
83.02473413722993
 20
-137.3184054561218
 30
0.0
 10
83.02473413722993
 20
-137.3184054561218
 30
0.0
 10
83.24470348396314
 20
-137.3184054561218
 30
0.0
 10
83.24470348396314
 20
-137.3184054561218
 30
0.0
 10
83.24677054125428
 20
-137.3924750090547
 30
0.0
 10
83.25745033725856
 20
-137.6270860116002
 30
0.0
 10
83.54080944092036
 20
-137.6270860116002
 30
0.0
 10
83.67844100555608
 20
-137.6270860116002
 30
0.0
 10
83.83071422600413
 20
-137.5574950827981
 30
0.0
 10
83.83071422600413
 20
-137.3290852521261
 30
0.0
 10
83.83071422600413
 20
-137.2126410247246
 30
0.0
 10
83.79264592089211
 20
-137.1640651783826
 30
0.0
 10
83.76095104242782
 20
-137.1323702999183
 30
0.0
 10
83.68688148949495
 20
-137.0583007469854
 30
0.0
 10
83.5704372620935
 20
-137.04555389369
 30
0.0
 10
83.51548798910378
 20
-137.04555389369
 30
0.0
 10
83.4965399639349
 20
-137.04555389369
 30
0.0
 10
83.46053871611403
 20
-137.0476209509812
 30
0.0
 10
83.43297795223204
 20
-137.0517550655635
 30
0.0
 10
83.43297795223204
 20
-137.0517550655635
 30
0.0
 10
83.43297795223204
 20
-136.8571071706468
 30
0.0
 10
83.43297795223204
 20
-136.8571071706468
 30
0.0
 10
83.47104625734404
 20
-136.8636528520688
 30
0.0
 10
83.51342093181262
 20
-136.86571990936
 30
0.0
 10
83.51979435846033
 20
-136.86571990936
 30
0.0
 10
83.58525117268007
 20
-136.86571990936
 30
0.0
 10
83.78420543695326
 20
-136.8443603173514
 30
0.0
 10
83.78420543695326
 20
-136.6076822575147
 30
0.0
 10
83.78420543695326
 20
-136.4299153304759
 30
0.0
 10
83.65294729896524
 20
-136.3747938027118
 30
0.0
 10
83.54304875298577
 20
-136.3747938027118
 30
0.0
 10
83.27863767449284
 20
-136.3747938027118
 30
0.0
 10
83.27002493577972
 20
-136.6076822575147
 30
0.0
 10
83.26589082119742
 20
-136.679340243608
 30
0.0
 10
83.26589082119742
 20
-136.679340243608
 30
0.0
 10
83.06280244234195
 20
-136.679340243608
 30
0.0
 10
83.06280244234195
 20
-136.679340243608
 30
0.0
 10
83.0712429262808
 20
-136.5546277870419
 30
0.0
 10
83.0988036901628
 20
-136.1780788505041
 30
0.0
 10
83.55562335150694
 20
-136.1780788505041
 30
0.0
 10
83.7798990675967
 20
-136.1780788505041
 30
0.0
 10
84.02105575156419
 20
-136.3052028739098
 30
0.0
 10
84.02105575156419
 20
-136.6011365760928
 30
0.0
 10
84.02105575156419
 20
-136.7875162418448
 30
0.0
 10
83.92597111617128
 20
-136.8698540239423
 30
0.0
 10
83.82640785664756
 20
-136.9311767235797
 30
0.0
 10
83.88790281105928
 20
-136.9587374874617
 30
0.0
 10
84.06980385268047
 20
-137.039008212268
 30
0.0
 10
84.06980385268047
 20
-137.3163383988307
 30
0.0
 10
84.06980385268047
 20
-137.6546467754822
 30
0.0
 10
83.82227374206526
 20
-137.8217339065168
 30
0.0
 10
83.54511581027693
 20
-137.8217339065168
 30
0.0
  0
HATCH
  5
E7
330
E2
100
AcDbEntity
  8
_U+30EC_U+30A4_U+30E4_U+30FC 1
 62
   179
420
  2234388
100
AcDbHatch
 10
0.0
 20
0.0
 30
0.0
210
0.0
220
0.0
230
1.0
  2
SOLID
 70
     1
 71
     0
 91
        1
 92
        1
 93
        1
 72
     4
 94
        3
 73
     0
 74
     1
 95
       62
 96
       58
 40
0.0
 40
0.0
 40
0.0
 40
0.0
 40
1.0
 40
1.0
 40
1.0
 40
2.0
 40
2.0
 40
2.0
 40
3.0
 40
3.0
 40
3.0
 40
4.0
 40
4.0
 40
4.0
 40
5.0
 40
5.0
 40
5.0
 40
6.0
 40
6.0
 40
6.0
 40
7.0
 40
7.0
 40
7.0
 40
8.0
 40
8.0
 40
8.0
 40
9.0
 40
9.0
 40
9.0
 40
10.0
 40
10.0
 40
10.0
 40
11.0
 40
11.0
 40
11.0
 40
12.0
 40
12.0
 40
12.0
 40
13.0
 40
13.0
 40
13.0
 40
14.0
 40
14.0
 40
14.0
 40
15.0
 40
15.0
 40
15.0
 40
16.0
 40
16.0
 40
16.0
 40
17.0
 40
17.0
 40
17.0
 40
18.0
 40
18.0
 40
18.0
 40
19.0
 40
19.0
 40
19.0
 40
19.0
 10
83.54511581027693
 20
-137.8217339065168
 10
83.44985892010976
 20
-137.8217339065168
 10
83.23195663066771
 20
-137.8007188240568
 10
83.10724417410167
 20
-137.6146836678533
 10
83.0331746211688
 20
-137.5023735550341
 10
83.02886825181223
 20
-137.4031548050589
 10
83.02473413722993
 20
-137.3184054561218
 10
83.02473413722993
 20
-137.3184054561218
 10
83.24470348396314
 20
-137.3184054561218
 10
83.24470348396314
 20
-137.3184054561218
 10
83.24677054125428
 20
-137.3924750090547
 10
83.25745033725856
 20
-137.6270860116002
 10
83.54080944092036
 20
-137.6270860116002
 10
83.67844100555608
 20
-137.6270860116002
 10
83.83071422600413
 20
-137.5574950827981
 10
83.83071422600413
 20
-137.3290852521261
 10
83.83071422600413
 20
-137.2126410247246
 10
83.79264592089211
 20
-137.1640651783826
 10
83.76095104242782
 20
-137.1323702999183
 10
83.68688148949495
 20
-137.0583007469854
 10
83.5704372620935
 20
-137.04555389369
 10
83.51548798910378
 20
-137.04555389369
 10
83.4965399639349
 20
-137.04555389369
 10
83.46053871611403
 20
-137.0476209509812
 10
83.43297795223204
 20
-137.0517550655635
 10
83.43297795223204
 20
-137.0517550655635
 10
83.43297795223204
 20
-136.8571071706468
 10
83.43297795223204
 20
-136.8571071706468
 10
83.47104625734404
 20
-136.8636528520688
 10
83.51342093181262
 20
-136.86571990936
 10
83.51979435846033
 20
-136.86571990936
 10
83.58525117268007
 20
-136.86571990936
 10
83.78420543695326
 20
-136.8443603173514
 10
83.78420543695326
 20
-136.6076822575147
 10
83.78420543695326
 20
-136.4299153304759
 10
83.65294729896524
 20
-136.3747938027118
 10
83.54304875298577
 20
-136.3747938027118
 10
83.27863767449284
 20
-136.3747938027118
 10
83.27002493577972
 20
-136.6076822575147
 10
83.26589082119742
 20
-136.679340243608
 10
83.26589082119742
 20
-136.679340243608
 10
83.06280244234195
 20
-136.679340243608
 10
83.06280244234195
 20
-136.679340243608
 10
83.0712429262808
 20
-136.5546277870419
 10
83.0988036901628
 20
-136.1780788505041
 10
83.55562335150694
 20
-136.1780788505041
 10
83.7798990675967
 20
-136.1780788505041
 10
84.02105575156419
 20
-136.3052028739098
 10
84.02105575156419
 20
-136.6011365760928
 10
84.02105575156419
 20
-136.7875162418448
 10
83.92597111617128
 20
-136.8698540239423
 10
83.82640785664756
 20
-136.9311767235797
 10
83.88790281105928
 20
-136.9587374874617
 10
84.06980385268047
 20
-137.039008212268
 10
84.06980385268047
 20
-137.3163383988307
 10
84.06980385268047
 20
-137.6546467754822
 10
83.82227374206526
 20
-137.8217339065168
 10
83.54511581027693
 20
-137.8217339065168
 97
        0
 97
        0
 75
     2
 76
     1
 98
        0
  0
SPLINE
  5
E8
330
E2
100
AcDbEntity
  8
_U+30EC_U+30A4_U+30E4_U+30FC 1
370
     0
100
AcDbSpline
210
0.0
220
0.0
230
1.0
 70
    11
 71
     3
 72
    29
 73
    25
 74
     0
 42
0.0000000001
 43
0.0000000001
 12
1.0
 22
0.0
 32
0.0
 13
1.0
 23
0.0
 33
0.0
 40
0.0
 40
0.0
 40
0.0
 40
0.0
 40
1.0
 40
1.0
 40
1.0
 40
2.0
 40
2.0
 40
2.0
 40
3.0
 40
3.0
 40
3.0
 40
4.0
 40
4.0
 40
4.0
 40
5.0
 40
5.0
 40
5.0
 40
6.0
 40
6.0
 40
6.0
 40
7.0
 40
7.0
 40
7.0
 40
8.0
 40
8.0
 40
8.0
 40
8.0
 10
85.12813718574922
 20
-137.5933240758447
 30
0.0
 10
85.0203056970609
 20
-137.8027858813479
 30
0.0
 10
84.84684513937857
 20
-137.8217339065168
 30
0.0
 10
84.73040091197713
 20
-137.8217339065168
 30
0.0
 10
84.56968720759022
 20
-137.8217339065168
 30
0.0
 10
84.4279215283722
 20
-137.7752251174659
 30
0.0
 10
84.33266463820503
 20
-137.5933240758447
 30
0.0
 10
84.22913951887327
 20
-137.3986761809281
 30
0.0
 10
84.21001923893014
 20
-137.1616536115429
 30
0.0
 10
84.21001923893014
 20
-136.9990451046391
 30
0.0
 10
84.21001923893014
 20
-136.8550401133557
 30
0.0
 10
84.22690020680787
 20
-136.6032036333839
 30
0.0
 10
84.33266463820503
 20
-136.404421623885
 30
0.0
 10
84.44066838166762
 20
-136.2015054998038
 30
0.0
 10
84.60138208605451
 20
-136.1780788505041
 30
0.0
 10
84.73040091197713
 20
-136.1780788505041
 30
0.0
 10
84.88904755907288
 20
-136.1780788505041
 30
0.0
 10
85.03305255035633
 20
-136.2225205822638
 30
0.0
 10
85.12813718574922
 20
-136.404421623885
 30
0.0
 10
85.22752819049867
 20
-136.5970024615105
 30
0.0
 10
85.25095483979838
 20
-136.8254122921825
 30
0.0
 10
85.25095483979838
 20
-136.9990451046391
 30
0.0
 10
85.25095483979838
 20
-137.170266350256
 30
0.0
 10
85.22976750256409
 20
-137.4007432382193
 30
0.0
 10
85.12813718574922
 20
-137.5933240758447
 30
0.0
  0
SPLINE
  5
E9
330
E2
100
AcDbEntity
  8
_U+30EC_U+30A4_U+30E4_U+30FC 1
370
     0
100
AcDbSpline
210
0.0
220
0.0
230
1.0
 70
    11
 71
     3
 72
    17
 73
    13
 74
     0
 42
0.0000000001
 43
0.0000000001
 12
1.0
 22
0.0
 32
0.0
 13
1.0
 23
0.0
 33
0.0
 40
0.0
 40
0.0
 40
0.0
 40
0.0
 40
1.0
 40
1.0
 40
1.0
 40
2.0
 40
2.0
 40
2.0
 40
3.0
 40
3.0
 40
3.0
 40
4.0
 40
4.0
 40
4.0
 40
4.0
 10
84.73040091197713
 20
-136.3706596881296
 30
0.0
 10
84.48080374407077
 20
-136.3706596881296
 30
0.0
 10
84.43429495501991
 20
-136.6541910465656
 30
0.0
 10
84.43429495501991
 20
-136.9990451046391
 30
0.0
 10
84.43429495501991
 20
-137.3184054561218
 30
0.0
 10
84.47029620284076
 20
-137.6270860116002
 30
0.0
 10
84.73040091197713
 20
-137.6270860116002
 30
0.0
 10
84.97793102259233
 20
-137.6270860116002
 30
0.0
 10
85.02667912370862
 20
-137.3459662200038
 30
0.0
 10
85.02667912370862
 20
-136.9990451046391
 30
0.0
 10
85.02667912370862
 20
-136.679340243608
 30
0.0
 10
84.9886108185966
 20
-136.3706596881296
 30
0.0
 10
84.73040091197713
 20
-136.3706596881296
 30
0.0
  0
HATCH
  5
EA
330
E2
100
AcDbEntity
  8
_U+30EC_U+30A4_U+30E4_U+30FC 1
 62
   179
420
  2234388
100
AcDbHatch
 10
0.0
 20
0.0
 30
0.0
210
0.0
220
0.0
230
1.0
  2
SOLID
 70
     1
 71
     0
 91
        2
 92
        1
 93
        1
 72
     4
 94
        3
 73
     0
 74
     1
 95
       29
 96
       25
 40
0.0
 40
0.0
 40
0.0
 40
0.0
 40
1.0
 40
1.0
 40
1.0
 40
2.0
 40
2.0
 40
2.0
 40
3.0
 40
3.0
 40
3.0
 40
4.0
 40
4.0
 40
4.0
 40
5.0
 40
5.0
 40
5.0
 40
6.0
 40
6.0
 40
6.0
 40
7.0
 40
7.0
 40
7.0
 40
8.0
 40
8.0
 40
8.0
 40
8.0
 10
85.12813718574922
 20
-137.5933240758447
 10
85.0203056970609
 20
-137.8027858813479
 10
84.84684513937857
 20
-137.8217339065168
 10
84.73040091197713
 20
-137.8217339065168
 10
84.56968720759022
 20
-137.8217339065168
 10
84.4279215283722
 20
-137.7752251174659
 10
84.33266463820503
 20
-137.5933240758447
 10
84.22913951887327
 20
-137.3986761809281
 10
84.21001923893014
 20
-137.1616536115429
 10
84.21001923893014
 20
-136.9990451046391
 10
84.21001923893014
 20
-136.8550401133557
 10
84.22690020680787
 20
-136.6032036333839
 10
84.33266463820503
 20
-136.404421623885
 10
84.44066838166762
 20
-136.2015054998038
 10
84.60138208605451
 20
-136.1780788505041
 10
84.73040091197713
 20
-136.1780788505041
 10
84.88904755907288
 20
-136.1780788505041
 10
85.03305255035633
 20
-136.2225205822638
 10
85.12813718574922
 20
-136.404421623885
 10
85.22752819049867
 20
-136.5970024615105
 10
85.25095483979838
 20
-136.8254122921825
 10
85.25095483979838
 20
-136.9990451046391
 10
85.25095483979838
 20
-137.170266350256
 10
85.22976750256409
 20
-137.4007432382193
 10
85.12813718574922
 20
-137.5933240758447
 97
        0
 97
        0
 92
        1
 93
        1
 72
     4
 94
        3
 73
     0
 74
     1
 95
       17
 96
       13
 40
0.0
 40
0.0
 40
0.0
 40
0.0
 40
1.0
 40
1.0
 40
1.0
 40
2.0
 40
2.0
 40
2.0
 40
3.0
 40
3.0
 40
3.0
 40
4.0
 40
4.0
 40
4.0
 40
4.0
 10
84.73040091197713
 20
-136.3706596881296
 10
84.48080374407077
 20
-136.3706596881296
 10
84.43429495501991
 20
-136.6541910465656
 10
84.43429495501991
 20
-136.9990451046391
 10
84.43429495501991
 20
-137.3184054561218
 10
84.47029620284076
 20
-137.6270860116002
 10
84.73040091197713
 20
-137.6270860116002
 10
84.97793102259233
 20
-137.6270860116002
 10
85.02667912370862
 20
-137.3459662200038
 10
85.02667912370862
 20
-136.9990451046391
 10
85.02667912370862
 20
-136.679340243608
 10
84.9886108185966
 20
-136.3706596881296
 10
84.73040091197713
 20
-136.3706596881296
 97
        0
 97
        0
 75
     2
 76
     1
 98
        0
  0
ENDBLK
  5
E5
330
E2
100
AcDbEntity
  8
0
100
AcDbBlockEnd
  0
BLOCK
  5
ED
330
EB
100
AcDbEntity
  8
0
100
AcDbBlockBegin
  2
block 12
 70
     0
 10
0.0
 20
0.0
 30
0.0
  3
block 12
  1

  0
SPLINE
  5
EF
330
EB
100
AcDbEntity
  8
_U+30EC_U+30A4_U+30E4_U+30FC 1
370
     0
100
AcDbSpline
210
0.0
220
0.0
230
1.0
 70
    11
 71
     3
 72
    62
 73
    58
 74
     0
 42
0.0000000001
 43
0.0000000001
 12
1.0
 22
0.0
 32
0.0
 13
1.0
 23
0.0
 33
0.0
 40
0.0
 40
0.0
 40
0.0
 40
0.0
 40
1.0
 40
1.0
 40
1.0
 40
2.0
 40
2.0
 40
2.0
 40
3.0
 40
3.0
 40
3.0
 40
4.0
 40
4.0
 40
4.0
 40
5.0
 40
5.0
 40
5.0
 40
6.0
 40
6.0
 40
6.0
 40
7.0
 40
7.0
 40
7.0
 40
8.0
 40
8.0
 40
8.0
 40
9.0
 40
9.0
 40
9.0
 40
10.0
 40
10.0
 40
10.0
 40
11.0
 40
11.0
 40
11.0
 40
12.0
 40
12.0
 40
12.0
 40
13.0
 40
13.0
 40
13.0
 40
14.0
 40
14.0
 40
14.0
 40
15.0
 40
15.0
 40
15.0
 40
16.0
 40
16.0
 40
16.0
 40
17.0
 40
17.0
 40
17.0
 40
18.0
 40
18.0
 40
18.0
 40
19.0
 40
19.0
 40
19.0
 40
19.0
 10
89.63053247542223
 20
-141.5699977944686
 30
0.0
 10
89.53527558525508
 20
-141.5699977944686
 30
0.0
 10
89.31737329581303
 20
-141.5489827120086
 30
0.0
 10
89.19266083924698
 20
-141.3629475558051
 30
0.0
 10
89.1185912863141
 20
-141.2506374429859
 30
0.0
 10
89.11428491695754
 20
-141.1514186930108
 30
0.0
 10
89.11015080237524
 20
-141.0666693440736
 30
0.0
 10
89.11015080237524
 20
-141.0666693440736
 30
0.0
 10
89.33012014910845
 20
-141.0666693440736
 30
0.0
 10
89.33012014910845
 20
-141.0666693440736
 30
0.0
 10
89.3321872063996
 20
-141.1407388970065
 30
0.0
 10
89.34286700240386
 20
-141.375349899552
 30
0.0
 10
89.62622610606567
 20
-141.375349899552
 30
0.0
 10
89.7638576707014
 20
-141.375349899552
 30
0.0
 10
89.91613089114945
 20
-141.30575897075
 30
0.0
 10
89.91613089114945
 20
-141.0773491400779
 30
0.0
 10
89.91613089114945
 20
-140.9609049126765
 30
0.0
 10
89.87806258603743
 20
-140.9123290663344
 30
0.0
 10
89.84636770757314
 20
-140.8806341878701
 30
0.0
 10
89.77229815464027
 20
-140.8065646349372
 30
0.0
 10
89.65585392723882
 20
-140.7938177816418
 30
0.0
 10
89.60090465424908
 20
-140.7938177816418
 30
0.0
 10
89.58195662908021
 20
-140.7938177816418
 30
0.0
 10
89.54595538125935
 20
-140.795884838933
 30
0.0
 10
89.51839461737735
 20
-140.8000189535153
 30
0.0
 10
89.51839461737735
 20
-140.8000189535153
 30
0.0
 10
89.51839461737735
 20
-140.6053710585987
 30
0.0
 10
89.51839461737735
 20
-140.6053710585987
 30
0.0
 10
89.55646292248936
 20
-140.6119167400206
 30
0.0
 10
89.59883759695794
 20
-140.6139837973118
 30
0.0
 10
89.60521102360565
 20
-140.6139837973118
 30
0.0
 10
89.67066783782539
 20
-140.6139837973118
 30
0.0
 10
89.86962210209857
 20
-140.5926242053033
 30
0.0
 10
89.86962210209857
 20
-140.3559461454666
 30
0.0
 10
89.86962210209857
 20
-140.1781792184277
 30
0.0
 10
89.73836396411055
 20
-140.1230576906637
 30
0.0
 10
89.62846541813109
 20
-140.1230576906637
 30
0.0
 10
89.36405433963816
 20
-140.1230576906637
 30
0.0
 10
89.35544160092503
 20
-140.3559461454666
 30
0.0
 10
89.35130748634273
 20
-140.4276041315598
 30
0.0
 10
89.35130748634273
 20
-140.4276041315598
 30
0.0
 10
89.14821910748725
 20
-140.4276041315598
 30
0.0
 10
89.14821910748725
 20
-140.4276041315598
 30
0.0
 10
89.15665959142612
 20
-140.3028916749937
 30
0.0
 10
89.18422035530811
 20
-139.9263427384559
 30
0.0
 10
89.64104001665224
 20
-139.9263427384559
 30
0.0
 10
89.865315732742
 20
-139.9263427384559
 30
0.0
 10
90.1064724167095
 20
-140.0534667618616
 30
0.0
 10
90.1064724167095
 20
-140.3494004640446
 30
0.0
 10
90.1064724167095
 20
-140.5357801297966
 30
0.0
 10
90.0113877813166
 20
-140.6181179118941
 30
0.0
 10
89.91182452179288
 20
-140.6794406115315
 30
0.0
 10
89.9733194762046
 20
-140.7070013754135
 30
0.0
 10
90.15522051782578
 20
-140.7872721002199
 30
0.0
 10
90.15522051782578
 20
-141.0646022867825
 30
0.0
 10
90.15522051782578
 20
-141.402910663434
 30
0.0
 10
89.90769040721058
 20
-141.5699977944686
 30
0.0
 10
89.63053247542223
 20
-141.5699977944686
 30
0.0
  0
HATCH
  5
F0
330
EB
100
AcDbEntity
  8
_U+30EC_U+30A4_U+30E4_U+30FC 1
 62
   179
420
  2234388
100
AcDbHatch
 10
0.0
 20
0.0
 30
0.0
210
0.0
220
0.0
230
1.0
  2
SOLID
 70
     1
 71
     0
 91
        1
 92
        1
 93
        1
 72
     4
 94
        3
 73
     0
 74
     1
 95
       62
 96
       58
 40
0.0
 40
0.0
 40
0.0
 40
0.0
 40
1.0
 40
1.0
 40
1.0
 40
2.0
 40
2.0
 40
2.0
 40
3.0
 40
3.0
 40
3.0
 40
4.0
 40
4.0
 40
4.0
 40
5.0
 40
5.0
 40
5.0
 40
6.0
 40
6.0
 40
6.0
 40
7.0
 40
7.0
 40
7.0
 40
8.0
 40
8.0
 40
8.0
 40
9.0
 40
9.0
 40
9.0
 40
10.0
 40
10.0
 40
10.0
 40
11.0
 40
11.0
 40
11.0
 40
12.0
 40
12.0
 40
12.0
 40
13.0
 40
13.0
 40
13.0
 40
14.0
 40
14.0
 40
14.0
 40
15.0
 40
15.0
 40
15.0
 40
16.0
 40
16.0
 40
16.0
 40
17.0
 40
17.0
 40
17.0
 40
18.0
 40
18.0
 40
18.0
 40
19.0
 40
19.0
 40
19.0
 40
19.0
 10
89.63053247542223
 20
-141.5699977944686
 10
89.53527558525508
 20
-141.5699977944686
 10
89.31737329581303
 20
-141.5489827120086
 10
89.19266083924698
 20
-141.3629475558051
 10
89.1185912863141
 20
-141.2506374429859
 10
89.11428491695754
 20
-141.1514186930108
 10
89.11015080237524
 20
-141.0666693440736
 10
89.11015080237524
 20
-141.0666693440736
 10
89.33012014910845
 20
-141.0666693440736
 10
89.33012014910845
 20
-141.0666693440736
 10
89.3321872063996
 20
-141.1407388970065
 10
89.34286700240386
 20
-141.375349899552
 10
89.62622610606567
 20
-141.375349899552
 10
89.7638576707014
 20
-141.375349899552
 10
89.91613089114945
 20
-141.30575897075
 10
89.91613089114945
 20
-141.0773491400779
 10
89.91613089114945
 20
-140.9609049126765
 10
89.87806258603743
 20
-140.9123290663344
 10
89.84636770757314
 20
-140.8806341878701
 10
89.77229815464027
 20
-140.8065646349372
 10
89.65585392723882
 20
-140.7938177816418
 10
89.60090465424908
 20
-140.7938177816418
 10
89.58195662908021
 20
-140.7938177816418
 10
89.54595538125935
 20
-140.795884838933
 10
89.51839461737735
 20
-140.8000189535153
 10
89.51839461737735
 20
-140.8000189535153
 10
89.51839461737735
 20
-140.6053710585987
 10
89.51839461737735
 20
-140.6053710585987
 10
89.55646292248936
 20
-140.6119167400206
 10
89.59883759695794
 20
-140.6139837973118
 10
89.60521102360565
 20
-140.6139837973118
 10
89.67066783782539
 20
-140.6139837973118
 10
89.86962210209857
 20
-140.5926242053033
 10
89.86962210209857
 20
-140.3559461454666
 10
89.86962210209857
 20
-140.1781792184277
 10
89.73836396411055
 20
-140.1230576906637
 10
89.62846541813109
 20
-140.1230576906637
 10
89.36405433963816
 20
-140.1230576906637
 10
89.35544160092503
 20
-140.3559461454666
 10
89.35130748634273
 20
-140.4276041315598
 10
89.35130748634273
 20
-140.4276041315598
 10
89.14821910748725
 20
-140.4276041315598
 10
89.14821910748725
 20
-140.4276041315598
 10
89.15665959142612
 20
-140.3028916749937
 10
89.18422035530811
 20
-139.9263427384559
 10
89.64104001665224
 20
-139.9263427384559
 10
89.865315732742
 20
-139.9263427384559
 10
90.1064724167095
 20
-140.0534667618616
 10
90.1064724167095
 20
-140.3494004640446
 10
90.1064724167095
 20
-140.5357801297966
 10
90.0113877813166
 20
-140.6181179118941
 10
89.91182452179288
 20
-140.6794406115315
 10
89.9733194762046
 20
-140.7070013754135
 10
90.15522051782578
 20
-140.7872721002199
 10
90.15522051782578
 20
-141.0646022867825
 10
90.15522051782578
 20
-141.402910663434
 10
89.90769040721058
 20
-141.5699977944686
 10
89.63053247542223
 20
-141.5699977944686
 97
        0
 97
        0
 75
     2
 76
     1
 98
        0
  0
SPLINE
  5
F1
330
EB
100
AcDbEntity
  8
_U+30EC_U+30A4_U+30E4_U+30FC 1
370
     0
100
AcDbSpline
210
0.0
220
0.0
230
1.0
 70
    11
 71
     3
 72
    29
 73
    25
 74
     0
 42
0.0000000001
 43
0.0000000001
 12
1.0
 22
0.0
 32
0.0
 13
1.0
 23
0.0
 33
0.0
 40
0.0
 40
0.0
 40
0.0
 40
0.0
 40
1.0
 40
1.0
 40
1.0
 40
2.0
 40
2.0
 40
2.0
 40
3.0
 40
3.0
 40
3.0
 40
4.0
 40
4.0
 40
4.0
 40
5.0
 40
5.0
 40
5.0
 40
6.0
 40
6.0
 40
6.0
 40
7.0
 40
7.0
 40
7.0
 40
8.0
 40
8.0
 40
8.0
 40
8.0
 10
91.21355385089453
 20
-141.3415879637965
 30
0.0
 10
91.10572236220621
 20
-141.5510497692997
 30
0.0
 10
90.93226180452389
 20
-141.5699977944686
 30
0.0
 10
90.81581757712244
 20
-141.5699977944686
 30
0.0
 10
90.65510387273554
 20
-141.5699977944686
 30
0.0
 10
90.5133381935175
 20
-141.5234890054178
 30
0.0
 10
90.41808130335035
 20
-141.3415879637965
 30
0.0
 10
90.31455618401858
 20
-141.1469400688799
 30
0.0
 10
90.29543590407545
 20
-140.9099174994948
 30
0.0
 10
90.29543590407545
 20
-140.7473089925909
 30
0.0
 10
90.29543590407545
 20
-140.6033040013075
 30
0.0
 10
90.31231687195317
 20
-140.3514675213358
 30
0.0
 10
90.41808130335035
 20
-140.1526855118368
 30
0.0
 10
90.52608504681292
 20
-139.9497693877556
 30
0.0
 10
90.68679875119983
 20
-139.9263427384559
 30
0.0
 10
90.81581757712244
 20
-139.9263427384559
 30
0.0
 10
90.9744642242182
 20
-139.9263427384559
 30
0.0
 10
91.11846921550163
 20
-139.9707844702156
 30
0.0
 10
91.21355385089453
 20
-140.1526855118368
 30
0.0
 10
91.31294485564399
 20
-140.3452663494623
 30
0.0
 10
91.33637150494368
 20
-140.5736761801344
 30
0.0
 10
91.33637150494368
 20
-140.7473089925909
 30
0.0
 10
91.33637150494368
 20
-140.9185302382079
 30
0.0
 10
91.3151841677094
 20
-141.1490071261711
 30
0.0
 10
91.21355385089453
 20
-141.3415879637965
 30
0.0
  0
SPLINE
  5
F2
330
EB
100
AcDbEntity
  8
_U+30EC_U+30A4_U+30E4_U+30FC 1
370
     0
100
AcDbSpline
210
0.0
220
0.0
230
1.0
 70
    11
 71
     3
 72
    17
 73
    13
 74
     0
 42
0.0000000001
 43
0.0000000001
 12
1.0
 22
0.0
 32
0.0
 13
1.0
 23
0.0
 33
0.0
 40
0.0
 40
0.0
 40
0.0
 40
0.0
 40
1.0
 40
1.0
 40
1.0
 40
2.0
 40
2.0
 40
2.0
 40
3.0
 40
3.0
 40
3.0
 40
4.0
 40
4.0
 40
4.0
 40
4.0
 10
90.81581757712244
 20
-140.1189235760814
 30
0.0
 10
90.56622040921609
 20
-140.1189235760814
 30
0.0
 10
90.51971162016521
 20
-140.4024549345174
 30
0.0
 10
90.51971162016521
 20
-140.7473089925909
 30
0.0
 10
90.51971162016521
 20
-141.0666693440736
 30
0.0
 10
90.55571286798607
 20
-141.375349899552
 30
0.0
 10
90.81581757712244
 20
-141.375349899552
 30
0.0
 10
91.06334768773763
 20
-141.375349899552
 30
0.0
 10
91.11209578885392
 20
-141.0942301079556
 30
0.0
 10
91.11209578885392
 20
-140.7473089925909
 30
0.0
 10
91.11209578885392
 20
-140.4276041315598
 30
0.0
 10
91.07402748374192
 20
-140.1189235760814
 30
0.0
 10
90.81581757712244
 20
-140.1189235760814
 30
0.0
  0
HATCH
  5
F3
330
EB
100
AcDbEntity
  8
_U+30EC_U+30A4_U+30E4_U+30FC 1
 62
   179
420
  2234388
100
AcDbHatch
 10
0.0
 20
0.0
 30
0.0
210
0.0
220
0.0
230
1.0
  2
SOLID
 70
     1
 71
     0
 91
        2
 92
        1
 93
        1
 72
     4
 94
        3
 73
     0
 74
     1
 95
       29
 96
       25
 40
0.0
 40
0.0
 40
0.0
 40
0.0
 40
1.0
 40
1.0
 40
1.0
 40
2.0
 40
2.0
 40
2.0
 40
3.0
 40
3.0
 40
3.0
 40
4.0
 40
4.0
 40
4.0
 40
5.0
 40
5.0
 40
5.0
 40
6.0
 40
6.0
 40
6.0
 40
7.0
 40
7.0
 40
7.0
 40
8.0
 40
8.0
 40
8.0
 40
8.0
 10
91.21355385089453
 20
-141.3415879637965
 10
91.10572236220621
 20
-141.5510497692997
 10
90.93226180452389
 20
-141.5699977944686
 10
90.81581757712244
 20
-141.5699977944686
 10
90.65510387273554
 20
-141.5699977944686
 10
90.5133381935175
 20
-141.5234890054178
 10
90.41808130335035
 20
-141.3415879637965
 10
90.31455618401858
 20
-141.1469400688799
 10
90.29543590407545
 20
-140.9099174994948
 10
90.29543590407545
 20
-140.7473089925909
 10
90.29543590407545
 20
-140.6033040013075
 10
90.31231687195317
 20
-140.3514675213358
 10
90.41808130335035
 20
-140.1526855118368
 10
90.52608504681292
 20
-139.9497693877556
 10
90.68679875119983
 20
-139.9263427384559
 10
90.81581757712244
 20
-139.9263427384559
 10
90.9744642242182
 20
-139.9263427384559
 10
91.11846921550163
 20
-139.9707844702156
 10
91.21355385089453
 20
-140.1526855118368
 10
91.31294485564399
 20
-140.3452663494623
 10
91.33637150494368
 20
-140.5736761801344
 10
91.33637150494368
 20
-140.7473089925909
 10
91.33637150494368
 20
-140.9185302382079
 10
91.3151841677094
 20
-141.1490071261711
 10
91.21355385089453
 20
-141.3415879637965
 97
        0
 97
        0
 92
        1
 93
        1
 72
     4
 94
        3
 73
     0
 74
     1
 95
       17
 96
       13
 40
0.0
 40
0.0
 40
0.0
 40
0.0
 40
1.0
 40
1.0
 40
1.0
 40
2.0
 40
2.0
 40
2.0
 40
3.0
 40
3.0
 40
3.0
 40
4.0
 40
4.0
 40
4.0
 40
4.0
 10
90.81581757712244
 20
-140.1189235760814
 10
90.56622040921609
 20
-140.1189235760814
 10
90.51971162016521
 20
-140.4024549345174
 10
90.51971162016521
 20
-140.7473089925909
 10
90.51971162016521
 20
-141.0666693440736
 10
90.55571286798607
 20
-141.375349899552
 10
90.81581757712244
 20
-141.375349899552
 10
91.06334768773763
 20
-141.375349899552
 10
91.11209578885392
 20
-141.0942301079556
 10
91.11209578885392
 20
-140.7473089925909
 10
91.11209578885392
 20
-140.4276041315598
 10
91.07402748374192
 20
-140.1189235760814
 10
90.81581757712244
 20
-140.1189235760814
 97
        0
 97
        0
 75
     2
 76
     1
 98
        0
  0
ENDBLK
  5
EE
330
EB
100
AcDbEntity
  8
0
100
AcDbBlockEnd
  0
BLOCK
  5
F6
330
F4
100
AcDbEntity
  8
0
100
AcDbBlockBegin
  2
block 13
 70
     0
 10
0.0
 20
0.0
 30
0.0
  3
block 13
  1

  0
SPLINE
  5
F8
330
F4
100
AcDbEntity
  8
_U+30EC_U+30A4_U+30E4_U+30FC 1
370
     0
100
AcDbSpline
210
0.0
220
0.0
230
1.0
 70
    11
 71
     3
 72
    35
 73
    31
 74
     0
 42
0.0000000001
 43
0.0000000001
 12
1.0
 22
0.0
 32
0.0
 13
1.0
 23
0.0
 33
0.0
 40
0.0
 40
0.0
 40
0.0
 40
0.0
 40
1.0
 40
1.0
 40
1.0
 40
2.0
 40
2.0
 40
2.0
 40
3.0
 40
3.0
 40
3.0
 40
4.0
 40
4.0
 40
4.0
 40
5.0
 40
5.0
 40
5.0
 40
6.0
 40
6.0
 40
6.0
 40
7.0
 40
7.0
 40
7.0
 40
8.0
 40
8.0
 40
8.0
 40
9.0
 40
9.0
 40
9.0
 40
10.0
 40
10.0
 40
10.0
 40
10.0
 10
98.60862356475756
 20
-129.3888291777222
 30
0.0
 10
98.60862356475756
 20
-129.3888291777222
 30
0.0
 10
98.5579806611244
 20
-129.6530680014409
 30
0.0
 10
98.5579806611244
 20
-129.6530680014409
 30
0.0
 10
98.69750702827702
 20
-129.6658148547363
 30
0.0
 10
99.0254801184728
 20
-129.7567653755469
 30
0.0
 10
99.0254801184728
 20
-130.1481282226713
 30
0.0
 10
99.0254801184728
 20
-130.626307476024
 30
0.0
 10
98.61930336076185
 20
-130.75101993259
 30
0.0
 10
98.34438474103891
 20
-130.75101993259
 30
0.0
 10
98.34438474103891
 20
-130.75101993259
 30
0.0
 10
98.27651635997948
 20
-131.1044867293767
 30
0.0
 10
98.27651635997948
 20
-131.1044867293767
 30
0.0
 10
98.27651635997948
 20
-131.1044867293767
 30
0.0
 10
98.06912161176744
 20
-131.1044867293767
 30
0.0
 10
98.06912161176744
 20
-131.1044867293767
 30
0.0
 10
98.06912161176744
 20
-131.1044867293767
 30
0.0
 10
98.14112410740917
 20
-130.7362060220034
 30
0.0
 10
98.14112410740917
 20
-130.7362060220034
 30
0.0
 10
98.03329261872085
 20
-130.7172579968346
 30
0.0
 10
97.68223738877388
 20
-130.6559352971971
 30
0.0
 10
97.68223738877388
 20
-130.2390787434819
 30
0.0
 10
97.68223738877388
 20
-129.7908718208509
 30
0.0
 10
98.03742673330315
 20
-129.640665657694
 30
0.0
 10
98.35265297020351
 20
-129.640665657694
 30
0.0
 10
98.35265297020351
 20
-129.640665657694
 30
0.0
 10
98.40122881654553
 20
-129.3888291777222
 30
0.0
 10
98.40122881654553
 20
-129.3888291777222
 30
0.0
 10
98.40122881654553
 20
-129.3888291777222
 30
0.0
 10
98.60862356475756
 20
-129.3888291777222
 30
0.0
 10
98.60862356475756
 20
-129.3888291777222
 30
0.0
  0
SPLINE
  5
F9
330
F4
100
AcDbEntity
  8
_U+30EC_U+30A4_U+30E4_U+30FC 1
370
     0
100
AcDbSpline
210
0.0
220
0.0
230
1.0
 70
    11
 71
     3
 72
    14
 73
    10
 74
     0
 42
0.0000000001
 43
0.0000000001
 12
1.0
 22
0.0
 32
0.0
 13
1.0
 23
0.0
 33
0.0
 40
0.0
 40
0.0
 40
0.0
 40
0.0
 40
1.0
 40
1.0
 40
1.0
 40
2.0
 40
2.0
 40
2.0
 40
3.0
 40
3.0
 40
3.0
 40
3.0
 10
98.31889103444806
 20
-129.8139539606021
 30
0.0
 10
98.19831269246431
 20
-129.8225666993152
 30
0.0
 10
97.90410153802398
 20
-129.8456488390664
 30
0.0
 10
97.90410153802398
 20
-130.2435573676127
 30
0.0
 10
97.90410153802398
 20
-130.3069471245413
 30
0.0
 10
97.90410153802398
 20
-130.5205430446268
 30
0.0
 10
98.17281898587346
 20
-130.5649847763865
 30
0.0
 10
98.17281898587346
 20
-130.5649847763865
 30
0.0
 10
98.31889103444806
 20
-129.8139539606021
 30
0.0
 10
98.31889103444806
 20
-129.8139539606021
 30
0.0
  0
SPLINE
  5
FA
330
F4
100
AcDbEntity
  8
_U+30EC_U+30A4_U+30E4_U+30FC 1
370
     0
100
AcDbSpline
210
0.0
220
0.0
230
1.0
 70
    11
 71
     3
 72
    14
 73
    10
 74
     0
 42
0.0000000001
 43
0.0000000001
 12
1.0
 22
0.0
 32
0.0
 13
1.0
 23
0.0
 33
0.0
 40
0.0
 40
0.0
 40
0.0
 40
0.0
 40
1.0
 40
1.0
 40
1.0
 40
2.0
 40
2.0
 40
2.0
 40
3.0
 40
3.0
 40
3.0
 40
3.0
 10
98.3802137340855
 20
-130.5735975150997
 30
0.0
 10
98.5621147757067
 20
-130.5691188909688
 30
0.0
 10
98.80533851696534
 20
-130.4888481661625
 30
0.0
 10
98.80533851696534
 20
-130.1333143120847
 30
0.0
 10
98.80533851696534
 20
-130.040296733983
 30
0.0
 10
98.79259166366991
 20
-129.8521945204884
 30
0.0
 10
98.52180715852927
 20
-129.8246337566063
 30
0.0
 10
98.52180715852927
 20
-129.8246337566063
 30
0.0
 10
98.3802137340855
 20
-130.5735975150997
 30
0.0
 10
98.3802137340855
 20
-130.5735975150997
 30
0.0
  0
HATCH
  5
FB
330
F4
100
AcDbEntity
  8
_U+30EC_U+30A4_U+30E4_U+30FC 1
 62
   179
420
  2234388
100
AcDbHatch
 10
0.0
 20
0.0
 30
0.0
210
0.0
220
0.0
230
1.0
  2
SOLID
 70
     1
 71
     0
 91
        3
 92
        1
 93
        1
 72
     4
 94
        3
 73
     0
 74
     1
 95
       35
 96
       31
 40
0.0
 40
0.0
 40
0.0
 40
0.0
 40
1.0
 40
1.0
 40
1.0
 40
2.0
 40
2.0
 40
2.0
 40
3.0
 40
3.0
 40
3.0
 40
4.0
 40
4.0
 40
4.0
 40
5.0
 40
5.0
 40
5.0
 40
6.0
 40
6.0
 40
6.0
 40
7.0
 40
7.0
 40
7.0
 40
8.0
 40
8.0
 40
8.0
 40
9.0
 40
9.0
 40
9.0
 40
10.0
 40
10.0
 40
10.0
 40
10.0
 10
98.60862356475756
 20
-129.3888291777222
 10
98.60862356475756
 20
-129.3888291777222
 10
98.5579806611244
 20
-129.6530680014409
 10
98.5579806611244
 20
-129.6530680014409
 10
98.69750702827702
 20
-129.6658148547363
 10
99.0254801184728
 20
-129.7567653755469
 10
99.0254801184728
 20
-130.1481282226713
 10
99.0254801184728
 20
-130.626307476024
 10
98.61930336076185
 20
-130.75101993259
 10
98.34438474103891
 20
-130.75101993259
 10
98.34438474103891
 20
-130.75101993259
 10
98.27651635997948
 20
-131.1044867293767
 10
98.27651635997948
 20
-131.1044867293767
 10
98.27651635997948
 20
-131.1044867293767
 10
98.06912161176744
 20
-131.1044867293767
 10
98.06912161176744
 20
-131.1044867293767
 10
98.06912161176744
 20
-131.1044867293767
 10
98.14112410740917
 20
-130.7362060220034
 10
98.14112410740917
 20
-130.7362060220034
 10
98.03329261872085
 20
-130.7172579968346
 10
97.68223738877388
 20
-130.6559352971971
 10
97.68223738877388
 20
-130.2390787434819
 10
97.68223738877388
 20
-129.7908718208509
 10
98.03742673330315
 20
-129.640665657694
 10
98.35265297020351
 20
-129.640665657694
 10
98.35265297020351
 20
-129.640665657694
 10
98.40122881654553
 20
-129.3888291777222
 10
98.40122881654553
 20
-129.3888291777222
 10
98.40122881654553
 20
-129.3888291777222
 10
98.60862356475756
 20
-129.3888291777222
 10
98.60862356475756
 20
-129.3888291777222
 97
        0
 97
        0
 92
        1
 93
        1
 72
     4
 94
        3
 73
     0
 74
     1
 95
       14
 96
       10
 40
0.0
 40
0.0
 40
0.0
 40
0.0
 40
1.0
 40
1.0
 40
1.0
 40
2.0
 40
2.0
 40
2.0
 40
3.0
 40
3.0
 40
3.0
 40
3.0
 10
98.31889103444806
 20
-129.8139539606021
 10
98.19831269246431
 20
-129.8225666993152
 10
97.90410153802398
 20
-129.8456488390664
 10
97.90410153802398
 20
-130.2435573676127
 10
97.90410153802398
 20
-130.3069471245413
 10
97.90410153802398
 20
-130.5205430446268
 10
98.17281898587346
 20
-130.5649847763865
 10
98.17281898587346
 20
-130.5649847763865
 10
98.31889103444806
 20
-129.8139539606021
 10
98.31889103444806
 20
-129.8139539606021
 97
        0
 97
        0
 92
        1
 93
        1
 72
     4
 94
        3
 73
     0
 74
     1
 95
       14
 96
       10
 40
0.0
 40
0.0
 40
0.0
 40
0.0
 40
1.0
 40
1.0
 40
1.0
 40
2.0
 40
2.0
 40
2.0
 40
3.0
 40
3.0
 40
3.0
 40
3.0
 10
98.3802137340855
 20
-130.5735975150997
 10
98.5621147757067
 20
-130.5691188909688
 10
98.80533851696534
 20
-130.4888481661625
 10
98.80533851696534
 20
-130.1333143120847
 10
98.80533851696534
 20
-130.040296733983
 10
98.79259166366991
 20
-129.8521945204884
 10
98.52180715852927
 20
-129.8246337566063
 10
98.52180715852927
 20
-129.8246337566063
 10
98.3802137340855
 20
-130.5735975150997
 10
98.3802137340855
 20
-130.5735975150997
 97
        0
 97
        0
 75
     2
 76
     1
 98
        0
  0
SPLINE
  5
FC
330
F4
100
AcDbEntity
  8
_U+30EC_U+30A4_U+30E4_U+30FC 1
370
     0
100
AcDbSpline
210
0.0
220
0.0
230
1.0
 70
    11
 71
     3
 72
    26
 73
    22
 74
     0
 42
0.0000000001
 43
0.0000000001
 12
1.0
 22
0.0
 32
0.0
 13
1.0
 23
0.0
 33
0.0
 40
0.0
 40
0.0
 40
0.0
 40
0.0
 40
1.0
 40
1.0
 40
1.0
 40
2.0
 40
2.0
 40
2.0
 40
3.0
 40
3.0
 40
3.0
 40
4.0
 40
4.0
 40
4.0
 40
5.0
 40
5.0
 40
5.0
 40
6.0
 40
6.0
 40
6.0
 40
7.0
 40
7.0
 40
7.0
 40
7.0
 10
99.64835338220597
 20
-130.7596326713032
 30
0.0
 10
99.64835338220597
 20
-130.7596326713032
 30
0.0
 10
99.41133081282078
 20
-130.7596326713032
 30
0.0
 10
99.41133081282078
 20
-130.7596326713032
 30
0.0
 10
99.43682451941163
 20
-130.4506076062762
 30
0.0
 10
99.6294053570371
 20
-129.9324652452947
 30
0.0
 10
100.0355821147481
 20
-129.42672522806
 30
0.0
 10
100.0355821147481
 20
-129.42672522806
 30
0.0
 10
99.1977348927353
 20
-129.42672522806
 30
0.0
 10
99.1977348927353
 20
-129.42672522806
 30
0.0
 10
99.1977348927353
 20
-129.42672522806
 30
0.0
 10
99.1977348927353
 20
-129.2151963652657
 30
0.0
 10
99.1977348927353
 20
-129.2151963652657
 30
0.0
 10
99.1977348927353
 20
-129.2151963652657
 30
0.0
 10
100.2726046841332
 20
-129.2151963652657
 30
0.0
 10
100.2726046841332
 20
-129.2151963652657
 30
0.0
 10
100.2726046841332
 20
-129.2151963652657
 30
0.0
 10
100.2726046841332
 20
-129.42672522806
 30
0.0
 10
100.2726046841332
 20
-129.42672522806
 30
0.0
 10
99.94876570851976
 20
-129.716802267918
 30
0.0
 10
99.68211531796142
 20
-130.3090141818325
 30
0.0
 10
99.64835338220597
 20
-130.7596326713032
 30
0.0
  0
HATCH
  5
FD
330
F4
100
AcDbEntity
  8
_U+30EC_U+30A4_U+30E4_U+30FC 1
 62
   179
420
  2234388
100
AcDbHatch
 10
0.0
 20
0.0
 30
0.0
210
0.0
220
0.0
230
1.0
  2
SOLID
 70
     1
 71
     0
 91
        1
 92
        1
 93
        1
 72
     4
 94
        3
 73
     0
 74
     1
 95
       26
 96
       22
 40
0.0
 40
0.0
 40
0.0
 40
0.0
 40
1.0
 40
1.0
 40
1.0
 40
2.0
 40
2.0
 40
2.0
 40
3.0
 40
3.0
 40
3.0
 40
4.0
 40
4.0
 40
4.0
 40
5.0
 40
5.0
 40
5.0
 40
6.0
 40
6.0
 40
6.0
 40
7.0
 40
7.0
 40
7.0
 40
7.0
 10
99.64835338220597
 20
-130.7596326713032
 10
99.64835338220597
 20
-130.7596326713032
 10
99.41133081282078
 20
-130.7596326713032
 10
99.41133081282078
 20
-130.7596326713032
 10
99.43682451941163
 20
-130.4506076062762
 10
99.6294053570371
 20
-129.9324652452947
 10
100.0355821147481
 20
-129.42672522806
 10
100.0355821147481
 20
-129.42672522806
 10
99.1977348927353
 20
-129.42672522806
 10
99.1977348927353
 20
-129.42672522806
 10
99.1977348927353
 20
-129.42672522806
 10
99.1977348927353
 20
-129.2151963652657
 10
99.1977348927353
 20
-129.2151963652657
 10
99.1977348927353
 20
-129.2151963652657
 10
100.2726046841332
 20
-129.2151963652657
 10
100.2726046841332
 20
-129.2151963652657
 10
100.2726046841332
 20
-129.2151963652657
 10
100.2726046841332
 20
-129.42672522806
 10
100.2726046841332
 20
-129.42672522806
 10
99.94876570851976
 20
-129.716802267918
 10
99.68211531796142
 20
-130.3090141818325
 10
99.64835338220597
 20
-130.7596326713032
 97
        0
 97
        0
 75
     2
 76
     1
 98
        0
  0
POLYLINE
  5
FE
330
F4
100
AcDbEntity
  8
_U+30EC_U+30A4_U+30E4_U+30FC 1
370
     0
100
AcDb2dPolyline
 66
     1
 10
0.0
 20
0.0
 30
0.0
  0
VERTEX
  5
FF
330
FE
100
AcDbEntity
  8
_U+30EC_U+30A4_U+30E4_U+30FC 1
370
     0
100
AcDbVertex
100
AcDb2dVertex
 10
100.4741427700204
 20
-130.7596326713032
 30
0.0
  0
VERTEX
  5
100
330
FE
100
AcDbEntity
  8
_U+30EC_U+30A4_U+30E4_U+30FC 1
370
     0
100
AcDbVertex
100
AcDb2dVertex
 10
100.4741427700204
 20
-130.5077961913314
 30
0.0
  0
VERTEX
  5
101
330
FE
100
AcDbEntity
  8
_U+30EC_U+30A4_U+30E4_U+30FC 1
370
     0
100
AcDbVertex
100
AcDb2dVertex
 10
100.7259792499921
 20
-130.5077961913314
 30
0.0
  0
VERTEX
  5
102
330
FE
100
AcDbEntity
  8
_U+30EC_U+30A4_U+30E4_U+30FC 1
370
     0
100
AcDbVertex
100
AcDb2dVertex
 10
100.7259792499921
 20
-130.7596326713032
 30
0.0
  0
VERTEX
  5
103
330
FE
100
AcDbEntity
  8
_U+30EC_U+30A4_U+30E4_U+30FC 1
370
     0
100
AcDbVertex
100
AcDb2dVertex
 10
100.4741427700204
 20
-130.7596326713032
 30
0.0
  0
SEQEND
  5
104
330
FE
100
AcDbEntity
  8
_U+30EC_U+30A4_U+30E4_U+30FC 1
370
     0
  0
HATCH
  5
105
330
F4
100
AcDbEntity
  8
_U+30EC_U+30A4_U+30E4_U+30FC 1
 62
   179
420
  2234388
100
AcDbHatch
 10
0.0
 20
0.0
 30
0.0
210
0.0
220
0.0
230
1.0
  2
SOLID
 70
     1
 71
     0
 91
        1
 92
        1
 93
        4
 72
     1
 10
100.4741427700204
 20
-130.7596326713032
 11
100.4741427700204
 21
-130.5077961913314
 72
     1
 10
100.4741427700204
 20
-130.5077961913314
 11
100.7259792499921
 21
-130.5077961913314
 72
     1
 10
100.7259792499921
 20
-130.5077961913314
 11
100.7259792499921
 21
-130.7596326713032
 72
     1
 10
100.7259792499921
 20
-130.7596326713032
 11
100.4741427700204
 21
-130.7596326713032
 97
        0
 75
     2
 76
     1
 98
        0
  0
SPLINE
  5
106
330
F4
100
AcDbEntity
  8
_U+30EC_U+30A4_U+30E4_U+30FC 1
370
     0
100
AcDbSpline
210
0.0
220
0.0
230
1.0
 70
    11
 71
     3
 72
    53
 73
    49
 74
     0
 42
0.0000000001
 43
0.0000000001
 12
1.0
 22
0.0
 32
0.0
 13
1.0
 23
0.0
 33
0.0
 40
0.0
 40
0.0
 40
0.0
 40
0.0
 40
1.0
 40
1.0
 40
1.0
 40
2.0
 40
2.0
 40
2.0
 40
3.0
 40
3.0
 40
3.0
 40
4.0
 40
4.0
 40
4.0
 40
5.0
 40
5.0
 40
5.0
 40
6.0
 40
6.0
 40
6.0
 40
7.0
 40
7.0
 40
7.0
 40
8.0
 40
8.0
 40
8.0
 40
9.0
 40
9.0
 40
9.0
 40
10.0
 40
10.0
 40
10.0
 40
11.0
 40
11.0
 40
11.0
 40
12.0
 40
12.0
 40
12.0
 40
13.0
 40
13.0
 40
13.0
 40
14.0
 40
14.0
 40
14.0
 40
15.0
 40
15.0
 40
15.0
 40
16.0
 40
16.0
 40
16.0
 40
16.0
 10
101.4432481300211
 20
-130.8102755749363
 30
0.0
 10
101.365044462506
 20
-130.8102755749363
 30
0.0
 10
101.2634141456911
 20
-130.7933946070586
 30
0.0
 10
101.1617838288762
 20
-130.73000485013
 30
0.0
 10
100.9884955259682
 20
-130.6201063041505
 30
0.0
 10
100.9671359339596
 20
-130.4888481661625
 30
0.0
 10
100.9481879087907
 20
-130.3810166774742
 30
0.0
 10
100.9481879087907
 20
-130.3810166774742
 30
0.0
 10
101.1703965675893
 20
-130.3810166774742
 30
0.0
 10
101.1703965675893
 20
-130.3810166774742
 30
0.0
 10
101.2255180953534
 20
-130.5797986869731
 30
0.0
 10
101.3522976092105
 20
-130.6094265081463
 30
0.0
 10
101.4453151873123
 20
-130.6094265081463
 30
0.0
 10
101.5851860640134
 20
-130.6094265081463
 30
0.0
 10
101.7374592844615
 20
-130.5098632486225
 30
0.0
 10
101.7374592844615
 20
-130.2773193033682
 30
0.0
 10
101.7374592844615
 20
-130.0213487088141
 30
0.0
 10
101.5576253001314
 20
-129.9514132704635
 30
0.0
 10
101.4370469581477
 20
-129.9514132704635
 30
0.0
 10
101.4053520796834
 20
-129.9514132704635
 30
0.0
 10
101.2634141456911
 20
-129.9514132704635
 30
0.0
 10
101.1745306821716
 20
-130.0806043511604
 30
0.0
 10
101.1745306821716
 20
-130.0806043511604
 30
0.0
 10
100.9991753219724
 20
-130.0616563259915
 30
0.0
 10
100.9991753219724
 20
-130.0616563259915
 30
0.0
 10
100.9991753219724
 20
-130.0616563259915
 30
0.0
 10
101.1197536639562
 20
-129.2151963652657
 30
0.0
 10
101.1197536639562
 20
-129.2151963652657
 30
0.0
 10
101.1197536639562
 20
-129.2151963652657
 30
0.0
 10
101.8980007340741
 20
-129.2151963652657
 30
0.0
 10
101.8980007340741
 20
-129.2151963652657
 30
0.0
 10
101.8980007340741
 20
-129.2151963652657
 30
0.0
 10
101.8980007340741
 20
-129.4098442601823
 30
0.0
 10
101.8980007340741
 20
-129.4098442601823
 30
0.0
 10
101.8980007340741
 20
-129.4098442601823
 30
0.0
 10
101.28236217086
 20
-129.4098442601823
 30
0.0
 10
101.28236217086
 20
-129.4098442601823
 30
0.0
 10
101.28236217086
 20
-129.4098442601823
 30
0.0
 10
101.2169053566402
 20
-129.8329019857709
 30
0.0
 10
101.2169053566402
 20
-129.8329019857709
 30
0.0
 10
101.2782280562777
 20
-129.7991400500155
 30
0.0
 10
101.3609103479237
 20
-129.7588324328381
 30
0.0
 10
101.4794216326163
 20
-129.7588324328381
 30
0.0
 10
101.7329806603307
 20
-129.7588324328381
 30
0.0
 10
101.9700032297158
 20
-129.9452120985901
 30
0.0
 10
101.9700032297158
 20
-130.2583712781993
 30
0.0
 10
101.9700032297158
 20
-130.5756645723908
 30
0.0
 10
101.7457275136261
 20
-130.8102755749363
 30
0.0
 10
101.4432481300211
 20
-130.8102755749363
 30
0.0
  0
HATCH
  5
107
330
F4
100
AcDbEntity
  8
_U+30EC_U+30A4_U+30E4_U+30FC 1
 62
   179
420
  2234388
100
AcDbHatch
 10
0.0
 20
0.0
 30
0.0
210
0.0
220
0.0
230
1.0
  2
SOLID
 70
     1
 71
     0
 91
        1
 92
        1
 93
        1
 72
     4
 94
        3
 73
     0
 74
     1
 95
       53
 96
       49
 40
0.0
 40
0.0
 40
0.0
 40
0.0
 40
1.0
 40
1.0
 40
1.0
 40
2.0
 40
2.0
 40
2.0
 40
3.0
 40
3.0
 40
3.0
 40
4.0
 40
4.0
 40
4.0
 40
5.0
 40
5.0
 40
5.0
 40
6.0
 40
6.0
 40
6.0
 40
7.0
 40
7.0
 40
7.0
 40
8.0
 40
8.0
 40
8.0
 40
9.0
 40
9.0
 40
9.0
 40
10.0
 40
10.0
 40
10.0
 40
11.0
 40
11.0
 40
11.0
 40
12.0
 40
12.0
 40
12.0
 40
13.0
 40
13.0
 40
13.0
 40
14.0
 40
14.0
 40
14.0
 40
15.0
 40
15.0
 40
15.0
 40
16.0
 40
16.0
 40
16.0
 40
16.0
 10
101.4432481300211
 20
-130.8102755749363
 10
101.365044462506
 20
-130.8102755749363
 10
101.2634141456911
 20
-130.7933946070586
 10
101.1617838288762
 20
-130.73000485013
 10
100.9884955259682
 20
-130.6201063041505
 10
100.9671359339596
 20
-130.4888481661625
 10
100.9481879087907
 20
-130.3810166774742
 10
100.9481879087907
 20
-130.3810166774742
 10
101.1703965675893
 20
-130.3810166774742
 10
101.1703965675893
 20
-130.3810166774742
 10
101.2255180953534
 20
-130.5797986869731
 10
101.3522976092105
 20
-130.6094265081463
 10
101.4453151873123
 20
-130.6094265081463
 10
101.5851860640134
 20
-130.6094265081463
 10
101.7374592844615
 20
-130.5098632486225
 10
101.7374592844615
 20
-130.2773193033682
 10
101.7374592844615
 20
-130.0213487088141
 10
101.5576253001314
 20
-129.9514132704635
 10
101.4370469581477
 20
-129.9514132704635
 10
101.4053520796834
 20
-129.9514132704635
 10
101.2634141456911
 20
-129.9514132704635
 10
101.1745306821716
 20
-130.0806043511604
 10
101.1745306821716
 20
-130.0806043511604
 10
100.9991753219724
 20
-130.0616563259915
 10
100.9991753219724
 20
-130.0616563259915
 10
100.9991753219724
 20
-130.0616563259915
 10
101.1197536639562
 20
-129.2151963652657
 10
101.1197536639562
 20
-129.2151963652657
 10
101.1197536639562
 20
-129.2151963652657
 10
101.8980007340741
 20
-129.2151963652657
 10
101.8980007340741
 20
-129.2151963652657
 10
101.8980007340741
 20
-129.2151963652657
 10
101.8980007340741
 20
-129.4098442601823
 10
101.8980007340741
 20
-129.4098442601823
 10
101.8980007340741
 20
-129.4098442601823
 10
101.28236217086
 20
-129.4098442601823
 10
101.28236217086
 20
-129.4098442601823
 10
101.28236217086
 20
-129.4098442601823
 10
101.2169053566402
 20
-129.8329019857709
 10
101.2169053566402
 20
-129.8329019857709
 10
101.2782280562777
 20
-129.7991400500155
 10
101.3609103479237
 20
-129.7588324328381
 10
101.4794216326163
 20
-129.7588324328381
 10
101.7329806603307
 20
-129.7588324328381
 10
101.9700032297158
 20
-129.9452120985901
 10
101.9700032297158
 20
-130.2583712781993
 10
101.9700032297158
 20
-130.5756645723908
 10
101.7457275136261
 20
-130.8102755749363
 10
101.4432481300211
 20
-130.8102755749363
 97
        0
 97
        0
 75
     2
 76
     1
 98
        0
  0
ENDBLK
  5
F7
330
F4
100
AcDbEntity
  8
0
100
AcDbBlockEnd
  0
BLOCK
  5
10A
330
108
100
AcDbEntity
  8
0
100
AcDbBlockBegin
  2
block 14
 70
     0
 10
0.0
 20
0.0
 30
0.0
  3
block 14
  1

  0
SPLINE
  5
10C
330
108
100
AcDbEntity
  8
_U+30EC_U+30A4_U+30E4_U+30FC 1
370
     0
100
AcDbSpline
210
0.0
220
0.0
230
1.0
 70
    11
 71
     3
 72
    35
 73
    31
 74
     0
 42
0.0000000001
 43
0.0000000001
 12
1.0
 22
0.0
 32
0.0
 13
1.0
 23
0.0
 33
0.0
 40
0.0
 40
0.0
 40
0.0
 40
0.0
 40
1.0
 40
1.0
 40
1.0
 40
2.0
 40
2.0
 40
2.0
 40
3.0
 40
3.0
 40
3.0
 40
4.0
 40
4.0
 40
4.0
 40
5.0
 40
5.0
 40
5.0
 40
6.0
 40
6.0
 40
6.0
 40
7.0
 40
7.0
 40
7.0
 40
8.0
 40
8.0
 40
8.0
 40
9.0
 40
9.0
 40
9.0
 40
10.0
 40
10.0
 40
10.0
 40
10.0
 10
99.13779023129194
 20
-117.0416069585868
 30
0.0
 10
99.13779023129194
 20
-117.0416069585868
 30
0.0
 10
99.08714732765877
 20
-117.3060180370798
 30
0.0
 10
99.08714732765877
 20
-117.3060180370798
 30
0.0
 10
99.2266736948114
 20
-117.3187648903752
 30
0.0
 10
99.55464678500718
 20
-117.4097154111858
 30
0.0
 10
99.55464678500718
 20
-117.8010782583102
 30
0.0
 10
99.55464678500718
 20
-118.2790852568886
 30
0.0
 10
99.14847002729623
 20
-118.4039699682289
 30
0.0
 10
98.87355140757329
 20
-118.4039699682289
 30
0.0
 10
98.87355140757329
 20
-118.4039699682289
 30
0.0
 10
98.80568302651386
 20
-118.7572645102412
 30
0.0
 10
98.80568302651386
 20
-118.7572645102412
 30
0.0
 10
98.80568302651386
 20
-118.7572645102412
 30
0.0
 10
98.59828827830182
 20
-118.7572645102412
 30
0.0
 10
98.59828827830182
 20
-118.7572645102412
 30
0.0
 10
98.59828827830182
 20
-118.7572645102412
 30
0.0
 10
98.67029077394355
 20
-118.3891560576423
 30
0.0
 10
98.67029077394355
 20
-118.3891560576423
 30
0.0
 10
98.56245928525523
 20
-118.3700357776992
 30
0.0
 10
98.21140405530826
 20
-118.3087130780617
 30
0.0
 10
98.21140405530826
 20
-117.8920287791207
 30
0.0
 10
98.21140405530826
 20
-117.4434773469412
 30
0.0
 10
98.56659339983753
 20
-117.2932711837843
 30
0.0
 10
98.88181963673789
 20
-117.2932711837843
 30
0.0
 10
98.88181963673789
 20
-117.2932711837843
 30
0.0
 10
98.9303954830799
 20
-117.0416069585868
 30
0.0
 10
98.9303954830799
 20
-117.0416069585868
 30
0.0
 10
98.9303954830799
 20
-117.0416069585868
 30
0.0
 10
99.13779023129194
 20
-117.0416069585868
 30
0.0
 10
99.13779023129194
 20
-117.0416069585868
 30
0.0
  0
SPLINE
  5
10D
330
108
100
AcDbEntity
  8
_U+30EC_U+30A4_U+30E4_U+30FC 1
370
     0
100
AcDbSpline
210
0.0
220
0.0
230
1.0
 70
    11
 71
     3
 72
    14
 73
    10
 74
     0
 42
0.0000000001
 43
0.0000000001
 12
1.0
 22
0.0
 32
0.0
 13
1.0
 23
0.0
 33
0.0
 40
0.0
 40
0.0
 40
0.0
 40
0.0
 40
1.0
 40
1.0
 40
1.0
 40
2.0
 40
2.0
 40
2.0
 40
3.0
 40
3.0
 40
3.0
 40
3.0
 10
98.84805770098244
 20
-117.4667317414667
 30
0.0
 10
98.72747935899869
 20
-117.4751722254055
 30
0.0
 10
98.43326820455836
 20
-117.498426619931
 30
0.0
 10
98.43326820455836
 20
-117.896162893703
 30
0.0
 10
98.43326820455836
 20
-117.9597249054059
 30
0.0
 10
98.43326820455836
 20
-118.1733208254914
 30
0.0
 10
98.70198565240784
 20
-118.2177625572511
 30
0.0
 10
98.70198565240784
 20
-118.2177625572511
 30
0.0
 10
98.84805770098244
 20
-117.4667317414667
 30
0.0
 10
98.84805770098244
 20
-117.4667317414667
 30
0.0
  0
SPLINE
  5
10E
330
108
100
AcDbEntity
  8
_U+30EC_U+30A4_U+30E4_U+30FC 1
370
     0
100
AcDbSpline
210
0.0
220
0.0
230
1.0
 70
    11
 71
     3
 72
    14
 73
    10
 74
     0
 42
0.0000000001
 43
0.0000000001
 12
1.0
 22
0.0
 32
0.0
 13
1.0
 23
0.0
 33
0.0
 40
0.0
 40
0.0
 40
0.0
 40
0.0
 40
1.0
 40
1.0
 40
1.0
 40
2.0
 40
2.0
 40
2.0
 40
3.0
 40
3.0
 40
3.0
 40
3.0
 10
98.90938040061988
 20
-118.22620304119
 30
0.0
 10
99.09128144224107
 20
-118.2220689266077
 30
0.0
 10
99.33450518349972
 20
-118.1416259470271
 30
0.0
 10
99.33450518349972
 20
-117.7862643477236
 30
0.0
 10
99.33450518349972
 20
-117.6930745148476
 30
0.0
 10
99.32175833020429
 20
-117.5048000465787
 30
0.0
 10
99.05097382506365
 20
-117.4774115374709
 30
0.0
 10
99.05097382506365
 20
-117.4774115374709
 30
0.0
 10
98.90938040061988
 20
-118.22620304119
 30
0.0
 10
98.90938040061988
 20
-118.22620304119
 30
0.0
  0
HATCH
  5
10F
330
108
100
AcDbEntity
  8
_U+30EC_U+30A4_U+30E4_U+30FC 1
 62
   179
420
  2234388
100
AcDbHatch
 10
0.0
 20
0.0
 30
0.0
210
0.0
220
0.0
230
1.0
  2
SOLID
 70
     1
 71
     0
 91
        3
 92
        1
 93
        1
 72
     4
 94
        3
 73
     0
 74
     1
 95
       35
 96
       31
 40
0.0
 40
0.0
 40
0.0
 40
0.0
 40
1.0
 40
1.0
 40
1.0
 40
2.0
 40
2.0
 40
2.0
 40
3.0
 40
3.0
 40
3.0
 40
4.0
 40
4.0
 40
4.0
 40
5.0
 40
5.0
 40
5.0
 40
6.0
 40
6.0
 40
6.0
 40
7.0
 40
7.0
 40
7.0
 40
8.0
 40
8.0
 40
8.0
 40
9.0
 40
9.0
 40
9.0
 40
10.0
 40
10.0
 40
10.0
 40
10.0
 10
99.13779023129194
 20
-117.0416069585868
 10
99.13779023129194
 20
-117.0416069585868
 10
99.08714732765877
 20
-117.3060180370798
 10
99.08714732765877
 20
-117.3060180370798
 10
99.2266736948114
 20
-117.3187648903752
 10
99.55464678500718
 20
-117.4097154111858
 10
99.55464678500718
 20
-117.8010782583102
 10
99.55464678500718
 20
-118.2790852568886
 10
99.14847002729623
 20
-118.4039699682289
 10
98.87355140757329
 20
-118.4039699682289
 10
98.87355140757329
 20
-118.4039699682289
 10
98.80568302651386
 20
-118.7572645102412
 10
98.80568302651386
 20
-118.7572645102412
 10
98.80568302651386
 20
-118.7572645102412
 10
98.59828827830182
 20
-118.7572645102412
 10
98.59828827830182
 20
-118.7572645102412
 10
98.59828827830182
 20
-118.7572645102412
 10
98.67029077394355
 20
-118.3891560576423
 10
98.67029077394355
 20
-118.3891560576423
 10
98.56245928525523
 20
-118.3700357776992
 10
98.21140405530826
 20
-118.3087130780617
 10
98.21140405530826
 20
-117.8920287791207
 10
98.21140405530826
 20
-117.4434773469412
 10
98.56659339983753
 20
-117.2932711837843
 10
98.88181963673789
 20
-117.2932711837843
 10
98.88181963673789
 20
-117.2932711837843
 10
98.9303954830799
 20
-117.0416069585868
 10
98.9303954830799
 20
-117.0416069585868
 10
98.9303954830799
 20
-117.0416069585868
 10
99.13779023129194
 20
-117.0416069585868
 10
99.13779023129194
 20
-117.0416069585868
 97
        0
 97
        0
 92
        1
 93
        1
 72
     4
 94
        3
 73
     0
 74
     1
 95
       14
 96
       10
 40
0.0
 40
0.0
 40
0.0
 40
0.0
 40
1.0
 40
1.0
 40
1.0
 40
2.0
 40
2.0
 40
2.0
 40
3.0
 40
3.0
 40
3.0
 40
3.0
 10
98.84805770098244
 20
-117.4667317414667
 10
98.72747935899869
 20
-117.4751722254055
 10
98.43326820455836
 20
-117.498426619931
 10
98.43326820455836
 20
-117.896162893703
 10
98.43326820455836
 20
-117.9597249054059
 10
98.43326820455836
 20
-118.1733208254914
 10
98.70198565240784
 20
-118.2177625572511
 10
98.70198565240784
 20
-118.2177625572511
 10
98.84805770098244
 20
-117.4667317414667
 10
98.84805770098244
 20
-117.4667317414667
 97
        0
 97
        0
 92
        1
 93
        1
 72
     4
 94
        3
 73
     0
 74
     1
 95
       14
 96
       10
 40
0.0
 40
0.0
 40
0.0
 40
0.0
 40
1.0
 40
1.0
 40
1.0
 40
2.0
 40
2.0
 40
2.0
 40
3.0
 40
3.0
 40
3.0
 40
3.0
 10
98.90938040061988
 20
-118.22620304119
 10
99.09128144224107
 20
-118.2220689266077
 10
99.33450518349972
 20
-118.1416259470271
 10
99.33450518349972
 20
-117.7862643477236
 10
99.33450518349972
 20
-117.6930745148476
 10
99.32175833020429
 20
-117.5048000465787
 10
99.05097382506365
 20
-117.4774115374709
 10
99.05097382506365
 20
-117.4774115374709
 10
98.90938040061988
 20
-118.22620304119
 10
98.90938040061988
 20
-118.22620304119
 97
        0
 97
        0
 75
     2
 76
     1
 98
        0
  0
POLYLINE
  5
110
330
108
100
AcDbEntity
  8
_U+30EC_U+30A4_U+30E4_U+30FC 1
370
     0
100
AcDb2dPolyline
 66
     1
 10
0.0
 20
0.0
 30
0.0
  0
VERTEX
  5
111
330
110
100
AcDbEntity
  8
_U+30EC_U+30A4_U+30E4_U+30FC 1
370
     0
100
AcDbVertex
100
AcDb2dVertex
 10
100.5985107170379
 20
-118.0654893368031
 30
0.0
  0
VERTEX
  5
112
330
110
100
AcDbEntity
  8
_U+30EC_U+30A4_U+30E4_U+30FC 1
370
     0
100
AcDbVertex
100
AcDb2dVertex
 10
100.5985107170379
 20
-118.4124104521677
 30
0.0
  0
VERTEX
  5
113
330
110
100
AcDbEntity
  8
_U+30EC_U+30A4_U+30E4_U+30FC 1
370
     0
100
AcDbVertex
100
AcDb2dVertex
 10
100.3807806823701
 20
-118.4124104521677
 30
0.0
  0
VERTEX
  5
114
330
110
100
AcDbEntity
  8
_U+30EC_U+30A4_U+30E4_U+30FC 1
370
     0
100
AcDbVertex
100
AcDb2dVertex
 10
100.3807806823701
 20
-118.0654893368031
 30
0.0
  0
VERTEX
  5
115
330
110
100
AcDbEntity
  8
_U+30EC_U+30A4_U+30E4_U+30FC 1
370
     0
100
AcDbVertex
100
AcDb2dVertex
 10
99.72483450197852
 20
-118.0654893368031
 30
0.0
  0
VERTEX
  5
116
330
110
100
AcDbEntity
  8
_U+30EC_U+30A4_U+30E4_U+30FC 1
370
     0
100
AcDbVertex
100
AcDb2dVertex
 10
99.72483450197852
 20
-117.8412136207133
 30
0.0
  0
VERTEX
  5
117
330
110
100
AcDbEntity
  8
_U+30EC_U+30A4_U+30E4_U+30FC 1
370
     0
100
AcDbVertex
100
AcDb2dVertex
 10
100.4038628221213
 20
-116.8681464009045
 30
0.0
  0
VERTEX
  5
118
330
110
100
AcDbEntity
  8
_U+30EC_U+30A4_U+30E4_U+30FC 1
370
     0
100
AcDbVertex
100
AcDb2dVertex
 10
100.5985107170379
 20
-116.8681464009045
 30
0.0
  0
VERTEX
  5
119
330
110
100
AcDbEntity
  8
_U+30EC_U+30A4_U+30E4_U+30FC 1
370
     0
100
AcDbVertex
100
AcDb2dVertex
 10
100.5985107170379
 20
-117.8665350725299
 30
0.0
  0
VERTEX
  5
11A
330
110
100
AcDbEntity
  8
_U+30EC_U+30A4_U+30E4_U+30FC 1
370
     0
100
AcDbVertex
100
AcDb2dVertex
 10
100.8059054652499
 20
-117.8665350725299
 30
0.0
  0
VERTEX
  5
11B
330
110
100
AcDbEntity
  8
_U+30EC_U+30A4_U+30E4_U+30FC 1
370
     0
100
AcDbVertex
100
AcDb2dVertex
 10
100.8059054652499
 20
-118.0654893368031
 30
0.0
  0
VERTEX
  5
11C
330
110
100
AcDbEntity
  8
_U+30EC_U+30A4_U+30E4_U+30FC 1
370
     0
100
AcDbVertex
100
AcDb2dVertex
 10
100.5985107170379
 20
-118.0654893368031
 30
0.0
  0
SEQEND
  5
11D
330
110
100
AcDbEntity
  8
_U+30EC_U+30A4_U+30E4_U+30FC 1
370
     0
  0
POLYLINE
  5
11E
330
108
100
AcDbEntity
  8
_U+30EC_U+30A4_U+30E4_U+30FC 1
370
     0
100
AcDb2dPolyline
 66
     1
 10
0.0
 20
0.0
 30
0.0
  0
VERTEX
  5
11F
330
11E
100
AcDbEntity
  8
_U+30EC_U+30A4_U+30E4_U+30FC 1
370
     0
100
AcDbVertex
100
AcDb2dVertex
 10
100.3807806823701
 20
-117.2107611469126
 30
0.0
  0
VERTEX
  5
120
330
11E
100
AcDbEntity
  8
_U+30EC_U+30A4_U+30E4_U+30FC 1
370
     0
100
AcDbVertex
100
AcDb2dVertex
 10
99.92361651147743
 20
-117.8665350725299
 30
0.0
  0
VERTEX
  5
121
330
11E
100
AcDbEntity
  8
_U+30EC_U+30A4_U+30E4_U+30FC 1
370
     0
100
AcDbVertex
100
AcDb2dVertex
 10
100.3807806823701
 20
-117.8665350725299
 30
0.0
  0
VERTEX
  5
122
330
11E
100
AcDbEntity
  8
_U+30EC_U+30A4_U+30E4_U+30FC 1
370
     0
100
AcDbVertex
100
AcDb2dVertex
 10
100.3807806823701
 20
-117.2107611469126
 30
0.0
  0
SEQEND
  5
123
330
11E
100
AcDbEntity
  8
_U+30EC_U+30A4_U+30E4_U+30FC 1
370
     0
  0
HATCH
  5
124
330
108
100
AcDbEntity
  8
_U+30EC_U+30A4_U+30E4_U+30FC 1
 62
   179
420
  2234388
100
AcDbHatch
 10
0.0
 20
0.0
 30
0.0
210
0.0
220
0.0
230
1.0
  2
SOLID
 70
     1
 71
     0
 91
        2
 92
        1
 93
       11
 72
     1
 10
100.5985107170379
 20
-118.0654893368031
 11
100.5985107170379
 21
-118.4124104521677
 72
     1
 10
100.5985107170379
 20
-118.4124104521677
 11
100.3807806823701
 21
-118.4124104521677
 72
     1
 10
100.3807806823701
 20
-118.4124104521677
 11
100.3807806823701
 21
-118.0654893368031
 72
     1
 10
100.3807806823701
 20
-118.0654893368031
 11
99.72483450197852
 21
-118.0654893368031
 72
     1
 10
99.72483450197852
 20
-118.0654893368031
 11
99.72483450197852
 21
-117.8412136207133
 72
     1
 10
99.72483450197852
 20
-117.8412136207133
 11
100.4038628221213
 21
-116.8681464009045
 72
     1
 10
100.4038628221213
 20
-116.8681464009045
 11
100.5985107170379
 21
-116.8681464009045
 72
     1
 10
100.5985107170379
 20
-116.8681464009045
 11
100.5985107170379
 21
-117.8665350725299
 72
     1
 10
100.5985107170379
 20
-117.8665350725299
 11
100.8059054652499
 21
-117.8665350725299
 72
     1
 10
100.8059054652499
 20
-117.8665350725299
 11
100.8059054652499
 21
-118.0654893368031
 72
     1
 10
100.8059054652499
 20
-118.0654893368031
 11
100.5985107170379
 21
-118.0654893368031
 97
        0
 92
        1
 93
        3
 72
     1
 10
100.3807806823701
 20
-117.2107611469126
 11
99.92361651147743
 21
-117.8665350725299
 72
     1
 10
99.92361651147743
 20
-117.8665350725299
 11
100.3807806823701
 21
-117.8665350725299
 72
     1
 10
100.3807806823701
 20
-117.8665350725299
 11
100.3807806823701
 21
-117.2107611469126
 97
        0
 75
     2
 76
     1
 98
        0
  0
POLYLINE
  5
125
330
108
100
AcDbEntity
  8
_U+30EC_U+30A4_U+30E4_U+30FC 1
370
     0
100
AcDb2dPolyline
 66
     1
 10
0.0
 20
0.0
 30
0.0
  0
VERTEX
  5
126
330
125
100
AcDbEntity
  8
_U+30EC_U+30A4_U+30E4_U+30FC 1
370
     0
100
AcDbVertex
100
AcDb2dVertex
 10
101.0033094365547
 20
-118.4124104521677
 30
0.0
  0
VERTEX
  5
127
330
125
100
AcDbEntity
  8
_U+30EC_U+30A4_U+30E4_U+30FC 1
370
     0
100
AcDbVertex
100
AcDb2dVertex
 10
101.0033094365547
 20
-118.1607462269702
 30
0.0
  0
VERTEX
  5
128
330
125
100
AcDbEntity
  8
_U+30EC_U+30A4_U+30E4_U+30FC 1
370
     0
100
AcDbVertex
100
AcDb2dVertex
 10
101.2551459165265
 20
-118.1607462269702
 30
0.0
  0
VERTEX
  5
129
330
125
100
AcDbEntity
  8
_U+30EC_U+30A4_U+30E4_U+30FC 1
370
     0
100
AcDbVertex
100
AcDb2dVertex
 10
101.2551459165265
 20
-118.4124104521677
 30
0.0
  0
VERTEX
  5
12A
330
125
100
AcDbEntity
  8
_U+30EC_U+30A4_U+30E4_U+30FC 1
370
     0
100
AcDbVertex
100
AcDb2dVertex
 10
101.0033094365547
 20
-118.4124104521677
 30
0.0
  0
SEQEND
  5
12B
330
125
100
AcDbEntity
  8
_U+30EC_U+30A4_U+30E4_U+30FC 1
370
     0
  0
HATCH
  5
12C
330
108
100
AcDbEntity
  8
_U+30EC_U+30A4_U+30E4_U+30FC 1
 62
   179
420
  2234388
100
AcDbHatch
 10
0.0
 20
0.0
 30
0.0
210
0.0
220
0.0
230
1.0
  2
SOLID
 70
     1
 71
     0
 91
        1
 92
        1
 93
        4
 72
     1
 10
101.0033094365547
 20
-118.4124104521677
 11
101.0033094365547
 21
-118.1607462269702
 72
     1
 10
101.0033094365547
 20
-118.1607462269702
 11
101.2551459165265
 21
-118.1607462269702
 72
     1
 10
101.2551459165265
 20
-118.1607462269702
 11
101.2551459165265
 21
-118.4124104521677
 72
     1
 10
101.2551459165265
 20
-118.4124104521677
 11
101.0033094365547
 21
-118.4124104521677
 97
        0
 75
     2
 76
     1
 98
        0
  0
SPLINE
  5
12D
330
108
100
AcDbEntity
  8
_U+30EC_U+30A4_U+30E4_U+30FC 1
370
     0
100
AcDbSpline
210
0.0
220
0.0
230
1.0
 70
    11
 71
     3
 72
    44
 73
    40
 74
     0
 42
0.0000000001
 43
0.0000000001
 12
1.0
 22
0.0
 32
0.0
 13
1.0
 23
0.0
 33
0.0
 40
0.0
 40
0.0
 40
0.0
 40
0.0
 40
1.0
 40
1.0
 40
1.0
 40
2.0
 40
2.0
 40
2.0
 40
3.0
 40
3.0
 40
3.0
 40
4.0
 40
4.0
 40
4.0
 40
5.0
 40
5.0
 40
5.0
 40
6.0
 40
6.0
 40
6.0
 40
7.0
 40
7.0
 40
7.0
 40
8.0
 40
8.0
 40
8.0
 40
9.0
 40
9.0
 40
9.0
 40
10.0
 40
10.0
 40
10.0
 40
11.0
 40
11.0
 40
11.0
 40
12.0
 40
12.0
 40
12.0
 40
13.0
 40
13.0
 40
13.0
 40
13.0
 10
102.0847249093747
 20
-117.8307060794833
 30
0.0
 10
101.8666503651583
 20
-117.9893527265791
 30
0.0
 10
101.7736327870566
 20
-118.0634222795119
 30
0.0
 10
101.7250569407146
 20
-118.2072550160211
 30
0.0
 10
101.7250569407146
 20
-118.2072550160211
 30
0.0
 10
102.5033040108325
 20
-118.2072550160211
 30
0.0
 10
102.5033040108325
 20
-118.2072550160211
 30
0.0
 10
102.5033040108325
 20
-118.2072550160211
 30
0.0
 10
102.5033040108325
 20
-118.4124104521677
 30
0.0
 10
102.5033040108325
 20
-118.4124104521677
 30
0.0
 10
102.5033040108325
 20
-118.4124104521677
 30
0.0
 10
101.475287518034
 20
-118.4124104521677
 30
0.0
 10
101.475287518034
 20
-118.4124104521677
 30
0.0
 10
101.5069823964983
 20
-118.0548095407988
 30
0.0
 10
101.5727837202665
 20
-117.9766058732836
 30
0.0
 10
101.9576008859689
 20
-117.678260604261
 30
0.0
 10
102.213571480523
 20
-117.4794785947621
 30
0.0
 10
102.2793728042913
 20
-117.4117824684769
 30
0.0
 10
102.2793728042913
 20
-117.2743231586155
 30
0.0
 10
102.2793728042913
 20
-117.1558118739229
 30
0.0
 10
102.2073703086495
 20
-117.0247259907091
 30
0.0
 10
102.0106553564418
 20
-117.0247259907091
 30
0.0
 10
101.7502061377569
 20
-117.0247259907091
 30
0.0
 10
101.7419379085923
 20
-117.2552028786723
 30
0.0
 10
101.73780379401
 20
-117.3716471060738
 30
0.0
 10
101.73780379401
 20
-117.3716471060738
 30
0.0
 10
101.5135280779202
 20
-117.3716471060738
 30
0.0
 10
101.5135280779202
 20
-117.3716471060738
 30
0.0
 10
101.5217963070848
 20
-117.2446953374423
 30
0.0
 10
101.5324761030891
 20
-117.1325574793974
 30
0.0
 10
101.6127468278954
 20
-117.0140461947048
 30
0.0
 10
101.7229898834234
 20
-116.8533324903179
 30
0.0
 10
101.9090250396269
 20
-116.8193982997882
 30
0.0
 10
102.0254692670284
 20
-116.8193982997882
 30
0.0
 10
102.3024549440425
 20
-116.8193982997882
 30
0.0
 10
102.5098496922545
 20
-117.0035386534748
 30
0.0
 10
102.5098496922545
 20
-117.2763902159066
 30
0.0
 10
102.5098496922545
 20
-117.5048000465787
 30
0.0
 10
102.393405464853
 20
-117.6043633061024
 30
0.0
 10
102.0847249093747
 20
-117.8307060794833
 30
0.0
  0
HATCH
  5
12E
330
108
100
AcDbEntity
  8
_U+30EC_U+30A4_U+30E4_U+30FC 1
 62
   179
420
  2234388
100
AcDbHatch
 10
0.0
 20
0.0
 30
0.0
210
0.0
220
0.0
230
1.0
  2
SOLID
 70
     1
 71
     0
 91
        1
 92
        1
 93
        1
 72
     4
 94
        3
 73
     0
 74
     1
 95
       44
 96
       40
 40
0.0
 40
0.0
 40
0.0
 40
0.0
 40
1.0
 40
1.0
 40
1.0
 40
2.0
 40
2.0
 40
2.0
 40
3.0
 40
3.0
 40
3.0
 40
4.0
 40
4.0
 40
4.0
 40
5.0
 40
5.0
 40
5.0
 40
6.0
 40
6.0
 40
6.0
 40
7.0
 40
7.0
 40
7.0
 40
8.0
 40
8.0
 40
8.0
 40
9.0
 40
9.0
 40
9.0
 40
10.0
 40
10.0
 40
10.0
 40
11.0
 40
11.0
 40
11.0
 40
12.0
 40
12.0
 40
12.0
 40
13.0
 40
13.0
 40
13.0
 40
13.0
 10
102.0847249093747
 20
-117.8307060794833
 10
101.8666503651583
 20
-117.9893527265791
 10
101.7736327870566
 20
-118.0634222795119
 10
101.7250569407146
 20
-118.2072550160211
 10
101.7250569407146
 20
-118.2072550160211
 10
102.5033040108325
 20
-118.2072550160211
 10
102.5033040108325
 20
-118.2072550160211
 10
102.5033040108325
 20
-118.2072550160211
 10
102.5033040108325
 20
-118.4124104521677
 10
102.5033040108325
 20
-118.4124104521677
 10
102.5033040108325
 20
-118.4124104521677
 10
101.475287518034
 20
-118.4124104521677
 10
101.475287518034
 20
-118.4124104521677
 10
101.5069823964983
 20
-118.0548095407988
 10
101.5727837202665
 20
-117.9766058732836
 10
101.9576008859689
 20
-117.678260604261
 10
102.213571480523
 20
-117.4794785947621
 10
102.2793728042913
 20
-117.4117824684769
 10
102.2793728042913
 20
-117.2743231586155
 10
102.2793728042913
 20
-117.1558118739229
 10
102.2073703086495
 20
-117.0247259907091
 10
102.0106553564418
 20
-117.0247259907091
 10
101.7502061377569
 20
-117.0247259907091
 10
101.7419379085923
 20
-117.2552028786723
 10
101.73780379401
 20
-117.3716471060738
 10
101.73780379401
 20
-117.3716471060738
 10
101.5135280779202
 20
-117.3716471060738
 10
101.5135280779202
 20
-117.3716471060738
 10
101.5217963070848
 20
-117.2446953374423
 10
101.5324761030891
 20
-117.1325574793974
 10
101.6127468278954
 20
-117.0140461947048
 10
101.7229898834234
 20
-116.8533324903179
 10
101.9090250396269
 20
-116.8193982997882
 10
102.0254692670284
 20
-116.8193982997882
 10
102.3024549440425
 20
-116.8193982997882
 10
102.5098496922545
 20
-117.0035386534748
 10
102.5098496922545
 20
-117.2763902159066
 10
102.5098496922545
 20
-117.5048000465787
 10
102.393405464853
 20
-117.6043633061024
 10
102.0847249093747
 20
-117.8307060794833
 97
        0
 97
        0
 75
     2
 76
     1
 98
        0
  0
ENDBLK
  5
10B
330
108
100
AcDbEntity
  8
0
100
AcDbBlockEnd
  0
BLOCK
  5
131
330
12F
100
AcDbEntity
  8
0
100
AcDbBlockBegin
  2
block 15
 70
     0
 10
0.0
 20
0.0
 30
0.0
  3
block 15
  1

  0
SPLINE
  5
133
330
12F
100
AcDbEntity
  8
_U+30EC_U+30A4_U+30E4_U+30FC 1
370
     0
100
AcDbSpline
210
0.0
220
0.0
230
1.0
 70
    11
 71
     3
 72
    35
 73
    31
 74
     0
 42
0.0000000001
 43
0.0000000001
 12
1.0
 22
0.0
 32
0.0
 13
1.0
 23
0.0
 33
0.0
 40
0.0
 40
0.0
 40
0.0
 40
0.0
 40
1.0
 40
1.0
 40
1.0
 40
2.0
 40
2.0
 40
2.0
 40
3.0
 40
3.0
 40
3.0
 40
4.0
 40
4.0
 40
4.0
 40
5.0
 40
5.0
 40
5.0
 40
6.0
 40
6.0
 40
6.0
 40
7.0
 40
7.0
 40
7.0
 40
8.0
 40
8.0
 40
8.0
 40
9.0
 40
9.0
 40
9.0
 40
10.0
 40
10.0
 40
10.0
 40
10.0
 10
99.62285967561512
 20
-114.3075791814926
 30
0.0
 10
99.62285967561512
 20
-114.3075791814926
 30
0.0
 10
99.57221677198196
 20
-114.5719902599855
 30
0.0
 10
99.57221677198196
 20
-114.5719902599855
 30
0.0
 10
99.71174313913457
 20
-114.5847371132809
 30
0.0
 10
100.0397162293304
 20
-114.6756876340915
 30
0.0
 10
100.0397162293304
 20
-115.0670504812159
 30
0.0
 10
100.0397162293304
 20
-115.5450574797943
 30
0.0
 10
99.6335394716194
 20
-115.6699421911346
 30
0.0
 10
99.35862085189646
 20
-115.6699421911346
 30
0.0
 10
99.35862085189646
 20
-115.6699421911346
 30
0.0
 10
99.29075247083703
 20
-116.023236733147
 30
0.0
 10
99.29075247083703
 20
-116.023236733147
 30
0.0
 10
99.29075247083703
 20
-116.023236733147
 30
0.0
 10
99.083357722625
 20
-116.023236733147
 30
0.0
 10
99.083357722625
 20
-116.023236733147
 30
0.0
 10
99.083357722625
 20
-116.023236733147
 30
0.0
 10
99.15536021826672
 20
-115.655128280548
 30
0.0
 10
99.15536021826672
 20
-115.655128280548
 30
0.0
 10
99.0475287295784
 20
-115.6360080006049
 30
0.0
 10
98.69647349963144
 20
-115.5746853009674
 30
0.0
 10
98.69647349963144
 20
-115.1580010020265
 30
0.0
 10
98.69647349963144
 20
-114.709449569847
 30
0.0
 10
99.0516628441607
 20
-114.5592434066901
 30
0.0
 10
99.36688908106106
 20
-114.5592434066901
 30
0.0
 10
99.36688908106106
 20
-114.5592434066901
 30
0.0
 10
99.41546492740308
 20
-114.3075791814926
 30
0.0
 10
99.41546492740308
 20
-114.3075791814926
 30
0.0
 10
99.41546492740308
 20
-114.3075791814926
 30
0.0
 10
99.62285967561512
 20
-114.3075791814926
 30
0.0
 10
99.62285967561512
 20
-114.3075791814926
 30
0.0
  0
SPLINE
  5
134
330
12F
100
AcDbEntity
  8
_U+30EC_U+30A4_U+30E4_U+30FC 1
370
     0
100
AcDbSpline
210
0.0
220
0.0
230
1.0
 70
    11
 71
     3
 72
    14
 73
    10
 74
     0
 42
0.0000000001
 43
0.0000000001
 12
1.0
 22
0.0
 32
0.0
 13
1.0
 23
0.0
 33
0.0
 40
0.0
 40
0.0
 40
0.0
 40
0.0
 40
1.0
 40
1.0
 40
1.0
 40
2.0
 40
2.0
 40
2.0
 40
3.0
 40
3.0
 40
3.0
 40
3.0
 10
99.33312714530561
 20
-114.7327039643724
 30
0.0
 10
99.21254880332187
 20
-114.7411444483112
 30
0.0
 10
98.91833764888153
 20
-114.7643988428367
 30
0.0
 10
98.91833764888153
 20
-115.1621351166088
 30
0.0
 10
98.91833764888153
 20
-115.2256971283116
 30
0.0
 10
98.91833764888153
 20
-115.4392930483971
 30
0.0
 10
99.18705509673102
 20
-115.4837347801569
 30
0.0
 10
99.18705509673102
 20
-115.4837347801569
 30
0.0
 10
99.33312714530561
 20
-114.7327039643724
 30
0.0
 10
99.33312714530561
 20
-114.7327039643724
 30
0.0
  0
SPLINE
  5
135
330
12F
100
AcDbEntity
  8
_U+30EC_U+30A4_U+30E4_U+30FC 1
370
     0
100
AcDbSpline
210
0.0
220
0.0
230
1.0
 70
    11
 71
     3
 72
    14
 73
    10
 74
     0
 42
0.0000000001
 43
0.0000000001
 12
1.0
 22
0.0
 32
0.0
 13
1.0
 23
0.0
 33
0.0
 40
0.0
 40
0.0
 40
0.0
 40
0.0
 40
1.0
 40
1.0
 40
1.0
 40
2.0
 40
2.0
 40
2.0
 40
3.0
 40
3.0
 40
3.0
 40
3.0
 10
99.39444984494305
 20
-115.4921752640957
 30
0.0
 10
99.57635088656426
 20
-115.4880411495134
 30
0.0
 10
99.81957462782289
 20
-115.4075981699328
 30
0.0
 10
99.81957462782289
 20
-115.0522365706293
 30
0.0
 10
99.81957462782289
 20
-114.9590467377533
 30
0.0
 10
99.80682777452746
 20
-114.7707722694844
 30
0.0
 10
99.53604326938682
 20
-114.7433837603767
 30
0.0
 10
99.53604326938682
 20
-114.7433837603767
 30
0.0
 10
99.39444984494305
 20
-115.4921752640957
 30
0.0
 10
99.39444984494305
 20
-115.4921752640957
 30
0.0
  0
HATCH
  5
136
330
12F
100
AcDbEntity
  8
_U+30EC_U+30A4_U+30E4_U+30FC 1
 62
   179
420
  2234388
100
AcDbHatch
 10
0.0
 20
0.0
 30
0.0
210
0.0
220
0.0
230
1.0
  2
SOLID
 70
     1
 71
     0
 91
        3
 92
        1
 93
        1
 72
     4
 94
        3
 73
     0
 74
     1
 95
       35
 96
       31
 40
0.0
 40
0.0
 40
0.0
 40
0.0
 40
1.0
 40
1.0
 40
1.0
 40
2.0
 40
2.0
 40
2.0
 40
3.0
 40
3.0
 40
3.0
 40
4.0
 40
4.0
 40
4.0
 40
5.0
 40
5.0
 40
5.0
 40
6.0
 40
6.0
 40
6.0
 40
7.0
 40
7.0
 40
7.0
 40
8.0
 40
8.0
 40
8.0
 40
9.0
 40
9.0
 40
9.0
 40
10.0
 40
10.0
 40
10.0
 40
10.0
 10
99.62285967561512
 20
-114.3075791814926
 10
99.62285967561512
 20
-114.3075791814926
 10
99.57221677198196
 20
-114.5719902599855
 10
99.57221677198196
 20
-114.5719902599855
 10
99.71174313913457
 20
-114.5847371132809
 10
100.0397162293304
 20
-114.6756876340915
 10
100.0397162293304
 20
-115.0670504812159
 10
100.0397162293304
 20
-115.5450574797943
 10
99.6335394716194
 20
-115.6699421911346
 10
99.35862085189646
 20
-115.6699421911346
 10
99.35862085189646
 20
-115.6699421911346
 10
99.29075247083703
 20
-116.023236733147
 10
99.29075247083703
 20
-116.023236733147
 10
99.29075247083703
 20
-116.023236733147
 10
99.083357722625
 20
-116.023236733147
 10
99.083357722625
 20
-116.023236733147
 10
99.083357722625
 20
-116.023236733147
 10
99.15536021826672
 20
-115.655128280548
 10
99.15536021826672
 20
-115.655128280548
 10
99.0475287295784
 20
-115.6360080006049
 10
98.69647349963144
 20
-115.5746853009674
 10
98.69647349963144
 20
-115.1580010020265
 10
98.69647349963144
 20
-114.709449569847
 10
99.0516628441607
 20
-114.5592434066901
 10
99.36688908106106
 20
-114.5592434066901
 10
99.36688908106106
 20
-114.5592434066901
 10
99.41546492740308
 20
-114.3075791814926
 10
99.41546492740308
 20
-114.3075791814926
 10
99.41546492740308
 20
-114.3075791814926
 10
99.62285967561512
 20
-114.3075791814926
 10
99.62285967561512
 20
-114.3075791814926
 97
        0
 97
        0
 92
        1
 93
        1
 72
     4
 94
        3
 73
     0
 74
     1
 95
       14
 96
       10
 40
0.0
 40
0.0
 40
0.0
 40
0.0
 40
1.0
 40
1.0
 40
1.0
 40
2.0
 40
2.0
 40
2.0
 40
3.0
 40
3.0
 40
3.0
 40
3.0
 10
99.33312714530561
 20
-114.7327039643724
 10
99.21254880332187
 20
-114.7411444483112
 10
98.91833764888153
 20
-114.7643988428367
 10
98.91833764888153
 20
-115.1621351166088
 10
98.91833764888153
 20
-115.2256971283116
 10
98.91833764888153
 20
-115.4392930483971
 10
99.18705509673102
 20
-115.4837347801569
 10
99.18705509673102
 20
-115.4837347801569
 10
99.33312714530561
 20
-114.7327039643724
 10
99.33312714530561
 20
-114.7327039643724
 97
        0
 97
        0
 92
        1
 93
        1
 72
     4
 94
        3
 73
     0
 74
     1
 95
       14
 96
       10
 40
0.0
 40
0.0
 40
0.0
 40
0.0
 40
1.0
 40
1.0
 40
1.0
 40
2.0
 40
2.0
 40
2.0
 40
3.0
 40
3.0
 40
3.0
 40
3.0
 10
99.39444984494305
 20
-115.4921752640957
 10
99.57635088656426
 20
-115.4880411495134
 10
99.81957462782289
 20
-115.4075981699328
 10
99.81957462782289
 20
-115.0522365706293
 10
99.81957462782289
 20
-114.9590467377533
 10
99.80682777452746
 20
-114.7707722694844
 10
99.53604326938682
 20
-114.7433837603767
 10
99.53604326938682
 20
-114.7433837603767
 10
99.39444984494305
 20
-115.4921752640957
 10
99.39444984494305
 20
-115.4921752640957
 97
        0
 97
        0
 75
     2
 76
     1
 98
        0
  0
SPLINE
  5
137
330
12F
100
AcDbEntity
  8
_U+30EC_U+30A4_U+30E4_U+30FC 1
370
     0
100
AcDbSpline
210
0.0
220
0.0
230
1.0
 70
    11
 71
     3
 72
    26
 73
    22
 74
     0
 42
0.0000000001
 43
0.0000000001
 12
1.0
 22
0.0
 32
0.0
 13
1.0
 23
0.0
 33
0.0
 40
0.0
 40
0.0
 40
0.0
 40
0.0
 40
1.0
 40
1.0
 40
1.0
 40
2.0
 40
2.0
 40
2.0
 40
3.0
 40
3.0
 40
3.0
 40
4.0
 40
4.0
 40
4.0
 40
5.0
 40
5.0
 40
5.0
 40
6.0
 40
6.0
 40
6.0
 40
7.0
 40
7.0
 40
7.0
 40
7.0
 10
100.7028971102409
 20
-115.6783826750735
 30
0.0
 10
100.7028971102409
 20
-115.6783826750735
 30
0.0
 10
100.7028971102409
 20
-114.5740573172766
 30
0.0
 10
100.7028971102409
 20
-114.5740573172766
 30
0.0
 10
100.7028971102409
 20
-114.5740573172766
 30
0.0
 10
100.372856962754
 20
-114.5740573172766
 30
0.0
 10
100.372856962754
 20
-114.5740573172766
 30
0.0
 10
100.372856962754
 20
-114.5740573172766
 30
0.0
 10
100.372856962754
 20
-114.4260904661851
 30
0.0
 10
100.372856962754
 20
-114.4260904661851
 30
0.0
 10
100.7049641675321
 20
-114.4112765555986
 30
0.0
 10
100.751472956583
 20
-114.2483235391463
 30
0.0
 10
100.7811007777561
 20
-114.1341186238102
 30
0.0
 10
100.7811007777561
 20
-114.1341186238102
 30
0.0
 10
100.9271728263307
 20
-114.1341186238102
 30
0.0
 10
100.9271728263307
 20
-114.1341186238102
 30
0.0
 10
100.9271728263307
 20
-114.1341186238102
 30
0.0
 10
100.9271728263307
 20
-115.6783826750735
 30
0.0
 10
100.9271728263307
 20
-115.6783826750735
 30
0.0
 10
100.9271728263307
 20
-115.6783826750735
 30
0.0
 10
100.7028971102409
 20
-115.6783826750735
 30
0.0
 10
100.7028971102409
 20
-115.6783826750735
 30
0.0
  0
HATCH
  5
138
330
12F
100
AcDbEntity
  8
_U+30EC_U+30A4_U+30E4_U+30FC 1
 62
   179
420
  2234388
100
AcDbHatch
 10
0.0
 20
0.0
 30
0.0
210
0.0
220
0.0
230
1.0
  2
SOLID
 70
     1
 71
     0
 91
        1
 92
        1
 93
        1
 72
     4
 94
        3
 73
     0
 74
     1
 95
       26
 96
       22
 40
0.0
 40
0.0
 40
0.0
 40
0.0
 40
1.0
 40
1.0
 40
1.0
 40
2.0
 40
2.0
 40
2.0
 40
3.0
 40
3.0
 40
3.0
 40
4.0
 40
4.0
 40
4.0
 40
5.0
 40
5.0
 40
5.0
 40
6.0
 40
6.0
 40
6.0
 40
7.0
 40
7.0
 40
7.0
 40
7.0
 10
100.7028971102409
 20
-115.6783826750735
 10
100.7028971102409
 20
-115.6783826750735
 10
100.7028971102409
 20
-114.5740573172766
 10
100.7028971102409
 20
-114.5740573172766
 10
100.7028971102409
 20
-114.5740573172766
 10
100.372856962754
 20
-114.5740573172766
 10
100.372856962754
 20
-114.5740573172766
 10
100.372856962754
 20
-114.5740573172766
 10
100.372856962754
 20
-114.4260904661851
 10
100.372856962754
 20
-114.4260904661851
 10
100.7049641675321
 20
-114.4112765555986
 10
100.751472956583
 20
-114.2483235391463
 10
100.7811007777561
 20
-114.1341186238102
 10
100.7811007777561
 20
-114.1341186238102
 10
100.9271728263307
 20
-114.1341186238102
 10
100.9271728263307
 20
-114.1341186238102
 10
100.9271728263307
 20
-114.1341186238102
 10
100.9271728263307
 20
-115.6783826750735
 10
100.9271728263307
 20
-115.6783826750735
 10
100.9271728263307
 20
-115.6783826750735
 10
100.7028971102409
 20
-115.6783826750735
 10
100.7028971102409
 20
-115.6783826750735
 97
        0
 97
        0
 75
     2
 76
     1
 98
        0
  0
SPLINE
  5
139
330
12F
100
AcDbEntity
  8
_U+30EC_U+30A4_U+30E4_U+30FC 1
370
     0
100
AcDbSpline
210
0.0
220
0.0
230
1.0
 70
    11
 71
     3
 72
    29
 73
    25
 74
     0
 42
0.0000000001
 43
0.0000000001
 12
1.0
 22
0.0
 32
0.0
 13
1.0
 23
0.0
 33
0.0
 40
0.0
 40
0.0
 40
0.0
 40
0.0
 40
1.0
 40
1.0
 40
1.0
 40
2.0
 40
2.0
 40
2.0
 40
3.0
 40
3.0
 40
3.0
 40
4.0
 40
4.0
 40
4.0
 40
5.0
 40
5.0
 40
5.0
 40
6.0
 40
6.0
 40
6.0
 40
7.0
 40
7.0
 40
7.0
 40
8.0
 40
8.0
 40
8.0
 40
8.0
 10
102.3262261028907
 20
-115.5006157480346
 30
0.0
 10
102.2180501046538
 20
-115.7100775535378
 30
0.0
 10
102.0447618017458
 20
-115.7291978334809
 30
0.0
 10
101.9283175743443
 20
-115.7291978334809
 30
0.0
 10
101.7674316151831
 20
-115.7291978334809
 30
0.0
 10
101.6258381907394
 20
-115.68268904443
 30
0.0
 10
101.5307535553465
 20
-115.5006157480346
 30
0.0
 10
101.4270561812405
 20
-115.305967853118
 30
0.0
 10
101.4081081560716
 20
-115.069117538507
 30
0.0
 10
101.4081081560716
 20
-114.9061645220547
 30
0.0
 10
101.4081081560716
 20
-114.7623317855455
 30
0.0
 10
101.4249891239493
 20
-114.510667560348
 30
0.0
 10
101.5307535553465
 20
-114.3117132960749
 30
0.0
 10
101.6385850440348
 20
-114.1086249172194
 30
0.0
 10
101.799471003196
 20
-114.0853705226939
 30
0.0
 10
101.9283175743443
 20
-114.0853705226939
 30
0.0
 10
102.0871364762143
 20
-114.0853705226939
 30
0.0
 10
102.2307969579493
 20
-114.1298122544537
 30
0.0
 10
102.3262261028907
 20
-114.3117132960749
 30
0.0
 10
102.4254448528659
 20
-114.5042941337003
 30
0.0
 10
102.4488715021656
 20
-114.7327039643724
 30
0.0
 10
102.4488715021656
 20
-114.9061645220547
 30
0.0
 10
102.4488715021656
 20
-115.0775580224459
 30
0.0
 10
102.427511910157
 20
-115.3082071651834
 30
0.0
 10
102.3262261028907
 20
-115.5006157480346
 30
0.0
  0
SPLINE
  5
13A
330
12F
100
AcDbEntity
  8
_U+30EC_U+30A4_U+30E4_U+30FC 1
370
     0
100
AcDbSpline
210
0.0
220
0.0
230
1.0
 70
    11
 71
     3
 72
    17
 73
    13
 74
     0
 42
0.0000000001
 43
0.0000000001
 12
1.0
 22
0.0
 32
0.0
 13
1.0
 23
0.0
 33
0.0
 40
0.0
 40
0.0
 40
0.0
 40
0.0
 40
1.0
 40
1.0
 40
1.0
 40
2.0
 40
2.0
 40
2.0
 40
3.0
 40
3.0
 40
3.0
 40
4.0
 40
4.0
 40
4.0
 40
4.0
 10
101.9283175743443
 20
-114.2779513603194
 30
0.0
 10
101.6788926612122
 20
-114.2779513603194
 30
0.0
 10
101.6320393626128
 20
-114.5614827187555
 30
0.0
 10
101.6320393626128
 20
-114.9061645220547
 30
0.0
 10
101.6320393626128
 20
-115.2256971283116
 30
0.0
 10
101.6682128652079
 20
-115.5345499385643
 30
0.0
 10
101.9283175743443
 20
-115.5345499385643
 30
0.0
 10
102.1760199397338
 20
-115.5345499385643
 30
0.0
 10
102.2245957860758
 20
-115.2530856374194
 30
0.0
 10
102.2245957860758
 20
-114.9061645220547
 30
0.0
 10
102.2245957860758
 20
-114.5868041705721
 30
0.0
 10
102.1863552261895
 20
-114.2779513603194
 30
0.0
 10
101.9283175743443
 20
-114.2779513603194
 30
0.0
  0
HATCH
  5
13B
330
12F
100
AcDbEntity
  8
_U+30EC_U+30A4_U+30E4_U+30FC 1
 62
   179
420
  2234388
100
AcDbHatch
 10
0.0
 20
0.0
 30
0.0
210
0.0
220
0.0
230
1.0
  2
SOLID
 70
     1
 71
     0
 91
        2
 92
        1
 93
        1
 72
     4
 94
        3
 73
     0
 74
     1
 95
       29
 96
       25
 40
0.0
 40
0.0
 40
0.0
 40
0.0
 40
1.0
 40
1.0
 40
1.0
 40
2.0
 40
2.0
 40
2.0
 40
3.0
 40
3.0
 40
3.0
 40
4.0
 40
4.0
 40
4.0
 40
5.0
 40
5.0
 40
5.0
 40
6.0
 40
6.0
 40
6.0
 40
7.0
 40
7.0
 40
7.0
 40
8.0
 40
8.0
 40
8.0
 40
8.0
 10
102.3262261028907
 20
-115.5006157480346
 10
102.2180501046538
 20
-115.7100775535378
 10
102.0447618017458
 20
-115.7291978334809
 10
101.9283175743443
 20
-115.7291978334809
 10
101.7674316151831
 20
-115.7291978334809
 10
101.6258381907394
 20
-115.68268904443
 10
101.5307535553465
 20
-115.5006157480346
 10
101.4270561812405
 20
-115.305967853118
 10
101.4081081560716
 20
-115.069117538507
 10
101.4081081560716
 20
-114.9061645220547
 10
101.4081081560716
 20
-114.7623317855455
 10
101.4249891239493
 20
-114.510667560348
 10
101.5307535553465
 20
-114.3117132960749
 10
101.6385850440348
 20
-114.1086249172194
 10
101.799471003196
 20
-114.0853705226939
 10
101.9283175743443
 20
-114.0853705226939
 10
102.0871364762143
 20
-114.0853705226939
 10
102.2307969579493
 20
-114.1298122544537
 10
102.3262261028907
 20
-114.3117132960749
 10
102.4254448528659
 20
-114.5042941337003
 10
102.4488715021656
 20
-114.7327039643724
 10
102.4488715021656
 20
-114.9061645220547
 10
102.4488715021656
 20
-115.0775580224459
 10
102.427511910157
 20
-115.3082071651834
 10
102.3262261028907
 20
-115.5006157480346
 97
        0
 97
        0
 92
        1
 93
        1
 72
     4
 94
        3
 73
     0
 74
     1
 95
       17
 96
       13
 40
0.0
 40
0.0
 40
0.0
 40
0.0
 40
1.0
 40
1.0
 40
1.0
 40
2.0
 40
2.0
 40
2.0
 40
3.0
 40
3.0
 40
3.0
 40
4.0
 40
4.0
 40
4.0
 40
4.0
 10
101.9283175743443
 20
-114.2779513603194
 10
101.6788926612122
 20
-114.2779513603194
 10
101.6320393626128
 20
-114.5614827187555
 10
101.6320393626128
 20
-114.9061645220547
 10
101.6320393626128
 20
-115.2256971283116
 10
101.6682128652079
 20
-115.5345499385643
 10
101.9283175743443
 20
-115.5345499385643
 10
102.1760199397338
 20
-115.5345499385643
 10
102.2245957860758
 20
-115.2530856374194
 10
102.2245957860758
 20
-114.9061645220547
 10
102.2245957860758
 20
-114.5868041705721
 10
102.1863552261895
 20
-114.2779513603194
 10
101.9283175743443
 20
-114.2779513603194
 97
        0
 97
        0
 75
     2
 76
     1
 98
        0
  0
ENDBLK
  5
132
330
12F
100
AcDbEntity
  8
0
100
AcDbBlockEnd
  0
ENDSEC
  0
SECTION
  2
ENTITIES
  0
INSERT
  5
42
330
1F
100
AcDbEntity
  8
_U+30EC_U+30A4_U+30E4_U+30FC 1
100
AcDbBlockReference
  2
block 2
 10
0.0
 20
0.0
 30
0.0
  0
ENDSEC
  0
SECTION
  2
OBJECTS
  0
DICTIONARY
  5
C
330
0
100
AcDbDictionary
281
     1
  3
ACAD_GROUP
350
D
  3
ACAD_LAYOUT
350
1A
  3
ACAD_MATERIAL
350
3B
  3
ACAD_MLEADERSTYLE
350
149
  3
ACAD_MLINESTYLE
350
17
  3
ACAD_PLOTSETTINGS
350
19
  3
ACAD_PLOTSTYLENAME
350
E
  3
ACAD_TABLESTYLE
350
148
  3
ACAD_VISUALSTYLE
350
2A
  0
SUN
  5
3F
330
29
100
AcDbSun
 90
        1
290
     0
 63
     7
421
 16777215
 40
1.0
291
     1
 91
  2455826
 92
 54000000
292
     0
 70
     2
 71
   256
280
     1
  0
DICTIONARY
  5
D
102
{ACAD_REACTORS
330
C
102
}
330
C
100
AcDbDictionary
281
     1
  0
DICTIONARY
  5
1A
102
{ACAD_REACTORS
330
C
102
}
330
C
100
AcDbDictionary
281
     1
  3
Layout1
350
1E
  3
Layout2
350
26
  3
Model
350
22
  0
DICTIONARY
  5
3B
102
{ACAD_REACTORS
330
C
102
}
330
C
100
AcDbDictionary
281
     1
  3
ByBlock
350
3D
  3
ByLayer
350
3C
  3
Global
350
3E
  0
DICTIONARY
  5
149
102
{ACAD_REACTORS
330
C
102
}
330
C
100
AcDbDictionary
281
     1
  0
DICTIONARY
  5
17
102
{ACAD_REACTORS
330
C
102
}
330
C
100
AcDbDictionary
281
     1
  3
Standard
350
18
  0
DICTIONARY
  5
19
102
{ACAD_REACTORS
330
C
102
}
330
C
100
AcDbDictionary
281
     1
  0
ACDBDICTIONARYWDFLT
  5
E
102
{ACAD_REACTORS
330
C
102
}
330
C
100
AcDbDictionary
281
     1
  3
Normal
350
F
100
AcDbDictionaryWithDefault
340
F
  0
DICTIONARY
  5
148
102
{ACAD_REACTORS
330
C
102
}
330
C
100
AcDbDictionary
281
     1
  0
DICTIONARY
  5
2A
102
{ACAD_REACTORS
330
C
102
}
330
C
100
AcDbDictionary
281
     1
  3
2dWireframe
350
2F
  3
3D Hidden
350
31
  3
3dWireframe
350
30
  3
Basic
350
32
  3
Brighten
350
36
  3
ColorChange
350
3A
  3
Conceptual
350
34
  3
Dim
350
35
  3
Facepattern
350
39
  3
Flat
350
2B
  3
FlatWithEdges
350
2C
  3
Gouraud
350
2D
  3
GouraudWithEdges
350
2E
  3
Linepattern
350
38
  3
Realistic
350
33
  3
Thicken
350
37
  0
LAYOUT
  5
1E
102
{ACAD_REACTORS
330
1A
102
}
330
1A
100
AcDbPlotSettings
  1

  2
none_device
  4

  6

 40
0.0
 41
0.0
 42
0.0
 43
0.0
 44
0.0
 45
0.0
 46
0.0
 47
0.0
 48
0.0
 49
0.0
140
0.0
141
0.0
142
1.0
143
1.0
 70
   688
 72
     0
 73
     0
 74
     5
  7

 75
    16
 76
     0
 77
     2
 78
   300
147
1.0
148
0.0
149
0.0
100
AcDbLayout
  1
Layout1
 70
     1
 71
     1
 10
0.0
 20
0.0
 11
12.0
 21
9.0
 12
0.0
 22
0.0
 32
0.0
 14
1.000000000000000E+20
 24
1.000000000000000E+20
 34
1.000000000000000E+20
 15
-1.000000000000000E+20
 25
-1.000000000000000E+20
 35
-1.000000000000000E+20
146
0.0
 13
0.0
 23
0.0
 33
0.0
 16
1.0
 26
0.0
 36
0.0
 17
0.0
 27
1.0
 37
0.0
 76
     0
330
1B
  0
LAYOUT
  5
26
102
{ACAD_REACTORS
330
1A
102
}
330
1A
100
AcDbPlotSettings
  1

  2
none_device
  4

  6

 40
0.0
 41
0.0
 42
0.0
 43
0.0
 44
0.0
 45
0.0
 46
0.0
 47
0.0
 48
0.0
 49
0.0
140
0.0
141
0.0
142
1.0
143
1.0
 70
   688
 72
     0
 73
     0
 74
     5
  7

 75
    16
 76
     0
 77
     2
 78
   300
147
1.0
148
0.0
149
0.0
100
AcDbLayout
  1
Layout2
 70
     1
 71
     2
 10
0.0
 20
0.0
 11
0.0
 21
0.0
 12
0.0
 22
0.0
 32
0.0
 14
0.0
 24
0.0
 34
0.0
 15
0.0
 25
0.0
 35
0.0
146
0.0
 13
0.0
 23
0.0
 33
0.0
 16
1.0
 26
0.0
 36
0.0
 17
0.0
 27
1.0
 37
0.0
 76
     0
330
23
  0
LAYOUT
  5
22
102
{ACAD_REACTORS
330
1A
102
}
330
1A
100
AcDbPlotSettings
  1

  2
none_device
  4

  6

 40
0.0
 41
0.0
 42
0.0
 43
0.0
 44
0.0
 45
0.0
 46
0.0
 47
0.0
 48
0.0
 49
0.0
140
0.0
141
0.0
142
1.0
143
1.0
 70
  1712
 72
     0
 73
     0
 74
     0
  7

 75
     0
 76
     0
 77
     2
 78
   300
147
1.0
148
0.0
149
0.0
100
AcDbLayout
  1
Model
 70
     1
 71
     0
 10
0.0
 20
0.0
 11
12.0
 21
9.0
 12
0.0
 22
0.0
 32
0.0
 14
1.000000000000000E+20
 24
1.000000000000000E+20
 34
1.000000000000000E+20
 15
-1.000000000000000E+20
 25
-1.000000000000000E+20
 35
-1.000000000000000E+20
146
0.0
 13
0.0
 23
0.0
 33
0.0
 16
1.0
 26
0.0
 36
0.0
 17
0.0
 27
1.0
 37
0.0
 76
     0
330
1F
331
29
  0
MATERIAL
  5
3D
102
{ACAD_REACTORS
330
3B
102
}
330
3B
100
AcDbMaterial
  1
ByBlock
 72
     1
 94
      127
  0
MATERIAL
  5
3C
102
{ACAD_REACTORS
330
3B
102
}
330
3B
100
AcDbMaterial
  1
ByLayer
 72
     1
 94
      127
  0
MATERIAL
  5
3E
102
{ACAD_REACTORS
330
3B
102
}
330
3B
100
AcDbMaterial
  1
Global
 72
     1
 94
      127
  0
MLINESTYLE
  5
18
102
{ACAD_REACTORS
330
17
102
}
330
17
100
AcDbMlineStyle
  2
Standard
 70
     0
  3

 62
   256
 51
90.0
 52
90.0
 71
     2
 49
0.5
 62
   256
  6
BYLAYER
 49
-0.5
 62
   256
  6
BYLAYER
  0
ACDBPLACEHOLDER
  5
F
102
{ACAD_REACTORS
330
E
102
}
330
E
  0
VISUALSTYLE
  5
2F
102
{ACAD_REACTORS
330
2A
102
}
330
2A
100
AcDbVisualStyle
  2
2dWireframe
 70
     4
177
     2
291
     0
 71
     0
176
     1
 72
     2
176
     1
 73
     0
176
     1
 90
        0
176
     1
 40
-0.6
176
     1
 41
-30.0
176
     1
 62
     5
 63
     7
421
 16777215
176
     1
 74
     1
176
     1
 91
        4
176
     1
 64
     7
176
     1
 65
   257
176
     1
 75
     1
176
     1
175
     1
176
     1
 42
1.0
176
     1
 92
        0
176
     1
 66
   257
176
     1
 43
1.0
176
     1
 76
     1
176
     1
 77
     6
176
     1
 78
     2
176
     1
 67
     7
176
     1
 79
     5
176
     1
170
     0
176
     1
171
     0
176
     1
290
     0
176
     1
 93
        1
176
     1
 44
0.0
176
     1
173
     0
176
     1
  0
VISUALSTYLE
  5
31
102
{ACAD_REACTORS
330
2A
102
}
330
2A
100
AcDbVisualStyle
  2
3D Hidden
 70
     6
177
     2
291
     0
 71
     1
176
     1
 72
     2
176
     1
 73
     2
176
     1
 90
        0
176
     1
 40
-0.6
176
     1
 41
-30.0
176
     1
 62
     5
 63
     7
421
 16777215
176
     1
 74
     2
176
     1
 91
        2
176
     1
 64
     7
176
     1
 65
   257
176
     1
 75
     2
176
     1
175
     1
176
     1
 42
40.0
176
     1
 92
        0
176
     1
 66
   257
176
     1
 43
1.0
176
     1
 76
     1
176
     1
 77
     6
176
     1
 78
     2
176
     1
 67
     7
176
     1
 79
     3
176
     1
170
     0
176
     1
171
     0
176
     1
290
     0
176
     1
 93
        1
176
     1
 44
0.0
176
     1
173
     0
176
     1
  0
VISUALSTYLE
  5
30
102
{ACAD_REACTORS
330
2A
102
}
330
2A
100
AcDbVisualStyle
  2
3dWireframe
 70
     5
177
     2
291
     0
 71
     0
176
     1
 72
     2
176
     1
 73
     0
176
     1
 90
        0
176
     1
 40
-0.6
176
     1
 41
-30.0
176
     1
 62
     5
 63
     7
421
 16777215
176
     1
 74
     1
176
     1
 91
        4
176
     1
 64
     7
176
     1
 65
   257
176
     1
 75
     1
176
     1
175
     1
176
     1
 42
1.0
176
     1
 92
        0
176
     1
 66
   257
176
     1
 43
1.0
176
     1
 76
     1
176
     1
 77
     6
176
     1
 78
     2
176
     1
 67
     7
176
     1
 79
     5
176
     1
170
     0
176
     1
171
     0
176
     1
290
     0
176
     1
 93
        1
176
     1
 44
0.0
176
     1
173
     0
176
     1
  0
VISUALSTYLE
  5
32
102
{ACAD_REACTORS
330
2A
102
}
330
2A
100
AcDbVisualStyle
  2
Basic
 70
     7
177
     2
291
     1
 71
     1
176
     1
 72
     0
176
     1
 73
     1
176
     1
 90
        0
176
     1
 40
-0.6
176
     1
 41
-30.0
176
     1
 62
     5
 63
     7
421
 16777215
176
     1
 74
     0
176
     1
 91
        4
176
     1
 64
     7
176
     1
 65
   257
176
     1
 75
     1
176
     1
175
     1
176
     1
 42
1.0
176
     1
 92
        8
176
     1
 66
     7
176
     1
 43
1.0
176
     1
 76
     1
176
     1
 77
     6
176
     1
 78
     2
176
     1
 67
     7
176
     1
 79
     5
176
     1
170
     0
176
     1
171
     0
176
     1
290
     0
176
     1
 93
        1
176
     1
 44
0.0
176
     1
173
     0
176
     1
  0
VISUALSTYLE
  5
36
102
{ACAD_REACTORS
330
2A
102
}
330
2A
100
AcDbVisualStyle
  2
Brighten
 70
    12
177
     2
291
     1
 71
     2
176
     1
 72
     2
176
     1
 73
     0
176
     1
 90
        0
176
     1
 40
-0.6
176
     1
 41
-30.0
176
     1
 62
     5
 63
     7
421
 16777215
176
     1
 74
     1
176
     1
 91
        4
176
     1
 64
     7
176
     1
 65
   257
176
     1
 75
     1
176
     1
175
     1
176
     1
 42
1.0
176
     1
 92
        8
176
     1
 66
     7
176
     1
 43
1.0
176
     1
 76
     1
176
     1
 77
     6
176
     1
 78
     2
176
     1
 67
     7
176
     1
 79
     5
176
     1
170
     0
176
     1
171
     0
176
     1
290
     0
176
     1
 93
        1
176
     1
 44
50.0
176
     1
173
     0
176
     1
  0
VISUALSTYLE
  5
3A
102
{ACAD_REACTORS
330
2A
102
}
330
2A
100
AcDbVisualStyle
  2
ColorChange
 70
    16
177
     2
291
     1
 71
     2
176
     1
 72
     2
176
     1
 73
     3
176
     1
 90
        0
176
     1
 40
-0.6
176
     1
 41
-30.0
176
     1
 62
     5
 63
     8
421
  8421504
176
     1
 74
     1
176
     1
 91
        4
176
     1
 64
     7
176
     1
 65
   257
176
     1
 75
     1
176
     1
175
     1
176
     1
 42
1.0
176
     1
 92
        8
176
     1
 66
     8
424
  8421504
176
     1
 43
1.0
176
     1
 76
     1
176
     1
 77
     6
176
     1
 78
     2
176
     1
 67
     7
176
     1
 79
     5
176
     1
170
     0
176
     1
171
     0
176
     1
290
     0
176
     1
 93
        1
176
     1
 44
0.0
176
     1
173
     0
176
     1
  0
VISUALSTYLE
  5
34
102
{ACAD_REACTORS
330
2A
102
}
330
2A
100
AcDbVisualStyle
  2
Conceptual
 70
     9
177
     2
291
     0
 71
     3
176
     1
 72
     2
176
     1
 73
     0
176
     1
 90
        0
176
     1
 40
-0.6
176
     1
 41
-30.0
176
     1
 62
     5
 63
     7
421
 16777215
176
     1
 74
     2
176
     1
 91
        2
176
     1
 64
     7
176
     1
 65
   257
176
     1
 75
     1
176
     1
175
     1
176
     1
 42
40.0
176
     1
 92
        8
176
     1
 66
     7
176
     1
 43
1.0
176
     1
 76
     1
176
     1
 77
     6
176
     1
 78
     2
176
     1
 67
     7
176
     1
 79
     3
176
     1
170
     0
176
     1
171
     0
176
     1
290
     0
176
     1
 93
        1
176
     1
 44
0.0
176
     1
173
     0
176
     1
  0
VISUALSTYLE
  5
35
102
{ACAD_REACTORS
330
2A
102
}
330
2A
100
AcDbVisualStyle
  2
Dim
 70
    11
177
     2
291
     1
 71
     2
176
     1
 72
     2
176
     1
 73
     0
176
     1
 90
        0
176
     1
 40
-0.6
176
     1
 41
-30.0
176
     1
 62
     5
 63
     7
421
 16777215
176
     1
 74
     1
176
     1
 91
        4
176
     1
 64
     7
176
     1
 65
   257
176
     1
 75
     1
176
     1
175
     1
176
     1
 42
1.0
176
     1
 92
        8
176
     1
 66
     7
176
     1
 43
1.0
176
     1
 76
     1
176
     1
 77
     6
176
     1
 78
     2
176
     1
 67
     7
176
     1
 79
     5
176
     1
170
     0
176
     1
171
     0
176
     1
290
     0
176
     1
 93
        1
176
     1
 44
-50.0
176
     1
173
     0
176
     1
  0
VISUALSTYLE
  5
39
102
{ACAD_REACTORS
330
2A
102
}
330
2A
100
AcDbVisualStyle
  2
Facepattern
 70
    15
177
     2
291
     1
 71
     2
176
     1
 72
     2
176
     1
 73
     0
176
     1
 90
        0
176
     1
 40
-0.6
176
     1
 41
-30.0
176
     1
 62
     5
 63
     7
421
 16777215
176
     1
 74
     1
176
     1
 91
        4
176
     1
 64
     7
176
     1
 65
   257
176
     1
 75
     1
176
     1
175
     1
176
     1
 42
1.0
176
     1
 92
        8
176
     1
 66
     7
176
     1
 43
1.0
176
     1
 76
     1
176
     1
 77
     6
176
     1
 78
     2
176
     1
 67
     7
176
     1
 79
     5
176
     1
170
     0
176
     1
171
     0
176
     1
290
     0
176
     1
 93
        1
176
     1
 44
0.0
176
     1
173
     0
176
     1
  0
VISUALSTYLE
  5
2B
102
{ACAD_REACTORS
330
2A
102
}
330
2A
100
AcDbVisualStyle
  2
Flat
 70
     0
177
     2
291
     1
 71
     2
176
     1
 72
     1
176
     1
 73
     1
176
     1
 90
        2
176
     1
 40
-0.6
176
     1
 41
30.0
176
     1
 62
     5
 63
     7
421
 16777215
176
     1
 74
     0
176
     1
 91
        4
176
     1
 64
     7
176
     1
 65
   257
176
     1
 75
     1
176
     1
175
     1
176
     1
 42
1.0
176
     1
 92
        8
176
     1
 66
     7
176
     1
 43
1.0
176
     1
 76
     1
176
     1
 77
     6
176
     1
 78
     2
176
     1
 67
     7
176
     1
 79
     5
176
     1
170
     0
176
     1
171
     0
176
     1
290
     0
176
     1
 93
       13
176
     1
 44
0.0
176
     1
173
     0
176
     1
  0
VISUALSTYLE
  5
2C
102
{ACAD_REACTORS
330
2A
102
}
330
2A
100
AcDbVisualStyle
  2
FlatWithEdges
 70
     1
177
     2
291
     1
 71
     2
176
     1
 72
     1
176
     1
 73
     1
176
     1
 90
        2
176
     1
 40
-0.6
176
     1
 41
30.0
176
     1
 62
     5
 63
     7
421
 16777215
176
     1
 74
     1
176
     1
 91
        4
176
     1
 64
     7
176
     1
 65
   257
176
     1
 75
     1
176
     1
175
     1
176
     1
 42
1.0
176
     1
 92
        0
176
     1
 66
   257
176
     1
 43
1.0
176
     1
 76
     1
176
     1
 77
     6
176
     1
 78
     2
176
     1
 67
     7
176
     1
 79
     5
176
     1
170
     0
176
     1
171
     0
176
     1
290
     0
176
     1
 93
       13
176
     1
 44
0.0
176
     1
173
     0
176
     1
  0
VISUALSTYLE
  5
2D
102
{ACAD_REACTORS
330
2A
102
}
330
2A
100
AcDbVisualStyle
  2
Gouraud
 70
     2
177
     2
291
     1
 71
     2
176
     1
 72
     2
176
     1
 73
     1
176
     1
 90
        2
176
     1
 40
-0.6
176
     1
 41
30.0
176
     1
 62
     5
 63
     7
421
 16777215
176
     1
 74
     0
176
     1
 91
        4
176
     1
 64
     7
176
     1
 65
   257
176
     1
 75
     1
176
     1
175
     1
176
     1
 42
1.0
176
     1
 92
        0
176
     1
 66
     7
176
     1
 43
1.0
176
     1
 76
     1
176
     1
 77
     6
176
     1
 78
     2
176
     1
 67
     7
176
     1
 79
     5
176
     1
170
     0
176
     1
171
     0
176
     1
290
     0
176
     1
 93
       13
176
     1
 44
0.0
176
     1
173
     0
176
     1
  0
VISUALSTYLE
  5
2E
102
{ACAD_REACTORS
330
2A
102
}
330
2A
100
AcDbVisualStyle
  2
GouraudWithEdges
 70
     3
177
     2
291
     1
 71
     2
176
     1
 72
     2
176
     1
 73
     1
176
     1
 90
        2
176
     1
 40
-0.6
176
     1
 41
30.0
176
     1
 62
     5
 63
     7
421
 16777215
176
     1
 74
     1
176
     1
 91
        4
176
     1
 64
     7
176
     1
 65
   257
176
     1
 75
     1
176
     1
175
     1
176
     1
 42
1.0
176
     1
 92
        0
176
     1
 66
   257
176
     1
 43
1.0
176
     1
 76
     1
176
     1
 77
     6
176
     1
 78
     2
176
     1
 67
     7
176
     1
 79
     5
176
     1
170
     0
176
     1
171
     0
176
     1
290
     0
176
     1
 93
       13
176
     1
 44
0.0
176
     1
173
     0
176
     1
  0
VISUALSTYLE
  5
38
102
{ACAD_REACTORS
330
2A
102
}
330
2A
100
AcDbVisualStyle
  2
Linepattern
 70
    14
177
     2
291
     1
 71
     2
176
     1
 72
     2
176
     1
 73
     0
176
     1
 90
        0
176
     1
 40
-0.6
176
     1
 41
-30.0
176
     1
 62
     5
 63
     7
421
 16777215
176
     1
 74
     1
176
     1
 91
        4
176
     1
 64
     7
176
     1
 65
   257
176
     1
 75
     7
176
     1
175
     7
176
     1
 42
1.0
176
     1
 92
        8
176
     1
 66
     7
176
     1
 43
1.0
176
     1
 76
     1
176
     1
 77
     6
176
     1
 78
     2
176
     1
 67
     7
176
     1
 79
     5
176
     1
170
     0
176
     1
171
     0
176
     1
290
     0
176
     1
 93
        1
176
     1
 44
0.0
176
     1
173
     0
176
     1
  0
VISUALSTYLE
  5
33
102
{ACAD_REACTORS
330
2A
102
}
330
2A
100
AcDbVisualStyle
  2
Realistic
 70
     8
177
     2
291
     0
 71
     2
176
     1
 72
     2
176
     1
 73
     0
176
     1
 90
        0
176
     1
 40
-0.6
176
     1
 41
-30.0
176
     1
 62
     5
 63
     7
421
 16777215
176
     1
 74
     1
176
     1
 91
        0
176
     1
 64
     7
176
     1
 65
   257
176
     1
 75
     1
176
     1
175
     1
176
     1
 42
1.0
176
     1
 92
        8
176
     1
 66
     8
424
  7895160
176
     1
 43
1.0
176
     1
 76
     1
176
     1
 77
     6
176
     1
 78
     2
176
     1
 67
     7
176
     1
 79
     5
176
     1
170
     0
176
     1
171
     0
176
     1
290
     0
176
     1
 93
       13
176
     1
 44
0.0
176
     1
173
     0
176
     1
  0
VISUALSTYLE
  5
37
102
{ACAD_REACTORS
330
2A
102
}
330
2A
100
AcDbVisualStyle
  2
Thicken
 70
    13
177
     2
291
     1
 71
     2
176
     1
 72
     2
176
     1
 73
     0
176
     1
 90
        0
176
     1
 40
-0.6
176
     1
 41
-30.0
176
     1
 62
     5
 63
     7
421
 16777215
176
     1
 74
     1
176
     1
 91
        4
176
     1
 64
     7
176
     1
 65
   257
176
     1
 75
     1
176
     1
175
     1
176
     1
 42
1.0
176
     1
 92
       12
176
     1
 66
     7
176
     1
 43
1.0
176
     1
 76
     1
176
     1
 77
     6
176
     1
 78
     2
176
     1
 67
     7
176
     1
 79
     5
176
     1
170
     0
176
     1
171
     0
176
     1
290
     0
176
     1
 93
        1
176
     1
 44
0.0
176
     1
173
     0
176
     1
  0
ENDSEC
  0
EOF
