  0
SECTION
  2
HEADER
  9
$ACADVER
  1
AC1024
  9
$ACADMAINTVER
 70
     6
  9
$DWGCODEPAGE
  3
UNDEFINED
  9
$INSBASE
 10
0.0
 20
0.0
 30
0.0
  9
$EXTMIN
 10
1.000000000000000E+20
 20
1.000000000000000E+20
 30
1.000000000000000E+20
  9
$EXTMAX
 10
-1.000000000000000E+20
 20
-1.000000000000000E+20
 30
-1.000000000000000E+20
  9
$LIMMIN
 10
0.0
 20
0.0
  9
$LIMMAX
 10
12.0
 20
9.0
  9
$ORTHOMODE
 70
     0
  9
$REGENMODE
 70
     1
  9
$FILLMODE
 70
     1
  9
$QTEXTMODE
 70
     0
  9
$MIRRTEXT
 70
     1
  9
$LTSCALE
 40
1.0
  9
$ATTMODE
 70
     1
  9
$TEXTSIZE
 40
0.2
  9
$TRACEWID
 40
0.05
  9
$TEXTSTYLE
  7
Standard
  9
$CLAYER
  8
0
  9
$CELTYPE
  6
ByLayer
  9
$CECOLOR
 62
   256
  9
$CELTSCALE
 40
1.0
  9
$DISPSILH
 70
     0
  9
$DIMSCALE
 40
1.0
  9
$DIMASZ
 40
0.18
  9
$DIMEXO
 40
0.0625
  9
$DIMDLI
 40
0.38
  9
$DIMRND
 40
0.0
  9
$DIMDLE
 40
0.0
  9
$DIMEXE
 40
0.18
  9
$DIMTP
 40
0.0
  9
$DIMTM
 40
0.0
  9
$DIMTXT
 40
0.18
  9
$DIMCEN
 40
0.09
  9
$DIMTSZ
 40
0.0
  9
$DIMTOL
 70
     0
  9
$DIMLIM
 70
     0
  9
$DIMTIH
 70
     1
  9
$DIMTOH
 70
     1
  9
$DIMSE1
 70
     0
  9
$DIMSE2
 70
     0
  9
$DIMTAD
 70
     0
  9
$DIMZIN
 70
     0
  9
$DIMBLK
  1

  9
$DIMASO
 70
     1
  9
$DIMSHO
 70
     1
  9
$DIMPOST
  1

  9
$DIMAPOST
  1

  9
$DIMALT
 70
     0
  9
$DIMALTD
 70
     2
  9
$DIMALTF
 40
25.4
  9
$DIMLFAC
 40
1.0
  9
$DIMTOFL
 70
     0
  9
$DIMTVP
 40
0.0
  9
$DIMTIX
 70
     0
  9
$DIMSOXD
 70
     0
  9
$DIMSAH
 70
     0
  9
$DIMBLK1
  1

  9
$DIMBLK2
  1

  9
$DIMSTYLE
  2
Standard
  9
$DIMCLRD
 70
     0
  9
$DIMCLRE
 70
     0
  9
$DIMCLRT
 70
     0
  9
$DIMTFAC
 40
1.0
  9
$DIMGAP
 40
0.09
  9
$DIMJUST
 70
     0
  9
$DIMSD1
 70
     0
  9
$DIMSD2
 70
     0
  9
$DIMTOLJ
 70
     1
  9
$DIMTZIN
 70
     0
  9
$DIMALTZ
 70
     0
  9
$DIMALTTZ
 70
     0
  9
$DIMUPT
 70
     0
  9
$DIMDEC
 70
     4
  9
$DIMTDEC
 70
     4
  9
$DIMALTU
 70
     2
  9
$DIMALTTD
 70
     2
  9
$DIMTXSTY
  7
Standard
  9
$DIMAUNIT
 70
     0
  9
$DIMADEC
 70
     0
  9
$DIMALTRND
 40
0.0
  9
$DIMAZIN
 70
     0
  9
$DIMDSEP
 70
    46
  9
$DIMATFIT
 70
     3
  9
$DIMFRAC
 70
     0
  9
$DIMLDRBLK
  1

  9
$DIMLUNIT
 70
     2
  9
$DIMLWD
 70
    -2
  9
$DIMLWE
 70
    -2
  9
$DIMTMOVE
 70
     0
  9
$DIMFXL
 40
1.0
  9
$DIMFXLON
 70
     0
  9
$DIMJOGANG
 40
0.7853981633974483
  9
$DIMTFILL
 70
     0
  9
$DIMTFILLCLR
 70
     0
  9
$DIMARCSYM
 70
     0
  9
$DIMLTYPE
  6

  9
$DIMLTEX1
  6

  9
$DIMLTEX2
  6

  9
$DIMTXTDIRECTION
 70
     0
  9
$LUNITS
 70
     2
  9
$LUPREC
 70
     4
  9
$SKETCHINC
 40
0.1
  9
$FILLETRAD
 40
0.5
  9
$AUNITS
 70
     0
  9
$AUPREC
 70
     0
  9
$MENU
  1
.
  9
$ELEVATION
 40
0.0
  9
$PELEVATION
 40
0.0
  9
$THICKNESS
 40
0.0
  9
$LIMCHECK
 70
     0
  9
$CHAMFERA
 40
0.5
  9
$CHAMFERB
 40
0.5
  9
$CHAMFERC
 40
1.0
  9
$CHAMFERD
 40
0.0
  9
$SKPOLY
 70
     0
  9
$TDCREATE
 40
2457917.64648147
  9
$TDUCREATE
 40
2457917.271481481
  9
$TDUPDATE
 40
2457917.64648147
  9
$TDUUPDATE
 40
2457917.271481481
  9
$TDINDWG
 40
0.0000000116
  9
$TDUSRTIMER
 40
0.0000000116
  9
$USRTIMER
 70
     1
  9
$ANGBASE
 50
0.0
  9
$ANGDIR
 70
     0
  9
$PDMODE
 70
     0
  9
$PDSIZE
 40
0.0
  9
$PLINEWID
 40
0.0
  9
$SPLFRAME
 70
     0
  9
$SPLINETYPE
 70
     6
  9
$SPLINESEGS
 70
     8
  9
$HANDSEED
  5
117
  9
$SURFTAB1
 70
     6
  9
$SURFTAB2
 70
     6
  9
$SURFTYPE
 70
     6
  9
$SURFU
 70
     6
  9
$SURFV
 70
     6
  9
$UCSBASE
  2

  9
$UCSNAME
  2

  9
$UCSORG
 10
0.0
 20
0.0
 30
0.0
  9
$UCSXDIR
 10
1.0
 20
0.0
 30
0.0
  9
$UCSYDIR
 10
0.0
 20
1.0
 30
0.0
  9
$UCSORTHOREF
  2

  9
$UCSORTHOVIEW
 70
     0
  9
$UCSORGTOP
 10
0.0
 20
0.0
 30
0.0
  9
$UCSORGBOTTOM
 10
0.0
 20
0.0
 30
0.0
  9
$UCSORGLEFT
 10
0.0
 20
0.0
 30
0.0
  9
$UCSORGRIGHT
 10
0.0
 20
0.0
 30
0.0
  9
$UCSORGFRONT
 10
0.0
 20
0.0
 30
0.0
  9
$UCSORGBACK
 10
0.0
 20
0.0
 30
0.0
  9
$PUCSBASE
  2

  9
$PUCSNAME
  2

  9
$PUCSORG
 10
0.0
 20
0.0
 30
0.0
  9
$PUCSXDIR
 10
1.0
 20
0.0
 30
0.0
  9
$PUCSYDIR
 10
0.0
 20
1.0
 30
0.0
  9
$PUCSORTHOREF
  2

  9
$PUCSORTHOVIEW
 70
     0
  9
$PUCSORGTOP
 10
0.0
 20
0.0
 30
0.0
  9
$PUCSORGBOTTOM
 10
0.0
 20
0.0
 30
0.0
  9
$PUCSORGLEFT
 10
0.0
 20
0.0
 30
0.0
  9
$PUCSORGRIGHT
 10
0.0
 20
0.0
 30
0.0
  9
$PUCSORGFRONT
 10
0.0
 20
0.0
 30
0.0
  9
$PUCSORGBACK
 10
0.0
 20
0.0
 30
0.0
  9
$USERI1
 70
     0
  9
$USERI2
 70
     0
  9
$USERI3
 70
     0
  9
$USERI4
 70
     0
  9
$USERI5
 70
     0
  9
$USERR1
 40
0.0
  9
$USERR2
 40
0.0
  9
$USERR3
 40
0.0
  9
$USERR4
 40
0.0
  9
$USERR5
 40
0.0
  9
$WORLDVIEW
 70
     1
  9
$SHADEDGE
 70
     3
  9
$SHADEDIF
 70
    70
  9
$TILEMODE
 70
     1
  9
$MAXACTVP
 70
    64
  9
$PINSBASE
 10
0.0
 20
0.0
 30
0.0
  9
$PLIMCHECK
 70
     0
  9
$PEXTMIN
 10
1.000000000000000E+20
 20
1.000000000000000E+20
 30
1.000000000000000E+20
  9
$PEXTMAX
 10
-1.000000000000000E+20
 20
-1.000000000000000E+20
 30
-1.000000000000000E+20
  9
$PLIMMIN
 10
0.0
 20
0.0
  9
$PLIMMAX
 10
12.0
 20
9.0
  9
$UNITMODE
 70
     0
  9
$VISRETAIN
 70
     1
  9
$PLINEGEN
 70
     0
  9
$PSLTSCALE
 70
     1
  9
$TREEDEPTH
 70
  3020
  9
$CMLSTYLE
  2
Standard
  9
$CMLJUST
 70
     0
  9
$CMLSCALE
 40
1.0
  9
$PROXYGRAPHICS
 70
     1
  9
$MEASUREMENT
 70
     0
  9
$CELWEIGHT
370
    -1
  9
$ENDCAPS
280
     0
  9
$JOINSTYLE
280
     0
  9
$LWDISPLAY
290
     1
  9
$INSUNITS
 70
     1
  9
$HYPERLINKBASE
  1

  9
$STYLESHEET
  1

  9
$XEDIT
290
     1
  9
$CEPSNTYPE
380
     0
  9
$PSTYLEMODE
290
     1
  9
$FINGERPRINTGUID
  2
{07622D39-C035-7EC4-E398-29AB9FC04387}
  9
$VERSIONGUID
  2
{FAEB1C32-E019-11D5-929B-00C0DF256EC4}
  9
$EXTNAMES
290
     1
  9
$PSVPSCALE
 40
0.0
  9
$OLESTARTUP
290
     0
  9
$SORTENTS
280
   127
  9
$INDEXCTL
280
     0
  9
$HIDETEXT
280
     1
  9
$XCLIPFRAME
280
     2
  9
$HALOGAP
280
     0
  9
$OBSCOLOR
 70
   257
  9
$OBSLTYPE
280
     0
  9
$INTERSECTIONDISPLAY
280
     0
  9
$INTERSECTIONCOLOR
 70
   257
  9
$DIMASSOC
280
     2
  9
$PROJECTNAME
  1

  9
$CAMERADISPLAY
290
     0
  9
$LENSLENGTH
 40
50.0
  9
$CAMERAHEIGHT
 40
0.0
  9
$STEPSPERSEC
 40
2.0
  9
$STEPSIZE
 40
6.0
  9
$3DDWFPREC
 40
2.0
  9
$PSOLWIDTH
 40
0.25
  9
$PSOLHEIGHT
 40
4.0
  9
$LOFTANG1
 40
1.570796326794897
  9
$LOFTANG2
 40
1.570796326794897
  9
$LOFTMAG1
 40
0.0
  9
$LOFTMAG2
 40
0.0
  9
$LOFTPARAM
 70
     7
  9
$LOFTNORMALS
280
     1
  9
$LATITUDE
 40
37.795
  9
$LONGITUDE
 40
-122.394
  9
$NORTHDIRECTION
 40
0.0
  9
$TIMEZONE
 70
 -8000
  9
$LIGHTGLYPHDISPLAY
280
     1
  9
$TILEMODELIGHTSYNCH
280
     1
  9
$CMATERIAL
347
3C
  9
$SOLIDHIST
280
     1
  9
$SHOWHIST
280
     1
  9
$DWFFRAME
280
     2
  9
$DGNFRAME
280
     2
  9
$REALWORLDSCALE
290
     1
  9
$INTERFERECOLOR
 62
   256
  9
$CSHADOW
280
     0
  9
$SHADOWPLANELOCATION
 40
0.0
  0
ENDSEC
  0
SECTION
  2
CLASSES
  0
CLASS
  1
ACDBDICTIONARYWDFLT
  2
AcDbDictionaryWithDefault
  3
ObjectDBX Classes
 90
        0
 91
        4
280
     0
281
     0
  0
CLASS
  1
VISUALSTYLE
  2
AcDbVisualStyle
  3
ObjectDBX Classes
 90
     4095
 91
        4
280
     0
281
     0
  0
CLASS
  1
MATERIAL
  2
AcDbMaterial
  3
ObjectDBX Classes
 90
     1153
 91
        4
280
     0
281
     0
  0
CLASS
  1
SUN
  2
AcDbSun
  3
SCENEOE
 90
     1024
 91
        4
280
     0
281
     0
  0
ENDSEC
  0
SECTION
  2
TABLES
  0
TABLE
  2
VPORT
  5
8
330
0
100
AcDbSymbolTable
 70
     1
  0
VPORT
  5
29
330
8
100
AcDbSymbolTableRecord
100
AcDbViewportTableRecord
  2
*Active
 70
     0
 10
0.0
 20
0.0
 11
1.0
 21
1.0
 12
0.0
 22
0.0
 13
0.0
 23
0.0
 14
0.5
 24
0.5
 15
0.5
 25
0.5
 16
0.0
 26
0.0
 36
1.0
 17
91.00082462281999
 27
-128.4993055234307
 37
0.0
 40
256.9986110468615
 41
0.7081814508812795
 42
50.0
 43
0.0
 44
0.0
 50
0.0
 51
0.0
 71
     0
 72
   100
 73
     1
 74
     3
 75
     0
 76
     0
 77
     0
 78
     0
281
     0
 65
     1
110
0.0
120
0.0
130
0.0
111
1.0
121
0.0
131
0.0
112
0.0
122
1.0
132
0.0
 79
     0
146
0.0
 60
     3
 61
     5
292
     1
282
     1
141
0.0
142
0.0
 63
   250
361
3F
  0
ENDTAB
  0
TABLE
  2
LTYPE
  5
5
330
0
100
AcDbSymbolTable
 70
     1
  0
LTYPE
  5
14
330
5
100
AcDbSymbolTableRecord
100
AcDbLinetypeTableRecord
  2
ByBlock
 70
     0
  3

 72
    65
 73
     0
 40
0.0
  0
LTYPE
  5
15
330
5
100
AcDbSymbolTableRecord
100
AcDbLinetypeTableRecord
  2
ByLayer
 70
     0
  3

 72
    65
 73
     0
 40
0.0
  0
LTYPE
  5
16
330
5
100
AcDbSymbolTableRecord
100
AcDbLinetypeTableRecord
  2
Continuous
 70
     0
  3
Solid line
 72
    65
 73
     0
 40
0.0
  0
ENDTAB
  0
TABLE
  2
LAYER
  5
2
330
0
100
AcDbSymbolTable
 70
     2
  0
LAYER
  5
10
330
2
100
AcDbSymbolTableRecord
100
AcDbLayerTableRecord
  2
0
 70
     0
 62
     7
  6
Continuous
370
    -3
390
F
347
3E
  0
LAYER
  5
40
330
2
100
AcDbSymbolTableRecord
100
AcDbLayerTableRecord
  2
_U+30EC_U+30A4_U+30E4_U+30FC 1
 70
     0
 62
     7
  6
Continuous
370
    -3
390
F
347
3E
  0
ENDTAB
  0
TABLE
  2
STYLE
  5
3
330
0
100
AcDbSymbolTable
 70
     1
  0
STYLE
  5
11
330
3
100
AcDbSymbolTableRecord
100
AcDbTextStyleTableRecord
  2
Standard
 70
     0
 40
0.0
 41
1.0
 50
0.0
 71
     0
 42
0.2
  3
txt
  4

  0
ENDTAB
  0
TABLE
  2
VIEW
  5
6
330
0
100
AcDbSymbolTable
 70
     0
  0
ENDTAB
  0
TABLE
  2
UCS
  5
7
330
0
100
AcDbSymbolTable
 70
     0
  0
ENDTAB
  0
TABLE
  2
APPID
  5
9
330
0
100
AcDbSymbolTable
 70
     1
  0
APPID
  5
12
330
9
100
AcDbSymbolTableRecord
100
AcDbRegAppTableRecord
  2
ACAD
 70
     0
  0
ENDTAB
  0
TABLE
  2
DIMSTYLE
  5
A
330
0
100
AcDbSymbolTable
 70
     1
100
AcDbDimStyleTable
  0
DIMSTYLE
105
27
330
A
100
AcDbSymbolTableRecord
100
AcDbDimStyleTableRecord
  2
Standard
 70
     0
178
     0
340
11
  0
ENDTAB
  0
TABLE
  2
BLOCK_RECORD
  5
1
330
0
100
AcDbSymbolTable
 70
    16
  0
BLOCK_RECORD
  5
1F
330
1
100
AcDbSymbolTableRecord
100
AcDbBlockTableRecord
  2
*Model_Space
340
22
 70
     0
280
     1
281
     0
  0
BLOCK_RECORD
  5
1B
330
1
100
AcDbSymbolTableRecord
100
AcDbBlockTableRecord
  2
*Paper_Space
340
1E
 70
     0
280
     1
281
     0
  0
BLOCK_RECORD
  5
23
330
1
100
AcDbSymbolTableRecord
100
AcDbBlockTableRecord
  2
*Paper_Space0
340
26
 70
     0
280
     1
281
     0
  0
BLOCK_RECORD
  5
43
330
1
100
AcDbSymbolTableRecord
100
AcDbBlockTableRecord
  2
block 2
340
0
102
{BLKREFS
331
44
102
}
 70
     0
280
     1
281
     0
  0
BLOCK_RECORD
  5
87
330
1
100
AcDbSymbolTableRecord
100
AcDbBlockTableRecord
  2
block 3
340
0
102
{BLKREFS
331
88
102
}
 70
     0
280
     1
281
     0
  0
BLOCK_RECORD
  5
B4
330
1
100
AcDbSymbolTableRecord
100
AcDbBlockTableRecord
  2
block 4
340
0
102
{BLKREFS
331
B5
102
}
 70
     0
280
     1
281
     0
  0
BLOCK_RECORD
  5
BC
330
1
100
AcDbSymbolTableRecord
100
AcDbBlockTableRecord
  2
block 5
340
0
102
{BLKREFS
331
BD
102
}
 70
     0
280
     1
281
     0
  0
BLOCK_RECORD
  5
C1
330
1
100
AcDbSymbolTableRecord
100
AcDbBlockTableRecord
  2
block 6
340
0
102
{BLKREFS
331
C2
102
}
 70
     0
280
     1
281
     0
  0
BLOCK_RECORD
  5
C6
330
1
100
AcDbSymbolTableRecord
100
AcDbBlockTableRecord
  2
block 7
340
0
102
{BLKREFS
331
C7
102
}
 70
     0
280
     1
281
     0
  0
BLOCK_RECORD
  5
CB
330
1
100
AcDbSymbolTableRecord
100
AcDbBlockTableRecord
  2
block 8
340
0
102
{BLKREFS
331
CC
102
}
 70
     0
280
     1
281
     0
  0
BLOCK_RECORD
  5
DB
330
1
100
AcDbSymbolTableRecord
100
AcDbBlockTableRecord
  2
block 9
340
0
102
{BLKREFS
331
DC
102
}
 70
     0
280
     1
281
     0
  0
BLOCK_RECORD
  5
E3
330
1
100
AcDbSymbolTableRecord
100
AcDbBlockTableRecord
  2
block 10
340
0
102
{BLKREFS
331
E4
102
}
 70
     0
280
     1
281
     0
  0
BLOCK_RECORD
  5
E8
330
1
100
AcDbSymbolTableRecord
100
AcDbBlockTableRecord
  2
block 11
340
0
102
{BLKREFS
331
E9
102
}
 70
     0
280
     1
281
     0
  0
BLOCK_RECORD
  5
ED
330
1
100
AcDbSymbolTableRecord
100
AcDbBlockTableRecord
  2
block 12
340
0
102
{BLKREFS
331
EE
102
}
 70
     0
280
     1
281
     0
  0
BLOCK_RECORD
  5
FE
330
1
100
AcDbSymbolTableRecord
100
AcDbBlockTableRecord
  2
block 13
340
0
102
{BLKREFS
331
FF
102
}
 70
     0
280
     1
281
     0
  0
BLOCK_RECORD
  5
106
330
1
100
AcDbSymbolTableRecord
100
AcDbBlockTableRecord
  2
block 14
340
0
102
{BLKREFS
331
107
102
}
 70
     0
280
     1
281
     0
  0
BLOCK_RECORD
  5
10B
330
1
100
AcDbSymbolTableRecord
100
AcDbBlockTableRecord
  2
block 15
340
0
102
{BLKREFS
331
10C
102
}
 70
     0
280
     1
281
     0
  0
BLOCK_RECORD
  5
110
330
1
100
AcDbSymbolTableRecord
100
AcDbBlockTableRecord
  2
block 16
340
0
102
{BLKREFS
331
111
102
}
 70
     0
280
     1
281
     0
  0
ENDTAB
  0
ENDSEC
  0
SECTION
  2
BLOCKS
  0
BLOCK
  5
20
330
1F
100
AcDbEntity
  8
0
100
AcDbBlockBegin
  2
*Model_Space
 70
     0
 10
0.0
 20
0.0
 30
0.0
  3
*Model_Space
  1

  0
ENDBLK
  5
21
330
1F
100
AcDbEntity
  8
0
100
AcDbBlockEnd
  0
BLOCK
  5
1C
330
1B
100
AcDbEntity
 67
     1
  8
0
100
AcDbBlockBegin
  2
*Paper_Space
 70
     0
 10
0.0
 20
0.0
 30
0.0
  3
*Paper_Space
  1

  0
ENDBLK
  5
1D
330
1B
100
AcDbEntity
 67
     1
  8
0
100
AcDbBlockEnd
  0
BLOCK
  5
24
330
23
100
AcDbEntity
  8
0
100
AcDbBlockBegin
  2
*Paper_Space0
 70
     0
 10
0.0
 20
0.0
 30
0.0
  3
*Paper_Space0
  1

  0
ENDBLK
  5
25
330
23
100
AcDbEntity
  8
0
100
AcDbBlockEnd
  0
BLOCK
  5
45
330
43
100
AcDbEntity
  8
0
100
AcDbBlockBegin
  2
block 2
 70
     0
 10
0.0
 20
0.0
 30
0.0
  3
block 2
  1

  0
POLYLINE
  5
47
330
43
100
AcDbEntity
  8
_U+30EC_U+30A4_U+30E4_U+30FC 1
 62
   179
420
  2234388
370
    25
100
AcDb2dPolyline
 66
     1
 10
0.0
 20
0.0
 30
0.0
  0
VERTEX
  5
48
330
47
100
AcDbEntity
  8
_U+30EC_U+30A4_U+30E4_U+30FC 1
 62
   179
420
  2234388
370
    25
100
AcDbVertex
100
AcDb2dVertex
 10
95.1538656279782
 20
-126.5588513572491
 30
0.0
  0
VERTEX
  5
49
330
47
100
AcDbEntity
  8
_U+30EC_U+30A4_U+30E4_U+30FC 1
 62
   179
420
  2234388
370
    25
100
AcDbVertex
100
AcDb2dVertex
 10
95.1538656279782
 20
-133.0588877445133
 30
0.0
  0
SEQEND
  5
4A
330
47
100
AcDbEntity
  8
_U+30EC_U+30A4_U+30E4_U+30FC 1
 62
   179
420
  2234388
370
    25
  0
POLYLINE
  5
4B
330
43
100
AcDbEntity
  8
_U+30EC_U+30A4_U+30E4_U+30FC 1
 62
   179
420
  2234388
370
    25
100
AcDb2dPolyline
 66
     1
 10
0.0
 20
0.0
 30
0.0
  0
VERTEX
  5
4C
330
4B
100
AcDbEntity
  8
_U+30EC_U+30A4_U+30E4_U+30FC 1
 62
   179
420
  2234388
370
    25
100
AcDbVertex
100
AcDb2dVertex
 10
82.65438483575541
 20
-126.5588513572491
 30
0.0
  0
VERTEX
  5
4D
330
4B
100
AcDbEntity
  8
_U+30EC_U+30A4_U+30E4_U+30FC 1
 62
   179
420
  2234388
370
    25
100
AcDbVertex
100
AcDb2dVertex
 10
95.1538656279782
 20
-126.5588513572491
 30
0.0
  0
SEQEND
  5
4E
330
4B
100
AcDbEntity
  8
_U+30EC_U+30A4_U+30E4_U+30FC 1
 62
   179
420
  2234388
370
    25
  0
POLYLINE
  5
4F
330
43
100
AcDbEntity
  8
_U+30EC_U+30A4_U+30E4_U+30FC 1
 62
   179
420
  2234388
370
    25
100
AcDb2dPolyline
 66
     1
 10
0.0
 20
0.0
 30
0.0
  0
VERTEX
  5
50
330
4F
100
AcDbEntity
  8
_U+30EC_U+30A4_U+30E4_U+30FC 1
 62
   179
420
  2234388
370
    25
100
AcDbVertex
100
AcDb2dVertex
 10
92.1538787600698
 20
-131.9337383003497
 30
0.0
  0
VERTEX
  5
51
330
4F
100
AcDbEntity
  8
_U+30EC_U+30A4_U+30E4_U+30FC 1
 62
   179
420
  2234388
370
    25
100
AcDbVertex
100
AcDb2dVertex
 10
92.1538787600698
 20
-133.0588877445133
 30
0.0
  0
SEQEND
  5
52
330
4F
100
AcDbEntity
  8
_U+30EC_U+30A4_U+30E4_U+30FC 1
 62
   179
420
  2234388
370
    25
  0
POLYLINE
  5
53
330
43
100
AcDbEntity
  8
_U+30EC_U+30A4_U+30E4_U+30FC 1
 62
   179
420
  2234388
370
    25
100
AcDb2dPolyline
 66
     1
 10
0.0
 20
0.0
 30
0.0
  0
VERTEX
  5
54
330
53
100
AcDbEntity
  8
_U+30EC_U+30A4_U+30E4_U+30FC 1
 62
   179
420
  2234388
370
    25
100
AcDbVertex
100
AcDb2dVertex
 10
83.40403759440795
 20
-127.3088569126173
 30
0.0
  0
VERTEX
  5
55
330
53
100
AcDbEntity
  8
_U+30EC_U+30A4_U+30E4_U+30FC 1
 62
   179
420
  2234388
370
    25
100
AcDbVertex
100
AcDb2dVertex
 10
94.40354259156499
 20
-127.3088569126173
 30
0.0
  0
SEQEND
  5
56
330
53
100
AcDbEntity
  8
_U+30EC_U+30A4_U+30E4_U+30FC 1
 62
   179
420
  2234388
370
    25
  0
POLYLINE
  5
57
330
43
100
AcDbEntity
  8
_U+30EC_U+30A4_U+30E4_U+30FC 1
 62
   179
420
  2234388
370
    25
100
AcDb2dPolyline
 66
     1
 10
0.0
 20
0.0
 30
0.0
  0
VERTEX
  5
58
330
57
100
AcDbEntity
  8
_U+30EC_U+30A4_U+30E4_U+30FC 1
 62
   179
420
  2234388
370
    25
100
AcDbVertex
100
AcDb2dVertex
 10
94.40354259156499
 20
-127.3088569126173
 30
0.0
  0
VERTEX
  5
59
330
57
100
AcDbEntity
  8
_U+30EC_U+30A4_U+30E4_U+30FC 1
 62
   179
420
  2234388
370
    25
100
AcDbVertex
100
AcDb2dVertex
 10
94.40354259156499
 20
-132.3088821891452
 30
0.0
  0
SEQEND
  5
5A
330
57
100
AcDbEntity
  8
_U+30EC_U+30A4_U+30E4_U+30FC 1
 62
   179
420
  2234388
370
    25
  0
POLYLINE
  5
5B
330
43
100
AcDbEntity
  8
_U+30EC_U+30A4_U+30E4_U+30FC 1
 62
   179
420
  2234388
370
    25
100
AcDb2dPolyline
 66
     1
 10
0.0
 20
0.0
 30
0.0
  0
VERTEX
  5
5C
330
5B
100
AcDbEntity
  8
_U+30EC_U+30A4_U+30E4_U+30FC 1
 62
   179
420
  2234388
370
    25
100
AcDbVertex
100
AcDb2dVertex
 10
92.90353151872235
 20
-131.9337383003497
 30
0.0
  0
VERTEX
  5
5D
330
5B
100
AcDbEntity
  8
_U+30EC_U+30A4_U+30E4_U+30FC 1
 62
   179
420
  2234388
370
    25
100
AcDbVertex
100
AcDb2dVertex
 10
92.90353151872235
 20
-132.3088821891452
 30
0.0
  0
SEQEND
  5
5E
330
5B
100
AcDbEntity
  8
_U+30EC_U+30A4_U+30E4_U+30FC 1
 62
   179
420
  2234388
370
    25
  0
POLYLINE
  5
5F
330
43
100
AcDbEntity
  8
_U+30EC_U+30A4_U+30E4_U+30FC 1
 62
   179
420
  2234388
370
    25
100
AcDb2dPolyline
 66
     1
 10
0.0
 20
0.0
 30
0.0
  0
VERTEX
  5
60
330
5F
100
AcDbEntity
  8
_U+30EC_U+30A4_U+30E4_U+30FC 1
 62
   179
420
  2234388
370
    25
100
AcDbVertex
100
AcDb2dVertex
 10
92.90353151872235
 20
-132.3088821891452
 30
0.0
  0
VERTEX
  5
61
330
5F
100
AcDbEntity
  8
_U+30EC_U+30A4_U+30E4_U+30FC 1
 62
   179
420
  2234388
370
    25
100
AcDbVertex
100
AcDb2dVertex
 10
94.40354259156499
 20
-132.3088821891452
 30
0.0
  0
SEQEND
  5
62
330
5F
100
AcDbEntity
  8
_U+30EC_U+30A4_U+30E4_U+30FC 1
 62
   179
420
  2234388
370
    25
  0
POLYLINE
  5
63
330
43
100
AcDbEntity
  8
_U+30EC_U+30A4_U+30E4_U+30FC 1
 62
   179
420
  2234388
370
    25
100
AcDb2dPolyline
 66
     1
 10
0.0
 20
0.0
 30
0.0
  0
VERTEX
  5
64
330
63
100
AcDbEntity
  8
_U+30EC_U+30A4_U+30E4_U+30FC 1
 62
   179
420
  2234388
370
    25
100
AcDbVertex
100
AcDb2dVertex
 10
92.1538787600698
 20
-133.0588877445133
 30
0.0
  0
VERTEX
  5
65
330
63
100
AcDbEntity
  8
_U+30EC_U+30A4_U+30E4_U+30FC 1
 62
   179
420
  2234388
370
    25
100
AcDbVertex
100
AcDb2dVertex
 10
95.1538656279782
 20
-133.0588877445133
 30
0.0
  0
SEQEND
  5
66
330
63
100
AcDbEntity
  8
_U+30EC_U+30A4_U+30E4_U+30FC 1
 62
   179
420
  2234388
370
    25
  0
POLYLINE
  5
67
330
43
100
AcDbEntity
  8
_U+30EC_U+30A4_U+30E4_U+30FC 1
 62
   179
420
  2234388
370
    25
100
AcDb2dPolyline
 66
     1
 10
0.0
 20
0.0
 30
0.0
  0
VERTEX
  5
68
330
67
100
AcDbEntity
  8
_U+30EC_U+30A4_U+30E4_U+30FC 1
 62
   179
420
  2234388
370
    25
100
AcDbVertex
100
AcDb2dVertex
 10
85.65437170366381
 20
-133.0588877445133
 30
0.0
  0
VERTEX
  5
69
330
67
100
AcDbEntity
  8
_U+30EC_U+30A4_U+30E4_U+30FC 1
 62
   179
420
  2234388
370
    25
100
AcDbVertex
100
AcDb2dVertex
 10
82.65438483575541
 20
-133.0588877445133
 30
0.0
  0
SEQEND
  5
6A
330
67
100
AcDbEntity
  8
_U+30EC_U+30A4_U+30E4_U+30FC 1
 62
   179
420
  2234388
370
    25
  0
POLYLINE
  5
6B
330
43
100
AcDbEntity
  8
_U+30EC_U+30A4_U+30E4_U+30FC 1
 62
   179
420
  2234388
370
    25
100
AcDb2dPolyline
 66
     1
 10
0.0
 20
0.0
 30
0.0
  0
VERTEX
  5
6C
330
6B
100
AcDbEntity
  8
_U+30EC_U+30A4_U+30E4_U+30FC 1
 62
   179
420
  2234388
370
    25
100
AcDbVertex
100
AcDb2dVertex
 10
84.90404866725059
 20
-131.9337383003497
 30
0.0
  0
VERTEX
  5
6D
330
6B
100
AcDbEntity
  8
_U+30EC_U+30A4_U+30E4_U+30FC 1
 62
   179
420
  2234388
370
    25
100
AcDbVertex
100
AcDb2dVertex
 10
84.90404866725059
 20
-132.3088821891452
 30
0.0
  0
SEQEND
  5
6E
330
6B
100
AcDbEntity
  8
_U+30EC_U+30A4_U+30E4_U+30FC 1
 62
   179
420
  2234388
370
    25
  0
POLYLINE
  5
6F
330
43
100
AcDbEntity
  8
_U+30EC_U+30A4_U+30E4_U+30FC 1
 62
   179
420
  2234388
370
    25
100
AcDb2dPolyline
 66
     1
 10
0.0
 20
0.0
 30
0.0
  0
VERTEX
  5
70
330
6F
100
AcDbEntity
  8
_U+30EC_U+30A4_U+30E4_U+30FC 1
 62
   179
420
  2234388
370
    25
100
AcDbVertex
100
AcDb2dVertex
 10
83.40403759440795
 20
-127.3088569126173
 30
0.0
  0
VERTEX
  5
71
330
6F
100
AcDbEntity
  8
_U+30EC_U+30A4_U+30E4_U+30FC 1
 62
   179
420
  2234388
370
    25
100
AcDbVertex
100
AcDb2dVertex
 10
83.40403759440795
 20
-132.3088821891452
 30
0.0
  0
SEQEND
  5
72
330
6F
100
AcDbEntity
  8
_U+30EC_U+30A4_U+30E4_U+30FC 1
 62
   179
420
  2234388
370
    25
  0
POLYLINE
  5
73
330
43
100
AcDbEntity
  8
_U+30EC_U+30A4_U+30E4_U+30FC 1
 62
   179
420
  2234388
370
    25
100
AcDb2dPolyline
 66
     1
 10
0.0
 20
0.0
 30
0.0
  0
VERTEX
  5
74
330
73
100
AcDbEntity
  8
_U+30EC_U+30A4_U+30E4_U+30FC 1
 62
   179
420
  2234388
370
    25
100
AcDbVertex
100
AcDb2dVertex
 10
85.65437170366381
 20
-131.9337383003497
 30
0.0
  0
VERTEX
  5
75
330
73
100
AcDbEntity
  8
_U+30EC_U+30A4_U+30E4_U+30FC 1
 62
   179
420
  2234388
370
    25
100
AcDbVertex
100
AcDb2dVertex
 10
85.65437170366381
 20
-133.0588877445133
 30
0.0
  0
SEQEND
  5
76
330
73
100
AcDbEntity
  8
_U+30EC_U+30A4_U+30E4_U+30FC 1
 62
   179
420
  2234388
370
    25
  0
POLYLINE
  5
77
330
43
100
AcDbEntity
  8
_U+30EC_U+30A4_U+30E4_U+30FC 1
 62
   179
420
  2234388
370
    25
100
AcDb2dPolyline
 66
     1
 10
0.0
 20
0.0
 30
0.0
  0
VERTEX
  5
78
330
77
100
AcDbEntity
  8
_U+30EC_U+30A4_U+30E4_U+30FC 1
 62
   179
420
  2234388
370
    25
100
AcDbVertex
100
AcDb2dVertex
 10
82.65438483575541
 20
-126.5588513572491
 30
0.0
  0
VERTEX
  5
79
330
77
100
AcDbEntity
  8
_U+30EC_U+30A4_U+30E4_U+30FC 1
 62
   179
420
  2234388
370
    25
100
AcDbVertex
100
AcDb2dVertex
 10
82.65438483575541
 20
-133.0588877445133
 30
0.0
  0
SEQEND
  5
7A
330
77
100
AcDbEntity
  8
_U+30EC_U+30A4_U+30E4_U+30FC 1
 62
   179
420
  2234388
370
    25
  0
POLYLINE
  5
7B
330
43
100
AcDbEntity
  8
_U+30EC_U+30A4_U+30E4_U+30FC 1
 62
   179
420
  2234388
370
    25
100
AcDb2dPolyline
 66
     1
 10
0.0
 20
0.0
 30
0.0
  0
VERTEX
  5
7C
330
7B
100
AcDbEntity
  8
_U+30EC_U+30A4_U+30E4_U+30FC 1
 62
   179
420
  2234388
370
    25
100
AcDbVertex
100
AcDb2dVertex
 10
84.90404866725059
 20
-132.3088821891452
 30
0.0
  0
VERTEX
  5
7D
330
7B
100
AcDbEntity
  8
_U+30EC_U+30A4_U+30E4_U+30FC 1
 62
   179
420
  2234388
370
    25
100
AcDbVertex
100
AcDb2dVertex
 10
83.40403759440795
 20
-132.3088821891452
 30
0.0
  0
SEQEND
  5
7E
330
7B
100
AcDbEntity
  8
_U+30EC_U+30A4_U+30E4_U+30FC 1
 62
   179
420
  2234388
370
    25
  0
SPLINE
  5
7F
330
43
100
AcDbEntity
  8
_U+30EC_U+30A4_U+30E4_U+30FC 1
 62
   179
420
  2234388
370
    25
100
AcDbSpline
210
0.0
220
0.0
230
1.0
 70
     8
 71
     3
 72
    11
 73
     7
 74
     0
 42
0.0000000001
 43
0.0000000001
 12
1.0
 22
0.0
 32
0.0
 13
1.0
 23
0.0
 33
0.0
 40
0.0
 40
0.0
 40
0.0
 40
0.0
 40
1.0
 40
1.0
 40
1.0
 40
2.0
 40
2.0
 40
2.0
 40
2.0
 10
92.90353151872235
 20
-131.9337383003497
 30
0.0
 10
92.90353151872235
 20
-131.7266577448461
 30
0.0
 10
92.73543291189978
 20
-131.5589119115546
 30
0.0
 10
92.52870513939607
 20
-131.5589119115546
 30
0.0
 10
92.32130708913168
 20
-131.5589119115546
 30
0.0
 10
92.1538787600698
 20
-131.7266577448461
 30
0.0
 10
92.1538787600698
 20
-131.9337383003497
 30
0.0
  0
SPLINE
  5
80
330
43
100
AcDbEntity
  8
_U+30EC_U+30A4_U+30E4_U+30FC 1
 62
   179
420
  2234388
370
    25
100
AcDbSpline
210
0.0
220
0.0
230
1.0
 70
     8
 71
     3
 72
    11
 73
     7
 74
     0
 42
0.0000000001
 43
0.0000000001
 12
1.0
 22
0.0
 32
0.0
 13
1.0
 23
0.0
 33
0.0
 40
0.0
 40
0.0
 40
0.0
 40
0.0
 40
1.0
 40
1.0
 40
1.0
 40
2.0
 40
2.0
 40
2.0
 40
2.0
 10
85.65437170366381
 20
-131.9337383003497
 30
0.0
 10
85.65437170366381
 20
-131.7266577448461
 30
0.0
 10
85.48623781906437
 20
-131.5589119115546
 30
0.0
 10
85.27887504657687
 20
-131.5589119115546
 30
0.0
 10
85.07214727407315
 20
-131.5589119115546
 30
0.0
 10
84.90404866725059
 20
-131.7266577448461
 30
0.0
 10
84.90404866725059
 20
-131.9337383003497
 30
0.0
  0
SPLINE
  5
81
330
43
100
AcDbEntity
  8
_U+30EC_U+30A4_U+30E4_U+30FC 1
 62
   179
420
  2234388
370
     9
100
AcDbSpline
210
0.0
220
0.0
230
1.0
 70
    11
 71
     3
 72
    17
 73
    13
 74
     0
 42
0.0000000001
 43
0.0000000001
 12
1.0
 22
0.0
 32
0.0
 13
1.0
 23
0.0
 33
0.0
 40
0.0
 40
0.0
 40
0.0
 40
0.0
 40
1.0
 40
1.0
 40
1.0
 40
2.0
 40
2.0
 40
2.0
 40
3.0
 40
3.0
 40
3.0
 40
4.0
 40
4.0
 40
4.0
 40
4.0
 10
85.70397225795395
 20
-135.0587849662355
 30
0.0
 10
85.70397225795395
 20
-135.0311977440202
 30
0.0
 10
85.68192364740536
 20
-135.0087963551368
 30
0.0
 10
85.65437170366381
 20
-135.0087963551368
 30
0.0
 10
85.62681975992228
 20
-135.0087963551368
 30
0.0
 10
85.60406559383613
 20
-135.0311977440202
 30
0.0
 10
85.60406559383613
 20
-135.0587849662355
 30
0.0
 10
85.60406559383613
 20
-135.0863369106727
 30
0.0
 10
85.62681975992228
 20
-135.108738299556
 30
0.0
 10
85.65437170366381
 20
-135.108738299556
 30
0.0
 10
85.68192364740536
 20
-135.108738299556
 30
0.0
 10
85.70397225795395
 20
-135.0863369106727
 30
0.0
 10
85.70397225795395
 20
-135.0587849662355
 30
0.0
  0
SPLINE
  5
82
330
43
100
AcDbEntity
  8
_U+30EC_U+30A4_U+30E4_U+30FC 1
 62
   179
420
  2234388
370
     9
100
AcDbSpline
210
0.0
220
0.0
230
1.0
 70
    11
 71
     3
 72
    17
 73
    13
 74
     0
 42
0.0000000001
 43
0.0000000001
 12
1.0
 22
0.0
 32
0.0
 13
1.0
 23
0.0
 33
0.0
 40
0.0
 40
0.0
 40
0.0
 40
0.0
 40
1.0
 40
1.0
 40
1.0
 40
2.0
 40
2.0
 40
2.0
 40
3.0
 40
3.0
 40
3.0
 40
4.0
 40
4.0
 40
4.0
 40
4.0
 10
92.20351459213681
 20
-135.0587849662355
 30
0.0
 10
92.20351459213681
 20
-135.0311977440202
 30
0.0
 10
92.1814659815882
 20
-135.0087963551368
 30
0.0
 10
92.1538787600698
 20
-135.0087963551368
 30
0.0
 10
92.12632681632826
 20
-135.0087963551368
 30
0.0
 10
92.10360792801897
 20
-135.0311977440202
 30
0.0
 10
92.10360792801897
 20
-135.0587849662355
 30
0.0
 10
92.10360792801897
 20
-135.0863369106727
 30
0.0
 10
92.12632681632826
 20
-135.108738299556
 30
0.0
 10
92.1538787600698
 20
-135.108738299556
 30
0.0
 10
92.1814659815882
 20
-135.108738299556
 30
0.0
 10
92.20351459213681
 20
-135.0863369106727
 30
0.0
 10
92.20351459213681
 20
-135.0587849662355
 30
0.0
  0
SPLINE
  5
83
330
43
100
AcDbEntity
  8
_U+30EC_U+30A4_U+30E4_U+30FC 1
 62
   179
420
  2234388
370
     9
100
AcDbSpline
210
0.0
220
0.0
230
1.0
 70
    11
 71
     3
 72
    17
 73
    13
 74
     0
 42
0.0000000001
 43
0.0000000001
 12
1.0
 22
0.0
 32
0.0
 13
1.0
 23
0.0
 33
0.0
 40
0.0
 40
0.0
 40
0.0
 40
0.0
 40
1.0
 40
1.0
 40
1.0
 40
2.0
 40
2.0
 40
2.0
 40
3.0
 40
3.0
 40
3.0
 40
4.0
 40
4.0
 40
4.0
 40
4.0
 10
80.70447627439061
 20
-133.0588877445133
 30
0.0
 10
80.70447627439061
 20
-133.0313358000755
 30
0.0
 10
80.68172210830446
 20
-133.0089344111922
 30
0.0
 10
80.65417220205876
 20
-133.0089344111922
 30
0.0
 10
80.62661822082138
 20
-133.0089344111922
 30
0.0
 10
80.60386405473523
 20
-133.0313358000755
 30
0.0
 10
80.60386405473523
 20
-133.0588877445133
 30
0.0
 10
80.60386405473523
 20
-133.0864396889504
 30
0.0
 10
80.62661822082138
 20
-133.1088410778338
 30
0.0
 10
80.65417220205876
 20
-133.1088410778338
 30
0.0
 10
80.68172210830446
 20
-133.1088410778338
 30
0.0
 10
80.70447627439061
 20
-133.0864396889504
 30
0.0
 10
80.70447627439061
 20
-133.0588877445133
 30
0.0
  0
SPLINE
  5
84
330
43
100
AcDbEntity
  8
_U+30EC_U+30A4_U+30E4_U+30FC 1
 62
   179
420
  2234388
370
     9
100
AcDbSpline
210
0.0
220
0.0
230
1.0
 70
    11
 71
     3
 72
    17
 73
    13
 74
     0
 42
0.0000000001
 43
0.0000000001
 12
1.0
 22
0.0
 32
0.0
 13
1.0
 23
0.0
 33
0.0
 40
0.0
 40
0.0
 40
0.0
 40
0.0
 40
1.0
 40
1.0
 40
1.0
 40
2.0
 40
2.0
 40
2.0
 40
3.0
 40
3.0
 40
3.0
 40
4.0
 40
4.0
 40
4.0
 40
4.0
 10
80.70447627439061
 20
-126.5588513572491
 30
0.0
 10
80.70447627439061
 20
-126.5312994128117
 30
0.0
 10
80.68172210830446
 20
-126.5088980239283
 30
0.0
 10
80.65417220205876
 20
-126.5088980239283
 30
0.0
 10
80.62661822082138
 20
-126.5088980239283
 30
0.0
 10
80.60386405473523
 20
-126.5312994128117
 30
0.0
 10
80.60386405473523
 20
-126.5588513572491
 30
0.0
 10
80.60386405473523
 20
-126.5864033016866
 30
0.0
 10
80.62661822082138
 20
-126.60880469057
 30
0.0
 10
80.65417220205876
 20
-126.60880469057
 30
0.0
 10
80.68172210830446
 20
-126.60880469057
 30
0.0
 10
80.70447627439061
 20
-126.5864033016866
 30
0.0
 10
80.70447627439061
 20
-126.5588513572491
 30
0.0
  0
SPLINE
  5
85
330
43
100
AcDbEntity
  8
_U+30EC_U+30A4_U+30E4_U+30FC 1
 62
   179
420
  2234388
370
     9
100
AcDbSpline
210
0.0
220
0.0
230
1.0
 70
    11
 71
     3
 72
    17
 73
    13
 74
     0
 42
0.0000000001
 43
0.0000000001
 12
1.0
 22
0.0
 32
0.0
 13
1.0
 23
0.0
 33
0.0
 40
0.0
 40
0.0
 40
0.0
 40
0.0
 40
1.0
 40
1.0
 40
1.0
 40
2.0
 40
2.0
 40
2.0
 40
3.0
 40
3.0
 40
3.0
 40
4.0
 40
4.0
 40
4.0
 40
4.0
 10
82.70398539004555
 20
-124.558636635527
 30
0.0
 10
82.70398539004555
 20
-124.5310846910896
 30
0.0
 10
82.68193886821834
 20
-124.5086833022062
 30
0.0
 10
82.65438483575541
 20
-124.5086833022062
 30
0.0
 10
82.62683289201388
 20
-124.5086833022062
 30
0.0
 10
82.60407872592772
 20
-124.5310846910896
 30
0.0
 10
82.60407872592772
 20
-124.558636635527
 30
0.0
 10
82.60407872592772
 20
-124.5865413577422
 30
0.0
 10
82.62683289201388
 20
-124.6089427466256
 30
0.0
 10
82.65438483575541
 20
-124.6089427466256
 30
0.0
 10
82.68193886821834
 20
-124.6089427466256
 30
0.0
 10
82.70398539004555
 20
-124.5865413577422
 30
0.0
 10
82.70398539004555
 20
-124.558636635527
 30
0.0
  0
SPLINE
  5
86
330
43
100
AcDbEntity
  8
_U+30EC_U+30A4_U+30E4_U+30FC 1
 62
   179
420
  2234388
370
     9
100
AcDbSpline
210
0.0
220
0.0
230
1.0
 70
    11
 71
     3
 72
    17
 73
    13
 74
     0
 42
0.0000000001
 43
0.0000000001
 12
1.0
 22
0.0
 32
0.0
 13
1.0
 23
0.0
 33
0.0
 40
0.0
 40
0.0
 40
0.0
 40
0.0
 40
1.0
 40
1.0
 40
1.0
 40
2.0
 40
2.0
 40
2.0
 40
3.0
 40
3.0
 40
3.0
 40
4.0
 40
4.0
 40
4.0
 40
4.0
 10
95.20350146004522
 20
-124.558636635527
 30
0.0
 10
95.20350146004522
 20
-124.5310846910896
 30
0.0
 10
95.18145284949661
 20
-124.5086833022062
 30
0.0
 10
95.1538656279782
 20
-124.5086833022062
 30
0.0
 10
95.12631368423666
 20
-124.5086833022062
 30
0.0
 10
95.10359719844602
 20
-124.5310846910896
 30
0.0
 10
95.10359719844602
 20
-124.558636635527
 30
0.0
 10
95.10359719844602
 20
-124.5865413577422
 30
0.0
 10
95.12631368423666
 20
-124.6089427466256
 30
0.0
 10
95.1538656279782
 20
-124.6089427466256
 30
0.0
 10
95.18145284949661
 20
-124.6089427466256
 30
0.0
 10
95.20350146004522
 20
-124.5865413577422
 30
0.0
 10
95.20350146004522
 20
-124.558636635527
 30
0.0
  0
INSERT
  5
88
330
43
100
AcDbEntity
  8
_U+30EC_U+30A4_U+30E4_U+30FC 1
100
AcDbBlockReference
  2
block 3
 10
0.0
 20
0.0
 30
0.0
  0
POLYLINE
  5
A8
330
43
100
AcDbEntity
  8
_U+30EC_U+30A4_U+30E4_U+30FC 1
 62
   179
420
  2234388
370
     9
100
AcDb2dPolyline
 66
     1
 10
0.0
 20
0.0
 30
0.0
  0
VERTEX
  5
A9
330
A8
100
AcDbEntity
  8
_U+30EC_U+30A4_U+30E4_U+30FC 1
 62
   179
420
  2234388
370
     9
100
AcDbVertex
100
AcDb2dVertex
 10
82.65438483575541
 20
-124.558636635527
 30
0.0
  0
VERTEX
  5
AA
330
A8
100
AcDbEntity
  8
_U+30EC_U+30A4_U+30E4_U+30FC 1
 62
   179
420
  2234388
370
     9
100
AcDbVertex
100
AcDb2dVertex
 10
95.1538656279782
 20
-124.558636635527
 30
0.0
  0
SEQEND
  5
AB
330
A8
100
AcDbEntity
  8
_U+30EC_U+30A4_U+30E4_U+30FC 1
 62
   179
420
  2234388
370
     9
  0
POLYLINE
  5
AC
330
43
100
AcDbEntity
  8
_U+30EC_U+30A4_U+30E4_U+30FC 1
 62
   179
420
  2234388
370
     9
100
AcDb2dPolyline
 66
     1
 10
0.0
 20
0.0
 30
0.0
  0
VERTEX
  5
AD
330
AC
100
AcDbEntity
  8
_U+30EC_U+30A4_U+30E4_U+30FC 1
 62
   179
420
  2234388
370
     9
100
AcDbVertex
100
AcDb2dVertex
 10
82.65438483575541
 20
-125.2886396909001
 30
0.0
  0
VERTEX
  5
AE
330
AC
100
AcDbEntity
  8
_U+30EC_U+30A4_U+30E4_U+30FC 1
 62
   179
420
  2234388
370
     9
100
AcDbVertex
100
AcDb2dVertex
 10
82.65438483575541
 20
-124.0587505245408
 30
0.0
  0
SEQEND
  5
AF
330
AC
100
AcDbEntity
  8
_U+30EC_U+30A4_U+30E4_U+30FC 1
 62
   179
420
  2234388
370
     9
  0
POLYLINE
  5
B0
330
43
100
AcDbEntity
  8
_U+30EC_U+30A4_U+30E4_U+30FC 1
 62
   179
420
  2234388
370
     9
100
AcDb2dPolyline
 66
     1
 10
0.0
 20
0.0
 30
0.0
  0
VERTEX
  5
B1
330
B0
100
AcDbEntity
  8
_U+30EC_U+30A4_U+30E4_U+30FC 1
 62
   179
420
  2234388
370
     9
100
AcDbVertex
100
AcDb2dVertex
 10
95.1538656279782
 20
-125.2886396909001
 30
0.0
  0
VERTEX
  5
B2
330
B0
100
AcDbEntity
  8
_U+30EC_U+30A4_U+30E4_U+30FC 1
 62
   179
420
  2234388
370
     9
100
AcDbVertex
100
AcDb2dVertex
 10
95.1538656279782
 20
-124.0587505245408
 30
0.0
  0
SEQEND
  5
B3
330
B0
100
AcDbEntity
  8
_U+30EC_U+30A4_U+30E4_U+30FC 1
 62
   179
420
  2234388
370
     9
  0
INSERT
  5
B5
330
43
100
AcDbEntity
  8
_U+30EC_U+30A4_U+30E4_U+30FC 1
100
AcDbBlockReference
  2
block 4
 10
0.0
 20
0.0
 30
0.0
  0
INSERT
  5
BD
330
43
100
AcDbEntity
  8
_U+30EC_U+30A4_U+30E4_U+30FC 1
100
AcDbBlockReference
  2
block 5
 10
0.0
 20
0.0
 30
0.0
  0
INSERT
  5
C2
330
43
100
AcDbEntity
  8
_U+30EC_U+30A4_U+30E4_U+30FC 1
100
AcDbBlockReference
  2
block 6
 10
0.0
 20
0.0
 30
0.0
  0
INSERT
  5
C7
330
43
100
AcDbEntity
  8
_U+30EC_U+30A4_U+30E4_U+30FC 1
100
AcDbBlockReference
  2
block 7
 10
0.0
 20
0.0
 30
0.0
  0
INSERT
  5
CC
330
43
100
AcDbEntity
  8
_U+30EC_U+30A4_U+30E4_U+30FC 1
100
AcDbBlockReference
  2
block 8
 10
0.0
 20
0.0
 30
0.0
  0
POLYLINE
  5
F2
330
43
100
AcDbEntity
  8
_U+30EC_U+30A4_U+30E4_U+30FC 1
 62
   179
420
  2234388
370
     9
100
AcDb2dPolyline
 66
     1
 10
0.0
 20
0.0
 30
0.0
  0
VERTEX
  5
F3
330
F2
100
AcDbEntity
  8
_U+30EC_U+30A4_U+30E4_U+30FC 1
 62
   179
420
  2234388
370
     9
100
AcDbVertex
100
AcDb2dVertex
 10
80.65417220205876
 20
-126.5588513572491
 30
0.0
  0
VERTEX
  5
F4
330
F2
100
AcDbEntity
  8
_U+30EC_U+30A4_U+30E4_U+30FC 1
 62
   179
420
  2234388
370
     9
100
AcDbVertex
100
AcDb2dVertex
 10
80.65417220205876
 20
-133.0588877445133
 30
0.0
  0
SEQEND
  5
F5
330
F2
100
AcDbEntity
  8
_U+30EC_U+30A4_U+30E4_U+30FC 1
 62
   179
420
  2234388
370
     9
  0
POLYLINE
  5
F6
330
43
100
AcDbEntity
  8
_U+30EC_U+30A4_U+30E4_U+30FC 1
 62
   179
420
  2234388
370
     9
100
AcDb2dPolyline
 66
     1
 10
0.0
 20
0.0
 30
0.0
  0
VERTEX
  5
F7
330
F6
100
AcDbEntity
  8
_U+30EC_U+30A4_U+30E4_U+30FC 1
 62
   179
420
  2234388
370
     9
100
AcDbVertex
100
AcDb2dVertex
 10
81.38382042372577
 20
-126.5588513572491
 30
0.0
  0
VERTEX
  5
F8
330
F6
100
AcDbEntity
  8
_U+30EC_U+30A4_U+30E4_U+30FC 1
 62
   179
420
  2234388
370
     9
100
AcDbVertex
100
AcDb2dVertex
 10
80.15393331329473
 20
-126.5588513572491
 30
0.0
  0
SEQEND
  5
F9
330
F6
100
AcDbEntity
  8
_U+30EC_U+30A4_U+30E4_U+30FC 1
 62
   179
420
  2234388
370
     9
  0
POLYLINE
  5
FA
330
43
100
AcDbEntity
  8
_U+30EC_U+30A4_U+30E4_U+30FC 1
 62
   179
420
  2234388
370
     9
100
AcDb2dPolyline
 66
     1
 10
0.0
 20
0.0
 30
0.0
  0
VERTEX
  5
FB
330
FA
100
AcDbEntity
  8
_U+30EC_U+30A4_U+30E4_U+30FC 1
 62
   179
420
  2234388
370
     9
100
AcDbVertex
100
AcDb2dVertex
 10
81.38382042372577
 20
-133.0588877445133
 30
0.0
  0
VERTEX
  5
FC
330
FA
100
AcDbEntity
  8
_U+30EC_U+30A4_U+30E4_U+30FC 1
 62
   179
420
  2234388
370
     9
100
AcDbVertex
100
AcDb2dVertex
 10
80.15393331329473
 20
-133.0588877445133
 30
0.0
  0
SEQEND
  5
FD
330
FA
100
AcDbEntity
  8
_U+30EC_U+30A4_U+30E4_U+30FC 1
 62
   179
420
  2234388
370
     9
  0
INSERT
  5
FF
330
43
100
AcDbEntity
  8
_U+30EC_U+30A4_U+30E4_U+30FC 1
100
AcDbBlockReference
  2
block 13
 10
0.0
 20
0.0
 30
0.0
  0
INSERT
  5
107
330
43
100
AcDbEntity
  8
_U+30EC_U+30A4_U+30E4_U+30FC 1
100
AcDbBlockReference
  2
block 14
 10
0.0
 20
0.0
 30
0.0
  0
INSERT
  5
10C
330
43
100
AcDbEntity
  8
_U+30EC_U+30A4_U+30E4_U+30FC 1
100
AcDbBlockReference
  2
block 15
 10
0.0
 20
0.0
 30
0.0
  0
INSERT
  5
111
330
43
100
AcDbEntity
  8
_U+30EC_U+30A4_U+30E4_U+30FC 1
100
AcDbBlockReference
  2
block 16
 10
0.0
 20
0.0
 30
0.0
  0
ENDBLK
  5
46
330
43
100
AcDbEntity
  8
0
100
AcDbBlockEnd
  0
BLOCK
  5
89
330
87
100
AcDbEntity
  8
0
100
AcDbBlockBegin
  2
block 3
 70
     0
 10
0.0
 20
0.0
 30
0.0
  3
block 3
  1

  0
SPLINE
  5
8B
330
87
100
AcDbEntity
  8
_U+30EC_U+30A4_U+30E4_U+30FC 1
370
     0
100
AcDbSpline
210
0.0
220
0.0
230
1.0
 70
    11
 71
     3
 72
    53
 73
    49
 74
     0
 42
0.0000000001
 43
0.0000000001
 12
1.0
 22
0.0
 32
0.0
 13
1.0
 23
0.0
 33
0.0
 40
0.0
 40
0.0
 40
0.0
 40
0.0
 40
1.0
 40
1.0
 40
1.0
 40
2.0
 40
2.0
 40
2.0
 40
3.0
 40
3.0
 40
3.0
 40
4.0
 40
4.0
 40
4.0
 40
5.0
 40
5.0
 40
5.0
 40
6.0
 40
6.0
 40
6.0
 40
7.0
 40
7.0
 40
7.0
 40
8.0
 40
8.0
 40
8.0
 40
9.0
 40
9.0
 40
9.0
 40
10.0
 40
10.0
 40
10.0
 40
11.0
 40
11.0
 40
11.0
 40
12.0
 40
12.0
 40
12.0
 40
13.0
 40
13.0
 40
13.0
 40
14.0
 40
14.0
 40
14.0
 40
15.0
 40
15.0
 40
15.0
 40
16.0
 40
16.0
 40
16.0
 40
16.0
 10
96.02239038398052
 20
-131.9760958871449
 30
0.0
 10
96.02239038398052
 20
-131.9760958871449
 30
0.0
 10
96.02239038398052
 20
-132.6444444112833
 30
0.0
 10
96.02239038398052
 20
-132.6444444112833
 30
0.0
 10
96.02239038398052
 20
-132.7291937602205
 30
0.0
 10
96.07544485445337
 20
-132.7526204095202
 30
0.0
 10
96.14744735009509
 20
-132.7526204095202
 30
0.0
 10
96.15778263655083
 20
-132.7526204095202
 30
0.0
 10
96.18120928585054
 20
-132.7526204095202
 30
0.0
 10
96.21083710702368
 20
-132.7484862949379
 30
0.0
 10
96.21083710702368
 20
-132.7484862949379
 30
0.0
 10
96.21083710702368
 20
-132.9197075405548
 30
0.0
 10
96.21083710702368
 20
-132.9197075405548
 30
0.0
 10
96.17914222855939
 20
-132.9324543938502
 30
0.0
 10
96.10300561833536
 20
-132.942789680306
 30
0.0
 10
96.05201820515367
 20
-132.942789680306
 30
0.0
 10
95.86184893436787
 20
-132.942789680306
 30
0.0
 10
95.80466034931273
 20
-132.8180772237399
 30
0.0
 10
95.80466034931273
 20
-132.6699381178742
 30
0.0
 10
95.80466034931273
 20
-132.6699381178742
 30
0.0
 10
95.80466034931273
 20
-131.9760958871449
 30
0.0
 10
95.80466034931273
 20
-131.9760958871449
 30
0.0
 10
95.80466034931273
 20
-131.9760958871449
 30
0.0
 10
95.62275930769154
 20
-131.9760958871449
 30
0.0
 10
95.62275930769154
 20
-131.9760958871449
 30
0.0
 10
95.62275930769154
 20
-131.9760958871449
 30
0.0
 10
95.62275930769154
 20
-131.7838595590679
 30
0.0
 10
95.62275930769154
 20
-131.7838595590679
 30
0.0
 10
95.62275930769154
 20
-131.7838595590679
 30
0.0
 10
95.80466034931273
 20
-131.7838595590679
 30
0.0
 10
95.80466034931273
 20
-131.7838595590679
 30
0.0
 10
95.80466034931273
 20
-131.7838595590679
 30
0.0
 10
95.80466034931273
 20
-131.4682888126191
 30
0.0
 10
95.80466034931273
 20
-131.4682888126191
 30
0.0
 10
95.80466034931273
 20
-131.4682888126191
 30
0.0
 10
96.02239038398052
 20
-131.4682888126191
 30
0.0
 10
96.02239038398052
 20
-131.4682888126191
 30
0.0
 10
96.02239038398052
 20
-131.4682888126191
 30
0.0
 10
96.02239038398052
 20
-131.7838595590679
 30
0.0
 10
96.02239038398052
 20
-131.7838595590679
 30
0.0
 10
96.02239038398052
 20
-131.7838595590679
 30
0.0
 10
96.21083710702368
 20
-131.7838595590679
 30
0.0
 10
96.21083710702368
 20
-131.7838595590679
 30
0.0
 10
96.21083710702368
 20
-131.7838595590679
 30
0.0
 10
96.21083710702368
 20
-131.9760958871449
 30
0.0
 10
96.21083710702368
 20
-131.9760958871449
 30
0.0
 10
96.21083710702368
 20
-131.9760958871449
 30
0.0
 10
96.02239038398052
 20
-131.9760958871449
 30
0.0
 10
96.02239038398052
 20
-131.9760958871449
 30
0.0
  0
HATCH
  5
8C
330
87
100
AcDbEntity
  8
_U+30EC_U+30A4_U+30E4_U+30FC 1
 62
   179
420
  2234388
100
AcDbHatch
 10
0.0
 20
0.0
 30
0.0
210
0.0
220
0.0
230
1.0
  2
SOLID
 70
     1
 71
     0
 91
        1
 92
        1
 93
        1
 72
     4
 94
        3
 73
     0
 74
     1
 95
       53
 96
       49
 40
0.0
 40
0.0
 40
0.0
 40
0.0
 40
1.0
 40
1.0
 40
1.0
 40
2.0
 40
2.0
 40
2.0
 40
3.0
 40
3.0
 40
3.0
 40
4.0
 40
4.0
 40
4.0
 40
5.0
 40
5.0
 40
5.0
 40
6.0
 40
6.0
 40
6.0
 40
7.0
 40
7.0
 40
7.0
 40
8.0
 40
8.0
 40
8.0
 40
9.0
 40
9.0
 40
9.0
 40
10.0
 40
10.0
 40
10.0
 40
11.0
 40
11.0
 40
11.0
 40
12.0
 40
12.0
 40
12.0
 40
13.0
 40
13.0
 40
13.0
 40
14.0
 40
14.0
 40
14.0
 40
15.0
 40
15.0
 40
15.0
 40
16.0
 40
16.0
 40
16.0
 40
16.0
 10
96.02239038398052
 20
-131.9760958871449
 10
96.02239038398052
 20
-131.9760958871449
 10
96.02239038398052
 20
-132.6444444112833
 10
96.02239038398052
 20
-132.6444444112833
 10
96.02239038398052
 20
-132.7291937602205
 10
96.07544485445337
 20
-132.7526204095202
 10
96.14744735009509
 20
-132.7526204095202
 10
96.15778263655083
 20
-132.7526204095202
 10
96.18120928585054
 20
-132.7526204095202
 10
96.21083710702368
 20
-132.7484862949379
 10
96.21083710702368
 20
-132.7484862949379
 10
96.21083710702368
 20
-132.9197075405548
 10
96.21083710702368
 20
-132.9197075405548
 10
96.17914222855939
 20
-132.9324543938502
 10
96.10300561833536
 20
-132.942789680306
 10
96.05201820515367
 20
-132.942789680306
 10
95.86184893436787
 20
-132.942789680306
 10
95.80466034931273
 20
-132.8180772237399
 10
95.80466034931273
 20
-132.6699381178742
 10
95.80466034931273
 20
-132.6699381178742
 10
95.80466034931273
 20
-131.9760958871449
 10
95.80466034931273
 20
-131.9760958871449
 10
95.80466034931273
 20
-131.9760958871449
 10
95.62275930769154
 20
-131.9760958871449
 10
95.62275930769154
 20
-131.9760958871449
 10
95.62275930769154
 20
-131.9760958871449
 10
95.62275930769154
 20
-131.7838595590679
 10
95.62275930769154
 20
-131.7838595590679
 10
95.62275930769154
 20
-131.7838595590679
 10
95.80466034931273
 20
-131.7838595590679
 10
95.80466034931273
 20
-131.7838595590679
 10
95.80466034931273
 20
-131.7838595590679
 10
95.80466034931273
 20
-131.4682888126191
 10
95.80466034931273
 20
-131.4682888126191
 10
95.80466034931273
 20
-131.4682888126191
 10
96.02239038398052
 20
-131.4682888126191
 10
96.02239038398052
 20
-131.4682888126191
 10
96.02239038398052
 20
-131.4682888126191
 10
96.02239038398052
 20
-131.7838595590679
 10
96.02239038398052
 20
-131.7838595590679
 10
96.02239038398052
 20
-131.7838595590679
 10
96.21083710702368
 20
-131.7838595590679
 10
96.21083710702368
 20
-131.7838595590679
 10
96.21083710702368
 20
-131.7838595590679
 10
96.21083710702368
 20
-131.9760958871449
 10
96.21083710702368
 20
-131.9760958871449
 10
96.21083710702368
 20
-131.9760958871449
 10
96.02239038398052
 20
-131.9760958871449
 10
96.02239038398052
 20
-131.9760958871449
 97
        0
 97
        0
 75
     2
 76
     1
 98
        0
  0
POLYLINE
  5
8D
330
87
100
AcDbEntity
  8
_U+30EC_U+30A4_U+30E4_U+30FC 1
370
     0
100
AcDb2dPolyline
 66
     1
 10
0.0
 20
0.0
 30
0.0
  0
VERTEX
  5
8E
330
8D
100
AcDbEntity
  8
_U+30EC_U+30A4_U+30E4_U+30FC 1
370
     0
100
AcDbVertex
100
AcDb2dVertex
 10
97.93372935919713
 20
-132.005723708318
 30
0.0
  0
VERTEX
  5
8F
330
8D
100
AcDbEntity
  8
_U+30EC_U+30A4_U+30E4_U+30FC 1
370
     0
100
AcDbVertex
100
AcDb2dVertex
 10
96.38929305315962
 20
-132.005723708318
 30
0.0
  0
VERTEX
  5
90
330
8D
100
AcDbEntity
  8
_U+30EC_U+30A4_U+30E4_U+30FC 1
370
     0
100
AcDbVertex
100
AcDb2dVertex
 10
96.38929305315962
 20
-131.8003960173971
 30
0.0
  0
VERTEX
  5
91
330
8D
100
AcDbEntity
  8
_U+30EC_U+30A4_U+30E4_U+30FC 1
370
     0
100
AcDbVertex
100
AcDb2dVertex
 10
97.93372935919713
 20
-131.8003960173971
 30
0.0
  0
VERTEX
  5
92
330
8D
100
AcDbEntity
  8
_U+30EC_U+30A4_U+30E4_U+30FC 1
370
     0
100
AcDbVertex
100
AcDb2dVertex
 10
97.93372935919713
 20
-132.005723708318
 30
0.0
  0
SEQEND
  5
93
330
8D
100
AcDbEntity
  8
_U+30EC_U+30A4_U+30E4_U+30FC 1
370
     0
  0
POLYLINE
  5
94
330
87
100
AcDbEntity
  8
_U+30EC_U+30A4_U+30E4_U+30FC 1
370
     0
100
AcDb2dPolyline
 66
     1
 10
0.0
 20
0.0
 30
0.0
  0
VERTEX
  5
95
330
94
100
AcDbEntity
  8
_U+30EC_U+30A4_U+30E4_U+30FC 1
370
     0
100
AcDbVertex
100
AcDb2dVertex
 10
97.93372935919713
 20
-132.439461229911
 30
0.0
  0
VERTEX
  5
96
330
94
100
AcDbEntity
  8
_U+30EC_U+30A4_U+30E4_U+30FC 1
370
     0
100
AcDbVertex
100
AcDb2dVertex
 10
96.38929305315962
 20
-132.439461229911
 30
0.0
  0
VERTEX
  5
97
330
94
100
AcDbEntity
  8
_U+30EC_U+30A4_U+30E4_U+30FC 1
370
     0
100
AcDbVertex
100
AcDb2dVertex
 10
96.38929305315962
 20
-132.2344780485386
 30
0.0
  0
VERTEX
  5
98
330
94
100
AcDbEntity
  8
_U+30EC_U+30A4_U+30E4_U+30FC 1
370
     0
100
AcDbVertex
100
AcDb2dVertex
 10
97.93372935919713
 20
-132.2344780485386
 30
0.0
  0
VERTEX
  5
99
330
94
100
AcDbEntity
  8
_U+30EC_U+30A4_U+30E4_U+30FC 1
370
     0
100
AcDbVertex
100
AcDb2dVertex
 10
97.93372935919713
 20
-132.439461229911
 30
0.0
  0
SEQEND
  5
9A
330
94
100
AcDbEntity
  8
_U+30EC_U+30A4_U+30E4_U+30FC 1
370
     0
  0
HATCH
  5
9B
330
87
100
AcDbEntity
  8
_U+30EC_U+30A4_U+30E4_U+30FC 1
 62
   179
420
  2234388
100
AcDbHatch
 10
0.0
 20
0.0
 30
0.0
210
0.0
220
0.0
230
1.0
  2
SOLID
 70
     1
 71
     0
 91
        2
 92
        1
 93
        4
 72
     1
 10
97.93372935919713
 20
-132.005723708318
 11
96.38929305315962
 21
-132.005723708318
 72
     1
 10
96.38929305315962
 20
-132.005723708318
 11
96.38929305315962
 21
-131.8003960173971
 72
     1
 10
96.38929305315962
 20
-131.8003960173971
 11
97.93372935919713
 21
-131.8003960173971
 72
     1
 10
97.93372935919713
 20
-131.8003960173971
 11
97.93372935919713
 21
-132.005723708318
 97
        0
 92
        1
 93
        4
 72
     1
 10
97.93372935919713
 20
-132.439461229911
 11
96.38929305315962
 21
-132.439461229911
 72
     1
 10
96.38929305315962
 20
-132.439461229911
 11
96.38929305315962
 21
-132.2344780485386
 72
     1
 10
96.38929305315962
 20
-132.2344780485386
 11
97.93372935919713
 21
-132.2344780485386
 72
     1
 10
97.93372935919713
 20
-132.2344780485386
 11
97.93372935919713
 21
-132.439461229911
 97
        0
 75
     2
 76
     1
 98
        0
  0
SPLINE
  5
9C
330
87
100
AcDbEntity
  8
_U+30EC_U+30A4_U+30E4_U+30FC 1
370
     0
100
AcDbSpline
210
0.0
220
0.0
230
1.0
 70
    11
 71
     3
 72
    26
 73
    22
 74
     0
 42
0.0000000001
 43
0.0000000001
 12
1.0
 22
0.0
 32
0.0
 13
1.0
 23
0.0
 33
0.0
 40
0.0
 40
0.0
 40
0.0
 40
0.0
 40
1.0
 40
1.0
 40
1.0
 40
2.0
 40
2.0
 40
2.0
 40
3.0
 40
3.0
 40
3.0
 40
4.0
 40
4.0
 40
4.0
 40
5.0
 40
5.0
 40
5.0
 40
6.0
 40
6.0
 40
6.0
 40
7.0
 40
7.0
 40
7.0
 40
7.0
 10
98.49941403787516
 20
-131.7879936736502
 30
0.0
 10
98.49941403787516
 20
-131.7879936736502
 30
0.0
 10
98.49941403787516
 20
-131.6398545677845
 30
0.0
 10
98.49941403787516
 20
-131.6398545677845
 30
0.0
 10
98.81050616019321
 20
-131.6184949757759
 30
0.0
 10
98.8504692678221
 20
-131.4620876407456
 30
0.0
 10
98.88009708899526
 20
-131.3477104706353
 30
0.0
 10
98.88009708899526
 20
-131.3477104706353
 30
0.0
 10
99.04098304815642
 20
-131.3477104706353
 30
0.0
 10
99.04098304815642
 20
-131.3477104706353
 30
0.0
 10
99.04098304815642
 20
-131.3477104706353
 30
0.0
 10
99.04098304815642
 20
-132.8921467766728
 30
0.0
 10
99.04098304815642
 20
-132.8921467766728
 30
0.0
 10
99.04098304815642
 20
-132.8921467766728
 30
0.0
 10
98.80189342148009
 20
-132.8921467766728
 30
0.0
 10
98.80189342148009
 20
-132.8921467766728
 30
0.0
 10
98.80189342148009
 20
-132.8921467766728
 30
0.0
 10
98.80189342148009
 20
-131.7879936736502
 30
0.0
 10
98.80189342148009
 20
-131.7879936736502
 30
0.0
 10
98.80189342148009
 20
-131.7879936736502
 30
0.0
 10
98.49941403787516
 20
-131.7879936736502
 30
0.0
 10
98.49941403787516
 20
-131.7879936736502
 30
0.0
  0
HATCH
  5
9D
330
87
100
AcDbEntity
  8
_U+30EC_U+30A4_U+30E4_U+30FC 1
 62
   179
420
  2234388
100
AcDbHatch
 10
0.0
 20
0.0
 30
0.0
210
0.0
220
0.0
230
1.0
  2
SOLID
 70
     1
 71
     0
 91
        1
 92
        1
 93
        1
 72
     4
 94
        3
 73
     0
 74
     1
 95
       26
 96
       22
 40
0.0
 40
0.0
 40
0.0
 40
0.0
 40
1.0
 40
1.0
 40
1.0
 40
2.0
 40
2.0
 40
2.0
 40
3.0
 40
3.0
 40
3.0
 40
4.0
 40
4.0
 40
4.0
 40
5.0
 40
5.0
 40
5.0
 40
6.0
 40
6.0
 40
6.0
 40
7.0
 40
7.0
 40
7.0
 40
7.0
 10
98.49941403787516
 20
-131.7879936736502
 10
98.49941403787516
 20
-131.7879936736502
 10
98.49941403787516
 20
-131.6398545677845
 10
98.49941403787516
 20
-131.6398545677845
 10
98.81050616019321
 20
-131.6184949757759
 10
98.8504692678221
 20
-131.4620876407456
 10
98.88009708899526
 20
-131.3477104706353
 10
98.88009708899526
 20
-131.3477104706353
 10
99.04098304815642
 20
-131.3477104706353
 10
99.04098304815642
 20
-131.3477104706353
 10
99.04098304815642
 20
-131.3477104706353
 10
99.04098304815642
 20
-132.8921467766728
 10
99.04098304815642
 20
-132.8921467766728
 10
99.04098304815642
 20
-132.8921467766728
 10
98.80189342148009
 20
-132.8921467766728
 10
98.80189342148009
 20
-132.8921467766728
 10
98.80189342148009
 20
-132.8921467766728
 10
98.80189342148009
 20
-131.7879936736502
 10
98.80189342148009
 20
-131.7879936736502
 10
98.80189342148009
 20
-131.7879936736502
 10
98.49941403787516
 20
-131.7879936736502
 10
98.49941403787516
 20
-131.7879936736502
 97
        0
 97
        0
 75
     2
 76
     1
 98
        0
  0
POLYLINE
  5
9E
330
87
100
AcDbEntity
  8
_U+30EC_U+30A4_U+30E4_U+30FC 1
370
     0
100
AcDb2dPolyline
 66
     1
 10
0.0
 20
0.0
 30
0.0
  0
VERTEX
  5
9F
330
9E
100
AcDbEntity
  8
_U+30EC_U+30A4_U+30E4_U+30FC 1
370
     0
100
AcDbVertex
100
AcDb2dVertex
 10
99.77168780057792
 20
-132.8921467766728
 30
0.0
  0
VERTEX
  5
A0
330
9E
100
AcDbEntity
  8
_U+30EC_U+30A4_U+30E4_U+30FC 1
370
     0
100
AcDbVertex
100
AcDb2dVertex
 10
99.77168780057792
 20
-132.640310296701
 30
0.0
  0
VERTEX
  5
A1
330
9E
100
AcDbEntity
  8
_U+30EC_U+30A4_U+30E4_U+30FC 1
370
     0
100
AcDbVertex
100
AcDb2dVertex
 10
100.0235242805497
 20
-132.640310296701
 30
0.0
  0
VERTEX
  5
A2
330
9E
100
AcDbEntity
  8
_U+30EC_U+30A4_U+30E4_U+30FC 1
370
     0
100
AcDbVertex
100
AcDb2dVertex
 10
100.0235242805497
 20
-132.8921467766728
 30
0.0
  0
VERTEX
  5
A3
330
9E
100
AcDbEntity
  8
_U+30EC_U+30A4_U+30E4_U+30FC 1
370
     0
100
AcDbVertex
100
AcDb2dVertex
 10
99.77168780057792
 20
-132.8921467766728
 30
0.0
  0
SEQEND
  5
A4
330
9E
100
AcDbEntity
  8
_U+30EC_U+30A4_U+30E4_U+30FC 1
370
     0
  0
HATCH
  5
A5
330
87
100
AcDbEntity
  8
_U+30EC_U+30A4_U+30E4_U+30FC 1
 62
   179
420
  2234388
100
AcDbHatch
 10
0.0
 20
0.0
 30
0.0
210
0.0
220
0.0
230
1.0
  2
SOLID
 70
     1
 71
     0
 91
        1
 92
        1
 93
        4
 72
     1
 10
99.77168780057792
 20
-132.8921467766728
 11
99.77168780057792
 21
-132.640310296701
 72
     1
 10
99.77168780057792
 20
-132.640310296701
 11
100.0235242805497
 21
-132.640310296701
 72
     1
 10
100.0235242805497
 20
-132.640310296701
 11
100.0235242805497
 21
-132.8921467766728
 72
     1
 10
100.0235242805497
 20
-132.8921467766728
 11
99.77168780057792
 21
-132.8921467766728
 97
        0
 75
     2
 76
     1
 98
        0
  0
SPLINE
  5
A6
330
87
100
AcDbEntity
  8
_U+30EC_U+30A4_U+30E4_U+30FC 1
370
     0
100
AcDbSpline
210
0.0
220
0.0
230
1.0
 70
    11
 71
     3
 72
    50
 73
    46
 74
     0
 42
0.0000000001
 43
0.0000000001
 12
1.0
 22
0.0
 32
0.0
 13
1.0
 23
0.0
 33
0.0
 40
0.0
 40
0.0
 40
0.0
 40
0.0
 40
1.0
 40
1.0
 40
1.0
 40
2.0
 40
2.0
 40
2.0
 40
3.0
 40
3.0
 40
3.0
 40
4.0
 40
4.0
 40
4.0
 40
5.0
 40
5.0
 40
5.0
 40
6.0
 40
6.0
 40
6.0
 40
7.0
 40
7.0
 40
7.0
 40
8.0
 40
8.0
 40
8.0
 40
9.0
 40
9.0
 40
9.0
 40
10.0
 40
10.0
 40
10.0
 40
11.0
 40
11.0
 40
11.0
 40
12.0
 40
12.0
 40
12.0
 40
13.0
 40
13.0
 40
13.0
 40
14.0
 40
14.0
 40
14.0
 40
15.0
 40
15.0
 40
15.0
 40
15.0
 10
100.6918728046881
 20
-131.5657850148516
 30
0.0
 10
100.6918728046881
 20
-131.5657850148516
 30
0.0
 10
100.6202148185949
 20
-131.9657606006891
 30
0.0
 10
100.6202148185949
 20
-131.9657606006891
 30
0.0
 10
100.696351428819
 20
-131.9316541553852
 30
0.0
 10
100.7955701787942
 20
-131.8913465382077
 30
0.0
 10
100.9543890806642
 20
-131.8913465382077
 30
0.0
 10
101.2802951135688
 20
-131.8913465382077
 30
0.0
 10
101.5782958730429
 20
-132.0691134652466
 30
0.0
 10
101.5782958730429
 20
-132.3991536127336
 30
0.0
 10
101.5782958730429
 20
-132.6423773539922
 30
0.0
 10
101.4239555953037
 20
-132.942789680306
 30
0.0
 10
100.9268283167822
 20
-132.942789680306
 30
0.0
 10
100.5778401441264
 20
-132.942789680306
 30
0.0
 10
100.33875051745
 20
-132.7736354919802
 30
0.0
 10
100.3070556389857
 20
-132.5135307828438
 30
0.0
 10
100.3070556389857
 20
-132.5135307828438
 30
0.0
 10
100.5523464375355
 20
-132.5135307828438
 30
0.0
 10
100.5523464375355
 20
-132.5135307828438
 30
0.0
 10
100.5712944627044
 20
-132.5748534824813
 30
0.0
 10
100.6202148185949
 20
-132.7250596456382
 30
0.0
 10
100.9395751700776
 20
-132.7250596456382
 30
0.0
 10
101.2906304000246
 20
-132.7250596456382
 30
0.0
 10
101.330938017202
 20
-132.4859700189618
 30
0.0
 10
101.330938017202
 20
-132.4139675233201
 30
0.0
 10
101.330938017202
 20
-132.2871880094629
 30
0.0
 10
101.2441216109737
 20
-132.1073540251329
 30
0.0
 10
100.9437092846599
 20
-132.1073540251329
 30
0.0
 10
100.7342474791567
 20
-132.1073540251329
 30
0.0
 10
100.6222818758861
 20
-132.1814235780658
 30
0.0
 10
100.5757730868352
 20
-132.2131184565301
 30
0.0
 10
100.5757730868352
 20
-132.2131184565301
 30
0.0
 10
100.3683783386232
 20
-132.1938259218127
 30
0.0
 10
100.3683783386232
 20
-132.1938259218127
 30
0.0
 10
100.3683783386232
 20
-132.1938259218127
 30
0.0
 10
100.5185845017801
 20
-131.3477104706353
 30
0.0
 10
100.5185845017801
 20
-131.3477104706353
 30
0.0
 10
100.5185845017801
 20
-131.3477104706353
 30
0.0
 10
101.4873453522323
 20
-131.3477104706353
 30
0.0
 10
101.4873453522323
 20
-131.3477104706353
 30
0.0
 10
101.4873453522323
 20
-131.3477104706353
 30
0.0
 10
101.4873453522323
 20
-131.5657850148516
 30
0.0
 10
101.4873453522323
 20
-131.5657850148516
 30
0.0
 10
101.4873453522323
 20
-131.5657850148516
 30
0.0
 10
100.6918728046881
 20
-131.5657850148516
 30
0.0
 10
100.6918728046881
 20
-131.5657850148516
 30
0.0
  0
HATCH
  5
A7
330
87
100
AcDbEntity
  8
_U+30EC_U+30A4_U+30E4_U+30FC 1
 62
   179
420
  2234388
100
AcDbHatch
 10
0.0
 20
0.0
 30
0.0
210
0.0
220
0.0
230
1.0
  2
SOLID
 70
     1
 71
     0
 91
        1
 92
        1
 93
        1
 72
     4
 94
        3
 73
     0
 74
     1
 95
       50
 96
       46
 40
0.0
 40
0.0
 40
0.0
 40
0.0
 40
1.0
 40
1.0
 40
1.0
 40
2.0
 40
2.0
 40
2.0
 40
3.0
 40
3.0
 40
3.0
 40
4.0
 40
4.0
 40
4.0
 40
5.0
 40
5.0
 40
5.0
 40
6.0
 40
6.0
 40
6.0
 40
7.0
 40
7.0
 40
7.0
 40
8.0
 40
8.0
 40
8.0
 40
9.0
 40
9.0
 40
9.0
 40
10.0
 40
10.0
 40
10.0
 40
11.0
 40
11.0
 40
11.0
 40
12.0
 40
12.0
 40
12.0
 40
13.0
 40
13.0
 40
13.0
 40
14.0
 40
14.0
 40
14.0
 40
15.0
 40
15.0
 40
15.0
 40
15.0
 10
100.6918728046881
 20
-131.5657850148516
 10
100.6918728046881
 20
-131.5657850148516
 10
100.6202148185949
 20
-131.9657606006891
 10
100.6202148185949
 20
-131.9657606006891
 10
100.696351428819
 20
-131.9316541553852
 10
100.7955701787942
 20
-131.8913465382077
 10
100.9543890806642
 20
-131.8913465382077
 10
101.2802951135688
 20
-131.8913465382077
 10
101.5782958730429
 20
-132.0691134652466
 10
101.5782958730429
 20
-132.3991536127336
 10
101.5782958730429
 20
-132.6423773539922
 10
101.4239555953037
 20
-132.942789680306
 10
100.9268283167822
 20
-132.942789680306
 10
100.5778401441264
 20
-132.942789680306
 10
100.33875051745
 20
-132.7736354919802
 10
100.3070556389857
 20
-132.5135307828438
 10
100.3070556389857
 20
-132.5135307828438
 10
100.5523464375355
 20
-132.5135307828438
 10
100.5523464375355
 20
-132.5135307828438
 10
100.5712944627044
 20
-132.5748534824813
 10
100.6202148185949
 20
-132.7250596456382
 10
100.9395751700776
 20
-132.7250596456382
 10
101.2906304000246
 20
-132.7250596456382
 10
101.330938017202
 20
-132.4859700189618
 10
101.330938017202
 20
-132.4139675233201
 10
101.330938017202
 20
-132.2871880094629
 10
101.2441216109737
 20
-132.1073540251329
 10
100.9437092846599
 20
-132.1073540251329
 10
100.7342474791567
 20
-132.1073540251329
 10
100.6222818758861
 20
-132.1814235780658
 10
100.5757730868352
 20
-132.2131184565301
 10
100.5757730868352
 20
-132.2131184565301
 10
100.3683783386232
 20
-132.1938259218127
 10
100.3683783386232
 20
-132.1938259218127
 10
100.3683783386232
 20
-132.1938259218127
 10
100.5185845017801
 20
-131.3477104706353
 10
100.5185845017801
 20
-131.3477104706353
 10
100.5185845017801
 20
-131.3477104706353
 10
101.4873453522323
 20
-131.3477104706353
 10
101.4873453522323
 20
-131.3477104706353
 10
101.4873453522323
 20
-131.3477104706353
 10
101.4873453522323
 20
-131.5657850148516
 10
101.4873453522323
 20
-131.5657850148516
 10
101.4873453522323
 20
-131.5657850148516
 10
100.6918728046881
 20
-131.5657850148516
 10
100.6918728046881
 20
-131.5657850148516
 97
        0
 97
        0
 75
     2
 76
     1
 98
        0
  0
ENDBLK
  5
8A
330
87
100
AcDbEntity
  8
0
100
AcDbBlockEnd
  0
BLOCK
  5
B6
330
B4
100
AcDbEntity
  8
0
100
AcDbBlockBegin
  2
block 4
 70
     0
 10
0.0
 20
0.0
 30
0.0
  3
block 4
  1

  0
SPLINE
  5
B8
330
B4
100
AcDbEntity
  8
_U+30EC_U+30A4_U+30E4_U+30FC 1
370
     0
100
AcDbSpline
210
0.0
220
0.0
230
1.0
 70
    11
 71
     3
 72
    44
 73
    40
 74
     0
 42
0.0000000001
 43
0.0000000001
 12
1.0
 22
0.0
 32
0.0
 13
1.0
 23
0.0
 33
0.0
 40
0.0
 40
0.0
 40
0.0
 40
0.0
 40
1.0
 40
1.0
 40
1.0
 40
2.0
 40
2.0
 40
2.0
 40
3.0
 40
3.0
 40
3.0
 40
4.0
 40
4.0
 40
4.0
 40
5.0
 40
5.0
 40
5.0
 40
6.0
 40
6.0
 40
6.0
 40
7.0
 40
7.0
 40
7.0
 40
8.0
 40
8.0
 40
8.0
 40
9.0
 40
9.0
 40
9.0
 40
10.0
 40
10.0
 40
10.0
 40
11.0
 40
11.0
 40
11.0
 40
12.0
 40
12.0
 40
12.0
 40
13.0
 40
13.0
 40
13.0
 40
13.0
 10
88.40786808770706
 20
-123.4792846370989
 30
0.0
 10
88.19013805303928
 20
-123.6379312841947
 30
0.0
 10
88.09712047493753
 20
-123.7120008371276
 30
0.0
 10
88.04820011904698
 20
-123.8558335736367
 30
0.0
 10
88.04820011904698
 20
-123.8558335736367
 30
0.0
 10
88.82679169871345
 20
-123.8558335736367
 30
0.0
 10
88.82679169871345
 20
-123.8558335736367
 30
0.0
 10
88.82679169871345
 20
-123.8558335736367
 30
0.0
 10
88.82679169871345
 20
-124.0609890097834
 30
0.0
 10
88.82679169871345
 20
-124.0609890097834
 30
0.0
 10
88.82679169871345
 20
-124.0609890097834
 30
0.0
 10
87.7987752059149
 20
-124.0609890097834
 30
0.0
 10
87.7987752059149
 20
-124.0609890097834
 30
0.0
 10
87.83047008437919
 20
-123.7033880984144
 30
0.0
 10
87.89592689859894
 20
-123.6251844308993
 30
0.0
 10
88.28108857384987
 20
-123.3268391618766
 30
0.0
 10
88.53705916840393
 20
-123.1280571523777
 30
0.0
 10
88.60251598262369
 20
-123.0603610260926
 30
0.0
 10
88.60251598262369
 20
-122.9229017162311
 30
0.0
 10
88.60251598262369
 20
-122.8043904315385
 30
0.0
 10
88.53051348698196
 20
-122.6733045483247
 30
0.0
 10
88.33379853477419
 20
-122.6733045483247
 30
0.0
 10
88.07369382563783
 20
-122.6733045483247
 30
0.0
 10
88.0650810869247
 20
-122.9037814362879
 30
0.0
 10
88.0609469723424
 20
-123.0202256636894
 30
0.0
 10
88.0609469723424
 20
-123.0202256636894
 30
0.0
 10
87.83667125625264
 20
-123.0202256636894
 30
0.0
 10
87.83667125625264
 20
-123.0202256636894
 30
0.0
 10
87.84528399496577
 20
-122.8932738950579
 30
0.0
 10
87.85596379097004
 20
-122.7811360370131
 30
0.0
 10
87.93623451577636
 20
-122.6626247523205
 30
0.0
 10
88.04613306175584
 20
-122.5019110479336
 30
0.0
 10
88.23251272750785
 20
-122.4679768574038
 30
0.0
 10
88.34861244536077
 20
-122.4679768574038
 30
0.0
 10
88.62594263192338
 20
-122.4679768574038
 30
0.0
 10
88.83333738013542
 20
-122.6521172110904
 30
0.0
 10
88.83333738013542
 20
-122.9249687735222
 30
0.0
 10
88.83333738013542
 20
-123.1533786041943
 30
0.0
 10
88.71689315273397
 20
-123.252941863718
 30
0.0
 10
88.40786808770706
 20
-123.4792846370989
 30
0.0
  0
HATCH
  5
B9
330
B4
100
AcDbEntity
  8
_U+30EC_U+30A4_U+30E4_U+30FC 1
 62
   179
420
  2234388
100
AcDbHatch
 10
0.0
 20
0.0
 30
0.0
210
0.0
220
0.0
230
1.0
  2
SOLID
 70
     1
 71
     0
 91
        1
 92
        1
 93
        1
 72
     4
 94
        3
 73
     0
 74
     1
 95
       44
 96
       40
 40
0.0
 40
0.0
 40
0.0
 40
0.0
 40
1.0
 40
1.0
 40
1.0
 40
2.0
 40
2.0
 40
2.0
 40
3.0
 40
3.0
 40
3.0
 40
4.0
 40
4.0
 40
4.0
 40
5.0
 40
5.0
 40
5.0
 40
6.0
 40
6.0
 40
6.0
 40
7.0
 40
7.0
 40
7.0
 40
8.0
 40
8.0
 40
8.0
 40
9.0
 40
9.0
 40
9.0
 40
10.0
 40
10.0
 40
10.0
 40
11.0
 40
11.0
 40
11.0
 40
12.0
 40
12.0
 40
12.0
 40
13.0
 40
13.0
 40
13.0
 40
13.0
 10
88.40786808770706
 20
-123.4792846370989
 10
88.19013805303928
 20
-123.6379312841947
 10
88.09712047493753
 20
-123.7120008371276
 10
88.04820011904698
 20
-123.8558335736367
 10
88.04820011904698
 20
-123.8558335736367
 10
88.82679169871345
 20
-123.8558335736367
 10
88.82679169871345
 20
-123.8558335736367
 10
88.82679169871345
 20
-123.8558335736367
 10
88.82679169871345
 20
-124.0609890097834
 10
88.82679169871345
 20
-124.0609890097834
 10
88.82679169871345
 20
-124.0609890097834
 10
87.7987752059149
 20
-124.0609890097834
 10
87.7987752059149
 20
-124.0609890097834
 10
87.83047008437919
 20
-123.7033880984144
 10
87.89592689859894
 20
-123.6251844308993
 10
88.28108857384987
 20
-123.3268391618766
 10
88.53705916840393
 20
-123.1280571523777
 10
88.60251598262369
 20
-123.0603610260926
 10
88.60251598262369
 20
-122.9229017162311
 10
88.60251598262369
 20
-122.8043904315385
 10
88.53051348698196
 20
-122.6733045483247
 10
88.33379853477419
 20
-122.6733045483247
 10
88.07369382563783
 20
-122.6733045483247
 10
88.0650810869247
 20
-122.9037814362879
 10
88.0609469723424
 20
-123.0202256636894
 10
88.0609469723424
 20
-123.0202256636894
 10
87.83667125625264
 20
-123.0202256636894
 10
87.83667125625264
 20
-123.0202256636894
 10
87.84528399496577
 20
-122.8932738950579
 10
87.85596379097004
 20
-122.7811360370131
 10
87.93623451577636
 20
-122.6626247523205
 10
88.04613306175584
 20
-122.5019110479336
 10
88.23251272750785
 20
-122.4679768574038
 10
88.34861244536077
 20
-122.4679768574038
 10
88.62594263192338
 20
-122.4679768574038
 10
88.83333738013542
 20
-122.6521172110904
 10
88.83333738013542
 20
-122.9249687735222
 10
88.83333738013542
 20
-123.1533786041943
 10
88.71689315273397
 20
-123.252941863718
 10
88.40786808770706
 20
-123.4792846370989
 97
        0
 97
        0
 75
     2
 76
     1
 98
        0
  0
SPLINE
  5
BA
330
B4
100
AcDbEntity
  8
_U+30EC_U+30A4_U+30E4_U+30FC 1
370
     0
100
AcDbSpline
210
0.0
220
0.0
230
1.0
 70
    11
 71
     3
 72
    53
 73
    49
 74
     0
 42
0.0000000001
 43
0.0000000001
 12
1.0
 22
0.0
 32
0.0
 13
1.0
 23
0.0
 33
0.0
 40
0.0
 40
0.0
 40
0.0
 40
0.0
 40
1.0
 40
1.0
 40
1.0
 40
2.0
 40
2.0
 40
2.0
 40
3.0
 40
3.0
 40
3.0
 40
4.0
 40
4.0
 40
4.0
 40
5.0
 40
5.0
 40
5.0
 40
6.0
 40
6.0
 40
6.0
 40
7.0
 40
7.0
 40
7.0
 40
8.0
 40
8.0
 40
8.0
 40
9.0
 40
9.0
 40
9.0
 40
10.0
 40
10.0
 40
10.0
 40
11.0
 40
11.0
 40
11.0
 40
12.0
 40
12.0
 40
12.0
 40
13.0
 40
13.0
 40
13.0
 40
14.0
 40
14.0
 40
14.0
 40
15.0
 40
15.0
 40
15.0
 40
16.0
 40
16.0
 40
16.0
 40
16.0
 10
89.47274710219779
 20
-124.1118041681908
 30
0.0
 10
89.39454343468262
 20
-124.1118041681908
 30
0.0
 10
89.29291311786776
 20
-124.0947509455388
 30
0.0
 10
89.19128280105288
 20
-124.0313611886102
 30
0.0
 10
89.01799449814482
 20
-123.9212903878565
 30
0.0
 10
88.99663490613626
 20
-123.7902045046427
 30
0.0
 10
88.97768688096738
 20
-123.6823730159544
 30
0.0
 10
88.97768688096738
 20
-123.6823730159544
 30
0.0
 10
89.199895539766
 20
-123.6823730159544
 30
0.0
 10
89.199895539766
 20
-123.6823730159544
 30
0.0
 10
89.25467255798148
 20
-123.8811550254533
 30
0.0
 10
89.38179658138719
 20
-123.9107828466265
 30
0.0
 10
89.47481415948894
 20
-123.9107828466265
 30
0.0
 10
89.61434052664156
 20
-123.9107828466265
 30
0.0
 10
89.76661374708961
 20
-123.811391841877
 30
0.0
 10
89.76661374708961
 20
-123.5786756418484
 30
0.0
 10
89.76661374708961
 20
-123.3227050472943
 30
0.0
 10
89.58677976275956
 20
-123.252941863718
 30
0.0
 10
89.46620142077582
 20
-123.252941863718
 30
0.0
 10
89.43450654231151
 20
-123.252941863718
 30
0.0
 10
89.29291311786776
 20
-123.252941863718
 30
0.0
 10
89.2040296543483
 20
-123.3819606896406
 30
0.0
 10
89.2040296543483
 20
-123.3819606896406
 30
0.0
 10
89.02832978460056
 20
-123.3628404096975
 30
0.0
 10
89.02832978460056
 20
-123.3628404096975
 30
0.0
 10
89.02832978460056
 20
-123.3628404096975
 30
0.0
 10
89.1489081265843
 20
-122.5167249585201
 30
0.0
 10
89.1489081265843
 20
-122.5167249585201
 30
0.0
 10
89.1489081265843
 20
-122.5167249585201
 30
0.0
 10
89.92749970625077
 20
-122.5167249585201
 30
0.0
 10
89.92749970625077
 20
-122.5167249585201
 30
0.0
 10
89.92749970625077
 20
-122.5167249585201
 30
0.0
 10
89.92749970625077
 20
-122.7113728534367
 30
0.0
 10
89.92749970625077
 20
-122.7113728534367
 30
0.0
 10
89.92749970625077
 20
-122.7113728534367
 30
0.0
 10
89.31186114303662
 20
-122.7113728534367
 30
0.0
 10
89.31186114303662
 20
-122.7113728534367
 30
0.0
 10
89.31186114303662
 20
-122.7113728534367
 30
0.0
 10
89.24640432881688
 20
-123.1344305790254
 30
0.0
 10
89.24640432881688
 20
-123.1344305790254
 30
0.0
 10
89.30772702845432
 20
-123.1004963884957
 30
0.0
 10
89.39006481055179
 20
-123.0603610260926
 30
0.0
 10
89.5085760952444
 20
-123.0603610260926
 30
0.0
 10
89.76247963250731
 20
-123.0603610260926
 30
0.0
 10
89.99950220189248
 20
-123.2465684370703
 30
0.0
 10
89.99950220189248
 20
-123.5595553619053
 30
0.0
 10
89.99950220189248
 20
-123.877020910871
 30
0.0
 10
89.77522648580272
 20
-124.1118041681908
 30
0.0
 10
89.47274710219779
 20
-124.1118041681908
 30
0.0
  0
HATCH
  5
BB
330
B4
100
AcDbEntity
  8
_U+30EC_U+30A4_U+30E4_U+30FC 1
 62
   179
420
  2234388
100
AcDbHatch
 10
0.0
 20
0.0
 30
0.0
210
0.0
220
0.0
230
1.0
  2
SOLID
 70
     1
 71
     0
 91
        1
 92
        1
 93
        1
 72
     4
 94
        3
 73
     0
 74
     1
 95
       53
 96
       49
 40
0.0
 40
0.0
 40
0.0
 40
0.0
 40
1.0
 40
1.0
 40
1.0
 40
2.0
 40
2.0
 40
2.0
 40
3.0
 40
3.0
 40
3.0
 40
4.0
 40
4.0
 40
4.0
 40
5.0
 40
5.0
 40
5.0
 40
6.0
 40
6.0
 40
6.0
 40
7.0
 40
7.0
 40
7.0
 40
8.0
 40
8.0
 40
8.0
 40
9.0
 40
9.0
 40
9.0
 40
10.0
 40
10.0
 40
10.0
 40
11.0
 40
11.0
 40
11.0
 40
12.0
 40
12.0
 40
12.0
 40
13.0
 40
13.0
 40
13.0
 40
14.0
 40
14.0
 40
14.0
 40
15.0
 40
15.0
 40
15.0
 40
16.0
 40
16.0
 40
16.0
 40
16.0
 10
89.47274710219779
 20
-124.1118041681908
 10
89.39454343468262
 20
-124.1118041681908
 10
89.29291311786776
 20
-124.0947509455388
 10
89.19128280105288
 20
-124.0313611886102
 10
89.01799449814482
 20
-123.9212903878565
 10
88.99663490613626
 20
-123.7902045046427
 10
88.97768688096738
 20
-123.6823730159544
 10
88.97768688096738
 20
-123.6823730159544
 10
89.199895539766
 20
-123.6823730159544
 10
89.199895539766
 20
-123.6823730159544
 10
89.25467255798148
 20
-123.8811550254533
 10
89.38179658138719
 20
-123.9107828466265
 10
89.47481415948894
 20
-123.9107828466265
 10
89.61434052664156
 20
-123.9107828466265
 10
89.76661374708961
 20
-123.811391841877
 10
89.76661374708961
 20
-123.5786756418484
 10
89.76661374708961
 20
-123.3227050472943
 10
89.58677976275956
 20
-123.252941863718
 10
89.46620142077582
 20
-123.252941863718
 10
89.43450654231151
 20
-123.252941863718
 10
89.29291311786776
 20
-123.252941863718
 10
89.2040296543483
 20
-123.3819606896406
 10
89.2040296543483
 20
-123.3819606896406
 10
89.02832978460056
 20
-123.3628404096975
 10
89.02832978460056
 20
-123.3628404096975
 10
89.02832978460056
 20
-123.3628404096975
 10
89.1489081265843
 20
-122.5167249585201
 10
89.1489081265843
 20
-122.5167249585201
 10
89.1489081265843
 20
-122.5167249585201
 10
89.92749970625077
 20
-122.5167249585201
 10
89.92749970625077
 20
-122.5167249585201
 10
89.92749970625077
 20
-122.5167249585201
 10
89.92749970625077
 20
-122.7113728534367
 10
89.92749970625077
 20
-122.7113728534367
 10
89.92749970625077
 20
-122.7113728534367
 10
89.31186114303662
 20
-122.7113728534367
 10
89.31186114303662
 20
-122.7113728534367
 10
89.31186114303662
 20
-122.7113728534367
 10
89.24640432881688
 20
-123.1344305790254
 10
89.24640432881688
 20
-123.1344305790254
 10
89.30772702845432
 20
-123.1004963884957
 10
89.39006481055179
 20
-123.0603610260926
 10
89.5085760952444
 20
-123.0603610260926
 10
89.76247963250731
 20
-123.0603610260926
 10
89.99950220189248
 20
-123.2465684370703
 10
89.99950220189248
 20
-123.5595553619053
 10
89.99950220189248
 20
-123.877020910871
 10
89.77522648580272
 20
-124.1118041681908
 10
89.47274710219779
 20
-124.1118041681908
 97
        0
 97
        0
 75
     2
 76
     1
 98
        0
  0
ENDBLK
  5
B7
330
B4
100
AcDbEntity
  8
0
100
AcDbBlockEnd
  0
BLOCK
  5
BE
330
BC
100
AcDbEntity
  8
0
100
AcDbBlockBegin
  2
block 5
 70
     0
 10
0.0
 20
0.0
 30
0.0
  3
block 5
  1

  0
SPLINE
  5
C0
330
BC
100
AcDbEntity
  8
_U+30EC_U+30A4_U+30E4_U+30FC 1
 62
   179
420
  2234388
370
    25
100
AcDbSpline
210
0.0
220
0.0
230
1.0
 70
    11
 71
     3
 72
    17
 73
    13
 74
     0
 42
0.0000000001
 43
0.0000000001
 12
1.0
 22
0.0
 32
0.0
 13
1.0
 23
0.0
 33
0.0
 40
0.0
 40
0.0
 40
0.0
 40
0.0
 40
1.0
 40
1.0
 40
1.0
 40
2.0
 40
2.0
 40
2.0
 40
3.0
 40
3.0
 40
3.0
 40
4.0
 40
4.0
 40
4.0
 40
4.0
 10
82.67160039087176
 20
-126.5588513572491
 30
0.0
 10
82.67160039087176
 20
-126.5685174683578
 30
0.0
 10
82.66401566884304
 20
-126.576419690578
 30
0.0
 10
82.65438483575541
 20
-126.576419690578
 30
0.0
 10
82.64475400266778
 20
-126.576419690578
 30
0.0
 10
82.6364637251015
 20
-126.5685174683578
 30
0.0
 10
82.6364637251015
 20
-126.5588513572491
 30
0.0
 10
82.6364637251015
 20
-126.5492205239183
 30
0.0
 10
82.64475400266778
 20
-126.5412830239203
 30
0.0
 10
82.65438483575541
 20
-126.5412830239203
 30
0.0
 10
82.66401566884304
 20
-126.5412830239203
 30
0.0
 10
82.67160039087176
 20
-126.5492205239183
 30
0.0
 10
82.67160039087176
 20
-126.5588513572491
 30
0.0
  0
ENDBLK
  5
BF
330
BC
100
AcDbEntity
  8
0
100
AcDbBlockEnd
  0
BLOCK
  5
C3
330
C1
100
AcDbEntity
  8
0
100
AcDbBlockBegin
  2
block 6
 70
     0
 10
0.0
 20
0.0
 30
0.0
  3
block 6
  1

  0
SPLINE
  5
C5
330
C1
100
AcDbEntity
  8
_U+30EC_U+30A4_U+30E4_U+30FC 1
 62
   179
420
  2234388
370
    25
100
AcDbSpline
210
0.0
220
0.0
230
1.0
 70
    11
 71
     3
 72
    17
 73
    13
 74
     0
 42
0.0000000001
 43
0.0000000001
 12
1.0
 22
0.0
 32
0.0
 13
1.0
 23
0.0
 33
0.0
 40
0.0
 40
0.0
 40
0.0
 40
0.0
 40
1.0
 40
1.0
 40
1.0
 40
2.0
 40
2.0
 40
2.0
 40
3.0
 40
3.0
 40
3.0
 40
4.0
 40
4.0
 40
4.0
 40
4.0
 10
95.17111646087143
 20
-126.5588513572491
 30
0.0
 10
95.17111646087143
 20
-126.5685174683578
 30
0.0
 10
95.1635317388427
 20
-126.576419690578
 30
0.0
 10
95.1538656279782
 20
-126.576419690578
 30
0.0
 10
95.14423479489056
 20
-126.576419690578
 30
0.0
 10
95.13597979510118
 20
-126.5685174683578
 30
0.0
 10
95.13597979510118
 20
-126.5588513572491
 30
0.0
 10
95.13597979510118
 20
-126.5492205239183
 30
0.0
 10
95.14423479489056
 20
-126.5412830239203
 30
0.0
 10
95.1538656279782
 20
-126.5412830239203
 30
0.0
 10
95.1635317388427
 20
-126.5412830239203
 30
0.0
 10
95.17111646087143
 20
-126.5492205239183
 30
0.0
 10
95.17111646087143
 20
-126.5588513572491
 30
0.0
  0
ENDBLK
  5
C4
330
C1
100
AcDbEntity
  8
0
100
AcDbBlockEnd
  0
BLOCK
  5
C8
330
C6
100
AcDbEntity
  8
0
100
AcDbBlockBegin
  2
block 7
 70
     0
 10
0.0
 20
0.0
 30
0.0
  3
block 7
  1

  0
SPLINE
  5
CA
330
C6
100
AcDbEntity
  8
_U+30EC_U+30A4_U+30E4_U+30FC 1
 62
   179
420
  2234388
370
     9
100
AcDbSpline
210
0.0
220
0.0
230
1.0
 70
    11
 71
     3
 72
    17
 73
    13
 74
     0
 42
0.0000000001
 43
0.0000000001
 12
1.0
 22
0.0
 32
0.0
 13
1.0
 23
0.0
 33
0.0
 40
0.0
 40
0.0
 40
0.0
 40
0.0
 40
1.0
 40
1.0
 40
1.0
 40
2.0
 40
2.0
 40
2.0
 40
3.0
 40
3.0
 40
3.0
 40
4.0
 40
4.0
 40
4.0
 40
4.0
 10
95.17111646087143
 20
-124.558636635527
 30
0.0
 10
95.17111646087143
 20
-124.5686202466356
 30
0.0
 10
95.1635317388427
 20
-124.5765577466337
 30
0.0
 10
95.1538656279782
 20
-124.5765577466337
 30
0.0
 10
95.14423479489056
 20
-124.5765577466337
 30
0.0
 10
95.13597979510118
 20
-124.5686202466356
 30
0.0
 10
95.13597979510118
 20
-124.558636635527
 30
0.0
 10
95.13597979510118
 20
-124.5489705244184
 30
0.0
 10
95.14423479489056
 20
-124.5410683021982
 30
0.0
 10
95.1538656279782
 20
-124.5410683021982
 30
0.0
 10
95.1635317388427
 20
-124.5410683021982
 30
0.0
 10
95.17111646087143
 20
-124.5489705244184
 30
0.0
 10
95.17111646087143
 20
-124.558636635527
 30
0.0
  0
ENDBLK
  5
C9
330
C6
100
AcDbEntity
  8
0
100
AcDbBlockEnd
  0
BLOCK
  5
CD
330
CB
100
AcDbEntity
  8
0
100
AcDbBlockBegin
  2
block 8
 70
     0
 10
0.0
 20
0.0
 30
0.0
  3
block 8
  1

  0
POLYLINE
  5
CF
330
CB
100
AcDbEntity
  8
_U+30EC_U+30A4_U+30E4_U+30FC 1
 62
   179
420
  2234388
370
     9
100
AcDb2dPolyline
 66
     1
 10
0.0
 20
0.0
 30
0.0
  0
VERTEX
  5
D0
330
CF
100
AcDbEntity
  8
_U+30EC_U+30A4_U+30E4_U+30FC 1
 62
   179
420
  2234388
370
     9
100
AcDbVertex
100
AcDb2dVertex
 10
85.65437170366381
 20
-135.0587849662355
 30
0.0
  0
VERTEX
  5
D1
330
CF
100
AcDbEntity
  8
_U+30EC_U+30A4_U+30E4_U+30FC 1
 62
   179
420
  2234388
370
     9
100
AcDbVertex
100
AcDb2dVertex
 10
92.1538787600698
 20
-135.0587849662355
 30
0.0
  0
SEQEND
  5
D2
330
CF
100
AcDbEntity
  8
_U+30EC_U+30A4_U+30E4_U+30FC 1
 62
   179
420
  2234388
370
     9
  0
POLYLINE
  5
D3
330
CB
100
AcDbEntity
  8
_U+30EC_U+30A4_U+30E4_U+30FC 1
 62
   179
420
  2234388
370
     9
100
AcDb2dPolyline
 66
     1
 10
0.0
 20
0.0
 30
0.0
  0
VERTEX
  5
D4
330
D3
100
AcDbEntity
  8
_U+30EC_U+30A4_U+30E4_U+30FC 1
 62
   179
420
  2234388
370
     9
100
AcDbVertex
100
AcDb2dVertex
 10
85.65437170366381
 20
-134.3287466330846
 30
0.0
  0
VERTEX
  5
D5
330
D3
100
AcDbEntity
  8
_U+30EC_U+30A4_U+30E4_U+30FC 1
 62
   179
420
  2234388
370
     9
100
AcDbVertex
100
AcDb2dVertex
 10
85.65437170366381
 20
-135.5586357994439
 30
0.0
  0
SEQEND
  5
D6
330
D3
100
AcDbEntity
  8
_U+30EC_U+30A4_U+30E4_U+30FC 1
 62
   179
420
  2234388
370
     9
  0
POLYLINE
  5
D7
330
CB
100
AcDbEntity
  8
_U+30EC_U+30A4_U+30E4_U+30FC 1
 62
   179
420
  2234388
370
     9
100
AcDb2dPolyline
 66
     1
 10
0.0
 20
0.0
 30
0.0
  0
VERTEX
  5
D8
330
D7
100
AcDbEntity
  8
_U+30EC_U+30A4_U+30E4_U+30FC 1
 62
   179
420
  2234388
370
     9
100
AcDbVertex
100
AcDb2dVertex
 10
92.1538787600698
 20
-134.3287466330846
 30
0.0
  0
VERTEX
  5
D9
330
D7
100
AcDbEntity
  8
_U+30EC_U+30A4_U+30E4_U+30FC 1
 62
   179
420
  2234388
370
     9
100
AcDbVertex
100
AcDb2dVertex
 10
92.1538787600698
 20
-135.5586357994439
 30
0.0
  0
SEQEND
  5
DA
330
D7
100
AcDbEntity
  8
_U+30EC_U+30A4_U+30E4_U+30FC 1
 62
   179
420
  2234388
370
     9
  0
INSERT
  5
DC
330
CB
100
AcDbEntity
  8
_U+30EC_U+30A4_U+30E4_U+30FC 1
100
AcDbBlockReference
  2
block 9
 10
0.0
 20
0.0
 30
0.0
  0
INSERT
  5
E4
330
CB
100
AcDbEntity
  8
_U+30EC_U+30A4_U+30E4_U+30FC 1
100
AcDbBlockReference
  2
block 10
 10
0.0
 20
0.0
 30
0.0
  0
INSERT
  5
E9
330
CB
100
AcDbEntity
  8
_U+30EC_U+30A4_U+30E4_U+30FC 1
100
AcDbBlockReference
  2
block 11
 10
0.0
 20
0.0
 30
0.0
  0
INSERT
  5
EE
330
CB
100
AcDbEntity
  8
_U+30EC_U+30A4_U+30E4_U+30FC 1
100
AcDbBlockReference
  2
block 12
 10
0.0
 20
0.0
 30
0.0
  0
ENDBLK
  5
CE
330
CB
100
AcDbEntity
  8
0
100
AcDbBlockEnd
  0
BLOCK
  5
DD
330
DB
100
AcDbEntity
  8
0
100
AcDbBlockBegin
  2
block 9
 70
     0
 10
0.0
 20
0.0
 30
0.0
  3
block 9
  1

  0
SPLINE
  5
DF
330
DB
100
AcDbEntity
  8
_U+30EC_U+30A4_U+30E4_U+30FC 1
370
     0
100
AcDbSpline
210
0.0
220
0.0
230
1.0
 70
    11
 71
     3
 72
    26
 73
    22
 74
     0
 42
0.0000000001
 43
0.0000000001
 12
1.0
 22
0.0
 32
0.0
 13
1.0
 23
0.0
 33
0.0
 40
0.0
 40
0.0
 40
0.0
 40
0.0
 40
1.0
 40
1.0
 40
1.0
 40
2.0
 40
2.0
 40
2.0
 40
3.0
 40
3.0
 40
3.0
 40
4.0
 40
4.0
 40
4.0
 40
5.0
 40
5.0
 40
5.0
 40
6.0
 40
6.0
 40
6.0
 40
7.0
 40
7.0
 40
7.0
 40
7.0
 10
88.26661917281182
 20
-134.4417507259382
 30
0.0
 10
88.26661917281182
 20
-134.4417507259382
 30
0.0
 10
88.26661917281182
 20
-133.3375976229156
 30
0.0
 10
88.26661917281182
 20
-133.3375976229156
 30
0.0
 10
88.26661917281182
 20
-133.3375976229156
 30
0.0
 10
87.93657902532489
 20
-133.3375976229156
 30
0.0
 10
87.93657902532489
 20
-133.3375976229156
 30
0.0
 10
87.93657902532489
 20
-133.3375976229156
 30
0.0
 10
87.93657902532489
 20
-133.1894585170499
 30
0.0
 10
87.93657902532489
 20
-133.1894585170499
 30
0.0
 10
88.26868623010297
 20
-133.1746446064633
 30
0.0
 10
88.31519501915385
 20
-133.011691590011
 30
0.0
 10
88.344822840327
 20
-132.8973144199007
 30
0.0
 10
88.344822840327
 20
-132.8973144199007
 30
0.0
 10
88.49089488890158
 20
-132.8973144199007
 30
0.0
 10
88.49089488890158
 20
-132.8973144199007
 30
0.0
 10
88.49089488890158
 20
-132.8973144199007
 30
0.0
 10
88.49089488890158
 20
-134.4417507259382
 30
0.0
 10
88.49089488890158
 20
-134.4417507259382
 30
0.0
 10
88.49089488890158
 20
-134.4417507259382
 30
0.0
 10
88.26661917281182
 20
-134.4417507259382
 30
0.0
 10
88.26661917281182
 20
-134.4417507259382
 30
0.0
  0
HATCH
  5
E0
330
DB
100
AcDbEntity
  8
_U+30EC_U+30A4_U+30E4_U+30FC 1
 62
   179
420
  2234388
100
AcDbHatch
 10
0.0
 20
0.0
 30
0.0
210
0.0
220
0.0
230
1.0
  2
SOLID
 70
     1
 71
     0
 91
        1
 92
        1
 93
        1
 72
     4
 94
        3
 73
     0
 74
     1
 95
       26
 96
       22
 40
0.0
 40
0.0
 40
0.0
 40
0.0
 40
1.0
 40
1.0
 40
1.0
 40
2.0
 40
2.0
 40
2.0
 40
3.0
 40
3.0
 40
3.0
 40
4.0
 40
4.0
 40
4.0
 40
5.0
 40
5.0
 40
5.0
 40
6.0
 40
6.0
 40
6.0
 40
7.0
 40
7.0
 40
7.0
 40
7.0
 10
88.26661917281182
 20
-134.4417507259382
 10
88.26661917281182
 20
-134.4417507259382
 10
88.26661917281182
 20
-133.3375976229156
 10
88.26661917281182
 20
-133.3375976229156
 10
88.26661917281182
 20
-133.3375976229156
 10
87.93657902532489
 20
-133.3375976229156
 10
87.93657902532489
 20
-133.3375976229156
 10
87.93657902532489
 20
-133.3375976229156
 10
87.93657902532489
 20
-133.1894585170499
 10
87.93657902532489
 20
-133.1894585170499
 10
88.26868623010297
 20
-133.1746446064633
 10
88.31519501915385
 20
-133.011691590011
 10
88.344822840327
 20
-132.8973144199007
 10
88.344822840327
 20
-132.8973144199007
 10
88.49089488890158
 20
-132.8973144199007
 10
88.49089488890158
 20
-132.8973144199007
 10
88.49089488890158
 20
-132.8973144199007
 10
88.49089488890158
 20
-134.4417507259382
 10
88.49089488890158
 20
-134.4417507259382
 10
88.49089488890158
 20
-134.4417507259382
 10
88.26661917281182
 20
-134.4417507259382
 10
88.26661917281182
 20
-134.4417507259382
 97
        0
 97
        0
 75
     2
 76
     1
 98
        0
  0
SPLINE
  5
E1
330
DB
100
AcDbEntity
  8
_U+30EC_U+30A4_U+30E4_U+30FC 1
370
     0
100
AcDbSpline
210
0.0
220
0.0
230
1.0
 70
    11
 71
     3
 72
    62
 73
    58
 74
     0
 42
0.0000000001
 43
0.0000000001
 12
1.0
 22
0.0
 32
0.0
 13
1.0
 23
0.0
 33
0.0
 40
0.0
 40
0.0
 40
0.0
 40
0.0
 40
1.0
 40
1.0
 40
1.0
 40
2.0
 40
2.0
 40
2.0
 40
3.0
 40
3.0
 40
3.0
 40
4.0
 40
4.0
 40
4.0
 40
5.0
 40
5.0
 40
5.0
 40
6.0
 40
6.0
 40
6.0
 40
7.0
 40
7.0
 40
7.0
 40
8.0
 40
8.0
 40
8.0
 40
9.0
 40
9.0
 40
9.0
 40
10.0
 40
10.0
 40
10.0
 40
11.0
 40
11.0
 40
11.0
 40
12.0
 40
12.0
 40
12.0
 40
13.0
 40
13.0
 40
13.0
 40
14.0
 40
14.0
 40
14.0
 40
15.0
 40
15.0
 40
15.0
 40
16.0
 40
16.0
 40
16.0
 40
17.0
 40
17.0
 40
17.0
 40
18.0
 40
18.0
 40
18.0
 40
19.0
 40
19.0
 40
19.0
 40
19.0
 10
89.4837714077506
 20
-134.4923936295714
 30
0.0
 10
89.38834226280918
 20
-134.4923936295714
 30
0.0
 10
89.17061222814138
 20
-134.4713785471113
 30
0.0
 10
89.04555526202681
 20
-134.2849988813593
 30
0.0
 10
88.97183021864247
 20
-134.1730332780887
 30
0.0
 10
88.96735159451164
 20
-134.073470018565
 30
0.0
 10
88.96321747992934
 20
-133.9890651791764
 30
0.0
 10
88.96321747992934
 20
-133.9890651791764
 30
0.0
 10
89.1833590814368
 20
-133.9890651791764
 30
0.0
 10
89.1833590814368
 20
-133.9890651791764
 30
0.0
 10
89.18542613872795
 20
-134.0631347321092
 30
0.0
 10
89.1957614251837
 20
-134.2980902442033
 30
0.0
 10
89.47929278361977
 20
-134.2980902442033
 30
0.0
 10
89.61675209348124
 20
-134.2980902442033
 30
0.0
 10
89.7693698234778
 20
-134.2281548058527
 30
0.0
 10
89.7693698234778
 20
-133.9997449751806
 30
0.0
 10
89.7693698234778
 20
-133.8833007477792
 30
0.0
 10
89.73112926359153
 20
-133.8343803918886
 30
0.0
 10
89.69943438512723
 20
-133.8026855134243
 30
0.0
 10
89.62536483219436
 20
-133.72896047004
 30
0.0
 10
89.50892060479292
 20
-133.7162136167446
 30
0.0
 10
89.45414358657744
 20
-133.7162136167446
 30
0.0
 10
89.43485105186004
 20
-133.7162136167446
 30
0.0
 10
89.39902205881344
 20
-133.7182806740357
 30
0.0
 10
89.37146129493145
 20
-133.722414788618
 30
0.0
 10
89.37146129493145
 20
-133.722414788618
 30
0.0
 10
89.37146129493145
 20
-133.5277668937014
 30
0.0
 10
89.37146129493145
 20
-133.5277668937014
 30
0.0
 10
89.40970185481771
 20
-133.5339680655748
 30
0.0
 10
89.45173201973776
 20
-133.5363796324145
 30
0.0
 10
89.45827770115974
 20
-133.5363796324145
 30
0.0
 10
89.52373451537949
 20
-133.5363796324145
 30
0.0
 10
89.7225165248784
 20
-133.5153645499545
 30
0.0
 10
89.7225165248784
 20
-133.2783419805693
 30
0.0
 10
89.7225165248784
 20
-133.1005750535304
 30
0.0
 10
89.59160289643891
 20
-133.0454535257664
 30
0.0
 10
89.48135984091091
 20
-133.0454535257664
 30
0.0
 10
89.21712101719226
 20
-133.0454535257664
 30
0.0
 10
89.20850827847913
 20
-133.2783419805693
 30
0.0
 10
89.20437416389683
 20
-133.3499999666625
 30
0.0
 10
89.20437416389683
 20
-133.3499999666625
 30
0.0
 10
89.00111353026709
 20
-133.3499999666625
 30
0.0
 10
89.00111353026709
 20
-133.3499999666625
 30
0.0
 10
89.00972626898022
 20
-133.2252875100965
 30
0.0
 10
89.03728703286221
 20
-132.8487385735586
 30
0.0
 10
89.49410669420634
 20
-132.8487385735586
 30
0.0
 10
89.7183824102961
 20
-132.8487385735586
 30
0.0
 10
89.95953909426359
 20
-132.9758625969644
 30
0.0
 10
89.95953909426359
 20
-133.2717962991473
 30
0.0
 10
89.95953909426359
 20
-133.4581759648993
 30
0.0
 10
89.8644544588707
 20
-133.5405137469968
 30
0.0
 10
89.76489119934698
 20
-133.6018364466343
 30
0.0
 10
89.82621389898442
 20
-133.6293972105163
 30
0.0
 10
90.00811494060561
 20
-133.7096679353226
 30
0.0
 10
90.00811494060561
 20
-133.9869981218852
 30
0.0
 10
90.00811494060561
 20
-134.3256510080853
 30
0.0
 10
89.76075708476468
 20
-134.4923936295714
 30
0.0
 10
89.4837714077506
 20
-134.4923936295714
 30
0.0
  0
HATCH
  5
E2
330
DB
100
AcDbEntity
  8
_U+30EC_U+30A4_U+30E4_U+30FC 1
 62
   179
420
  2234388
100
AcDbHatch
 10
0.0
 20
0.0
 30
0.0
210
0.0
220
0.0
230
1.0
  2
SOLID
 70
     1
 71
     0
 91
        1
 92
        1
 93
        1
 72
     4
 94
        3
 73
     0
 74
     1
 95
       62
 96
       58
 40
0.0
 40
0.0
 40
0.0
 40
0.0
 40
1.0
 40
1.0
 40
1.0
 40
2.0
 40
2.0
 40
2.0
 40
3.0
 40
3.0
 40
3.0
 40
4.0
 40
4.0
 40
4.0
 40
5.0
 40
5.0
 40
5.0
 40
6.0
 40
6.0
 40
6.0
 40
7.0
 40
7.0
 40
7.0
 40
8.0
 40
8.0
 40
8.0
 40
9.0
 40
9.0
 40
9.0
 40
10.0
 40
10.0
 40
10.0
 40
11.0
 40
11.0
 40
11.0
 40
12.0
 40
12.0
 40
12.0
 40
13.0
 40
13.0
 40
13.0
 40
14.0
 40
14.0
 40
14.0
 40
15.0
 40
15.0
 40
15.0
 40
16.0
 40
16.0
 40
16.0
 40
17.0
 40
17.0
 40
17.0
 40
18.0
 40
18.0
 40
18.0
 40
19.0
 40
19.0
 40
19.0
 40
19.0
 10
89.4837714077506
 20
-134.4923936295714
 10
89.38834226280918
 20
-134.4923936295714
 10
89.17061222814138
 20
-134.4713785471113
 10
89.04555526202681
 20
-134.2849988813593
 10
88.97183021864247
 20
-134.1730332780887
 10
88.96735159451164
 20
-134.073470018565
 10
88.96321747992934
 20
-133.9890651791764
 10
88.96321747992934
 20
-133.9890651791764
 10
89.1833590814368
 20
-133.9890651791764
 10
89.1833590814368
 20
-133.9890651791764
 10
89.18542613872795
 20
-134.0631347321092
 10
89.1957614251837
 20
-134.2980902442033
 10
89.47929278361977
 20
-134.2980902442033
 10
89.61675209348124
 20
-134.2980902442033
 10
89.7693698234778
 20
-134.2281548058527
 10
89.7693698234778
 20
-133.9997449751806
 10
89.7693698234778
 20
-133.8833007477792
 10
89.73112926359153
 20
-133.8343803918886
 10
89.69943438512723
 20
-133.8026855134243
 10
89.62536483219436
 20
-133.72896047004
 10
89.50892060479292
 20
-133.7162136167446
 10
89.45414358657744
 20
-133.7162136167446
 10
89.43485105186004
 20
-133.7162136167446
 10
89.39902205881344
 20
-133.7182806740357
 10
89.37146129493145
 20
-133.722414788618
 10
89.37146129493145
 20
-133.722414788618
 10
89.37146129493145
 20
-133.5277668937014
 10
89.37146129493145
 20
-133.5277668937014
 10
89.40970185481771
 20
-133.5339680655748
 10
89.45173201973776
 20
-133.5363796324145
 10
89.45827770115974
 20
-133.5363796324145
 10
89.52373451537949
 20
-133.5363796324145
 10
89.7225165248784
 20
-133.5153645499545
 10
89.7225165248784
 20
-133.2783419805693
 10
89.7225165248784
 20
-133.1005750535304
 10
89.59160289643891
 20
-133.0454535257664
 10
89.48135984091091
 20
-133.0454535257664
 10
89.21712101719226
 20
-133.0454535257664
 10
89.20850827847913
 20
-133.2783419805693
 10
89.20437416389683
 20
-133.3499999666625
 10
89.20437416389683
 20
-133.3499999666625
 10
89.00111353026709
 20
-133.3499999666625
 10
89.00111353026709
 20
-133.3499999666625
 10
89.00972626898022
 20
-133.2252875100965
 10
89.03728703286221
 20
-132.8487385735586
 10
89.49410669420634
 20
-132.8487385735586
 10
89.7183824102961
 20
-132.8487385735586
 10
89.95953909426359
 20
-132.9758625969644
 10
89.95953909426359
 20
-133.2717962991473
 10
89.95953909426359
 20
-133.4581759648993
 10
89.8644544588707
 20
-133.5405137469968
 10
89.76489119934698
 20
-133.6018364466343
 10
89.82621389898442
 20
-133.6293972105163
 10
90.00811494060561
 20
-133.7096679353226
 10
90.00811494060561
 20
-133.9869981218852
 10
90.00811494060561
 20
-134.3256510080853
 10
89.76075708476468
 20
-134.4923936295714
 10
89.4837714077506
 20
-134.4923936295714
 97
        0
 97
        0
 75
     2
 76
     1
 98
        0
  0
ENDBLK
  5
DE
330
DB
100
AcDbEntity
  8
0
100
AcDbBlockEnd
  0
BLOCK
  5
E5
330
E3
100
AcDbEntity
  8
0
100
AcDbBlockBegin
  2
block 10
 70
     0
 10
0.0
 20
0.0
 30
0.0
  3
block 10
  1

  0
SPLINE
  5
E7
330
E3
100
AcDbEntity
  8
_U+30EC_U+30A4_U+30E4_U+30FC 1
 62
   179
420
  2234388
370
    25
100
AcDbSpline
210
0.0
220
0.0
230
1.0
 70
    11
 71
     3
 72
    17
 73
    13
 74
     0
 42
0.0000000001
 43
0.0000000001
 12
1.0
 22
0.0
 32
0.0
 13
1.0
 23
0.0
 33
0.0
 40
0.0
 40
0.0
 40
0.0
 40
0.0
 40
1.0
 40
1.0
 40
1.0
 40
2.0
 40
2.0
 40
2.0
 40
3.0
 40
3.0
 40
3.0
 40
4.0
 40
4.0
 40
4.0
 40
4.0
 10
85.67158725878016
 20
-133.0588877445133
 30
0.0
 10
85.67158725878016
 20
-133.0685185778441
 30
0.0
 10
85.66400253675144
 20
-133.0764560778418
 30
0.0
 10
85.65437170366381
 20
-133.0764560778418
 30
0.0
 10
85.64474087057619
 20
-133.0764560778418
 30
0.0
 10
85.6364527563686
 20
-133.0685185778441
 30
0.0
 10
85.6364527563686
 20
-133.0588877445133
 30
0.0
 10
85.6364527563686
 20
-133.0489041334047
 30
0.0
 10
85.64474087057619
 20
-133.0413194111841
 30
0.0
 10
85.65437170366381
 20
-133.0413194111841
 30
0.0
 10
85.66400253675144
 20
-133.0413194111841
 30
0.0
 10
85.67158725878016
 20
-133.0489041334047
 30
0.0
 10
85.67158725878016
 20
-133.0588877445133
 30
0.0
  0
ENDBLK
  5
E6
330
E3
100
AcDbEntity
  8
0
100
AcDbBlockEnd
  0
BLOCK
  5
EA
330
E8
100
AcDbEntity
  8
0
100
AcDbBlockBegin
  2
block 11
 70
     0
 10
0.0
 20
0.0
 30
0.0
  3
block 11
  1

  0
SPLINE
  5
EC
330
E8
100
AcDbEntity
  8
_U+30EC_U+30A4_U+30E4_U+30FC 1
 62
   179
420
  2234388
370
    25
100
AcDbSpline
210
0.0
220
0.0
230
1.0
 70
    11
 71
     3
 72
    17
 73
    13
 74
     0
 42
0.0000000001
 43
0.0000000001
 12
1.0
 22
0.0
 32
0.0
 13
1.0
 23
0.0
 33
0.0
 40
0.0
 40
0.0
 40
0.0
 40
0.0
 40
1.0
 40
1.0
 40
1.0
 40
2.0
 40
2.0
 40
2.0
 40
3.0
 40
3.0
 40
3.0
 40
4.0
 40
4.0
 40
4.0
 40
4.0
 10
92.17112959296303
 20
-133.0588877445133
 30
0.0
 10
92.17112959296303
 20
-133.0685185778441
 30
0.0
 10
92.16354719918141
 20
-133.0764560778418
 30
0.0
 10
92.1538787600698
 20
-133.0764560778418
 30
0.0
 10
92.14354237144461
 20
-133.0764560778418
 30
0.0
 10
92.13599292719277
 20
-133.0685185778441
 30
0.0
 10
92.13599292719277
 20
-133.0588877445133
 30
0.0
 10
92.13599292719277
 20
-133.0489041334047
 30
0.0
 10
92.14354237144461
 20
-133.0413194111841
 30
0.0
 10
92.1538787600698
 20
-133.0413194111841
 30
0.0
 10
92.16354719918141
 20
-133.0413194111841
 30
0.0
 10
92.17112959296303
 20
-133.0489041334047
 30
0.0
 10
92.17112959296303
 20
-133.0588877445133
 30
0.0
  0
ENDBLK
  5
EB
330
E8
100
AcDbEntity
  8
0
100
AcDbBlockEnd
  0
BLOCK
  5
EF
330
ED
100
AcDbEntity
  8
0
100
AcDbBlockBegin
  2
block 12
 70
     0
 10
0.0
 20
0.0
 30
0.0
  3
block 12
  1

  0
SPLINE
  5
F1
330
ED
100
AcDbEntity
  8
_U+30EC_U+30A4_U+30E4_U+30FC 1
 62
   179
420
  2234388
370
     9
100
AcDbSpline
210
0.0
220
0.0
230
1.0
 70
    11
 71
     3
 72
    17
 73
    13
 74
     0
 42
0.0000000001
 43
0.0000000001
 12
1.0
 22
0.0
 32
0.0
 13
1.0
 23
0.0
 33
0.0
 40
0.0
 40
0.0
 40
0.0
 40
0.0
 40
1.0
 40
1.0
 40
1.0
 40
2.0
 40
2.0
 40
2.0
 40
3.0
 40
3.0
 40
3.0
 40
4.0
 40
4.0
 40
4.0
 40
4.0
 10
92.17112959296303
 20
-135.0587849662355
 30
0.0
 10
92.17112959296303
 20
-135.0684157995663
 30
0.0
 10
92.16354719918141
 20
-135.0763532995641
 30
0.0
 10
92.1538787600698
 20
-135.0763532995641
 30
0.0
 10
92.14354237144461
 20
-135.0763532995641
 30
0.0
 10
92.13599292719277
 20
-135.0684157995663
 30
0.0
 10
92.13599292719277
 20
-135.0587849662355
 30
0.0
 10
92.13599292719277
 20
-135.0491188551265
 30
0.0
 10
92.14354237144461
 20
-135.0411813551288
 30
0.0
 10
92.1538787600698
 20
-135.0411813551288
 30
0.0
 10
92.16354719918141
 20
-135.0411813551288
 30
0.0
 10
92.17112959296303
 20
-135.0491188551265
 30
0.0
 10
92.17112959296303
 20
-135.0587849662355
 30
0.0
  0
ENDBLK
  5
F0
330
ED
100
AcDbEntity
  8
0
100
AcDbBlockEnd
  0
BLOCK
  5
100
330
FE
100
AcDbEntity
  8
0
100
AcDbBlockBegin
  2
block 13
 70
     0
 10
0.0
 20
0.0
 30
0.0
  3
block 13
  1

  0
SPLINE
  5
102
330
FE
100
AcDbEntity
  8
_U+30EC_U+30A4_U+30E4_U+30FC 1
370
     0
100
AcDbSpline
210
0.0
220
0.0
230
1.0
 70
    11
 71
     3
 72
    26
 73
    22
 74
     0
 42
0.0000000001
 43
0.0000000001
 12
1.0
 22
0.0
 32
0.0
 13
1.0
 23
0.0
 33
0.0
 40
0.0
 40
0.0
 40
0.0
 40
0.0
 40
1.0
 40
1.0
 40
1.0
 40
2.0
 40
2.0
 40
2.0
 40
3.0
 40
3.0
 40
3.0
 40
4.0
 40
4.0
 40
4.0
 40
5.0
 40
5.0
 40
5.0
 40
6.0
 40
6.0
 40
6.0
 40
7.0
 40
7.0
 40
7.0
 40
7.0
 10
80.27847627116303
 20
-130.4457844725969
 30
0.0
 10
80.27847627116303
 20
-130.4457844725969
 30
0.0
 10
79.17432316814045
 20
-130.4457844725969
 30
0.0
 10
79.17432316814045
 20
-130.4457844725969
 30
0.0
 10
79.17432316814045
 20
-130.4457844725969
 30
0.0
 10
79.17432316814045
 20
-130.7758246200838
 30
0.0
 10
79.17432316814045
 20
-130.7758246200838
 30
0.0
 10
79.17432316814045
 20
-130.7758246200838
 30
0.0
 10
79.02618406227471
 20
-130.7758246200838
 30
0.0
 10
79.02618406227471
 20
-130.7758246200838
 30
0.0
 10
79.01137015168813
 20
-130.4437174153057
 30
0.0
 10
78.84841713523582
 20
-130.3975531358034
 30
0.0
 10
78.73403996512552
 20
-130.3679253146302
 30
0.0
 10
78.73403996512552
 20
-130.3679253146302
 30
0.0
 10
78.73403996512552
 20
-130.2218532660557
 30
0.0
 10
78.73403996512552
 20
-130.2218532660557
 30
0.0
 10
78.73403996512552
 20
-130.2218532660557
 30
0.0
 10
80.27847627116303
 20
-130.2218532660557
 30
0.0
 10
80.27847627116303
 20
-130.2218532660557
 30
0.0
 10
80.27847627116303
 20
-130.2218532660557
 30
0.0
 10
80.27847627116303
 20
-130.4457844725969
 30
0.0
 10
80.27847627116303
 20
-130.4457844725969
 30
0.0
  0
HATCH
  5
103
330
FE
100
AcDbEntity
  8
_U+30EC_U+30A4_U+30E4_U+30FC 1
 62
   179
420
  2234388
100
AcDbHatch
 10
0.0
 20
0.0
 30
0.0
210
0.0
220
0.0
230
1.0
  2
SOLID
 70
     1
 71
     0
 91
        1
 92
        1
 93
        1
 72
     4
 94
        3
 73
     0
 74
     1
 95
       26
 96
       22
 40
0.0
 40
0.0
 40
0.0
 40
0.0
 40
1.0
 40
1.0
 40
1.0
 40
2.0
 40
2.0
 40
2.0
 40
3.0
 40
3.0
 40
3.0
 40
4.0
 40
4.0
 40
4.0
 40
5.0
 40
5.0
 40
5.0
 40
6.0
 40
6.0
 40
6.0
 40
7.0
 40
7.0
 40
7.0
 40
7.0
 10
80.27847627116303
 20
-130.4457844725969
 10
80.27847627116303
 20
-130.4457844725969
 10
79.17432316814045
 20
-130.4457844725969
 10
79.17432316814045
 20
-130.4457844725969
 10
79.17432316814045
 20
-130.4457844725969
 10
79.17432316814045
 20
-130.7758246200838
 10
79.17432316814045
 20
-130.7758246200838
 10
79.17432316814045
 20
-130.7758246200838
 10
79.02618406227471
 20
-130.7758246200838
 10
79.02618406227471
 20
-130.7758246200838
 10
79.01137015168813
 20
-130.4437174153057
 10
78.84841713523582
 20
-130.3975531358034
 10
78.73403996512552
 20
-130.3679253146302
 10
78.73403996512552
 20
-130.3679253146302
 10
78.73403996512552
 20
-130.2218532660557
 10
78.73403996512552
 20
-130.2218532660557
 10
78.73403996512552
 20
-130.2218532660557
 10
80.27847627116303
 20
-130.2218532660557
 10
80.27847627116303
 20
-130.2218532660557
 10
80.27847627116303
 20
-130.2218532660557
 10
80.27847627116303
 20
-130.4457844725969
 10
80.27847627116303
 20
-130.4457844725969
 97
        0
 97
        0
 75
     2
 76
     1
 98
        0
  0
SPLINE
  5
104
330
FE
100
AcDbEntity
  8
_U+30EC_U+30A4_U+30E4_U+30FC 1
370
     0
100
AcDbSpline
210
0.0
220
0.0
230
1.0
 70
    11
 71
     3
 72
    62
 73
    58
 74
     0
 42
0.0000000001
 43
0.0000000001
 12
1.0
 22
0.0
 32
0.0
 13
1.0
 23
0.0
 33
0.0
 40
0.0
 40
0.0
 40
0.0
 40
0.0
 40
1.0
 40
1.0
 40
1.0
 40
2.0
 40
2.0
 40
2.0
 40
3.0
 40
3.0
 40
3.0
 40
4.0
 40
4.0
 40
4.0
 40
5.0
 40
5.0
 40
5.0
 40
6.0
 40
6.0
 40
6.0
 40
7.0
 40
7.0
 40
7.0
 40
8.0
 40
8.0
 40
8.0
 40
9.0
 40
9.0
 40
9.0
 40
10.0
 40
10.0
 40
10.0
 40
11.0
 40
11.0
 40
11.0
 40
12.0
 40
12.0
 40
12.0
 40
13.0
 40
13.0
 40
13.0
 40
14.0
 40
14.0
 40
14.0
 40
15.0
 40
15.0
 40
15.0
 40
16.0
 40
16.0
 40
16.0
 40
17.0
 40
17.0
 40
17.0
 40
18.0
 40
18.0
 40
18.0
 40
19.0
 40
19.0
 40
19.0
 40
19.0
 10
80.32911917479619
 20
-129.2289767472066
 30
0.0
 10
80.32911917479619
 20
-129.3240613825996
 30
0.0
 10
80.30810409233617
 20
-129.5421359268159
 30
0.0
 10
80.12206893613268
 20
-129.6668483833819
 30
0.0
 10
80.00975882331353
 20
-129.7409179363148
 30
0.0
 10
79.91054007333834
 20
-129.7450520508971
 30
0.0
 10
79.8257907244012
 20
-129.7491861654794
 30
0.0
 10
79.8257907244012
 20
-129.7491861654794
 30
0.0
 10
79.8257907244012
 20
-129.5293890735204
 30
0.0
 10
79.8257907244012
 20
-129.5293890735204
 30
0.0
 10
79.89986027733407
 20
-129.5273220162293
 30
0.0
 10
80.13447127987958
 20
-129.516642220225
 30
0.0
 10
80.13447127987958
 20
-129.233110861789
 30
0.0
 10
80.13447127987958
 20
-129.0956515519275
 30
0.0
 10
80.06488035107753
 20
-128.9433783314794
 30
0.0
 10
79.83647052040547
 20
-128.9433783314794
 30
0.0
 10
79.72002629300403
 20
-128.9433783314794
 30
0.0
 10
79.671450446662
 20
-128.9816188913657
 30
0.0
 10
79.6397555681977
 20
-129.01331376983
 30
0.0
 10
79.56568601526483
 20
-129.0870388132143
 30
0.0
 10
79.5529391619694
 20
-129.2034830406158
 30
0.0
 10
79.5529391619694
 20
-129.2586045683798
 30
0.0
 10
79.5529391619694
 20
-129.2775525935487
 30
0.0
 10
79.55500621926056
 20
-129.3137260961438
 30
0.0
 10
79.55914033384286
 20
-129.3412868600258
 30
0.0
 10
79.55914033384286
 20
-129.3412868600258
 30
0.0
 10
79.36449243892625
 20
-129.3412868600258
 30
0.0
 10
79.36449243892625
 20
-129.3412868600258
 30
0.0
 10
79.37103812034822
 20
-129.3030463001395
 30
0.0
 10
79.37310517763936
 20
-129.2606716256709
 30
0.0
 10
79.37310517763936
 20
-129.2544704537975
 30
0.0
 10
79.37310517763936
 20
-129.1890136395778
 30
0.0
 10
79.35174558563082
 20
-128.9898871205303
 30
0.0
 10
79.11506752579416
 20
-128.9898871205303
 30
0.0
 10
78.93730059875526
 20
-128.9898871205303
 30
0.0
 10
78.88217907099127
 20
-129.1211452585183
 30
0.0
 10
78.88217907099127
 20
-129.2310438044978
 30
0.0
 10
78.88217907099127
 20
-129.495627137765
 30
0.0
 10
79.11506752579416
 20
-129.5038953669296
 30
0.0
 10
79.18672551188735
 20
-129.5080294815119
 30
0.0
 10
79.18672551188735
 20
-129.5080294815119
 30
0.0
 10
79.18672551188735
 20
-129.7112901151416
 30
0.0
 10
79.18672551188735
 20
-129.7112901151416
 30
0.0
 10
79.0620130553213
 20
-129.703021885977
 30
0.0
 10
78.6854641187835
 20
-129.675461122095
 30
0.0
 10
78.6854641187835
 20
-129.2186414607509
 30
0.0
 10
78.6854641187835
 20
-128.9940212351126
 30
0.0
 10
78.81258814218921
 20
-128.7530368059194
 30
0.0
 10
79.10852184437218
 20
-128.7530368059194
 30
0.0
 10
79.29490151012419
 20
-128.7530368059194
 30
0.0
 10
79.37723929222166
 20
-128.847949186538
 30
0.0
 10
79.43856199185912
 20
-128.9478569556103
 30
0.0
 10
79.46612275574111
 20
-128.8861897464243
 30
0.0
 10
79.54639348054744
 20
-128.7042887048031
 30
0.0
 10
79.82372366711004
 20
-128.7042887048031
 30
0.0
 10
80.16203204376158
 20
-128.7042887048031
 30
0.0
 10
80.32911917479619
 20
-128.9519910701926
 30
0.0
 10
80.32911917479619
 20
-129.2289767472066
 30
0.0
  0
HATCH
  5
105
330
FE
100
AcDbEntity
  8
_U+30EC_U+30A4_U+30E4_U+30FC 1
 62
   179
420
  2234388
100
AcDbHatch
 10
0.0
 20
0.0
 30
0.0
210
0.0
220
0.0
230
1.0
  2
SOLID
 70
     1
 71
     0
 91
        1
 92
        1
 93
        1
 72
     4
 94
        3
 73
     0
 74
     1
 95
       62
 96
       58
 40
0.0
 40
0.0
 40
0.0
 40
0.0
 40
1.0
 40
1.0
 40
1.0
 40
2.0
 40
2.0
 40
2.0
 40
3.0
 40
3.0
 40
3.0
 40
4.0
 40
4.0
 40
4.0
 40
5.0
 40
5.0
 40
5.0
 40
6.0
 40
6.0
 40
6.0
 40
7.0
 40
7.0
 40
7.0
 40
8.0
 40
8.0
 40
8.0
 40
9.0
 40
9.0
 40
9.0
 40
10.0
 40
10.0
 40
10.0
 40
11.0
 40
11.0
 40
11.0
 40
12.0
 40
12.0
 40
12.0
 40
13.0
 40
13.0
 40
13.0
 40
14.0
 40
14.0
 40
14.0
 40
15.0
 40
15.0
 40
15.0
 40
16.0
 40
16.0
 40
16.0
 40
17.0
 40
17.0
 40
17.0
 40
18.0
 40
18.0
 40
18.0
 40
19.0
 40
19.0
 40
19.0
 40
19.0
 10
80.32911917479619
 20
-129.2289767472066
 10
80.32911917479619
 20
-129.3240613825996
 10
80.30810409233617
 20
-129.5421359268159
 10
80.12206893613268
 20
-129.6668483833819
 10
80.00975882331353
 20
-129.7409179363148
 10
79.91054007333834
 20
-129.7450520508971
 10
79.8257907244012
 20
-129.7491861654794
 10
79.8257907244012
 20
-129.7491861654794
 10
79.8257907244012
 20
-129.5293890735204
 10
79.8257907244012
 20
-129.5293890735204
 10
79.89986027733407
 20
-129.5273220162293
 10
80.13447127987958
 20
-129.516642220225
 10
80.13447127987958
 20
-129.233110861789
 10
80.13447127987958
 20
-129.0956515519275
 10
80.06488035107753
 20
-128.9433783314794
 10
79.83647052040547
 20
-128.9433783314794
 10
79.72002629300403
 20
-128.9433783314794
 10
79.671450446662
 20
-128.9816188913657
 10
79.6397555681977
 20
-129.01331376983
 10
79.56568601526483
 20
-129.0870388132143
 10
79.5529391619694
 20
-129.2034830406158
 10
79.5529391619694
 20
-129.2586045683798
 10
79.5529391619694
 20
-129.2775525935487
 10
79.55500621926056
 20
-129.3137260961438
 10
79.55914033384286
 20
-129.3412868600258
 10
79.55914033384286
 20
-129.3412868600258
 10
79.36449243892625
 20
-129.3412868600258
 10
79.36449243892625
 20
-129.3412868600258
 10
79.37103812034822
 20
-129.3030463001395
 10
79.37310517763936
 20
-129.2606716256709
 10
79.37310517763936
 20
-129.2544704537975
 10
79.37310517763936
 20
-129.1890136395778
 10
79.35174558563082
 20
-128.9898871205303
 10
79.11506752579416
 20
-128.9898871205303
 10
78.93730059875526
 20
-128.9898871205303
 10
78.88217907099127
 20
-129.1211452585183
 10
78.88217907099127
 20
-129.2310438044978
 10
78.88217907099127
 20
-129.495627137765
 10
79.11506752579416
 20
-129.5038953669296
 10
79.18672551188735
 20
-129.5080294815119
 10
79.18672551188735
 20
-129.5080294815119
 10
79.18672551188735
 20
-129.7112901151416
 10
79.18672551188735
 20
-129.7112901151416
 10
79.0620130553213
 20
-129.703021885977
 10
78.6854641187835
 20
-129.675461122095
 10
78.6854641187835
 20
-129.2186414607509
 10
78.6854641187835
 20
-128.9940212351126
 10
78.81258814218921
 20
-128.7530368059194
 10
79.10852184437218
 20
-128.7530368059194
 10
79.29490151012419
 20
-128.7530368059194
 10
79.37723929222166
 20
-128.847949186538
 10
79.43856199185912
 20
-128.9478569556103
 10
79.46612275574111
 20
-128.8861897464243
 10
79.54639348054744
 20
-128.7042887048031
 10
79.82372366711004
 20
-128.7042887048031
 10
80.16203204376158
 20
-128.7042887048031
 10
80.32911917479619
 20
-128.9519910701926
 10
80.32911917479619
 20
-129.2289767472066
 97
        0
 97
        0
 75
     2
 76
     1
 98
        0
  0
ENDBLK
  5
101
330
FE
100
AcDbEntity
  8
0
100
AcDbBlockEnd
  0
BLOCK
  5
108
330
106
100
AcDbEntity
  8
0
100
AcDbBlockBegin
  2
block 14
 70
     0
 10
0.0
 20
0.0
 30
0.0
  3
block 14
  1

  0
SPLINE
  5
10A
330
106
100
AcDbEntity
  8
_U+30EC_U+30A4_U+30E4_U+30FC 1
 62
   179
420
  2234388
370
    25
100
AcDbSpline
210
0.0
220
0.0
230
1.0
 70
    11
 71
     3
 72
    17
 73
    13
 74
     0
 42
0.0000000001
 43
0.0000000001
 12
1.0
 22
0.0
 32
0.0
 13
1.0
 23
0.0
 33
0.0
 40
0.0
 40
0.0
 40
0.0
 40
0.0
 40
1.0
 40
1.0
 40
1.0
 40
2.0
 40
2.0
 40
2.0
 40
3.0
 40
3.0
 40
3.0
 40
4.0
 40
4.0
 40
4.0
 40
4.0
 10
82.67160039087176
 20
-126.5588513572491
 30
0.0
 10
82.67160039087176
 20
-126.5685174683578
 30
0.0
 10
82.66401566884304
 20
-126.576419690578
 30
0.0
 10
82.65438483575541
 20
-126.576419690578
 30
0.0
 10
82.64475400266778
 20
-126.576419690578
 30
0.0
 10
82.6364637251015
 20
-126.5685174683578
 30
0.0
 10
82.6364637251015
 20
-126.5588513572491
 30
0.0
 10
82.6364637251015
 20
-126.5492205239183
 30
0.0
 10
82.64475400266778
 20
-126.5412830239203
 30
0.0
 10
82.65438483575541
 20
-126.5412830239203
 30
0.0
 10
82.66401566884304
 20
-126.5412830239203
 30
0.0
 10
82.67160039087176
 20
-126.5492205239183
 30
0.0
 10
82.67160039087176
 20
-126.5588513572491
 30
0.0
  0
ENDBLK
  5
109
330
106
100
AcDbEntity
  8
0
100
AcDbBlockEnd
  0
BLOCK
  5
10D
330
10B
100
AcDbEntity
  8
0
100
AcDbBlockBegin
  2
block 15
 70
     0
 10
0.0
 20
0.0
 30
0.0
  3
block 15
  1

  0
SPLINE
  5
10F
330
10B
100
AcDbEntity
  8
_U+30EC_U+30A4_U+30E4_U+30FC 1
 62
   179
420
  2234388
370
    25
100
AcDbSpline
210
0.0
220
0.0
230
1.0
 70
    11
 71
     3
 72
    17
 73
    13
 74
     0
 42
0.0000000001
 43
0.0000000001
 12
1.0
 22
0.0
 32
0.0
 13
1.0
 23
0.0
 33
0.0
 40
0.0
 40
0.0
 40
0.0
 40
0.0
 40
1.0
 40
1.0
 40
1.0
 40
2.0
 40
2.0
 40
2.0
 40
3.0
 40
3.0
 40
3.0
 40
4.0
 40
4.0
 40
4.0
 40
4.0
 10
82.67160039087176
 20
-133.0588877445133
 30
0.0
 10
82.67160039087176
 20
-133.0685185778441
 30
0.0
 10
82.66401566884304
 20
-133.0764560778418
 30
0.0
 10
82.65438483575541
 20
-133.0764560778418
 30
0.0
 10
82.64475400266778
 20
-133.0764560778418
 30
0.0
 10
82.6364637251015
 20
-133.0685185778441
 30
0.0
 10
82.6364637251015
 20
-133.0588877445133
 30
0.0
 10
82.6364637251015
 20
-133.0489041334047
 30
0.0
 10
82.64475400266778
 20
-133.0413194111841
 30
0.0
 10
82.65438483575541
 20
-133.0413194111841
 30
0.0
 10
82.66401566884304
 20
-133.0413194111841
 30
0.0
 10
82.67160039087176
 20
-133.0489041334047
 30
0.0
 10
82.67160039087176
 20
-133.0588877445133
 30
0.0
  0
ENDBLK
  5
10E
330
10B
100
AcDbEntity
  8
0
100
AcDbBlockEnd
  0
BLOCK
  5
112
330
110
100
AcDbEntity
  8
0
100
AcDbBlockBegin
  2
block 16
 70
     0
 10
0.0
 20
0.0
 30
0.0
  3
block 16
  1

  0
SPLINE
  5
114
330
110
100
AcDbEntity
  8
_U+30EC_U+30A4_U+30E4_U+30FC 1
 62
   179
420
  2234388
370
     9
100
AcDbSpline
210
0.0
220
0.0
230
1.0
 70
    11
 71
     3
 72
    17
 73
    13
 74
     0
 42
0.0000000001
 43
0.0000000001
 12
1.0
 22
0.0
 32
0.0
 13
1.0
 23
0.0
 33
0.0
 40
0.0
 40
0.0
 40
0.0
 40
0.0
 40
1.0
 40
1.0
 40
1.0
 40
2.0
 40
2.0
 40
2.0
 40
3.0
 40
3.0
 40
3.0
 40
4.0
 40
4.0
 40
4.0
 40
4.0
 10
80.67209127521681
 20
-133.0588877445133
 30
0.0
 10
80.67209127521681
 20
-133.0685185778441
 30
0.0
 10
80.66380099765054
 20
-133.0764560778418
 30
0.0
 10
80.65417220205876
 20
-133.0764560778418
 30
0.0
 10
80.64450405369841
 20
-133.0764560778418
 30
0.0
 10
80.63624905390901
 20
-133.0685185778441
 30
0.0
 10
80.63624905390901
 20
-133.0588877445133
 30
0.0
 10
80.63624905390901
 20
-133.0489041334047
 30
0.0
 10
80.64450405369841
 20
-133.0413194111841
 30
0.0
 10
80.65417220205876
 20
-133.0413194111841
 30
0.0
 10
80.66380099765054
 20
-133.0413194111841
 30
0.0
 10
80.67209127521681
 20
-133.0489041334047
 30
0.0
 10
80.67209127521681
 20
-133.0588877445133
 30
0.0
  0
ENDBLK
  5
113
330
110
100
AcDbEntity
  8
0
100
AcDbBlockEnd
  0
ENDSEC
  0
SECTION
  2
ENTITIES
  0
SPLINE
  5
41
330
1F
100
AcDbEntity
  8
_U+30EC_U+30A4_U+30E4_U+30FC 1
370
     0
100
AcDbSpline
210
0.0
220
0.0
230
1.0
 70
    11
 71
     3
 72
    74
 73
    70
 74
     0
 42
0.0000000001
 43
0.0000000001
 12
1.0
 22
0.0
 32
0.0
 13
1.0
 23
0.0
 33
0.0
 40
0.0
 40
0.0
 40
0.0
 40
0.0
 40
1.0
 40
1.0
 40
1.0
 40
2.0
 40
2.0
 40
2.0
 40
3.0
 40
3.0
 40
3.0
 40
4.0
 40
4.0
 40
4.0
 40
5.0
 40
5.0
 40
5.0
 40
6.0
 40
6.0
 40
6.0
 40
7.0
 40
7.0
 40
7.0
 40
8.0
 40
8.0
 40
8.0
 40
9.0
 40
9.0
 40
9.0
 40
10.0
 40
10.0
 40
10.0
 40
11.0
 40
11.0
 40
11.0
 40
12.0
 40
12.0
 40
12.0
 40
13.0
 40
13.0
 40
13.0
 40
14.0
 40
14.0
 40
14.0
 40
15.0
 40
15.0
 40
15.0
 40
16.0
 40
16.0
 40
16.0
 40
17.0
 40
17.0
 40
17.0
 40
18.0
 40
18.0
 40
18.0
 40
19.0
 40
19.0
 40
19.0
 40
20.0
 40
20.0
 40
20.0
 40
21.0
 40
21.0
 40
21.0
 40
22.0
 40
22.0
 40
22.0
 40
23.0
 40
23.0
 40
23.0
 40
23.0
 10
82.67160039087176
 20
-126.5588513572491
 30
0.0
 10
82.67160039087176
 20
-126.5685174683578
 30
0.0
 10
82.66401566884304
 20
-126.576419690578
 30
0.0
 10
82.65438483575541
 20
-126.576419690578
 30
0.0
 10
82.65438483575541
 20
-126.576419690578
 30
0.0
 10
82.65438483575541
 20
-133.0413194111841
 30
0.0
 10
82.65438483575541
 20
-133.0413194111841
 30
0.0
 10
82.66401566884304
 20
-133.0413194111841
 30
0.0
 10
82.67160039087176
 20
-133.0489041334047
 30
0.0
 10
82.67160039087176
 20
-133.0588877445133
 30
0.0
 10
82.67160039087176
 20
-133.0588877445133
 30
0.0
 10
85.6364527563686
 20
-133.0588877445133
 30
0.0
 10
85.6364527563686
 20
-133.0588877445133
 30
0.0
 10
85.6364527563686
 20
-133.0489041334047
 30
0.0
 10
85.64474087057619
 20
-133.0413194111841
 30
0.0
 10
85.65437170366381
 20
-133.0413194111841
 30
0.0
 10
85.65437170366381
 20
-133.0413194111841
 30
0.0
 10
85.65437170366381
 20
-131.9337383003497
 30
0.0
 10
85.65437170366381
 20
-131.9337383003497
 30
0.0
 10
85.65437170366381
 20
-131.7266577448461
 30
0.0
 10
85.48623781906437
 20
-131.5589119115546
 30
0.0
 10
85.27887504657687
 20
-131.5589119115546
 30
0.0
 10
85.07214727407315
 20
-131.5589119115546
 30
0.0
 10
84.90404866725059
 20
-131.7266577448461
 30
0.0
 10
84.90404866725059
 20
-131.9337383003497
 30
0.0
 10
84.90404866725059
 20
-131.9337383003497
 30
0.0
 10
84.90404866725059
 20
-132.3088821891452
 30
0.0
 10
84.90404866725059
 20
-132.3088821891452
 30
0.0
 10
84.90404866725059
 20
-132.3088821891452
 30
0.0
 10
83.40403759440795
 20
-132.3088821891452
 30
0.0
 10
83.40403759440795
 20
-132.3088821891452
 30
0.0
 10
83.40403759440795
 20
-132.3088821891452
 30
0.0
 10
83.40403759440795
 20
-127.3088569126173
 30
0.0
 10
83.40403759440795
 20
-127.3088569126173
 30
0.0
 10
83.40403759440795
 20
-127.3088569126173
 30
0.0
 10
94.40354259156499
 20
-127.3088569126173
 30
0.0
 10
94.40354259156499
 20
-127.3088569126173
 30
0.0
 10
94.40354259156499
 20
-127.3088569126173
 30
0.0
 10
94.40354259156499
 20
-132.3088821891452
 30
0.0
 10
94.40354259156499
 20
-132.3088821891452
 30
0.0
 10
94.40354259156499
 20
-132.3088821891452
 30
0.0
 10
92.90353151872235
 20
-132.3088821891452
 30
0.0
 10
92.90353151872235
 20
-132.3088821891452
 30
0.0
 10
92.90353151872235
 20
-132.3088821891452
 30
0.0
 10
92.90353151872235
 20
-131.9337383003497
 30
0.0
 10
92.90353151872235
 20
-131.9337383003497
 30
0.0
 10
92.90353151872235
 20
-131.7266577448461
 30
0.0
 10
92.73543291189978
 20
-131.5589119115546
 30
0.0
 10
92.52870513939607
 20
-131.5589119115546
 30
0.0
 10
92.32130708913168
 20
-131.5589119115546
 30
0.0
 10
92.1538787600698
 20
-131.7266577448461
 30
0.0
 10
92.1538787600698
 20
-131.9337383003497
 30
0.0
 10
92.1538787600698
 20
-131.9337383003497
 30
0.0
 10
92.1538787600698
 20
-133.0413194111841
 30
0.0
 10
92.1538787600698
 20
-133.0413194111841
 30
0.0
 10
92.16354719918141
 20
-133.0413194111841
 30
0.0
 10
92.17112959296303
 20
-133.0489041334047
 30
0.0
 10
92.17112959296303
 20
-133.0588877445133
 30
0.0
 10
92.17112959296303
 20
-133.0588877445133
 30
0.0
 10
95.1538656279782
 20
-133.0588877445133
 30
0.0
 10
95.1538656279782
 20
-133.0588877445133
 30
0.0
 10
95.1538656279782
 20
-133.0588877445133
 30
0.0
 10
95.1538656279782
 20
-126.576419690578
 30
0.0
 10
95.1538656279782
 20
-126.576419690578
 30
0.0
 10
95.14423479489056
 20
-126.576419690578
 30
0.0
 10
95.13597979510118
 20
-126.5685174683578
 30
0.0
 10
95.13597979510118
 20
-126.5588513572491
 30
0.0
 10
95.13597979510118
 20
-126.5588513572491
 30
0.0
 10
82.67160039087176
 20
-126.5588513572491
 30
0.0
 10
82.67160039087176
 20
-126.5588513572491
 30
0.0
  0
HATCH
  5
42
330
1F
100
AcDbEntity
  8
_U+30EC_U+30A4_U+30E4_U+30FC 1
 62
   253
420
 11711154
100
AcDbHatch
 10
0.0
 20
0.0
 30
0.0
210
0.0
220
0.0
230
1.0
  2
SOLID
 70
     1
 71
     0
 91
        1
 92
        1
 93
        1
 72
     4
 94
        3
 73
     0
 74
     1
 95
       74
 96
       70
 40
0.0
 40
0.0
 40
0.0
 40
0.0
 40
1.0
 40
1.0
 40
1.0
 40
2.0
 40
2.0
 40
2.0
 40
3.0
 40
3.0
 40
3.0
 40
4.0
 40
4.0
 40
4.0
 40
5.0
 40
5.0
 40
5.0
 40
6.0
 40
6.0
 40
6.0
 40
7.0
 40
7.0
 40
7.0
 40
8.0
 40
8.0
 40
8.0
 40
9.0
 40
9.0
 40
9.0
 40
10.0
 40
10.0
 40
10.0
 40
11.0
 40
11.0
 40
11.0
 40
12.0
 40
12.0
 40
12.0
 40
13.0
 40
13.0
 40
13.0
 40
14.0
 40
14.0
 40
14.0
 40
15.0
 40
15.0
 40
15.0
 40
16.0
 40
16.0
 40
16.0
 40
17.0
 40
17.0
 40
17.0
 40
18.0
 40
18.0
 40
18.0
 40
19.0
 40
19.0
 40
19.0
 40
20.0
 40
20.0
 40
20.0
 40
21.0
 40
21.0
 40
21.0
 40
22.0
 40
22.0
 40
22.0
 40
23.0
 40
23.0
 40
23.0
 40
23.0
 10
82.67160039087176
 20
-126.5588513572491
 10
82.67160039087176
 20
-126.5685174683578
 10
82.66401566884304
 20
-126.576419690578
 10
82.65438483575541
 20
-126.576419690578
 10
82.65438483575541
 20
-126.576419690578
 10
82.65438483575541
 20
-133.0413194111841
 10
82.65438483575541
 20
-133.0413194111841
 10
82.66401566884304
 20
-133.0413194111841
 10
82.67160039087176
 20
-133.0489041334047
 10
82.67160039087176
 20
-133.0588877445133
 10
82.67160039087176
 20
-133.0588877445133
 10
85.6364527563686
 20
-133.0588877445133
 10
85.6364527563686
 20
-133.0588877445133
 10
85.6364527563686
 20
-133.0489041334047
 10
85.64474087057619
 20
-133.0413194111841
 10
85.65437170366381
 20
-133.0413194111841
 10
85.65437170366381
 20
-133.0413194111841
 10
85.65437170366381
 20
-131.9337383003497
 10
85.65437170366381
 20
-131.9337383003497
 10
85.65437170366381
 20
-131.7266577448461
 10
85.48623781906437
 20
-131.5589119115546
 10
85.27887504657687
 20
-131.5589119115546
 10
85.07214727407315
 20
-131.5589119115546
 10
84.90404866725059
 20
-131.7266577448461
 10
84.90404866725059
 20
-131.9337383003497
 10
84.90404866725059
 20
-131.9337383003497
 10
84.90404866725059
 20
-132.3088821891452
 10
84.90404866725059
 20
-132.3088821891452
 10
84.90404866725059
 20
-132.3088821891452
 10
83.40403759440795
 20
-132.3088821891452
 10
83.40403759440795
 20
-132.3088821891452
 10
83.40403759440795
 20
-132.3088821891452
 10
83.40403759440795
 20
-127.3088569126173
 10
83.40403759440795
 20
-127.3088569126173
 10
83.40403759440795
 20
-127.3088569126173
 10
94.40354259156499
 20
-127.3088569126173
 10
94.40354259156499
 20
-127.3088569126173
 10
94.40354259156499
 20
-127.3088569126173
 10
94.40354259156499
 20
-132.3088821891452
 10
94.40354259156499
 20
-132.3088821891452
 10
94.40354259156499
 20
-132.3088821891452
 10
92.90353151872235
 20
-132.3088821891452
 10
92.90353151872235
 20
-132.3088821891452
 10
92.90353151872235
 20
-132.3088821891452
 10
92.90353151872235
 20
-131.9337383003497
 10
92.90353151872235
 20
-131.9337383003497
 10
92.90353151872235
 20
-131.7266577448461
 10
92.73543291189978
 20
-131.5589119115546
 10
92.52870513939607
 20
-131.5589119115546
 10
92.32130708913168
 20
-131.5589119115546
 10
92.1538787600698
 20
-131.7266577448461
 10
92.1538787600698
 20
-131.9337383003497
 10
92.1538787600698
 20
-131.9337383003497
 10
92.1538787600698
 20
-133.0413194111841
 10
92.1538787600698
 20
-133.0413194111841
 10
92.16354719918141
 20
-133.0413194111841
 10
92.17112959296303
 20
-133.0489041334047
 10
92.17112959296303
 20
-133.0588877445133
 10
92.17112959296303
 20
-133.0588877445133
 10
95.1538656279782
 20
-133.0588877445133
 10
95.1538656279782
 20
-133.0588877445133
 10
95.1538656279782
 20
-133.0588877445133
 10
95.1538656279782
 20
-126.576419690578
 10
95.1538656279782
 20
-126.576419690578
 10
95.14423479489056
 20
-126.576419690578
 10
95.13597979510118
 20
-126.5685174683578
 10
95.13597979510118
 20
-126.5588513572491
 10
95.13597979510118
 20
-126.5588513572491
 10
82.67160039087176
 20
-126.5588513572491
 10
82.67160039087176
 20
-126.5588513572491
 97
        0
 97
        0
 75
     2
 76
     1
 98
        0
  0
INSERT
  5
44
330
1F
100
AcDbEntity
  8
_U+30EC_U+30A4_U+30E4_U+30FC 1
100
AcDbBlockReference
  2
block 2
 10
0.0
 20
0.0
 30
0.0
  0
ENDSEC
  0
SECTION
  2
OBJECTS
  0
DICTIONARY
  5
C
330
0
100
AcDbDictionary
281
     1
  3
ACAD_GROUP
350
D
  3
ACAD_LAYOUT
350
1A
  3
ACAD_MATERIAL
350
3B
  3
ACAD_MLEADERSTYLE
350
116
  3
ACAD_MLINESTYLE
350
17
  3
ACAD_PLOTSETTINGS
350
19
  3
ACAD_PLOTSTYLENAME
350
E
  3
ACAD_TABLESTYLE
350
115
  3
ACAD_VISUALSTYLE
350
2A
  0
SUN
  5
3F
330
29
100
AcDbSun
 90
        1
290
     0
 63
     7
421
 16777215
 40
1.0
291
     1
 91
  2455826
 92
 54000000
292
     0
 70
     2
 71
   256
280
     1
  0
DICTIONARY
  5
D
102
{ACAD_REACTORS
330
C
102
}
330
C
100
AcDbDictionary
281
     1
  0
DICTIONARY
  5
1A
102
{ACAD_REACTORS
330
C
102
}
330
C
100
AcDbDictionary
281
     1
  3
Layout1
350
1E
  3
Layout2
350
26
  3
Model
350
22
  0
DICTIONARY
  5
3B
102
{ACAD_REACTORS
330
C
102
}
330
C
100
AcDbDictionary
281
     1
  3
ByBlock
350
3D
  3
ByLayer
350
3C
  3
Global
350
3E
  0
DICTIONARY
  5
116
102
{ACAD_REACTORS
330
C
102
}
330
C
100
AcDbDictionary
281
     1
  0
DICTIONARY
  5
17
102
{ACAD_REACTORS
330
C
102
}
330
C
100
AcDbDictionary
281
     1
  3
Standard
350
18
  0
DICTIONARY
  5
19
102
{ACAD_REACTORS
330
C
102
}
330
C
100
AcDbDictionary
281
     1
  0
ACDBDICTIONARYWDFLT
  5
E
102
{ACAD_REACTORS
330
C
102
}
330
C
100
AcDbDictionary
281
     1
  3
Normal
350
F
100
AcDbDictionaryWithDefault
340
F
  0
DICTIONARY
  5
115
102
{ACAD_REACTORS
330
C
102
}
330
C
100
AcDbDictionary
281
     1
  0
DICTIONARY
  5
2A
102
{ACAD_REACTORS
330
C
102
}
330
C
100
AcDbDictionary
281
     1
  3
2dWireframe
350
2F
  3
3D Hidden
350
31
  3
3dWireframe
350
30
  3
Basic
350
32
  3
Brighten
350
36
  3
ColorChange
350
3A
  3
Conceptual
350
34
  3
Dim
350
35
  3
Facepattern
350
39
  3
Flat
350
2B
  3
FlatWithEdges
350
2C
  3
Gouraud
350
2D
  3
GouraudWithEdges
350
2E
  3
Linepattern
350
38
  3
Realistic
350
33
  3
Thicken
350
37
  0
LAYOUT
  5
1E
102
{ACAD_REACTORS
330
1A
102
}
330
1A
100
AcDbPlotSettings
  1

  2
none_device
  4

  6

 40
0.0
 41
0.0
 42
0.0
 43
0.0
 44
0.0
 45
0.0
 46
0.0
 47
0.0
 48
0.0
 49
0.0
140
0.0
141
0.0
142
1.0
143
1.0
 70
   688
 72
     0
 73
     0
 74
     5
  7

 75
    16
 76
     0
 77
     2
 78
   300
147
1.0
148
0.0
149
0.0
100
AcDbLayout
  1
Layout1
 70
     1
 71
     1
 10
0.0
 20
0.0
 11
12.0
 21
9.0
 12
0.0
 22
0.0
 32
0.0
 14
1.000000000000000E+20
 24
1.000000000000000E+20
 34
1.000000000000000E+20
 15
-1.000000000000000E+20
 25
-1.000000000000000E+20
 35
-1.000000000000000E+20
146
0.0
 13
0.0
 23
0.0
 33
0.0
 16
1.0
 26
0.0
 36
0.0
 17
0.0
 27
1.0
 37
0.0
 76
     0
330
1B
  0
LAYOUT
  5
26
102
{ACAD_REACTORS
330
1A
102
}
330
1A
100
AcDbPlotSettings
  1

  2
none_device
  4

  6

 40
0.0
 41
0.0
 42
0.0
 43
0.0
 44
0.0
 45
0.0
 46
0.0
 47
0.0
 48
0.0
 49
0.0
140
0.0
141
0.0
142
1.0
143
1.0
 70
   688
 72
     0
 73
     0
 74
     5
  7

 75
    16
 76
     0
 77
     2
 78
   300
147
1.0
148
0.0
149
0.0
100
AcDbLayout
  1
Layout2
 70
     1
 71
     2
 10
0.0
 20
0.0
 11
0.0
 21
0.0
 12
0.0
 22
0.0
 32
0.0
 14
0.0
 24
0.0
 34
0.0
 15
0.0
 25
0.0
 35
0.0
146
0.0
 13
0.0
 23
0.0
 33
0.0
 16
1.0
 26
0.0
 36
0.0
 17
0.0
 27
1.0
 37
0.0
 76
     0
330
23
  0
LAYOUT
  5
22
102
{ACAD_REACTORS
330
1A
102
}
330
1A
100
AcDbPlotSettings
  1

  2
none_device
  4

  6

 40
0.0
 41
0.0
 42
0.0
 43
0.0
 44
0.0
 45
0.0
 46
0.0
 47
0.0
 48
0.0
 49
0.0
140
0.0
141
0.0
142
1.0
143
1.0
 70
  1712
 72
     0
 73
     0
 74
     0
  7

 75
     0
 76
     0
 77
     2
 78
   300
147
1.0
148
0.0
149
0.0
100
AcDbLayout
  1
Model
 70
     1
 71
     0
 10
0.0
 20
0.0
 11
12.0
 21
9.0
 12
0.0
 22
0.0
 32
0.0
 14
1.000000000000000E+20
 24
1.000000000000000E+20
 34
1.000000000000000E+20
 15
-1.000000000000000E+20
 25
-1.000000000000000E+20
 35
-1.000000000000000E+20
146
0.0
 13
0.0
 23
0.0
 33
0.0
 16
1.0
 26
0.0
 36
0.0
 17
0.0
 27
1.0
 37
0.0
 76
     0
330
1F
331
29
  0
MATERIAL
  5
3D
102
{ACAD_REACTORS
330
3B
102
}
330
3B
100
AcDbMaterial
  1
ByBlock
 72
     1
 94
      127
  0
MATERIAL
  5
3C
102
{ACAD_REACTORS
330
3B
102
}
330
3B
100
AcDbMaterial
  1
ByLayer
 72
     1
 94
      127
  0
MATERIAL
  5
3E
102
{ACAD_REACTORS
330
3B
102
}
330
3B
100
AcDbMaterial
  1
Global
 72
     1
 94
      127
  0
MLINESTYLE
  5
18
102
{ACAD_REACTORS
330
17
102
}
330
17
100
AcDbMlineStyle
  2
Standard
 70
     0
  3

 62
   256
 51
90.0
 52
90.0
 71
     2
 49
0.5
 62
   256
  6
BYLAYER
 49
-0.5
 62
   256
  6
BYLAYER
  0
ACDBPLACEHOLDER
  5
F
102
{ACAD_REACTORS
330
E
102
}
330
E
  0
VISUALSTYLE
  5
2F
102
{ACAD_REACTORS
330
2A
102
}
330
2A
100
AcDbVisualStyle
  2
2dWireframe
 70
     4
177
     2
291
     0
 71
     0
176
     1
 72
     2
176
     1
 73
     0
176
     1
 90
        0
176
     1
 40
-0.6
176
     1
 41
-30.0
176
     1
 62
     5
 63
     7
421
 16777215
176
     1
 74
     1
176
     1
 91
        4
176
     1
 64
     7
176
     1
 65
   257
176
     1
 75
     1
176
     1
175
     1
176
     1
 42
1.0
176
     1
 92
        0
176
     1
 66
   257
176
     1
 43
1.0
176
     1
 76
     1
176
     1
 77
     6
176
     1
 78
     2
176
     1
 67
     7
176
     1
 79
     5
176
     1
170
     0
176
     1
171
     0
176
     1
290
     0
176
     1
 93
        1
176
     1
 44
0.0
176
     1
173
     0
176
     1
  0
VISUALSTYLE
  5
31
102
{ACAD_REACTORS
330
2A
102
}
330
2A
100
AcDbVisualStyle
  2
3D Hidden
 70
     6
177
     2
291
     0
 71
     1
176
     1
 72
     2
176
     1
 73
     2
176
     1
 90
        0
176
     1
 40
-0.6
176
     1
 41
-30.0
176
     1
 62
     5
 63
     7
421
 16777215
176
     1
 74
     2
176
     1
 91
        2
176
     1
 64
     7
176
     1
 65
   257
176
     1
 75
     2
176
     1
175
     1
176
     1
 42
40.0
176
     1
 92
        0
176
     1
 66
   257
176
     1
 43
1.0
176
     1
 76
     1
176
     1
 77
     6
176
     1
 78
     2
176
     1
 67
     7
176
     1
 79
     3
176
     1
170
     0
176
     1
171
     0
176
     1
290
     0
176
     1
 93
        1
176
     1
 44
0.0
176
     1
173
     0
176
     1
  0
VISUALSTYLE
  5
30
102
{ACAD_REACTORS
330
2A
102
}
330
2A
100
AcDbVisualStyle
  2
3dWireframe
 70
     5
177
     2
291
     0
 71
     0
176
     1
 72
     2
176
     1
 73
     0
176
     1
 90
        0
176
     1
 40
-0.6
176
     1
 41
-30.0
176
     1
 62
     5
 63
     7
421
 16777215
176
     1
 74
     1
176
     1
 91
        4
176
     1
 64
     7
176
     1
 65
   257
176
     1
 75
     1
176
     1
175
     1
176
     1
 42
1.0
176
     1
 92
        0
176
     1
 66
   257
176
     1
 43
1.0
176
     1
 76
     1
176
     1
 77
     6
176
     1
 78
     2
176
     1
 67
     7
176
     1
 79
     5
176
     1
170
     0
176
     1
171
     0
176
     1
290
     0
176
     1
 93
        1
176
     1
 44
0.0
176
     1
173
     0
176
     1
  0
VISUALSTYLE
  5
32
102
{ACAD_REACTORS
330
2A
102
}
330
2A
100
AcDbVisualStyle
  2
Basic
 70
     7
177
     2
291
     1
 71
     1
176
     1
 72
     0
176
     1
 73
     1
176
     1
 90
        0
176
     1
 40
-0.6
176
     1
 41
-30.0
176
     1
 62
     5
 63
     7
421
 16777215
176
     1
 74
     0
176
     1
 91
        4
176
     1
 64
     7
176
     1
 65
   257
176
     1
 75
     1
176
     1
175
     1
176
     1
 42
1.0
176
     1
 92
        8
176
     1
 66
     7
176
     1
 43
1.0
176
     1
 76
     1
176
     1
 77
     6
176
     1
 78
     2
176
     1
 67
     7
176
     1
 79
     5
176
     1
170
     0
176
     1
171
     0
176
     1
290
     0
176
     1
 93
        1
176
     1
 44
0.0
176
     1
173
     0
176
     1
  0
VISUALSTYLE
  5
36
102
{ACAD_REACTORS
330
2A
102
}
330
2A
100
AcDbVisualStyle
  2
Brighten
 70
    12
177
     2
291
     1
 71
     2
176
     1
 72
     2
176
     1
 73
     0
176
     1
 90
        0
176
     1
 40
-0.6
176
     1
 41
-30.0
176
     1
 62
     5
 63
     7
421
 16777215
176
     1
 74
     1
176
     1
 91
        4
176
     1
 64
     7
176
     1
 65
   257
176
     1
 75
     1
176
     1
175
     1
176
     1
 42
1.0
176
     1
 92
        8
176
     1
 66
     7
176
     1
 43
1.0
176
     1
 76
     1
176
     1
 77
     6
176
     1
 78
     2
176
     1
 67
     7
176
     1
 79
     5
176
     1
170
     0
176
     1
171
     0
176
     1
290
     0
176
     1
 93
        1
176
     1
 44
50.0
176
     1
173
     0
176
     1
  0
VISUALSTYLE
  5
3A
102
{ACAD_REACTORS
330
2A
102
}
330
2A
100
AcDbVisualStyle
  2
ColorChange
 70
    16
177
     2
291
     1
 71
     2
176
     1
 72
     2
176
     1
 73
     3
176
     1
 90
        0
176
     1
 40
-0.6
176
     1
 41
-30.0
176
     1
 62
     5
 63
     8
421
  8421504
176
     1
 74
     1
176
     1
 91
        4
176
     1
 64
     7
176
     1
 65
   257
176
     1
 75
     1
176
     1
175
     1
176
     1
 42
1.0
176
     1
 92
        8
176
     1
 66
     8
424
  8421504
176
     1
 43
1.0
176
     1
 76
     1
176
     1
 77
     6
176
     1
 78
     2
176
     1
 67
     7
176
     1
 79
     5
176
     1
170
     0
176
     1
171
     0
176
     1
290
     0
176
     1
 93
        1
176
     1
 44
0.0
176
     1
173
     0
176
     1
  0
VISUALSTYLE
  5
34
102
{ACAD_REACTORS
330
2A
102
}
330
2A
100
AcDbVisualStyle
  2
Conceptual
 70
     9
177
     2
291
     0
 71
     3
176
     1
 72
     2
176
     1
 73
     0
176
     1
 90
        0
176
     1
 40
-0.6
176
     1
 41
-30.0
176
     1
 62
     5
 63
     7
421
 16777215
176
     1
 74
     2
176
     1
 91
        2
176
     1
 64
     7
176
     1
 65
   257
176
     1
 75
     1
176
     1
175
     1
176
     1
 42
40.0
176
     1
 92
        8
176
     1
 66
     7
176
     1
 43
1.0
176
     1
 76
     1
176
     1
 77
     6
176
     1
 78
     2
176
     1
 67
     7
176
     1
 79
     3
176
     1
170
     0
176
     1
171
     0
176
     1
290
     0
176
     1
 93
        1
176
     1
 44
0.0
176
     1
173
     0
176
     1
  0
VISUALSTYLE
  5
35
102
{ACAD_REACTORS
330
2A
102
}
330
2A
100
AcDbVisualStyle
  2
Dim
 70
    11
177
     2
291
     1
 71
     2
176
     1
 72
     2
176
     1
 73
     0
176
     1
 90
        0
176
     1
 40
-0.6
176
     1
 41
-30.0
176
     1
 62
     5
 63
     7
421
 16777215
176
     1
 74
     1
176
     1
 91
        4
176
     1
 64
     7
176
     1
 65
   257
176
     1
 75
     1
176
     1
175
     1
176
     1
 42
1.0
176
     1
 92
        8
176
     1
 66
     7
176
     1
 43
1.0
176
     1
 76
     1
176
     1
 77
     6
176
     1
 78
     2
176
     1
 67
     7
176
     1
 79
     5
176
     1
170
     0
176
     1
171
     0
176
     1
290
     0
176
     1
 93
        1
176
     1
 44
-50.0
176
     1
173
     0
176
     1
  0
VISUALSTYLE
  5
39
102
{ACAD_REACTORS
330
2A
102
}
330
2A
100
AcDbVisualStyle
  2
Facepattern
 70
    15
177
     2
291
     1
 71
     2
176
     1
 72
     2
176
     1
 73
     0
176
     1
 90
        0
176
     1
 40
-0.6
176
     1
 41
-30.0
176
     1
 62
     5
 63
     7
421
 16777215
176
     1
 74
     1
176
     1
 91
        4
176
     1
 64
     7
176
     1
 65
   257
176
     1
 75
     1
176
     1
175
     1
176
     1
 42
1.0
176
     1
 92
        8
176
     1
 66
     7
176
     1
 43
1.0
176
     1
 76
     1
176
     1
 77
     6
176
     1
 78
     2
176
     1
 67
     7
176
     1
 79
     5
176
     1
170
     0
176
     1
171
     0
176
     1
290
     0
176
     1
 93
        1
176
     1
 44
0.0
176
     1
173
     0
176
     1
  0
VISUALSTYLE
  5
2B
102
{ACAD_REACTORS
330
2A
102
}
330
2A
100
AcDbVisualStyle
  2
Flat
 70
     0
177
     2
291
     1
 71
     2
176
     1
 72
     1
176
     1
 73
     1
176
     1
 90
        2
176
     1
 40
-0.6
176
     1
 41
30.0
176
     1
 62
     5
 63
     7
421
 16777215
176
     1
 74
     0
176
     1
 91
        4
176
     1
 64
     7
176
     1
 65
   257
176
     1
 75
     1
176
     1
175
     1
176
     1
 42
1.0
176
     1
 92
        8
176
     1
 66
     7
176
     1
 43
1.0
176
     1
 76
     1
176
     1
 77
     6
176
     1
 78
     2
176
     1
 67
     7
176
     1
 79
     5
176
     1
170
     0
176
     1
171
     0
176
     1
290
     0
176
     1
 93
       13
176
     1
 44
0.0
176
     1
173
     0
176
     1
  0
VISUALSTYLE
  5
2C
102
{ACAD_REACTORS
330
2A
102
}
330
2A
100
AcDbVisualStyle
  2
FlatWithEdges
 70
     1
177
     2
291
     1
 71
     2
176
     1
 72
     1
176
     1
 73
     1
176
     1
 90
        2
176
     1
 40
-0.6
176
     1
 41
30.0
176
     1
 62
     5
 63
     7
421
 16777215
176
     1
 74
     1
176
     1
 91
        4
176
     1
 64
     7
176
     1
 65
   257
176
     1
 75
     1
176
     1
175
     1
176
     1
 42
1.0
176
     1
 92
        0
176
     1
 66
   257
176
     1
 43
1.0
176
     1
 76
     1
176
     1
 77
     6
176
     1
 78
     2
176
     1
 67
     7
176
     1
 79
     5
176
     1
170
     0
176
     1
171
     0
176
     1
290
     0
176
     1
 93
       13
176
     1
 44
0.0
176
     1
173
     0
176
     1
  0
VISUALSTYLE
  5
2D
102
{ACAD_REACTORS
330
2A
102
}
330
2A
100
AcDbVisualStyle
  2
Gouraud
 70
     2
177
     2
291
     1
 71
     2
176
     1
 72
     2
176
     1
 73
     1
176
     1
 90
        2
176
     1
 40
-0.6
176
     1
 41
30.0
176
     1
 62
     5
 63
     7
421
 16777215
176
     1
 74
     0
176
     1
 91
        4
176
     1
 64
     7
176
     1
 65
   257
176
     1
 75
     1
176
     1
175
     1
176
     1
 42
1.0
176
     1
 92
        0
176
     1
 66
     7
176
     1
 43
1.0
176
     1
 76
     1
176
     1
 77
     6
176
     1
 78
     2
176
     1
 67
     7
176
     1
 79
     5
176
     1
170
     0
176
     1
171
     0
176
     1
290
     0
176
     1
 93
       13
176
     1
 44
0.0
176
     1
173
     0
176
     1
  0
VISUALSTYLE
  5
2E
102
{ACAD_REACTORS
330
2A
102
}
330
2A
100
AcDbVisualStyle
  2
GouraudWithEdges
 70
     3
177
     2
291
     1
 71
     2
176
     1
 72
     2
176
     1
 73
     1
176
     1
 90
        2
176
     1
 40
-0.6
176
     1
 41
30.0
176
     1
 62
     5
 63
     7
421
 16777215
176
     1
 74
     1
176
     1
 91
        4
176
     1
 64
     7
176
     1
 65
   257
176
     1
 75
     1
176
     1
175
     1
176
     1
 42
1.0
176
     1
 92
        0
176
     1
 66
   257
176
     1
 43
1.0
176
     1
 76
     1
176
     1
 77
     6
176
     1
 78
     2
176
     1
 67
     7
176
     1
 79
     5
176
     1
170
     0
176
     1
171
     0
176
     1
290
     0
176
     1
 93
       13
176
     1
 44
0.0
176
     1
173
     0
176
     1
  0
VISUALSTYLE
  5
38
102
{ACAD_REACTORS
330
2A
102
}
330
2A
100
AcDbVisualStyle
  2
Linepattern
 70
    14
177
     2
291
     1
 71
     2
176
     1
 72
     2
176
     1
 73
     0
176
     1
 90
        0
176
     1
 40
-0.6
176
     1
 41
-30.0
176
     1
 62
     5
 63
     7
421
 16777215
176
     1
 74
     1
176
     1
 91
        4
176
     1
 64
     7
176
     1
 65
   257
176
     1
 75
     7
176
     1
175
     7
176
     1
 42
1.0
176
     1
 92
        8
176
     1
 66
     7
176
     1
 43
1.0
176
     1
 76
     1
176
     1
 77
     6
176
     1
 78
     2
176
     1
 67
     7
176
     1
 79
     5
176
     1
170
     0
176
     1
171
     0
176
     1
290
     0
176
     1
 93
        1
176
     1
 44
0.0
176
     1
173
     0
176
     1
  0
VISUALSTYLE
  5
33
102
{ACAD_REACTORS
330
2A
102
}
330
2A
100
AcDbVisualStyle
  2
Realistic
 70
     8
177
     2
291
     0
 71
     2
176
     1
 72
     2
176
     1
 73
     0
176
     1
 90
        0
176
     1
 40
-0.6
176
     1
 41
-30.0
176
     1
 62
     5
 63
     7
421
 16777215
176
     1
 74
     1
176
     1
 91
        0
176
     1
 64
     7
176
     1
 65
   257
176
     1
 75
     1
176
     1
175
     1
176
     1
 42
1.0
176
     1
 92
        8
176
     1
 66
     8
424
  7895160
176
     1
 43
1.0
176
     1
 76
     1
176
     1
 77
     6
176
     1
 78
     2
176
     1
 67
     7
176
     1
 79
     5
176
     1
170
     0
176
     1
171
     0
176
     1
290
     0
176
     1
 93
       13
176
     1
 44
0.0
176
     1
173
     0
176
     1
  0
VISUALSTYLE
  5
37
102
{ACAD_REACTORS
330
2A
102
}
330
2A
100
AcDbVisualStyle
  2
Thicken
 70
    13
177
     2
291
     1
 71
     2
176
     1
 72
     2
176
     1
 73
     0
176
     1
 90
        0
176
     1
 40
-0.6
176
     1
 41
-30.0
176
     1
 62
     5
 63
     7
421
 16777215
176
     1
 74
     1
176
     1
 91
        4
176
     1
 64
     7
176
     1
 65
   257
176
     1
 75
     1
176
     1
175
     1
176
     1
 42
1.0
176
     1
 92
       12
176
     1
 66
     7
176
     1
 43
1.0
176
     1
 76
     1
176
     1
 77
     6
176
     1
 78
     2
176
     1
 67
     7
176
     1
 79
     5
176
     1
170
     0
176
     1
171
     0
176
     1
290
     0
176
     1
 93
        1
176
     1
 44
0.0
176
     1
173
     0
176
     1
  0
ENDSEC
  0
EOF
