  0
SECTION
  2
HEADER
  9
$ACADVER
  1
AC1024
  9
$ACADMAINTVER
 70
     6
  9
$DWGCODEPAGE
  3
UNDEFINED
  9
$INSBASE
 10
0.0
 20
0.0
 30
0.0
  9
$EXTMIN
 10
1.000000000000000E+20
 20
1.000000000000000E+20
 30
1.000000000000000E+20
  9
$EXTMAX
 10
-1.000000000000000E+20
 20
-1.000000000000000E+20
 30
-1.000000000000000E+20
  9
$LIMMIN
 10
0.0
 20
0.0
  9
$LIMMAX
 10
12.0
 20
9.0
  9
$ORTHOMODE
 70
     0
  9
$REGENMODE
 70
     1
  9
$FILLMODE
 70
     1
  9
$QTEXTMODE
 70
     0
  9
$MIRRTEXT
 70
     1
  9
$LTSCALE
 40
1.0
  9
$ATTMODE
 70
     1
  9
$TEXTSIZE
 40
0.2
  9
$TRACEWID
 40
0.05
  9
$TEXTSTYLE
  7
Standard
  9
$CLAYER
  8
0
  9
$CELTYPE
  6
ByLayer
  9
$CECOLOR
 62
   256
  9
$CELTSCALE
 40
1.0
  9
$DISPSILH
 70
     0
  9
$DIMSCALE
 40
1.0
  9
$DIMASZ
 40
0.18
  9
$DIMEXO
 40
0.0625
  9
$DIMDLI
 40
0.38
  9
$DIMRND
 40
0.0
  9
$DIMDLE
 40
0.0
  9
$DIMEXE
 40
0.18
  9
$DIMTP
 40
0.0
  9
$DIMTM
 40
0.0
  9
$DIMTXT
 40
0.18
  9
$DIMCEN
 40
0.09
  9
$DIMTSZ
 40
0.0
  9
$DIMTOL
 70
     0
  9
$DIMLIM
 70
     0
  9
$DIMTIH
 70
     1
  9
$DIMTOH
 70
     1
  9
$DIMSE1
 70
     0
  9
$DIMSE2
 70
     0
  9
$DIMTAD
 70
     0
  9
$DIMZIN
 70
     0
  9
$DIMBLK
  1

  9
$DIMASO
 70
     1
  9
$DIMSHO
 70
     1
  9
$DIMPOST
  1

  9
$DIMAPOST
  1

  9
$DIMALT
 70
     0
  9
$DIMALTD
 70
     2
  9
$DIMALTF
 40
25.4
  9
$DIMLFAC
 40
1.0
  9
$DIMTOFL
 70
     0
  9
$DIMTVP
 40
0.0
  9
$DIMTIX
 70
     0
  9
$DIMSOXD
 70
     0
  9
$DIMSAH
 70
     0
  9
$DIMBLK1
  1

  9
$DIMBLK2
  1

  9
$DIMSTYLE
  2
Standard
  9
$DIMCLRD
 70
     0
  9
$DIMCLRE
 70
     0
  9
$DIMCLRT
 70
     0
  9
$DIMTFAC
 40
1.0
  9
$DIMGAP
 40
0.09
  9
$DIMJUST
 70
     0
  9
$DIMSD1
 70
     0
  9
$DIMSD2
 70
     0
  9
$DIMTOLJ
 70
     1
  9
$DIMTZIN
 70
     0
  9
$DIMALTZ
 70
     0
  9
$DIMALTTZ
 70
     0
  9
$DIMUPT
 70
     0
  9
$DIMDEC
 70
     4
  9
$DIMTDEC
 70
     4
  9
$DIMALTU
 70
     2
  9
$DIMALTTD
 70
     2
  9
$DIMTXSTY
  7
Standard
  9
$DIMAUNIT
 70
     0
  9
$DIMADEC
 70
     0
  9
$DIMALTRND
 40
0.0
  9
$DIMAZIN
 70
     0
  9
$DIMDSEP
 70
    46
  9
$DIMATFIT
 70
     3
  9
$DIMFRAC
 70
     0
  9
$DIMLDRBLK
  1

  9
$DIMLUNIT
 70
     2
  9
$DIMLWD
 70
    -2
  9
$DIMLWE
 70
    -2
  9
$DIMTMOVE
 70
     0
  9
$DIMFXL
 40
1.0
  9
$DIMFXLON
 70
     0
  9
$DIMJOGANG
 40
0.7853981633974483
  9
$DIMTFILL
 70
     0
  9
$DIMTFILLCLR
 70
     0
  9
$DIMARCSYM
 70
     0
  9
$DIMLTYPE
  6

  9
$DIMLTEX1
  6

  9
$DIMLTEX2
  6

  9
$DIMTXTDIRECTION
 70
     0
  9
$LUNITS
 70
     2
  9
$LUPREC
 70
     4
  9
$SKETCHINC
 40
0.1
  9
$FILLETRAD
 40
0.5
  9
$AUNITS
 70
     0
  9
$AUPREC
 70
     0
  9
$MENU
  1
.
  9
$ELEVATION
 40
0.0
  9
$PELEVATION
 40
0.0
  9
$THICKNESS
 40
0.0
  9
$LIMCHECK
 70
     0
  9
$CHAMFERA
 40
0.5
  9
$CHAMFERB
 40
0.5
  9
$CHAMFERC
 40
1.0
  9
$CHAMFERD
 40
0.0
  9
$SKPOLY
 70
     0
  9
$TDCREATE
 40
2457917.646435185
  9
$TDUCREATE
 40
2457917.271435185
  9
$TDUPDATE
 40
2457917.646435185
  9
$TDUUPDATE
 40
2457917.271435185
  9
$TDINDWG
 40
0.0000000116
  9
$TDUSRTIMER
 40
0.0000000116
  9
$USRTIMER
 70
     1
  9
$ANGBASE
 50
0.0
  9
$ANGDIR
 70
     0
  9
$PDMODE
 70
     0
  9
$PDSIZE
 40
0.0
  9
$PLINEWID
 40
0.0
  9
$SPLFRAME
 70
     0
  9
$SPLINETYPE
 70
     6
  9
$SPLINESEGS
 70
     8
  9
$HANDSEED
  5
D5
  9
$SURFTAB1
 70
     6
  9
$SURFTAB2
 70
     6
  9
$SURFTYPE
 70
     6
  9
$SURFU
 70
     6
  9
$SURFV
 70
     6
  9
$UCSBASE
  2

  9
$UCSNAME
  2

  9
$UCSORG
 10
0.0
 20
0.0
 30
0.0
  9
$UCSXDIR
 10
1.0
 20
0.0
 30
0.0
  9
$UCSYDIR
 10
0.0
 20
1.0
 30
0.0
  9
$UCSORTHOREF
  2

  9
$UCSORTHOVIEW
 70
     0
  9
$UCSORGTOP
 10
0.0
 20
0.0
 30
0.0
  9
$UCSORGBOTTOM
 10
0.0
 20
0.0
 30
0.0
  9
$UCSORGLEFT
 10
0.0
 20
0.0
 30
0.0
  9
$UCSORGRIGHT
 10
0.0
 20
0.0
 30
0.0
  9
$UCSORGFRONT
 10
0.0
 20
0.0
 30
0.0
  9
$UCSORGBACK
 10
0.0
 20
0.0
 30
0.0
  9
$PUCSBASE
  2

  9
$PUCSNAME
  2

  9
$PUCSORG
 10
0.0
 20
0.0
 30
0.0
  9
$PUCSXDIR
 10
1.0
 20
0.0
 30
0.0
  9
$PUCSYDIR
 10
0.0
 20
1.0
 30
0.0
  9
$PUCSORTHOREF
  2

  9
$PUCSORTHOVIEW
 70
     0
  9
$PUCSORGTOP
 10
0.0
 20
0.0
 30
0.0
  9
$PUCSORGBOTTOM
 10
0.0
 20
0.0
 30
0.0
  9
$PUCSORGLEFT
 10
0.0
 20
0.0
 30
0.0
  9
$PUCSORGRIGHT
 10
0.0
 20
0.0
 30
0.0
  9
$PUCSORGFRONT
 10
0.0
 20
0.0
 30
0.0
  9
$PUCSORGBACK
 10
0.0
 20
0.0
 30
0.0
  9
$USERI1
 70
     0
  9
$USERI2
 70
     0
  9
$USERI3
 70
     0
  9
$USERI4
 70
     0
  9
$USERI5
 70
     0
  9
$USERR1
 40
0.0
  9
$USERR2
 40
0.0
  9
$USERR3
 40
0.0
  9
$USERR4
 40
0.0
  9
$USERR5
 40
0.0
  9
$WORLDVIEW
 70
     1
  9
$SHADEDGE
 70
     3
  9
$SHADEDIF
 70
    70
  9
$TILEMODE
 70
     1
  9
$MAXACTVP
 70
    64
  9
$PINSBASE
 10
0.0
 20
0.0
 30
0.0
  9
$PLIMCHECK
 70
     0
  9
$PEXTMIN
 10
1.000000000000000E+20
 20
1.000000000000000E+20
 30
1.000000000000000E+20
  9
$PEXTMAX
 10
-1.000000000000000E+20
 20
-1.000000000000000E+20
 30
-1.000000000000000E+20
  9
$PLIMMIN
 10
0.0
 20
0.0
  9
$PLIMMAX
 10
12.0
 20
9.0
  9
$UNITMODE
 70
     0
  9
$VISRETAIN
 70
     1
  9
$PLINEGEN
 70
     0
  9
$PSLTSCALE
 70
     1
  9
$TREEDEPTH
 70
  3020
  9
$CMLSTYLE
  2
Standard
  9
$CMLJUST
 70
     0
  9
$CMLSCALE
 40
1.0
  9
$PROXYGRAPHICS
 70
     1
  9
$MEASUREMENT
 70
     0
  9
$CELWEIGHT
370
    -1
  9
$ENDCAPS
280
     0
  9
$JOINSTYLE
280
     0
  9
$LWDISPLAY
290
     1
  9
$INSUNITS
 70
     1
  9
$HYPERLINKBASE
  1

  9
$STYLESHEET
  1

  9
$XEDIT
290
     1
  9
$CEPSNTYPE
380
     0
  9
$PSTYLEMODE
290
     1
  9
$FINGERPRINTGUID
  2
{F13D44C8-863D-B1D9-B524-A71DEF92E9F8}
  9
$VERSIONGUID
  2
{FAEB1C32-E019-11D5-929B-00C0DF256EC4}
  9
$EXTNAMES
290
     1
  9
$PSVPSCALE
 40
0.0
  9
$OLESTARTUP
290
     0
  9
$SORTENTS
280
   127
  9
$INDEXCTL
280
     0
  9
$HIDETEXT
280
     1
  9
$XCLIPFRAME
280
     2
  9
$HALOGAP
280
     0
  9
$OBSCOLOR
 70
   257
  9
$OBSLTYPE
280
     0
  9
$INTERSECTIONDISPLAY
280
     0
  9
$INTERSECTIONCOLOR
 70
   257
  9
$DIMASSOC
280
     2
  9
$PROJECTNAME
  1

  9
$CAMERADISPLAY
290
     0
  9
$LENSLENGTH
 40
50.0
  9
$CAMERAHEIGHT
 40
0.0
  9
$STEPSPERSEC
 40
2.0
  9
$STEPSIZE
 40
6.0
  9
$3DDWFPREC
 40
2.0
  9
$PSOLWIDTH
 40
0.25
  9
$PSOLHEIGHT
 40
4.0
  9
$LOFTANG1
 40
1.570796326794897
  9
$LOFTANG2
 40
1.570796326794897
  9
$LOFTMAG1
 40
0.0
  9
$LOFTMAG2
 40
0.0
  9
$LOFTPARAM
 70
     7
  9
$LOFTNORMALS
280
     1
  9
$LATITUDE
 40
37.795
  9
$LONGITUDE
 40
-122.394
  9
$NORTHDIRECTION
 40
0.0
  9
$TIMEZONE
 70
 -8000
  9
$LIGHTGLYPHDISPLAY
280
     1
  9
$TILEMODELIGHTSYNCH
280
     1
  9
$CMATERIAL
347
3C
  9
$SOLIDHIST
280
     1
  9
$SHOWHIST
280
     1
  9
$DWFFRAME
280
     2
  9
$DGNFRAME
280
     2
  9
$REALWORLDSCALE
290
     1
  9
$INTERFERECOLOR
 62
   256
  9
$CSHADOW
280
     0
  9
$SHADOWPLANELOCATION
 40
0.0
  0
ENDSEC
  0
SECTION
  2
CLASSES
  0
CLASS
  1
ACDBDICTIONARYWDFLT
  2
AcDbDictionaryWithDefault
  3
ObjectDBX Classes
 90
        0
 91
        4
280
     0
281
     0
  0
CLASS
  1
VISUALSTYLE
  2
AcDbVisualStyle
  3
ObjectDBX Classes
 90
     4095
 91
        4
280
     0
281
     0
  0
CLASS
  1
MATERIAL
  2
AcDbMaterial
  3
ObjectDBX Classes
 90
     1153
 91
        4
280
     0
281
     0
  0
CLASS
  1
SUN
  2
AcDbSun
  3
SCENEOE
 90
     1024
 91
        4
280
     0
281
     0
  0
ENDSEC
  0
SECTION
  2
TABLES
  0
TABLE
  2
VPORT
  5
8
330
0
100
AcDbSymbolTable
 70
     1
  0
VPORT
  5
29
330
8
100
AcDbSymbolTableRecord
100
AcDbViewportTableRecord
  2
*Active
 70
     0
 10
0.0
 20
0.0
 11
1.0
 21
1.0
 12
0.0
 22
0.0
 13
0.0
 23
0.0
 14
0.5
 24
0.5
 15
0.5
 25
0.5
 16
0.0
 26
0.0
 36
1.0
 17
91.00082462281999
 27
-128.4993055234307
 37
0.0
 40
256.9986110468615
 41
0.7081814508812795
 42
50.0
 43
0.0
 44
0.0
 50
0.0
 51
0.0
 71
     0
 72
   100
 73
     1
 74
     3
 75
     0
 76
     0
 77
     0
 78
     0
281
     0
 65
     1
110
0.0
120
0.0
130
0.0
111
1.0
121
0.0
131
0.0
112
0.0
122
1.0
132
0.0
 79
     0
146
0.0
 60
     3
 61
     5
292
     1
282
     1
141
0.0
142
0.0
 63
   250
361
3F
  0
ENDTAB
  0
TABLE
  2
LTYPE
  5
5
330
0
100
AcDbSymbolTable
 70
     1
  0
LTYPE
  5
14
330
5
100
AcDbSymbolTableRecord
100
AcDbLinetypeTableRecord
  2
ByBlock
 70
     0
  3

 72
    65
 73
     0
 40
0.0
  0
LTYPE
  5
15
330
5
100
AcDbSymbolTableRecord
100
AcDbLinetypeTableRecord
  2
ByLayer
 70
     0
  3

 72
    65
 73
     0
 40
0.0
  0
LTYPE
  5
16
330
5
100
AcDbSymbolTableRecord
100
AcDbLinetypeTableRecord
  2
Continuous
 70
     0
  3
Solid line
 72
    65
 73
     0
 40
0.0
  0
ENDTAB
  0
TABLE
  2
LAYER
  5
2
330
0
100
AcDbSymbolTable
 70
     2
  0
LAYER
  5
10
330
2
100
AcDbSymbolTableRecord
100
AcDbLayerTableRecord
  2
0
 70
     0
 62
     7
  6
Continuous
370
    -3
390
F
347
3E
  0
LAYER
  5
40
330
2
100
AcDbSymbolTableRecord
100
AcDbLayerTableRecord
  2
_U+30EC_U+30A4_U+30E4_U+30FC 1
 70
     0
 62
     7
  6
Continuous
370
    -3
390
F
347
3E
  0
ENDTAB
  0
TABLE
  2
STYLE
  5
3
330
0
100
AcDbSymbolTable
 70
     1
  0
STYLE
  5
11
330
3
100
AcDbSymbolTableRecord
100
AcDbTextStyleTableRecord
  2
Standard
 70
     0
 40
0.0
 41
1.0
 50
0.0
 71
     0
 42
0.2
  3
txt
  4

  0
ENDTAB
  0
TABLE
  2
VIEW
  5
6
330
0
100
AcDbSymbolTable
 70
     0
  0
ENDTAB
  0
TABLE
  2
UCS
  5
7
330
0
100
AcDbSymbolTable
 70
     0
  0
ENDTAB
  0
TABLE
  2
APPID
  5
9
330
0
100
AcDbSymbolTable
 70
     1
  0
APPID
  5
12
330
9
100
AcDbSymbolTableRecord
100
AcDbRegAppTableRecord
  2
ACAD
 70
     0
  0
ENDTAB
  0
TABLE
  2
DIMSTYLE
  5
A
330
0
100
AcDbSymbolTable
 70
     1
100
AcDbDimStyleTable
  0
DIMSTYLE
105
27
330
A
100
AcDbSymbolTableRecord
100
AcDbDimStyleTableRecord
  2
Standard
 70
     0
178
     0
340
11
  0
ENDTAB
  0
TABLE
  2
BLOCK_RECORD
  5
1
330
0
100
AcDbSymbolTable
 70
     8
  0
BLOCK_RECORD
  5
1F
330
1
100
AcDbSymbolTableRecord
100
AcDbBlockTableRecord
  2
*Model_Space
340
22
 70
     0
280
     1
281
     0
  0
BLOCK_RECORD
  5
1B
330
1
100
AcDbSymbolTableRecord
100
AcDbBlockTableRecord
  2
*Paper_Space
340
1E
 70
     0
280
     1
281
     0
  0
BLOCK_RECORD
  5
23
330
1
100
AcDbSymbolTableRecord
100
AcDbBlockTableRecord
  2
*Paper_Space0
340
26
 70
     0
280
     1
281
     0
  0
BLOCK_RECORD
  5
41
330
1
100
AcDbSymbolTableRecord
100
AcDbBlockTableRecord
  2
block 2
340
0
102
{BLKREFS
331
42
102
}
 70
     0
280
     1
281
     0
  0
BLOCK_RECORD
  5
4D
330
1
100
AcDbSymbolTableRecord
100
AcDbBlockTableRecord
  2
block 3
340
0
102
{BLKREFS
331
4E
102
}
 70
     0
280
     1
281
     0
  0
BLOCK_RECORD
  5
54
330
1
100
AcDbSymbolTableRecord
100
AcDbBlockTableRecord
  2
block 4
340
0
102
{BLKREFS
331
55
102
}
 70
     0
280
     1
281
     0
  0
BLOCK_RECORD
  5
90
330
1
100
AcDbSymbolTableRecord
100
AcDbBlockTableRecord
  2
block 5
340
0
102
{BLKREFS
331
91
102
}
 70
     0
280
     1
281
     0
  0
BLOCK_RECORD
  5
98
330
1
100
AcDbSymbolTableRecord
100
AcDbBlockTableRecord
  2
block 6
340
0
102
{BLKREFS
331
99
102
}
 70
     0
280
     1
281
     0
  0
BLOCK_RECORD
  5
A0
330
1
100
AcDbSymbolTableRecord
100
AcDbBlockTableRecord
  2
block 7
340
0
102
{BLKREFS
331
A1
102
}
 70
     0
280
     1
281
     0
  0
BLOCK_RECORD
  5
BC
330
1
100
AcDbSymbolTableRecord
100
AcDbBlockTableRecord
  2
block 8
340
0
102
{BLKREFS
331
BD
102
}
 70
     0
280
     1
281
     0
  0
ENDTAB
  0
ENDSEC
  0
SECTION
  2
BLOCKS
  0
BLOCK
  5
20
330
1F
100
AcDbEntity
  8
0
100
AcDbBlockBegin
  2
*Model_Space
 70
     0
 10
0.0
 20
0.0
 30
0.0
  3
*Model_Space
  1

  0
ENDBLK
  5
21
330
1F
100
AcDbEntity
  8
0
100
AcDbBlockEnd
  0
BLOCK
  5
1C
330
1B
100
AcDbEntity
 67
     1
  8
0
100
AcDbBlockBegin
  2
*Paper_Space
 70
     0
 10
0.0
 20
0.0
 30
0.0
  3
*Paper_Space
  1

  0
ENDBLK
  5
1D
330
1B
100
AcDbEntity
 67
     1
  8
0
100
AcDbBlockEnd
  0
BLOCK
  5
24
330
23
100
AcDbEntity
  8
0
100
AcDbBlockBegin
  2
*Paper_Space0
 70
     0
 10
0.0
 20
0.0
 30
0.0
  3
*Paper_Space0
  1

  0
ENDBLK
  5
25
330
23
100
AcDbEntity
  8
0
100
AcDbBlockEnd
  0
BLOCK
  5
43
330
41
100
AcDbEntity
  8
0
100
AcDbBlockBegin
  2
block 2
 70
     0
 10
0.0
 20
0.0
 30
0.0
  3
block 2
  1

  0
SPLINE
  5
45
330
41
100
AcDbEntity
  8
_U+30EC_U+30A4_U+30E4_U+30FC 1
370
     0
100
AcDbSpline
210
0.0
220
0.0
230
1.0
 70
    11
 71
     3
 72
    47
 73
    43
 74
     0
 42
0.0000000001
 43
0.0000000001
 12
1.0
 22
0.0
 32
0.0
 13
1.0
 23
0.0
 33
0.0
 40
0.0
 40
0.0
 40
0.0
 40
0.0
 40
1.0
 40
1.0
 40
1.0
 40
2.0
 40
2.0
 40
2.0
 40
3.0
 40
3.0
 40
3.0
 40
4.0
 40
4.0
 40
4.0
 40
5.0
 40
5.0
 40
5.0
 40
6.0
 40
6.0
 40
6.0
 40
7.0
 40
7.0
 40
7.0
 40
8.0
 40
8.0
 40
8.0
 40
9.0
 40
9.0
 40
9.0
 40
10.0
 40
10.0
 40
10.0
 40
11.0
 40
11.0
 40
11.0
 40
12.0
 40
12.0
 40
12.0
 40
13.0
 40
13.0
 40
13.0
 40
14.0
 40
14.0
 40
14.0
 40
14.0
 10
90.33178158433314
 20
-121.7196927473477
 30
0.0
 10
90.33178158433314
 20
-121.7196927473477
 30
0.0
 10
86.89237472763529
 20
-123.7040677468516
 30
0.0
 10
86.89237472763529
 20
-123.7040677468516
 30
0.0
 10
86.89237472763529
 20
-123.7040677468516
 30
0.0
 10
85.87813864239949
 20
-123.8804566356964
 30
0.0
 10
85.9663330845939
 20
-126.0412205240451
 30
0.0
 10
85.9663330845939
 20
-126.0412205240451
 30
0.0
 10
85.9663330845939
 20
-133.802331633216
 30
0.0
 10
85.9663330845939
 20
-133.802331633216
 30
0.0
 10
85.9663330845939
 20
-133.802331633216
 30
0.0
 10
85.70174975801065
 20
-135.2134427439743
 30
0.0
 10
87.5097358229962
 20
-135.8749010771423
 30
0.0
 10
87.5097358229962
 20
-135.8749010771423
 30
0.0
 10
93.63907316662377
 20
-139.4908732984605
 30
0.0
 10
93.63907316662377
 20
-139.4908732984605
 30
0.0
 10
93.63907316662377
 20
-139.4908732984605
 30
0.0
 10
98.31337860292787
 20
-136.712748299155
 30
0.0
 10
98.31337860292787
 20
-136.712748299155
 30
0.0
 10
98.31337860292787
 20
-136.712748299155
 30
0.0
 10
98.31337860292787
 20
-136.3158732992542
 30
0.0
 10
98.31337860292787
 20
-136.3158732992542
 30
0.0
 10
98.31337860292787
 20
-136.3158732992542
 30
0.0
 10
91.25782322737452
 20
-132.1266371891904
 30
0.0
 10
91.25782322737452
 20
-132.1266371891904
 30
0.0
 10
91.25782322737452
 20
-132.1266371891904
 30
0.0
 10
91.30192044847173
 20
-127.4523316348035
 30
0.0
 10
91.30192044847173
 20
-127.4523316348035
 30
0.0
 10
91.30192044847173
 20
-127.4523316348035
 30
0.0
 10
93.55087872442935
 20
-128.7311510789282
 30
0.0
 10
93.55087872442935
 20
-128.7311510789282
 30
0.0
 10
93.55087872442935
 20
-128.7311510789282
 30
0.0
 10
98.35747582402507
 20
-125.9971233018339
 30
0.0
 10
98.35747582402507
 20
-125.9971233018339
 30
0.0
 10
98.35747582402507
 20
-125.9971233018339
 30
0.0
 10
98.31337860292787
 20
-125.6443455241444
 30
0.0
 10
98.31337860292787
 20
-125.6443455241444
 30
0.0
 10
98.31337860292787
 20
-125.6443455241444
 30
0.0
 10
91.6546982172494
 20
-121.4992066362917
 30
0.0
 10
91.6546982172494
 20
-121.4992066362917
 30
0.0
 10
91.6546982172494
 20
-121.4992066362917
 30
0.0
 10
90.77275379530523
 20
-121.2787205252358
 30
0.0
 10
90.33178158433314
 20
-121.7196927473477
 30
0.0
  0
SPLINE
  5
46
330
41
100
AcDbEntity
  8
_U+30EC_U+30A4_U+30E4_U+30FC 1
 62
   179
420
  2234388
370
     9
100
AcDbSpline
210
0.0
220
0.0
230
1.0
 70
    11
 71
     3
 72
    47
 73
    43
 74
     0
 42
0.0000000001
 43
0.0000000001
 12
1.0
 22
0.0
 32
0.0
 13
1.0
 23
0.0
 33
0.0
 40
0.0
 40
0.0
 40
0.0
 40
0.0
 40
1.0
 40
1.0
 40
1.0
 40
2.0
 40
2.0
 40
2.0
 40
3.0
 40
3.0
 40
3.0
 40
4.0
 40
4.0
 40
4.0
 40
5.0
 40
5.0
 40
5.0
 40
6.0
 40
6.0
 40
6.0
 40
7.0
 40
7.0
 40
7.0
 40
8.0
 40
8.0
 40
8.0
 40
9.0
 40
9.0
 40
9.0
 40
10.0
 40
10.0
 40
10.0
 40
11.0
 40
11.0
 40
11.0
 40
12.0
 40
12.0
 40
12.0
 40
13.0
 40
13.0
 40
13.0
 40
14.0
 40
14.0
 40
14.0
 40
14.0
 10
98.37264526808251
 20
-126.0267566351601
 30
0.0
 10
98.37264526808251
 20
-126.0267566351601
 30
0.0
 10
98.37264526808251
 20
-125.6739788574705
 30
0.0
 10
98.37264526808251
 20
-125.6739788574705
 30
0.0
 10
98.37264526808251
 20
-125.6739788574705
 30
0.0
 10
91.84625654569567
 20
-121.6755955251365
 30
0.0
 10
91.84625654569567
 20
-121.6755955251365
 30
0.0
 10
91.84625654569567
 20
-121.6755955251365
 30
0.0
 10
91.16962878518011
 20
-121.1760621919284
 30
0.0
 10
90.37587880543036
 20
-121.6463149695884
 30
0.0
 10
90.37587880543036
 20
-121.6463149695884
 30
0.0
 10
86.73080250953511
 20
-123.792262191274
 30
0.0
 10
86.73080250953511
 20
-123.792262191274
 30
0.0
 10
86.73080250953511
 20
-123.792262191274
 30
0.0
 10
86.05452752678832
 20
-123.998284413445
 30
0.0
 10
86.02524697197977
 20
-124.9684233020914
 30
0.0
 10
86.02524697197977
 20
-124.9684233020914
 30
0.0
 10
86.02524697197977
 20
-134.0817316331459
 30
0.0
 10
86.02524697197977
 20
-134.0817316331459
 30
0.0
 10
86.02524697197977
 20
-134.0817316331459
 30
0.0
 10
85.93705252978536
 20
-134.9640288551476
 30
0.0
 10
86.67188862214924
 20
-135.3753677439341
 30
0.0
 10
86.67188862214924
 20
-135.3753677439341
 30
0.0
 10
93.58051205700669
 20
-139.4908732984605
 30
0.0
 10
93.58051205700669
 20
-139.4908732984605
 30
0.0
 10
93.58051205700669
 20
-139.4908732984605
 30
0.0
 10
98.2844508258881
 20
-136.7275649658178
 30
0.0
 10
98.2844508258881
 20
-136.7275649658178
 30
0.0
 10
98.2844508258881
 20
-136.7275649658178
 30
0.0
 10
98.2844508258881
 20
-136.257312188158
 30
0.0
 10
98.2844508258881
 20
-136.257312188158
 30
0.0
 10
98.2844508258881
 20
-136.257312188158
 30
0.0
 10
91.19926211775743
 20
-132.1414538558532
 30
0.0
 10
91.19926211775743
 20
-132.1414538558532
 30
0.0
 10
91.19926211775743
 20
-132.1414538558532
 30
0.0
 10
91.19926211775743
 20
-127.3200399681699
 30
0.0
 10
91.19926211775743
 20
-127.3200399681699
 30
0.0
 10
91.19926211775743
 20
-127.3200399681699
 30
0.0
 10
93.55087872442935
 20
-128.7311510789282
 30
0.0
 10
93.55087872442935
 20
-128.7311510789282
 30
0.0
 10
93.55087872442935
 20
-128.7311510789282
 30
0.0
 10
98.37264526808251
 20
-126.0267566351601
 30
0.0
 10
98.37264526808251
 20
-126.0267566351601
 30
0.0
  0
SPLINE
  5
47
330
41
100
AcDbEntity
  8
_U+30EC_U+30A4_U+30E4_U+30FC 1
 62
   179
420
  2234388
370
     9
100
AcDbSpline
210
0.0
220
0.0
230
1.0
 70
     8
 71
     3
 72
    23
 73
    19
 74
     0
 42
0.0000000001
 43
0.0000000001
 12
1.0
 22
0.0
 32
0.0
 13
1.0
 23
0.0
 33
0.0
 40
0.0
 40
0.0
 40
0.0
 40
0.0
 40
1.0
 40
1.0
 40
1.0
 40
2.0
 40
2.0
 40
2.0
 40
3.0
 40
3.0
 40
3.0
 40
4.0
 40
4.0
 40
4.0
 40
5.0
 40
5.0
 40
5.0
 40
6.0
 40
6.0
 40
6.0
 40
6.0
 10
98.2844508258881
 20
-136.3455066325804
 30
0.0
 10
98.2844508258881
 20
-136.3455066325804
 30
0.0
 10
93.58051205700669
 20
-139.0206205208001
 30
0.0
 10
93.58051205700669
 20
-139.0206205208001
 30
0.0
 10
93.58051205700669
 20
-139.0206205208001
 30
0.0
 10
86.73080250953511
 20
-134.9929566329183
 30
0.0
 10
86.73080250953511
 20
-134.9929566329183
 30
0.0
 10
86.73080250953511
 20
-134.9929566329183
 30
0.0
 10
86.37767196298867
 20
-134.8165677440735
 30
0.0
 10
86.34839140818012
 20
-134.1110121886944
 30
0.0
 10
86.34839140818012
 20
-134.1110121886944
 30
0.0
 10
86.34839140818012
 20
-125.0858983020619
 30
0.0
 10
86.34839140818012
 20
-125.0858983020619
 30
0.0
 10
86.34839140818012
 20
-125.0858983020619
 30
0.0
 10
86.31911085337157
 20
-124.2925010800381
 30
0.0
 10
86.81899695172953
 20
-124.7038399688242
 30
0.0
 10
86.81899695172953
 20
-124.7038399688242
 30
0.0
 10
91.25782322737452
 20
-127.3496733014961
 30
0.0
 10
91.25782322737452
 20
-127.3496733014961
 30
0.0
  0
SPLINE
  5
48
330
41
100
AcDbEntity
  8
_U+30EC_U+30A4_U+30E4_U+30FC 1
 62
   179
420
  2234388
370
     9
100
AcDbSpline
210
0.0
220
0.0
230
1.0
 70
     8
 71
     3
 72
    14
 73
    10
 74
     0
 42
0.0000000001
 43
0.0000000001
 12
1.0
 22
0.0
 32
0.0
 13
1.0
 23
0.0
 33
0.0
 40
0.0
 40
0.0
 40
0.0
 40
0.0
 40
1.0
 40
1.0
 40
1.0
 40
2.0
 40
2.0
 40
2.0
 40
3.0
 40
3.0
 40
3.0
 40
3.0
 10
86.20163585636861
 20
-124.2921483022603
 30
0.0
 10
86.20163585636861
 20
-124.2921483022603
 30
0.0
 10
86.52478029256895
 20
-123.9686510801188
 30
0.0
 10
87.25996916270161
 20
-124.4685371911051
 30
0.0
 10
87.25996916270161
 20
-124.4685371911051
 30
0.0
 10
93.610145389584
 20
-128.3490927456905
 30
0.0
 10
93.610145389584
 20
-128.3490927456905
 30
0.0
 10
93.610145389584
 20
-128.3490927456905
 30
0.0
 10
98.37264526808251
 20
-125.6443455241444
 30
0.0
 10
98.37264526808251
 20
-125.6443455241444
 30
0.0
  0
POLYLINE
  5
49
330
41
100
AcDbEntity
  8
_U+30EC_U+30A4_U+30E4_U+30FC 1
 62
   179
420
  2234388
370
     9
100
AcDb2dPolyline
 66
     1
 10
0.0
 20
0.0
 30
0.0
  0
VERTEX
  5
4A
330
49
100
AcDbEntity
  8
_U+30EC_U+30A4_U+30E4_U+30FC 1
 62
   179
420
  2234388
370
     9
100
AcDbVertex
100
AcDb2dVertex
 10
86.49549973776041
 20
-134.5816177441325
 30
0.0
  0
VERTEX
  5
4B
330
49
100
AcDbEntity
  8
_U+30EC_U+30A4_U+30E4_U+30FC 1
 62
   179
420
  2234388
370
     9
100
AcDbVertex
100
AcDb2dVertex
 10
90.90504545859686
 20
-132.1414538558532
 30
0.0
  0
SEQEND
  5
4C
330
49
100
AcDbEntity
  8
_U+30EC_U+30A4_U+30E4_U+30FC 1
 62
   179
420
  2234388
370
     9
  0
INSERT
  5
4E
330
41
100
AcDbEntity
  8
_U+30EC_U+30A4_U+30E4_U+30FC 1
100
AcDbBlockReference
  2
block 3
 10
0.0
 20
0.0
 30
0.0
  0
INSERT
  5
55
330
41
100
AcDbEntity
  8
_U+30EC_U+30A4_U+30E4_U+30FC 1
100
AcDbBlockReference
  2
block 4
 10
0.0
 20
0.0
 30
0.0
  0
POLYLINE
  5
5B
330
41
100
AcDbEntity
  8
_U+30EC_U+30A4_U+30E4_U+30FC 1
 62
   179
420
  2234388
370
     9
100
AcDb2dPolyline
 66
     1
 10
0.0
 20
0.0
 30
0.0
  0
VERTEX
  5
5C
330
5B
100
AcDbEntity
  8
_U+30EC_U+30A4_U+30E4_U+30FC 1
 62
   179
420
  2234388
370
     9
100
AcDbVertex
100
AcDb2dVertex
 10
86.08380808159687
 20
-120.0002538588888
 30
0.0
  0
VERTEX
  5
5D
330
5B
100
AcDbEntity
  8
_U+30EC_U+30A4_U+30E4_U+30FC 1
 62
   179
420
  2234388
370
     9
100
AcDbVertex
100
AcDb2dVertex
 10
86.08380808159687
 20
-123.175253858095
 30
0.0
  0
SEQEND
  5
5E
330
5B
100
AcDbEntity
  8
_U+30EC_U+30A4_U+30E4_U+30FC 1
 62
   179
420
  2234388
370
     9
  0
POLYLINE
  5
5F
330
41
100
AcDbEntity
  8
_U+30EC_U+30A4_U+30E4_U+30FC 1
 62
   179
420
  2234388
370
     9
100
AcDb2dPolyline
 66
     1
 10
0.0
 20
0.0
 30
0.0
  0
VERTEX
  5
60
330
5F
100
AcDbEntity
  8
_U+30EC_U+30A4_U+30E4_U+30FC 1
 62
   179
420
  2234388
370
     9
100
AcDbVertex
100
AcDb2dVertex
 10
86.08380808159687
 20
-121.5288399696179
 30
0.0
  0
VERTEX
  5
61
330
5F
100
AcDbEntity
  8
_U+30EC_U+30A4_U+30E4_U+30FC 1
 62
   179
420
  2234388
370
     9
100
AcDbVertex
100
AcDb2dVertex
 10
87.05394694573545
 20
-120.8821983031127
 30
0.0
  0
SEQEND
  5
62
330
5F
100
AcDbEntity
  8
_U+30EC_U+30A4_U+30E4_U+30FC 1
 62
   179
420
  2234388
370
     9
  0
POLYLINE
  5
63
330
41
100
AcDbEntity
  8
_U+30EC_U+30A4_U+30E4_U+30FC 1
 62
   179
420
  2234388
370
     9
100
AcDb2dPolyline
 66
     1
 10
0.0
 20
0.0
 30
0.0
  0
VERTEX
  5
64
330
63
100
AcDbEntity
  8
_U+30EC_U+30A4_U+30E4_U+30FC 1
 62
   179
420
  2234388
370
     9
100
AcDbVertex
100
AcDb2dVertex
 10
89.99417325961292
 20
-119.382892747932
 30
0.0
  0
VERTEX
  5
65
330
63
100
AcDbEntity
  8
_U+30EC_U+30A4_U+30E4_U+30FC 1
 62
   179
420
  2234388
370
     9
100
AcDbVertex
100
AcDb2dVertex
 10
90.81685101640244
 20
-118.8537260813976
 30
0.0
  0
VERTEX
  5
66
330
63
100
AcDbEntity
  8
_U+30EC_U+30A4_U+30E4_U+30FC 1
 62
   179
420
  2234388
370
     9
100
AcDbVertex
100
AcDb2dVertex
 10
93.34556206300076
 20
-120.2941177477044
 30
0.0
  0
SEQEND
  5
67
330
63
100
AcDbEntity
  8
_U+30EC_U+30A4_U+30E4_U+30FC 1
 62
   179
420
  2234388
370
     9
  0
POLYLINE
  5
68
330
41
100
AcDbEntity
  8
_U+30EC_U+30A4_U+30E4_U+30FC 1
 62
   179
420
  2234388
370
     9
100
AcDb2dPolyline
 66
     1
 10
0.0
 20
0.0
 30
0.0
  0
VERTEX
  5
69
330
68
100
AcDbEntity
  8
_U+30EC_U+30A4_U+30E4_U+30FC 1
 62
   179
420
  2234388
370
     9
100
AcDbVertex
100
AcDb2dVertex
 10
90.81685101640244
 20
-117.4133344150912
 30
0.0
  0
VERTEX
  5
6A
330
68
100
AcDbEntity
  8
_U+30EC_U+30A4_U+30E4_U+30FC 1
 62
   179
420
  2234388
370
     9
100
AcDbVertex
100
AcDb2dVertex
 10
90.81685101640244
 20
-120.2941177477044
 30
0.0
  0
SEQEND
  5
6B
330
68
100
AcDbEntity
  8
_U+30EC_U+30A4_U+30E4_U+30FC 1
 62
   179
420
  2234388
370
     9
  0
POLYLINE
  5
6C
330
41
100
AcDbEntity
  8
_U+30EC_U+30A4_U+30E4_U+30FC 1
 62
   179
420
  2234388
370
     9
100
AcDb2dPolyline
 66
     1
 10
0.0
 20
0.0
 30
0.0
  0
VERTEX
  5
6D
330
6C
100
AcDbEntity
  8
_U+30EC_U+30A4_U+30E4_U+30FC 1
 62
   179
420
  2234388
370
     9
100
AcDbVertex
100
AcDb2dVertex
 10
96.16778421322209
 20
-122.0580066361523
 30
0.0
  0
VERTEX
  5
6E
330
6C
100
AcDbEntity
  8
_U+30EC_U+30A4_U+30E4_U+30FC 1
 62
   179
420
  2234388
370
     9
100
AcDbVertex
100
AcDb2dVertex
 10
98.34301193550519
 20
-123.3516427469398
 30
0.0
  0
SEQEND
  5
6F
330
6C
100
AcDbEntity
  8
_U+30EC_U+30A4_U+30E4_U+30FC 1
 62
   179
420
  2234388
370
     9
  0
POLYLINE
  5
70
330
41
100
AcDbEntity
  8
_U+30EC_U+30A4_U+30E4_U+30FC 1
 62
   179
420
  2234388
370
     9
100
AcDb2dPolyline
 66
     1
 10
0.0
 20
0.0
 30
0.0
  0
VERTEX
  5
71
330
70
100
AcDbEntity
  8
_U+30EC_U+30A4_U+30E4_U+30FC 1
 62
   179
420
  2234388
370
     9
100
AcDbVertex
100
AcDb2dVertex
 10
98.37264526808251
 20
-121.7348621917886
 30
0.0
  0
VERTEX
  5
72
330
70
100
AcDbEntity
  8
_U+30EC_U+30A4_U+30E4_U+30FC 1
 62
   179
420
  2234388
370
     9
100
AcDbVertex
100
AcDb2dVertex
 10
98.34301193550519
 20
-124.7920344132466
 30
0.0
  0
SEQEND
  5
73
330
70
100
AcDbEntity
  8
_U+30EC_U+30A4_U+30E4_U+30FC 1
 62
   179
420
  2234388
370
     9
  0
POLYLINE
  5
74
330
41
100
AcDbEntity
  8
_U+30EC_U+30A4_U+30E4_U+30FC 1
 62
   179
420
  2234388
370
     9
100
AcDb2dPolyline
 66
     1
 10
0.0
 20
0.0
 30
0.0
  0
VERTEX
  5
75
330
74
100
AcDbEntity
  8
_U+30EC_U+30A4_U+30E4_U+30FC 1
 62
   179
420
  2234388
370
     9
100
AcDbVertex
100
AcDb2dVertex
 10
99.19532302487204
 20
-126.1149510795825
 30
0.0
  0
VERTEX
  5
76
330
74
100
AcDbEntity
  8
_U+30EC_U+30A4_U+30E4_U+30FC 1
 62
   179
420
  2234388
370
     9
100
AcDbVertex
100
AcDb2dVertex
 10
101.5765729641213
 20
-127.555342745889
 30
0.0
  0
SEQEND
  5
77
330
74
100
AcDbEntity
  8
_U+30EC_U+30A4_U+30E4_U+30FC 1
 62
   179
420
  2234388
370
     9
  0
POLYLINE
  5
78
330
41
100
AcDbEntity
  8
_U+30EC_U+30A4_U+30E4_U+30FC 1
 62
   179
420
  2234388
370
     9
100
AcDb2dPolyline
 66
     1
 10
0.0
 20
0.0
 30
0.0
  0
VERTEX
  5
79
330
78
100
AcDbEntity
  8
_U+30EC_U+30A4_U+30E4_U+30FC 1
 62
   179
420
  2234388
370
     9
100
AcDbVertex
100
AcDb2dVertex
 10
100.4011174385541
 20
-126.8794205238356
 30
0.0
  0
VERTEX
  5
7A
330
78
100
AcDbEntity
  8
_U+30EC_U+30A4_U+30E4_U+30FC 1
 62
   179
420
  2234388
370
     9
100
AcDbVertex
100
AcDb2dVertex
 10
100.4011174385541
 20
-130.7892566339695
 30
0.0
  0
SEQEND
  5
7B
330
78
100
AcDbEntity
  8
_U+30EC_U+30A4_U+30E4_U+30FC 1
 62
   179
420
  2234388
370
     9
  0
POLYLINE
  5
7C
330
41
100
AcDbEntity
  8
_U+30EC_U+30A4_U+30E4_U+30FC 1
 62
   179
420
  2234388
370
     9
100
AcDb2dPolyline
 66
     1
 10
0.0
 20
0.0
 30
0.0
  0
VERTEX
  5
7D
330
7C
100
AcDbEntity
  8
_U+30EC_U+30A4_U+30E4_U+30FC 1
 62
   179
420
  2234388
370
     9
100
AcDbVertex
100
AcDb2dVertex
 10
99.16639524783227
 20
-137.2567316323522
 30
0.0
  0
VERTEX
  5
7E
330
7C
100
AcDbEntity
  8
_U+30EC_U+30A4_U+30E4_U+30FC 1
 62
   179
420
  2234388
370
     9
100
AcDbVertex
100
AcDb2dVertex
 10
101.5765729641213
 20
-138.6974760764367
 30
0.0
  0
SEQEND
  5
7F
330
7C
100
AcDbEntity
  8
_U+30EC_U+30A4_U+30E4_U+30FC 1
 62
   179
420
  2234388
370
     9
  0
POLYLINE
  5
80
330
41
100
AcDbEntity
  8
_U+30EC_U+30A4_U+30E4_U+30FC 1
 62
   179
420
  2234388
370
     9
100
AcDb2dPolyline
 66
     1
 10
0.0
 20
0.0
 30
0.0
  0
VERTEX
  5
81
330
80
100
AcDbEntity
  8
_U+30EC_U+30A4_U+30E4_U+30FC 1
 62
   179
420
  2234388
370
     9
100
AcDbVertex
100
AcDb2dVertex
 10
100.3714841059768
 20
-133.2879816333444
 30
0.0
  0
VERTEX
  5
82
330
80
100
AcDbEntity
  8
_U+30EC_U+30A4_U+30E4_U+30FC 1
 62
   179
420
  2234388
370
     9
100
AcDbVertex
100
AcDb2dVertex
 10
100.3714841059768
 20
-138.0504816321537
 30
0.0
  0
SEQEND
  5
83
330
80
100
AcDbEntity
  8
_U+30EC_U+30A4_U+30E4_U+30FC 1
 62
   179
420
  2234388
370
     9
  0
POLYLINE
  5
84
330
41
100
AcDbEntity
  8
_U+30EC_U+30A4_U+30E4_U+30FC 1
 62
   179
420
  2234388
370
     9
100
AcDb2dPolyline
 66
     1
 10
0.0
 20
0.0
 30
0.0
  0
VERTEX
  5
85
330
84
100
AcDbEntity
  8
_U+30EC_U+30A4_U+30E4_U+30FC 1
 62
   179
420
  2234388
370
     9
100
AcDbVertex
100
AcDb2dVertex
 10
91.52240655395778
 20
-136.69828441027
 30
0.0
  0
VERTEX
  5
86
330
84
100
AcDbEntity
  8
_U+30EC_U+30A4_U+30E4_U+30FC 1
 62
   179
420
  2234388
370
     9
100
AcDbVertex
100
AcDb2dVertex
 10
90.81685101640244
 20
-136.316226077032
 30
0.0
  0
VERTEX
  5
87
330
84
100
AcDbEntity
  8
_U+30EC_U+30A4_U+30E4_U+30FC 1
 62
   179
420
  2234388
370
     9
100
AcDbVertex
100
AcDb2dVertex
 10
91.0228732333686
 20
-136.69828441027
 30
0.0
  0
VERTEX
  5
88
330
84
100
AcDbEntity
  8
_U+30EC_U+30A4_U+30E4_U+30FC 1
 62
   179
420
  2234388
370
     9
100
AcDbVertex
100
AcDb2dVertex
 10
90.81685101640244
 20
-137.139256632382
 30
0.0
  0
VERTEX
  5
89
330
84
100
AcDbEntity
  8
_U+30EC_U+30A4_U+30E4_U+30FC 1
 62
   179
420
  2234388
370
     9
100
AcDbVertex
100
AcDb2dVertex
 10
91.52240655395778
 20
-136.69828441027
 30
0.0
  0
SEQEND
  5
8B
330
84
100
AcDbEntity
  8
_U+30EC_U+30A4_U+30E4_U+30FC 1
 62
   179
420
  2234388
370
     9
  0
HATCH
  5
8A
330
41
100
AcDbEntity
  8
_U+30EC_U+30A4_U+30E4_U+30FC 1
 62
   179
420
  2234388
100
AcDbHatch
 10
0.0
 20
0.0
 30
0.0
210
0.0
220
0.0
230
1.0
  2
SOLID
 70
     1
 71
     0
 91
        1
 92
        1
 93
        4
 72
     1
 10
91.52240655395778
 20
-136.69828441027
 11
90.81685101640244
 21
-136.316226077032
 72
     1
 10
90.81685101640244
 20
-136.316226077032
 11
91.0228732333686
 21
-136.69828441027
 72
     1
 10
91.0228732333686
 20
-136.69828441027
 11
90.81685101640244
 21
-137.139256632382
 72
     1
 10
90.81685101640244
 20
-137.139256632382
 11
91.52240655395778
 21
-136.69828441027
 97
        0
 75
     2
 76
     1
 98
        0
  0
POLYLINE
  5
8C
330
41
100
AcDbEntity
  8
_U+30EC_U+30A4_U+30E4_U+30FC 1
 62
   179
420
  2234388
370
     9
100
AcDb2dPolyline
 66
     1
 10
0.0
 20
0.0
 30
0.0
  0
VERTEX
  5
8D
330
8C
100
AcDbEntity
  8
_U+30EC_U+30A4_U+30E4_U+30FC 1
 62
   179
420
  2234388
370
     9
100
AcDbVertex
100
AcDb2dVertex
 10
79.64561380140444
 20
-136.6393705213954
 30
0.0
  0
VERTEX
  5
8E
330
8C
100
AcDbEntity
  8
_U+30EC_U+30A4_U+30E4_U+30FC 1
 62
   179
420
  2234388
370
     9
100
AcDbVertex
100
AcDb2dVertex
 10
91.0228732333686
 20
-136.6393705213954
 30
0.0
  0
SEQEND
  5
8F
330
8C
100
AcDbEntity
  8
_U+30EC_U+30A4_U+30E4_U+30FC 1
 62
   179
420
  2234388
370
     9
  0
INSERT
  5
91
330
41
100
AcDbEntity
  8
_U+30EC_U+30A4_U+30E4_U+30FC 1
100
AcDbBlockReference
  2
block 5
 10
0.0
 20
0.0
 30
0.0
  0
INSERT
  5
99
330
41
100
AcDbEntity
  8
_U+30EC_U+30A4_U+30E4_U+30FC 1
100
AcDbBlockReference
  2
block 6
 10
0.0
 20
0.0
 30
0.0
  0
INSERT
  5
A1
330
41
100
AcDbEntity
  8
_U+30EC_U+30A4_U+30E4_U+30FC 1
100
AcDbBlockReference
  2
block 7
 10
0.0
 20
0.0
 30
0.0
  0
INSERT
  5
BD
330
41
100
AcDbEntity
  8
_U+30EC_U+30A4_U+30E4_U+30FC 1
100
AcDbBlockReference
  2
block 8
 10
0.0
 20
0.0
 30
0.0
  0
SPLINE
  5
C9
330
41
100
AcDbEntity
  8
_U+30EC_U+30A4_U+30E4_U+30FC 1
370
     0
100
AcDbSpline
210
0.0
220
0.0
230
1.0
 70
    11
 71
     3
 72
    17
 73
    13
 74
     0
 42
0.0000000001
 43
0.0000000001
 12
1.0
 22
0.0
 32
0.0
 13
1.0
 23
0.0
 33
0.0
 40
0.0
 40
0.0
 40
0.0
 40
0.0
 40
1.0
 40
1.0
 40
1.0
 40
2.0
 40
2.0
 40
2.0
 40
3.0
 40
3.0
 40
3.0
 40
4.0
 40
4.0
 40
4.0
 40
4.0
 10
86.28086974323607
 20
-121.4582138585244
 30
0.0
 10
86.28086974323607
 20
-121.5898352473803
 30
0.0
 10
86.17440141261898
 20
-121.6962683029092
 30
0.0
 10
86.0428153048649
 20
-121.6962683029092
 30
0.0
 10
85.91154669710274
 20
-121.6962683029092
 30
0.0
 10
85.80476086649374
 20
-121.5898352473803
 30
0.0
 10
85.80476086649374
 20
-121.4582138585244
 30
0.0
 10
85.80476086649374
 20
-121.326627747446
 30
0.0
 10
85.91154669710274
 20
-121.2201594141395
 30
0.0
 10
86.0428153048649
 20
-121.2201594141395
 30
0.0
 10
86.17440141261898
 20
-121.2201594141395
 30
0.0
 10
86.28086974323607
 20
-121.326627747446
 30
0.0
 10
86.28086974323607
 20
-121.4582138585244
 30
0.0
  0
HATCH
  5
CA
330
41
100
AcDbEntity
  8
_U+30EC_U+30A4_U+30E4_U+30FC 1
 62
   179
420
  2234388
100
AcDbHatch
 10
0.0
 20
0.0
 30
0.0
210
0.0
220
0.0
230
1.0
  2
SOLID
 70
     1
 71
     0
 91
        1
 92
        1
 93
        1
 72
     4
 94
        3
 73
     0
 74
     1
 95
       17
 96
       13
 40
0.0
 40
0.0
 40
0.0
 40
0.0
 40
1.0
 40
1.0
 40
1.0
 40
2.0
 40
2.0
 40
2.0
 40
3.0
 40
3.0
 40
3.0
 40
4.0
 40
4.0
 40
4.0
 40
4.0
 10
86.28086974323607
 20
-121.4582138585244
 10
86.28086974323607
 20
-121.5898352473803
 10
86.17440141261898
 20
-121.6962683029092
 10
86.0428153048649
 20
-121.6962683029092
 10
85.91154669710274
 20
-121.6962683029092
 10
85.80476086649374
 20
-121.5898352473803
 10
85.80476086649374
 20
-121.4582138585244
 10
85.80476086649374
 20
-121.326627747446
 10
85.91154669710274
 20
-121.2201594141395
 10
86.0428153048649
 20
-121.2201594141395
 10
86.17440141261898
 20
-121.2201594141395
 10
86.28086974323607
 20
-121.326627747446
 10
86.28086974323607
 20
-121.4582138585244
 97
        0
 97
        0
 75
     2
 76
     1
 98
        0
  0
SPLINE
  5
CB
330
41
100
AcDbEntity
  8
_U+30EC_U+30A4_U+30E4_U+30FC 1
370
     0
100
AcDbSpline
210
0.0
220
0.0
230
1.0
 70
    11
 71
     3
 72
    17
 73
    13
 74
     0
 42
0.0000000001
 43
0.0000000001
 12
1.0
 22
0.0
 32
0.0
 13
1.0
 23
0.0
 33
0.0
 40
0.0
 40
0.0
 40
0.0
 40
0.0
 40
1.0
 40
1.0
 40
1.0
 40
2.0
 40
2.0
 40
2.0
 40
3.0
 40
3.0
 40
3.0
 40
4.0
 40
4.0
 40
4.0
 40
4.0
 10
90.99944878952176
 20
-118.9446721924861
 30
0.0
 10
90.99944878952176
 20
-119.076293581342
 30
0.0
 10
90.89262768113588
 20
-119.182726636871
 30
0.0
 10
90.76104157338182
 20
-119.182726636871
 30
0.0
 10
90.63012574338842
 20
-119.182726636871
 30
0.0
 10
90.52333991277942
 20
-119.076293581342
 30
0.0
 10
90.52333991277942
 20
-118.9446721924861
 30
0.0
 10
90.52333991277942
 20
-118.8130860814077
 30
0.0
 10
90.63012574338842
 20
-118.7066177481013
 30
0.0
 10
90.76104157338182
 20
-118.7066177481013
 30
0.0
 10
90.89262768113588
 20
-118.7066177481013
 30
0.0
 10
90.99944878952176
 20
-118.8130860814077
 30
0.0
 10
90.99944878952176
 20
-118.9446721924861
 30
0.0
  0
HATCH
  5
CC
330
41
100
AcDbEntity
  8
_U+30EC_U+30A4_U+30E4_U+30FC 1
 62
   179
420
  2234388
100
AcDbHatch
 10
0.0
 20
0.0
 30
0.0
210
0.0
220
0.0
230
1.0
  2
SOLID
 70
     1
 71
     0
 91
        1
 92
        1
 93
        1
 72
     4
 94
        3
 73
     0
 74
     1
 95
       17
 96
       13
 40
0.0
 40
0.0
 40
0.0
 40
0.0
 40
1.0
 40
1.0
 40
1.0
 40
2.0
 40
2.0
 40
2.0
 40
3.0
 40
3.0
 40
3.0
 40
4.0
 40
4.0
 40
4.0
 40
4.0
 10
90.99944878952176
 20
-118.9446721924861
 10
90.99944878952176
 20
-119.076293581342
 10
90.89262768113588
 20
-119.182726636871
 10
90.76104157338182
 20
-119.182726636871
 10
90.63012574338842
 20
-119.182726636871
 10
90.52333991277942
 20
-119.076293581342
 10
90.52333991277942
 20
-118.9446721924861
 10
90.52333991277942
 20
-118.8130860814077
 10
90.63012574338842
 20
-118.7066177481013
 10
90.76104157338182
 20
-118.7066177481013
 10
90.89262768113588
 20
-118.7066177481013
 10
90.99944878952176
 20
-118.8130860814077
 10
90.99944878952176
 20
-118.9446721924861
 97
        0
 97
        0
 75
     2
 76
     1
 98
        0
  0
SPLINE
  5
CD
330
41
100
AcDbEntity
  8
_U+30EC_U+30A4_U+30E4_U+30FC 1
370
     0
100
AcDbSpline
210
0.0
220
0.0
230
1.0
 70
    11
 71
     3
 72
    17
 73
    13
 74
     0
 42
0.0000000001
 43
0.0000000001
 12
1.0
 22
0.0
 32
0.0
 13
1.0
 23
0.0
 33
0.0
 40
0.0
 40
0.0
 40
0.0
 40
0.0
 40
1.0
 40
1.0
 40
1.0
 40
2.0
 40
2.0
 40
2.0
 40
3.0
 40
3.0
 40
3.0
 40
4.0
 40
4.0
 40
4.0
 40
4.0
 10
98.49597637604718
 20
-123.2661999691835
 30
0.0
 10
98.49597637604718
 20
-123.3978213580394
 30
0.0
 10
98.38915526766131
 20
-123.5042544135684
 30
0.0
 10
98.25756915990723
 20
-123.5042544135684
 30
0.0
 10
98.12665332991385
 20
-123.5042544135684
 30
0.0
 10
98.01986749930485
 20
-123.3978213580394
 30
0.0
 10
98.01986749930485
 20
-123.2661999691835
 30
0.0
 10
98.01986749930485
 20
-123.1346138581051
 30
0.0
 10
98.12665332991385
 20
-123.0281455247987
 30
0.0
 10
98.25756915990723
 20
-123.0281455247987
 30
0.0
 10
98.38915526766131
 20
-123.0281455247987
 30
0.0
 10
98.49597637604718
 20
-123.1346138581051
 30
0.0
 10
98.49597637604718
 20
-123.2661999691835
 30
0.0
  0
HATCH
  5
CE
330
41
100
AcDbEntity
  8
_U+30EC_U+30A4_U+30E4_U+30FC 1
 62
   179
420
  2234388
100
AcDbHatch
 10
0.0
 20
0.0
 30
0.0
210
0.0
220
0.0
230
1.0
  2
SOLID
 70
     1
 71
     0
 91
        1
 92
        1
 93
        1
 72
     4
 94
        3
 73
     0
 74
     1
 95
       17
 96
       13
 40
0.0
 40
0.0
 40
0.0
 40
0.0
 40
1.0
 40
1.0
 40
1.0
 40
2.0
 40
2.0
 40
2.0
 40
3.0
 40
3.0
 40
3.0
 40
4.0
 40
4.0
 40
4.0
 40
4.0
 10
98.49597637604718
 20
-123.2661999691835
 10
98.49597637604718
 20
-123.3978213580394
 10
98.38915526766131
 20
-123.5042544135684
 10
98.25756915990723
 20
-123.5042544135684
 10
98.12665332991385
 20
-123.5042544135684
 10
98.01986749930485
 20
-123.3978213580394
 10
98.01986749930485
 20
-123.2661999691835
 10
98.01986749930485
 20
-123.1346138581051
 10
98.12665332991385
 20
-123.0281455247987
 10
98.25756915990723
 20
-123.0281455247987
 10
98.38915526766131
 20
-123.0281455247987
 10
98.49597637604718
 20
-123.1346138581051
 10
98.49597637604718
 20
-123.2661999691835
 97
        0
 97
        0
 75
     2
 76
     1
 98
        0
  0
SPLINE
  5
CF
330
41
100
AcDbEntity
  8
_U+30EC_U+30A4_U+30E4_U+30FC 1
370
     0
100
AcDbSpline
210
0.0
220
0.0
230
1.0
 70
    11
 71
     3
 72
    17
 73
    13
 74
     0
 42
0.0000000001
 43
0.0000000001
 12
1.0
 22
0.0
 32
0.0
 13
1.0
 23
0.0
 33
0.0
 40
0.0
 40
0.0
 40
0.0
 40
0.0
 40
1.0
 40
1.0
 40
1.0
 40
2.0
 40
2.0
 40
2.0
 40
3.0
 40
3.0
 40
3.0
 40
4.0
 40
4.0
 40
4.0
 40
4.0
 10
100.6126429887132
 20
-126.8821721905017
 30
0.0
 10
100.6126429887132
 20
-127.0137935793577
 30
0.0
 10
100.5058218803273
 20
-127.1202266348866
 30
0.0
 10
100.3742357725732
 20
-127.1202266348866
 30
0.0
 10
100.2433199425798
 20
-127.1202266348866
 30
0.0
 10
100.1365341119708
 20
-127.0137935793577
 30
0.0
 10
100.1365341119708
 20
-126.8821721905017
 30
0.0
 10
100.1365341119708
 20
-126.7505860794234
 30
0.0
 10
100.2433199425798
 20
-126.6441177461169
 30
0.0
 10
100.3742357725732
 20
-126.6441177461169
 30
0.0
 10
100.5058218803273
 20
-126.6441177461169
 30
0.0
 10
100.6126429887132
 20
-126.7505860794234
 30
0.0
 10
100.6126429887132
 20
-126.8821721905017
 30
0.0
  0
HATCH
  5
D0
330
41
100
AcDbEntity
  8
_U+30EC_U+30A4_U+30E4_U+30FC 1
 62
   179
420
  2234388
100
AcDbHatch
 10
0.0
 20
0.0
 30
0.0
210
0.0
220
0.0
230
1.0
  2
SOLID
 70
     1
 71
     0
 91
        1
 92
        1
 93
        1
 72
     4
 94
        3
 73
     0
 74
     1
 95
       17
 96
       13
 40
0.0
 40
0.0
 40
0.0
 40
0.0
 40
1.0
 40
1.0
 40
1.0
 40
2.0
 40
2.0
 40
2.0
 40
3.0
 40
3.0
 40
3.0
 40
4.0
 40
4.0
 40
4.0
 40
4.0
 10
100.6126429887132
 20
-126.8821721905017
 10
100.6126429887132
 20
-127.0137935793577
 10
100.5058218803273
 20
-127.1202266348866
 10
100.3742357725732
 20
-127.1202266348866
 10
100.2433199425798
 20
-127.1202266348866
 10
100.1365341119708
 20
-127.0137935793577
 10
100.1365341119708
 20
-126.8821721905017
 10
100.1365341119708
 20
-126.7505860794234
 10
100.2433199425798
 20
-126.6441177461169
 10
100.3742357725732
 20
-126.6441177461169
 10
100.5058218803273
 20
-126.6441177461169
 10
100.6126429887132
 20
-126.7505860794234
 10
100.6126429887132
 20
-126.8821721905017
 97
        0
 97
        0
 75
     2
 76
     1
 98
        0
  0
SPLINE
  5
D1
330
41
100
AcDbEntity
  8
_U+30EC_U+30A4_U+30E4_U+30FC 1
370
     0
100
AcDbSpline
210
0.0
220
0.0
230
1.0
 70
    11
 71
     3
 72
    17
 73
    13
 74
     0
 42
0.0000000001
 43
0.0000000001
 12
1.0
 22
0.0
 32
0.0
 13
1.0
 23
0.0
 33
0.0
 40
0.0
 40
0.0
 40
0.0
 40
0.0
 40
1.0
 40
1.0
 40
1.0
 40
2.0
 40
2.0
 40
2.0
 40
3.0
 40
3.0
 40
3.0
 40
4.0
 40
4.0
 40
4.0
 40
4.0
 10
100.568545767616
 20
-137.9505749655121
 30
0.0
 10
100.568545767616
 20
-138.0821963543683
 30
0.0
 10
100.4617246592301
 20
-138.1886294098973
 30
0.0
 10
100.330138551476
 20
-138.1886294098973
 30
0.0
 10
100.1992227214826
 20
-138.1886294098973
 30
0.0
 10
100.0924368908736
 20
-138.0821963543683
 30
0.0
 10
100.0924368908736
 20
-137.9505749655121
 30
0.0
 10
100.0924368908736
 20
-137.818988854434
 30
0.0
 10
100.1992227214826
 20
-137.7125205211276
 30
0.0
 10
100.330138551476
 20
-137.7125205211276
 30
0.0
 10
100.4617246592301
 20
-137.7125205211276
 30
0.0
 10
100.568545767616
 20
-137.818988854434
 30
0.0
 10
100.568545767616
 20
-137.9505749655121
 30
0.0
  0
HATCH
  5
D2
330
41
100
AcDbEntity
  8
_U+30EC_U+30A4_U+30E4_U+30FC 1
 62
   179
420
  2234388
100
AcDbHatch
 10
0.0
 20
0.0
 30
0.0
210
0.0
220
0.0
230
1.0
  2
SOLID
 70
     1
 71
     0
 91
        1
 92
        1
 93
        1
 72
     4
 94
        3
 73
     0
 74
     1
 95
       17
 96
       13
 40
0.0
 40
0.0
 40
0.0
 40
0.0
 40
1.0
 40
1.0
 40
1.0
 40
2.0
 40
2.0
 40
2.0
 40
3.0
 40
3.0
 40
3.0
 40
4.0
 40
4.0
 40
4.0
 40
4.0
 10
100.568545767616
 20
-137.9505749655121
 10
100.568545767616
 20
-138.0821963543683
 10
100.4617246592301
 20
-138.1886294098973
 10
100.330138551476
 20
-138.1886294098973
 10
100.1992227214826
 20
-138.1886294098973
 10
100.0924368908736
 20
-138.0821963543683
 10
100.0924368908736
 20
-137.9505749655121
 10
100.0924368908736
 20
-137.818988854434
 10
100.1992227214826
 20
-137.7125205211276
 10
100.330138551476
 20
-137.7125205211276
 10
100.4617246592301
 20
-137.7125205211276
 10
100.568545767616
 20
-137.818988854434
 10
100.568545767616
 20
-137.9505749655121
 97
        0
 97
        0
 75
     2
 76
     1
 98
        0
  0
ENDBLK
  5
44
330
41
100
AcDbEntity
  8
0
100
AcDbBlockEnd
  0
BLOCK
  5
4F
330
4D
100
AcDbEntity
  8
0
100
AcDbBlockBegin
  2
block 3
 70
     0
 10
0.0
 20
0.0
 30
0.0
  3
block 3
  1

  0
SPLINE
  5
51
330
4D
100
AcDbEntity
  8
_U+30EC_U+30A4_U+30E4_U+30FC 1
 62
   179
420
  2234388
370
     9
100
AcDbSpline
210
0.0
220
0.0
230
1.0
 70
    11
 71
     3
 72
    17
 73
    13
 74
     0
 42
0.0000000001
 43
0.0000000001
 12
1.0
 22
0.0
 32
0.0
 13
1.0
 23
0.0
 33
0.0
 40
0.0
 40
0.0
 40
0.0
 40
0.0
 40
1.0
 40
1.0
 40
1.0
 40
2.0
 40
2.0
 40
2.0
 40
3.0
 40
3.0
 40
3.0
 40
4.0
 40
4.0
 40
4.0
 40
4.0
 10
95.31476756831769
 20
-136.1987510770612
 30
0.0
 10
95.31476756831769
 20
-136.717934132487
 30
0.0
 10
94.55753008763644
 20
-137.139256632382
 30
0.0
 10
93.62460927810389
 20
-137.139256632382
 30
0.0
 10
92.69098291303379
 20
-137.139256632382
 30
0.0
 10
91.93374543235254
 20
-136.717934132487
 30
0.0
 10
91.93374543235254
 20
-136.1987510770612
 30
0.0
 10
91.93374543235254
 20
-135.678897743858
 30
0.0
 10
92.69098291303379
 20
-135.2575399661855
 30
0.0
 10
93.62460927810389
 20
-135.2575399661855
 30
0.0
 10
94.55753008763644
 20
-135.2575399661855
 30
0.0
 10
95.31476756831769
 20
-135.678897743858
 30
0.0
 10
95.31476756831769
 20
-136.1987510770612
 30
0.0
  0
SPLINE
  5
52
330
4D
100
AcDbEntity
  8
_U+30EC_U+30A4_U+30E4_U+30FC 1
 62
   179
420
  2234388
370
     9
100
AcDbSpline
210
0.0
220
0.0
230
1.0
 70
    11
 71
     3
 72
    17
 73
    13
 74
     0
 42
0.0000000001
 43
0.0000000001
 12
1.0
 22
0.0
 32
0.0
 13
1.0
 23
0.0
 33
0.0
 40
0.0
 40
0.0
 40
0.0
 40
0.0
 40
1.0
 40
1.0
 40
1.0
 40
2.0
 40
2.0
 40
2.0
 40
3.0
 40
3.0
 40
3.0
 40
4.0
 40
4.0
 40
4.0
 40
4.0
 10
95.27617368041342
 20
-136.3947896881236
 30
0.0
 10
95.27617368041342
 20
-136.7706391324739
 30
0.0
 10
94.53685731038605
 20
-137.0755096879532
 30
0.0
 10
93.62460927810389
 20
-137.0755096879532
 30
0.0
 10
92.71232596804484
 20
-137.0755096879532
 30
0.0
 10
91.97300959801748
 20
-136.7706391324739
 30
0.0
 10
91.97300959801748
 20
-136.3947896881236
 30
0.0
 10
91.97300959801748
 20
-136.0189049659951
 30
0.0
 10
92.71232596804484
 20
-135.7140344105158
 30
0.0
 10
93.62460927810389
 20
-135.7140344105158
 30
0.0
 10
94.53685731038605
 20
-135.7140344105158
 30
0.0
 10
95.27617368041342
 20
-136.0189049659951
 30
0.0
 10
95.27617368041342
 20
-136.3947896881236
 30
0.0
  0
HATCH
  5
53
330
4D
100
AcDbEntity
  8
_U+30EC_U+30A4_U+30E4_U+30FC 1
 62
     7
420
 16711422
100
AcDbHatch
 10
0.0
 20
0.0
 30
0.0
210
0.0
220
0.0
230
1.0
  2
SOLID
 70
     1
 71
     0
 91
        1
 92
        1
 93
        1
 72
     4
 94
        3
 73
     0
 74
     1
 95
       17
 96
       13
 40
0.0
 40
0.0
 40
0.0
 40
0.0
 40
1.0
 40
1.0
 40
1.0
 40
2.0
 40
2.0
 40
2.0
 40
3.0
 40
3.0
 40
3.0
 40
4.0
 40
4.0
 40
4.0
 40
4.0
 10
95.27617368041342
 20
-136.3947896881236
 10
95.27617368041342
 20
-136.7706391324739
 10
94.53685731038605
 20
-137.0755096879532
 10
93.62460927810389
 20
-137.0755096879532
 10
92.71232596804484
 20
-137.0755096879532
 10
91.97300959801748
 20
-136.7706391324739
 10
91.97300959801748
 20
-136.3947896881236
 10
91.97300959801748
 20
-136.0189049659951
 10
92.71232596804484
 20
-135.7140344105158
 10
93.62460927810389
 20
-135.7140344105158
 10
94.53685731038605
 20
-135.7140344105158
 10
95.27617368041342
 20
-136.0189049659951
 10
95.27617368041342
 20
-136.3947896881236
 97
        0
 97
        0
 75
     2
 76
     1
 98
        0
  0
ENDBLK
  5
50
330
4D
100
AcDbEntity
  8
0
100
AcDbBlockEnd
  0
BLOCK
  5
56
330
54
100
AcDbEntity
  8
0
100
AcDbBlockBegin
  2
block 4
 70
     0
 10
0.0
 20
0.0
 30
0.0
  3
block 4
  1

  0
SPLINE
  5
58
330
54
100
AcDbEntity
  8
_U+30EC_U+30A4_U+30E4_U+30FC 1
 62
   179
420
  2234388
370
     9
100
AcDbSpline
210
0.0
220
0.0
230
1.0
 70
    11
 71
     3
 72
    17
 73
    13
 74
     0
 42
0.0000000001
 43
0.0000000001
 12
1.0
 22
0.0
 32
0.0
 13
1.0
 23
0.0
 33
0.0
 40
0.0
 40
0.0
 40
0.0
 40
0.0
 40
1.0
 40
1.0
 40
1.0
 40
2.0
 40
2.0
 40
2.0
 40
3.0
 40
3.0
 40
3.0
 40
4.0
 40
4.0
 40
4.0
 40
4.0
 10
95.31476756831769
 20
-125.3801149686549
 30
0.0
 10
95.31476756831769
 20
-125.8992980240807
 30
0.0
 10
94.55753008763644
 20
-126.3206205239754
 30
0.0
 10
93.62460927810389
 20
-126.3206205239754
 30
0.0
 10
92.69098291303379
 20
-126.3206205239754
 30
0.0
 10
91.93374543235254
 20
-125.8992980240807
 30
0.0
 10
91.93374543235254
 20
-125.3801149686549
 30
0.0
 10
91.93374543235254
 20
-124.8602616354515
 30
0.0
 10
92.69098291303379
 20
-124.4389038577792
 30
0.0
 10
93.62460927810389
 20
-124.4389038577792
 30
0.0
 10
94.55753008763644
 20
-124.4389038577792
 30
0.0
 10
95.31476756831769
 20
-124.8602616354515
 30
0.0
 10
95.31476756831769
 20
-125.3801149686549
 30
0.0
  0
SPLINE
  5
59
330
54
100
AcDbEntity
  8
_U+30EC_U+30A4_U+30E4_U+30FC 1
 62
   179
420
  2234388
370
     9
100
AcDbSpline
210
0.0
220
0.0
230
1.0
 70
    11
 71
     3
 72
    17
 73
    13
 74
     0
 42
0.0000000001
 43
0.0000000001
 12
1.0
 22
0.0
 32
0.0
 13
1.0
 23
0.0
 33
0.0
 40
0.0
 40
0.0
 40
0.0
 40
0.0
 40
1.0
 40
1.0
 40
1.0
 40
2.0
 40
2.0
 40
2.0
 40
3.0
 40
3.0
 40
3.0
 40
4.0
 40
4.0
 40
4.0
 40
4.0
 10
95.27617368041342
 20
-125.576153579717
 30
0.0
 10
95.27617368041342
 20
-125.9520030240676
 30
0.0
 10
94.53685731038605
 20
-126.2569088573248
 30
0.0
 10
93.62460927810389
 20
-126.2569088573248
 30
0.0
 10
92.71232596804484
 20
-126.2569088573248
 30
0.0
 10
91.97300959801748
 20
-125.9520030240676
 30
0.0
 10
91.97300959801748
 20
-125.576153579717
 30
0.0
 10
91.97300959801748
 20
-125.2002688575888
 30
0.0
 10
92.71232596804484
 20
-124.8953983021095
 30
0.0
 10
93.62460927810389
 20
-124.8953983021095
 30
0.0
 10
94.53685731038605
 20
-124.8953983021095
 30
0.0
 10
95.27617368041342
 20
-125.2002688575888
 30
0.0
 10
95.27617368041342
 20
-125.576153579717
 30
0.0
  0
HATCH
  5
5A
330
54
100
AcDbEntity
  8
_U+30EC_U+30A4_U+30E4_U+30FC 1
 62
     7
420
 16711422
100
AcDbHatch
 10
0.0
 20
0.0
 30
0.0
210
0.0
220
0.0
230
1.0
  2
SOLID
 70
     1
 71
     0
 91
        1
 92
        1
 93
        1
 72
     4
 94
        3
 73
     0
 74
     1
 95
       17
 96
       13
 40
0.0
 40
0.0
 40
0.0
 40
0.0
 40
1.0
 40
1.0
 40
1.0
 40
2.0
 40
2.0
 40
2.0
 40
3.0
 40
3.0
 40
3.0
 40
4.0
 40
4.0
 40
4.0
 40
4.0
 10
95.27617368041342
 20
-125.576153579717
 10
95.27617368041342
 20
-125.9520030240676
 10
94.53685731038605
 20
-126.2569088573248
 10
93.62460927810389
 20
-126.2569088573248
 10
92.71232596804484
 20
-126.2569088573248
 10
91.97300959801748
 20
-125.9520030240676
 10
91.97300959801748
 20
-125.576153579717
 10
91.97300959801748
 20
-125.2002688575888
 10
92.71232596804484
 20
-124.8953983021095
 10
93.62460927810389
 20
-124.8953983021095
 10
94.53685731038605
 20
-124.8953983021095
 10
95.27617368041342
 20
-125.2002688575888
 10
95.27617368041342
 20
-125.576153579717
 97
        0
 97
        0
 75
     2
 76
     1
 98
        0
  0
ENDBLK
  5
57
330
54
100
AcDbEntity
  8
0
100
AcDbBlockEnd
  0
BLOCK
  5
92
330
90
100
AcDbEntity
  8
0
100
AcDbBlockBegin
  2
block 5
 70
     0
 10
0.0
 20
0.0
 30
0.0
  3
block 5
  1

  0
SPLINE
  5
94
330
90
100
AcDbEntity
  8
_U+30EC_U+30A4_U+30E4_U+30FC 1
370
     0
100
AcDbSpline
210
0.0
220
0.0
230
1.0
 70
    11
 71
     3
 72
    44
 73
    40
 74
     0
 42
0.0000000001
 43
0.0000000001
 12
1.0
 22
0.0
 32
0.0
 13
1.0
 23
0.0
 33
0.0
 40
0.0
 40
0.0
 40
0.0
 40
0.0
 40
1.0
 40
1.0
 40
1.0
 40
2.0
 40
2.0
 40
2.0
 40
3.0
 40
3.0
 40
3.0
 40
4.0
 40
4.0
 40
4.0
 40
5.0
 40
5.0
 40
5.0
 40
6.0
 40
6.0
 40
6.0
 40
7.0
 40
7.0
 40
7.0
 40
8.0
 40
8.0
 40
8.0
 40
9.0
 40
9.0
 40
9.0
 40
10.0
 40
10.0
 40
10.0
 40
11.0
 40
11.0
 40
11.0
 40
12.0
 40
12.0
 40
12.0
 40
13.0
 40
13.0
 40
13.0
 40
13.0
 10
88.1469021046994
 20
-119.8298949895738
 30
0.0
 10
87.92899981525734
 20
-119.9885416366695
 30
0.0
 10
87.83580998238133
 20
-120.0626111896024
 30
0.0
 10
87.7872341360393
 20
-120.2064439261116
 30
0.0
 10
87.7872341360393
 20
-120.2064439261116
 30
0.0
 10
88.5656534609315
 20
-120.2064439261116
 30
0.0
 10
88.5656534609315
 20
-120.2064439261116
 30
0.0
 10
88.5656534609315
 20
-120.2064439261116
 30
0.0
 10
88.5656534609315
 20
-120.4115993622582
 30
0.0
 10
88.5656534609315
 20
-120.4115993622582
 30
0.0
 10
88.5656534609315
 20
-120.4115993622582
 30
0.0
 10
87.53763696813296
 20
-120.4115993622582
 30
0.0
 10
87.53763696813296
 20
-120.4115993622582
 30
0.0
 10
87.56933184659725
 20
-120.0539984508893
 30
0.0
 10
87.63496091559126
 20
-119.9757947833741
 30
0.0
 10
88.01995033606794
 20
-119.6774495143515
 30
0.0
 10
88.275920930622
 20
-119.4786675048526
 30
0.0
 10
88.34137774484174
 20
-119.4109713785674
 30
0.0
 10
88.34137774484174
 20
-119.2735120687059
 30
0.0
 10
88.34137774484174
 20
-119.1550007840133
 30
0.0
 10
88.26954750397428
 20
-119.0239149007996
 30
0.0
 10
88.07283255176652
 20
-119.0239149007996
 30
0.0
 10
87.8125555878559
 20
-119.0239149007996
 30
0.0
 10
87.80411510391703
 20
-119.2543917887628
 30
0.0
 10
87.79980873456047
 20
-119.3708360161642
 30
0.0
 10
87.79980873456047
 20
-119.3708360161642
 30
0.0
 10
87.57570527324496
 20
-119.3708360161642
 30
0.0
 10
87.57570527324496
 20
-119.3708360161642
 30
0.0
 10
87.58414575718383
 20
-119.2438842475328
 30
0.0
 10
87.59465329841385
 20
-119.1317463894879
 30
0.0
 10
87.67509627799443
 20
-119.0132351047953
 30
0.0
 10
87.78499482397389
 20
-118.8525214004084
 30
0.0
 10
87.97120223495165
 20
-118.8185872098787
 30
0.0
 10
88.08764646235309
 20
-118.8185872098787
 30
0.0
 10
88.36480439414144
 20
-118.8185872098787
 30
0.0
 10
88.57202688757921
 20
-119.0027275635653
 30
0.0
 10
88.57202688757921
 20
-119.2755791259971
 30
0.0
 10
88.57202688757921
 20
-119.5039889566691
 30
0.0
 10
88.45575491495204
 20
-119.6035522161929
 30
0.0
 10
88.1469021046994
 20
-119.8298949895738
 30
0.0
  0
HATCH
  5
95
330
90
100
AcDbEntity
  8
_U+30EC_U+30A4_U+30E4_U+30FC 1
 62
   179
420
  2234388
100
AcDbHatch
 10
0.0
 20
0.0
 30
0.0
210
0.0
220
0.0
230
1.0
  2
SOLID
 70
     1
 71
     0
 91
        1
 92
        1
 93
        1
 72
     4
 94
        3
 73
     0
 74
     1
 95
       44
 96
       40
 40
0.0
 40
0.0
 40
0.0
 40
0.0
 40
1.0
 40
1.0
 40
1.0
 40
2.0
 40
2.0
 40
2.0
 40
3.0
 40
3.0
 40
3.0
 40
4.0
 40
4.0
 40
4.0
 40
5.0
 40
5.0
 40
5.0
 40
6.0
 40
6.0
 40
6.0
 40
7.0
 40
7.0
 40
7.0
 40
8.0
 40
8.0
 40
8.0
 40
9.0
 40
9.0
 40
9.0
 40
10.0
 40
10.0
 40
10.0
 40
11.0
 40
11.0
 40
11.0
 40
12.0
 40
12.0
 40
12.0
 40
13.0
 40
13.0
 40
13.0
 40
13.0
 10
88.1469021046994
 20
-119.8298949895738
 10
87.92899981525734
 20
-119.9885416366695
 10
87.83580998238133
 20
-120.0626111896024
 10
87.7872341360393
 20
-120.2064439261116
 10
87.7872341360393
 20
-120.2064439261116
 10
88.5656534609315
 20
-120.2064439261116
 10
88.5656534609315
 20
-120.2064439261116
 10
88.5656534609315
 20
-120.2064439261116
 10
88.5656534609315
 20
-120.4115993622582
 10
88.5656534609315
 20
-120.4115993622582
 10
88.5656534609315
 20
-120.4115993622582
 10
87.53763696813296
 20
-120.4115993622582
 10
87.53763696813296
 20
-120.4115993622582
 10
87.56933184659725
 20
-120.0539984508893
 10
87.63496091559126
 20
-119.9757947833741
 10
88.01995033606794
 20
-119.6774495143515
 10
88.275920930622
 20
-119.4786675048526
 10
88.34137774484174
 20
-119.4109713785674
 10
88.34137774484174
 20
-119.2735120687059
 10
88.34137774484174
 20
-119.1550007840133
 10
88.26954750397428
 20
-119.0239149007996
 10
88.07283255176652
 20
-119.0239149007996
 10
87.8125555878559
 20
-119.0239149007996
 10
87.80411510391703
 20
-119.2543917887628
 10
87.79980873456047
 20
-119.3708360161642
 10
87.79980873456047
 20
-119.3708360161642
 10
87.57570527324496
 20
-119.3708360161642
 10
87.57570527324496
 20
-119.3708360161642
 10
87.58414575718383
 20
-119.2438842475328
 10
87.59465329841385
 20
-119.1317463894879
 10
87.67509627799443
 20
-119.0132351047953
 10
87.78499482397389
 20
-118.8525214004084
 10
87.97120223495165
 20
-118.8185872098787
 10
88.08764646235309
 20
-118.8185872098787
 10
88.36480439414144
 20
-118.8185872098787
 10
88.57202688757921
 20
-119.0027275635653
 10
88.57202688757921
 20
-119.2755791259971
 10
88.57202688757921
 20
-119.5039889566691
 10
88.45575491495204
 20
-119.6035522161929
 10
88.1469021046994
 20
-119.8298949895738
 97
        0
 97
        0
 75
     2
 76
     1
 98
        0
  0
SPLINE
  5
96
330
90
100
AcDbEntity
  8
_U+30EC_U+30A4_U+30E4_U+30FC 1
370
     0
100
AcDbSpline
210
0.0
220
0.0
230
1.0
 70
    11
 71
     3
 72
    53
 73
    49
 74
     0
 42
0.0000000001
 43
0.0000000001
 12
1.0
 22
0.0
 32
0.0
 13
1.0
 23
0.0
 33
0.0
 40
0.0
 40
0.0
 40
0.0
 40
0.0
 40
1.0
 40
1.0
 40
1.0
 40
2.0
 40
2.0
 40
2.0
 40
3.0
 40
3.0
 40
3.0
 40
4.0
 40
4.0
 40
4.0
 40
5.0
 40
5.0
 40
5.0
 40
6.0
 40
6.0
 40
6.0
 40
7.0
 40
7.0
 40
7.0
 40
8.0
 40
8.0
 40
8.0
 40
9.0
 40
9.0
 40
9.0
 40
10.0
 40
10.0
 40
10.0
 40
11.0
 40
11.0
 40
11.0
 40
12.0
 40
12.0
 40
12.0
 40
13.0
 40
13.0
 40
13.0
 40
14.0
 40
14.0
 40
14.0
 40
15.0
 40
15.0
 40
15.0
 40
16.0
 40
16.0
 40
16.0
 40
16.0
 10
89.21160886441585
 20
-120.4624145206656
 30
0.0
 10
89.13323294212641
 20
-120.4624145206656
 30
0.0
 10
89.0317748800858
 20
-120.4453612980137
 30
0.0
 10
88.93014456327094
 20
-120.3819715410851
 30
0.0
 10
88.75668400558861
 20
-120.2719007403313
 30
0.0
 10
88.73566892312859
 20
-120.1408148571176
 30
0.0
 10
88.71654864318545
 20
-120.0329833684293
 30
0.0
 10
88.71654864318545
 20
-120.0329833684293
 30
0.0
 10
88.9385850472098
 20
-120.0329833684293
 30
0.0
 10
88.9385850472098
 20
-120.0329833684293
 30
0.0
 10
88.9937065749738
 20
-120.2317653779282
 30
0.0
 10
89.12065834360526
 20
-120.2613931991013
 30
0.0
 10
89.21367592170701
 20
-120.2613931991013
 30
0.0
 10
89.35337454363388
 20
-120.2613931991013
 30
0.0
 10
89.50564776408193
 20
-120.1620021943519
 30
0.0
 10
89.50564776408193
 20
-119.9292859943232
 30
0.0
 10
89.50564776408193
 20
-119.6733153997692
 30
0.0
 10
89.32581377975188
 20
-119.6035522161929
 30
0.0
 10
89.20523543776814
 20
-119.6035522161929
 30
0.0
 10
89.17354055930385
 20
-119.6035522161929
 30
0.0
 10
89.0317748800858
 20
-119.6035522161929
 30
0.0
 10
88.94289141656637
 20
-119.7325710421155
 30
0.0
 10
88.94289141656637
 20
-119.7325710421155
 30
0.0
 10
88.76736380159288
 20
-119.7134507621723
 30
0.0
 10
88.76736380159288
 20
-119.7134507621723
 30
0.0
 10
88.76736380159288
 20
-119.7134507621723
 30
0.0
 10
88.88794214357662
 20
-118.867335310995
 30
0.0
 10
88.88794214357662
 20
-118.867335310995
 30
0.0
 10
88.88794214357662
 20
-118.867335310995
 30
0.0
 10
89.66636146846884
 20
-118.867335310995
 30
0.0
 10
89.66636146846884
 20
-118.867335310995
 30
0.0
 10
89.66636146846884
 20
-118.867335310995
 30
0.0
 10
89.66636146846884
 20
-119.0619832059116
 30
0.0
 10
89.66636146846884
 20
-119.0619832059116
 30
0.0
 10
89.66636146846884
 20
-119.0619832059116
 30
0.0
 10
89.05072290525469
 20
-119.0619832059116
 30
0.0
 10
89.05072290525469
 20
-119.0619832059116
 30
0.0
 10
89.05072290525469
 20
-119.0619832059116
 30
0.0
 10
88.98526609103494
 20
-119.4850409315003
 30
0.0
 10
88.98526609103494
 20
-119.4850409315003
 30
0.0
 10
89.04658879067239
 20
-119.4511067409706
 30
0.0
 10
89.12909882754411
 20
-119.4109713785674
 30
0.0
 10
89.24761011223671
 20
-119.4109713785674
 30
0.0
 10
89.50134139472536
 20
-119.4109713785674
 30
0.0
 10
89.73836396411055
 20
-119.5971787895452
 30
0.0
 10
89.73836396411055
 20
-119.9101657143801
 30
0.0
 10
89.73836396411055
 20
-120.2276312633459
 30
0.0
 10
89.51408824802078
 20
-120.4624145206656
 30
0.0
 10
89.21160886441585
 20
-120.4624145206656
 30
0.0
  0
HATCH
  5
97
330
90
100
AcDbEntity
  8
_U+30EC_U+30A4_U+30E4_U+30FC 1
 62
   179
420
  2234388
100
AcDbHatch
 10
0.0
 20
0.0
 30
0.0
210
0.0
220
0.0
230
1.0
  2
SOLID
 70
     1
 71
     0
 91
        1
 92
        1
 93
        1
 72
     4
 94
        3
 73
     0
 74
     1
 95
       53
 96
       49
 40
0.0
 40
0.0
 40
0.0
 40
0.0
 40
1.0
 40
1.0
 40
1.0
 40
2.0
 40
2.0
 40
2.0
 40
3.0
 40
3.0
 40
3.0
 40
4.0
 40
4.0
 40
4.0
 40
5.0
 40
5.0
 40
5.0
 40
6.0
 40
6.0
 40
6.0
 40
7.0
 40
7.0
 40
7.0
 40
8.0
 40
8.0
 40
8.0
 40
9.0
 40
9.0
 40
9.0
 40
10.0
 40
10.0
 40
10.0
 40
11.0
 40
11.0
 40
11.0
 40
12.0
 40
12.0
 40
12.0
 40
13.0
 40
13.0
 40
13.0
 40
14.0
 40
14.0
 40
14.0
 40
15.0
 40
15.0
 40
15.0
 40
16.0
 40
16.0
 40
16.0
 40
16.0
 10
89.21160886441585
 20
-120.4624145206656
 10
89.13323294212641
 20
-120.4624145206656
 10
89.0317748800858
 20
-120.4453612980137
 10
88.93014456327094
 20
-120.3819715410851
 10
88.75668400558861
 20
-120.2719007403313
 10
88.73566892312859
 20
-120.1408148571176
 10
88.71654864318545
 20
-120.0329833684293
 10
88.71654864318545
 20
-120.0329833684293
 10
88.9385850472098
 20
-120.0329833684293
 10
88.9385850472098
 20
-120.0329833684293
 10
88.9937065749738
 20
-120.2317653779282
 10
89.12065834360526
 20
-120.2613931991013
 10
89.21367592170701
 20
-120.2613931991013
 10
89.35337454363388
 20
-120.2613931991013
 10
89.50564776408193
 20
-120.1620021943519
 10
89.50564776408193
 20
-119.9292859943232
 10
89.50564776408193
 20
-119.6733153997692
 10
89.32581377975188
 20
-119.6035522161929
 10
89.20523543776814
 20
-119.6035522161929
 10
89.17354055930385
 20
-119.6035522161929
 10
89.0317748800858
 20
-119.6035522161929
 10
88.94289141656637
 20
-119.7325710421155
 10
88.94289141656637
 20
-119.7325710421155
 10
88.76736380159288
 20
-119.7134507621723
 10
88.76736380159288
 20
-119.7134507621723
 10
88.76736380159288
 20
-119.7134507621723
 10
88.88794214357662
 20
-118.867335310995
 10
88.88794214357662
 20
-118.867335310995
 10
88.88794214357662
 20
-118.867335310995
 10
89.66636146846884
 20
-118.867335310995
 10
89.66636146846884
 20
-118.867335310995
 10
89.66636146846884
 20
-118.867335310995
 10
89.66636146846884
 20
-119.0619832059116
 10
89.66636146846884
 20
-119.0619832059116
 10
89.66636146846884
 20
-119.0619832059116
 10
89.05072290525469
 20
-119.0619832059116
 10
89.05072290525469
 20
-119.0619832059116
 10
89.05072290525469
 20
-119.0619832059116
 10
88.98526609103494
 20
-119.4850409315003
 10
88.98526609103494
 20
-119.4850409315003
 10
89.04658879067239
 20
-119.4511067409706
 10
89.12909882754411
 20
-119.4109713785674
 10
89.24761011223671
 20
-119.4109713785674
 10
89.50134139472536
 20
-119.4109713785674
 10
89.73836396411055
 20
-119.5971787895452
 10
89.73836396411055
 20
-119.9101657143801
 10
89.73836396411055
 20
-120.2276312633459
 10
89.51408824802078
 20
-120.4624145206656
 10
89.21160886441585
 20
-120.4624145206656
 97
        0
 97
        0
 75
     2
 76
     1
 98
        0
  0
ENDBLK
  5
93
330
90
100
AcDbEntity
  8
0
100
AcDbBlockEnd
  0
BLOCK
  5
9A
330
98
100
AcDbEntity
  8
0
100
AcDbBlockBegin
  2
block 6
 70
     0
 10
0.0
 20
0.0
 30
0.0
  3
block 6
  1

  0
SPLINE
  5
9C
330
98
100
AcDbEntity
  8
_U+30EC_U+30A4_U+30E4_U+30FC 1
370
     0
100
AcDbSpline
210
0.0
220
0.0
230
1.0
 70
    11
 71
     3
 72
    62
 73
    58
 74
     0
 42
0.0000000001
 43
0.0000000001
 12
1.0
 22
0.0
 32
0.0
 13
1.0
 23
0.0
 33
0.0
 40
0.0
 40
0.0
 40
0.0
 40
0.0
 40
1.0
 40
1.0
 40
1.0
 40
2.0
 40
2.0
 40
2.0
 40
3.0
 40
3.0
 40
3.0
 40
4.0
 40
4.0
 40
4.0
 40
5.0
 40
5.0
 40
5.0
 40
6.0
 40
6.0
 40
6.0
 40
7.0
 40
7.0
 40
7.0
 40
8.0
 40
8.0
 40
8.0
 40
9.0
 40
9.0
 40
9.0
 40
10.0
 40
10.0
 40
10.0
 40
11.0
 40
11.0
 40
11.0
 40
12.0
 40
12.0
 40
12.0
 40
13.0
 40
13.0
 40
13.0
 40
14.0
 40
14.0
 40
14.0
 40
15.0
 40
15.0
 40
15.0
 40
16.0
 40
16.0
 40
16.0
 40
17.0
 40
17.0
 40
17.0
 40
18.0
 40
18.0
 40
18.0
 40
19.0
 40
19.0
 40
19.0
 40
19.0
 10
94.18994409537613
 20
-121.8001450975882
 30
0.0
 10
94.09451495043471
 20
-121.8001450975882
 30
0.0
 10
93.87678491576692
 20
-121.7789577603539
 30
0.0
 10
93.75172794965235
 20
-121.5927503493761
 30
0.0
 10
93.67765839671948
 20
-121.4806124913312
 30
0.0
 10
93.67352428213718
 20
-121.3812214865818
 30
0.0
 10
93.66939016755488
 20
-121.2966443924189
 30
0.0
 10
93.66939016755488
 20
-121.2966443924189
 30
0.0
 10
93.88953176906234
 20
-121.2966443924189
 30
0.0
 10
93.88953176906234
 20
-121.2966443924189
 30
0.0
 10
93.89159882635349
 20
-121.3707139453518
 30
0.0
 10
93.90193411280924
 20
-121.6054972026715
 30
0.0
 10
94.18546547124531
 20
-121.6054972026715
 30
0.0
 10
94.32292478110678
 20
-121.6054972026715
 30
0.0
 10
94.47554251110334
 20
-121.5357340190952
 30
0.0
 10
94.47554251110334
 20
-121.3071519336489
 30
0.0
 10
94.47554251110334
 20
-121.1908799610217
 30
0.0
 10
94.43730195121707
 20
-121.1421318599054
 30
0.0
 10
94.40560707275277
 20
-121.1104369814411
 30
0.0
 10
94.3315375198199
 20
-121.0363674285083
 30
0.0
 10
94.21509329241846
 20
-121.0237928299871
 30
0.0
 10
94.16031627420298
 20
-121.0237928299871
 30
0.0
 10
94.14102373948558
 20
-121.0237928299871
 30
0.0
 10
94.10519474643898
 20
-121.0258598872783
 30
0.0
 10
94.07763398255699
 20
-121.0299940018606
 30
0.0
 10
94.07763398255699
 20
-121.0299940018606
 30
0.0
 10
94.07763398255699
 20
-120.8353461069439
 30
0.0
 10
94.07763398255699
 20
-120.8353461069439
 30
0.0
 10
94.11587454244325
 20
-120.8417195335917
 30
0.0
 10
94.1579047073633
 20
-120.8439588456571
 30
0.0
 10
94.16445038878528
 20
-120.8439588456571
 30
0.0
 10
94.22990720300503
 20
-120.8439588456571
 30
0.0
 10
94.42868921250394
 20
-120.8227715084228
 30
0.0
 10
94.42868921250394
 20
-120.5857489390376
 30
0.0
 10
94.42868921250394
 20
-120.408154266773
 30
0.0
 10
94.29777558406445
 20
-120.353032739009
 30
0.0
 10
94.18753252853645
 20
-120.353032739009
 30
0.0
 10
93.9232937048178
 20
-120.353032739009
 30
0.0
 10
93.91468096610467
 20
-120.5857489390376
 30
0.0
 10
93.91054685152237
 20
-120.6577514346793
 30
0.0
 10
93.91054685152237
 20
-120.6577514346793
 30
0.0
 10
93.70728621789263
 20
-120.6577514346793
 30
0.0
 10
93.70728621789263
 20
-120.6577514346793
 30
0.0
 10
93.71589895660576
 20
-120.532866723339
 30
0.0
 10
93.74345972048775
 20
-120.1563177868012
 30
0.0
 10
94.20027938183188
 20
-120.1563177868012
 30
0.0
 10
94.42455509792164
 20
-120.1563177868012
 30
0.0
 10
94.66571178188913
 20
-120.2832695554327
 30
0.0
 10
94.66571178188913
 20
-120.5793755123899
 30
0.0
 10
94.66571178188913
 20
-120.7655829233676
 30
0.0
 10
94.57062714649624
 20
-120.8480929602394
 30
0.0
 10
94.47106388697252
 20
-120.9094156598768
 30
0.0
 10
94.53238658660996
 20
-120.9369764237588
 30
0.0
 10
94.71428762823115
 20
-121.0174194033394
 30
0.0
 10
94.71428762823115
 20
-121.2945773351278
 30
0.0
 10
94.71428762823115
 20
-121.6330579665536
 30
0.0
 10
94.46692977239022
 20
-121.8001450975882
 30
0.0
 10
94.18994409537613
 20
-121.8001450975882
 30
0.0
  0
HATCH
  5
9D
330
98
100
AcDbEntity
  8
_U+30EC_U+30A4_U+30E4_U+30FC 1
 62
   179
420
  2234388
100
AcDbHatch
 10
0.0
 20
0.0
 30
0.0
210
0.0
220
0.0
230
1.0
  2
SOLID
 70
     1
 71
     0
 91
        1
 92
        1
 93
        1
 72
     4
 94
        3
 73
     0
 74
     1
 95
       62
 96
       58
 40
0.0
 40
0.0
 40
0.0
 40
0.0
 40
1.0
 40
1.0
 40
1.0
 40
2.0
 40
2.0
 40
2.0
 40
3.0
 40
3.0
 40
3.0
 40
4.0
 40
4.0
 40
4.0
 40
5.0
 40
5.0
 40
5.0
 40
6.0
 40
6.0
 40
6.0
 40
7.0
 40
7.0
 40
7.0
 40
8.0
 40
8.0
 40
8.0
 40
9.0
 40
9.0
 40
9.0
 40
10.0
 40
10.0
 40
10.0
 40
11.0
 40
11.0
 40
11.0
 40
12.0
 40
12.0
 40
12.0
 40
13.0
 40
13.0
 40
13.0
 40
14.0
 40
14.0
 40
14.0
 40
15.0
 40
15.0
 40
15.0
 40
16.0
 40
16.0
 40
16.0
 40
17.0
 40
17.0
 40
17.0
 40
18.0
 40
18.0
 40
18.0
 40
19.0
 40
19.0
 40
19.0
 40
19.0
 10
94.18994409537613
 20
-121.8001450975882
 10
94.09451495043471
 20
-121.8001450975882
 10
93.87678491576692
 20
-121.7789577603539
 10
93.75172794965235
 20
-121.5927503493761
 10
93.67765839671948
 20
-121.4806124913312
 10
93.67352428213718
 20
-121.3812214865818
 10
93.66939016755488
 20
-121.2966443924189
 10
93.66939016755488
 20
-121.2966443924189
 10
93.88953176906234
 20
-121.2966443924189
 10
93.88953176906234
 20
-121.2966443924189
 10
93.89159882635349
 20
-121.3707139453518
 10
93.90193411280924
 20
-121.6054972026715
 10
94.18546547124531
 20
-121.6054972026715
 10
94.32292478110678
 20
-121.6054972026715
 10
94.47554251110334
 20
-121.5357340190952
 10
94.47554251110334
 20
-121.3071519336489
 10
94.47554251110334
 20
-121.1908799610217
 10
94.43730195121707
 20
-121.1421318599054
 10
94.40560707275277
 20
-121.1104369814411
 10
94.3315375198199
 20
-121.0363674285083
 10
94.21509329241846
 20
-121.0237928299871
 10
94.16031627420298
 20
-121.0237928299871
 10
94.14102373948558
 20
-121.0237928299871
 10
94.10519474643898
 20
-121.0258598872783
 10
94.07763398255699
 20
-121.0299940018606
 10
94.07763398255699
 20
-121.0299940018606
 10
94.07763398255699
 20
-120.8353461069439
 10
94.07763398255699
 20
-120.8353461069439
 10
94.11587454244325
 20
-120.8417195335917
 10
94.1579047073633
 20
-120.8439588456571
 10
94.16445038878528
 20
-120.8439588456571
 10
94.22990720300503
 20
-120.8439588456571
 10
94.42868921250394
 20
-120.8227715084228
 10
94.42868921250394
 20
-120.5857489390376
 10
94.42868921250394
 20
-120.408154266773
 10
94.29777558406445
 20
-120.353032739009
 10
94.18753252853645
 20
-120.353032739009
 10
93.9232937048178
 20
-120.353032739009
 10
93.91468096610467
 20
-120.5857489390376
 10
93.91054685152237
 20
-120.6577514346793
 10
93.91054685152237
 20
-120.6577514346793
 10
93.70728621789263
 20
-120.6577514346793
 10
93.70728621789263
 20
-120.6577514346793
 10
93.71589895660576
 20
-120.532866723339
 10
93.74345972048775
 20
-120.1563177868012
 10
94.20027938183188
 20
-120.1563177868012
 10
94.42455509792164
 20
-120.1563177868012
 10
94.66571178188913
 20
-120.2832695554327
 10
94.66571178188913
 20
-120.5793755123899
 10
94.66571178188913
 20
-120.7655829233676
 10
94.57062714649624
 20
-120.8480929602394
 10
94.47106388697252
 20
-120.9094156598768
 10
94.53238658660996
 20
-120.9369764237588
 10
94.71428762823115
 20
-121.0174194033394
 10
94.71428762823115
 20
-121.2945773351278
 10
94.71428762823115
 20
-121.6330579665536
 10
94.46692977239022
 20
-121.8001450975882
 10
94.18994409537613
 20
-121.8001450975882
 97
        0
 97
        0
 75
     2
 76
     1
 98
        0
  0
SPLINE
  5
9E
330
98
100
AcDbEntity
  8
_U+30EC_U+30A4_U+30E4_U+30FC 1
370
     0
100
AcDbSpline
210
0.0
220
0.0
230
1.0
 70
    11
 71
     3
 72
    44
 73
    40
 74
     0
 42
0.0000000001
 43
0.0000000001
 12
1.0
 22
0.0
 32
0.0
 13
1.0
 23
0.0
 33
0.0
 40
0.0
 40
0.0
 40
0.0
 40
0.0
 40
1.0
 40
1.0
 40
1.0
 40
2.0
 40
2.0
 40
2.0
 40
3.0
 40
3.0
 40
3.0
 40
4.0
 40
4.0
 40
4.0
 40
5.0
 40
5.0
 40
5.0
 40
6.0
 40
6.0
 40
6.0
 40
7.0
 40
7.0
 40
7.0
 40
8.0
 40
8.0
 40
8.0
 40
9.0
 40
9.0
 40
9.0
 40
10.0
 40
10.0
 40
10.0
 40
11.0
 40
11.0
 40
11.0
 40
12.0
 40
12.0
 40
12.0
 40
13.0
 40
13.0
 40
13.0
 40
13.0
 10
95.46807452040382
 20
-121.1676255664963
 30
0.0
 10
95.25034448573604
 20
-121.326272213592
 30
0.0
 10
95.15732690763429
 20
-121.4003417665249
 30
0.0
 10
95.10840655174374
 20
-121.5441745030341
 30
0.0
 10
95.10840655174374
 20
-121.5441745030341
 30
0.0
 10
95.8869981314102
 20
-121.5441745030341
 30
0.0
 10
95.8869981314102
 20
-121.5441745030341
 30
0.0
 10
95.8869981314102
 20
-121.5441745030341
 30
0.0
 10
95.8869981314102
 20
-121.7493299391807
 30
0.0
 10
95.8869981314102
 20
-121.7493299391807
 30
0.0
 10
95.8869981314102
 20
-121.7493299391807
 30
0.0
 10
94.85898163861165
 20
-121.7493299391807
 30
0.0
 10
94.85898163861165
 20
-121.7493299391807
 30
0.0
 10
94.89067651707595
 20
-121.3917290278118
 30
0.0
 10
94.95613333129569
 20
-121.3135253602966
 30
0.0
 10
95.34129500654663
 20
-121.015180091274
 30
0.0
 10
95.59726560110069
 20
-120.8163980817751
 30
0.0
 10
95.66272241532043
 20
-120.7487019554899
 30
0.0
 10
95.66272241532043
 20
-120.6112426456285
 30
0.0
 10
95.66272241532043
 20
-120.4927313609358
 30
0.0
 10
95.59106442922725
 20
-120.3616454777221
 30
0.0
 10
95.39400496747095
 20
-120.3616454777221
 30
0.0
 10
95.13390025833459
 20
-120.3616454777221
 30
0.0
 10
95.12563202916999
 20
-120.5921223656853
 30
0.0
 10
95.12115340503917
 20
-120.7085665930868
 30
0.0
 10
95.12115340503917
 20
-120.7085665930868
 30
0.0
 10
94.8968776889494
 20
-120.7085665930868
 30
0.0
 10
94.8968776889494
 20
-120.7085665930868
 30
0.0
 10
94.90549042766251
 20
-120.5816148244553
 30
0.0
 10
94.9161702236668
 20
-120.4694769664104
 30
0.0
 10
94.99644094847312
 20
-120.3509656817178
 30
0.0
 10
95.10633949445258
 20
-120.1902519773309
 30
0.0
 10
95.2927191602046
 20
-120.1563177868012
 30
0.0
 10
95.40881887805752
 20
-120.1563177868012
 30
0.0
 10
95.68614906462014
 20
-120.1563177868012
 30
0.0
 10
95.89354381283218
 20
-120.3404581404878
 30
0.0
 10
95.89354381283218
 20
-120.6133097029196
 30
0.0
 10
95.89354381283218
 20
-120.8417195335917
 30
0.0
 10
95.77709958543073
 20
-120.9412827931154
 30
0.0
 10
95.46807452040382
 20
-121.1676255664963
 30
0.0
  0
HATCH
  5
9F
330
98
100
AcDbEntity
  8
_U+30EC_U+30A4_U+30E4_U+30FC 1
 62
   179
420
  2234388
100
AcDbHatch
 10
0.0
 20
0.0
 30
0.0
210
0.0
220
0.0
230
1.0
  2
SOLID
 70
     1
 71
     0
 91
        1
 92
        1
 93
        1
 72
     4
 94
        3
 73
     0
 74
     1
 95
       44
 96
       40
 40
0.0
 40
0.0
 40
0.0
 40
0.0
 40
1.0
 40
1.0
 40
1.0
 40
2.0
 40
2.0
 40
2.0
 40
3.0
 40
3.0
 40
3.0
 40
4.0
 40
4.0
 40
4.0
 40
5.0
 40
5.0
 40
5.0
 40
6.0
 40
6.0
 40
6.0
 40
7.0
 40
7.0
 40
7.0
 40
8.0
 40
8.0
 40
8.0
 40
9.0
 40
9.0
 40
9.0
 40
10.0
 40
10.0
 40
10.0
 40
11.0
 40
11.0
 40
11.0
 40
12.0
 40
12.0
 40
12.0
 40
13.0
 40
13.0
 40
13.0
 40
13.0
 10
95.46807452040382
 20
-121.1676255664963
 10
95.25034448573604
 20
-121.326272213592
 10
95.15732690763429
 20
-121.4003417665249
 10
95.10840655174374
 20
-121.5441745030341
 10
95.10840655174374
 20
-121.5441745030341
 10
95.8869981314102
 20
-121.5441745030341
 10
95.8869981314102
 20
-121.5441745030341
 10
95.8869981314102
 20
-121.5441745030341
 10
95.8869981314102
 20
-121.7493299391807
 10
95.8869981314102
 20
-121.7493299391807
 10
95.8869981314102
 20
-121.7493299391807
 10
94.85898163861165
 20
-121.7493299391807
 10
94.85898163861165
 20
-121.7493299391807
 10
94.89067651707595
 20
-121.3917290278118
 10
94.95613333129569
 20
-121.3135253602966
 10
95.34129500654663
 20
-121.015180091274
 10
95.59726560110069
 20
-120.8163980817751
 10
95.66272241532043
 20
-120.7487019554899
 10
95.66272241532043
 20
-120.6112426456285
 10
95.66272241532043
 20
-120.4927313609358
 10
95.59106442922725
 20
-120.3616454777221
 10
95.39400496747095
 20
-120.3616454777221
 10
95.13390025833459
 20
-120.3616454777221
 10
95.12563202916999
 20
-120.5921223656853
 10
95.12115340503917
 20
-120.7085665930868
 10
95.12115340503917
 20
-120.7085665930868
 10
94.8968776889494
 20
-120.7085665930868
 10
94.8968776889494
 20
-120.7085665930868
 10
94.90549042766251
 20
-120.5816148244553
 10
94.9161702236668
 20
-120.4694769664104
 10
94.99644094847312
 20
-120.3509656817178
 10
95.10633949445258
 20
-120.1902519773309
 10
95.2927191602046
 20
-120.1563177868012
 10
95.40881887805752
 20
-120.1563177868012
 10
95.68614906462014
 20
-120.1563177868012
 10
95.89354381283218
 20
-120.3404581404878
 10
95.89354381283218
 20
-120.6133097029196
 10
95.89354381283218
 20
-120.8417195335917
 10
95.77709958543073
 20
-120.9412827931154
 10
95.46807452040382
 20
-121.1676255664963
 97
        0
 97
        0
 75
     2
 76
     1
 98
        0
  0
ENDBLK
  5
9B
330
98
100
AcDbEntity
  8
0
100
AcDbBlockEnd
  0
BLOCK
  5
A2
330
A0
100
AcDbEntity
  8
0
100
AcDbBlockBegin
  2
block 7
 70
     0
 10
0.0
 20
0.0
 30
0.0
  3
block 7
  1

  0
POLYLINE
  5
A4
330
A0
100
AcDbEntity
  8
_U+30EC_U+30A4_U+30E4_U+30FC 1
370
     0
100
AcDb2dPolyline
 66
     1
 10
0.0
 20
0.0
 30
0.0
  0
VERTEX
  5
A5
330
A4
100
AcDbEntity
  8
_U+30EC_U+30A4_U+30E4_U+30FC 1
370
     0
100
AcDbVertex
100
AcDb2dVertex
 10
100.1306667501409
 20
-132.4267143766155
 30
0.0
  0
VERTEX
  5
A6
330
A4
100
AcDbEntity
  8
_U+30EC_U+30A4_U+30E4_U+30FC 1
370
     0
100
AcDbVertex
100
AcDb2dVertex
 10
100.1306667501409
 20
-132.7736354919802
 30
0.0
  0
VERTEX
  5
A7
330
A4
100
AcDbEntity
  8
_U+30EC_U+30A4_U+30E4_U+30FC 1
370
     0
100
AcDbVertex
100
AcDb2dVertex
 10
99.91293671547317
 20
-132.7736354919802
 30
0.0
  0
VERTEX
  5
A8
330
A4
100
AcDbEntity
  8
_U+30EC_U+30A4_U+30E4_U+30FC 1
370
     0
100
AcDbVertex
100
AcDb2dVertex
 10
99.91293671547317
 20
-132.4267143766155
 30
0.0
  0
VERTEX
  5
A9
330
A4
100
AcDbEntity
  8
_U+30EC_U+30A4_U+30E4_U+30FC 1
370
     0
100
AcDbVertex
100
AcDb2dVertex
 10
99.25699053508158
 20
-132.4267143766155
 30
0.0
  0
VERTEX
  5
AA
330
A4
100
AcDbEntity
  8
_U+30EC_U+30A4_U+30E4_U+30FC 1
370
     0
100
AcDbVertex
100
AcDb2dVertex
 10
99.25699053508158
 20
-132.2024386605258
 30
0.0
  0
VERTEX
  5
AB
330
A4
100
AcDbEntity
  8
_U+30EC_U+30A4_U+30E4_U+30FC 1
370
     0
100
AcDbVertex
100
AcDb2dVertex
 10
99.93601885522433
 20
-131.2291991859427
 30
0.0
  0
VERTEX
  5
AC
330
A4
100
AcDbEntity
  8
_U+30EC_U+30A4_U+30E4_U+30FC 1
370
     0
100
AcDbVertex
100
AcDb2dVertex
 10
100.1306667501409
 20
-131.2291991859427
 30
0.0
  0
VERTEX
  5
AD
330
A4
100
AcDbEntity
  8
_U+30EC_U+30A4_U+30E4_U+30FC 1
370
     0
100
AcDbVertex
100
AcDb2dVertex
 10
100.1306667501409
 20
-132.2279323671166
 30
0.0
  0
VERTEX
  5
AE
330
A4
100
AcDbEntity
  8
_U+30EC_U+30A4_U+30E4_U+30FC 1
370
     0
100
AcDbVertex
100
AcDb2dVertex
 10
100.338061498353
 20
-132.2279323671166
 30
0.0
  0
VERTEX
  5
AF
330
A4
100
AcDbEntity
  8
_U+30EC_U+30A4_U+30E4_U+30FC 1
370
     0
100
AcDbVertex
100
AcDb2dVertex
 10
100.338061498353
 20
-132.4267143766155
 30
0.0
  0
VERTEX
  5
B0
330
A4
100
AcDbEntity
  8
_U+30EC_U+30A4_U+30E4_U+30FC 1
370
     0
100
AcDbVertex
100
AcDb2dVertex
 10
100.1306667501409
 20
-132.4267143766155
 30
0.0
  0
SEQEND
  5
B1
330
A4
100
AcDbEntity
  8
_U+30EC_U+30A4_U+30E4_U+30FC 1
370
     0
  0
POLYLINE
  5
B2
330
A0
100
AcDbEntity
  8
_U+30EC_U+30A4_U+30E4_U+30FC 1
370
     0
100
AcDb2dPolyline
 66
     1
 10
0.0
 20
0.0
 30
0.0
  0
VERTEX
  5
B3
330
B2
100
AcDbEntity
  8
_U+30EC_U+30A4_U+30E4_U+30FC 1
370
     0
100
AcDbVertex
100
AcDb2dVertex
 10
99.91293671547317
 20
-131.5719861867251
 30
0.0
  0
VERTEX
  5
B4
330
B2
100
AcDbEntity
  8
_U+30EC_U+30A4_U+30E4_U+30FC 1
370
     0
100
AcDbVertex
100
AcDb2dVertex
 10
99.45577254458051
 20
-132.2279323671166
 30
0.0
  0
VERTEX
  5
B5
330
B2
100
AcDbEntity
  8
_U+30EC_U+30A4_U+30E4_U+30FC 1
370
     0
100
AcDbVertex
100
AcDb2dVertex
 10
99.91293671547317
 20
-132.2279323671166
 30
0.0
  0
VERTEX
  5
B6
330
B2
100
AcDbEntity
  8
_U+30EC_U+30A4_U+30E4_U+30FC 1
370
     0
100
AcDbVertex
100
AcDb2dVertex
 10
99.91293671547317
 20
-131.5719861867251
 30
0.0
  0
SEQEND
  5
B7
330
B2
100
AcDbEntity
  8
_U+30EC_U+30A4_U+30E4_U+30FC 1
370
     0
  0
HATCH
  5
B8
330
A0
100
AcDbEntity
  8
_U+30EC_U+30A4_U+30E4_U+30FC 1
 62
   179
420
  2234388
100
AcDbHatch
 10
0.0
 20
0.0
 30
0.0
210
0.0
220
0.0
230
1.0
  2
SOLID
 70
     1
 71
     0
 91
        2
 92
        1
 93
       11
 72
     1
 10
100.1306667501409
 20
-132.4267143766155
 11
100.1306667501409
 21
-132.7736354919802
 72
     1
 10
100.1306667501409
 20
-132.7736354919802
 11
99.91293671547317
 21
-132.7736354919802
 72
     1
 10
99.91293671547317
 20
-132.7736354919802
 11
99.91293671547317
 21
-132.4267143766155
 72
     1
 10
99.91293671547317
 20
-132.4267143766155
 11
99.25699053508158
 21
-132.4267143766155
 72
     1
 10
99.25699053508158
 20
-132.4267143766155
 11
99.25699053508158
 21
-132.2024386605258
 72
     1
 10
99.25699053508158
 20
-132.2024386605258
 11
99.93601885522433
 21
-131.2291991859427
 72
     1
 10
99.93601885522433
 20
-131.2291991859427
 11
100.1306667501409
 21
-131.2291991859427
 72
     1
 10
100.1306667501409
 20
-131.2291991859427
 11
100.1306667501409
 21
-132.2279323671166
 72
     1
 10
100.1306667501409
 20
-132.2279323671166
 11
100.338061498353
 21
-132.2279323671166
 72
     1
 10
100.338061498353
 20
-132.2279323671166
 11
100.338061498353
 21
-132.4267143766155
 72
     1
 10
100.338061498353
 20
-132.4267143766155
 11
100.1306667501409
 21
-132.4267143766155
 97
        0
 92
        1
 93
        3
 72
     1
 10
99.91293671547317
 20
-131.5719861867251
 11
99.45577254458051
 21
-132.2279323671166
 72
     1
 10
99.45577254458051
 20
-132.2279323671166
 11
99.91293671547317
 21
-132.2279323671166
 72
     1
 10
99.91293671547317
 20
-132.2279323671166
 11
99.91293671547317
 21
-131.5719861867251
 97
        0
 75
     2
 76
     1
 98
        0
  0
SPLINE
  5
B9
330
A0
100
AcDbEntity
  8
_U+30EC_U+30A4_U+30E4_U+30FC 1
370
     0
100
AcDbSpline
210
0.0
220
0.0
230
1.0
 70
    11
 71
     3
 72
    29
 73
    25
 74
     0
 42
0.0000000001
 43
0.0000000001
 12
1.0
 22
0.0
 32
0.0
 13
1.0
 23
0.0
 33
0.0
 40
0.0
 40
0.0
 40
0.0
 40
0.0
 40
1.0
 40
1.0
 40
1.0
 40
2.0
 40
2.0
 40
2.0
 40
3.0
 40
3.0
 40
3.0
 40
4.0
 40
4.0
 40
4.0
 40
5.0
 40
5.0
 40
5.0
 40
6.0
 40
6.0
 40
6.0
 40
7.0
 40
7.0
 40
7.0
 40
8.0
 40
8.0
 40
8.0
 40
8.0
 10
101.3733126916706
 20
-132.5958685649413
 30
0.0
 10
101.2651366934337
 20
-132.8053303704445
 30
0.0
 10
101.0918483905257
 20
-132.8242783956134
 30
0.0
 10
100.9754041631242
 20
-132.8242783956134
 30
0.0
 10
100.814518203963
 20
-132.8242783956134
 30
0.0
 10
100.6729247795193
 20
-132.7777696065625
 30
0.0
 10
100.5778401441264
 20
-132.5958685649413
 30
0.0
 10
100.4741427700204
 20
-132.4012206700247
 30
0.0
 10
100.4551947448515
 20
-132.1641981006395
 30
0.0
 10
100.4551947448515
 20
-132.0015895937357
 30
0.0
 10
100.4551947448515
 20
-131.8575846024523
 30
0.0
 10
100.4720757127292
 20
-131.6057481224805
 30
0.0
 10
100.5778401441264
 20
-131.4069661129816
 30
0.0
 10
100.6856716328147
 20
-131.2040499889004
 30
0.0
 10
100.8465575919759
 20
-131.1806233396007
 30
0.0
 10
100.9754041631242
 20
-131.1806233396007
 30
0.0
 10
101.1342230649942
 20
-131.1806233396007
 30
0.0
 10
101.2778835467291
 20
-131.2250650713604
 30
0.0
 10
101.3733126916706
 20
-131.4069661129816
 30
0.0
 10
101.4725314416458
 20
-131.5995469506071
 30
0.0
 10
101.4959580909455
 20
-131.8279567812791
 30
0.0
 10
101.4959580909455
 20
-132.0015895937357
 30
0.0
 10
101.4959580909455
 20
-132.1728108393526
 30
0.0
 10
101.4745984989369
 20
-132.4032877273158
 30
0.0
 10
101.3733126916706
 20
-132.5958685649413
 30
0.0
  0
SPLINE
  5
BA
330
A0
100
AcDbEntity
  8
_U+30EC_U+30A4_U+30E4_U+30FC 1
370
     0
100
AcDbSpline
210
0.0
220
0.0
230
1.0
 70
    11
 71
     3
 72
    17
 73
    13
 74
     0
 42
0.0000000001
 43
0.0000000001
 12
1.0
 22
0.0
 32
0.0
 13
1.0
 23
0.0
 33
0.0
 40
0.0
 40
0.0
 40
0.0
 40
0.0
 40
1.0
 40
1.0
 40
1.0
 40
2.0
 40
2.0
 40
2.0
 40
3.0
 40
3.0
 40
3.0
 40
4.0
 40
4.0
 40
4.0
 40
4.0
 10
100.9754041631242
 20
-131.3732041772261
 30
0.0
 10
100.7259792499921
 20
-131.3732041772261
 30
0.0
 10
100.6791259513927
 20
-131.6567355356622
 30
0.0
 10
100.6791259513927
 20
-132.0015895937357
 30
0.0
 10
100.6791259513927
 20
-132.3209499452184
 30
0.0
 10
100.7152994539879
 20
-132.6296305006968
 30
0.0
 10
100.9754041631242
 20
-132.6296305006968
 30
0.0
 10
101.2231065285137
 20
-132.6296305006968
 30
0.0
 10
101.2716823748557
 20
-132.3485107091004
 30
0.0
 10
101.2716823748557
 20
-132.0015895937357
 30
0.0
 10
101.2716823748557
 20
-131.6818847327045
 30
0.0
 10
101.2334418149694
 20
-131.3732041772261
 30
0.0
 10
100.9754041631242
 20
-131.3732041772261
 30
0.0
  0
HATCH
  5
BB
330
A0
100
AcDbEntity
  8
_U+30EC_U+30A4_U+30E4_U+30FC 1
 62
   179
420
  2234388
100
AcDbHatch
 10
0.0
 20
0.0
 30
0.0
210
0.0
220
0.0
230
1.0
  2
SOLID
 70
     1
 71
     0
 91
        2
 92
        1
 93
        1
 72
     4
 94
        3
 73
     0
 74
     1
 95
       29
 96
       25
 40
0.0
 40
0.0
 40
0.0
 40
0.0
 40
1.0
 40
1.0
 40
1.0
 40
2.0
 40
2.0
 40
2.0
 40
3.0
 40
3.0
 40
3.0
 40
4.0
 40
4.0
 40
4.0
 40
5.0
 40
5.0
 40
5.0
 40
6.0
 40
6.0
 40
6.0
 40
7.0
 40
7.0
 40
7.0
 40
8.0
 40
8.0
 40
8.0
 40
8.0
 10
101.3733126916706
 20
-132.5958685649413
 10
101.2651366934337
 20
-132.8053303704445
 10
101.0918483905257
 20
-132.8242783956134
 10
100.9754041631242
 20
-132.8242783956134
 10
100.814518203963
 20
-132.8242783956134
 10
100.6729247795193
 20
-132.7777696065625
 10
100.5778401441264
 20
-132.5958685649413
 10
100.4741427700204
 20
-132.4012206700247
 10
100.4551947448515
 20
-132.1641981006395
 10
100.4551947448515
 20
-132.0015895937357
 10
100.4551947448515
 20
-131.8575846024523
 10
100.4720757127292
 20
-131.6057481224805
 10
100.5778401441264
 20
-131.4069661129816
 10
100.6856716328147
 20
-131.2040499889004
 10
100.8465575919759
 20
-131.1806233396007
 10
100.9754041631242
 20
-131.1806233396007
 10
101.1342230649942
 20
-131.1806233396007
 10
101.2778835467291
 20
-131.2250650713604
 10
101.3733126916706
 20
-131.4069661129816
 10
101.4725314416458
 20
-131.5995469506071
 10
101.4959580909455
 20
-131.8279567812791
 10
101.4959580909455
 20
-132.0015895937357
 10
101.4959580909455
 20
-132.1728108393526
 10
101.4745984989369
 20
-132.4032877273158
 10
101.3733126916706
 20
-132.5958685649413
 97
        0
 97
        0
 92
        1
 93
        1
 72
     4
 94
        3
 73
     0
 74
     1
 95
       17
 96
       13
 40
0.0
 40
0.0
 40
0.0
 40
0.0
 40
1.0
 40
1.0
 40
1.0
 40
2.0
 40
2.0
 40
2.0
 40
3.0
 40
3.0
 40
3.0
 40
4.0
 40
4.0
 40
4.0
 40
4.0
 10
100.9754041631242
 20
-131.3732041772261
 10
100.7259792499921
 20
-131.3732041772261
 10
100.6791259513927
 20
-131.6567355356622
 10
100.6791259513927
 20
-132.0015895937357
 10
100.6791259513927
 20
-132.3209499452184
 10
100.7152994539879
 20
-132.6296305006968
 10
100.9754041631242
 20
-132.6296305006968
 10
101.2231065285137
 20
-132.6296305006968
 10
101.2716823748557
 20
-132.3485107091004
 10
101.2716823748557
 20
-132.0015895937357
 10
101.2716823748557
 20
-131.6818847327045
 10
101.2334418149694
 20
-131.3732041772261
 10
100.9754041631242
 20
-131.3732041772261
 97
        0
 97
        0
 75
     2
 76
     1
 98
        0
  0
ENDBLK
  5
A3
330
A0
100
AcDbEntity
  8
0
100
AcDbBlockEnd
  0
BLOCK
  5
BE
330
BC
100
AcDbEntity
  8
0
100
AcDbBlockBegin
  2
block 8
 70
     0
 10
0.0
 20
0.0
 30
0.0
  3
block 8
  1

  0
SPLINE
  5
C0
330
BC
100
AcDbEntity
  8
_U+30EC_U+30A4_U+30E4_U+30FC 1
370
     0
100
AcDbSpline
210
0.0
220
0.0
230
1.0
 70
    11
 71
     3
 72
    35
 73
    31
 74
     0
 42
0.0000000001
 43
0.0000000001
 12
1.0
 22
0.0
 32
0.0
 13
1.0
 23
0.0
 33
0.0
 40
0.0
 40
0.0
 40
0.0
 40
0.0
 40
1.0
 40
1.0
 40
1.0
 40
2.0
 40
2.0
 40
2.0
 40
3.0
 40
3.0
 40
3.0
 40
4.0
 40
4.0
 40
4.0
 40
5.0
 40
5.0
 40
5.0
 40
6.0
 40
6.0
 40
6.0
 40
7.0
 40
7.0
 40
7.0
 40
8.0
 40
8.0
 40
8.0
 40
9.0
 40
9.0
 40
9.0
 40
10.0
 40
10.0
 40
10.0
 40
10.0
 10
80.01664901428404
 20
-134.4014431087608
 30
0.0
 10
80.01664901428404
 20
-134.4014431087608
 30
0.0
 10
79.96600611065087
 20
-134.6656819324794
 30
0.0
 10
79.96600611065087
 20
-134.6656819324794
 30
0.0
 10
80.10553247780348
 20
-134.6784287857749
 30
0.0
 10
80.43350556799926
 20
-134.7693793065854
 30
0.0
 10
80.43350556799926
 20
-135.1607421537098
 30
0.0
 10
80.43350556799926
 20
-135.6389214070625
 30
0.0
 10
80.02732881028831
 20
-135.7636338636285
 30
0.0
 10
79.75223793579111
 20
-135.7636338636285
 30
0.0
 10
79.75223793579111
 20
-135.7636338636285
 30
0.0
 10
79.68454180950596
 20
-136.1171006604152
 30
0.0
 10
79.68454180950596
 20
-136.1171006604152
 30
0.0
 10
79.68454180950596
 20
-136.1171006604152
 30
0.0
 10
79.47731931606818
 20
-136.1171006604152
 30
0.0
 10
79.47731931606818
 20
-136.1171006604152
 30
0.0
 10
79.47731931606818
 20
-136.1171006604152
 30
0.0
 10
79.54914955693563
 20
-135.748819953042
 30
0.0
 10
79.54914955693563
 20
-135.748819953042
 30
0.0
 10
79.44131806824731
 20
-135.7298719278731
 30
0.0
 10
79.09009058352609
 20
-135.6685492282356
 30
0.0
 10
79.09009058352609
 20
-135.2516926745204
 30
0.0
 10
79.09009058352609
 20
-134.8034857518894
 30
0.0
 10
79.44562443760387
 20
-134.6532795887325
 30
0.0
 10
79.76067841972997
 20
-134.6532795887325
 30
0.0
 10
79.76067841972997
 20
-134.6532795887325
 30
0.0
 10
79.80942652084626
 20
-134.4014431087608
 30
0.0
 10
79.80942652084626
 20
-134.4014431087608
 30
0.0
 10
79.80942652084626
 20
-134.4014431087608
 30
0.0
 10
80.01664901428404
 20
-134.4014431087608
 30
0.0
 10
80.01664901428404
 20
-134.4014431087608
 30
0.0
  0
SPLINE
  5
C1
330
BC
100
AcDbEntity
  8
_U+30EC_U+30A4_U+30E4_U+30FC 1
370
     0
100
AcDbSpline
210
0.0
220
0.0
230
1.0
 70
    11
 71
     3
 72
    14
 73
    10
 74
     0
 42
0.0000000001
 43
0.0000000001
 12
1.0
 22
0.0
 32
0.0
 13
1.0
 23
0.0
 33
0.0
 40
0.0
 40
0.0
 40
0.0
 40
0.0
 40
1.0
 40
1.0
 40
1.0
 40
2.0
 40
2.0
 40
2.0
 40
3.0
 40
3.0
 40
3.0
 40
3.0
 10
79.72691648397452
 20
-134.8265678916406
 30
0.0
 10
79.60633814199078
 20
-134.8351806303537
 30
0.0
 10
79.31229924232471
 20
-134.8582627701049
 30
0.0
 10
79.31229924232471
 20
-135.2561712986513
 30
0.0
 10
79.31229924232471
 20
-135.3195610555798
 30
0.0
 10
79.31229924232471
 20
-135.5331569756653
 30
0.0
 10
79.5810166901742
 20
-135.577598707425
 30
0.0
 10
79.5810166901742
 20
-135.577598707425
 30
0.0
 10
79.72691648397452
 20
-134.8265678916406
 30
0.0
 10
79.72691648397452
 20
-134.8265678916406
 30
0.0
  0
SPLINE
  5
C2
330
BC
100
AcDbEntity
  8
_U+30EC_U+30A4_U+30E4_U+30FC 1
370
     0
100
AcDbSpline
210
0.0
220
0.0
230
1.0
 70
    11
 71
     3
 72
    14
 73
    10
 74
     0
 42
0.0000000001
 43
0.0000000001
 12
1.0
 22
0.0
 32
0.0
 13
1.0
 23
0.0
 33
0.0
 40
0.0
 40
0.0
 40
0.0
 40
0.0
 40
1.0
 40
1.0
 40
1.0
 40
2.0
 40
2.0
 40
2.0
 40
3.0
 40
3.0
 40
3.0
 40
3.0
 10
79.78823918361198
 20
-135.5862114461382
 30
0.0
 10
79.97014022523317
 20
-135.5817328220074
 30
0.0
 10
80.21353622126607
 20
-135.501462097201
 30
0.0
 10
80.21353622126607
 20
-135.1459282431233
 30
0.0
 10
80.21353622126607
 20
-135.0529106650215
 30
0.0
 10
80.20078936797064
 20
-134.8648084515269
 30
0.0
 10
79.93000486283
 20
-134.8372476876449
 30
0.0
 10
79.93000486283
 20
-134.8372476876449
 30
0.0
 10
79.78823918361198
 20
-135.5862114461382
 30
0.0
 10
79.78823918361198
 20
-135.5862114461382
 30
0.0
  0
HATCH
  5
C3
330
BC
100
AcDbEntity
  8
_U+30EC_U+30A4_U+30E4_U+30FC 1
 62
   179
420
  2234388
100
AcDbHatch
 10
0.0
 20
0.0
 30
0.0
210
0.0
220
0.0
230
1.0
  2
SOLID
 70
     1
 71
     0
 91
        3
 92
        1
 93
        1
 72
     4
 94
        3
 73
     0
 74
     1
 95
       35
 96
       31
 40
0.0
 40
0.0
 40
0.0
 40
0.0
 40
1.0
 40
1.0
 40
1.0
 40
2.0
 40
2.0
 40
2.0
 40
3.0
 40
3.0
 40
3.0
 40
4.0
 40
4.0
 40
4.0
 40
5.0
 40
5.0
 40
5.0
 40
6.0
 40
6.0
 40
6.0
 40
7.0
 40
7.0
 40
7.0
 40
8.0
 40
8.0
 40
8.0
 40
9.0
 40
9.0
 40
9.0
 40
10.0
 40
10.0
 40
10.0
 40
10.0
 10
80.01664901428404
 20
-134.4014431087608
 10
80.01664901428404
 20
-134.4014431087608
 10
79.96600611065087
 20
-134.6656819324794
 10
79.96600611065087
 20
-134.6656819324794
 10
80.10553247780348
 20
-134.6784287857749
 10
80.43350556799926
 20
-134.7693793065854
 10
80.43350556799926
 20
-135.1607421537098
 10
80.43350556799926
 20
-135.6389214070625
 10
80.02732881028831
 20
-135.7636338636285
 10
79.75223793579111
 20
-135.7636338636285
 10
79.75223793579111
 20
-135.7636338636285
 10
79.68454180950596
 20
-136.1171006604152
 10
79.68454180950596
 20
-136.1171006604152
 10
79.68454180950596
 20
-136.1171006604152
 10
79.47731931606818
 20
-136.1171006604152
 10
79.47731931606818
 20
-136.1171006604152
 10
79.47731931606818
 20
-136.1171006604152
 10
79.54914955693563
 20
-135.748819953042
 10
79.54914955693563
 20
-135.748819953042
 10
79.44131806824731
 20
-135.7298719278731
 10
79.09009058352609
 20
-135.6685492282356
 10
79.09009058352609
 20
-135.2516926745204
 10
79.09009058352609
 20
-134.8034857518894
 10
79.44562443760387
 20
-134.6532795887325
 10
79.76067841972997
 20
-134.6532795887325
 10
79.76067841972997
 20
-134.6532795887325
 10
79.80942652084626
 20
-134.4014431087608
 10
79.80942652084626
 20
-134.4014431087608
 10
79.80942652084626
 20
-134.4014431087608
 10
80.01664901428404
 20
-134.4014431087608
 10
80.01664901428404
 20
-134.4014431087608
 97
        0
 97
        0
 92
        1
 93
        1
 72
     4
 94
        3
 73
     0
 74
     1
 95
       14
 96
       10
 40
0.0
 40
0.0
 40
0.0
 40
0.0
 40
1.0
 40
1.0
 40
1.0
 40
2.0
 40
2.0
 40
2.0
 40
3.0
 40
3.0
 40
3.0
 40
3.0
 10
79.72691648397452
 20
-134.8265678916406
 10
79.60633814199078
 20
-134.8351806303537
 10
79.31229924232471
 20
-134.8582627701049
 10
79.31229924232471
 20
-135.2561712986513
 10
79.31229924232471
 20
-135.3195610555798
 10
79.31229924232471
 20
-135.5331569756653
 10
79.5810166901742
 20
-135.577598707425
 10
79.5810166901742
 20
-135.577598707425
 10
79.72691648397452
 20
-134.8265678916406
 10
79.72691648397452
 20
-134.8265678916406
 97
        0
 97
        0
 92
        1
 93
        1
 72
     4
 94
        3
 73
     0
 74
     1
 95
       14
 96
       10
 40
0.0
 40
0.0
 40
0.0
 40
0.0
 40
1.0
 40
1.0
 40
1.0
 40
2.0
 40
2.0
 40
2.0
 40
3.0
 40
3.0
 40
3.0
 40
3.0
 10
79.78823918361198
 20
-135.5862114461382
 10
79.97014022523317
 20
-135.5817328220074
 10
80.21353622126607
 20
-135.501462097201
 10
80.21353622126607
 20
-135.1459282431233
 10
80.21353622126607
 20
-135.0529106650215
 10
80.20078936797064
 20
-134.8648084515269
 10
79.93000486283
 20
-134.8372476876449
 10
79.93000486283
 20
-134.8372476876449
 10
79.78823918361198
 20
-135.5862114461382
 10
79.78823918361198
 20
-135.5862114461382
 97
        0
 97
        0
 75
     2
 76
     1
 98
        0
  0
SPLINE
  5
C4
330
BC
100
AcDbEntity
  8
_U+30EC_U+30A4_U+30E4_U+30FC 1
370
     0
100
AcDbSpline
210
0.0
220
0.0
230
1.0
 70
    11
 71
     3
 72
    26
 73
    22
 74
     0
 42
0.0000000001
 43
0.0000000001
 12
1.0
 22
0.0
 32
0.0
 13
1.0
 23
0.0
 33
0.0
 40
0.0
 40
0.0
 40
0.0
 40
0.0
 40
1.0
 40
1.0
 40
1.0
 40
2.0
 40
2.0
 40
2.0
 40
3.0
 40
3.0
 40
3.0
 40
4.0
 40
4.0
 40
4.0
 40
5.0
 40
5.0
 40
5.0
 40
6.0
 40
6.0
 40
6.0
 40
7.0
 40
7.0
 40
7.0
 40
7.0
 10
81.09668644890986
 20
-135.7722466023417
 30
0.0
 10
81.09668644890986
 20
-135.7722466023417
 30
0.0
 10
81.09668644890986
 20
-134.6680934993191
 30
0.0
 10
81.09668644890986
 20
-134.6680934993191
 30
0.0
 10
81.09668644890986
 20
-134.6680934993191
 30
0.0
 10
80.76664630142292
 20
-134.6680934993191
 30
0.0
 10
80.76664630142292
 20
-134.6680934993191
 30
0.0
 10
80.76664630142292
 20
-134.6680934993191
 30
0.0
 10
80.76664630142292
 20
-134.5199543934534
 30
0.0
 10
80.76664630142292
 20
-134.5199543934534
 30
0.0
 10
81.098753506201
 20
-134.5051404828668
 30
0.0
 10
81.14526229525188
 20
-134.3421874664145
 30
0.0
 10
81.17489011642503
 20
-134.2278102963042
 30
0.0
 10
81.17489011642503
 20
-134.2278102963042
 30
0.0
 10
81.32096216499963
 20
-134.2278102963042
 30
0.0
 10
81.32096216499963
 20
-134.2278102963042
 30
0.0
 10
81.32096216499963
 20
-134.2278102963042
 30
0.0
 10
81.32096216499963
 20
-135.7722466023417
 30
0.0
 10
81.32096216499963
 20
-135.7722466023417
 30
0.0
 10
81.32096216499963
 20
-135.7722466023417
 30
0.0
 10
81.09668644890986
 20
-135.7722466023417
 30
0.0
 10
81.09668644890986
 20
-135.7722466023417
 30
0.0
  0
HATCH
  5
C5
330
BC
100
AcDbEntity
  8
_U+30EC_U+30A4_U+30E4_U+30FC 1
 62
   179
420
  2234388
100
AcDbHatch
 10
0.0
 20
0.0
 30
0.0
210
0.0
220
0.0
230
1.0
  2
SOLID
 70
     1
 71
     0
 91
        1
 92
        1
 93
        1
 72
     4
 94
        3
 73
     0
 74
     1
 95
       26
 96
       22
 40
0.0
 40
0.0
 40
0.0
 40
0.0
 40
1.0
 40
1.0
 40
1.0
 40
2.0
 40
2.0
 40
2.0
 40
3.0
 40
3.0
 40
3.0
 40
4.0
 40
4.0
 40
4.0
 40
5.0
 40
5.0
 40
5.0
 40
6.0
 40
6.0
 40
6.0
 40
7.0
 40
7.0
 40
7.0
 40
7.0
 10
81.09668644890986
 20
-135.7722466023417
 10
81.09668644890986
 20
-135.7722466023417
 10
81.09668644890986
 20
-134.6680934993191
 10
81.09668644890986
 20
-134.6680934993191
 10
81.09668644890986
 20
-134.6680934993191
 10
80.76664630142292
 20
-134.6680934993191
 10
80.76664630142292
 20
-134.6680934993191
 10
80.76664630142292
 20
-134.6680934993191
 10
80.76664630142292
 20
-134.5199543934534
 10
80.76664630142292
 20
-134.5199543934534
 10
81.098753506201
 20
-134.5051404828668
 10
81.14526229525188
 20
-134.3421874664145
 10
81.17489011642503
 20
-134.2278102963042
 10
81.17489011642503
 20
-134.2278102963042
 10
81.32096216499963
 20
-134.2278102963042
 10
81.32096216499963
 20
-134.2278102963042
 10
81.32096216499963
 20
-134.2278102963042
 10
81.32096216499963
 20
-135.7722466023417
 10
81.32096216499963
 20
-135.7722466023417
 10
81.32096216499963
 20
-135.7722466023417
 10
81.09668644890986
 20
-135.7722466023417
 10
81.09668644890986
 20
-135.7722466023417
 97
        0
 97
        0
 75
     2
 76
     1
 98
        0
  0
SPLINE
  5
C6
330
BC
100
AcDbEntity
  8
_U+30EC_U+30A4_U+30E4_U+30FC 1
370
     0
100
AcDbSpline
210
0.0
220
0.0
230
1.0
 70
    11
 71
     3
 72
    29
 73
    25
 74
     0
 42
0.0000000001
 43
0.0000000001
 12
1.0
 22
0.0
 32
0.0
 13
1.0
 23
0.0
 33
0.0
 40
0.0
 40
0.0
 40
0.0
 40
0.0
 40
1.0
 40
1.0
 40
1.0
 40
2.0
 40
2.0
 40
2.0
 40
3.0
 40
3.0
 40
3.0
 40
4.0
 40
4.0
 40
4.0
 40
5.0
 40
5.0
 40
5.0
 40
6.0
 40
6.0
 40
6.0
 40
7.0
 40
7.0
 40
7.0
 40
8.0
 40
8.0
 40
8.0
 40
8.0
 10
82.71984318678533
 20
-135.5944796753028
 30
0.0
 10
82.612011698097
 20
-135.803941480806
 30
0.0
 10
82.43855114041467
 20
-135.8228895059748
 30
0.0
 10
82.32210691301323
 20
-135.8228895059748
 30
0.0
 10
82.16139320862632
 20
-135.8228895059748
 30
0.0
 10
82.0196275294083
 20
-135.776380716924
 30
0.0
 10
81.92437063924113
 20
-135.5944796753028
 30
0.0
 10
81.82084551990937
 20
-135.3998317803862
 30
0.0
 10
81.80172523996625
 20
-135.162809211001
 30
0.0
 10
81.80172523996625
 20
-135.0002007040972
 30
0.0
 10
81.80172523996625
 20
-134.8561957128137
 30
0.0
 10
81.81860620784396
 20
-134.604359232842
 30
0.0
 10
81.92437063924113
 20
-134.405577223343
 30
0.0
 10
82.03237438270372
 20
-134.2026610992618
 30
0.0
 10
82.19308808709062
 20
-134.1792344499621
 30
0.0
 10
82.32210691301323
 20
-134.1792344499621
 30
0.0
 10
82.48075356010898
 20
-134.1792344499621
 30
0.0
 10
82.62475855139243
 20
-134.2236761817219
 30
0.0
 10
82.71984318678533
 20
-134.405577223343
 30
0.0
 10
82.81923419153478
 20
-134.5981580609685
 30
0.0
 10
82.84248858606021
 20
-134.8265678916406
 30
0.0
 10
82.84248858606021
 20
-135.0002007040972
 30
0.0
 10
82.84248858606021
 20
-135.1714219497141
 30
0.0
 10
82.82147350360019
 20
-135.4018988376773
 30
0.0
 10
82.71984318678533
 20
-135.5944796753028
 30
0.0
  0
SPLINE
  5
C7
330
BC
100
AcDbEntity
  8
_U+30EC_U+30A4_U+30E4_U+30FC 1
370
     0
100
AcDbSpline
210
0.0
220
0.0
230
1.0
 70
    11
 71
     3
 72
    17
 73
    13
 74
     0
 42
0.0000000001
 43
0.0000000001
 12
1.0
 22
0.0
 32
0.0
 13
1.0
 23
0.0
 33
0.0
 40
0.0
 40
0.0
 40
0.0
 40
0.0
 40
1.0
 40
1.0
 40
1.0
 40
2.0
 40
2.0
 40
2.0
 40
3.0
 40
3.0
 40
3.0
 40
4.0
 40
4.0
 40
4.0
 40
4.0
 10
82.32210691301323
 20
-134.3718152875876
 30
0.0
 10
82.07250974510687
 20
-134.3718152875876
 30
0.0
 10
82.02600095605601
 20
-134.6553466460237
 30
0.0
 10
82.02600095605601
 20
-135.0002007040972
 30
0.0
 10
82.02600095605601
 20
-135.3195610555798
 30
0.0
 10
82.06200220387686
 20
-135.6282416110582
 30
0.0
 10
82.32210691301323
 20
-135.6282416110582
 30
0.0
 10
82.56963702362843
 20
-135.6282416110582
 30
0.0
 10
82.61838512474472
 20
-135.3471218194618
 30
0.0
 10
82.61838512474472
 20
-135.0002007040972
 30
0.0
 10
82.61838512474472
 20
-134.680495843066
 30
0.0
 10
82.5803168196327
 20
-134.3718152875876
 30
0.0
 10
82.32210691301323
 20
-134.3718152875876
 30
0.0
  0
HATCH
  5
C8
330
BC
100
AcDbEntity
  8
_U+30EC_U+30A4_U+30E4_U+30FC 1
 62
   179
420
  2234388
100
AcDbHatch
 10
0.0
 20
0.0
 30
0.0
210
0.0
220
0.0
230
1.0
  2
SOLID
 70
     1
 71
     0
 91
        2
 92
        1
 93
        1
 72
     4
 94
        3
 73
     0
 74
     1
 95
       29
 96
       25
 40
0.0
 40
0.0
 40
0.0
 40
0.0
 40
1.0
 40
1.0
 40
1.0
 40
2.0
 40
2.0
 40
2.0
 40
3.0
 40
3.0
 40
3.0
 40
4.0
 40
4.0
 40
4.0
 40
5.0
 40
5.0
 40
5.0
 40
6.0
 40
6.0
 40
6.0
 40
7.0
 40
7.0
 40
7.0
 40
8.0
 40
8.0
 40
8.0
 40
8.0
 10
82.71984318678533
 20
-135.5944796753028
 10
82.612011698097
 20
-135.803941480806
 10
82.43855114041467
 20
-135.8228895059748
 10
82.32210691301323
 20
-135.8228895059748
 10
82.16139320862632
 20
-135.8228895059748
 10
82.0196275294083
 20
-135.776380716924
 10
81.92437063924113
 20
-135.5944796753028
 10
81.82084551990937
 20
-135.3998317803862
 10
81.80172523996625
 20
-135.162809211001
 10
81.80172523996625
 20
-135.0002007040972
 10
81.80172523996625
 20
-134.8561957128137
 10
81.81860620784396
 20
-134.604359232842
 10
81.92437063924113
 20
-134.405577223343
 10
82.03237438270372
 20
-134.2026610992618
 10
82.19308808709062
 20
-134.1792344499621
 10
82.32210691301323
 20
-134.1792344499621
 10
82.48075356010898
 20
-134.1792344499621
 10
82.62475855139243
 20
-134.2236761817219
 10
82.71984318678533
 20
-134.405577223343
 10
82.81923419153478
 20
-134.5981580609685
 10
82.84248858606021
 20
-134.8265678916406
 10
82.84248858606021
 20
-135.0002007040972
 10
82.84248858606021
 20
-135.1714219497141
 10
82.82147350360019
 20
-135.4018988376773
 10
82.71984318678533
 20
-135.5944796753028
 97
        0
 97
        0
 92
        1
 93
        1
 72
     4
 94
        3
 73
     0
 74
     1
 95
       17
 96
       13
 40
0.0
 40
0.0
 40
0.0
 40
0.0
 40
1.0
 40
1.0
 40
1.0
 40
2.0
 40
2.0
 40
2.0
 40
3.0
 40
3.0
 40
3.0
 40
4.0
 40
4.0
 40
4.0
 40
4.0
 10
82.32210691301323
 20
-134.3718152875876
 10
82.07250974510687
 20
-134.3718152875876
 10
82.02600095605601
 20
-134.6553466460237
 10
82.02600095605601
 20
-135.0002007040972
 10
82.02600095605601
 20
-135.3195610555798
 10
82.06200220387686
 20
-135.6282416110582
 10
82.32210691301323
 20
-135.6282416110582
 10
82.56963702362843
 20
-135.6282416110582
 10
82.61838512474472
 20
-135.3471218194618
 10
82.61838512474472
 20
-135.0002007040972
 10
82.61838512474472
 20
-134.680495843066
 10
82.5803168196327
 20
-134.3718152875876
 10
82.32210691301323
 20
-134.3718152875876
 97
        0
 97
        0
 75
     2
 76
     1
 98
        0
  0
ENDBLK
  5
BF
330
BC
100
AcDbEntity
  8
0
100
AcDbBlockEnd
  0
ENDSEC
  0
SECTION
  2
ENTITIES
  0
INSERT
  5
42
330
1F
100
AcDbEntity
  8
_U+30EC_U+30A4_U+30E4_U+30FC 1
100
AcDbBlockReference
  2
block 2
 10
0.0
 20
0.0
 30
0.0
  0
ENDSEC
  0
SECTION
  2
OBJECTS
  0
DICTIONARY
  5
C
330
0
100
AcDbDictionary
281
     1
  3
ACAD_GROUP
350
D
  3
ACAD_LAYOUT
350
1A
  3
ACAD_MATERIAL
350
3B
  3
ACAD_MLEADERSTYLE
350
D4
  3
ACAD_MLINESTYLE
350
17
  3
ACAD_PLOTSETTINGS
350
19
  3
ACAD_PLOTSTYLENAME
350
E
  3
ACAD_TABLESTYLE
350
D3
  3
ACAD_VISUALSTYLE
350
2A
  0
SUN
  5
3F
330
29
100
AcDbSun
 90
        1
290
     0
 63
     7
421
 16777215
 40
1.0
291
     1
 91
  2455826
 92
 54000000
292
     0
 70
     2
 71
   256
280
     1
  0
DICTIONARY
  5
D
102
{ACAD_REACTORS
330
C
102
}
330
C
100
AcDbDictionary
281
     1
  0
DICTIONARY
  5
1A
102
{ACAD_REACTORS
330
C
102
}
330
C
100
AcDbDictionary
281
     1
  3
Layout1
350
1E
  3
Layout2
350
26
  3
Model
350
22
  0
DICTIONARY
  5
3B
102
{ACAD_REACTORS
330
C
102
}
330
C
100
AcDbDictionary
281
     1
  3
ByBlock
350
3D
  3
ByLayer
350
3C
  3
Global
350
3E
  0
DICTIONARY
  5
D4
102
{ACAD_REACTORS
330
C
102
}
330
C
100
AcDbDictionary
281
     1
  0
DICTIONARY
  5
17
102
{ACAD_REACTORS
330
C
102
}
330
C
100
AcDbDictionary
281
     1
  3
Standard
350
18
  0
DICTIONARY
  5
19
102
{ACAD_REACTORS
330
C
102
}
330
C
100
AcDbDictionary
281
     1
  0
ACDBDICTIONARYWDFLT
  5
E
102
{ACAD_REACTORS
330
C
102
}
330
C
100
AcDbDictionary
281
     1
  3
Normal
350
F
100
AcDbDictionaryWithDefault
340
F
  0
DICTIONARY
  5
D3
102
{ACAD_REACTORS
330
C
102
}
330
C
100
AcDbDictionary
281
     1
  0
DICTIONARY
  5
2A
102
{ACAD_REACTORS
330
C
102
}
330
C
100
AcDbDictionary
281
     1
  3
2dWireframe
350
2F
  3
3D Hidden
350
31
  3
3dWireframe
350
30
  3
Basic
350
32
  3
Brighten
350
36
  3
ColorChange
350
3A
  3
Conceptual
350
34
  3
Dim
350
35
  3
Facepattern
350
39
  3
Flat
350
2B
  3
FlatWithEdges
350
2C
  3
Gouraud
350
2D
  3
GouraudWithEdges
350
2E
  3
Linepattern
350
38
  3
Realistic
350
33
  3
Thicken
350
37
  0
LAYOUT
  5
1E
102
{ACAD_REACTORS
330
1A
102
}
330
1A
100
AcDbPlotSettings
  1

  2
none_device
  4

  6

 40
0.0
 41
0.0
 42
0.0
 43
0.0
 44
0.0
 45
0.0
 46
0.0
 47
0.0
 48
0.0
 49
0.0
140
0.0
141
0.0
142
1.0
143
1.0
 70
   688
 72
     0
 73
     0
 74
     5
  7

 75
    16
 76
     0
 77
     2
 78
   300
147
1.0
148
0.0
149
0.0
100
AcDbLayout
  1
Layout1
 70
     1
 71
     1
 10
0.0
 20
0.0
 11
12.0
 21
9.0
 12
0.0
 22
0.0
 32
0.0
 14
1.000000000000000E+20
 24
1.000000000000000E+20
 34
1.000000000000000E+20
 15
-1.000000000000000E+20
 25
-1.000000000000000E+20
 35
-1.000000000000000E+20
146
0.0
 13
0.0
 23
0.0
 33
0.0
 16
1.0
 26
0.0
 36
0.0
 17
0.0
 27
1.0
 37
0.0
 76
     0
330
1B
  0
LAYOUT
  5
26
102
{ACAD_REACTORS
330
1A
102
}
330
1A
100
AcDbPlotSettings
  1

  2
none_device
  4

  6

 40
0.0
 41
0.0
 42
0.0
 43
0.0
 44
0.0
 45
0.0
 46
0.0
 47
0.0
 48
0.0
 49
0.0
140
0.0
141
0.0
142
1.0
143
1.0
 70
   688
 72
     0
 73
     0
 74
     5
  7

 75
    16
 76
     0
 77
     2
 78
   300
147
1.0
148
0.0
149
0.0
100
AcDbLayout
  1
Layout2
 70
     1
 71
     2
 10
0.0
 20
0.0
 11
0.0
 21
0.0
 12
0.0
 22
0.0
 32
0.0
 14
0.0
 24
0.0
 34
0.0
 15
0.0
 25
0.0
 35
0.0
146
0.0
 13
0.0
 23
0.0
 33
0.0
 16
1.0
 26
0.0
 36
0.0
 17
0.0
 27
1.0
 37
0.0
 76
     0
330
23
  0
LAYOUT
  5
22
102
{ACAD_REACTORS
330
1A
102
}
330
1A
100
AcDbPlotSettings
  1

  2
none_device
  4

  6

 40
0.0
 41
0.0
 42
0.0
 43
0.0
 44
0.0
 45
0.0
 46
0.0
 47
0.0
 48
0.0
 49
0.0
140
0.0
141
0.0
142
1.0
143
1.0
 70
  1712
 72
     0
 73
     0
 74
     0
  7

 75
     0
 76
     0
 77
     2
 78
   300
147
1.0
148
0.0
149
0.0
100
AcDbLayout
  1
Model
 70
     1
 71
     0
 10
0.0
 20
0.0
 11
12.0
 21
9.0
 12
0.0
 22
0.0
 32
0.0
 14
1.000000000000000E+20
 24
1.000000000000000E+20
 34
1.000000000000000E+20
 15
-1.000000000000000E+20
 25
-1.000000000000000E+20
 35
-1.000000000000000E+20
146
0.0
 13
0.0
 23
0.0
 33
0.0
 16
1.0
 26
0.0
 36
0.0
 17
0.0
 27
1.0
 37
0.0
 76
     0
330
1F
331
29
  0
MATERIAL
  5
3D
102
{ACAD_REACTORS
330
3B
102
}
330
3B
100
AcDbMaterial
  1
ByBlock
 72
     1
 94
      127
  0
MATERIAL
  5
3C
102
{ACAD_REACTORS
330
3B
102
}
330
3B
100
AcDbMaterial
  1
ByLayer
 72
     1
 94
      127
  0
MATERIAL
  5
3E
102
{ACAD_REACTORS
330
3B
102
}
330
3B
100
AcDbMaterial
  1
Global
 72
     1
 94
      127
  0
MLINESTYLE
  5
18
102
{ACAD_REACTORS
330
17
102
}
330
17
100
AcDbMlineStyle
  2
Standard
 70
     0
  3

 62
   256
 51
90.0
 52
90.0
 71
     2
 49
0.5
 62
   256
  6
BYLAYER
 49
-0.5
 62
   256
  6
BYLAYER
  0
ACDBPLACEHOLDER
  5
F
102
{ACAD_REACTORS
330
E
102
}
330
E
  0
VISUALSTYLE
  5
2F
102
{ACAD_REACTORS
330
2A
102
}
330
2A
100
AcDbVisualStyle
  2
2dWireframe
 70
     4
177
     2
291
     0
 71
     0
176
     1
 72
     2
176
     1
 73
     0
176
     1
 90
        0
176
     1
 40
-0.6
176
     1
 41
-30.0
176
     1
 62
     5
 63
     7
421
 16777215
176
     1
 74
     1
176
     1
 91
        4
176
     1
 64
     7
176
     1
 65
   257
176
     1
 75
     1
176
     1
175
     1
176
     1
 42
1.0
176
     1
 92
        0
176
     1
 66
   257
176
     1
 43
1.0
176
     1
 76
     1
176
     1
 77
     6
176
     1
 78
     2
176
     1
 67
     7
176
     1
 79
     5
176
     1
170
     0
176
     1
171
     0
176
     1
290
     0
176
     1
 93
        1
176
     1
 44
0.0
176
     1
173
     0
176
     1
  0
VISUALSTYLE
  5
31
102
{ACAD_REACTORS
330
2A
102
}
330
2A
100
AcDbVisualStyle
  2
3D Hidden
 70
     6
177
     2
291
     0
 71
     1
176
     1
 72
     2
176
     1
 73
     2
176
     1
 90
        0
176
     1
 40
-0.6
176
     1
 41
-30.0
176
     1
 62
     5
 63
     7
421
 16777215
176
     1
 74
     2
176
     1
 91
        2
176
     1
 64
     7
176
     1
 65
   257
176
     1
 75
     2
176
     1
175
     1
176
     1
 42
40.0
176
     1
 92
        0
176
     1
 66
   257
176
     1
 43
1.0
176
     1
 76
     1
176
     1
 77
     6
176
     1
 78
     2
176
     1
 67
     7
176
     1
 79
     3
176
     1
170
     0
176
     1
171
     0
176
     1
290
     0
176
     1
 93
        1
176
     1
 44
0.0
176
     1
173
     0
176
     1
  0
VISUALSTYLE
  5
30
102
{ACAD_REACTORS
330
2A
102
}
330
2A
100
AcDbVisualStyle
  2
3dWireframe
 70
     5
177
     2
291
     0
 71
     0
176
     1
 72
     2
176
     1
 73
     0
176
     1
 90
        0
176
     1
 40
-0.6
176
     1
 41
-30.0
176
     1
 62
     5
 63
     7
421
 16777215
176
     1
 74
     1
176
     1
 91
        4
176
     1
 64
     7
176
     1
 65
   257
176
     1
 75
     1
176
     1
175
     1
176
     1
 42
1.0
176
     1
 92
        0
176
     1
 66
   257
176
     1
 43
1.0
176
     1
 76
     1
176
     1
 77
     6
176
     1
 78
     2
176
     1
 67
     7
176
     1
 79
     5
176
     1
170
     0
176
     1
171
     0
176
     1
290
     0
176
     1
 93
        1
176
     1
 44
0.0
176
     1
173
     0
176
     1
  0
VISUALSTYLE
  5
32
102
{ACAD_REACTORS
330
2A
102
}
330
2A
100
AcDbVisualStyle
  2
Basic
 70
     7
177
     2
291
     1
 71
     1
176
     1
 72
     0
176
     1
 73
     1
176
     1
 90
        0
176
     1
 40
-0.6
176
     1
 41
-30.0
176
     1
 62
     5
 63
     7
421
 16777215
176
     1
 74
     0
176
     1
 91
        4
176
     1
 64
     7
176
     1
 65
   257
176
     1
 75
     1
176
     1
175
     1
176
     1
 42
1.0
176
     1
 92
        8
176
     1
 66
     7
176
     1
 43
1.0
176
     1
 76
     1
176
     1
 77
     6
176
     1
 78
     2
176
     1
 67
     7
176
     1
 79
     5
176
     1
170
     0
176
     1
171
     0
176
     1
290
     0
176
     1
 93
        1
176
     1
 44
0.0
176
     1
173
     0
176
     1
  0
VISUALSTYLE
  5
36
102
{ACAD_REACTORS
330
2A
102
}
330
2A
100
AcDbVisualStyle
  2
Brighten
 70
    12
177
     2
291
     1
 71
     2
176
     1
 72
     2
176
     1
 73
     0
176
     1
 90
        0
176
     1
 40
-0.6
176
     1
 41
-30.0
176
     1
 62
     5
 63
     7
421
 16777215
176
     1
 74
     1
176
     1
 91
        4
176
     1
 64
     7
176
     1
 65
   257
176
     1
 75
     1
176
     1
175
     1
176
     1
 42
1.0
176
     1
 92
        8
176
     1
 66
     7
176
     1
 43
1.0
176
     1
 76
     1
176
     1
 77
     6
176
     1
 78
     2
176
     1
 67
     7
176
     1
 79
     5
176
     1
170
     0
176
     1
171
     0
176
     1
290
     0
176
     1
 93
        1
176
     1
 44
50.0
176
     1
173
     0
176
     1
  0
VISUALSTYLE
  5
3A
102
{ACAD_REACTORS
330
2A
102
}
330
2A
100
AcDbVisualStyle
  2
ColorChange
 70
    16
177
     2
291
     1
 71
     2
176
     1
 72
     2
176
     1
 73
     3
176
     1
 90
        0
176
     1
 40
-0.6
176
     1
 41
-30.0
176
     1
 62
     5
 63
     8
421
  8421504
176
     1
 74
     1
176
     1
 91
        4
176
     1
 64
     7
176
     1
 65
   257
176
     1
 75
     1
176
     1
175
     1
176
     1
 42
1.0
176
     1
 92
        8
176
     1
 66
     8
424
  8421504
176
     1
 43
1.0
176
     1
 76
     1
176
     1
 77
     6
176
     1
 78
     2
176
     1
 67
     7
176
     1
 79
     5
176
     1
170
     0
176
     1
171
     0
176
     1
290
     0
176
     1
 93
        1
176
     1
 44
0.0
176
     1
173
     0
176
     1
  0
VISUALSTYLE
  5
34
102
{ACAD_REACTORS
330
2A
102
}
330
2A
100
AcDbVisualStyle
  2
Conceptual
 70
     9
177
     2
291
     0
 71
     3
176
     1
 72
     2
176
     1
 73
     0
176
     1
 90
        0
176
     1
 40
-0.6
176
     1
 41
-30.0
176
     1
 62
     5
 63
     7
421
 16777215
176
     1
 74
     2
176
     1
 91
        2
176
     1
 64
     7
176
     1
 65
   257
176
     1
 75
     1
176
     1
175
     1
176
     1
 42
40.0
176
     1
 92
        8
176
     1
 66
     7
176
     1
 43
1.0
176
     1
 76
     1
176
     1
 77
     6
176
     1
 78
     2
176
     1
 67
     7
176
     1
 79
     3
176
     1
170
     0
176
     1
171
     0
176
     1
290
     0
176
     1
 93
        1
176
     1
 44
0.0
176
     1
173
     0
176
     1
  0
VISUALSTYLE
  5
35
102
{ACAD_REACTORS
330
2A
102
}
330
2A
100
AcDbVisualStyle
  2
Dim
 70
    11
177
     2
291
     1
 71
     2
176
     1
 72
     2
176
     1
 73
     0
176
     1
 90
        0
176
     1
 40
-0.6
176
     1
 41
-30.0
176
     1
 62
     5
 63
     7
421
 16777215
176
     1
 74
     1
176
     1
 91
        4
176
     1
 64
     7
176
     1
 65
   257
176
     1
 75
     1
176
     1
175
     1
176
     1
 42
1.0
176
     1
 92
        8
176
     1
 66
     7
176
     1
 43
1.0
176
     1
 76
     1
176
     1
 77
     6
176
     1
 78
     2
176
     1
 67
     7
176
     1
 79
     5
176
     1
170
     0
176
     1
171
     0
176
     1
290
     0
176
     1
 93
        1
176
     1
 44
-50.0
176
     1
173
     0
176
     1
  0
VISUALSTYLE
  5
39
102
{ACAD_REACTORS
330
2A
102
}
330
2A
100
AcDbVisualStyle
  2
Facepattern
 70
    15
177
     2
291
     1
 71
     2
176
     1
 72
     2
176
     1
 73
     0
176
     1
 90
        0
176
     1
 40
-0.6
176
     1
 41
-30.0
176
     1
 62
     5
 63
     7
421
 16777215
176
     1
 74
     1
176
     1
 91
        4
176
     1
 64
     7
176
     1
 65
   257
176
     1
 75
     1
176
     1
175
     1
176
     1
 42
1.0
176
     1
 92
        8
176
     1
 66
     7
176
     1
 43
1.0
176
     1
 76
     1
176
     1
 77
     6
176
     1
 78
     2
176
     1
 67
     7
176
     1
 79
     5
176
     1
170
     0
176
     1
171
     0
176
     1
290
     0
176
     1
 93
        1
176
     1
 44
0.0
176
     1
173
     0
176
     1
  0
VISUALSTYLE
  5
2B
102
{ACAD_REACTORS
330
2A
102
}
330
2A
100
AcDbVisualStyle
  2
Flat
 70
     0
177
     2
291
     1
 71
     2
176
     1
 72
     1
176
     1
 73
     1
176
     1
 90
        2
176
     1
 40
-0.6
176
     1
 41
30.0
176
     1
 62
     5
 63
     7
421
 16777215
176
     1
 74
     0
176
     1
 91
        4
176
     1
 64
     7
176
     1
 65
   257
176
     1
 75
     1
176
     1
175
     1
176
     1
 42
1.0
176
     1
 92
        8
176
     1
 66
     7
176
     1
 43
1.0
176
     1
 76
     1
176
     1
 77
     6
176
     1
 78
     2
176
     1
 67
     7
176
     1
 79
     5
176
     1
170
     0
176
     1
171
     0
176
     1
290
     0
176
     1
 93
       13
176
     1
 44
0.0
176
     1
173
     0
176
     1
  0
VISUALSTYLE
  5
2C
102
{ACAD_REACTORS
330
2A
102
}
330
2A
100
AcDbVisualStyle
  2
FlatWithEdges
 70
     1
177
     2
291
     1
 71
     2
176
     1
 72
     1
176
     1
 73
     1
176
     1
 90
        2
176
     1
 40
-0.6
176
     1
 41
30.0
176
     1
 62
     5
 63
     7
421
 16777215
176
     1
 74
     1
176
     1
 91
        4
176
     1
 64
     7
176
     1
 65
   257
176
     1
 75
     1
176
     1
175
     1
176
     1
 42
1.0
176
     1
 92
        0
176
     1
 66
   257
176
     1
 43
1.0
176
     1
 76
     1
176
     1
 77
     6
176
     1
 78
     2
176
     1
 67
     7
176
     1
 79
     5
176
     1
170
     0
176
     1
171
     0
176
     1
290
     0
176
     1
 93
       13
176
     1
 44
0.0
176
     1
173
     0
176
     1
  0
VISUALSTYLE
  5
2D
102
{ACAD_REACTORS
330
2A
102
}
330
2A
100
AcDbVisualStyle
  2
Gouraud
 70
     2
177
     2
291
     1
 71
     2
176
     1
 72
     2
176
     1
 73
     1
176
     1
 90
        2
176
     1
 40
-0.6
176
     1
 41
30.0
176
     1
 62
     5
 63
     7
421
 16777215
176
     1
 74
     0
176
     1
 91
        4
176
     1
 64
     7
176
     1
 65
   257
176
     1
 75
     1
176
     1
175
     1
176
     1
 42
1.0
176
     1
 92
        0
176
     1
 66
     7
176
     1
 43
1.0
176
     1
 76
     1
176
     1
 77
     6
176
     1
 78
     2
176
     1
 67
     7
176
     1
 79
     5
176
     1
170
     0
176
     1
171
     0
176
     1
290
     0
176
     1
 93
       13
176
     1
 44
0.0
176
     1
173
     0
176
     1
  0
VISUALSTYLE
  5
2E
102
{ACAD_REACTORS
330
2A
102
}
330
2A
100
AcDbVisualStyle
  2
GouraudWithEdges
 70
     3
177
     2
291
     1
 71
     2
176
     1
 72
     2
176
     1
 73
     1
176
     1
 90
        2
176
     1
 40
-0.6
176
     1
 41
30.0
176
     1
 62
     5
 63
     7
421
 16777215
176
     1
 74
     1
176
     1
 91
        4
176
     1
 64
     7
176
     1
 65
   257
176
     1
 75
     1
176
     1
175
     1
176
     1
 42
1.0
176
     1
 92
        0
176
     1
 66
   257
176
     1
 43
1.0
176
     1
 76
     1
176
     1
 77
     6
176
     1
 78
     2
176
     1
 67
     7
176
     1
 79
     5
176
     1
170
     0
176
     1
171
     0
176
     1
290
     0
176
     1
 93
       13
176
     1
 44
0.0
176
     1
173
     0
176
     1
  0
VISUALSTYLE
  5
38
102
{ACAD_REACTORS
330
2A
102
}
330
2A
100
AcDbVisualStyle
  2
Linepattern
 70
    14
177
     2
291
     1
 71
     2
176
     1
 72
     2
176
     1
 73
     0
176
     1
 90
        0
176
     1
 40
-0.6
176
     1
 41
-30.0
176
     1
 62
     5
 63
     7
421
 16777215
176
     1
 74
     1
176
     1
 91
        4
176
     1
 64
     7
176
     1
 65
   257
176
     1
 75
     7
176
     1
175
     7
176
     1
 42
1.0
176
     1
 92
        8
176
     1
 66
     7
176
     1
 43
1.0
176
     1
 76
     1
176
     1
 77
     6
176
     1
 78
     2
176
     1
 67
     7
176
     1
 79
     5
176
     1
170
     0
176
     1
171
     0
176
     1
290
     0
176
     1
 93
        1
176
     1
 44
0.0
176
     1
173
     0
176
     1
  0
VISUALSTYLE
  5
33
102
{ACAD_REACTORS
330
2A
102
}
330
2A
100
AcDbVisualStyle
  2
Realistic
 70
     8
177
     2
291
     0
 71
     2
176
     1
 72
     2
176
     1
 73
     0
176
     1
 90
        0
176
     1
 40
-0.6
176
     1
 41
-30.0
176
     1
 62
     5
 63
     7
421
 16777215
176
     1
 74
     1
176
     1
 91
        0
176
     1
 64
     7
176
     1
 65
   257
176
     1
 75
     1
176
     1
175
     1
176
     1
 42
1.0
176
     1
 92
        8
176
     1
 66
     8
424
  7895160
176
     1
 43
1.0
176
     1
 76
     1
176
     1
 77
     6
176
     1
 78
     2
176
     1
 67
     7
176
     1
 79
     5
176
     1
170
     0
176
     1
171
     0
176
     1
290
     0
176
     1
 93
       13
176
     1
 44
0.0
176
     1
173
     0
176
     1
  0
VISUALSTYLE
  5
37
102
{ACAD_REACTORS
330
2A
102
}
330
2A
100
AcDbVisualStyle
  2
Thicken
 70
    13
177
     2
291
     1
 71
     2
176
     1
 72
     2
176
     1
 73
     0
176
     1
 90
        0
176
     1
 40
-0.6
176
     1
 41
-30.0
176
     1
 62
     5
 63
     7
421
 16777215
176
     1
 74
     1
176
     1
 91
        4
176
     1
 64
     7
176
     1
 65
   257
176
     1
 75
     1
176
     1
175
     1
176
     1
 42
1.0
176
     1
 92
       12
176
     1
 66
     7
176
     1
 43
1.0
176
     1
 76
     1
176
     1
 77
     6
176
     1
 78
     2
176
     1
 67
     7
176
     1
 79
     5
176
     1
170
     0
176
     1
171
     0
176
     1
290
     0
176
     1
 93
        1
176
     1
 44
0.0
176
     1
173
     0
176
     1
  0
ENDSEC
  0
EOF
