  0
SECTION
  2
HEADER
  9
$ACADVER
  1
AC1024
  9
$ACADMAINTVER
 70
     6
  9
$DWGCODEPAGE
  3
UNDEFINED
  9
$INSBASE
 10
0.0
 20
0.0
 30
0.0
  9
$EXTMIN
 10
1.000000000000000E+20
 20
1.000000000000000E+20
 30
1.000000000000000E+20
  9
$EXTMAX
 10
-1.000000000000000E+20
 20
-1.000000000000000E+20
 30
-1.000000000000000E+20
  9
$LIMMIN
 10
0.0
 20
0.0
  9
$LIMMAX
 10
12.0
 20
9.0
  9
$ORTHOMODE
 70
     0
  9
$REGENMODE
 70
     1
  9
$FILLMODE
 70
     1
  9
$QTEXTMODE
 70
     0
  9
$MIRRTEXT
 70
     1
  9
$LTSCALE
 40
1.0
  9
$ATTMODE
 70
     1
  9
$TEXTSIZE
 40
0.2
  9
$TRACEWID
 40
0.05
  9
$TEXTSTYLE
  7
Standard
  9
$CLAYER
  8
0
  9
$CELTYPE
  6
ByLayer
  9
$CECOLOR
 62
   256
  9
$CELTSCALE
 40
1.0
  9
$DISPSILH
 70
     0
  9
$DIMSCALE
 40
1.0
  9
$DIMASZ
 40
0.18
  9
$DIMEXO
 40
0.0625
  9
$DIMDLI
 40
0.38
  9
$DIMRND
 40
0.0
  9
$DIMDLE
 40
0.0
  9
$DIMEXE
 40
0.18
  9
$DIMTP
 40
0.0
  9
$DIMTM
 40
0.0
  9
$DIMTXT
 40
0.18
  9
$DIMCEN
 40
0.09
  9
$DIMTSZ
 40
0.0
  9
$DIMTOL
 70
     0
  9
$DIMLIM
 70
     0
  9
$DIMTIH
 70
     1
  9
$DIMTOH
 70
     1
  9
$DIMSE1
 70
     0
  9
$DIMSE2
 70
     0
  9
$DIMTAD
 70
     0
  9
$DIMZIN
 70
     0
  9
$DIMBLK
  1

  9
$DIMASO
 70
     1
  9
$DIMSHO
 70
     1
  9
$DIMPOST
  1

  9
$DIMAPOST
  1

  9
$DIMALT
 70
     0
  9
$DIMALTD
 70
     2
  9
$DIMALTF
 40
25.4
  9
$DIMLFAC
 40
1.0
  9
$DIMTOFL
 70
     0
  9
$DIMTVP
 40
0.0
  9
$DIMTIX
 70
     0
  9
$DIMSOXD
 70
     0
  9
$DIMSAH
 70
     0
  9
$DIMBLK1
  1

  9
$DIMBLK2
  1

  9
$DIMSTYLE
  2
Standard
  9
$DIMCLRD
 70
     0
  9
$DIMCLRE
 70
     0
  9
$DIMCLRT
 70
     0
  9
$DIMTFAC
 40
1.0
  9
$DIMGAP
 40
0.09
  9
$DIMJUST
 70
     0
  9
$DIMSD1
 70
     0
  9
$DIMSD2
 70
     0
  9
$DIMTOLJ
 70
     1
  9
$DIMTZIN
 70
     0
  9
$DIMALTZ
 70
     0
  9
$DIMALTTZ
 70
     0
  9
$DIMUPT
 70
     0
  9
$DIMDEC
 70
     4
  9
$DIMTDEC
 70
     4
  9
$DIMALTU
 70
     2
  9
$DIMALTTD
 70
     2
  9
$DIMTXSTY
  7
Standard
  9
$DIMAUNIT
 70
     0
  9
$DIMADEC
 70
     0
  9
$DIMALTRND
 40
0.0
  9
$DIMAZIN
 70
     0
  9
$DIMDSEP
 70
    46
  9
$DIMATFIT
 70
     3
  9
$DIMFRAC
 70
     0
  9
$DIMLDRBLK
  1

  9
$DIMLUNIT
 70
     2
  9
$DIMLWD
 70
    -2
  9
$DIMLWE
 70
    -2
  9
$DIMTMOVE
 70
     0
  9
$DIMFXL
 40
1.0
  9
$DIMFXLON
 70
     0
  9
$DIMJOGANG
 40
0.7853981633974483
  9
$DIMTFILL
 70
     0
  9
$DIMTFILLCLR
 70
     0
  9
$DIMARCSYM
 70
     0
  9
$DIMLTYPE
  6

  9
$DIMLTEX1
  6

  9
$DIMLTEX2
  6

  9
$DIMTXTDIRECTION
 70
     0
  9
$LUNITS
 70
     2
  9
$LUPREC
 70
     4
  9
$SKETCHINC
 40
0.1
  9
$FILLETRAD
 40
0.5
  9
$AUNITS
 70
     0
  9
$AUPREC
 70
     0
  9
$MENU
  1
.
  9
$ELEVATION
 40
0.0
  9
$PELEVATION
 40
0.0
  9
$THICKNESS
 40
0.0
  9
$LIMCHECK
 70
     0
  9
$CHAMFERA
 40
0.5
  9
$CHAMFERB
 40
0.5
  9
$CHAMFERC
 40
1.0
  9
$CHAMFERD
 40
0.0
  9
$SKPOLY
 70
     0
  9
$TDCREATE
 40
2457917.646423611
  9
$TDUCREATE
 40
2457917.271423611
  9
$TDUPDATE
 40
2457917.646423611
  9
$TDUUPDATE
 40
2457917.271423611
  9
$TDINDWG
 40
0.0000000116
  9
$TDUSRTIMER
 40
0.0000000116
  9
$USRTIMER
 70
     1
  9
$ANGBASE
 50
0.0
  9
$ANGDIR
 70
     0
  9
$PDMODE
 70
     0
  9
$PDSIZE
 40
0.0
  9
$PLINEWID
 40
0.0
  9
$SPLFRAME
 70
     0
  9
$SPLINETYPE
 70
     6
  9
$SPLINESEGS
 70
     8
  9
$HANDSEED
  5
DC
  9
$SURFTAB1
 70
     6
  9
$SURFTAB2
 70
     6
  9
$SURFTYPE
 70
     6
  9
$SURFU
 70
     6
  9
$SURFV
 70
     6
  9
$UCSBASE
  2

  9
$UCSNAME
  2

  9
$UCSORG
 10
0.0
 20
0.0
 30
0.0
  9
$UCSXDIR
 10
1.0
 20
0.0
 30
0.0
  9
$UCSYDIR
 10
0.0
 20
1.0
 30
0.0
  9
$UCSORTHOREF
  2

  9
$UCSORTHOVIEW
 70
     0
  9
$UCSORGTOP
 10
0.0
 20
0.0
 30
0.0
  9
$UCSORGBOTTOM
 10
0.0
 20
0.0
 30
0.0
  9
$UCSORGLEFT
 10
0.0
 20
0.0
 30
0.0
  9
$UCSORGRIGHT
 10
0.0
 20
0.0
 30
0.0
  9
$UCSORGFRONT
 10
0.0
 20
0.0
 30
0.0
  9
$UCSORGBACK
 10
0.0
 20
0.0
 30
0.0
  9
$PUCSBASE
  2

  9
$PUCSNAME
  2

  9
$PUCSORG
 10
0.0
 20
0.0
 30
0.0
  9
$PUCSXDIR
 10
1.0
 20
0.0
 30
0.0
  9
$PUCSYDIR
 10
0.0
 20
1.0
 30
0.0
  9
$PUCSORTHOREF
  2

  9
$PUCSORTHOVIEW
 70
     0
  9
$PUCSORGTOP
 10
0.0
 20
0.0
 30
0.0
  9
$PUCSORGBOTTOM
 10
0.0
 20
0.0
 30
0.0
  9
$PUCSORGLEFT
 10
0.0
 20
0.0
 30
0.0
  9
$PUCSORGRIGHT
 10
0.0
 20
0.0
 30
0.0
  9
$PUCSORGFRONT
 10
0.0
 20
0.0
 30
0.0
  9
$PUCSORGBACK
 10
0.0
 20
0.0
 30
0.0
  9
$USERI1
 70
     0
  9
$USERI2
 70
     0
  9
$USERI3
 70
     0
  9
$USERI4
 70
     0
  9
$USERI5
 70
     0
  9
$USERR1
 40
0.0
  9
$USERR2
 40
0.0
  9
$USERR3
 40
0.0
  9
$USERR4
 40
0.0
  9
$USERR5
 40
0.0
  9
$WORLDVIEW
 70
     1
  9
$SHADEDGE
 70
     3
  9
$SHADEDIF
 70
    70
  9
$TILEMODE
 70
     1
  9
$MAXACTVP
 70
    64
  9
$PINSBASE
 10
0.0
 20
0.0
 30
0.0
  9
$PLIMCHECK
 70
     0
  9
$PEXTMIN
 10
1.000000000000000E+20
 20
1.000000000000000E+20
 30
1.000000000000000E+20
  9
$PEXTMAX
 10
-1.000000000000000E+20
 20
-1.000000000000000E+20
 30
-1.000000000000000E+20
  9
$PLIMMIN
 10
0.0
 20
0.0
  9
$PLIMMAX
 10
12.0
 20
9.0
  9
$UNITMODE
 70
     0
  9
$VISRETAIN
 70
     1
  9
$PLINEGEN
 70
     0
  9
$PSLTSCALE
 70
     1
  9
$TREEDEPTH
 70
  3020
  9
$CMLSTYLE
  2
Standard
  9
$CMLJUST
 70
     0
  9
$CMLSCALE
 40
1.0
  9
$PROXYGRAPHICS
 70
     1
  9
$MEASUREMENT
 70
     0
  9
$CELWEIGHT
370
    -1
  9
$ENDCAPS
280
     0
  9
$JOINSTYLE
280
     0
  9
$LWDISPLAY
290
     1
  9
$INSUNITS
 70
     1
  9
$HYPERLINKBASE
  1

  9
$STYLESHEET
  1

  9
$XEDIT
290
     1
  9
$CEPSNTYPE
380
     0
  9
$PSTYLEMODE
290
     1
  9
$FINGERPRINTGUID
  2
{94293861-F04F-CAE5-734C-2CA6126A85FE}
  9
$VERSIONGUID
  2
{FAEB1C32-E019-11D5-929B-00C0DF256EC4}
  9
$EXTNAMES
290
     1
  9
$PSVPSCALE
 40
0.0
  9
$OLESTARTUP
290
     0
  9
$SORTENTS
280
   127
  9
$INDEXCTL
280
     0
  9
$HIDETEXT
280
     1
  9
$XCLIPFRAME
280
     2
  9
$HALOGAP
280
     0
  9
$OBSCOLOR
 70
   257
  9
$OBSLTYPE
280
     0
  9
$INTERSECTIONDISPLAY
280
     0
  9
$INTERSECTIONCOLOR
 70
   257
  9
$DIMASSOC
280
     2
  9
$PROJECTNAME
  1

  9
$CAMERADISPLAY
290
     0
  9
$LENSLENGTH
 40
50.0
  9
$CAMERAHEIGHT
 40
0.0
  9
$STEPSPERSEC
 40
2.0
  9
$STEPSIZE
 40
6.0
  9
$3DDWFPREC
 40
2.0
  9
$PSOLWIDTH
 40
0.25
  9
$PSOLHEIGHT
 40
4.0
  9
$LOFTANG1
 40
1.570796326794897
  9
$LOFTANG2
 40
1.570796326794897
  9
$LOFTMAG1
 40
0.0
  9
$LOFTMAG2
 40
0.0
  9
$LOFTPARAM
 70
     7
  9
$LOFTNORMALS
280
     1
  9
$LATITUDE
 40
37.795
  9
$LONGITUDE
 40
-122.394
  9
$NORTHDIRECTION
 40
0.0
  9
$TIMEZONE
 70
 -8000
  9
$LIGHTGLYPHDISPLAY
280
     1
  9
$TILEMODELIGHTSYNCH
280
     1
  9
$CMATERIAL
347
3C
  9
$SOLIDHIST
280
     1
  9
$SHOWHIST
280
     1
  9
$DWFFRAME
280
     2
  9
$DGNFRAME
280
     2
  9
$REALWORLDSCALE
290
     1
  9
$INTERFERECOLOR
 62
   256
  9
$CSHADOW
280
     0
  9
$SHADOWPLANELOCATION
 40
0.0
  0
ENDSEC
  0
SECTION
  2
CLASSES
  0
CLASS
  1
ACDBDICTIONARYWDFLT
  2
AcDbDictionaryWithDefault
  3
ObjectDBX Classes
 90
        0
 91
        4
280
     0
281
     0
  0
CLASS
  1
VISUALSTYLE
  2
AcDbVisualStyle
  3
ObjectDBX Classes
 90
     4095
 91
        4
280
     0
281
     0
  0
CLASS
  1
MATERIAL
  2
AcDbMaterial
  3
ObjectDBX Classes
 90
     1153
 91
        4
280
     0
281
     0
  0
CLASS
  1
SUN
  2
AcDbSun
  3
SCENEOE
 90
     1024
 91
        4
280
     0
281
     0
  0
ENDSEC
  0
SECTION
  2
TABLES
  0
TABLE
  2
VPORT
  5
8
330
0
100
AcDbSymbolTable
 70
     1
  0
VPORT
  5
29
330
8
100
AcDbSymbolTableRecord
100
AcDbViewportTableRecord
  2
*Active
 70
     0
 10
0.0
 20
0.0
 11
1.0
 21
1.0
 12
0.0
 22
0.0
 13
0.0
 23
0.0
 14
0.5
 24
0.5
 15
0.5
 25
0.5
 16
0.0
 26
0.0
 36
1.0
 17
91.00082462281999
 27
-128.4993055234307
 37
0.0
 40
256.9986110468615
 41
0.7081814508812795
 42
50.0
 43
0.0
 44
0.0
 50
0.0
 51
0.0
 71
     0
 72
   100
 73
     1
 74
     3
 75
     0
 76
     0
 77
     0
 78
     0
281
     0
 65
     1
110
0.0
120
0.0
130
0.0
111
1.0
121
0.0
131
0.0
112
0.0
122
1.0
132
0.0
 79
     0
146
0.0
 60
     3
 61
     5
292
     1
282
     1
141
0.0
142
0.0
 63
   250
361
3F
  0
ENDTAB
  0
TABLE
  2
LTYPE
  5
5
330
0
100
AcDbSymbolTable
 70
     1
  0
LTYPE
  5
14
330
5
100
AcDbSymbolTableRecord
100
AcDbLinetypeTableRecord
  2
ByBlock
 70
     0
  3

 72
    65
 73
     0
 40
0.0
  0
LTYPE
  5
15
330
5
100
AcDbSymbolTableRecord
100
AcDbLinetypeTableRecord
  2
ByLayer
 70
     0
  3

 72
    65
 73
     0
 40
0.0
  0
LTYPE
  5
16
330
5
100
AcDbSymbolTableRecord
100
AcDbLinetypeTableRecord
  2
Continuous
 70
     0
  3
Solid line
 72
    65
 73
     0
 40
0.0
  0
ENDTAB
  0
TABLE
  2
LAYER
  5
2
330
0
100
AcDbSymbolTable
 70
     2
  0
LAYER
  5
10
330
2
100
AcDbSymbolTableRecord
100
AcDbLayerTableRecord
  2
0
 70
     0
 62
     7
  6
Continuous
370
    -3
390
F
347
3E
  0
LAYER
  5
40
330
2
100
AcDbSymbolTableRecord
100
AcDbLayerTableRecord
  2
_U+30EC_U+30A4_U+30E4_U+30FC 1
 70
     0
 62
     7
  6
Continuous
370
    -3
390
F
347
3E
  0
ENDTAB
  0
TABLE
  2
STYLE
  5
3
330
0
100
AcDbSymbolTable
 70
     1
  0
STYLE
  5
11
330
3
100
AcDbSymbolTableRecord
100
AcDbTextStyleTableRecord
  2
Standard
 70
     0
 40
0.0
 41
1.0
 50
0.0
 71
     0
 42
0.2
  3
txt
  4

  0
ENDTAB
  0
TABLE
  2
VIEW
  5
6
330
0
100
AcDbSymbolTable
 70
     0
  0
ENDTAB
  0
TABLE
  2
UCS
  5
7
330
0
100
AcDbSymbolTable
 70
     0
  0
ENDTAB
  0
TABLE
  2
APPID
  5
9
330
0
100
AcDbSymbolTable
 70
     1
  0
APPID
  5
12
330
9
100
AcDbSymbolTableRecord
100
AcDbRegAppTableRecord
  2
ACAD
 70
     0
  0
ENDTAB
  0
TABLE
  2
DIMSTYLE
  5
A
330
0
100
AcDbSymbolTable
 70
     1
100
AcDbDimStyleTable
  0
DIMSTYLE
105
27
330
A
100
AcDbSymbolTableRecord
100
AcDbDimStyleTableRecord
  2
Standard
 70
     0
178
     0
340
11
  0
ENDTAB
  0
TABLE
  2
BLOCK_RECORD
  5
1
330
0
100
AcDbSymbolTable
 70
     8
  0
BLOCK_RECORD
  5
1F
330
1
100
AcDbSymbolTableRecord
100
AcDbBlockTableRecord
  2
*Model_Space
340
22
 70
     0
280
     1
281
     0
  0
BLOCK_RECORD
  5
1B
330
1
100
AcDbSymbolTableRecord
100
AcDbBlockTableRecord
  2
*Paper_Space
340
1E
 70
     0
280
     1
281
     0
  0
BLOCK_RECORD
  5
23
330
1
100
AcDbSymbolTableRecord
100
AcDbBlockTableRecord
  2
*Paper_Space0
340
26
 70
     0
280
     1
281
     0
  0
BLOCK_RECORD
  5
41
330
1
100
AcDbSymbolTableRecord
100
AcDbBlockTableRecord
  2
block 2
340
0
102
{BLKREFS
331
42
102
}
 70
     0
280
     1
281
     0
  0
BLOCK_RECORD
  5
49
330
1
100
AcDbSymbolTableRecord
100
AcDbBlockTableRecord
  2
block 3
340
0
102
{BLKREFS
331
4A
102
}
 70
     0
280
     1
281
     0
  0
BLOCK_RECORD
  5
50
330
1
100
AcDbSymbolTableRecord
100
AcDbBlockTableRecord
  2
block 4
340
0
102
{BLKREFS
331
51
102
}
 70
     0
280
     1
281
     0
  0
BLOCK_RECORD
  5
90
330
1
100
AcDbSymbolTableRecord
100
AcDbBlockTableRecord
  2
block 5
340
0
102
{BLKREFS
331
91
102
}
 70
     0
280
     1
281
     0
  0
BLOCK_RECORD
  5
98
330
1
100
AcDbSymbolTableRecord
100
AcDbBlockTableRecord
  2
block 6
340
0
102
{BLKREFS
331
99
102
}
 70
     0
280
     1
281
     0
  0
BLOCK_RECORD
  5
A0
330
1
100
AcDbSymbolTableRecord
100
AcDbBlockTableRecord
  2
block 7
340
0
102
{BLKREFS
331
A1
102
}
 70
     0
280
     1
281
     0
  0
BLOCK_RECORD
  5
BC
330
1
100
AcDbSymbolTableRecord
100
AcDbBlockTableRecord
  2
block 8
340
0
102
{BLKREFS
331
BD
102
}
 70
     0
280
     1
281
     0
  0
ENDTAB
  0
ENDSEC
  0
SECTION
  2
BLOCKS
  0
BLOCK
  5
20
330
1F
100
AcDbEntity
  8
0
100
AcDbBlockBegin
  2
*Model_Space
 70
     0
 10
0.0
 20
0.0
 30
0.0
  3
*Model_Space
  1

  0
ENDBLK
  5
21
330
1F
100
AcDbEntity
  8
0
100
AcDbBlockEnd
  0
BLOCK
  5
1C
330
1B
100
AcDbEntity
 67
     1
  8
0
100
AcDbBlockBegin
  2
*Paper_Space
 70
     0
 10
0.0
 20
0.0
 30
0.0
  3
*Paper_Space
  1

  0
ENDBLK
  5
1D
330
1B
100
AcDbEntity
 67
     1
  8
0
100
AcDbBlockEnd
  0
BLOCK
  5
24
330
23
100
AcDbEntity
  8
0
100
AcDbBlockBegin
  2
*Paper_Space0
 70
     0
 10
0.0
 20
0.0
 30
0.0
  3
*Paper_Space0
  1

  0
ENDBLK
  5
25
330
23
100
AcDbEntity
  8
0
100
AcDbBlockEnd
  0
BLOCK
  5
43
330
41
100
AcDbEntity
  8
0
100
AcDbBlockBegin
  2
block 2
 70
     0
 10
0.0
 20
0.0
 30
0.0
  3
block 2
  1

  0
SPLINE
  5
45
330
41
100
AcDbEntity
  8
_U+30EC_U+30A4_U+30E4_U+30FC 1
370
     0
100
AcDbSpline
210
0.0
220
0.0
230
1.0
 70
    11
 71
     3
 72
    47
 73
    43
 74
     0
 42
0.0000000001
 43
0.0000000001
 12
1.0
 22
0.0
 32
0.0
 13
1.0
 23
0.0
 33
0.0
 40
0.0
 40
0.0
 40
0.0
 40
0.0
 40
1.0
 40
1.0
 40
1.0
 40
2.0
 40
2.0
 40
2.0
 40
3.0
 40
3.0
 40
3.0
 40
4.0
 40
4.0
 40
4.0
 40
5.0
 40
5.0
 40
5.0
 40
6.0
 40
6.0
 40
6.0
 40
7.0
 40
7.0
 40
7.0
 40
8.0
 40
8.0
 40
8.0
 40
9.0
 40
9.0
 40
9.0
 40
10.0
 40
10.0
 40
10.0
 40
11.0
 40
11.0
 40
11.0
 40
12.0
 40
12.0
 40
12.0
 40
13.0
 40
13.0
 40
13.0
 40
14.0
 40
14.0
 40
14.0
 40
14.0
 10
90.57639997735605
 20
-121.7196927473477
 30
0.0
 10
90.57639997735605
 20
-121.7196927473477
 30
0.0
 10
87.13681664488261
 20
-123.7040677468516
 30
0.0
 10
87.13681664488261
 20
-123.7040677468516
 30
0.0
 10
87.13681664488261
 20
-123.7040677468516
 30
0.0
 10
86.12258053402506
 20
-123.8804566356964
 30
0.0
 10
86.21077497844746
 20
-126.0412205240451
 30
0.0
 10
86.21077497844746
 20
-126.0412205240451
 30
0.0
 10
86.21077497844746
 20
-133.802331633216
 30
0.0
 10
86.21077497844746
 20
-133.802331633216
 30
0.0
 10
86.21077497844746
 20
-133.802331633216
 30
0.0
 10
85.94619164518026
 20
-135.2134427439743
 30
0.0
 10
87.75417775583938
 20
-135.8749010771423
 30
0.0
 10
87.75417775583938
 20
-135.8749010771423
 30
0.0
 10
93.88369164319589
 20
-139.4908732984605
 30
0.0
 10
93.88369164319589
 20
-139.4908732984605
 30
0.0
 10
93.88369164319589
 20
-139.4908732984605
 30
0.0
 10
98.55799719758286
 20
-136.712748299155
 30
0.0
 10
98.55799719758286
 20
-136.712748299155
 30
0.0
 10
98.55799719758286
 20
-136.712748299155
 30
0.0
 10
98.55799719758286
 20
-136.3158732992542
 30
0.0
 10
98.55799719758286
 20
-136.3158732992542
 30
0.0
 10
98.55799719758286
 20
-136.3158732992542
 30
0.0
 10
91.5024416437912
 20
-132.1266371891904
 30
0.0
 10
91.5024416437912
 20
-132.1266371891904
 30
0.0
 10
91.5024416437912
 20
-132.1266371891904
 30
0.0
 10
91.54653886600241
 20
-127.4523316348035
 30
0.0
 10
91.54653886600241
 20
-127.4523316348035
 30
0.0
 10
91.54653886600241
 20
-127.4523316348035
 30
0.0
 10
93.79549719877349
 20
-128.7311510789282
 30
0.0
 10
93.79549719877349
 20
-128.7311510789282
 30
0.0
 10
93.79549719877349
 20
-128.7311510789282
 30
0.0
 10
98.60209441979407
 20
-125.9971233018339
 30
0.0
 10
98.60209441979407
 20
-125.9971233018339
 30
0.0
 10
98.60209441979407
 20
-125.9971233018339
 30
0.0
 10
98.55799719758286
 20
-125.6443455241444
 30
0.0
 10
98.55799719758286
 20
-125.6443455241444
 30
0.0
 10
98.55799719758286
 20
-125.6443455241444
 30
0.0
 10
91.89931664369199
 20
-121.4992066362917
 30
0.0
 10
91.89931664369199
 20
-121.4992066362917
 30
0.0
 10
91.89931664369199
 20
-121.4992066362917
 30
0.0
 10
91.01737219946803
 20
-121.2787205252358
 30
0.0
 10
90.57639997735605
 20
-121.7196927473477
 30
0.0
  0
SPLINE
  5
46
330
41
100
AcDbEntity
  8
_U+30EC_U+30A4_U+30E4_U+30FC 1
 62
   179
420
  2234388
370
     9
100
AcDbSpline
210
0.0
220
0.0
230
1.0
 70
    11
 71
     3
 72
    47
 73
    43
 74
     0
 42
0.0000000001
 43
0.0000000001
 12
1.0
 22
0.0
 32
0.0
 13
1.0
 23
0.0
 33
0.0
 40
0.0
 40
0.0
 40
0.0
 40
0.0
 40
1.0
 40
1.0
 40
1.0
 40
2.0
 40
2.0
 40
2.0
 40
3.0
 40
3.0
 40
3.0
 40
4.0
 40
4.0
 40
4.0
 40
5.0
 40
5.0
 40
5.0
 40
6.0
 40
6.0
 40
6.0
 40
7.0
 40
7.0
 40
7.0
 40
8.0
 40
8.0
 40
8.0
 40
9.0
 40
9.0
 40
9.0
 40
10.0
 40
10.0
 40
10.0
 40
11.0
 40
11.0
 40
11.0
 40
12.0
 40
12.0
 40
12.0
 40
13.0
 40
13.0
 40
13.0
 40
14.0
 40
14.0
 40
14.0
 40
14.0
 10
98.61655830867907
 20
-126.0267566351601
 30
0.0
 10
98.61655830867907
 20
-126.0267566351601
 30
0.0
 10
98.61655830867907
 20
-125.6739788574705
 30
0.0
 10
98.61655830867907
 20
-125.6739788574705
 30
0.0
 10
98.61655830867907
 20
-125.6739788574705
 30
0.0
 10
92.09016942142179
 20
-121.6755955251365
 30
0.0
 10
92.09016942142179
 20
-121.6755955251365
 30
0.0
 10
92.09016942142179
 20
-121.6755955251365
 30
0.0
 10
91.4142471993688
 20
-121.1760621919284
 30
0.0
 10
90.62049719956724
 20
-121.6463149695884
 30
0.0
 10
90.62049719956724
 20
-121.6463149695884
 30
0.0
 10
86.97489164492283
 20
-123.792262191274
 30
0.0
 10
86.97489164492283
 20
-123.792262191274
 30
0.0
 10
86.97489164492283
 20
-123.792262191274
 30
0.0
 10
86.29896942286985
 20
-123.998284413445
 30
0.0
 10
86.26933608954366
 20
-124.9684233020914
 30
0.0
 10
86.26933608954366
 20
-124.9684233020914
 30
0.0
 10
86.26933608954366
 20
-134.0817316331459
 30
0.0
 10
86.26933608954366
 20
-134.0817316331459
 30
0.0
 10
86.26933608954366
 20
-134.0817316331459
 30
0.0
 10
86.18145696799452
 20
-134.9640288551476
 30
0.0
 10
86.91633053382662
 20
-135.3753677439341
 30
0.0
 10
86.91633053382662
 20
-135.3753677439341
 30
0.0
 10
93.82477775432127
 20
-139.4908732984605
 30
0.0
 10
93.82477775432127
 20
-139.4908732984605
 30
0.0
 10
93.82477775432127
 20
-139.4908732984605
 30
0.0
 10
98.52836386425669
 20
-136.7275649658178
 30
0.0
 10
98.52836386425669
 20
-136.7275649658178
 30
0.0
 10
98.52836386425669
 20
-136.7275649658178
 30
0.0
 10
98.52836386425669
 20
-136.257312188158
 30
0.0
 10
98.52836386425669
 20
-136.257312188158
 30
0.0
 10
98.52836386425669
 20
-136.257312188158
 30
0.0
 10
91.44352775491659
 20
-132.1414538558532
 30
0.0
 10
91.44352775491659
 20
-132.1414538558532
 30
0.0
 10
91.44352775491659
 20
-132.1414538558532
 30
0.0
 10
91.44352775491659
 20
-127.3200399681699
 30
0.0
 10
91.44352775491659
 20
-127.3200399681699
 30
0.0
 10
91.44352775491659
 20
-127.3200399681699
 30
0.0
 10
93.79549719877349
 20
-128.7311510789282
 30
0.0
 10
93.79549719877349
 20
-128.7311510789282
 30
0.0
 10
93.79549719877349
 20
-128.7311510789282
 30
0.0
 10
98.61655830867907
 20
-126.0267566351601
 30
0.0
 10
98.61655830867907
 20
-126.0267566351601
 30
0.0
  0
SPLINE
  5
47
330
41
100
AcDbEntity
  8
_U+30EC_U+30A4_U+30E4_U+30FC 1
 62
   179
420
  2234388
370
     9
100
AcDbSpline
210
0.0
220
0.0
230
1.0
 70
     8
 71
     3
 72
    23
 73
    19
 74
     0
 42
0.0000000001
 43
0.0000000001
 12
1.0
 22
0.0
 32
0.0
 13
1.0
 23
0.0
 33
0.0
 40
0.0
 40
0.0
 40
0.0
 40
0.0
 40
1.0
 40
1.0
 40
1.0
 40
2.0
 40
2.0
 40
2.0
 40
3.0
 40
3.0
 40
3.0
 40
4.0
 40
4.0
 40
4.0
 40
5.0
 40
5.0
 40
5.0
 40
6.0
 40
6.0
 40
6.0
 40
6.0
 10
98.52836386425669
 20
-136.3455066325804
 30
0.0
 10
98.52836386425669
 20
-136.3455066325804
 30
0.0
 10
93.82477775432127
 20
-139.0206205208001
 30
0.0
 10
93.82477775432127
 20
-139.0206205208001
 30
0.0
 10
93.82477775432127
 20
-139.0206205208001
 30
0.0
 10
86.97489164492283
 20
-134.9929566329183
 30
0.0
 10
86.97489164492283
 20
-134.9929566329183
 30
0.0
 10
86.97489164492283
 20
-134.9929566329183
 30
0.0
 10
86.62211386723325
 20
-134.8165677440735
 30
0.0
 10
86.59283331168514
 20
-134.1110121886944
 30
0.0
 10
86.59283331168514
 20
-134.1110121886944
 30
0.0
 10
86.59283331168514
 20
-125.0858983020619
 30
0.0
 10
86.59283331168514
 20
-125.0858983020619
 30
0.0
 10
86.59283331168514
 20
-125.0858983020619
 30
0.0
 10
86.56355275613704
 20
-124.2925010800381
 30
0.0
 10
87.06308608934522
 20
-124.7038399688242
 30
0.0
 10
87.06308608934522
 20
-124.7038399688242
 30
0.0
 10
91.5024416437912
 20
-127.3496733014961
 30
0.0
 10
91.5024416437912
 20
-127.3496733014961
 30
0.0
  0
SPLINE
  5
48
330
41
100
AcDbEntity
  8
_U+30EC_U+30A4_U+30E4_U+30FC 1
 62
   179
420
  2234388
370
     9
100
AcDbSpline
210
0.0
220
0.0
230
1.0
 70
     8
 71
     3
 72
    14
 73
    10
 74
     0
 42
0.0000000001
 43
0.0000000001
 12
1.0
 22
0.0
 32
0.0
 13
1.0
 23
0.0
 33
0.0
 40
0.0
 40
0.0
 40
0.0
 40
0.0
 40
1.0
 40
1.0
 40
1.0
 40
2.0
 40
2.0
 40
2.0
 40
3.0
 40
3.0
 40
3.0
 40
3.0
 10
86.44572497838845
 20
-124.2921483022603
 30
0.0
 10
86.44572497838845
 20
-124.2921483022603
 30
0.0
 10
86.76922220052994
 20
-123.9686510801188
 30
0.0
 10
87.5040583114572
 20
-124.4685371911051
 30
0.0
 10
87.5040583114572
 20
-124.4685371911051
 30
0.0
 10
93.8540583098697
 20
-128.3490927456905
 30
0.0
 10
93.8540583098697
 20
-128.3490927456905
 30
0.0
 10
93.8540583098697
 20
-128.3490927456905
 30
0.0
 10
98.61655830867907
 20
-125.6443455241444
 30
0.0
 10
98.61655830867907
 20
-125.6443455241444
 30
0.0
  0
INSERT
  5
4A
330
41
100
AcDbEntity
  8
_U+30EC_U+30A4_U+30E4_U+30FC 1
100
AcDbBlockReference
  2
block 3
 10
0.0
 20
0.0
 30
0.0
  0
INSERT
  5
51
330
41
100
AcDbEntity
  8
_U+30EC_U+30A4_U+30E4_U+30FC 1
100
AcDbBlockReference
  2
block 4
 10
0.0
 20
0.0
 30
0.0
  0
POLYLINE
  5
57
330
41
100
AcDbEntity
  8
_U+30EC_U+30A4_U+30E4_U+30FC 1
 62
   179
420
  2234388
370
     9
100
AcDb2dPolyline
 66
     1
 10
0.0
 20
0.0
 30
0.0
  0
VERTEX
  5
58
330
57
100
AcDbEntity
  8
_U+30EC_U+30A4_U+30E4_U+30FC 1
 62
   179
420
  2234388
370
     9
100
AcDbVertex
100
AcDb2dVertex
 10
86.73994164498183
 20
-134.5816177441325
 30
0.0
  0
VERTEX
  5
59
330
57
100
AcDbEntity
  8
_U+30EC_U+30A4_U+30E4_U+30FC 1
 62
   179
420
  2234388
370
     9
100
AcDbVertex
100
AcDb2dVertex
 10
91.14966386610162
 20
-132.1414538558532
 30
0.0
  0
SEQEND
  5
5A
330
57
100
AcDbEntity
  8
_U+30EC_U+30A4_U+30E4_U+30FC 1
 62
   179
420
  2234388
370
     9
  0
POLYLINE
  5
5B
330
41
100
AcDbEntity
  8
_U+30EC_U+30A4_U+30E4_U+30FC 1
 62
   179
420
  2234388
370
     9
100
AcDb2dPolyline
 66
     1
 10
0.0
 20
0.0
 30
0.0
  0
VERTEX
  5
5C
330
5B
100
AcDbEntity
  8
_U+30EC_U+30A4_U+30E4_U+30FC 1
 62
   179
420
  2234388
370
     9
100
AcDbVertex
100
AcDb2dVertex
 10
86.35753053396606
 20
-119.999901081111
 30
0.0
  0
VERTEX
  5
5D
330
5B
100
AcDbEntity
  8
_U+30EC_U+30A4_U+30E4_U+30FC 1
 62
   179
420
  2234388
370
     9
100
AcDbVertex
100
AcDb2dVertex
 10
86.35753053396606
 20
-123.0574260803468
 30
0.0
  0
SEQEND
  5
5E
330
5B
100
AcDbEntity
  8
_U+30EC_U+30A4_U+30E4_U+30FC 1
 62
   179
420
  2234388
370
     9
  0
POLYLINE
  5
5F
330
41
100
AcDbEntity
  8
_U+30EC_U+30A4_U+30E4_U+30FC 1
 62
   179
420
  2234388
370
     9
100
AcDb2dPolyline
 66
     1
 10
0.0
 20
0.0
 30
0.0
  0
VERTEX
  5
60
330
5F
100
AcDbEntity
  8
_U+30EC_U+30A4_U+30E4_U+30FC 1
 62
   179
420
  2234388
370
     9
100
AcDbVertex
100
AcDb2dVertex
 10
86.38716386729224
 20
-121.4699260807436
 30
0.0
  0
VERTEX
  5
61
330
5F
100
AcDbEntity
  8
_U+30EC_U+30A4_U+30E4_U+30FC 1
 62
   179
420
  2234388
370
     9
100
AcDbVertex
100
AcDb2dVertex
 10
87.2691083115162
 20
-120.9114788586612
 30
0.0
  0
SEQEND
  5
62
330
5F
100
AcDbEntity
  8
_U+30EC_U+30A4_U+30E4_U+30FC 1
 62
   179
420
  2234388
370
     9
  0
POLYLINE
  5
63
330
41
100
AcDbEntity
  8
_U+30EC_U+30A4_U+30E4_U+30FC 1
 62
   179
420
  2234388
370
     9
100
AcDb2dPolyline
 66
     1
 10
0.0
 20
0.0
 30
0.0
  0
VERTEX
  5
64
330
63
100
AcDbEntity
  8
_U+30EC_U+30A4_U+30E4_U+30FC 1
 62
   179
420
  2234388
370
     9
100
AcDbVertex
100
AcDb2dVertex
 10
90.29699997742577
 20
-119.2650649701837
 30
0.0
  0
VERTEX
  5
65
330
63
100
AcDbEntity
  8
_U+30EC_U+30A4_U+30E4_U+30FC 1
 62
   179
420
  2234388
370
     9
100
AcDbVertex
100
AcDb2dVertex
 10
91.09074997722733
 20
-118.7358983036494
 30
0.0
  0
VERTEX
  5
66
330
63
100
AcDbEntity
  8
_U+30EC_U+30A4_U+30E4_U+30FC 1
 62
   179
420
  2234388
370
     9
100
AcDbVertex
100
AcDb2dVertex
 10
93.6191083099287
 20
-120.2644844143782
 30
0.0
  0
SEQEND
  5
67
330
63
100
AcDbEntity
  8
_U+30EC_U+30A4_U+30E4_U+30FC 1
 62
   179
420
  2234388
370
     9
  0
POLYLINE
  5
68
330
41
100
AcDbEntity
  8
_U+30EC_U+30A4_U+30E4_U+30FC 1
 62
   179
420
  2234388
370
     9
100
AcDb2dPolyline
 66
     1
 10
0.0
 20
0.0
 30
0.0
  0
VERTEX
  5
69
330
68
100
AcDbEntity
  8
_U+30EC_U+30A4_U+30E4_U+30FC 1
 62
   179
420
  2234388
370
     9
100
AcDbVertex
100
AcDb2dVertex
 10
91.12003053277543
 20
-117.324787192891
 30
0.0
  0
VERTEX
  5
6A
330
68
100
AcDbEntity
  8
_U+30EC_U+30A4_U+30E4_U+30FC 1
 62
   179
420
  2234388
370
     9
100
AcDbVertex
100
AcDb2dVertex
 10
91.12003053277543
 20
-120.1762899699558
 30
0.0
  0
SEQEND
  5
6B
330
68
100
AcDbEntity
  8
_U+30EC_U+30A4_U+30E4_U+30FC 1
 62
   179
420
  2234388
370
     9
  0
POLYLINE
  5
6C
330
41
100
AcDbEntity
  8
_U+30EC_U+30A4_U+30E4_U+30FC 1
 62
   179
420
  2234388
370
     9
100
AcDb2dPolyline
 66
     1
 10
0.0
 20
0.0
 30
0.0
  0
VERTEX
  5
6D
330
6C
100
AcDbEntity
  8
_U+30EC_U+30A4_U+30E4_U+30FC 1
 62
   179
420
  2234388
370
     9
100
AcDbVertex
100
AcDb2dVertex
 10
96.47061108699316
 20
-121.9698121917299
 30
0.0
  0
VERTEX
  5
6E
330
6C
100
AcDbEntity
  8
_U+30EC_U+30A4_U+30E4_U+30FC 1
 62
   179
420
  2234388
370
     9
100
AcDbVertex
100
AcDb2dVertex
 10
98.67547219755305
 20
-123.1456205247692
 30
0.0
  0
SEQEND
  5
6F
330
6C
100
AcDbEntity
  8
_U+30EC_U+30A4_U+30E4_U+30FC 1
 62
   179
420
  2234388
370
     9
  0
POLYLINE
  5
70
330
41
100
AcDbEntity
  8
_U+30EC_U+30A4_U+30E4_U+30FC 1
 62
   179
420
  2234388
370
     9
100
AcDb2dPolyline
 66
     1
 10
0.0
 20
0.0
 30
0.0
  0
VERTEX
  5
71
330
70
100
AcDbEntity
  8
_U+30EC_U+30A4_U+30E4_U+30FC 1
 62
   179
420
  2234388
370
     9
100
AcDbVertex
100
AcDb2dVertex
 10
98.64619164200526
 20
-121.6463149695884
 30
0.0
  0
VERTEX
  5
72
330
70
100
AcDbEntity
  8
_U+30EC_U+30A4_U+30E4_U+30FC 1
 62
   179
420
  2234388
370
     9
100
AcDbVertex
100
AcDb2dVertex
 10
98.64619164200526
 20
-124.7920344132466
 30
0.0
  0
SEQEND
  5
73
330
70
100
AcDbEntity
  8
_U+30EC_U+30A4_U+30E4_U+30FC 1
 62
   179
420
  2234388
370
     9
  0
POLYLINE
  5
74
330
41
100
AcDbEntity
  8
_U+30EC_U+30A4_U+30E4_U+30FC 1
 62
   179
420
  2234388
370
     9
100
AcDb2dPolyline
 66
     1
 10
0.0
 20
0.0
 30
0.0
  0
VERTEX
  5
75
330
74
100
AcDbEntity
  8
_U+30EC_U+30A4_U+30E4_U+30FC 1
 62
   179
420
  2234388
370
     9
100
AcDbVertex
100
AcDb2dVertex
 10
99.41030830848064
 20
-126.0560371907082
 30
0.0
  0
VERTEX
  5
76
330
74
100
AcDbEntity
  8
_U+30EC_U+30A4_U+30E4_U+30FC 1
 62
   179
420
  2234388
370
     9
100
AcDbVertex
100
AcDb2dVertex
 10
101.9093860856339
 20
-127.555342745889
 30
0.0
  0
SEQEND
  5
77
330
74
100
AcDbEntity
  8
_U+30EC_U+30A4_U+30E4_U+30FC 1
 62
   179
420
  2234388
370
     9
  0
POLYLINE
  5
78
330
41
100
AcDbEntity
  8
_U+30EC_U+30A4_U+30E4_U+30FC 1
 62
   179
420
  2234388
370
     9
100
AcDb2dPolyline
 66
     1
 10
0.0
 20
0.0
 30
0.0
  0
VERTEX
  5
79
330
78
100
AcDbEntity
  8
_U+30EC_U+30A4_U+30E4_U+30FC 1
 62
   179
420
  2234388
370
     9
100
AcDbVertex
100
AcDb2dVertex
 10
100.7039444192682
 20
-126.8497871905098
 30
0.0
  0
VERTEX
  5
7A
330
78
100
AcDbEntity
  8
_U+30EC_U+30A4_U+30E4_U+30FC 1
 62
   179
420
  2234388
370
     9
100
AcDbVertex
100
AcDb2dVertex
 10
100.7039444192682
 20
-131.2302288560815
 30
0.0
  0
SEQEND
  5
7B
330
78
100
AcDbEntity
  8
_U+30EC_U+30A4_U+30E4_U+30FC 1
 62
   179
420
  2234388
370
     9
  0
POLYLINE
  5
7C
330
41
100
AcDbEntity
  8
_U+30EC_U+30A4_U+30E4_U+30FC 1
 62
   179
420
  2234388
370
     9
100
AcDb2dPolyline
 66
     1
 10
0.0
 20
0.0
 30
0.0
  0
VERTEX
  5
7D
330
7C
100
AcDbEntity
  8
_U+30EC_U+30A4_U+30E4_U+30FC 1
 62
   179
420
  2234388
370
     9
100
AcDbVertex
100
AcDb2dVertex
 10
99.41030830848064
 20
-137.1685371879298
 30
0.0
  0
VERTEX
  5
7E
330
7C
100
AcDbEntity
  8
_U+30EC_U+30A4_U+30E4_U+30FC 1
 62
   179
420
  2234388
370
     9
100
AcDbVertex
100
AcDb2dVertex
 10
101.7033638634629
 20
-138.5207344098141
 30
0.0
  0
SEQEND
  5
7F
330
7C
100
AcDbEntity
  8
_U+30EC_U+30A4_U+30E4_U+30FC 1
 62
   179
420
  2234388
370
     9
  0
POLYLINE
  5
80
330
41
100
AcDbEntity
  8
_U+30EC_U+30A4_U+30E4_U+30FC 1
 62
   179
420
  2234388
370
     9
100
AcDb2dPolyline
 66
     1
 10
0.0
 20
0.0
 30
0.0
  0
VERTEX
  5
81
330
80
100
AcDbEntity
  8
_U+30EC_U+30A4_U+30E4_U+30FC 1
 62
   179
420
  2234388
370
     9
100
AcDbVertex
100
AcDb2dVertex
 10
100.6450305303942
 20
-137.9033732988574
 30
0.0
  0
VERTEX
  5
82
330
80
100
AcDbEntity
  8
_U+30EC_U+30A4_U+30E4_U+30FC 1
 62
   179
420
  2234388
370
     9
100
AcDbVertex
100
AcDb2dVertex
 10
100.6746638637204
 20
-133.7582344110048
 30
0.0
  0
SEQEND
  5
83
330
80
100
AcDbEntity
  8
_U+30EC_U+30A4_U+30E4_U+30FC 1
 62
   179
420
  2234388
370
     9
  0
POLYLINE
  5
84
330
41
100
AcDbEntity
  8
_U+30EC_U+30A4_U+30E4_U+30FC 1
 62
   179
420
  2234388
370
     9
100
AcDb2dPolyline
 66
     1
 10
0.0
 20
0.0
 30
0.0
  0
VERTEX
  5
85
330
84
100
AcDbEntity
  8
_U+30EC_U+30A4_U+30E4_U+30FC 1
 62
   179
420
  2234388
370
     9
100
AcDbVertex
100
AcDb2dVertex
 10
92.32547219914055
 20
-136.69828441027
 30
0.0
  0
VERTEX
  5
86
330
84
100
AcDbEntity
  8
_U+30EC_U+30A4_U+30E4_U+30FC 1
 62
   179
420
  2234388
370
     9
100
AcDbVertex
100
AcDb2dVertex
 10
91.61991664376139
 20
-136.2865927437058
 30
0.0
  0
VERTEX
  5
87
330
84
100
AcDbEntity
  8
_U+30EC_U+30A4_U+30E4_U+30FC 1
 62
   179
420
  2234388
370
     9
100
AcDbVertex
100
AcDb2dVertex
 10
91.913780532577
 20
-136.69828441027
 30
0.0
  0
VERTEX
  5
88
330
84
100
AcDbEntity
  8
_U+30EC_U+30A4_U+30E4_U+30FC 1
 62
   179
420
  2234388
370
     9
100
AcDbVertex
100
AcDb2dVertex
 10
91.70811108818378
 20
-137.0214288546334
 30
0.0
  0
VERTEX
  5
89
330
84
100
AcDbEntity
  8
_U+30EC_U+30A4_U+30E4_U+30FC 1
 62
   179
420
  2234388
370
     9
100
AcDbVertex
100
AcDb2dVertex
 10
92.32547219914055
 20
-136.69828441027
 30
0.0
  0
SEQEND
  5
8B
330
84
100
AcDbEntity
  8
_U+30EC_U+30A4_U+30E4_U+30FC 1
 62
   179
420
  2234388
370
     9
  0
HATCH
  5
8A
330
41
100
AcDbEntity
  8
_U+30EC_U+30A4_U+30E4_U+30FC 1
 62
   179
420
  2234388
100
AcDbHatch
 10
0.0
 20
0.0
 30
0.0
210
0.0
220
0.0
230
1.0
  2
SOLID
 70
     1
 71
     0
 91
        1
 92
        1
 93
        4
 72
     1
 10
92.32547219914055
 20
-136.69828441027
 11
91.61991664376139
 21
-136.2865927437058
 72
     1
 10
91.61991664376139
 20
-136.2865927437058
 11
91.913780532577
 21
-136.69828441027
 72
     1
 10
91.913780532577
 20
-136.69828441027
 11
91.70811108818378
 21
-137.0214288546334
 72
     1
 10
91.70811108818378
 20
-137.0214288546334
 11
92.32547219914055
 21
-136.69828441027
 97
        0
 75
     2
 76
     1
 98
        0
  0
POLYLINE
  5
8C
330
41
100
AcDbEntity
  8
_U+30EC_U+30A4_U+30E4_U+30FC 1
 62
   179
420
  2234388
370
     9
100
AcDb2dPolyline
 66
     1
 10
0.0
 20
0.0
 30
0.0
  0
VERTEX
  5
8D
330
8C
100
AcDbEntity
  8
_U+30EC_U+30A4_U+30E4_U+30FC 1
 62
   179
420
  2234388
370
     9
100
AcDbVertex
100
AcDb2dVertex
 10
80.59561109096222
 20
-136.6686510769438
 30
0.0
  0
VERTEX
  5
8E
330
8C
100
AcDbEntity
  8
_U+30EC_U+30A4_U+30E4_U+30FC 1
 62
   179
420
  2234388
370
     9
100
AcDbVertex
100
AcDb2dVertex
 10
91.913780532577
 20
-136.69828441027
 30
0.0
  0
SEQEND
  5
8F
330
8C
100
AcDbEntity
  8
_U+30EC_U+30A4_U+30E4_U+30FC 1
 62
   179
420
  2234388
370
     9
  0
INSERT
  5
91
330
41
100
AcDbEntity
  8
_U+30EC_U+30A4_U+30E4_U+30FC 1
100
AcDbBlockReference
  2
block 5
 10
0.0
 20
0.0
 30
0.0
  0
INSERT
  5
99
330
41
100
AcDbEntity
  8
_U+30EC_U+30A4_U+30E4_U+30FC 1
100
AcDbBlockReference
  2
block 6
 10
0.0
 20
0.0
 30
0.0
  0
INSERT
  5
A1
330
41
100
AcDbEntity
  8
_U+30EC_U+30A4_U+30E4_U+30FC 1
100
AcDbBlockReference
  2
block 7
 10
0.0
 20
0.0
 30
0.0
  0
INSERT
  5
BD
330
41
100
AcDbEntity
  8
_U+30EC_U+30A4_U+30E4_U+30FC 1
100
AcDbBlockReference
  2
block 8
 10
0.0
 20
0.0
 30
0.0
  0
SPLINE
  5
D0
330
41
100
AcDbEntity
  8
_U+30EC_U+30A4_U+30E4_U+30FC 1
370
     0
100
AcDbSpline
210
0.0
220
0.0
230
1.0
 70
    11
 71
     3
 72
    17
 73
    13
 74
     0
 42
0.0000000001
 43
0.0000000001
 12
1.0
 22
0.0
 32
0.0
 13
1.0
 23
0.0
 33
0.0
 40
0.0
 40
0.0
 40
0.0
 40
0.0
 40
1.0
 40
1.0
 40
1.0
 40
2.0
 40
2.0
 40
2.0
 40
3.0
 40
3.0
 40
3.0
 40
4.0
 40
4.0
 40
4.0
 40
4.0
 10
100.9743813128178
 20
-126.8966360793871
 30
0.0
 10
100.9743813128178
 20
-127.028257468243
 30
0.0
 10
100.8679129822007
 20
-127.1346905237719
 30
0.0
 10
100.7363268744466
 20
-127.1346905237719
 30
0.0
 10
100.6050582666845
 20
-127.1346905237719
 30
0.0
 10
100.4982749748756
 20
-127.028257468243
 30
0.0
 10
100.4982749748756
 20
-126.8966360793871
 30
0.0
 10
100.4982749748756
 20
-126.7650499683087
 30
0.0
 10
100.6050582666845
 20
-126.6585816350019
 30
0.0
 10
100.7363268744466
 20
-126.6585816350019
 30
0.0
 10
100.8679129822007
 20
-126.6585816350019
 30
0.0
 10
100.9743813128178
 20
-126.7650499683087
 30
0.0
 10
100.9743813128178
 20
-126.8966360793871
 30
0.0
  0
HATCH
  5
D1
330
41
100
AcDbEntity
  8
_U+30EC_U+30A4_U+30E4_U+30FC 1
 62
   179
420
  2234388
100
AcDbHatch
 10
0.0
 20
0.0
 30
0.0
210
0.0
220
0.0
230
1.0
  2
SOLID
 70
     1
 71
     0
 91
        1
 92
        1
 93
        1
 72
     4
 94
        3
 73
     0
 74
     1
 95
       17
 96
       13
 40
0.0
 40
0.0
 40
0.0
 40
0.0
 40
1.0
 40
1.0
 40
1.0
 40
2.0
 40
2.0
 40
2.0
 40
3.0
 40
3.0
 40
3.0
 40
4.0
 40
4.0
 40
4.0
 40
4.0
 10
100.9743813128178
 20
-126.8966360793871
 10
100.9743813128178
 20
-127.028257468243
 10
100.8679129822007
 20
-127.1346905237719
 10
100.7363268744466
 20
-127.1346905237719
 10
100.6050582666845
 20
-127.1346905237719
 10
100.4982749748756
 20
-127.028257468243
 10
100.4982749748756
 20
-126.8966360793871
 10
100.4982749748756
 20
-126.7650499683087
 10
100.6050582666845
 20
-126.6585816350019
 10
100.7363268744466
 20
-126.6585816350019
 10
100.8679129822007
 20
-126.6585816350019
 10
100.9743813128178
 20
-126.7650499683087
 10
100.9743813128178
 20
-126.8966360793871
 97
        0
 97
        0
 75
     2
 76
     1
 98
        0
  0
SPLINE
  5
D2
330
41
100
AcDbEntity
  8
_U+30EC_U+30A4_U+30E4_U+30FC 1
370
     0
100
AcDbSpline
210
0.0
220
0.0
230
1.0
 70
    11
 71
     3
 72
    17
 73
    13
 74
     0
 42
0.0000000001
 43
0.0000000001
 12
1.0
 22
0.0
 32
0.0
 13
1.0
 23
0.0
 33
0.0
 40
0.0
 40
0.0
 40
0.0
 40
0.0
 40
1.0
 40
1.0
 40
1.0
 40
2.0
 40
2.0
 40
2.0
 40
3.0
 40
3.0
 40
3.0
 40
4.0
 40
4.0
 40
4.0
 40
4.0
 10
100.8861868706234
 20
-137.788649965553
 30
0.0
 10
100.8861868706234
 20
-137.9202713544086
 30
0.0
 10
100.7797185400063
 20
-138.0267044099375
 30
0.0
 10
100.6481324322522
 20
-138.0267044099375
 30
0.0
 10
100.51686382449
 20
-138.0267044099375
 30
0.0
 10
100.4100805304532
 20
-137.9202713544086
 30
0.0
 10
100.4100805304532
 20
-137.788649965553
 30
0.0
 10
100.4100805304532
 20
-137.6570638544749
 30
0.0
 10
100.51686382449
 20
-137.5505955211678
 30
0.0
 10
100.6481324322522
 20
-137.5505955211678
 30
0.0
 10
100.7797185400063
 20
-137.5505955211678
 30
0.0
 10
100.8861868706234
 20
-137.6570638544749
 30
0.0
 10
100.8861868706234
 20
-137.788649965553
 30
0.0
  0
HATCH
  5
D3
330
41
100
AcDbEntity
  8
_U+30EC_U+30A4_U+30E4_U+30FC 1
 62
   179
420
  2234388
100
AcDbHatch
 10
0.0
 20
0.0
 30
0.0
210
0.0
220
0.0
230
1.0
  2
SOLID
 70
     1
 71
     0
 91
        1
 92
        1
 93
        1
 72
     4
 94
        3
 73
     0
 74
     1
 95
       17
 96
       13
 40
0.0
 40
0.0
 40
0.0
 40
0.0
 40
1.0
 40
1.0
 40
1.0
 40
2.0
 40
2.0
 40
2.0
 40
3.0
 40
3.0
 40
3.0
 40
4.0
 40
4.0
 40
4.0
 40
4.0
 10
100.8861868706234
 20
-137.788649965553
 10
100.8861868706234
 20
-137.9202713544086
 10
100.7797185400063
 20
-138.0267044099375
 10
100.6481324322522
 20
-138.0267044099375
 10
100.51686382449
 20
-138.0267044099375
 10
100.4100805304532
 20
-137.9202713544086
 10
100.4100805304532
 20
-137.788649965553
 10
100.4100805304532
 20
-137.6570638544749
 10
100.51686382449
 20
-137.5505955211678
 10
100.6481324322522
 20
-137.5505955211678
 10
100.7797185400063
 20
-137.5505955211678
 10
100.8861868706234
 20
-137.6570638544749
 10
100.8861868706234
 20
-137.788649965553
 97
        0
 97
        0
 75
     2
 76
     1
 98
        0
  0
SPLINE
  5
D4
330
41
100
AcDbEntity
  8
_U+30EC_U+30A4_U+30E4_U+30FC 1
370
     0
100
AcDbSpline
210
0.0
220
0.0
230
1.0
 70
    11
 71
     3
 72
    17
 73
    13
 74
     0
 42
0.0000000001
 43
0.0000000001
 12
1.0
 22
0.0
 32
0.0
 13
1.0
 23
0.0
 33
0.0
 40
0.0
 40
0.0
 40
0.0
 40
0.0
 40
1.0
 40
1.0
 40
1.0
 40
2.0
 40
2.0
 40
2.0
 40
3.0
 40
3.0
 40
3.0
 40
4.0
 40
4.0
 40
4.0
 40
4.0
 10
86.59868723512787
 20
-121.3844833029873
 30
0.0
 10
86.59868723512787
 20
-121.5161046918433
 30
0.0
 10
86.49221890451078
 20
-121.6225377473722
 30
0.0
 10
86.3606327967567
 20
-121.6225377473722
 30
0.0
 10
86.22936418899454
 20
-121.6225377473722
 30
0.0
 10
86.12258053402506
 20
-121.5161046918433
 30
0.0
 10
86.12258053402506
 20
-121.3844833029873
 30
0.0
 10
86.12258053402506
 20
-121.2528971919089
 30
0.0
 10
86.22936418899454
 20
-121.1464288586022
 30
0.0
 10
86.3606327967567
 20
-121.1464288586022
 30
0.0
 10
86.49221890451078
 20
-121.1464288586022
 30
0.0
 10
86.59868723512787
 20
-121.2528971919089
 30
0.0
 10
86.59868723512787
 20
-121.3844833029873
 30
0.0
  0
HATCH
  5
D5
330
41
100
AcDbEntity
  8
_U+30EC_U+30A4_U+30E4_U+30FC 1
 62
   179
420
  2234388
100
AcDbHatch
 10
0.0
 20
0.0
 30
0.0
210
0.0
220
0.0
230
1.0
  2
SOLID
 70
     1
 71
     0
 91
        1
 92
        1
 93
        1
 72
     4
 94
        3
 73
     0
 74
     1
 95
       17
 96
       13
 40
0.0
 40
0.0
 40
0.0
 40
0.0
 40
1.0
 40
1.0
 40
1.0
 40
2.0
 40
2.0
 40
2.0
 40
3.0
 40
3.0
 40
3.0
 40
4.0
 40
4.0
 40
4.0
 40
4.0
 10
86.59868723512787
 20
-121.3844833029873
 10
86.59868723512787
 20
-121.5161046918433
 10
86.49221890451078
 20
-121.6225377473722
 10
86.3606327967567
 20
-121.6225377473722
 10
86.22936418899454
 20
-121.6225377473722
 10
86.12258053402506
 20
-121.5161046918433
 10
86.12258053402506
 20
-121.3844833029873
 10
86.12258053402506
 20
-121.2528971919089
 10
86.22936418899454
 20
-121.1464288586022
 10
86.3606327967567
 20
-121.1464288586022
 10
86.49221890451078
 20
-121.1464288586022
 10
86.59868723512787
 20
-121.2528971919089
 10
86.59868723512787
 20
-121.3844833029873
 97
        0
 97
        0
 75
     2
 76
     1
 98
        0
  0
SPLINE
  5
D6
330
41
100
AcDbEntity
  8
_U+30EC_U+30A4_U+30E4_U+30FC 1
370
     0
100
AcDbSpline
210
0.0
220
0.0
230
1.0
 70
    11
 71
     3
 72
    17
 73
    13
 74
     0
 42
0.0000000001
 43
0.0000000001
 12
1.0
 22
0.0
 32
0.0
 13
1.0
 23
0.0
 33
0.0
 40
0.0
 40
0.0
 40
0.0
 40
0.0
 40
1.0
 40
1.0
 40
1.0
 40
2.0
 40
2.0
 40
2.0
 40
3.0
 40
3.0
 40
3.0
 40
4.0
 40
4.0
 40
4.0
 40
4.0
 10
91.36118711362639
 20
-118.7827471925267
 30
0.0
 10
91.36118711362639
 20
-118.9143685813826
 30
0.0
 10
91.25471878300928
 20
-119.0208016369115
 30
0.0
 10
91.1231326752552
 20
-119.0208016369115
 30
0.0
 10
90.99186406749304
 20
-119.0208016369115
 30
0.0
 10
90.88508053283444
 20
-118.9143685813826
 30
0.0
 10
90.88508053283444
 20
-118.7827471925267
 30
0.0
 10
90.88508053283444
 20
-118.6511610814483
 30
0.0
 10
90.99186406749304
 20
-118.5446927481415
 30
0.0
 10
91.1231326752552
 20
-118.5446927481415
 30
0.0
 10
91.25471878300928
 20
-118.5446927481415
 30
0.0
 10
91.36118711362639
 20
-118.6511610814483
 30
0.0
 10
91.36118711362639
 20
-118.7827471925267
 30
0.0
  0
HATCH
  5
D7
330
41
100
AcDbEntity
  8
_U+30EC_U+30A4_U+30E4_U+30FC 1
 62
   179
420
  2234388
100
AcDbHatch
 10
0.0
 20
0.0
 30
0.0
210
0.0
220
0.0
230
1.0
  2
SOLID
 70
     1
 71
     0
 91
        1
 92
        1
 93
        1
 72
     4
 94
        3
 73
     0
 74
     1
 95
       17
 96
       13
 40
0.0
 40
0.0
 40
0.0
 40
0.0
 40
1.0
 40
1.0
 40
1.0
 40
2.0
 40
2.0
 40
2.0
 40
3.0
 40
3.0
 40
3.0
 40
4.0
 40
4.0
 40
4.0
 40
4.0
 10
91.36118711362639
 20
-118.7827471925267
 10
91.36118711362639
 20
-118.9143685813826
 10
91.25471878300928
 20
-119.0208016369115
 10
91.1231326752552
 20
-119.0208016369115
 10
90.99186406749304
 20
-119.0208016369115
 10
90.88508053283444
 20
-118.9143685813826
 10
90.88508053283444
 20
-118.7827471925267
 10
90.88508053283444
 20
-118.6511610814483
 10
90.99186406749304
 20
-118.5446927481415
 10
91.1231326752552
 20
-118.5446927481415
 10
91.25471878300928
 20
-118.5446927481415
 10
91.36118711362639
 20
-118.6511610814483
 10
91.36118711362639
 20
-118.7827471925267
 97
        0
 97
        0
 75
     2
 76
     1
 98
        0
  0
SPLINE
  5
D8
330
41
100
AcDbEntity
  8
_U+30EC_U+30A4_U+30E4_U+30FC 1
370
     0
100
AcDbSpline
210
0.0
220
0.0
230
1.0
 70
    11
 71
     3
 72
    17
 73
    13
 74
     0
 42
0.0000000001
 43
0.0000000001
 12
1.0
 22
0.0
 32
0.0
 13
1.0
 23
0.0
 33
0.0
 40
0.0
 40
0.0
 40
0.0
 40
0.0
 40
1.0
 40
1.0
 40
1.0
 40
2.0
 40
2.0
 40
2.0
 40
3.0
 40
3.0
 40
3.0
 40
4.0
 40
4.0
 40
4.0
 40
4.0
 10
98.901811921249
 20
-123.1483721914353
 30
0.0
 10
98.901811921249
 20
-123.2799935802912
 30
0.0
 10
98.79534359063192
 20
-123.3864266358201
 30
0.0
 10
98.66375748287784
 20
-123.3864266358201
 30
0.0
 10
98.53248887511567
 20
-123.3864266358201
 30
0.0
 10
98.42570553094927
 20
-123.2799935802912
 30
0.0
 10
98.42570553094927
 20
-123.1483721914353
 30
0.0
 10
98.42570553094927
 20
-123.0167860803569
 30
0.0
 10
98.53248887511567
 20
-122.9103177470501
 30
0.0
 10
98.66375748287784
 20
-122.9103177470501
 30
0.0
 10
98.79534359063192
 20
-122.9103177470501
 30
0.0
 10
98.901811921249
 20
-123.0167860803569
 30
0.0
 10
98.901811921249
 20
-123.1483721914353
 30
0.0
  0
HATCH
  5
D9
330
41
100
AcDbEntity
  8
_U+30EC_U+30A4_U+30E4_U+30FC 1
 62
   179
420
  2234388
100
AcDbHatch
 10
0.0
 20
0.0
 30
0.0
210
0.0
220
0.0
230
1.0
  2
SOLID
 70
     1
 71
     0
 91
        1
 92
        1
 93
        1
 72
     4
 94
        3
 73
     0
 74
     1
 95
       17
 96
       13
 40
0.0
 40
0.0
 40
0.0
 40
0.0
 40
1.0
 40
1.0
 40
1.0
 40
2.0
 40
2.0
 40
2.0
 40
3.0
 40
3.0
 40
3.0
 40
4.0
 40
4.0
 40
4.0
 40
4.0
 10
98.901811921249
 20
-123.1483721914353
 10
98.901811921249
 20
-123.2799935802912
 10
98.79534359063192
 20
-123.3864266358201
 10
98.66375748287784
 20
-123.3864266358201
 10
98.53248887511567
 20
-123.3864266358201
 10
98.42570553094927
 20
-123.2799935802912
 10
98.42570553094927
 20
-123.1483721914353
 10
98.42570553094927
 20
-123.0167860803569
 10
98.53248887511567
 20
-122.9103177470501
 10
98.66375748287784
 20
-122.9103177470501
 10
98.79534359063192
 20
-122.9103177470501
 10
98.901811921249
 20
-123.0167860803569
 10
98.901811921249
 20
-123.1483721914353
 97
        0
 97
        0
 75
     2
 76
     1
 98
        0
  0
ENDBLK
  5
44
330
41
100
AcDbEntity
  8
0
100
AcDbBlockEnd
  0
BLOCK
  5
4B
330
49
100
AcDbEntity
  8
0
100
AcDbBlockBegin
  2
block 3
 70
     0
 10
0.0
 20
0.0
 30
0.0
  3
block 3
  1

  0
SPLINE
  5
4D
330
49
100
AcDbEntity
  8
_U+30EC_U+30A4_U+30E4_U+30FC 1
 62
   179
420
  2234388
370
     9
100
AcDbSpline
210
0.0
220
0.0
230
1.0
 70
    11
 71
     3
 72
    17
 73
    13
 74
     0
 42
0.0000000001
 43
0.0000000001
 12
1.0
 22
0.0
 32
0.0
 13
1.0
 23
0.0
 33
0.0
 40
0.0
 40
0.0
 40
0.0
 40
0.0
 40
1.0
 40
1.0
 40
1.0
 40
2.0
 40
2.0
 40
2.0
 40
3.0
 40
3.0
 40
3.0
 40
4.0
 40
4.0
 40
4.0
 40
4.0
 10
95.20660830953183
 20
-125.5709677463851
 30
0.0
 10
95.20660830953183
 20
-125.9523558018454
 30
0.0
 10
94.63401230790743
 20
-126.2617066351011
 30
0.0
 10
93.9277888654071
 20
-126.2617066351011
 30
0.0
 10
93.2215277544724
 20
-126.2617066351011
 30
0.0
 10
92.64896942128235
 20
-125.9523558018454
 30
0.0
 10
92.64896942128235
 20
-125.5709677463851
 30
0.0
 10
92.64896942128235
 20
-125.1892621909248
 30
0.0
 10
93.2215277544724
 20
-124.8798760798912
 30
0.0
 10
93.9277888654071
 20
-124.8798760798912
 30
0.0
 10
94.63401230790743
 20
-124.8798760798912
 30
0.0
 10
95.20660830953183
 20
-125.1892621909248
 30
0.0
 10
95.20660830953183
 20
-125.5709677463851
 30
0.0
  0
SPLINE
  5
4E
330
49
100
AcDbEntity
  8
_U+30EC_U+30A4_U+30E4_U+30FC 1
 62
   179
420
  2234388
370
     9
100
AcDbSpline
210
0.0
220
0.0
230
1.0
 70
    11
 71
     3
 72
    17
 73
    13
 74
     0
 42
0.0000000001
 43
0.0000000001
 12
1.0
 22
0.0
 32
0.0
 13
1.0
 23
0.0
 33
0.0
 40
0.0
 40
0.0
 40
0.0
 40
0.0
 40
1.0
 40
1.0
 40
1.0
 40
2.0
 40
2.0
 40
2.0
 40
3.0
 40
3.0
 40
3.0
 40
4.0
 40
4.0
 40
4.0
 40
4.0
 10
95.17729007182504
 20
-125.7149716352379
 30
0.0
 10
95.17729007182504
 20
-125.9909144129469
 30
0.0
 10
94.61817497634573
 20
-126.2148577462242
 30
0.0
 10
93.9277888654071
 20
-126.2148577462242
 30
0.0
 10
93.2380706768542
 20
-126.2148577462242
 30
0.0
 10
92.67856513557282
 20
-125.9909144129469
 30
0.0
 10
92.67856513557282
 20
-125.7149716352379
 30
0.0
 10
92.67856513557282
 20
-125.4390288575292
 30
0.0
 10
93.2380706768542
 20
-125.2150855242519
 30
0.0
 10
93.9277888654071
 20
-125.2150855242519
 30
0.0
 10
94.61817497634573
 20
-125.2150855242519
 30
0.0
 10
95.17729007182504
 20
-125.4390288575292
 30
0.0
 10
95.17729007182504
 20
-125.7149716352379
 30
0.0
  0
HATCH
  5
4F
330
49
100
AcDbEntity
  8
_U+30EC_U+30A4_U+30E4_U+30FC 1
 62
     7
420
 16711422
100
AcDbHatch
 10
0.0
 20
0.0
 30
0.0
210
0.0
220
0.0
230
1.0
  2
SOLID
 70
     1
 71
     0
 91
        1
 92
        1
 93
        1
 72
     4
 94
        3
 73
     0
 74
     1
 95
       17
 96
       13
 40
0.0
 40
0.0
 40
0.0
 40
0.0
 40
1.0
 40
1.0
 40
1.0
 40
2.0
 40
2.0
 40
2.0
 40
3.0
 40
3.0
 40
3.0
 40
4.0
 40
4.0
 40
4.0
 40
4.0
 10
95.17729007182504
 20
-125.7149716352379
 10
95.17729007182504
 20
-125.9909144129469
 10
94.61817497634573
 20
-126.2148577462242
 10
93.9277888654071
 20
-126.2148577462242
 10
93.2380706768542
 20
-126.2148577462242
 10
92.67856513557282
 20
-125.9909144129469
 10
92.67856513557282
 20
-125.7149716352379
 10
92.67856513557282
 20
-125.4390288575292
 10
93.2380706768542
 20
-125.2150855242519
 10
93.9277888654071
 20
-125.2150855242519
 10
94.61817497634573
 20
-125.2150855242519
 10
95.17729007182504
 20
-125.4390288575292
 10
95.17729007182504
 20
-125.7149716352379
 97
        0
 97
        0
 75
     2
 76
     1
 98
        0
  0
ENDBLK
  5
4C
330
49
100
AcDbEntity
  8
0
100
AcDbBlockEnd
  0
BLOCK
  5
52
330
50
100
AcDbEntity
  8
0
100
AcDbBlockBegin
  2
block 4
 70
     0
 10
0.0
 20
0.0
 30
0.0
  3
block 4
  1

  0
SPLINE
  5
54
330
50
100
AcDbEntity
  8
_U+30EC_U+30A4_U+30E4_U+30FC 1
 62
   179
420
  2234388
370
     9
100
AcDbSpline
210
0.0
220
0.0
230
1.0
 70
    11
 71
     3
 72
    17
 73
    13
 74
     0
 42
0.0000000001
 43
0.0000000001
 12
1.0
 22
0.0
 32
0.0
 13
1.0
 23
0.0
 33
0.0
 40
0.0
 40
0.0
 40
0.0
 40
0.0
 40
1.0
 40
1.0
 40
1.0
 40
2.0
 40
2.0
 40
2.0
 40
3.0
 40
3.0
 40
3.0
 40
4.0
 40
4.0
 40
4.0
 40
4.0
 10
95.14769442065722
 20
-136.2424955214946
 30
0.0
 10
95.14769442065722
 20
-136.6238835769553
 30
0.0
 10
94.57509842052156
 20
-136.933234410211
 30
0.0
 10
93.86887497653248
 20
-136.933234410211
 30
0.0
 10
93.16261386559843
 20
-136.933234410211
 30
0.0
 10
92.59005553240773
 20
-136.6238835769553
 30
0.0
 10
92.59005553240773
 20
-136.2424955214946
 30
0.0
 10
92.59005553240773
 20
-135.860789966035
 30
0.0
 10
93.16261386559843
 20
-135.5514038550011
 30
0.0
 10
93.86887497653248
 20
-135.5514038550011
 30
0.0
 10
94.57509842052156
 20
-135.5514038550011
 30
0.0
 10
95.14769442065722
 20
-135.860789966035
 30
0.0
 10
95.14769442065722
 20
-136.2424955214946
 30
0.0
  0
SPLINE
  5
55
330
50
100
AcDbEntity
  8
_U+30EC_U+30A4_U+30E4_U+30FC 1
 62
   179
420
  2234388
370
     9
100
AcDbSpline
210
0.0
220
0.0
230
1.0
 70
    11
 71
     3
 72
    17
 73
    13
 74
     0
 42
0.0000000001
 43
0.0000000001
 12
1.0
 22
0.0
 32
0.0
 13
1.0
 23
0.0
 33
0.0
 40
0.0
 40
0.0
 40
0.0
 40
0.0
 40
1.0
 40
1.0
 40
1.0
 40
2.0
 40
2.0
 40
2.0
 40
3.0
 40
3.0
 40
3.0
 40
4.0
 40
4.0
 40
4.0
 40
4.0
 10
95.11841386510943
 20
-136.3864994103481
 30
0.0
 10
95.11841386510943
 20
-136.6624421880568
 30
0.0
 10
94.55890830969335
 20
-136.8863855213341
 30
0.0
 10
93.86919010519745
 20
-136.8863855213341
 30
0.0
 10
93.17880401169955
 20
-136.8863855213341
 30
0.0
 10
92.61965124818695
 20
-136.6624421880568
 30
0.0
 10
92.61965124818695
 20
-136.3864994103481
 30
0.0
 10
92.61965124818695
 20
-136.1105566326388
 30
0.0
 10
93.17880401169955
 20
-135.8866132993615
 30
0.0
 10
93.86919010519745
 20
-135.8866132993615
 30
0.0
 10
94.55890830969335
 20
-135.8866132993615
 30
0.0
 10
95.11841386510943
 20
-136.1105566326388
 30
0.0
 10
95.11841386510943
 20
-136.3864994103481
 30
0.0
  0
HATCH
  5
56
330
50
100
AcDbEntity
  8
_U+30EC_U+30A4_U+30E4_U+30FC 1
 62
     7
420
 16711422
100
AcDbHatch
 10
0.0
 20
0.0
 30
0.0
210
0.0
220
0.0
230
1.0
  2
SOLID
 70
     1
 71
     0
 91
        1
 92
        1
 93
        1
 72
     4
 94
        3
 73
     0
 74
     1
 95
       17
 96
       13
 40
0.0
 40
0.0
 40
0.0
 40
0.0
 40
1.0
 40
1.0
 40
1.0
 40
2.0
 40
2.0
 40
2.0
 40
3.0
 40
3.0
 40
3.0
 40
4.0
 40
4.0
 40
4.0
 40
4.0
 10
95.11841386510943
 20
-136.3864994103481
 10
95.11841386510943
 20
-136.6624421880568
 10
94.55890830969335
 20
-136.8863855213341
 10
93.86919010519745
 20
-136.8863855213341
 10
93.17880401169955
 20
-136.8863855213341
 10
92.61965124818695
 20
-136.6624421880568
 10
92.61965124818695
 20
-136.3864994103481
 10
92.61965124818695
 20
-136.1105566326388
 10
93.17880401169955
 20
-135.8866132993615
 10
93.86919010519745
 20
-135.8866132993615
 10
94.55890830969335
 20
-135.8866132993615
 10
95.11841386510943
 20
-136.1105566326388
 10
95.11841386510943
 20
-136.3864994103481
 97
        0
 97
        0
 75
     2
 76
     1
 98
        0
  0
ENDBLK
  5
53
330
50
100
AcDbEntity
  8
0
100
AcDbBlockEnd
  0
BLOCK
  5
92
330
90
100
AcDbEntity
  8
0
100
AcDbBlockBegin
  2
block 5
 70
     0
 10
0.0
 20
0.0
 30
0.0
  3
block 5
  1

  0
SPLINE
  5
94
330
90
100
AcDbEntity
  8
_U+30EC_U+30A4_U+30E4_U+30FC 1
370
     0
100
AcDbSpline
210
0.0
220
0.0
230
1.0
 70
    11
 71
     3
 72
    44
 73
    40
 74
     0
 42
0.0000000001
 43
0.0000000001
 12
1.0
 22
0.0
 32
0.0
 13
1.0
 23
0.0
 33
0.0
 40
0.0
 40
0.0
 40
0.0
 40
0.0
 40
1.0
 40
1.0
 40
1.0
 40
2.0
 40
2.0
 40
2.0
 40
3.0
 40
3.0
 40
3.0
 40
4.0
 40
4.0
 40
4.0
 40
5.0
 40
5.0
 40
5.0
 40
6.0
 40
6.0
 40
6.0
 40
7.0
 40
7.0
 40
7.0
 40
8.0
 40
8.0
 40
8.0
 40
9.0
 40
9.0
 40
9.0
 40
10.0
 40
10.0
 40
10.0
 40
11.0
 40
11.0
 40
11.0
 40
12.0
 40
12.0
 40
12.0
 40
13.0
 40
13.0
 40
13.0
 40
13.0
 10
88.39133162937786
 20
-119.9032755234096
 30
0.0
 10
88.17342933993581
 20
-120.0619221705054
 30
0.0
 10
88.0802395070598
 20
-120.1359917234382
 30
0.0
 10
88.03166366071778
 20
-120.2798244599474
 30
0.0
 10
88.03166366071778
 20
-120.2798244599474
 30
0.0
 10
88.81008298560998
 20
-120.2798244599474
 30
0.0
 10
88.81008298560998
 20
-120.2798244599474
 30
0.0
 10
88.81008298560998
 20
-120.2798244599474
 30
0.0
 10
88.81008298560998
 20
-120.484979896094
 30
0.0
 10
88.81008298560998
 20
-120.484979896094
 30
0.0
 10
88.81008298560998
 20
-120.484979896094
 30
0.0
 10
87.78206649281144
 20
-120.484979896094
 30
0.0
 10
87.78206649281144
 20
-120.484979896094
 30
0.0
 10
87.81376137127573
 20
-120.1273789847251
 30
0.0
 10
87.87921818549547
 20
-120.0491753172099
 30
0.0
 10
88.2643798607464
 20
-119.7508300481873
 30
0.0
 10
88.52035045530047
 20
-119.5520480386884
 30
0.0
 10
88.58580726952022
 20
-119.4843519124032
 30
0.0
 10
88.58580726952022
 20
-119.3468926025418
 30
0.0
 10
88.58580726952022
 20
-119.2283813178492
 30
0.0
 10
88.51397702865276
 20
-119.0972954346354
 30
0.0
 10
88.31726207644499
 20
-119.0972954346354
 30
0.0
 10
88.05698511253436
 20
-119.0972954346354
 30
0.0
 10
88.04854462859551
 20
-119.3277723225986
 30
0.0
 10
88.04423825923894
 20
-119.4442165500001
 30
0.0
 10
88.04423825923894
 20
-119.4442165500001
 30
0.0
 10
87.82013479792344
 20
-119.4442165500001
 30
0.0
 10
87.82013479792344
 20
-119.4442165500001
 30
0.0
 10
87.8285752818623
 20
-119.3172647813686
 30
0.0
 10
87.83908282309231
 20
-119.2051269233237
 30
0.0
 10
87.9195258026729
 20
-119.0866156386311
 30
0.0
 10
88.02942434865237
 20
-118.9259019342442
 30
0.0
 10
88.21563175963013
 20
-118.8919677437145
 30
0.0
 10
88.33207598703157
 20
-118.8919677437145
 30
0.0
 10
88.60923391881992
 20
-118.8919677437145
 30
0.0
 10
88.8164564122577
 20
-119.0761080974011
 30
0.0
 10
88.8164564122577
 20
-119.3489596598329
 30
0.0
 10
88.8164564122577
 20
-119.577369490505
 30
0.0
 10
88.70018443963052
 20
-119.6769327500287
 30
0.0
 10
88.39133162937786
 20
-119.9032755234096
 30
0.0
  0
HATCH
  5
95
330
90
100
AcDbEntity
  8
_U+30EC_U+30A4_U+30E4_U+30FC 1
 62
   179
420
  2234388
100
AcDbHatch
 10
0.0
 20
0.0
 30
0.0
210
0.0
220
0.0
230
1.0
  2
SOLID
 70
     1
 71
     0
 91
        1
 92
        1
 93
        1
 72
     4
 94
        3
 73
     0
 74
     1
 95
       44
 96
       40
 40
0.0
 40
0.0
 40
0.0
 40
0.0
 40
1.0
 40
1.0
 40
1.0
 40
2.0
 40
2.0
 40
2.0
 40
3.0
 40
3.0
 40
3.0
 40
4.0
 40
4.0
 40
4.0
 40
5.0
 40
5.0
 40
5.0
 40
6.0
 40
6.0
 40
6.0
 40
7.0
 40
7.0
 40
7.0
 40
8.0
 40
8.0
 40
8.0
 40
9.0
 40
9.0
 40
9.0
 40
10.0
 40
10.0
 40
10.0
 40
11.0
 40
11.0
 40
11.0
 40
12.0
 40
12.0
 40
12.0
 40
13.0
 40
13.0
 40
13.0
 40
13.0
 10
88.39133162937786
 20
-119.9032755234096
 10
88.17342933993581
 20
-120.0619221705054
 10
88.0802395070598
 20
-120.1359917234382
 10
88.03166366071778
 20
-120.2798244599474
 10
88.03166366071778
 20
-120.2798244599474
 10
88.81008298560998
 20
-120.2798244599474
 10
88.81008298560998
 20
-120.2798244599474
 10
88.81008298560998
 20
-120.2798244599474
 10
88.81008298560998
 20
-120.484979896094
 10
88.81008298560998
 20
-120.484979896094
 10
88.81008298560998
 20
-120.484979896094
 10
87.78206649281144
 20
-120.484979896094
 10
87.78206649281144
 20
-120.484979896094
 10
87.81376137127573
 20
-120.1273789847251
 10
87.87921818549547
 20
-120.0491753172099
 10
88.2643798607464
 20
-119.7508300481873
 10
88.52035045530047
 20
-119.5520480386884
 10
88.58580726952022
 20
-119.4843519124032
 10
88.58580726952022
 20
-119.3468926025418
 10
88.58580726952022
 20
-119.2283813178492
 10
88.51397702865276
 20
-119.0972954346354
 10
88.31726207644499
 20
-119.0972954346354
 10
88.05698511253436
 20
-119.0972954346354
 10
88.04854462859551
 20
-119.3277723225986
 10
88.04423825923894
 20
-119.4442165500001
 10
88.04423825923894
 20
-119.4442165500001
 10
87.82013479792344
 20
-119.4442165500001
 10
87.82013479792344
 20
-119.4442165500001
 10
87.8285752818623
 20
-119.3172647813686
 10
87.83908282309231
 20
-119.2051269233237
 10
87.9195258026729
 20
-119.0866156386311
 10
88.02942434865237
 20
-118.9259019342442
 10
88.21563175963013
 20
-118.8919677437145
 10
88.33207598703157
 20
-118.8919677437145
 10
88.60923391881992
 20
-118.8919677437145
 10
88.8164564122577
 20
-119.0761080974011
 10
88.8164564122577
 20
-119.3489596598329
 10
88.8164564122577
 20
-119.577369490505
 10
88.70018443963052
 20
-119.6769327500287
 10
88.39133162937786
 20
-119.9032755234096
 97
        0
 97
        0
 75
     2
 76
     1
 98
        0
  0
SPLINE
  5
96
330
90
100
AcDbEntity
  8
_U+30EC_U+30A4_U+30E4_U+30FC 1
370
     0
100
AcDbSpline
210
0.0
220
0.0
230
1.0
 70
    11
 71
     3
 72
    53
 73
    49
 74
     0
 42
0.0000000001
 43
0.0000000001
 12
1.0
 22
0.0
 32
0.0
 13
1.0
 23
0.0
 33
0.0
 40
0.0
 40
0.0
 40
0.0
 40
0.0
 40
1.0
 40
1.0
 40
1.0
 40
2.0
 40
2.0
 40
2.0
 40
3.0
 40
3.0
 40
3.0
 40
4.0
 40
4.0
 40
4.0
 40
5.0
 40
5.0
 40
5.0
 40
6.0
 40
6.0
 40
6.0
 40
7.0
 40
7.0
 40
7.0
 40
8.0
 40
8.0
 40
8.0
 40
9.0
 40
9.0
 40
9.0
 40
10.0
 40
10.0
 40
10.0
 40
11.0
 40
11.0
 40
11.0
 40
12.0
 40
12.0
 40
12.0
 40
13.0
 40
13.0
 40
13.0
 40
14.0
 40
14.0
 40
14.0
 40
15.0
 40
15.0
 40
15.0
 40
16.0
 40
16.0
 40
16.0
 40
16.0
 10
89.45603838909433
 20
-120.5357950545015
 30
0.0
 10
89.37766246680489
 20
-120.5357950545015
 30
0.0
 10
89.27620440476429
 20
-120.5187418318495
 30
0.0
 10
89.17457408794941
 20
-120.4553520749209
 30
0.0
 10
89.00111353026709
 20
-120.3452812741672
 30
0.0
 10
88.9799261930328
 20
-120.2141953909534
 30
0.0
 10
88.96097816786393
 20
-120.1063639022651
 30
0.0
 10
88.96097816786393
 20
-120.1063639022651
 30
0.0
 10
89.18318682666253
 20
-120.1063639022651
 30
0.0
 10
89.18318682666253
 20
-120.1063639022651
 30
0.0
 10
89.23813609965228
 20
-120.305145911764
 30
0.0
 10
89.36508786828374
 20
-120.3347737329372
 30
0.0
 10
89.45810544638547
 20
-120.3347737329372
 30
0.0
 10
89.59780406831236
 20
-120.3347737329372
 30
0.0
 10
89.7500772887604
 20
-120.2353827281877
 30
0.0
 10
89.7500772887604
 20
-120.0026665281591
 30
0.0
 10
89.7500772887604
 20
-119.746695933605
 30
0.0
 10
89.57024330443036
 20
-119.6769327500287
 30
0.0
 10
89.44966496244662
 20
-119.6769327500287
 30
0.0
 10
89.41797008398231
 20
-119.6769327500287
 30
0.0
 10
89.27620440476429
 20
-119.6769327500287
 30
0.0
 10
89.18732094124483
 20
-119.8059515759513
 30
0.0
 10
89.18732094124483
 20
-119.8059515759513
 30
0.0
 10
89.01179332627136
 20
-119.7868312960082
 30
0.0
 10
89.01179332627136
 20
-119.7868312960082
 30
0.0
 10
89.01179332627136
 20
-119.7868312960082
 30
0.0
 10
89.1323716682551
 20
-118.9407158448308
 30
0.0
 10
89.1323716682551
 20
-118.9407158448308
 30
0.0
 10
89.1323716682551
 20
-118.9407158448308
 30
0.0
 10
89.9107909931473
 20
-118.9407158448308
 30
0.0
 10
89.9107909931473
 20
-118.9407158448308
 30
0.0
 10
89.9107909931473
 20
-118.9407158448308
 30
0.0
 10
89.9107909931473
 20
-119.1353637397474
 30
0.0
 10
89.9107909931473
 20
-119.1353637397474
 30
0.0
 10
89.9107909931473
 20
-119.1353637397474
 30
0.0
 10
89.29515242993315
 20
-119.1353637397474
 30
0.0
 10
89.29515242993315
 20
-119.1353637397474
 30
0.0
 10
89.29515242993315
 20
-119.1353637397474
 30
0.0
 10
89.22969561571341
 20
-119.5584214653361
 30
0.0
 10
89.22969561571341
 20
-119.5584214653361
 30
0.0
 10
89.29101831535085
 20
-119.5244872748064
 30
0.0
 10
89.37352835222259
 20
-119.4843519124032
 30
0.0
 10
89.4920396369152
 20
-119.4843519124032
 30
0.0
 10
89.74577091940384
 20
-119.4843519124032
 30
0.0
 10
89.98279348878903
 20
-119.670559323381
 30
0.0
 10
89.98279348878903
 20
-119.9835462482159
 30
0.0
 10
89.98279348878903
 20
-120.3010117971817
 30
0.0
 10
89.75851777269926
 20
-120.5357950545015
 30
0.0
 10
89.45603838909433
 20
-120.5357950545015
 30
0.0
  0
HATCH
  5
97
330
90
100
AcDbEntity
  8
_U+30EC_U+30A4_U+30E4_U+30FC 1
 62
   179
420
  2234388
100
AcDbHatch
 10
0.0
 20
0.0
 30
0.0
210
0.0
220
0.0
230
1.0
  2
SOLID
 70
     1
 71
     0
 91
        1
 92
        1
 93
        1
 72
     4
 94
        3
 73
     0
 74
     1
 95
       53
 96
       49
 40
0.0
 40
0.0
 40
0.0
 40
0.0
 40
1.0
 40
1.0
 40
1.0
 40
2.0
 40
2.0
 40
2.0
 40
3.0
 40
3.0
 40
3.0
 40
4.0
 40
4.0
 40
4.0
 40
5.0
 40
5.0
 40
5.0
 40
6.0
 40
6.0
 40
6.0
 40
7.0
 40
7.0
 40
7.0
 40
8.0
 40
8.0
 40
8.0
 40
9.0
 40
9.0
 40
9.0
 40
10.0
 40
10.0
 40
10.0
 40
11.0
 40
11.0
 40
11.0
 40
12.0
 40
12.0
 40
12.0
 40
13.0
 40
13.0
 40
13.0
 40
14.0
 40
14.0
 40
14.0
 40
15.0
 40
15.0
 40
15.0
 40
16.0
 40
16.0
 40
16.0
 40
16.0
 10
89.45603838909433
 20
-120.5357950545015
 10
89.37766246680489
 20
-120.5357950545015
 10
89.27620440476429
 20
-120.5187418318495
 10
89.17457408794941
 20
-120.4553520749209
 10
89.00111353026709
 20
-120.3452812741672
 10
88.9799261930328
 20
-120.2141953909534
 10
88.96097816786393
 20
-120.1063639022651
 10
88.96097816786393
 20
-120.1063639022651
 10
89.18318682666253
 20
-120.1063639022651
 10
89.18318682666253
 20
-120.1063639022651
 10
89.23813609965228
 20
-120.305145911764
 10
89.36508786828374
 20
-120.3347737329372
 10
89.45810544638547
 20
-120.3347737329372
 10
89.59780406831236
 20
-120.3347737329372
 10
89.7500772887604
 20
-120.2353827281877
 10
89.7500772887604
 20
-120.0026665281591
 10
89.7500772887604
 20
-119.746695933605
 10
89.57024330443036
 20
-119.6769327500287
 10
89.44966496244662
 20
-119.6769327500287
 10
89.41797008398231
 20
-119.6769327500287
 10
89.27620440476429
 20
-119.6769327500287
 10
89.18732094124483
 20
-119.8059515759513
 10
89.18732094124483
 20
-119.8059515759513
 10
89.01179332627136
 20
-119.7868312960082
 10
89.01179332627136
 20
-119.7868312960082
 10
89.01179332627136
 20
-119.7868312960082
 10
89.1323716682551
 20
-118.9407158448308
 10
89.1323716682551
 20
-118.9407158448308
 10
89.1323716682551
 20
-118.9407158448308
 10
89.9107909931473
 20
-118.9407158448308
 10
89.9107909931473
 20
-118.9407158448308
 10
89.9107909931473
 20
-118.9407158448308
 10
89.9107909931473
 20
-119.1353637397474
 10
89.9107909931473
 20
-119.1353637397474
 10
89.9107909931473
 20
-119.1353637397474
 10
89.29515242993315
 20
-119.1353637397474
 10
89.29515242993315
 20
-119.1353637397474
 10
89.29515242993315
 20
-119.1353637397474
 10
89.22969561571341
 20
-119.5584214653361
 10
89.22969561571341
 20
-119.5584214653361
 10
89.29101831535085
 20
-119.5244872748064
 10
89.37352835222259
 20
-119.4843519124032
 10
89.4920396369152
 20
-119.4843519124032
 10
89.74577091940384
 20
-119.4843519124032
 10
89.98279348878903
 20
-119.670559323381
 10
89.98279348878903
 20
-119.9835462482159
 10
89.98279348878903
 20
-120.3010117971817
 10
89.75851777269926
 20
-120.5357950545015
 10
89.45603838909433
 20
-120.5357950545015
 97
        0
 97
        0
 75
     2
 76
     1
 98
        0
  0
ENDBLK
  5
93
330
90
100
AcDbEntity
  8
0
100
AcDbBlockEnd
  0
BLOCK
  5
9A
330
98
100
AcDbEntity
  8
0
100
AcDbBlockBegin
  2
block 6
 70
     0
 10
0.0
 20
0.0
 30
0.0
  3
block 6
  1

  0
SPLINE
  5
9C
330
98
100
AcDbEntity
  8
_U+30EC_U+30A4_U+30E4_U+30FC 1
370
     0
100
AcDbSpline
210
0.0
220
0.0
230
1.0
 70
    11
 71
     3
 72
    62
 73
    58
 74
     0
 42
0.0000000001
 43
0.0000000001
 12
1.0
 22
0.0
 32
0.0
 13
1.0
 23
0.0
 33
0.0
 40
0.0
 40
0.0
 40
0.0
 40
0.0
 40
1.0
 40
1.0
 40
1.0
 40
2.0
 40
2.0
 40
2.0
 40
3.0
 40
3.0
 40
3.0
 40
4.0
 40
4.0
 40
4.0
 40
5.0
 40
5.0
 40
5.0
 40
6.0
 40
6.0
 40
6.0
 40
7.0
 40
7.0
 40
7.0
 40
8.0
 40
8.0
 40
8.0
 40
9.0
 40
9.0
 40
9.0
 40
10.0
 40
10.0
 40
10.0
 40
11.0
 40
11.0
 40
11.0
 40
12.0
 40
12.0
 40
12.0
 40
13.0
 40
13.0
 40
13.0
 40
14.0
 40
14.0
 40
14.0
 40
15.0
 40
15.0
 40
15.0
 40
16.0
 40
16.0
 40
16.0
 40
17.0
 40
17.0
 40
17.0
 40
18.0
 40
18.0
 40
18.0
 40
19.0
 40
19.0
 40
19.0
 40
19.0
 10
94.37529023248257
 20
-121.7264200542038
 30
0.0
 10
94.27986108754115
 20
-121.7264200542038
 30
0.0
 10
94.06213105287335
 20
-121.7052327169695
 30
0.0
 10
93.9370740867588
 20
-121.5190253059918
 30
0.0
 10
93.86300453382592
 20
-121.4068874479469
 30
0.0
 10
93.85887041924362
 20
-121.3074964431974
 30
0.0
 10
93.85473630466132
 20
-121.2229193490346
 30
0.0
 10
93.85473630466132
 20
-121.2229193490346
 30
0.0
 10
94.07487790616878
 20
-121.2229193490346
 30
0.0
 10
94.07487790616878
 20
-121.2229193490346
 30
0.0
 10
94.07694496345994
 20
-121.2969889019674
 30
0.0
 10
94.08728024991568
 20
-121.5317721592872
 30
0.0
 10
94.37081160835174
 20
-121.5317721592872
 30
0.0
 10
94.50827091821321
 20
-121.5317721592872
 30
0.0
 10
94.66088864820978
 20
-121.4620089757109
 30
0.0
 10
94.66088864820978
 20
-121.2334268902646
 30
0.0
 10
94.66088864820978
 20
-121.1171549176374
 30
0.0
 10
94.62264808832352
 20
-121.0684068165211
 30
0.0
 10
94.59095320985921
 20
-121.0367119380568
 30
0.0
 10
94.51688365692634
 20
-120.9626423851239
 30
0.0
 10
94.4004394295249
 20
-120.9500677866028
 30
0.0
 10
94.34566241130942
 20
-120.9500677866028
 30
0.0
 10
94.32636987659203
 20
-120.9500677866028
 30
0.0
 10
94.29054088354542
 20
-120.9521348438939
 30
0.0
 10
94.26298011966342
 20
-120.9562689584762
 30
0.0
 10
94.26298011966342
 20
-120.9562689584762
 30
0.0
 10
94.26298011966342
 20
-120.7616210635596
 30
0.0
 10
94.26298011966342
 20
-120.7616210635596
 30
0.0
 10
94.3012206795497
 20
-120.7679944902073
 30
0.0
 10
94.34325084446975
 20
-120.7702338022727
 30
0.0
 10
94.34979652589172
 20
-120.7702338022727
 30
0.0
 10
94.41525334011146
 20
-120.7702338022727
 30
0.0
 10
94.61403534961039
 20
-120.7490464650384
 30
0.0
 10
94.61403534961039
 20
-120.5120238956532
 30
0.0
 10
94.61403534961039
 20
-120.3344292233886
 30
0.0
 10
94.48312172117089
 20
-120.2793076956246
 30
0.0
 10
94.3728786656429
 20
-120.2793076956246
 30
0.0
 10
94.10863984192423
 20
-120.2793076956246
 30
0.0
 10
94.1000271032111
 20
-120.5120238956532
 30
0.0
 10
94.0958929886288
 20
-120.584026391295
 30
0.0
 10
94.0958929886288
 20
-120.584026391295
 30
0.0
 10
93.89263235499907
 20
-120.584026391295
 30
0.0
 10
93.89263235499907
 20
-120.584026391295
 30
0.0
 10
93.90124509371219
 20
-120.4591416799547
 30
0.0
 10
93.92880585759418
 20
-120.0825927434169
 30
0.0
 10
94.38562551893833
 20
-120.0825927434169
 30
0.0
 10
94.60990123502809
 20
-120.0825927434169
 30
0.0
 10
94.85105791899558
 20
-120.2095445120483
 30
0.0
 10
94.85105791899558
 20
-120.5056504690055
 30
0.0
 10
94.85105791899558
 20
-120.6918578799833
 30
0.0
 10
94.75597328360267
 20
-120.774367916855
 30
0.0
 10
94.65641002407895
 20
-120.8356906164925
 30
0.0
 10
94.71773272371641
 20
-120.8632513803745
 30
0.0
 10
94.8996337653376
 20
-120.9436943599551
 30
0.0
 10
94.8996337653376
 20
-121.2208522917434
 30
0.0
 10
94.8996337653376
 20
-121.5593329231692
 30
0.0
 10
94.65227590949665
 20
-121.7264200542038
 30
0.0
 10
94.37529023248257
 20
-121.7264200542038
 30
0.0
  0
HATCH
  5
9D
330
98
100
AcDbEntity
  8
_U+30EC_U+30A4_U+30E4_U+30FC 1
 62
   179
420
  2234388
100
AcDbHatch
 10
0.0
 20
0.0
 30
0.0
210
0.0
220
0.0
230
1.0
  2
SOLID
 70
     1
 71
     0
 91
        1
 92
        1
 93
        1
 72
     4
 94
        3
 73
     0
 74
     1
 95
       62
 96
       58
 40
0.0
 40
0.0
 40
0.0
 40
0.0
 40
1.0
 40
1.0
 40
1.0
 40
2.0
 40
2.0
 40
2.0
 40
3.0
 40
3.0
 40
3.0
 40
4.0
 40
4.0
 40
4.0
 40
5.0
 40
5.0
 40
5.0
 40
6.0
 40
6.0
 40
6.0
 40
7.0
 40
7.0
 40
7.0
 40
8.0
 40
8.0
 40
8.0
 40
9.0
 40
9.0
 40
9.0
 40
10.0
 40
10.0
 40
10.0
 40
11.0
 40
11.0
 40
11.0
 40
12.0
 40
12.0
 40
12.0
 40
13.0
 40
13.0
 40
13.0
 40
14.0
 40
14.0
 40
14.0
 40
15.0
 40
15.0
 40
15.0
 40
16.0
 40
16.0
 40
16.0
 40
17.0
 40
17.0
 40
17.0
 40
18.0
 40
18.0
 40
18.0
 40
19.0
 40
19.0
 40
19.0
 40
19.0
 10
94.37529023248257
 20
-121.7264200542038
 10
94.27986108754115
 20
-121.7264200542038
 10
94.06213105287335
 20
-121.7052327169695
 10
93.9370740867588
 20
-121.5190253059918
 10
93.86300453382592
 20
-121.4068874479469
 10
93.85887041924362
 20
-121.3074964431974
 10
93.85473630466132
 20
-121.2229193490346
 10
93.85473630466132
 20
-121.2229193490346
 10
94.07487790616878
 20
-121.2229193490346
 10
94.07487790616878
 20
-121.2229193490346
 10
94.07694496345994
 20
-121.2969889019674
 10
94.08728024991568
 20
-121.5317721592872
 10
94.37081160835174
 20
-121.5317721592872
 10
94.50827091821321
 20
-121.5317721592872
 10
94.66088864820978
 20
-121.4620089757109
 10
94.66088864820978
 20
-121.2334268902646
 10
94.66088864820978
 20
-121.1171549176374
 10
94.62264808832352
 20
-121.0684068165211
 10
94.59095320985921
 20
-121.0367119380568
 10
94.51688365692634
 20
-120.9626423851239
 10
94.4004394295249
 20
-120.9500677866028
 10
94.34566241130942
 20
-120.9500677866028
 10
94.32636987659203
 20
-120.9500677866028
 10
94.29054088354542
 20
-120.9521348438939
 10
94.26298011966342
 20
-120.9562689584762
 10
94.26298011966342
 20
-120.9562689584762
 10
94.26298011966342
 20
-120.7616210635596
 10
94.26298011966342
 20
-120.7616210635596
 10
94.3012206795497
 20
-120.7679944902073
 10
94.34325084446975
 20
-120.7702338022727
 10
94.34979652589172
 20
-120.7702338022727
 10
94.41525334011146
 20
-120.7702338022727
 10
94.61403534961039
 20
-120.7490464650384
 10
94.61403534961039
 20
-120.5120238956532
 10
94.61403534961039
 20
-120.3344292233886
 10
94.48312172117089
 20
-120.2793076956246
 10
94.3728786656429
 20
-120.2793076956246
 10
94.10863984192423
 20
-120.2793076956246
 10
94.1000271032111
 20
-120.5120238956532
 10
94.0958929886288
 20
-120.584026391295
 10
94.0958929886288
 20
-120.584026391295
 10
93.89263235499907
 20
-120.584026391295
 10
93.89263235499907
 20
-120.584026391295
 10
93.90124509371219
 20
-120.4591416799547
 10
93.92880585759418
 20
-120.0825927434169
 10
94.38562551893833
 20
-120.0825927434169
 10
94.60990123502809
 20
-120.0825927434169
 10
94.85105791899558
 20
-120.2095445120483
 10
94.85105791899558
 20
-120.5056504690055
 10
94.85105791899558
 20
-120.6918578799833
 10
94.75597328360267
 20
-120.774367916855
 10
94.65641002407895
 20
-120.8356906164925
 10
94.71773272371641
 20
-120.8632513803745
 10
94.8996337653376
 20
-120.9436943599551
 10
94.8996337653376
 20
-121.2208522917434
 10
94.8996337653376
 20
-121.5593329231692
 10
94.65227590949665
 20
-121.7264200542038
 10
94.37529023248257
 20
-121.7264200542038
 97
        0
 97
        0
 75
     2
 76
     1
 98
        0
  0
SPLINE
  5
9E
330
98
100
AcDbEntity
  8
_U+30EC_U+30A4_U+30E4_U+30FC 1
370
     0
100
AcDbSpline
210
0.0
220
0.0
230
1.0
 70
    11
 71
     3
 72
    44
 73
    40
 74
     0
 42
0.0000000001
 43
0.0000000001
 12
1.0
 22
0.0
 32
0.0
 13
1.0
 23
0.0
 33
0.0
 40
0.0
 40
0.0
 40
0.0
 40
0.0
 40
1.0
 40
1.0
 40
1.0
 40
2.0
 40
2.0
 40
2.0
 40
3.0
 40
3.0
 40
3.0
 40
4.0
 40
4.0
 40
4.0
 40
5.0
 40
5.0
 40
5.0
 40
6.0
 40
6.0
 40
6.0
 40
7.0
 40
7.0
 40
7.0
 40
8.0
 40
8.0
 40
8.0
 40
9.0
 40
9.0
 40
9.0
 40
10.0
 40
10.0
 40
10.0
 40
11.0
 40
11.0
 40
11.0
 40
12.0
 40
12.0
 40
12.0
 40
13.0
 40
13.0
 40
13.0
 40
13.0
 10
95.65342065751027
 20
-121.0939005231119
 30
0.0
 10
95.43569062284247
 20
-121.2525471702077
 30
0.0
 10
95.34267304474072
 20
-121.3266167231406
 30
0.0
 10
95.29375268885018
 20
-121.4704494596498
 30
0.0
 10
95.29375268885018
 20
-121.4704494596498
 30
0.0
 10
96.07234426851664
 20
-121.4704494596498
 30
0.0
 10
96.07234426851664
 20
-121.4704494596498
 30
0.0
 10
96.07234426851664
 20
-121.4704494596498
 30
0.0
 10
96.07234426851664
 20
-121.6756048957964
 30
0.0
 10
96.07234426851664
 20
-121.6756048957964
 30
0.0
 10
96.07234426851664
 20
-121.6756048957964
 30
0.0
 10
95.04432777571809
 20
-121.6756048957964
 30
0.0
 10
95.04432777571809
 20
-121.6756048957964
 30
0.0
 10
95.07602265418238
 20
-121.3180039844274
 30
0.0
 10
95.14147946840214
 20
-121.2398003169123
 30
0.0
 10
95.52664114365307
 20
-120.9414550478896
 30
0.0
 10
95.78261173820712
 20
-120.7426730383907
 30
0.0
 10
95.84806855242688
 20
-120.6749769121056
 30
0.0
 10
95.84806855242688
 20
-120.5375176022441
 30
0.0
 10
95.84806855242688
 20
-120.4190063175515
 30
0.0
 10
95.77641056633368
 20
-120.2879204343377
 30
0.0
 10
95.57935110457738
 20
-120.2879204343377
 30
0.0
 10
95.31924639544103
 20
-120.2879204343377
 30
0.0
 10
95.31097816627643
 20
-120.518397322301
 30
0.0
 10
95.3064995421456
 20
-120.6348415497024
 30
0.0
 10
95.3064995421456
 20
-120.6348415497024
 30
0.0
 10
95.08222382605584
 20
-120.6348415497024
 30
0.0
 10
95.08222382605584
 20
-120.6348415497024
 30
0.0
 10
95.09083656476896
 20
-120.5078897810709
 30
0.0
 10
95.10151636077323
 20
-120.3957519230261
 30
0.0
 10
95.18178708557956
 20
-120.2772406383335
 30
0.0
 10
95.29168563155903
 20
-120.1165269339466
 30
0.0
 10
95.47806529731105
 20
-120.0825927434169
 30
0.0
 10
95.59416501516397
 20
-120.0825927434169
 30
0.0
 10
95.87149520172657
 20
-120.0825927434169
 30
0.0
 10
96.07888994993861
 20
-120.2667330971035
 30
0.0
 10
96.07888994993861
 20
-120.5395846595353
 30
0.0
 10
96.07888994993861
 20
-120.7679944902073
 30
0.0
 10
95.96244572253717
 20
-120.867557749731
 30
0.0
 10
95.65342065751027
 20
-121.0939005231119
 30
0.0
  0
HATCH
  5
9F
330
98
100
AcDbEntity
  8
_U+30EC_U+30A4_U+30E4_U+30FC 1
 62
   179
420
  2234388
100
AcDbHatch
 10
0.0
 20
0.0
 30
0.0
210
0.0
220
0.0
230
1.0
  2
SOLID
 70
     1
 71
     0
 91
        1
 92
        1
 93
        1
 72
     4
 94
        3
 73
     0
 74
     1
 95
       44
 96
       40
 40
0.0
 40
0.0
 40
0.0
 40
0.0
 40
1.0
 40
1.0
 40
1.0
 40
2.0
 40
2.0
 40
2.0
 40
3.0
 40
3.0
 40
3.0
 40
4.0
 40
4.0
 40
4.0
 40
5.0
 40
5.0
 40
5.0
 40
6.0
 40
6.0
 40
6.0
 40
7.0
 40
7.0
 40
7.0
 40
8.0
 40
8.0
 40
8.0
 40
9.0
 40
9.0
 40
9.0
 40
10.0
 40
10.0
 40
10.0
 40
11.0
 40
11.0
 40
11.0
 40
12.0
 40
12.0
 40
12.0
 40
13.0
 40
13.0
 40
13.0
 40
13.0
 10
95.65342065751027
 20
-121.0939005231119
 10
95.43569062284247
 20
-121.2525471702077
 10
95.34267304474072
 20
-121.3266167231406
 10
95.29375268885018
 20
-121.4704494596498
 10
95.29375268885018
 20
-121.4704494596498
 10
96.07234426851664
 20
-121.4704494596498
 10
96.07234426851664
 20
-121.4704494596498
 10
96.07234426851664
 20
-121.4704494596498
 10
96.07234426851664
 20
-121.6756048957964
 10
96.07234426851664
 20
-121.6756048957964
 10
96.07234426851664
 20
-121.6756048957964
 10
95.04432777571809
 20
-121.6756048957964
 10
95.04432777571809
 20
-121.6756048957964
 10
95.07602265418238
 20
-121.3180039844274
 10
95.14147946840214
 20
-121.2398003169123
 10
95.52664114365307
 20
-120.9414550478896
 10
95.78261173820712
 20
-120.7426730383907
 10
95.84806855242688
 20
-120.6749769121056
 10
95.84806855242688
 20
-120.5375176022441
 10
95.84806855242688
 20
-120.4190063175515
 10
95.77641056633368
 20
-120.2879204343377
 10
95.57935110457738
 20
-120.2879204343377
 10
95.31924639544103
 20
-120.2879204343377
 10
95.31097816627643
 20
-120.518397322301
 10
95.3064995421456
 20
-120.6348415497024
 10
95.3064995421456
 20
-120.6348415497024
 10
95.08222382605584
 20
-120.6348415497024
 10
95.08222382605584
 20
-120.6348415497024
 10
95.09083656476896
 20
-120.5078897810709
 10
95.10151636077323
 20
-120.3957519230261
 10
95.18178708557956
 20
-120.2772406383335
 10
95.29168563155903
 20
-120.1165269339466
 10
95.47806529731105
 20
-120.0825927434169
 10
95.59416501516397
 20
-120.0825927434169
 10
95.87149520172657
 20
-120.0825927434169
 10
96.07888994993861
 20
-120.2667330971035
 10
96.07888994993861
 20
-120.5395846595353
 10
96.07888994993861
 20
-120.7679944902073
 10
95.96244572253717
 20
-120.867557749731
 10
95.65342065751027
 20
-121.0939005231119
 97
        0
 97
        0
 75
     2
 76
     1
 98
        0
  0
ENDBLK
  5
9B
330
98
100
AcDbEntity
  8
0
100
AcDbBlockEnd
  0
BLOCK
  5
A2
330
A0
100
AcDbEntity
  8
0
100
AcDbBlockBegin
  2
block 7
 70
     0
 10
0.0
 20
0.0
 30
0.0
  3
block 7
  1

  0
POLYLINE
  5
A4
330
A0
100
AcDbEntity
  8
_U+30EC_U+30A4_U+30E4_U+30FC 1
370
     0
100
AcDb2dPolyline
 66
     1
 10
0.0
 20
0.0
 30
0.0
  0
VERTEX
  5
A5
330
A4
100
AcDbEntity
  8
_U+30EC_U+30A4_U+30E4_U+30FC 1
370
     0
100
AcDbVertex
100
AcDb2dVertex
 10
100.3601101094586
 20
-132.4852809998648
 30
0.0
  0
VERTEX
  5
A6
330
A4
100
AcDbEntity
  8
_U+30EC_U+30A4_U+30E4_U+30FC 1
370
     0
100
AcDbVertex
100
AcDb2dVertex
 10
100.3601101094586
 20
-132.8322021152294
 30
0.0
  0
VERTEX
  5
A7
330
A4
100
AcDbEntity
  8
_U+30EC_U+30A4_U+30E4_U+30FC 1
370
     0
100
AcDbVertex
100
AcDb2dVertex
 10
100.1423800747908
 20
-132.8322021152294
 30
0.0
  0
VERTEX
  5
A8
330
A4
100
AcDbEntity
  8
_U+30EC_U+30A4_U+30E4_U+30FC 1
370
     0
100
AcDbVertex
100
AcDb2dVertex
 10
100.1423800747908
 20
-132.4852809998648
 30
0.0
  0
VERTEX
  5
A9
330
A4
100
AcDbEntity
  8
_U+30EC_U+30A4_U+30E4_U+30FC 1
370
     0
100
AcDbVertex
100
AcDb2dVertex
 10
99.48643389439923
 20
-132.4852809998648
 30
0.0
  0
VERTEX
  5
AA
330
A4
100
AcDbEntity
  8
_U+30EC_U+30A4_U+30E4_U+30FC 1
370
     0
100
AcDbVertex
100
AcDb2dVertex
 10
99.48643389439923
 20
-132.261005283775
 30
0.0
  0
VERTEX
  5
AB
330
A4
100
AcDbEntity
  8
_U+30EC_U+30A4_U+30E4_U+30FC 1
370
     0
100
AcDbVertex
100
AcDb2dVertex
 10
100.165462214542
 20
-131.287765809192
 30
0.0
  0
VERTEX
  5
AC
330
A4
100
AcDbEntity
  8
_U+30EC_U+30A4_U+30E4_U+30FC 1
370
     0
100
AcDbVertex
100
AcDb2dVertex
 10
100.3601101094586
 20
-131.287765809192
 30
0.0
  0
VERTEX
  5
AD
330
A4
100
AcDbEntity
  8
_U+30EC_U+30A4_U+30E4_U+30FC 1
370
     0
100
AcDbVertex
100
AcDb2dVertex
 10
100.3601101094586
 20
-132.2864989903659
 30
0.0
  0
VERTEX
  5
AE
330
A4
100
AcDbEntity
  8
_U+30EC_U+30A4_U+30E4_U+30FC 1
370
     0
100
AcDbVertex
100
AcDb2dVertex
 10
100.5675048576706
 20
-132.2864989903659
 30
0.0
  0
VERTEX
  5
AF
330
A4
100
AcDbEntity
  8
_U+30EC_U+30A4_U+30E4_U+30FC 1
370
     0
100
AcDbVertex
100
AcDb2dVertex
 10
100.5675048576706
 20
-132.4852809998648
 30
0.0
  0
VERTEX
  5
B0
330
A4
100
AcDbEntity
  8
_U+30EC_U+30A4_U+30E4_U+30FC 1
370
     0
100
AcDbVertex
100
AcDb2dVertex
 10
100.3601101094586
 20
-132.4852809998648
 30
0.0
  0
SEQEND
  5
B1
330
A4
100
AcDbEntity
  8
_U+30EC_U+30A4_U+30E4_U+30FC 1
370
     0
  0
POLYLINE
  5
B2
330
A0
100
AcDbEntity
  8
_U+30EC_U+30A4_U+30E4_U+30FC 1
370
     0
100
AcDb2dPolyline
 66
     1
 10
0.0
 20
0.0
 30
0.0
  0
VERTEX
  5
B3
330
B2
100
AcDbEntity
  8
_U+30EC_U+30A4_U+30E4_U+30FC 1
370
     0
100
AcDbVertex
100
AcDb2dVertex
 10
100.1423800747908
 20
-131.6305528099743
 30
0.0
  0
VERTEX
  5
B4
330
B2
100
AcDbEntity
  8
_U+30EC_U+30A4_U+30E4_U+30FC 1
370
     0
100
AcDbVertex
100
AcDb2dVertex
 10
99.68521590389814
 20
-132.2864989903659
 30
0.0
  0
VERTEX
  5
B5
330
B2
100
AcDbEntity
  8
_U+30EC_U+30A4_U+30E4_U+30FC 1
370
     0
100
AcDbVertex
100
AcDb2dVertex
 10
100.1423800747908
 20
-132.2864989903659
 30
0.0
  0
VERTEX
  5
B6
330
B2
100
AcDbEntity
  8
_U+30EC_U+30A4_U+30E4_U+30FC 1
370
     0
100
AcDbVertex
100
AcDb2dVertex
 10
100.1423800747908
 20
-131.6305528099743
 30
0.0
  0
SEQEND
  5
B7
330
B2
100
AcDbEntity
  8
_U+30EC_U+30A4_U+30E4_U+30FC 1
370
     0
  0
HATCH
  5
B8
330
A0
100
AcDbEntity
  8
_U+30EC_U+30A4_U+30E4_U+30FC 1
 62
   179
420
  2234388
100
AcDbHatch
 10
0.0
 20
0.0
 30
0.0
210
0.0
220
0.0
230
1.0
  2
SOLID
 70
     1
 71
     0
 91
        2
 92
        1
 93
       11
 72
     1
 10
100.3601101094586
 20
-132.4852809998648
 11
100.3601101094586
 21
-132.8322021152294
 72
     1
 10
100.3601101094586
 20
-132.8322021152294
 11
100.1423800747908
 21
-132.8322021152294
 72
     1
 10
100.1423800747908
 20
-132.8322021152294
 11
100.1423800747908
 21
-132.4852809998648
 72
     1
 10
100.1423800747908
 20
-132.4852809998648
 11
99.48643389439923
 21
-132.4852809998648
 72
     1
 10
99.48643389439923
 20
-132.4852809998648
 11
99.48643389439923
 21
-132.261005283775
 72
     1
 10
99.48643389439923
 20
-132.261005283775
 11
100.165462214542
 21
-131.287765809192
 72
     1
 10
100.165462214542
 20
-131.287765809192
 11
100.3601101094586
 21
-131.287765809192
 72
     1
 10
100.3601101094586
 20
-131.287765809192
 11
100.3601101094586
 21
-132.2864989903659
 72
     1
 10
100.3601101094586
 20
-132.2864989903659
 11
100.5675048576706
 21
-132.2864989903659
 72
     1
 10
100.5675048576706
 20
-132.2864989903659
 11
100.5675048576706
 21
-132.4852809998648
 72
     1
 10
100.5675048576706
 20
-132.4852809998648
 11
100.3601101094586
 21
-132.4852809998648
 97
        0
 92
        1
 93
        3
 72
     1
 10
100.1423800747908
 20
-131.6305528099743
 11
99.68521590389814
 21
-132.2864989903659
 72
     1
 10
99.68521590389814
 20
-132.2864989903659
 11
100.1423800747908
 21
-132.2864989903659
 72
     1
 10
100.1423800747908
 20
-132.2864989903659
 11
100.1423800747908
 21
-131.6305528099743
 97
        0
 75
     2
 76
     1
 98
        0
  0
SPLINE
  5
B9
330
A0
100
AcDbEntity
  8
_U+30EC_U+30A4_U+30E4_U+30FC 1
370
     0
100
AcDbSpline
210
0.0
220
0.0
230
1.0
 70
    11
 71
     3
 72
    29
 73
    25
 74
     0
 42
0.0000000001
 43
0.0000000001
 12
1.0
 22
0.0
 32
0.0
 13
1.0
 23
0.0
 33
0.0
 40
0.0
 40
0.0
 40
0.0
 40
0.0
 40
1.0
 40
1.0
 40
1.0
 40
2.0
 40
2.0
 40
2.0
 40
3.0
 40
3.0
 40
3.0
 40
4.0
 40
4.0
 40
4.0
 40
5.0
 40
5.0
 40
5.0
 40
6.0
 40
6.0
 40
6.0
 40
7.0
 40
7.0
 40
7.0
 40
8.0
 40
8.0
 40
8.0
 40
8.0
 10
101.6027560509882
 20
-132.6544351881906
 30
0.0
 10
101.4945800527514
 20
-132.8638969936937
 30
0.0
 10
101.3212917498433
 20
-132.8828450188626
 30
0.0
 10
101.2048475224419
 20
-132.8828450188626
 30
0.0
 10
101.0439615632807
 20
-132.8828450188626
 30
0.0
 10
100.9023681388369
 20
-132.8363362298118
 30
0.0
 10
100.807283503444
 20
-132.6544351881906
 30
0.0
 10
100.703586129338
 20
-132.459787293274
 30
0.0
 10
100.6846381041691
 20
-132.2227647238888
 30
0.0
 10
100.6846381041691
 20
-132.060156216985
 30
0.0
 10
100.6846381041691
 20
-131.9161512257015
 30
0.0
 10
100.7015190720468
 20
-131.6643147457298
 30
0.0
 10
100.807283503444
 20
-131.4655327362308
 30
0.0
 10
100.9151149921323
 20
-131.2626166121496
 30
0.0
 10
101.0760009512935
 20
-131.2391899628499
 30
0.0
 10
101.2048475224419
 20
-131.2391899628499
 30
0.0
 10
101.3636664243119
 20
-131.2391899628499
 30
0.0
 10
101.5073269060468
 20
-131.2836316946097
 30
0.0
 10
101.6027560509882
 20
-131.4655327362308
 30
0.0
 10
101.7019748009634
 20
-131.6581135738563
 30
0.0
 10
101.7254014502631
 20
-131.8865234045284
 30
0.0
 10
101.7254014502631
 20
-132.060156216985
 30
0.0
 10
101.7254014502631
 20
-132.2313774626019
 30
0.0
 10
101.7040418582546
 20
-132.4618543505651
 30
0.0
 10
101.6027560509882
 20
-132.6544351881906
 30
0.0
  0
SPLINE
  5
BA
330
A0
100
AcDbEntity
  8
_U+30EC_U+30A4_U+30E4_U+30FC 1
370
     0
100
AcDbSpline
210
0.0
220
0.0
230
1.0
 70
    11
 71
     3
 72
    17
 73
    13
 74
     0
 42
0.0000000001
 43
0.0000000001
 12
1.0
 22
0.0
 32
0.0
 13
1.0
 23
0.0
 33
0.0
 40
0.0
 40
0.0
 40
0.0
 40
0.0
 40
1.0
 40
1.0
 40
1.0
 40
2.0
 40
2.0
 40
2.0
 40
3.0
 40
3.0
 40
3.0
 40
4.0
 40
4.0
 40
4.0
 40
4.0
 10
101.2048475224419
 20
-131.4317708004754
 30
0.0
 10
100.9554226093098
 20
-131.4317708004754
 30
0.0
 10
100.9085693107104
 20
-131.7153021589115
 30
0.0
 10
100.9085693107104
 20
-132.060156216985
 30
0.0
 10
100.9085693107104
 20
-132.3795165684676
 30
0.0
 10
100.9447428133055
 20
-132.688197123946
 30
0.0
 10
101.2048475224419
 20
-132.688197123946
 30
0.0
 10
101.4525498878313
 20
-132.688197123946
 30
0.0
 10
101.5011257341733
 20
-132.4070773323496
 30
0.0
 10
101.5011257341733
 20
-132.060156216985
 30
0.0
 10
101.5011257341733
 20
-131.7404513559538
 30
0.0
 10
101.4628851742871
 20
-131.4317708004754
 30
0.0
 10
101.2048475224419
 20
-131.4317708004754
 30
0.0
  0
HATCH
  5
BB
330
A0
100
AcDbEntity
  8
_U+30EC_U+30A4_U+30E4_U+30FC 1
 62
   179
420
  2234388
100
AcDbHatch
 10
0.0
 20
0.0
 30
0.0
210
0.0
220
0.0
230
1.0
  2
SOLID
 70
     1
 71
     0
 91
        2
 92
        1
 93
        1
 72
     4
 94
        3
 73
     0
 74
     1
 95
       29
 96
       25
 40
0.0
 40
0.0
 40
0.0
 40
0.0
 40
1.0
 40
1.0
 40
1.0
 40
2.0
 40
2.0
 40
2.0
 40
3.0
 40
3.0
 40
3.0
 40
4.0
 40
4.0
 40
4.0
 40
5.0
 40
5.0
 40
5.0
 40
6.0
 40
6.0
 40
6.0
 40
7.0
 40
7.0
 40
7.0
 40
8.0
 40
8.0
 40
8.0
 40
8.0
 10
101.6027560509882
 20
-132.6544351881906
 10
101.4945800527514
 20
-132.8638969936937
 10
101.3212917498433
 20
-132.8828450188626
 10
101.2048475224419
 20
-132.8828450188626
 10
101.0439615632807
 20
-132.8828450188626
 10
100.9023681388369
 20
-132.8363362298118
 10
100.807283503444
 20
-132.6544351881906
 10
100.703586129338
 20
-132.459787293274
 10
100.6846381041691
 20
-132.2227647238888
 10
100.6846381041691
 20
-132.060156216985
 10
100.6846381041691
 20
-131.9161512257015
 10
100.7015190720468
 20
-131.6643147457298
 10
100.807283503444
 20
-131.4655327362308
 10
100.9151149921323
 20
-131.2626166121496
 10
101.0760009512935
 20
-131.2391899628499
 10
101.2048475224419
 20
-131.2391899628499
 10
101.3636664243119
 20
-131.2391899628499
 10
101.5073269060468
 20
-131.2836316946097
 10
101.6027560509882
 20
-131.4655327362308
 10
101.7019748009634
 20
-131.6581135738563
 10
101.7254014502631
 20
-131.8865234045284
 10
101.7254014502631
 20
-132.060156216985
 10
101.7254014502631
 20
-132.2313774626019
 10
101.7040418582546
 20
-132.4618543505651
 10
101.6027560509882
 20
-132.6544351881906
 97
        0
 97
        0
 92
        1
 93
        1
 72
     4
 94
        3
 73
     0
 74
     1
 95
       17
 96
       13
 40
0.0
 40
0.0
 40
0.0
 40
0.0
 40
1.0
 40
1.0
 40
1.0
 40
2.0
 40
2.0
 40
2.0
 40
3.0
 40
3.0
 40
3.0
 40
4.0
 40
4.0
 40
4.0
 40
4.0
 10
101.2048475224419
 20
-131.4317708004754
 10
100.9554226093098
 20
-131.4317708004754
 10
100.9085693107104
 20
-131.7153021589115
 10
100.9085693107104
 20
-132.060156216985
 10
100.9085693107104
 20
-132.3795165684676
 10
100.9447428133055
 20
-132.688197123946
 10
101.2048475224419
 20
-132.688197123946
 10
101.4525498878313
 20
-132.688197123946
 10
101.5011257341733
 20
-132.4070773323496
 10
101.5011257341733
 20
-132.060156216985
 10
101.5011257341733
 20
-131.7404513559538
 10
101.4628851742871
 20
-131.4317708004754
 10
101.2048475224419
 20
-131.4317708004754
 97
        0
 97
        0
 75
     2
 76
     1
 98
        0
  0
ENDBLK
  5
A3
330
A0
100
AcDbEntity
  8
0
100
AcDbBlockEnd
  0
BLOCK
  5
BE
330
BC
100
AcDbEntity
  8
0
100
AcDbBlockBegin
  2
block 8
 70
     0
 10
0.0
 20
0.0
 30
0.0
  3
block 8
  1

  0
SPLINE
  5
C0
330
BC
100
AcDbEntity
  8
_U+30EC_U+30A4_U+30E4_U+30FC 1
370
     0
100
AcDbSpline
210
0.0
220
0.0
230
1.0
 70
    11
 71
     3
 72
    35
 73
    31
 74
     0
 42
0.0000000001
 43
0.0000000001
 12
1.0
 22
0.0
 32
0.0
 13
1.0
 23
0.0
 33
0.0
 40
0.0
 40
0.0
 40
0.0
 40
0.0
 40
1.0
 40
1.0
 40
1.0
 40
2.0
 40
2.0
 40
2.0
 40
3.0
 40
3.0
 40
3.0
 40
4.0
 40
4.0
 40
4.0
 40
5.0
 40
5.0
 40
5.0
 40
6.0
 40
6.0
 40
6.0
 40
7.0
 40
7.0
 40
7.0
 40
8.0
 40
8.0
 40
8.0
 40
9.0
 40
9.0
 40
9.0
 40
10.0
 40
10.0
 40
10.0
 40
10.0
 10
80.33445907279834
 20
-134.4159125097988
 30
0.0
 10
80.33445907279834
 20
-134.4159125097988
 30
0.0
 10
80.28381616916516
 20
-134.6801513335175
 30
0.0
 10
80.28381616916516
 20
-134.6801513335175
 30
0.0
 10
80.42334253631778
 20
-134.6928981868129
 30
0.0
 10
80.75131562651356
 20
-134.7838487076235
 30
0.0
 10
80.75131562651356
 20
-135.1752115547479
 30
0.0
 10
80.75131562651356
 20
-135.6533908081005
 30
0.0
 10
80.34513886880261
 20
-135.7781032646666
 30
0.0
 10
80.07004799430541
 20
-135.7781032646666
 30
0.0
 10
80.07004799430541
 20
-135.7781032646666
 30
0.0
 10
80.00235186802026
 20
-136.1315700614532
 30
0.0
 10
80.00235186802026
 20
-136.1315700614532
 30
0.0
 10
80.00235186802026
 20
-136.1315700614532
 30
0.0
 10
79.79512937458247
 20
-136.1315700614532
 30
0.0
 10
79.79512937458247
 20
-136.1315700614532
 30
0.0
 10
79.79512937458247
 20
-136.1315700614532
 30
0.0
 10
79.86695961544993
 20
-135.76328935408
 30
0.0
 10
79.86695961544993
 20
-135.76328935408
 30
0.0
 10
79.75912812676161
 20
-135.7443413289111
 30
0.0
 10
79.40790064204039
 20
-135.6830186292737
 30
0.0
 10
79.40790064204039
 20
-135.2661620755585
 30
0.0
 10
79.40790064204039
 20
-134.8179551529275
 30
0.0
 10
79.76343449611818
 20
-134.6677489897706
 30
0.0
 10
80.07848847824427
 20
-134.6677489897706
 30
0.0
 10
80.07848847824427
 20
-134.6677489897706
 30
0.0
 10
80.12723657936056
 20
-134.4159125097988
 30
0.0
 10
80.12723657936056
 20
-134.4159125097988
 30
0.0
 10
80.12723657936056
 20
-134.4159125097988
 30
0.0
 10
80.33445907279834
 20
-134.4159125097988
 30
0.0
 10
80.33445907279834
 20
-134.4159125097988
 30
0.0
  0
SPLINE
  5
C1
330
BC
100
AcDbEntity
  8
_U+30EC_U+30A4_U+30E4_U+30FC 1
370
     0
100
AcDbSpline
210
0.0
220
0.0
230
1.0
 70
    11
 71
     3
 72
    14
 73
    10
 74
     0
 42
0.0000000001
 43
0.0000000001
 12
1.0
 22
0.0
 32
0.0
 13
1.0
 23
0.0
 33
0.0
 40
0.0
 40
0.0
 40
0.0
 40
0.0
 40
1.0
 40
1.0
 40
1.0
 40
2.0
 40
2.0
 40
2.0
 40
3.0
 40
3.0
 40
3.0
 40
3.0
 10
80.04472654248882
 20
-134.8410372926786
 30
0.0
 10
79.92414820050507
 20
-134.8496500313917
 30
0.0
 10
79.63010930083901
 20
-134.8727321711429
 30
0.0
 10
79.63010930083901
 20
-135.2706406996893
 30
0.0
 10
79.63010930083901
 20
-135.3340304566179
 30
0.0
 10
79.63010930083901
 20
-135.5476263767034
 30
0.0
 10
79.89882674868849
 20
-135.5920681084631
 30
0.0
 10
79.89882674868849
 20
-135.5920681084631
 30
0.0
 10
80.04472654248882
 20
-134.8410372926786
 30
0.0
 10
80.04472654248882
 20
-134.8410372926786
 30
0.0
  0
SPLINE
  5
C2
330
BC
100
AcDbEntity
  8
_U+30EC_U+30A4_U+30E4_U+30FC 1
370
     0
100
AcDbSpline
210
0.0
220
0.0
230
1.0
 70
    11
 71
     3
 72
    14
 73
    10
 74
     0
 42
0.0000000001
 43
0.0000000001
 12
1.0
 22
0.0
 32
0.0
 13
1.0
 23
0.0
 33
0.0
 40
0.0
 40
0.0
 40
0.0
 40
0.0
 40
1.0
 40
1.0
 40
1.0
 40
2.0
 40
2.0
 40
2.0
 40
3.0
 40
3.0
 40
3.0
 40
3.0
 10
80.10604924212628
 20
-135.6006808471762
 30
0.0
 10
80.28795028374746
 20
-135.5962022230454
 30
0.0
 10
80.53134627978037
 20
-135.5159314982391
 30
0.0
 10
80.53134627978037
 20
-135.1603976441613
 30
0.0
 10
80.53134627978037
 20
-135.0673800660595
 30
0.0
 10
80.51859942648494
 20
-134.8792778525649
 30
0.0
 10
80.2478149213443
 20
-134.8517170886829
 30
0.0
 10
80.2478149213443
 20
-134.8517170886829
 30
0.0
 10
80.10604924212628
 20
-135.6006808471762
 30
0.0
 10
80.10604924212628
 20
-135.6006808471762
 30
0.0
  0
HATCH
  5
C3
330
BC
100
AcDbEntity
  8
_U+30EC_U+30A4_U+30E4_U+30FC 1
 62
   179
420
  2234388
100
AcDbHatch
 10
0.0
 20
0.0
 30
0.0
210
0.0
220
0.0
230
1.0
  2
SOLID
 70
     1
 71
     0
 91
        3
 92
        1
 93
        1
 72
     4
 94
        3
 73
     0
 74
     1
 95
       35
 96
       31
 40
0.0
 40
0.0
 40
0.0
 40
0.0
 40
1.0
 40
1.0
 40
1.0
 40
2.0
 40
2.0
 40
2.0
 40
3.0
 40
3.0
 40
3.0
 40
4.0
 40
4.0
 40
4.0
 40
5.0
 40
5.0
 40
5.0
 40
6.0
 40
6.0
 40
6.0
 40
7.0
 40
7.0
 40
7.0
 40
8.0
 40
8.0
 40
8.0
 40
9.0
 40
9.0
 40
9.0
 40
10.0
 40
10.0
 40
10.0
 40
10.0
 10
80.33445907279834
 20
-134.4159125097988
 10
80.33445907279834
 20
-134.4159125097988
 10
80.28381616916516
 20
-134.6801513335175
 10
80.28381616916516
 20
-134.6801513335175
 10
80.42334253631778
 20
-134.6928981868129
 10
80.75131562651356
 20
-134.7838487076235
 10
80.75131562651356
 20
-135.1752115547479
 10
80.75131562651356
 20
-135.6533908081005
 10
80.34513886880261
 20
-135.7781032646666
 10
80.07004799430541
 20
-135.7781032646666
 10
80.07004799430541
 20
-135.7781032646666
 10
80.00235186802026
 20
-136.1315700614532
 10
80.00235186802026
 20
-136.1315700614532
 10
80.00235186802026
 20
-136.1315700614532
 10
79.79512937458247
 20
-136.1315700614532
 10
79.79512937458247
 20
-136.1315700614532
 10
79.79512937458247
 20
-136.1315700614532
 10
79.86695961544993
 20
-135.76328935408
 10
79.86695961544993
 20
-135.76328935408
 10
79.75912812676161
 20
-135.7443413289111
 10
79.40790064204039
 20
-135.6830186292737
 10
79.40790064204039
 20
-135.2661620755585
 10
79.40790064204039
 20
-134.8179551529275
 10
79.76343449611818
 20
-134.6677489897706
 10
80.07848847824427
 20
-134.6677489897706
 10
80.07848847824427
 20
-134.6677489897706
 10
80.12723657936056
 20
-134.4159125097988
 10
80.12723657936056
 20
-134.4159125097988
 10
80.12723657936056
 20
-134.4159125097988
 10
80.33445907279834
 20
-134.4159125097988
 10
80.33445907279834
 20
-134.4159125097988
 97
        0
 97
        0
 92
        1
 93
        1
 72
     4
 94
        3
 73
     0
 74
     1
 95
       14
 96
       10
 40
0.0
 40
0.0
 40
0.0
 40
0.0
 40
1.0
 40
1.0
 40
1.0
 40
2.0
 40
2.0
 40
2.0
 40
3.0
 40
3.0
 40
3.0
 40
3.0
 10
80.04472654248882
 20
-134.8410372926786
 10
79.92414820050507
 20
-134.8496500313917
 10
79.63010930083901
 20
-134.8727321711429
 10
79.63010930083901
 20
-135.2706406996893
 10
79.63010930083901
 20
-135.3340304566179
 10
79.63010930083901
 20
-135.5476263767034
 10
79.89882674868849
 20
-135.5920681084631
 10
79.89882674868849
 20
-135.5920681084631
 10
80.04472654248882
 20
-134.8410372926786
 10
80.04472654248882
 20
-134.8410372926786
 97
        0
 97
        0
 92
        1
 93
        1
 72
     4
 94
        3
 73
     0
 74
     1
 95
       14
 96
       10
 40
0.0
 40
0.0
 40
0.0
 40
0.0
 40
1.0
 40
1.0
 40
1.0
 40
2.0
 40
2.0
 40
2.0
 40
3.0
 40
3.0
 40
3.0
 40
3.0
 10
80.10604924212628
 20
-135.6006808471762
 10
80.28795028374746
 20
-135.5962022230454
 10
80.53134627978037
 20
-135.5159314982391
 10
80.53134627978037
 20
-135.1603976441613
 10
80.53134627978037
 20
-135.0673800660595
 10
80.51859942648494
 20
-134.8792778525649
 10
80.2478149213443
 20
-134.8517170886829
 10
80.2478149213443
 20
-134.8517170886829
 10
80.10604924212628
 20
-135.6006808471762
 10
80.10604924212628
 20
-135.6006808471762
 97
        0
 97
        0
 75
     2
 76
     1
 98
        0
  0
SPLINE
  5
C4
330
BC
100
AcDbEntity
  8
_U+30EC_U+30A4_U+30E4_U+30FC 1
370
     0
100
AcDbSpline
210
0.0
220
0.0
230
1.0
 70
    11
 71
     3
 72
    26
 73
    22
 74
     0
 42
0.0000000001
 43
0.0000000001
 12
1.0
 22
0.0
 32
0.0
 13
1.0
 23
0.0
 33
0.0
 40
0.0
 40
0.0
 40
0.0
 40
0.0
 40
1.0
 40
1.0
 40
1.0
 40
2.0
 40
2.0
 40
2.0
 40
3.0
 40
3.0
 40
3.0
 40
4.0
 40
4.0
 40
4.0
 40
5.0
 40
5.0
 40
5.0
 40
6.0
 40
6.0
 40
6.0
 40
7.0
 40
7.0
 40
7.0
 40
7.0
 10
81.37418889024673
 20
-135.7867160033797
 30
0.0
 10
81.37418889024673
 20
-135.7867160033797
 30
0.0
 10
81.13733857563581
 20
-135.7867160033797
 30
0.0
 10
81.13733857563581
 20
-135.7867160033797
 30
0.0
 10
81.16266002745239
 20
-135.4776909383528
 30
0.0
 10
81.35524086507786
 20
-134.9595485773712
 30
0.0
 10
81.76141762278881
 20
-134.4538085601366
 30
0.0
 10
81.76141762278881
 20
-134.4538085601366
 30
0.0
 10
80.92357040077606
 20
-134.4538085601366
 30
0.0
 10
80.92357040077606
 20
-134.4538085601366
 30
0.0
 10
80.92357040077606
 20
-134.4538085601366
 30
0.0
 10
80.92357040077606
 20
-134.2422796973422
 30
0.0
 10
80.92357040077606
 20
-134.2422796973422
 30
0.0
 10
80.92357040077606
 20
-134.2422796973422
 30
0.0
 10
81.99826793739975
 20
-134.2422796973422
 30
0.0
 10
81.99826793739975
 20
-134.2422796973422
 30
0.0
 10
81.99826793739975
 20
-134.2422796973422
 30
0.0
 10
81.99826793739975
 20
-134.4538085601366
 30
0.0
 10
81.99826793739975
 20
-134.4538085601366
 30
0.0
 10
81.67460121656052
 20
-134.7438855999946
 30
0.0
 10
81.40812308077645
 20
-135.336097513909
 30
0.0
 10
81.37418889024673
 20
-135.7867160033797
 30
0.0
  0
HATCH
  5
C5
330
BC
100
AcDbEntity
  8
_U+30EC_U+30A4_U+30E4_U+30FC 1
 62
   179
420
  2234388
100
AcDbHatch
 10
0.0
 20
0.0
 30
0.0
210
0.0
220
0.0
230
1.0
  2
SOLID
 70
     1
 71
     0
 91
        1
 92
        1
 93
        1
 72
     4
 94
        3
 73
     0
 74
     1
 95
       26
 96
       22
 40
0.0
 40
0.0
 40
0.0
 40
0.0
 40
1.0
 40
1.0
 40
1.0
 40
2.0
 40
2.0
 40
2.0
 40
3.0
 40
3.0
 40
3.0
 40
4.0
 40
4.0
 40
4.0
 40
5.0
 40
5.0
 40
5.0
 40
6.0
 40
6.0
 40
6.0
 40
7.0
 40
7.0
 40
7.0
 40
7.0
 10
81.37418889024673
 20
-135.7867160033797
 10
81.37418889024673
 20
-135.7867160033797
 10
81.13733857563581
 20
-135.7867160033797
 10
81.13733857563581
 20
-135.7867160033797
 10
81.16266002745239
 20
-135.4776909383528
 10
81.35524086507786
 20
-134.9595485773712
 10
81.76141762278881
 20
-134.4538085601366
 10
81.76141762278881
 20
-134.4538085601366
 10
80.92357040077606
 20
-134.4538085601366
 10
80.92357040077606
 20
-134.4538085601366
 10
80.92357040077606
 20
-134.4538085601366
 10
80.92357040077606
 20
-134.2422796973422
 10
80.92357040077606
 20
-134.2422796973422
 10
80.92357040077606
 20
-134.2422796973422
 10
81.99826793739975
 20
-134.2422796973422
 10
81.99826793739975
 20
-134.2422796973422
 10
81.99826793739975
 20
-134.2422796973422
 10
81.99826793739975
 20
-134.4538085601366
 10
81.99826793739975
 20
-134.4538085601366
 10
81.67460121656052
 20
-134.7438855999946
 10
81.40812308077645
 20
-135.336097513909
 10
81.37418889024673
 20
-135.7867160033797
 97
        0
 97
        0
 75
     2
 76
     1
 98
        0
  0
POLYLINE
  5
C6
330
BC
100
AcDbEntity
  8
_U+30EC_U+30A4_U+30E4_U+30FC 1
370
     0
100
AcDb2dPolyline
 66
     1
 10
0.0
 20
0.0
 30
0.0
  0
VERTEX
  5
C7
330
C6
100
AcDbEntity
  8
_U+30EC_U+30A4_U+30E4_U+30FC 1
370
     0
100
AcDbVertex
100
AcDb2dVertex
 10
82.19997827806112
 20
-135.7867160033797
 30
0.0
  0
VERTEX
  5
C8
330
C6
100
AcDbEntity
  8
_U+30EC_U+30A4_U+30E4_U+30FC 1
370
     0
100
AcDbVertex
100
AcDb2dVertex
 10
82.19997827806112
 20
-135.534879523408
 30
0.0
  0
VERTEX
  5
C9
330
C6
100
AcDbEntity
  8
_U+30EC_U+30A4_U+30E4_U+30FC 1
370
     0
100
AcDbVertex
100
AcDb2dVertex
 10
82.45164250325863
 20
-135.534879523408
 30
0.0
  0
VERTEX
  5
CA
330
C6
100
AcDbEntity
  8
_U+30EC_U+30A4_U+30E4_U+30FC 1
370
     0
100
AcDbVertex
100
AcDb2dVertex
 10
82.45164250325863
 20
-135.7867160033797
 30
0.0
  0
VERTEX
  5
CB
330
C6
100
AcDbEntity
  8
_U+30EC_U+30A4_U+30E4_U+30FC 1
370
     0
100
AcDbVertex
100
AcDb2dVertex
 10
82.19997827806112
 20
-135.7867160033797
 30
0.0
  0
SEQEND
  5
CC
330
C6
100
AcDbEntity
  8
_U+30EC_U+30A4_U+30E4_U+30FC 1
370
     0
  0
HATCH
  5
CD
330
BC
100
AcDbEntity
  8
_U+30EC_U+30A4_U+30E4_U+30FC 1
 62
   179
420
  2234388
100
AcDbHatch
 10
0.0
 20
0.0
 30
0.0
210
0.0
220
0.0
230
1.0
  2
SOLID
 70
     1
 71
     0
 91
        1
 92
        1
 93
        4
 72
     1
 10
82.19997827806112
 20
-135.7867160033797
 11
82.19997827806112
 21
-135.534879523408
 72
     1
 10
82.19997827806112
 20
-135.534879523408
 11
82.45164250325863
 21
-135.534879523408
 72
     1
 10
82.45164250325863
 20
-135.534879523408
 11
82.45164250325863
 21
-135.7867160033797
 72
     1
 10
82.45164250325863
 20
-135.7867160033797
 11
82.19997827806112
 21
-135.7867160033797
 97
        0
 75
     2
 76
     1
 98
        0
  0
SPLINE
  5
CE
330
BC
100
AcDbEntity
  8
_U+30EC_U+30A4_U+30E4_U+30FC 1
370
     0
100
AcDbSpline
210
0.0
220
0.0
230
1.0
 70
    11
 71
     3
 72
    53
 73
    49
 74
     0
 42
0.0000000001
 43
0.0000000001
 12
1.0
 22
0.0
 32
0.0
 13
1.0
 23
0.0
 33
0.0
 40
0.0
 40
0.0
 40
0.0
 40
0.0
 40
1.0
 40
1.0
 40
1.0
 40
2.0
 40
2.0
 40
2.0
 40
3.0
 40
3.0
 40
3.0
 40
4.0
 40
4.0
 40
4.0
 40
5.0
 40
5.0
 40
5.0
 40
6.0
 40
6.0
 40
6.0
 40
7.0
 40
7.0
 40
7.0
 40
8.0
 40
8.0
 40
8.0
 40
9.0
 40
9.0
 40
9.0
 40
10.0
 40
10.0
 40
10.0
 40
11.0
 40
11.0
 40
11.0
 40
12.0
 40
12.0
 40
12.0
 40
13.0
 40
13.0
 40
13.0
 40
14.0
 40
14.0
 40
14.0
 40
15.0
 40
15.0
 40
15.0
 40
16.0
 40
16.0
 40
16.0
 40
16.0
 10
83.1690836380619
 20
-135.8373589070129
 30
0.0
 10
83.09087997054672
 20
-135.8373589070129
 30
0.0
 10
82.98924965373186
 20
-135.8204779391352
 30
0.0
 10
82.88779159169125
 20
-135.7570881822066
 30
0.0
 10
82.71433103400892
 20
-135.6471896362271
 30
0.0
 10
82.69314369677464
 20
-135.5159314982391
 30
0.0
 10
82.6740234168315
 20
-135.4081000095508
 30
0.0
 10
82.6740234168315
 20
-135.4081000095508
 30
0.0
 10
82.89623207563011
 20
-135.4081000095508
 30
0.0
 10
82.89623207563011
 20
-135.4081000095508
 30
0.0
 10
82.95118134861984
 20
-135.6068820190497
 30
0.0
 10
83.0781331172513
 20
-135.6365098402228
 30
0.0
 10
83.17115069535305
 20
-135.6365098402228
 30
0.0
 10
83.31084931727993
 20
-135.6365098402228
 30
0.0
 10
83.46312253772797
 20
-135.5369465806991
 30
0.0
 10
83.46312253772797
 20
-135.3044026354447
 30
0.0
 10
83.46312253772797
 20
-135.0484320408907
 30
0.0
 10
83.28328855339794
 20
-134.9784966025401
 30
0.0
 10
83.1627102114142
 20
-134.9784966025401
 30
0.0
 10
83.13101533294989
 20
-134.9784966025401
 30
0.0
 10
82.98924965373186
 20
-134.9784966025401
 30
0.0
 10
82.90036619021241
 20
-135.107687683237
 30
0.0
 10
82.90036619021241
 20
-135.107687683237
 30
0.0
 10
82.72483857523893
 20
-135.0887396580681
 30
0.0
 10
82.72483857523893
 20
-135.0887396580681
 30
0.0
 10
82.72483857523893
 20
-135.0887396580681
 30
0.0
 10
82.84541691722268
 20
-134.2422796973422
 30
0.0
 10
82.84541691722268
 20
-134.2422796973422
 30
0.0
 10
82.84541691722268
 20
-134.2422796973422
 30
0.0
 10
83.62400849688915
 20
-134.2422796973422
 30
0.0
 10
83.62400849688915
 20
-134.2422796973422
 30
0.0
 10
83.62400849688915
 20
-134.2422796973422
 30
0.0
 10
83.62400849688915
 20
-134.4369275922588
 30
0.0
 10
83.62400849688915
 20
-134.4369275922588
 30
0.0
 10
83.62400849688915
 20
-134.4369275922588
 30
0.0
 10
83.008369933675
 20
-134.4369275922588
 30
0.0
 10
83.008369933675
 20
-134.4369275922588
 30
0.0
 10
83.008369933675
 20
-134.4369275922588
 30
0.0
 10
82.94274086468099
 20
-134.8599853178475
 30
0.0
 10
82.94274086468099
 20
-134.8599853178475
 30
0.0
 10
83.00406356431843
 20
-134.8262233820921
 30
0.0
 10
83.08657360119017
 20
-134.7859157649146
 30
0.0
 10
83.20508488588275
 20
-134.7859157649146
 30
0.0
 10
83.45898842314567
 20
-134.7859157649146
 30
0.0
 10
83.6958387377566
 20
-134.9722954306667
 30
0.0
 10
83.6958387377566
 20
-135.2854546102759
 30
0.0
 10
83.6958387377566
 20
-135.6027479044674
 30
0.0
 10
83.47156302166684
 20
-135.8373589070129
 30
0.0
 10
83.1690836380619
 20
-135.8373589070129
 30
0.0
  0
HATCH
  5
CF
330
BC
100
AcDbEntity
  8
_U+30EC_U+30A4_U+30E4_U+30FC 1
 62
   179
420
  2234388
100
AcDbHatch
 10
0.0
 20
0.0
 30
0.0
210
0.0
220
0.0
230
1.0
  2
SOLID
 70
     1
 71
     0
 91
        1
 92
        1
 93
        1
 72
     4
 94
        3
 73
     0
 74
     1
 95
       53
 96
       49
 40
0.0
 40
0.0
 40
0.0
 40
0.0
 40
1.0
 40
1.0
 40
1.0
 40
2.0
 40
2.0
 40
2.0
 40
3.0
 40
3.0
 40
3.0
 40
4.0
 40
4.0
 40
4.0
 40
5.0
 40
5.0
 40
5.0
 40
6.0
 40
6.0
 40
6.0
 40
7.0
 40
7.0
 40
7.0
 40
8.0
 40
8.0
 40
8.0
 40
9.0
 40
9.0
 40
9.0
 40
10.0
 40
10.0
 40
10.0
 40
11.0
 40
11.0
 40
11.0
 40
12.0
 40
12.0
 40
12.0
 40
13.0
 40
13.0
 40
13.0
 40
14.0
 40
14.0
 40
14.0
 40
15.0
 40
15.0
 40
15.0
 40
16.0
 40
16.0
 40
16.0
 40
16.0
 10
83.1690836380619
 20
-135.8373589070129
 10
83.09087997054672
 20
-135.8373589070129
 10
82.98924965373186
 20
-135.8204779391352
 10
82.88779159169125
 20
-135.7570881822066
 10
82.71433103400892
 20
-135.6471896362271
 10
82.69314369677464
 20
-135.5159314982391
 10
82.6740234168315
 20
-135.4081000095508
 10
82.6740234168315
 20
-135.4081000095508
 10
82.89623207563011
 20
-135.4081000095508
 10
82.89623207563011
 20
-135.4081000095508
 10
82.95118134861984
 20
-135.6068820190497
 10
83.0781331172513
 20
-135.6365098402228
 10
83.17115069535305
 20
-135.6365098402228
 10
83.31084931727993
 20
-135.6365098402228
 10
83.46312253772797
 20
-135.5369465806991
 10
83.46312253772797
 20
-135.3044026354447
 10
83.46312253772797
 20
-135.0484320408907
 10
83.28328855339794
 20
-134.9784966025401
 10
83.1627102114142
 20
-134.9784966025401
 10
83.13101533294989
 20
-134.9784966025401
 10
82.98924965373186
 20
-134.9784966025401
 10
82.90036619021241
 20
-135.107687683237
 10
82.90036619021241
 20
-135.107687683237
 10
82.72483857523893
 20
-135.0887396580681
 10
82.72483857523893
 20
-135.0887396580681
 10
82.72483857523893
 20
-135.0887396580681
 10
82.84541691722268
 20
-134.2422796973422
 10
82.84541691722268
 20
-134.2422796973422
 10
82.84541691722268
 20
-134.2422796973422
 10
83.62400849688915
 20
-134.2422796973422
 10
83.62400849688915
 20
-134.2422796973422
 10
83.62400849688915
 20
-134.2422796973422
 10
83.62400849688915
 20
-134.4369275922588
 10
83.62400849688915
 20
-134.4369275922588
 10
83.62400849688915
 20
-134.4369275922588
 10
83.008369933675
 20
-134.4369275922588
 10
83.008369933675
 20
-134.4369275922588
 10
83.008369933675
 20
-134.4369275922588
 10
82.94274086468099
 20
-134.8599853178475
 10
82.94274086468099
 20
-134.8599853178475
 10
83.00406356431843
 20
-134.8262233820921
 10
83.08657360119017
 20
-134.7859157649146
 10
83.20508488588275
 20
-134.7859157649146
 10
83.45898842314567
 20
-134.7859157649146
 10
83.6958387377566
 20
-134.9722954306667
 10
83.6958387377566
 20
-135.2854546102759
 10
83.6958387377566
 20
-135.6027479044674
 10
83.47156302166684
 20
-135.8373589070129
 10
83.1690836380619
 20
-135.8373589070129
 97
        0
 97
        0
 75
     2
 76
     1
 98
        0
  0
ENDBLK
  5
BF
330
BC
100
AcDbEntity
  8
0
100
AcDbBlockEnd
  0
ENDSEC
  0
SECTION
  2
ENTITIES
  0
INSERT
  5
42
330
1F
100
AcDbEntity
  8
_U+30EC_U+30A4_U+30E4_U+30FC 1
100
AcDbBlockReference
  2
block 2
 10
0.0
 20
0.0
 30
0.0
  0
ENDSEC
  0
SECTION
  2
OBJECTS
  0
DICTIONARY
  5
C
330
0
100
AcDbDictionary
281
     1
  3
ACAD_GROUP
350
D
  3
ACAD_LAYOUT
350
1A
  3
ACAD_MATERIAL
350
3B
  3
ACAD_MLEADERSTYLE
350
DB
  3
ACAD_MLINESTYLE
350
17
  3
ACAD_PLOTSETTINGS
350
19
  3
ACAD_PLOTSTYLENAME
350
E
  3
ACAD_TABLESTYLE
350
DA
  3
ACAD_VISUALSTYLE
350
2A
  0
SUN
  5
3F
330
29
100
AcDbSun
 90
        1
290
     0
 63
     7
421
 16777215
 40
1.0
291
     1
 91
  2455826
 92
 54000000
292
     0
 70
     2
 71
   256
280
     1
  0
DICTIONARY
  5
D
102
{ACAD_REACTORS
330
C
102
}
330
C
100
AcDbDictionary
281
     1
  0
DICTIONARY
  5
1A
102
{ACAD_REACTORS
330
C
102
}
330
C
100
AcDbDictionary
281
     1
  3
Layout1
350
1E
  3
Layout2
350
26
  3
Model
350
22
  0
DICTIONARY
  5
3B
102
{ACAD_REACTORS
330
C
102
}
330
C
100
AcDbDictionary
281
     1
  3
ByBlock
350
3D
  3
ByLayer
350
3C
  3
Global
350
3E
  0
DICTIONARY
  5
DB
102
{ACAD_REACTORS
330
C
102
}
330
C
100
AcDbDictionary
281
     1
  0
DICTIONARY
  5
17
102
{ACAD_REACTORS
330
C
102
}
330
C
100
AcDbDictionary
281
     1
  3
Standard
350
18
  0
DICTIONARY
  5
19
102
{ACAD_REACTORS
330
C
102
}
330
C
100
AcDbDictionary
281
     1
  0
ACDBDICTIONARYWDFLT
  5
E
102
{ACAD_REACTORS
330
C
102
}
330
C
100
AcDbDictionary
281
     1
  3
Normal
350
F
100
AcDbDictionaryWithDefault
340
F
  0
DICTIONARY
  5
DA
102
{ACAD_REACTORS
330
C
102
}
330
C
100
AcDbDictionary
281
     1
  0
DICTIONARY
  5
2A
102
{ACAD_REACTORS
330
C
102
}
330
C
100
AcDbDictionary
281
     1
  3
2dWireframe
350
2F
  3
3D Hidden
350
31
  3
3dWireframe
350
30
  3
Basic
350
32
  3
Brighten
350
36
  3
ColorChange
350
3A
  3
Conceptual
350
34
  3
Dim
350
35
  3
Facepattern
350
39
  3
Flat
350
2B
  3
FlatWithEdges
350
2C
  3
Gouraud
350
2D
  3
GouraudWithEdges
350
2E
  3
Linepattern
350
38
  3
Realistic
350
33
  3
Thicken
350
37
  0
LAYOUT
  5
1E
102
{ACAD_REACTORS
330
1A
102
}
330
1A
100
AcDbPlotSettings
  1

  2
none_device
  4

  6

 40
0.0
 41
0.0
 42
0.0
 43
0.0
 44
0.0
 45
0.0
 46
0.0
 47
0.0
 48
0.0
 49
0.0
140
0.0
141
0.0
142
1.0
143
1.0
 70
   688
 72
     0
 73
     0
 74
     5
  7

 75
    16
 76
     0
 77
     2
 78
   300
147
1.0
148
0.0
149
0.0
100
AcDbLayout
  1
Layout1
 70
     1
 71
     1
 10
0.0
 20
0.0
 11
12.0
 21
9.0
 12
0.0
 22
0.0
 32
0.0
 14
1.000000000000000E+20
 24
1.000000000000000E+20
 34
1.000000000000000E+20
 15
-1.000000000000000E+20
 25
-1.000000000000000E+20
 35
-1.000000000000000E+20
146
0.0
 13
0.0
 23
0.0
 33
0.0
 16
1.0
 26
0.0
 36
0.0
 17
0.0
 27
1.0
 37
0.0
 76
     0
330
1B
  0
LAYOUT
  5
26
102
{ACAD_REACTORS
330
1A
102
}
330
1A
100
AcDbPlotSettings
  1

  2
none_device
  4

  6

 40
0.0
 41
0.0
 42
0.0
 43
0.0
 44
0.0
 45
0.0
 46
0.0
 47
0.0
 48
0.0
 49
0.0
140
0.0
141
0.0
142
1.0
143
1.0
 70
   688
 72
     0
 73
     0
 74
     5
  7

 75
    16
 76
     0
 77
     2
 78
   300
147
1.0
148
0.0
149
0.0
100
AcDbLayout
  1
Layout2
 70
     1
 71
     2
 10
0.0
 20
0.0
 11
0.0
 21
0.0
 12
0.0
 22
0.0
 32
0.0
 14
0.0
 24
0.0
 34
0.0
 15
0.0
 25
0.0
 35
0.0
146
0.0
 13
0.0
 23
0.0
 33
0.0
 16
1.0
 26
0.0
 36
0.0
 17
0.0
 27
1.0
 37
0.0
 76
     0
330
23
  0
LAYOUT
  5
22
102
{ACAD_REACTORS
330
1A
102
}
330
1A
100
AcDbPlotSettings
  1

  2
none_device
  4

  6

 40
0.0
 41
0.0
 42
0.0
 43
0.0
 44
0.0
 45
0.0
 46
0.0
 47
0.0
 48
0.0
 49
0.0
140
0.0
141
0.0
142
1.0
143
1.0
 70
  1712
 72
     0
 73
     0
 74
     0
  7

 75
     0
 76
     0
 77
     2
 78
   300
147
1.0
148
0.0
149
0.0
100
AcDbLayout
  1
Model
 70
     1
 71
     0
 10
0.0
 20
0.0
 11
12.0
 21
9.0
 12
0.0
 22
0.0
 32
0.0
 14
1.000000000000000E+20
 24
1.000000000000000E+20
 34
1.000000000000000E+20
 15
-1.000000000000000E+20
 25
-1.000000000000000E+20
 35
-1.000000000000000E+20
146
0.0
 13
0.0
 23
0.0
 33
0.0
 16
1.0
 26
0.0
 36
0.0
 17
0.0
 27
1.0
 37
0.0
 76
     0
330
1F
331
29
  0
MATERIAL
  5
3D
102
{ACAD_REACTORS
330
3B
102
}
330
3B
100
AcDbMaterial
  1
ByBlock
 72
     1
 94
      127
  0
MATERIAL
  5
3C
102
{ACAD_REACTORS
330
3B
102
}
330
3B
100
AcDbMaterial
  1
ByLayer
 72
     1
 94
      127
  0
MATERIAL
  5
3E
102
{ACAD_REACTORS
330
3B
102
}
330
3B
100
AcDbMaterial
  1
Global
 72
     1
 94
      127
  0
MLINESTYLE
  5
18
102
{ACAD_REACTORS
330
17
102
}
330
17
100
AcDbMlineStyle
  2
Standard
 70
     0
  3

 62
   256
 51
90.0
 52
90.0
 71
     2
 49
0.5
 62
   256
  6
BYLAYER
 49
-0.5
 62
   256
  6
BYLAYER
  0
ACDBPLACEHOLDER
  5
F
102
{ACAD_REACTORS
330
E
102
}
330
E
  0
VISUALSTYLE
  5
2F
102
{ACAD_REACTORS
330
2A
102
}
330
2A
100
AcDbVisualStyle
  2
2dWireframe
 70
     4
177
     2
291
     0
 71
     0
176
     1
 72
     2
176
     1
 73
     0
176
     1
 90
        0
176
     1
 40
-0.6
176
     1
 41
-30.0
176
     1
 62
     5
 63
     7
421
 16777215
176
     1
 74
     1
176
     1
 91
        4
176
     1
 64
     7
176
     1
 65
   257
176
     1
 75
     1
176
     1
175
     1
176
     1
 42
1.0
176
     1
 92
        0
176
     1
 66
   257
176
     1
 43
1.0
176
     1
 76
     1
176
     1
 77
     6
176
     1
 78
     2
176
     1
 67
     7
176
     1
 79
     5
176
     1
170
     0
176
     1
171
     0
176
     1
290
     0
176
     1
 93
        1
176
     1
 44
0.0
176
     1
173
     0
176
     1
  0
VISUALSTYLE
  5
31
102
{ACAD_REACTORS
330
2A
102
}
330
2A
100
AcDbVisualStyle
  2
3D Hidden
 70
     6
177
     2
291
     0
 71
     1
176
     1
 72
     2
176
     1
 73
     2
176
     1
 90
        0
176
     1
 40
-0.6
176
     1
 41
-30.0
176
     1
 62
     5
 63
     7
421
 16777215
176
     1
 74
     2
176
     1
 91
        2
176
     1
 64
     7
176
     1
 65
   257
176
     1
 75
     2
176
     1
175
     1
176
     1
 42
40.0
176
     1
 92
        0
176
     1
 66
   257
176
     1
 43
1.0
176
     1
 76
     1
176
     1
 77
     6
176
     1
 78
     2
176
     1
 67
     7
176
     1
 79
     3
176
     1
170
     0
176
     1
171
     0
176
     1
290
     0
176
     1
 93
        1
176
     1
 44
0.0
176
     1
173
     0
176
     1
  0
VISUALSTYLE
  5
30
102
{ACAD_REACTORS
330
2A
102
}
330
2A
100
AcDbVisualStyle
  2
3dWireframe
 70
     5
177
     2
291
     0
 71
     0
176
     1
 72
     2
176
     1
 73
     0
176
     1
 90
        0
176
     1
 40
-0.6
176
     1
 41
-30.0
176
     1
 62
     5
 63
     7
421
 16777215
176
     1
 74
     1
176
     1
 91
        4
176
     1
 64
     7
176
     1
 65
   257
176
     1
 75
     1
176
     1
175
     1
176
     1
 42
1.0
176
     1
 92
        0
176
     1
 66
   257
176
     1
 43
1.0
176
     1
 76
     1
176
     1
 77
     6
176
     1
 78
     2
176
     1
 67
     7
176
     1
 79
     5
176
     1
170
     0
176
     1
171
     0
176
     1
290
     0
176
     1
 93
        1
176
     1
 44
0.0
176
     1
173
     0
176
     1
  0
VISUALSTYLE
  5
32
102
{ACAD_REACTORS
330
2A
102
}
330
2A
100
AcDbVisualStyle
  2
Basic
 70
     7
177
     2
291
     1
 71
     1
176
     1
 72
     0
176
     1
 73
     1
176
     1
 90
        0
176
     1
 40
-0.6
176
     1
 41
-30.0
176
     1
 62
     5
 63
     7
421
 16777215
176
     1
 74
     0
176
     1
 91
        4
176
     1
 64
     7
176
     1
 65
   257
176
     1
 75
     1
176
     1
175
     1
176
     1
 42
1.0
176
     1
 92
        8
176
     1
 66
     7
176
     1
 43
1.0
176
     1
 76
     1
176
     1
 77
     6
176
     1
 78
     2
176
     1
 67
     7
176
     1
 79
     5
176
     1
170
     0
176
     1
171
     0
176
     1
290
     0
176
     1
 93
        1
176
     1
 44
0.0
176
     1
173
     0
176
     1
  0
VISUALSTYLE
  5
36
102
{ACAD_REACTORS
330
2A
102
}
330
2A
100
AcDbVisualStyle
  2
Brighten
 70
    12
177
     2
291
     1
 71
     2
176
     1
 72
     2
176
     1
 73
     0
176
     1
 90
        0
176
     1
 40
-0.6
176
     1
 41
-30.0
176
     1
 62
     5
 63
     7
421
 16777215
176
     1
 74
     1
176
     1
 91
        4
176
     1
 64
     7
176
     1
 65
   257
176
     1
 75
     1
176
     1
175
     1
176
     1
 42
1.0
176
     1
 92
        8
176
     1
 66
     7
176
     1
 43
1.0
176
     1
 76
     1
176
     1
 77
     6
176
     1
 78
     2
176
     1
 67
     7
176
     1
 79
     5
176
     1
170
     0
176
     1
171
     0
176
     1
290
     0
176
     1
 93
        1
176
     1
 44
50.0
176
     1
173
     0
176
     1
  0
VISUALSTYLE
  5
3A
102
{ACAD_REACTORS
330
2A
102
}
330
2A
100
AcDbVisualStyle
  2
ColorChange
 70
    16
177
     2
291
     1
 71
     2
176
     1
 72
     2
176
     1
 73
     3
176
     1
 90
        0
176
     1
 40
-0.6
176
     1
 41
-30.0
176
     1
 62
     5
 63
     8
421
  8421504
176
     1
 74
     1
176
     1
 91
        4
176
     1
 64
     7
176
     1
 65
   257
176
     1
 75
     1
176
     1
175
     1
176
     1
 42
1.0
176
     1
 92
        8
176
     1
 66
     8
424
  8421504
176
     1
 43
1.0
176
     1
 76
     1
176
     1
 77
     6
176
     1
 78
     2
176
     1
 67
     7
176
     1
 79
     5
176
     1
170
     0
176
     1
171
     0
176
     1
290
     0
176
     1
 93
        1
176
     1
 44
0.0
176
     1
173
     0
176
     1
  0
VISUALSTYLE
  5
34
102
{ACAD_REACTORS
330
2A
102
}
330
2A
100
AcDbVisualStyle
  2
Conceptual
 70
     9
177
     2
291
     0
 71
     3
176
     1
 72
     2
176
     1
 73
     0
176
     1
 90
        0
176
     1
 40
-0.6
176
     1
 41
-30.0
176
     1
 62
     5
 63
     7
421
 16777215
176
     1
 74
     2
176
     1
 91
        2
176
     1
 64
     7
176
     1
 65
   257
176
     1
 75
     1
176
     1
175
     1
176
     1
 42
40.0
176
     1
 92
        8
176
     1
 66
     7
176
     1
 43
1.0
176
     1
 76
     1
176
     1
 77
     6
176
     1
 78
     2
176
     1
 67
     7
176
     1
 79
     3
176
     1
170
     0
176
     1
171
     0
176
     1
290
     0
176
     1
 93
        1
176
     1
 44
0.0
176
     1
173
     0
176
     1
  0
VISUALSTYLE
  5
35
102
{ACAD_REACTORS
330
2A
102
}
330
2A
100
AcDbVisualStyle
  2
Dim
 70
    11
177
     2
291
     1
 71
     2
176
     1
 72
     2
176
     1
 73
     0
176
     1
 90
        0
176
     1
 40
-0.6
176
     1
 41
-30.0
176
     1
 62
     5
 63
     7
421
 16777215
176
     1
 74
     1
176
     1
 91
        4
176
     1
 64
     7
176
     1
 65
   257
176
     1
 75
     1
176
     1
175
     1
176
     1
 42
1.0
176
     1
 92
        8
176
     1
 66
     7
176
     1
 43
1.0
176
     1
 76
     1
176
     1
 77
     6
176
     1
 78
     2
176
     1
 67
     7
176
     1
 79
     5
176
     1
170
     0
176
     1
171
     0
176
     1
290
     0
176
     1
 93
        1
176
     1
 44
-50.0
176
     1
173
     0
176
     1
  0
VISUALSTYLE
  5
39
102
{ACAD_REACTORS
330
2A
102
}
330
2A
100
AcDbVisualStyle
  2
Facepattern
 70
    15
177
     2
291
     1
 71
     2
176
     1
 72
     2
176
     1
 73
     0
176
     1
 90
        0
176
     1
 40
-0.6
176
     1
 41
-30.0
176
     1
 62
     5
 63
     7
421
 16777215
176
     1
 74
     1
176
     1
 91
        4
176
     1
 64
     7
176
     1
 65
   257
176
     1
 75
     1
176
     1
175
     1
176
     1
 42
1.0
176
     1
 92
        8
176
     1
 66
     7
176
     1
 43
1.0
176
     1
 76
     1
176
     1
 77
     6
176
     1
 78
     2
176
     1
 67
     7
176
     1
 79
     5
176
     1
170
     0
176
     1
171
     0
176
     1
290
     0
176
     1
 93
        1
176
     1
 44
0.0
176
     1
173
     0
176
     1
  0
VISUALSTYLE
  5
2B
102
{ACAD_REACTORS
330
2A
102
}
330
2A
100
AcDbVisualStyle
  2
Flat
 70
     0
177
     2
291
     1
 71
     2
176
     1
 72
     1
176
     1
 73
     1
176
     1
 90
        2
176
     1
 40
-0.6
176
     1
 41
30.0
176
     1
 62
     5
 63
     7
421
 16777215
176
     1
 74
     0
176
     1
 91
        4
176
     1
 64
     7
176
     1
 65
   257
176
     1
 75
     1
176
     1
175
     1
176
     1
 42
1.0
176
     1
 92
        8
176
     1
 66
     7
176
     1
 43
1.0
176
     1
 76
     1
176
     1
 77
     6
176
     1
 78
     2
176
     1
 67
     7
176
     1
 79
     5
176
     1
170
     0
176
     1
171
     0
176
     1
290
     0
176
     1
 93
       13
176
     1
 44
0.0
176
     1
173
     0
176
     1
  0
VISUALSTYLE
  5
2C
102
{ACAD_REACTORS
330
2A
102
}
330
2A
100
AcDbVisualStyle
  2
FlatWithEdges
 70
     1
177
     2
291
     1
 71
     2
176
     1
 72
     1
176
     1
 73
     1
176
     1
 90
        2
176
     1
 40
-0.6
176
     1
 41
30.0
176
     1
 62
     5
 63
     7
421
 16777215
176
     1
 74
     1
176
     1
 91
        4
176
     1
 64
     7
176
     1
 65
   257
176
     1
 75
     1
176
     1
175
     1
176
     1
 42
1.0
176
     1
 92
        0
176
     1
 66
   257
176
     1
 43
1.0
176
     1
 76
     1
176
     1
 77
     6
176
     1
 78
     2
176
     1
 67
     7
176
     1
 79
     5
176
     1
170
     0
176
     1
171
     0
176
     1
290
     0
176
     1
 93
       13
176
     1
 44
0.0
176
     1
173
     0
176
     1
  0
VISUALSTYLE
  5
2D
102
{ACAD_REACTORS
330
2A
102
}
330
2A
100
AcDbVisualStyle
  2
Gouraud
 70
     2
177
     2
291
     1
 71
     2
176
     1
 72
     2
176
     1
 73
     1
176
     1
 90
        2
176
     1
 40
-0.6
176
     1
 41
30.0
176
     1
 62
     5
 63
     7
421
 16777215
176
     1
 74
     0
176
     1
 91
        4
176
     1
 64
     7
176
     1
 65
   257
176
     1
 75
     1
176
     1
175
     1
176
     1
 42
1.0
176
     1
 92
        0
176
     1
 66
     7
176
     1
 43
1.0
176
     1
 76
     1
176
     1
 77
     6
176
     1
 78
     2
176
     1
 67
     7
176
     1
 79
     5
176
     1
170
     0
176
     1
171
     0
176
     1
290
     0
176
     1
 93
       13
176
     1
 44
0.0
176
     1
173
     0
176
     1
  0
VISUALSTYLE
  5
2E
102
{ACAD_REACTORS
330
2A
102
}
330
2A
100
AcDbVisualStyle
  2
GouraudWithEdges
 70
     3
177
     2
291
     1
 71
     2
176
     1
 72
     2
176
     1
 73
     1
176
     1
 90
        2
176
     1
 40
-0.6
176
     1
 41
30.0
176
     1
 62
     5
 63
     7
421
 16777215
176
     1
 74
     1
176
     1
 91
        4
176
     1
 64
     7
176
     1
 65
   257
176
     1
 75
     1
176
     1
175
     1
176
     1
 42
1.0
176
     1
 92
        0
176
     1
 66
   257
176
     1
 43
1.0
176
     1
 76
     1
176
     1
 77
     6
176
     1
 78
     2
176
     1
 67
     7
176
     1
 79
     5
176
     1
170
     0
176
     1
171
     0
176
     1
290
     0
176
     1
 93
       13
176
     1
 44
0.0
176
     1
173
     0
176
     1
  0
VISUALSTYLE
  5
38
102
{ACAD_REACTORS
330
2A
102
}
330
2A
100
AcDbVisualStyle
  2
Linepattern
 70
    14
177
     2
291
     1
 71
     2
176
     1
 72
     2
176
     1
 73
     0
176
     1
 90
        0
176
     1
 40
-0.6
176
     1
 41
-30.0
176
     1
 62
     5
 63
     7
421
 16777215
176
     1
 74
     1
176
     1
 91
        4
176
     1
 64
     7
176
     1
 65
   257
176
     1
 75
     7
176
     1
175
     7
176
     1
 42
1.0
176
     1
 92
        8
176
     1
 66
     7
176
     1
 43
1.0
176
     1
 76
     1
176
     1
 77
     6
176
     1
 78
     2
176
     1
 67
     7
176
     1
 79
     5
176
     1
170
     0
176
     1
171
     0
176
     1
290
     0
176
     1
 93
        1
176
     1
 44
0.0
176
     1
173
     0
176
     1
  0
VISUALSTYLE
  5
33
102
{ACAD_REACTORS
330
2A
102
}
330
2A
100
AcDbVisualStyle
  2
Realistic
 70
     8
177
     2
291
     0
 71
     2
176
     1
 72
     2
176
     1
 73
     0
176
     1
 90
        0
176
     1
 40
-0.6
176
     1
 41
-30.0
176
     1
 62
     5
 63
     7
421
 16777215
176
     1
 74
     1
176
     1
 91
        0
176
     1
 64
     7
176
     1
 65
   257
176
     1
 75
     1
176
     1
175
     1
176
     1
 42
1.0
176
     1
 92
        8
176
     1
 66
     8
424
  7895160
176
     1
 43
1.0
176
     1
 76
     1
176
     1
 77
     6
176
     1
 78
     2
176
     1
 67
     7
176
     1
 79
     5
176
     1
170
     0
176
     1
171
     0
176
     1
290
     0
176
     1
 93
       13
176
     1
 44
0.0
176
     1
173
     0
176
     1
  0
VISUALSTYLE
  5
37
102
{ACAD_REACTORS
330
2A
102
}
330
2A
100
AcDbVisualStyle
  2
Thicken
 70
    13
177
     2
291
     1
 71
     2
176
     1
 72
     2
176
     1
 73
     0
176
     1
 90
        0
176
     1
 40
-0.6
176
     1
 41
-30.0
176
     1
 62
     5
 63
     7
421
 16777215
176
     1
 74
     1
176
     1
 91
        4
176
     1
 64
     7
176
     1
 65
   257
176
     1
 75
     1
176
     1
175
     1
176
     1
 42
1.0
176
     1
 92
       12
176
     1
 66
     7
176
     1
 43
1.0
176
     1
 76
     1
176
     1
 77
     6
176
     1
 78
     2
176
     1
 67
     7
176
     1
 79
     5
176
     1
170
     0
176
     1
171
     0
176
     1
290
     0
176
     1
 93
        1
176
     1
 44
0.0
176
     1
173
     0
176
     1
  0
ENDSEC
  0
EOF
