  0
SECTION
  2
HEADER
  9
$ACADVER
  1
AC1024
  9
$ACADMAINTVER
 70
     6
  9
$DWGCODEPAGE
  3
UNDEFINED
  9
$INSBASE
 10
0.0
 20
0.0
 30
0.0
  9
$EXTMIN
 10
1.000000000000000E+20
 20
1.000000000000000E+20
 30
1.000000000000000E+20
  9
$EXTMAX
 10
-1.000000000000000E+20
 20
-1.000000000000000E+20
 30
-1.000000000000000E+20
  9
$LIMMIN
 10
0.0
 20
0.0
  9
$LIMMAX
 10
12.0
 20
9.0
  9
$ORTHOMODE
 70
     0
  9
$REGENMODE
 70
     1
  9
$FILLMODE
 70
     1
  9
$QTEXTMODE
 70
     0
  9
$MIRRTEXT
 70
     1
  9
$LTSCALE
 40
1.0
  9
$ATTMODE
 70
     1
  9
$TEXTSIZE
 40
0.2
  9
$TRACEWID
 40
0.05
  9
$TEXTSTYLE
  7
Standard
  9
$CLAYER
  8
0
  9
$CELTYPE
  6
ByLayer
  9
$CECOLOR
 62
   256
  9
$CELTSCALE
 40
1.0
  9
$DISPSILH
 70
     0
  9
$DIMSCALE
 40
1.0
  9
$DIMASZ
 40
0.18
  9
$DIMEXO
 40
0.0625
  9
$DIMDLI
 40
0.38
  9
$DIMRND
 40
0.0
  9
$DIMDLE
 40
0.0
  9
$DIMEXE
 40
0.18
  9
$DIMTP
 40
0.0
  9
$DIMTM
 40
0.0
  9
$DIMTXT
 40
0.18
  9
$DIMCEN
 40
0.09
  9
$DIMTSZ
 40
0.0
  9
$DIMTOL
 70
     0
  9
$DIMLIM
 70
     0
  9
$DIMTIH
 70
     1
  9
$DIMTOH
 70
     1
  9
$DIMSE1
 70
     0
  9
$DIMSE2
 70
     0
  9
$DIMTAD
 70
     0
  9
$DIMZIN
 70
     0
  9
$DIMBLK
  1

  9
$DIMASO
 70
     1
  9
$DIMSHO
 70
     1
  9
$DIMPOST
  1

  9
$DIMAPOST
  1

  9
$DIMALT
 70
     0
  9
$DIMALTD
 70
     2
  9
$DIMALTF
 40
25.4
  9
$DIMLFAC
 40
1.0
  9
$DIMTOFL
 70
     0
  9
$DIMTVP
 40
0.0
  9
$DIMTIX
 70
     0
  9
$DIMSOXD
 70
     0
  9
$DIMSAH
 70
     0
  9
$DIMBLK1
  1

  9
$DIMBLK2
  1

  9
$DIMSTYLE
  2
Standard
  9
$DIMCLRD
 70
     0
  9
$DIMCLRE
 70
     0
  9
$DIMCLRT
 70
     0
  9
$DIMTFAC
 40
1.0
  9
$DIMGAP
 40
0.09
  9
$DIMJUST
 70
     0
  9
$DIMSD1
 70
     0
  9
$DIMSD2
 70
     0
  9
$DIMTOLJ
 70
     1
  9
$DIMTZIN
 70
     0
  9
$DIMALTZ
 70
     0
  9
$DIMALTTZ
 70
     0
  9
$DIMUPT
 70
     0
  9
$DIMDEC
 70
     4
  9
$DIMTDEC
 70
     4
  9
$DIMALTU
 70
     2
  9
$DIMALTTD
 70
     2
  9
$DIMTXSTY
  7
Standard
  9
$DIMAUNIT
 70
     0
  9
$DIMADEC
 70
     0
  9
$DIMALTRND
 40
0.0
  9
$DIMAZIN
 70
     0
  9
$DIMDSEP
 70
    46
  9
$DIMATFIT
 70
     3
  9
$DIMFRAC
 70
     0
  9
$DIMLDRBLK
  1

  9
$DIMLUNIT
 70
     2
  9
$DIMLWD
 70
    -2
  9
$DIMLWE
 70
    -2
  9
$DIMTMOVE
 70
     0
  9
$DIMFXL
 40
1.0
  9
$DIMFXLON
 70
     0
  9
$DIMJOGANG
 40
0.7853981633974483
  9
$DIMTFILL
 70
     0
  9
$DIMTFILLCLR
 70
     0
  9
$DIMARCSYM
 70
     0
  9
$DIMLTYPE
  6

  9
$DIMLTEX1
  6

  9
$DIMLTEX2
  6

  9
$DIMTXTDIRECTION
 70
     0
  9
$LUNITS
 70
     2
  9
$LUPREC
 70
     4
  9
$SKETCHINC
 40
0.1
  9
$FILLETRAD
 40
0.5
  9
$AUNITS
 70
     0
  9
$AUPREC
 70
     0
  9
$MENU
  1
.
  9
$ELEVATION
 40
0.0
  9
$PELEVATION
 40
0.0
  9
$THICKNESS
 40
0.0
  9
$LIMCHECK
 70
     0
  9
$CHAMFERA
 40
0.5
  9
$CHAMFERB
 40
0.5
  9
$CHAMFERC
 40
1.0
  9
$CHAMFERD
 40
0.0
  9
$SKPOLY
 70
     0
  9
$TDCREATE
 40
2457917.646377303
  9
$TDUCREATE
 40
2457917.271377315
  9
$TDUPDATE
 40
2457917.646377303
  9
$TDUUPDATE
 40
2457917.271377315
  9
$TDINDWG
 40
0.0000000116
  9
$TDUSRTIMER
 40
0.0000000116
  9
$USRTIMER
 70
     1
  9
$ANGBASE
 50
0.0
  9
$ANGDIR
 70
     0
  9
$PDMODE
 70
     0
  9
$PDSIZE
 40
0.0
  9
$PLINEWID
 40
0.0
  9
$SPLFRAME
 70
     0
  9
$SPLINETYPE
 70
     6
  9
$SPLINESEGS
 70
     8
  9
$HANDSEED
  5
1A9
  9
$SURFTAB1
 70
     6
  9
$SURFTAB2
 70
     6
  9
$SURFTYPE
 70
     6
  9
$SURFU
 70
     6
  9
$SURFV
 70
     6
  9
$UCSBASE
  2

  9
$UCSNAME
  2

  9
$UCSORG
 10
0.0
 20
0.0
 30
0.0
  9
$UCSXDIR
 10
1.0
 20
0.0
 30
0.0
  9
$UCSYDIR
 10
0.0
 20
1.0
 30
0.0
  9
$UCSORTHOREF
  2

  9
$UCSORTHOVIEW
 70
     0
  9
$UCSORGTOP
 10
0.0
 20
0.0
 30
0.0
  9
$UCSORGBOTTOM
 10
0.0
 20
0.0
 30
0.0
  9
$UCSORGLEFT
 10
0.0
 20
0.0
 30
0.0
  9
$UCSORGRIGHT
 10
0.0
 20
0.0
 30
0.0
  9
$UCSORGFRONT
 10
0.0
 20
0.0
 30
0.0
  9
$UCSORGBACK
 10
0.0
 20
0.0
 30
0.0
  9
$PUCSBASE
  2

  9
$PUCSNAME
  2

  9
$PUCSORG
 10
0.0
 20
0.0
 30
0.0
  9
$PUCSXDIR
 10
1.0
 20
0.0
 30
0.0
  9
$PUCSYDIR
 10
0.0
 20
1.0
 30
0.0
  9
$PUCSORTHOREF
  2

  9
$PUCSORTHOVIEW
 70
     0
  9
$PUCSORGTOP
 10
0.0
 20
0.0
 30
0.0
  9
$PUCSORGBOTTOM
 10
0.0
 20
0.0
 30
0.0
  9
$PUCSORGLEFT
 10
0.0
 20
0.0
 30
0.0
  9
$PUCSORGRIGHT
 10
0.0
 20
0.0
 30
0.0
  9
$PUCSORGFRONT
 10
0.0
 20
0.0
 30
0.0
  9
$PUCSORGBACK
 10
0.0
 20
0.0
 30
0.0
  9
$USERI1
 70
     0
  9
$USERI2
 70
     0
  9
$USERI3
 70
     0
  9
$USERI4
 70
     0
  9
$USERI5
 70
     0
  9
$USERR1
 40
0.0
  9
$USERR2
 40
0.0
  9
$USERR3
 40
0.0
  9
$USERR4
 40
0.0
  9
$USERR5
 40
0.0
  9
$WORLDVIEW
 70
     1
  9
$SHADEDGE
 70
     3
  9
$SHADEDIF
 70
    70
  9
$TILEMODE
 70
     1
  9
$MAXACTVP
 70
    64
  9
$PINSBASE
 10
0.0
 20
0.0
 30
0.0
  9
$PLIMCHECK
 70
     0
  9
$PEXTMIN
 10
1.000000000000000E+20
 20
1.000000000000000E+20
 30
1.000000000000000E+20
  9
$PEXTMAX
 10
-1.000000000000000E+20
 20
-1.000000000000000E+20
 30
-1.000000000000000E+20
  9
$PLIMMIN
 10
0.0
 20
0.0
  9
$PLIMMAX
 10
12.0
 20
9.0
  9
$UNITMODE
 70
     0
  9
$VISRETAIN
 70
     1
  9
$PLINEGEN
 70
     0
  9
$PSLTSCALE
 70
     1
  9
$TREEDEPTH
 70
  3020
  9
$CMLSTYLE
  2
Standard
  9
$CMLJUST
 70
     0
  9
$CMLSCALE
 40
1.0
  9
$PROXYGRAPHICS
 70
     1
  9
$MEASUREMENT
 70
     0
  9
$CELWEIGHT
370
    -1
  9
$ENDCAPS
280
     0
  9
$JOINSTYLE
280
     0
  9
$LWDISPLAY
290
     1
  9
$INSUNITS
 70
     1
  9
$HYPERLINKBASE
  1

  9
$STYLESHEET
  1

  9
$XEDIT
290
     1
  9
$CEPSNTYPE
380
     0
  9
$PSTYLEMODE
290
     1
  9
$FINGERPRINTGUID
  2
{A9BAD064-1AE5-E370-907C-B6AE450231FE}
  9
$VERSIONGUID
  2
{FAEB1C32-E019-11D5-929B-00C0DF256EC4}
  9
$EXTNAMES
290
     1
  9
$PSVPSCALE
 40
0.0
  9
$OLESTARTUP
290
     0
  9
$SORTENTS
280
   127
  9
$INDEXCTL
280
     0
  9
$HIDETEXT
280
     1
  9
$XCLIPFRAME
280
     2
  9
$HALOGAP
280
     0
  9
$OBSCOLOR
 70
   257
  9
$OBSLTYPE
280
     0
  9
$INTERSECTIONDISPLAY
280
     0
  9
$INTERSECTIONCOLOR
 70
   257
  9
$DIMASSOC
280
     2
  9
$PROJECTNAME
  1

  9
$CAMERADISPLAY
290
     0
  9
$LENSLENGTH
 40
50.0
  9
$CAMERAHEIGHT
 40
0.0
  9
$STEPSPERSEC
 40
2.0
  9
$STEPSIZE
 40
6.0
  9
$3DDWFPREC
 40
2.0
  9
$PSOLWIDTH
 40
0.25
  9
$PSOLHEIGHT
 40
4.0
  9
$LOFTANG1
 40
1.570796326794897
  9
$LOFTANG2
 40
1.570796326794897
  9
$LOFTMAG1
 40
0.0
  9
$LOFTMAG2
 40
0.0
  9
$LOFTPARAM
 70
     7
  9
$LOFTNORMALS
280
     1
  9
$LATITUDE
 40
37.795
  9
$LONGITUDE
 40
-122.394
  9
$NORTHDIRECTION
 40
0.0
  9
$TIMEZONE
 70
 -8000
  9
$LIGHTGLYPHDISPLAY
280
     1
  9
$TILEMODELIGHTSYNCH
280
     1
  9
$CMATERIAL
347
3C
  9
$SOLIDHIST
280
     1
  9
$SHOWHIST
280
     1
  9
$DWFFRAME
280
     2
  9
$DGNFRAME
280
     2
  9
$REALWORLDSCALE
290
     1
  9
$INTERFERECOLOR
 62
   256
  9
$CSHADOW
280
     0
  9
$SHADOWPLANELOCATION
 40
0.0
  0
ENDSEC
  0
SECTION
  2
CLASSES
  0
CLASS
  1
ACDBDICTIONARYWDFLT
  2
AcDbDictionaryWithDefault
  3
ObjectDBX Classes
 90
        0
 91
        4
280
     0
281
     0
  0
CLASS
  1
VISUALSTYLE
  2
AcDbVisualStyle
  3
ObjectDBX Classes
 90
     4095
 91
        4
280
     0
281
     0
  0
CLASS
  1
MATERIAL
  2
AcDbMaterial
  3
ObjectDBX Classes
 90
     1153
 91
        4
280
     0
281
     0
  0
CLASS
  1
SUN
  2
AcDbSun
  3
SCENEOE
 90
     1024
 91
        4
280
     0
281
     0
  0
ENDSEC
  0
SECTION
  2
TABLES
  0
TABLE
  2
VPORT
  5
8
330
0
100
AcDbSymbolTable
 70
     1
  0
VPORT
  5
29
330
8
100
AcDbSymbolTableRecord
100
AcDbViewportTableRecord
  2
*Active
 70
     0
 10
0.0
 20
0.0
 11
1.0
 21
1.0
 12
0.0
 22
0.0
 13
0.0
 23
0.0
 14
0.5
 24
0.5
 15
0.5
 25
0.5
 16
0.0
 26
0.0
 36
1.0
 17
91.00082462281999
 27
-128.4993055234307
 37
0.0
 40
256.9986110468615
 41
0.7081814508812795
 42
50.0
 43
0.0
 44
0.0
 50
0.0
 51
0.0
 71
     0
 72
   100
 73
     1
 74
     3
 75
     0
 76
     0
 77
     0
 78
     0
281
     0
 65
     1
110
0.0
120
0.0
130
0.0
111
1.0
121
0.0
131
0.0
112
0.0
122
1.0
132
0.0
 79
     0
146
0.0
 60
     3
 61
     5
292
     1
282
     1
141
0.0
142
0.0
 63
   250
361
3F
  0
ENDTAB
  0
TABLE
  2
LTYPE
  5
5
330
0
100
AcDbSymbolTable
 70
     1
  0
LTYPE
  5
14
330
5
100
AcDbSymbolTableRecord
100
AcDbLinetypeTableRecord
  2
ByBlock
 70
     0
  3

 72
    65
 73
     0
 40
0.0
  0
LTYPE
  5
15
330
5
100
AcDbSymbolTableRecord
100
AcDbLinetypeTableRecord
  2
ByLayer
 70
     0
  3

 72
    65
 73
     0
 40
0.0
  0
LTYPE
  5
16
330
5
100
AcDbSymbolTableRecord
100
AcDbLinetypeTableRecord
  2
Continuous
 70
     0
  3
Solid line
 72
    65
 73
     0
 40
0.0
  0
ENDTAB
  0
TABLE
  2
LAYER
  5
2
330
0
100
AcDbSymbolTable
 70
     2
  0
LAYER
  5
10
330
2
100
AcDbSymbolTableRecord
100
AcDbLayerTableRecord
  2
0
 70
     0
 62
     7
  6
Continuous
370
    -3
390
F
347
3E
  0
LAYER
  5
40
330
2
100
AcDbSymbolTableRecord
100
AcDbLayerTableRecord
  2
_U+30EC_U+30A4_U+30E4_U+30FC 1
 70
     0
 62
     7
  6
Continuous
370
    -3
390
F
347
3E
  0
ENDTAB
  0
TABLE
  2
STYLE
  5
3
330
0
100
AcDbSymbolTable
 70
     1
  0
STYLE
  5
11
330
3
100
AcDbSymbolTableRecord
100
AcDbTextStyleTableRecord
  2
Standard
 70
     0
 40
0.0
 41
1.0
 50
0.0
 71
     0
 42
0.2
  3
txt
  4

  0
ENDTAB
  0
TABLE
  2
VIEW
  5
6
330
0
100
AcDbSymbolTable
 70
     0
  0
ENDTAB
  0
TABLE
  2
UCS
  5
7
330
0
100
AcDbSymbolTable
 70
     0
  0
ENDTAB
  0
TABLE
  2
APPID
  5
9
330
0
100
AcDbSymbolTable
 70
     1
  0
APPID
  5
12
330
9
100
AcDbSymbolTableRecord
100
AcDbRegAppTableRecord
  2
ACAD
 70
     0
  0
ENDTAB
  0
TABLE
  2
DIMSTYLE
  5
A
330
0
100
AcDbSymbolTable
 70
     1
100
AcDbDimStyleTable
  0
DIMSTYLE
105
27
330
A
100
AcDbSymbolTableRecord
100
AcDbDimStyleTableRecord
  2
Standard
 70
     0
178
     0
340
11
  0
ENDTAB
  0
TABLE
  2
BLOCK_RECORD
  5
1
330
0
100
AcDbSymbolTable
 70
    20
  0
BLOCK_RECORD
  5
1F
330
1
100
AcDbSymbolTableRecord
100
AcDbBlockTableRecord
  2
*Model_Space
340
22
 70
     0
280
     1
281
     0
  0
BLOCK_RECORD
  5
1B
330
1
100
AcDbSymbolTableRecord
100
AcDbBlockTableRecord
  2
*Paper_Space
340
1E
 70
     0
280
     1
281
     0
  0
BLOCK_RECORD
  5
23
330
1
100
AcDbSymbolTableRecord
100
AcDbBlockTableRecord
  2
*Paper_Space0
340
26
 70
     0
280
     1
281
     0
  0
BLOCK_RECORD
  5
43
330
1
100
AcDbSymbolTableRecord
100
AcDbBlockTableRecord
  2
block 2
340
0
102
{BLKREFS
331
44
102
}
 70
     0
280
     1
281
     0
  0
BLOCK_RECORD
  5
CA
330
1
100
AcDbSymbolTableRecord
100
AcDbBlockTableRecord
  2
block 3
340
0
102
{BLKREFS
331
CB
102
}
 70
     0
280
     1
281
     0
  0
BLOCK_RECORD
  5
ED
330
1
100
AcDbSymbolTableRecord
100
AcDbBlockTableRecord
  2
block 4
340
0
102
{BLKREFS
331
EE
102
}
 70
     0
280
     1
281
     0
  0
BLOCK_RECORD
  5
FE
330
1
100
AcDbSymbolTableRecord
100
AcDbBlockTableRecord
  2
block 5
340
0
102
{BLKREFS
331
FF
102
}
 70
     0
280
     1
281
     0
  0
BLOCK_RECORD
  5
104
330
1
100
AcDbSymbolTableRecord
100
AcDbBlockTableRecord
  2
block 6
340
0
102
{BLKREFS
331
105
102
}
 70
     0
280
     1
281
     0
  0
BLOCK_RECORD
  5
109
330
1
100
AcDbSymbolTableRecord
100
AcDbBlockTableRecord
  2
block 7
340
0
102
{BLKREFS
331
10A
102
}
 70
     0
280
     1
281
     0
  0
BLOCK_RECORD
  5
10E
330
1
100
AcDbSymbolTableRecord
100
AcDbBlockTableRecord
  2
block 8
340
0
102
{BLKREFS
331
10F
102
}
 70
     0
280
     1
281
     0
  0
BLOCK_RECORD
  5
11F
330
1
100
AcDbSymbolTableRecord
100
AcDbBlockTableRecord
  2
block 9
340
0
102
{BLKREFS
331
120
102
}
 70
     0
280
     1
281
     0
  0
BLOCK_RECORD
  5
125
330
1
100
AcDbSymbolTableRecord
100
AcDbBlockTableRecord
  2
block 10
340
0
102
{BLKREFS
331
126
102
}
 70
     0
280
     1
281
     0
  0
BLOCK_RECORD
  5
12A
330
1
100
AcDbSymbolTableRecord
100
AcDbBlockTableRecord
  2
block 11
340
0
102
{BLKREFS
331
12B
102
}
 70
     0
280
     1
281
     0
  0
BLOCK_RECORD
  5
12F
330
1
100
AcDbSymbolTableRecord
100
AcDbBlockTableRecord
  2
block 12
340
0
102
{BLKREFS
331
130
102
}
 70
     0
280
     1
281
     0
  0
BLOCK_RECORD
  5
140
330
1
100
AcDbSymbolTableRecord
100
AcDbBlockTableRecord
  2
block 13
340
0
102
{BLKREFS
331
141
102
}
 70
     0
280
     1
281
     0
  0
BLOCK_RECORD
  5
15B
330
1
100
AcDbSymbolTableRecord
100
AcDbBlockTableRecord
  2
block 14
340
0
102
{BLKREFS
331
15C
102
}
 70
     0
280
     1
281
     0
  0
BLOCK_RECORD
  5
160
330
1
100
AcDbSymbolTableRecord
100
AcDbBlockTableRecord
  2
block 15
340
0
102
{BLKREFS
331
161
102
}
 70
     0
280
     1
281
     0
  0
BLOCK_RECORD
  5
171
330
1
100
AcDbSymbolTableRecord
100
AcDbBlockTableRecord
  2
block 16
340
0
102
{BLKREFS
331
172
102
}
 70
     0
280
     1
281
     0
  0
BLOCK_RECORD
  5
17A
330
1
100
AcDbSymbolTableRecord
100
AcDbBlockTableRecord
  2
block 17
340
0
102
{BLKREFS
331
17B
102
}
 70
     0
280
     1
281
     0
  0
BLOCK_RECORD
  5
17F
330
1
100
AcDbSymbolTableRecord
100
AcDbBlockTableRecord
  2
block 18
340
0
102
{BLKREFS
331
180
102
}
 70
     0
280
     1
281
     0
  0
BLOCK_RECORD
  5
184
330
1
100
AcDbSymbolTableRecord
100
AcDbBlockTableRecord
  2
block 19
340
0
102
{BLKREFS
331
185
102
}
 70
     0
280
     1
281
     0
  0
BLOCK_RECORD
  5
189
330
1
100
AcDbSymbolTableRecord
100
AcDbBlockTableRecord
  2
block 20
340
0
102
{BLKREFS
331
18A
102
}
 70
     0
280
     1
281
     0
  0
ENDTAB
  0
ENDSEC
  0
SECTION
  2
BLOCKS
  0
BLOCK
  5
20
330
1F
100
AcDbEntity
  8
0
100
AcDbBlockBegin
  2
*Model_Space
 70
     0
 10
0.0
 20
0.0
 30
0.0
  3
*Model_Space
  1

  0
ENDBLK
  5
21
330
1F
100
AcDbEntity
  8
0
100
AcDbBlockEnd
  0
BLOCK
  5
1C
330
1B
100
AcDbEntity
 67
     1
  8
0
100
AcDbBlockBegin
  2
*Paper_Space
 70
     0
 10
0.0
 20
0.0
 30
0.0
  3
*Paper_Space
  1

  0
ENDBLK
  5
1D
330
1B
100
AcDbEntity
 67
     1
  8
0
100
AcDbBlockEnd
  0
BLOCK
  5
24
330
23
100
AcDbEntity
  8
0
100
AcDbBlockBegin
  2
*Paper_Space0
 70
     0
 10
0.0
 20
0.0
 30
0.0
  3
*Paper_Space0
  1

  0
ENDBLK
  5
25
330
23
100
AcDbEntity
  8
0
100
AcDbBlockEnd
  0
BLOCK
  5
45
330
43
100
AcDbEntity
  8
0
100
AcDbBlockBegin
  2
block 2
 70
     0
 10
0.0
 20
0.0
 30
0.0
  3
block 2
  1

  0
POLYLINE
  5
47
330
43
100
AcDbEntity
  8
_U+30EC_U+30A4_U+30E4_U+30FC 1
 62
   179
420
  2234388
370
    25
100
AcDb2dPolyline
 66
     1
 10
0.0
 20
0.0
 30
0.0
  0
VERTEX
  5
48
330
47
100
AcDbEntity
  8
_U+30EC_U+30A4_U+30E4_U+30FC 1
 62
   179
420
  2234388
370
    25
100
AcDbVertex
100
AcDb2dVertex
 10
91.30844683719411
 20
-117.4493177484155
 30
0.0
  0
VERTEX
  5
49
330
47
100
AcDbEntity
  8
_U+30EC_U+30A4_U+30E4_U+30FC 1
 62
   179
420
  2234388
370
    25
100
AcDbVertex
100
AcDb2dVertex
 10
91.30844683719411
 20
-138.8993707986084
 30
0.0
  0
SEQEND
  5
4A
330
47
100
AcDbEntity
  8
_U+30EC_U+30A4_U+30E4_U+30FC 1
 62
   179
420
  2234388
370
    25
  0
POLYLINE
  5
4B
330
43
100
AcDbEntity
  8
_U+30EC_U+30A4_U+30E4_U+30FC 1
 62
   179
420
  2234388
370
    25
100
AcDb2dPolyline
 66
     1
 10
0.0
 20
0.0
 30
0.0
  0
VERTEX
  5
4C
330
4B
100
AcDbEntity
  8
_U+30EC_U+30A4_U+30E4_U+30FC 1
 62
   179
420
  2234388
370
    25
100
AcDbVertex
100
AcDb2dVertex
 10
92.00849904155652
 20
-118.5993027481279
 30
0.0
  0
VERTEX
  5
4D
330
4B
100
AcDbEntity
  8
_U+30EC_U+30A4_U+30E4_U+30FC 1
 62
   179
420
  2234388
370
    25
100
AcDbVertex
100
AcDb2dVertex
 10
92.00849904155652
 20
-138.8993707986084
 30
0.0
  0
SEQEND
  5
4E
330
4B
100
AcDbEntity
  8
_U+30EC_U+30A4_U+30E4_U+30FC 1
 62
   179
420
  2234388
370
    25
  0
POLYLINE
  5
4F
330
43
100
AcDbEntity
  8
_U+30EC_U+30A4_U+30E4_U+30FC 1
 62
   179
420
  2234388
370
    25
100
AcDb2dPolyline
 66
     1
 10
0.0
 20
0.0
 30
0.0
  0
VERTEX
  5
50
330
4F
100
AcDbEntity
  8
_U+30EC_U+30A4_U+30E4_U+30FC 1
 62
   179
420
  2234388
370
    25
100
AcDbVertex
100
AcDb2dVertex
 10
79.15863936938375
 20
-139.5993877428778
 30
0.0
  0
VERTEX
  5
51
330
4F
100
AcDbEntity
  8
_U+30EC_U+30A4_U+30E4_U+30FC 1
 62
   179
420
  2234388
370
    25
100
AcDbVertex
100
AcDb2dVertex
 10
104.1586592871357
 20
-139.5993877428778
 30
0.0
  0
SEQEND
  5
52
330
4F
100
AcDbEntity
  8
_U+30EC_U+30A4_U+30E4_U+30FC 1
 62
   179
420
  2234388
370
    25
  0
POLYLINE
  5
53
330
43
100
AcDbEntity
  8
_U+30EC_U+30A4_U+30E4_U+30FC 1
 62
   179
420
  2234388
370
    25
100
AcDb2dPolyline
 66
     1
 10
0.0
 20
0.0
 30
0.0
  0
VERTEX
  5
54
330
53
100
AcDbEntity
  8
_U+30EC_U+30A4_U+30E4_U+30FC 1
 62
   179
420
  2234388
370
    25
100
AcDbVertex
100
AcDb2dVertex
 10
96.15847088012636
 20
-137.0996396879472
 30
0.0
  0
VERTEX
  5
55
330
53
100
AcDbEntity
  8
_U+30EC_U+30A4_U+30E4_U+30FC 1
 62
   179
420
  2234388
370
    25
100
AcDbVertex
100
AcDb2dVertex
 10
98.65857164967682
 20
-137.0996396879472
 30
0.0
  0
SEQEND
  5
56
330
53
100
AcDbEntity
  8
_U+30EC_U+30A4_U+30E4_U+30FC 1
 62
   179
420
  2234388
370
    25
  0
POLYLINE
  5
57
330
43
100
AcDbEntity
  8
_U+30EC_U+30A4_U+30E4_U+30FC 1
 62
   179
420
  2234388
370
    25
100
AcDb2dPolyline
 66
     1
 10
0.0
 20
0.0
 30
0.0
  0
VERTEX
  5
58
330
57
100
AcDbEntity
  8
_U+30EC_U+30A4_U+30E4_U+30FC 1
 62
   179
420
  2234388
370
    25
100
AcDbVertex
100
AcDb2dVertex
 10
96.15847088012636
 20
-137.0996396879472
 30
0.0
  0
VERTEX
  5
59
330
57
100
AcDbEntity
  8
_U+30EC_U+30A4_U+30E4_U+30FC 1
 62
   179
420
  2234388
370
    25
100
AcDbVertex
100
AcDb2dVertex
 10
96.15847088012636
 20
-137.7996919099948
 30
0.0
  0
SEQEND
  5
5A
330
57
100
AcDbEntity
  8
_U+30EC_U+30A4_U+30E4_U+30FC 1
 62
   179
420
  2234388
370
    25
  0
POLYLINE
  5
5B
330
43
100
AcDbEntity
  8
_U+30EC_U+30A4_U+30E4_U+30FC 1
 62
   179
420
  2234388
370
    25
100
AcDb2dPolyline
 66
     1
 10
0.0
 20
0.0
 30
0.0
  0
VERTEX
  5
5C
330
5B
100
AcDbEntity
  8
_U+30EC_U+30A4_U+30E4_U+30FC 1
 62
   179
420
  2234388
370
    25
100
AcDbVertex
100
AcDb2dVertex
 10
92.00849904155652
 20
-138.8993707986084
 30
0.0
  0
VERTEX
  5
5D
330
5B
100
AcDbEntity
  8
_U+30EC_U+30A4_U+30E4_U+30FC 1
 62
   179
420
  2234388
370
    25
100
AcDbVertex
100
AcDb2dVertex
 10
97.95851944531441
 20
-138.8993707986084
 30
0.0
  0
SEQEND
  5
5E
330
5B
100
AcDbEntity
  8
_U+30EC_U+30A4_U+30E4_U+30FC 1
 62
   179
420
  2234388
370
    25
  0
POLYLINE
  5
5F
330
43
100
AcDbEntity
  8
_U+30EC_U+30A4_U+30E4_U+30FC 1
 62
   179
420
  2234388
370
    25
100
AcDb2dPolyline
 66
     1
 10
0.0
 20
0.0
 30
0.0
  0
VERTEX
  5
60
330
5F
100
AcDbEntity
  8
_U+30EC_U+30A4_U+30E4_U+30FC 1
 62
   179
420
  2234388
370
    25
100
AcDbVertex
100
AcDb2dVertex
 10
97.95851944531441
 20
-137.7996919099948
 30
0.0
  0
VERTEX
  5
61
330
5F
100
AcDbEntity
  8
_U+30EC_U+30A4_U+30E4_U+30FC 1
 62
   179
420
  2234388
370
    25
100
AcDbVertex
100
AcDb2dVertex
 10
97.95851944531441
 20
-138.8993707986084
 30
0.0
  0
SEQEND
  5
62
330
5F
100
AcDbEntity
  8
_U+30EC_U+30A4_U+30E4_U+30FC 1
 62
   179
420
  2234388
370
    25
  0
POLYLINE
  5
63
330
43
100
AcDbEntity
  8
_U+30EC_U+30A4_U+30E4_U+30FC 1
 62
   179
420
  2234388
370
    25
100
AcDb2dPolyline
 66
     1
 10
0.0
 20
0.0
 30
0.0
  0
VERTEX
  5
64
330
63
100
AcDbEntity
  8
_U+30EC_U+30A4_U+30E4_U+30FC 1
 62
   179
420
  2234388
370
    25
100
AcDbVertex
100
AcDb2dVertex
 10
96.15847088012636
 20
-137.7996919099948
 30
0.0
  0
VERTEX
  5
65
330
63
100
AcDbEntity
  8
_U+30EC_U+30A4_U+30E4_U+30FC 1
 62
   179
420
  2234388
370
    25
100
AcDbVertex
100
AcDb2dVertex
 10
97.95851944531441
 20
-137.7996919099948
 30
0.0
  0
SEQEND
  5
66
330
63
100
AcDbEntity
  8
_U+30EC_U+30A4_U+30E4_U+30FC 1
 62
   179
420
  2234388
370
    25
  0
POLYLINE
  5
67
330
43
100
AcDbEntity
  8
_U+30EC_U+30A4_U+30E4_U+30FC 1
 62
   179
420
  2234388
370
    25
100
AcDb2dPolyline
 66
     1
 10
0.0
 20
0.0
 30
0.0
  0
VERTEX
  5
68
330
67
100
AcDbEntity
  8
_U+30EC_U+30A4_U+30E4_U+30FC 1
 62
   179
420
  2234388
370
    25
100
AcDbVertex
100
AcDb2dVertex
 10
98.65857164967682
 20
-137.0996396879472
 30
0.0
  0
VERTEX
  5
69
330
67
100
AcDbEntity
  8
_U+30EC_U+30A4_U+30E4_U+30FC 1
 62
   179
420
  2234388
370
    25
100
AcDbVertex
100
AcDb2dVertex
 10
98.65857164967682
 20
-138.8993707986084
 30
0.0
  0
SEQEND
  5
6A
330
67
100
AcDbEntity
  8
_U+30EC_U+30A4_U+30E4_U+30FC 1
 62
   179
420
  2234388
370
    25
  0
POLYLINE
  5
6B
330
43
100
AcDbEntity
  8
_U+30EC_U+30A4_U+30E4_U+30FC 1
 62
   179
420
  2234388
370
    25
100
AcDb2dPolyline
 66
     1
 10
0.0
 20
0.0
 30
0.0
  0
VERTEX
  5
6C
330
6B
100
AcDbEntity
  8
_U+30EC_U+30A4_U+30E4_U+30FC 1
 62
   179
420
  2234388
370
    25
100
AcDbVertex
100
AcDb2dVertex
 10
84.65872700684261
 20
-137.0996396879472
 30
0.0
  0
VERTEX
  5
6D
330
6B
100
AcDbEntity
  8
_U+30EC_U+30A4_U+30E4_U+30FC 1
 62
   179
420
  2234388
370
    25
100
AcDbVertex
100
AcDb2dVertex
 10
84.65872700684261
 20
-138.8993707986084
 30
0.0
  0
SEQEND
  5
6E
330
6B
100
AcDbEntity
  8
_U+30EC_U+30A4_U+30E4_U+30FC 1
 62
   179
420
  2234388
370
    25
  0
POLYLINE
  5
6F
330
43
100
AcDbEntity
  8
_U+30EC_U+30A4_U+30E4_U+30FC 1
 62
   179
420
  2234388
370
    25
100
AcDb2dPolyline
 66
     1
 10
0.0
 20
0.0
 30
0.0
  0
VERTEX
  5
70
330
6F
100
AcDbEntity
  8
_U+30EC_U+30A4_U+30E4_U+30FC 1
 62
   179
420
  2234388
370
    25
100
AcDbVertex
100
AcDb2dVertex
 10
87.15851027640116
 20
-137.7996919099948
 30
0.0
  0
VERTEX
  5
71
330
6F
100
AcDbEntity
  8
_U+30EC_U+30A4_U+30E4_U+30FC 1
 62
   179
420
  2234388
370
    25
100
AcDbVertex
100
AcDb2dVertex
 10
85.358779211205
 20
-137.7996919099948
 30
0.0
  0
SEQEND
  5
72
330
6F
100
AcDbEntity
  8
_U+30EC_U+30A4_U+30E4_U+30FC 1
 62
   179
420
  2234388
370
    25
  0
POLYLINE
  5
73
330
43
100
AcDbEntity
  8
_U+30EC_U+30A4_U+30E4_U+30FC 1
 62
   179
420
  2234388
370
    25
100
AcDb2dPolyline
 66
     1
 10
0.0
 20
0.0
 30
0.0
  0
VERTEX
  5
74
330
73
100
AcDbEntity
  8
_U+30EC_U+30A4_U+30E4_U+30FC 1
 62
   179
420
  2234388
370
    25
100
AcDbVertex
100
AcDb2dVertex
 10
85.358779211205
 20
-137.7996919099948
 30
0.0
  0
VERTEX
  5
75
330
73
100
AcDbEntity
  8
_U+30EC_U+30A4_U+30E4_U+30FC 1
 62
   179
420
  2234388
370
    25
100
AcDbVertex
100
AcDb2dVertex
 10
85.358779211205
 20
-138.8993707986084
 30
0.0
  0
SEQEND
  5
76
330
73
100
AcDbEntity
  8
_U+30EC_U+30A4_U+30E4_U+30FC 1
 62
   179
420
  2234388
370
    25
  0
POLYLINE
  5
77
330
43
100
AcDbEntity
  8
_U+30EC_U+30A4_U+30E4_U+30FC 1
 62
   179
420
  2234388
370
    25
100
AcDb2dPolyline
 66
     1
 10
0.0
 20
0.0
 30
0.0
  0
VERTEX
  5
78
330
77
100
AcDbEntity
  8
_U+30EC_U+30A4_U+30E4_U+30FC 1
 62
   179
420
  2234388
370
    25
100
AcDbVertex
100
AcDb2dVertex
 10
91.30844683719411
 20
-138.8993707986084
 30
0.0
  0
VERTEX
  5
79
330
77
100
AcDbEntity
  8
_U+30EC_U+30A4_U+30E4_U+30FC 1
 62
   179
420
  2234388
370
    25
100
AcDbVertex
100
AcDb2dVertex
 10
85.358779211205
 20
-138.8993707986084
 30
0.0
  0
SEQEND
  5
7A
330
77
100
AcDbEntity
  8
_U+30EC_U+30A4_U+30E4_U+30FC 1
 62
   179
420
  2234388
370
    25
  0
POLYLINE
  5
7B
330
43
100
AcDbEntity
  8
_U+30EC_U+30A4_U+30E4_U+30FC 1
 62
   179
420
  2234388
370
    25
100
AcDb2dPolyline
 66
     1
 10
0.0
 20
0.0
 30
0.0
  0
VERTEX
  5
7C
330
7B
100
AcDbEntity
  8
_U+30EC_U+30A4_U+30E4_U+30FC 1
 62
   179
420
  2234388
370
    25
100
AcDbVertex
100
AcDb2dVertex
 10
87.15851027640116
 20
-137.0996396879472
 30
0.0
  0
VERTEX
  5
7D
330
7B
100
AcDbEntity
  8
_U+30EC_U+30A4_U+30E4_U+30FC 1
 62
   179
420
  2234388
370
    25
100
AcDbVertex
100
AcDb2dVertex
 10
87.15851027640116
 20
-137.7996919099948
 30
0.0
  0
SEQEND
  5
7E
330
7B
100
AcDbEntity
  8
_U+30EC_U+30A4_U+30E4_U+30FC 1
 62
   179
420
  2234388
370
    25
  0
POLYLINE
  5
7F
330
43
100
AcDbEntity
  8
_U+30EC_U+30A4_U+30E4_U+30FC 1
 62
   179
420
  2234388
370
    25
100
AcDb2dPolyline
 66
     1
 10
0.0
 20
0.0
 30
0.0
  0
VERTEX
  5
80
330
7F
100
AcDbEntity
  8
_U+30EC_U+30A4_U+30E4_U+30FC 1
 62
   179
420
  2234388
370
    25
100
AcDbVertex
100
AcDb2dVertex
 10
87.15851027640116
 20
-137.0996396879472
 30
0.0
  0
VERTEX
  5
81
330
7F
100
AcDbEntity
  8
_U+30EC_U+30A4_U+30E4_U+30FC 1
 62
   179
420
  2234388
370
    25
100
AcDbVertex
100
AcDb2dVertex
 10
84.65872700684261
 20
-137.0996396879472
 30
0.0
  0
SEQEND
  5
82
330
7F
100
AcDbEntity
  8
_U+30EC_U+30A4_U+30E4_U+30FC 1
 62
   179
420
  2234388
370
    25
  0
POLYLINE
  5
83
330
43
100
AcDbEntity
  8
_U+30EC_U+30A4_U+30E4_U+30FC 1
 62
   179
420
  2234388
370
    25
100
AcDb2dPolyline
 66
     1
 10
0.0
 20
0.0
 30
0.0
  0
VERTEX
  5
84
330
83
100
AcDbEntity
  8
_U+30EC_U+30A4_U+30E4_U+30FC 1
 62
   179
420
  2234388
370
    25
100
AcDbVertex
100
AcDb2dVertex
 10
93.00862401604121
 20
-118.0992402482531
 30
0.0
  0
VERTEX
  5
85
330
83
100
AcDbEntity
  8
_U+30EC_U+30A4_U+30E4_U+30FC 1
 62
   179
420
  2234388
370
    25
100
AcDbVertex
100
AcDb2dVertex
 10
93.00862401604121
 20
-119.0993652480031
 30
0.0
  0
SEQEND
  5
86
330
83
100
AcDbEntity
  8
_U+30EC_U+30A4_U+30E4_U+30FC 1
 62
   179
420
  2234388
370
    25
  0
POLYLINE
  5
87
330
43
100
AcDbEntity
  8
_U+30EC_U+30A4_U+30E4_U+30FC 1
 62
   179
420
  2234388
370
    25
100
AcDb2dPolyline
 66
     1
 10
0.0
 20
0.0
 30
0.0
  0
VERTEX
  5
88
330
87
100
AcDbEntity
  8
_U+30EC_U+30A4_U+30E4_U+30FC 1
 62
   179
420
  2234388
370
    25
100
AcDbVertex
100
AcDb2dVertex
 10
92.00849904155652
 20
-118.5993027481279
 30
0.0
  0
VERTEX
  5
89
330
87
100
AcDbEntity
  8
_U+30EC_U+30A4_U+30E4_U+30FC 1
 62
   179
420
  2234388
370
    25
100
AcDbVertex
100
AcDb2dVertex
 10
93.00862401604121
 20
-119.0993652480031
 30
0.0
  0
SEQEND
  5
8A
330
87
100
AcDbEntity
  8
_U+30EC_U+30A4_U+30E4_U+30FC 1
 62
   179
420
  2234388
370
    25
  0
POLYLINE
  5
8B
330
43
100
AcDbEntity
  8
_U+30EC_U+30A4_U+30E4_U+30FC 1
 62
   179
420
  2234388
370
    25
100
AcDb2dPolyline
 66
     1
 10
0.0
 20
0.0
 30
0.0
  0
VERTEX
  5
8C
330
8B
100
AcDbEntity
  8
_U+30EC_U+30A4_U+30E4_U+30FC 1
 62
   179
420
  2234388
370
    25
100
AcDbVertex
100
AcDb2dVertex
 10
93.00862401604121
 20
-118.0992402482531
 30
0.0
  0
VERTEX
  5
8D
330
8B
100
AcDbEntity
  8
_U+30EC_U+30A4_U+30E4_U+30FC 1
 62
   179
420
  2234388
370
    25
100
AcDbVertex
100
AcDb2dVertex
 10
91.87966460039891
 20
-117.178208026261
 30
0.0
  0
SEQEND
  5
8E
330
8B
100
AcDbEntity
  8
_U+30EC_U+30A4_U+30E4_U+30FC 1
 62
   179
420
  2234388
370
    25
  0
POLYLINE
  5
8F
330
43
100
AcDbEntity
  8
_U+30EC_U+30A4_U+30E4_U+30FC 1
 62
   179
420
  2234388
370
    25
100
AcDb2dPolyline
 66
     1
 10
0.0
 20
0.0
 30
0.0
  0
VERTEX
  5
90
330
8F
100
AcDbEntity
  8
_U+30EC_U+30A4_U+30E4_U+30FC 1
 62
   179
420
  2234388
370
    25
100
AcDbVertex
100
AcDb2dVertex
 10
104.1586592871357
 20
-137.0996396879472
 30
0.0
  0
VERTEX
  5
91
330
8F
100
AcDbEntity
  8
_U+30EC_U+30A4_U+30E4_U+30FC 1
 62
   179
420
  2234388
370
    25
100
AcDbVertex
100
AcDb2dVertex
 10
104.1586592871357
 20
-139.5993877428778
 30
0.0
  0
SEQEND
  5
92
330
8F
100
AcDbEntity
  8
_U+30EC_U+30A4_U+30E4_U+30FC 1
 62
   179
420
  2234388
370
    25
  0
POLYLINE
  5
93
330
43
100
AcDbEntity
  8
_U+30EC_U+30A4_U+30E4_U+30FC 1
 62
   179
420
  2234388
370
    25
100
AcDb2dPolyline
 66
     1
 10
0.0
 20
0.0
 30
0.0
  0
VERTEX
  5
94
330
93
100
AcDbEntity
  8
_U+30EC_U+30A4_U+30E4_U+30FC 1
 62
   179
420
  2234388
370
    25
100
AcDbVertex
100
AcDb2dVertex
 10
79.15863936938375
 20
-137.0996396879472
 30
0.0
  0
VERTEX
  5
95
330
93
100
AcDbEntity
  8
_U+30EC_U+30A4_U+30E4_U+30FC 1
 62
   179
420
  2234388
370
    25
100
AcDbVertex
100
AcDb2dVertex
 10
79.15863936938375
 20
-139.5993877428778
 30
0.0
  0
SEQEND
  5
96
330
93
100
AcDbEntity
  8
_U+30EC_U+30A4_U+30E4_U+30FC 1
 62
   179
420
  2234388
370
    25
  0
POLYLINE
  5
97
330
43
100
AcDbEntity
  8
_U+30EC_U+30A4_U+30E4_U+30FC 1
 62
   179
420
  2234388
370
    25
100
AcDb2dPolyline
 66
     1
 10
0.0
 20
0.0
 30
0.0
  0
VERTEX
  5
98
330
97
100
AcDbEntity
  8
_U+30EC_U+30A4_U+30E4_U+30FC 1
 62
   179
420
  2234388
370
    25
100
AcDbVertex
100
AcDb2dVertex
 10
79.85833879597737
 20
-138.8993707986084
 30
0.0
  0
VERTEX
  5
99
330
97
100
AcDbEntity
  8
_U+30EC_U+30A4_U+30E4_U+30FC 1
 62
   179
420
  2234388
370
    25
100
AcDbVertex
100
AcDb2dVertex
 10
84.65872700684261
 20
-138.8993707986084
 30
0.0
  0
SEQEND
  5
9A
330
97
100
AcDbEntity
  8
_U+30EC_U+30A4_U+30E4_U+30FC 1
 62
   179
420
  2234388
370
    25
  0
POLYLINE
  5
9B
330
43
100
AcDbEntity
  8
_U+30EC_U+30A4_U+30E4_U+30FC 1
 62
   179
420
  2234388
370
    25
100
AcDb2dPolyline
 66
     1
 10
0.0
 20
0.0
 30
0.0
  0
VERTEX
  5
9C
330
9B
100
AcDbEntity
  8
_U+30EC_U+30A4_U+30E4_U+30FC 1
 62
   179
420
  2234388
370
    25
100
AcDbVertex
100
AcDb2dVertex
 10
98.65857164967682
 20
-138.8993707986084
 30
0.0
  0
VERTEX
  5
9D
330
9B
100
AcDbEntity
  8
_U+30EC_U+30A4_U+30E4_U+30FC 1
 62
   179
420
  2234388
370
    25
100
AcDbVertex
100
AcDb2dVertex
 10
103.4586423605501
 20
-138.8993707986084
 30
0.0
  0
SEQEND
  5
9E
330
9B
100
AcDbEntity
  8
_U+30EC_U+30A4_U+30E4_U+30FC 1
 62
   179
420
  2234388
370
    25
  0
POLYLINE
  5
9F
330
43
100
AcDbEntity
  8
_U+30EC_U+30A4_U+30E4_U+30FC 1
 62
   179
420
  2234388
370
    25
100
AcDb2dPolyline
 66
     1
 10
0.0
 20
0.0
 30
0.0
  0
VERTEX
  5
A0
330
9F
100
AcDbEntity
  8
_U+30EC_U+30A4_U+30E4_U+30FC 1
 62
   179
420
  2234388
370
    25
100
AcDbVertex
100
AcDb2dVertex
 10
103.4586423605501
 20
-137.0996396879472
 30
0.0
  0
VERTEX
  5
A1
330
9F
100
AcDbEntity
  8
_U+30EC_U+30A4_U+30E4_U+30FC 1
 62
   179
420
  2234388
370
    25
100
AcDbVertex
100
AcDb2dVertex
 10
103.4586423605501
 20
-138.8993707986084
 30
0.0
  0
SEQEND
  5
A2
330
9F
100
AcDbEntity
  8
_U+30EC_U+30A4_U+30E4_U+30FC 1
 62
   179
420
  2234388
370
    25
  0
POLYLINE
  5
A3
330
43
100
AcDbEntity
  8
_U+30EC_U+30A4_U+30E4_U+30FC 1
 62
   179
420
  2234388
370
    25
100
AcDb2dPolyline
 66
     1
 10
0.0
 20
0.0
 30
0.0
  0
VERTEX
  5
A4
330
A3
100
AcDbEntity
  8
_U+30EC_U+30A4_U+30E4_U+30FC 1
 62
   179
420
  2234388
370
    25
100
AcDbVertex
100
AcDb2dVertex
 10
79.85833879597737
 20
-137.0996396879472
 30
0.0
  0
VERTEX
  5
A5
330
A3
100
AcDbEntity
  8
_U+30EC_U+30A4_U+30E4_U+30FC 1
 62
   179
420
  2234388
370
    25
100
AcDbVertex
100
AcDb2dVertex
 10
79.85833879597737
 20
-138.8993707986084
 30
0.0
  0
SEQEND
  5
A6
330
A3
100
AcDbEntity
  8
_U+30EC_U+30A4_U+30E4_U+30FC 1
 62
   179
420
  2234388
370
    25
  0
POLYLINE
  5
A7
330
43
100
AcDbEntity
  8
_U+30EC_U+30A4_U+30E4_U+30FC 1
 62
   179
420
  2234388
370
    25
100
AcDb2dPolyline
 66
     1
 10
0.0
 20
0.0
 30
0.0
  0
VERTEX
  5
A8
330
A7
100
AcDbEntity
  8
_U+30EC_U+30A4_U+30E4_U+30FC 1
 62
   179
420
  2234388
370
    25
100
AcDbVertex
100
AcDb2dVertex
 10
79.15863936938375
 20
-137.0996396879472
 30
0.0
  0
VERTEX
  5
A9
330
A7
100
AcDbEntity
  8
_U+30EC_U+30A4_U+30E4_U+30FC 1
 62
   179
420
  2234388
370
    25
100
AcDbVertex
100
AcDb2dVertex
 10
79.85833879597737
 20
-137.0996396879472
 30
0.0
  0
SEQEND
  5
AA
330
A7
100
AcDbEntity
  8
_U+30EC_U+30A4_U+30E4_U+30FC 1
 62
   179
420
  2234388
370
    25
  0
POLYLINE
  5
AB
330
43
100
AcDbEntity
  8
_U+30EC_U+30A4_U+30E4_U+30FC 1
 62
   179
420
  2234388
370
    25
100
AcDb2dPolyline
 66
     1
 10
0.0
 20
0.0
 30
0.0
  0
VERTEX
  5
AC
330
AB
100
AcDbEntity
  8
_U+30EC_U+30A4_U+30E4_U+30FC 1
 62
   179
420
  2234388
370
    25
100
AcDbVertex
100
AcDb2dVertex
 10
103.4586423605501
 20
-137.0996396879472
 30
0.0
  0
VERTEX
  5
AD
330
AB
100
AcDbEntity
  8
_U+30EC_U+30A4_U+30E4_U+30FC 1
 62
   179
420
  2234388
370
    25
100
AcDbVertex
100
AcDb2dVertex
 10
104.1586592871357
 20
-137.0996396879472
 30
0.0
  0
SEQEND
  5
AE
330
AB
100
AcDbEntity
  8
_U+30EC_U+30A4_U+30E4_U+30FC 1
 62
   179
420
  2234388
370
    25
  0
SPLINE
  5
AF
330
43
100
AcDbEntity
  8
_U+30EC_U+30A4_U+30E4_U+30FC 1
 62
   179
420
  2234388
370
     9
100
AcDbSpline
210
0.0
220
0.0
230
1.0
 70
    11
 71
     3
 72
    17
 73
    13
 74
     0
 42
0.0000000001
 43
0.0000000001
 12
1.0
 22
0.0
 32
0.0
 13
1.0
 23
0.0
 33
0.0
 40
0.0
 40
0.0
 40
0.0
 40
0.0
 40
1.0
 40
1.0
 40
1.0
 40
2.0
 40
2.0
 40
2.0
 40
3.0
 40
3.0
 40
3.0
 40
4.0
 40
4.0
 40
4.0
 40
4.0
 10
92.05880515138422
 20
-115.0992533045584
 30
0.0
 10
92.05880515138422
 20
-115.071701360121
 30
0.0
 10
92.03605098529806
 20
-115.0492999712376
 30
0.0
 10
92.00849904155652
 20
-115.0492999712376
 30
0.0
 10
91.98094709781499
 20
-115.0492999712376
 30
0.0
 10
91.9585457094976
 20
-115.071701360121
 30
0.0
 10
91.9585457094976
 20
-115.0992533045584
 30
0.0
 10
91.9585457094976
 20
-115.1269816378848
 30
0.0
 10
91.98094709781499
 20
-115.1492066378792
 30
0.0
 10
92.00849904155652
 20
-115.1492066378792
 30
0.0
 10
92.03605098529806
 20
-115.1492066378792
 30
0.0
 10
92.05880515138422
 20
-115.1269816378848
 30
0.0
 10
92.05880515138422
 20
-115.0992533045584
 30
0.0
  0
SPLINE
  5
B0
330
43
100
AcDbEntity
  8
_U+30EC_U+30A4_U+30E4_U+30FC 1
 62
   179
420
  2234388
370
     9
100
AcDbSpline
210
0.0
220
0.0
230
1.0
 70
    11
 71
     3
 72
    17
 73
    13
 74
     0
 42
0.0000000001
 43
0.0000000001
 12
1.0
 22
0.0
 32
0.0
 13
1.0
 23
0.0
 33
0.0
 40
0.0
 40
0.0
 40
0.0
 40
0.0
 40
1.0
 40
1.0
 40
1.0
 40
2.0
 40
2.0
 40
2.0
 40
3.0
 40
3.0
 40
3.0
 40
4.0
 40
4.0
 40
4.0
 40
4.0
 10
91.35875294702181
 20
-115.0992533045584
 30
0.0
 10
91.35875294702181
 20
-115.071701360121
 30
0.0
 10
91.33603405871253
 20
-115.0492999712376
 30
0.0
 10
91.30844683719411
 20
-115.0492999712376
 30
0.0
 10
91.28089719940193
 20
-115.0492999712376
 30
0.0
 10
91.2584935051352
 20
-115.071701360121
 30
0.0
 10
91.2584935051352
 20
-115.0992533045584
 30
0.0
 10
91.2584935051352
 20
-115.1269816378848
 30
0.0
 10
91.28089719940193
 20
-115.1492066378792
 30
0.0
 10
91.30844683719411
 20
-115.1492066378792
 30
0.0
 10
91.33603405871253
 20
-115.1492066378792
 30
0.0
 10
91.35875294702181
 20
-115.1269816378848
 30
0.0
 10
91.35875294702181
 20
-115.0992533045584
 30
0.0
  0
SPLINE
  5
B1
330
43
100
AcDbEntity
  8
_U+30EC_U+30A4_U+30E4_U+30FC 1
 62
   179
420
  2234388
370
     9
100
AcDbSpline
210
0.0
220
0.0
230
1.0
 70
    11
 71
     3
 72
    17
 73
    13
 74
     0
 42
0.0000000001
 43
0.0000000001
 12
1.0
 22
0.0
 32
0.0
 13
1.0
 23
0.0
 33
0.0
 40
0.0
 40
0.0
 40
0.0
 40
0.0
 40
1.0
 40
1.0
 40
1.0
 40
2.0
 40
2.0
 40
2.0
 40
3.0
 40
3.0
 40
3.0
 40
4.0
 40
4.0
 40
4.0
 40
4.0
 10
98.70852498173574
 20
-135.0994249662254
 30
0.0
 10
98.70852498173574
 20
-135.0718730217876
 30
0.0
 10
98.68612359341834
 20
-135.0491188551265
 30
0.0
 10
98.65857164967682
 20
-135.0491188551265
 30
0.0
 10
98.63102219756473
 20
-135.0491188551265
 30
0.0
 10
98.6086183176179
 20
-135.0718730217876
 30
0.0
 10
98.6086183176179
 20
-135.0994249662254
 30
0.0
 10
98.6086183176179
 20
-135.1269769106626
 30
0.0
 10
98.63102219756473
 20
-135.1497310773237
 30
0.0
 10
98.65857164967682
 20
-135.1497310773237
 30
0.0
 10
98.68612359341834
 20
-135.1497310773237
 30
0.0
 10
98.70852498173574
 20
-135.1269769106626
 30
0.0
 10
98.70852498173574
 20
-135.0994249662254
 30
0.0
  0
SPLINE
  5
B2
330
43
100
AcDbEntity
  8
_U+30EC_U+30A4_U+30E4_U+30FC 1
 62
   179
420
  2234388
370
     9
100
AcDbSpline
210
0.0
220
0.0
230
1.0
 70
    11
 71
     3
 72
    17
 73
    13
 74
     0
 42
0.0000000001
 43
0.0000000001
 12
1.0
 22
0.0
 32
0.0
 13
1.0
 23
0.0
 33
0.0
 40
0.0
 40
0.0
 40
0.0
 40
0.0
 40
1.0
 40
1.0
 40
1.0
 40
2.0
 40
2.0
 40
2.0
 40
3.0
 40
3.0
 40
3.0
 40
4.0
 40
4.0
 40
4.0
 40
4.0
 10
96.20877698995406
 20
-135.0994249662254
 30
0.0
 10
96.20877698995406
 20
-135.0718730217876
 30
0.0
 10
96.1860228238679
 20
-135.0491188551265
 30
0.0
 10
96.15847088012636
 20
-135.0491188551265
 30
0.0
 10
96.13091893638483
 20
-135.0491188551265
 30
0.0
 10
96.10851754806744
 20
-135.0718730217876
 30
0.0
 10
96.10851754806744
 20
-135.0994249662254
 30
0.0
 10
96.10851754806744
 20
-135.1269769106626
 30
0.0
 10
96.13091893638483
 20
-135.1497310773237
 30
0.0
 10
96.15847088012636
 20
-135.1497310773237
 30
0.0
 10
96.1860228238679
 20
-135.1497310773237
 30
0.0
 10
96.20877698995406
 20
-135.1269769106626
 30
0.0
 10
96.20877698995406
 20
-135.0994249662254
 30
0.0
  0
SPLINE
  5
B3
330
43
100
AcDbEntity
  8
_U+30EC_U+30A4_U+30E4_U+30FC 1
 62
   179
420
  2234388
370
    25
100
AcDbSpline
210
0.0
220
0.0
230
1.0
 70
     8
 71
     3
 72
    11
 73
     7
 74
     0
 42
0.0000000001
 43
0.0000000001
 12
1.0
 22
0.0
 32
0.0
 13
1.0
 23
0.0
 33
0.0
 40
0.0
 40
0.0
 40
0.0
 40
0.0
 40
1.0
 40
1.0
 40
1.0
 40
2.0
 40
2.0
 40
2.0
 40
2.0
 10
91.87966460039891
 20
-117.178208026261
 30
0.0
 10
91.73015738199094
 20
-117.055899970736
 30
0.0
 10
91.5096712765049
 20
-117.0783013596194
 30
0.0
 10
91.38736322406969
 20
-117.2279849706929
 30
0.0
 10
91.33638683648131
 20
-117.2905324706774
 30
0.0
 10
91.30844683719411
 20
-117.3687080262134
 30
0.0
 10
91.30844683719411
 20
-117.4493177484155
 30
0.0
  0
SPLINE
  5
B4
330
43
100
AcDbEntity
  8
_U+30EC_U+30A4_U+30E4_U+30FC 1
 62
   179
420
  2234388
370
     9
100
AcDbSpline
210
0.0
220
0.0
230
1.0
 70
    11
 71
     3
 72
    17
 73
    13
 74
     0
 42
0.0000000001
 43
0.0000000001
 12
1.0
 22
0.0
 32
0.0
 13
1.0
 23
0.0
 33
0.0
 40
0.0
 40
0.0
 40
0.0
 40
0.0
 40
1.0
 40
1.0
 40
1.0
 40
2.0
 40
2.0
 40
2.0
 40
3.0
 40
3.0
 40
3.0
 40
4.0
 40
4.0
 40
4.0
 40
4.0
 10
106.2085097903952
 20
-137.0996396879472
 30
0.0
 10
106.2085097903952
 20
-137.0720877435101
 30
0.0
 10
106.1861110845646
 20
-137.049333576849
 30
0.0
 10
106.1585564583363
 20
-137.049333576849
 30
0.0
 10
106.1310045145947
 20
-137.049333576849
 30
0.0
 10
106.1086031262773
 20
-137.0720877435101
 30
0.0
 10
106.1086031262773
 20
-137.0996396879472
 30
0.0
 10
106.1086031262773
 20
-137.127191632385
 30
0.0
 10
106.1310045145947
 20
-137.1492402434906
 30
0.0
 10
106.1585564583363
 20
-137.1492402434906
 30
0.0
 10
106.1861110845646
 20
-137.1492402434906
 30
0.0
 10
106.2085097903952
 20
-137.127191632385
 30
0.0
 10
106.2085097903952
 20
-137.0996396879472
 30
0.0
  0
SPLINE
  5
B5
330
43
100
AcDbEntity
  8
_U+30EC_U+30A4_U+30E4_U+30FC 1
 62
   179
420
  2234388
370
     9
100
AcDbSpline
210
0.0
220
0.0
230
1.0
 70
    11
 71
     3
 72
    17
 73
    13
 74
     0
 42
0.0000000001
 43
0.0000000001
 12
1.0
 22
0.0
 32
0.0
 13
1.0
 23
0.0
 33
0.0
 40
0.0
 40
0.0
 40
0.0
 40
0.0
 40
1.0
 40
1.0
 40
1.0
 40
2.0
 40
2.0
 40
2.0
 40
3.0
 40
3.0
 40
3.0
 40
4.0
 40
4.0
 40
4.0
 40
4.0
 10
106.2085097903952
 20
-139.5993877428778
 30
0.0
 10
106.2085097903952
 20
-139.5718357984401
 30
0.0
 10
106.1861110845646
 20
-139.5491169095571
 30
0.0
 10
106.1585564583363
 20
-139.5491169095571
 30
0.0
 10
106.1310045145947
 20
-139.5491169095571
 30
0.0
 10
106.1086031262773
 20
-139.5718357984401
 30
0.0
 10
106.1086031262773
 20
-139.5993877428778
 30
0.0
 10
106.1086031262773
 20
-139.6269749650932
 30
0.0
 10
106.1310045145947
 20
-139.6496938539767
 30
0.0
 10
106.1585564583363
 20
-139.6496938539767
 30
0.0
 10
106.1861110845646
 20
-139.6496938539767
 30
0.0
 10
106.2085097903952
 20
-139.6269749650932
 30
0.0
 10
106.2085097903952
 20
-139.5993877428778
 30
0.0
  0
SPLINE
  5
B6
330
43
100
AcDbEntity
  8
_U+30EC_U+30A4_U+30E4_U+30FC 1
 62
   179
420
  2234388
370
     9
100
AcDbSpline
210
0.0
220
0.0
230
1.0
 70
    11
 71
     3
 72
    17
 73
    13
 74
     0
 42
0.0000000001
 43
0.0000000001
 12
1.0
 22
0.0
 32
0.0
 13
1.0
 23
0.0
 33
0.0
 40
0.0
 40
0.0
 40
0.0
 40
0.0
 40
1.0
 40
1.0
 40
1.0
 40
2.0
 40
2.0
 40
2.0
 40
3.0
 40
3.0
 40
3.0
 40
4.0
 40
4.0
 40
4.0
 40
4.0
 10
104.2086126191946
 20
-141.5996377423778
 30
0.0
 10
104.2086126191946
 20
-141.5720505201625
 30
0.0
 10
104.1862465086541
 20
-141.5493316312796
 30
0.0
 10
104.1586592871357
 20
-141.5493316312796
 30
0.0
 10
104.1311073433941
 20
-141.5493316312796
 30
0.0
 10
104.1083884550848
 20
-141.5720505201625
 30
0.0
 10
104.1083884550848
 20
-141.5996377423778
 30
0.0
 10
104.1083884550848
 20
-141.6271896868156
 30
0.0
 10
104.1311073433941
 20
-141.6492382979212
 30
0.0
 10
104.1586592871357
 20
-141.6492382979212
 30
0.0
 10
104.1862465086541
 20
-141.6492382979212
 30
0.0
 10
104.2086126191946
 20
-141.6271896868156
 30
0.0
 10
104.2086126191946
 20
-141.5996377423778
 30
0.0
  0
SPLINE
  5
B7
330
43
100
AcDbEntity
  8
_U+30EC_U+30A4_U+30E4_U+30FC 1
 62
   179
420
  2234388
370
     9
100
AcDbSpline
210
0.0
220
0.0
230
1.0
 70
    11
 71
     3
 72
    17
 73
    13
 74
     0
 42
0.0000000001
 43
0.0000000001
 12
1.0
 22
0.0
 32
0.0
 13
1.0
 23
0.0
 33
0.0
 40
0.0
 40
0.0
 40
0.0
 40
0.0
 40
1.0
 40
1.0
 40
1.0
 40
2.0
 40
2.0
 40
2.0
 40
3.0
 40
3.0
 40
3.0
 40
4.0
 40
4.0
 40
4.0
 40
4.0
 10
79.20859270144267
 20
-141.5996377423778
 30
0.0
 10
79.20859270144267
 20
-141.5720505201625
 30
0.0
 10
79.18619131312529
 20
-141.5493316312796
 30
0.0
 10
79.15863936938375
 20
-141.5493316312796
 30
0.0
 10
79.13073464787344
 20
-141.5493316312796
 30
0.0
 10
79.10868603732483
 20
-141.5720505201625
 30
0.0
 10
79.10868603732483
 20
-141.5996377423778
 30
0.0
 10
79.10868603732483
 20
-141.6271896868156
 30
0.0
 10
79.13073464787344
 20
-141.6492382979212
 30
0.0
 10
79.15863936938375
 20
-141.6492382979212
 30
0.0
 10
79.18619131312529
 20
-141.6492382979212
 30
0.0
 10
79.20859270144267
 20
-141.6271896868156
 30
0.0
 10
79.20859270144267
 20
-141.5996377423778
 30
0.0
  0
SPLINE
  5
B8
330
43
100
AcDbEntity
  8
_U+30EC_U+30A4_U+30E4_U+30FC 1
 62
   179
420
  2234388
370
     9
100
AcDbSpline
210
0.0
220
0.0
230
1.0
 70
    11
 71
     3
 72
    17
 73
    13
 74
     0
 42
0.0000000001
 43
0.0000000001
 12
1.0
 22
0.0
 32
0.0
 13
1.0
 23
0.0
 33
0.0
 40
0.0
 40
0.0
 40
0.0
 40
0.0
 40
1.0
 40
1.0
 40
1.0
 40
2.0
 40
2.0
 40
2.0
 40
3.0
 40
3.0
 40
3.0
 40
4.0
 40
4.0
 40
4.0
 40
4.0
 10
75.80968473260047
 20
-139.5993877428778
 30
0.0
 10
75.80968473260047
 20
-139.5718357984401
 30
0.0
 10
75.78763612205188
 20
-139.5491169095571
 30
0.0
 10
75.76004890053346
 20
-139.5491169095571
 30
0.0
 10
75.73249695679193
 20
-139.5491169095571
 30
0.0
 10
75.70977806848265
 20
-139.5718357984401
 30
0.0
 10
75.70977806848265
 20
-139.5993877428778
 30
0.0
 10
75.70977806848265
 20
-139.6269749650932
 30
0.0
 10
75.73249695679193
 20
-139.6496938539767
 30
0.0
 10
75.76004890053346
 20
-139.6496938539767
 30
0.0
 10
75.78763612205188
 20
-139.6496938539767
 30
0.0
 10
75.80968473260047
 20
-139.6269749650932
 30
0.0
 10
75.80968473260047
 20
-139.5993877428778
 30
0.0
  0
SPLINE
  5
B9
330
43
100
AcDbEntity
  8
_U+30EC_U+30A4_U+30E4_U+30FC 1
 62
   179
420
  2234388
370
     9
100
AcDbSpline
210
0.0
220
0.0
230
1.0
 70
    11
 71
     3
 72
    17
 73
    13
 74
     0
 42
0.0000000001
 43
0.0000000001
 12
1.0
 22
0.0
 32
0.0
 13
1.0
 23
0.0
 33
0.0
 40
0.0
 40
0.0
 40
0.0
 40
0.0
 40
1.0
 40
1.0
 40
1.0
 40
2.0
 40
2.0
 40
2.0
 40
3.0
 40
3.0
 40
3.0
 40
4.0
 40
4.0
 40
4.0
 40
4.0
 10
75.80968473260047
 20
-117.0993269151695
 30
0.0
 10
75.80968473260047
 20
-117.0717396929542
 30
0.0
 10
75.78763612205188
 20
-117.0493735818487
 30
0.0
 10
75.76004890053346
 20
-117.0493735818487
 30
0.0
 10
75.73249695679193
 20
-117.0493735818487
 30
0.0
 10
75.70977806848265
 20
-117.0717396929542
 30
0.0
 10
75.70977806848265
 20
-117.0993269151695
 30
0.0
 10
75.70977806848265
 20
-117.1268788596073
 30
0.0
 10
75.73249695679193
 20
-117.1492802484903
 30
0.0
 10
75.76004890053346
 20
-117.1492802484903
 30
0.0
 10
75.78763612205188
 20
-117.1492802484903
 30
0.0
 10
75.80968473260047
 20
-117.1268788596073
 30
0.0
 10
75.80968473260047
 20
-117.0993269151695
 30
0.0
  0
POLYLINE
  5
BA
330
43
100
AcDbEntity
  8
_U+30EC_U+30A4_U+30E4_U+30FC 1
 62
   179
420
  2234388
370
     9
100
AcDb2dPolyline
 66
     1
 10
0.0
 20
0.0
 30
0.0
  0
VERTEX
  5
BB
330
BA
100
AcDbEntity
  8
_U+30EC_U+30A4_U+30E4_U+30FC 1
 62
   179
420
  2234388
370
     9
100
AcDbVertex
100
AcDb2dVertex
 10
92.00849904155652
 20
-115.0992533045584
 30
0.0
  0
VERTEX
  5
BC
330
BA
100
AcDbEntity
  8
_U+30EC_U+30A4_U+30E4_U+30FC 1
 62
   179
420
  2234388
370
     9
100
AcDbVertex
100
AcDb2dVertex
 10
94.63746953004146
 20
-115.0992533045584
 30
0.0
  0
SEQEND
  5
BD
330
BA
100
AcDbEntity
  8
_U+30EC_U+30A4_U+30E4_U+30FC 1
 62
   179
420
  2234388
370
     9
  0
POLYLINE
  5
BE
330
43
100
AcDbEntity
  8
_U+30EC_U+30A4_U+30E4_U+30FC 1
 62
   179
420
  2234388
370
     9
100
AcDb2dPolyline
 66
     1
 10
0.0
 20
0.0
 30
0.0
  0
VERTEX
  5
BF
330
BE
100
AcDbEntity
  8
_U+30EC_U+30A4_U+30E4_U+30FC 1
 62
   179
420
  2234388
370
     9
100
AcDbVertex
100
AcDb2dVertex
 10
90.80859601661304
 20
-115.0992533045584
 30
0.0
  0
VERTEX
  5
C0
330
BE
100
AcDbEntity
  8
_U+30EC_U+30A4_U+30E4_U+30FC 1
 62
   179
420
  2234388
370
     9
100
AcDbVertex
100
AcDb2dVertex
 10
92.00849904155652
 20
-115.0992533045584
 30
0.0
  0
SEQEND
  5
C1
330
BE
100
AcDbEntity
  8
_U+30EC_U+30A4_U+30E4_U+30FC 1
 62
   179
420
  2234388
370
     9
  0
POLYLINE
  5
C2
330
43
100
AcDbEntity
  8
_U+30EC_U+30A4_U+30E4_U+30FC 1
 62
   179
420
  2234388
370
     9
100
AcDb2dPolyline
 66
     1
 10
0.0
 20
0.0
 30
0.0
  0
VERTEX
  5
C3
330
C2
100
AcDbEntity
  8
_U+30EC_U+30A4_U+30E4_U+30FC 1
 62
   179
420
  2234388
370
     9
100
AcDbVertex
100
AcDb2dVertex
 10
91.30844683719411
 20
-115.8292916377094
 30
0.0
  0
VERTEX
  5
C4
330
C2
100
AcDbEntity
  8
_U+30EC_U+30A4_U+30E4_U+30FC 1
 62
   179
420
  2234388
370
     9
100
AcDbVertex
100
AcDb2dVertex
 10
91.30844683719411
 20
-114.5993671935725
 30
0.0
  0
SEQEND
  5
C5
330
C2
100
AcDbEntity
  8
_U+30EC_U+30A4_U+30E4_U+30FC 1
 62
   179
420
  2234388
370
     9
  0
POLYLINE
  5
C6
330
43
100
AcDbEntity
  8
_U+30EC_U+30A4_U+30E4_U+30FC 1
 62
   179
420
  2234388
370
     9
100
AcDb2dPolyline
 66
     1
 10
0.0
 20
0.0
 30
0.0
  0
VERTEX
  5
C7
330
C6
100
AcDbEntity
  8
_U+30EC_U+30A4_U+30E4_U+30FC 1
 62
   179
420
  2234388
370
     9
100
AcDbVertex
100
AcDb2dVertex
 10
92.00849904155652
 20
-115.8292916377094
 30
0.0
  0
VERTEX
  5
C8
330
C6
100
AcDbEntity
  8
_U+30EC_U+30A4_U+30E4_U+30FC 1
 62
   179
420
  2234388
370
     9
100
AcDbVertex
100
AcDb2dVertex
 10
92.00849904155652
 20
-114.5993671935725
 30
0.0
  0
SEQEND
  5
C9
330
C6
100
AcDbEntity
  8
_U+30EC_U+30A4_U+30E4_U+30FC 1
 62
   179
420
  2234388
370
     9
  0
INSERT
  5
CB
330
43
100
AcDbEntity
  8
_U+30EC_U+30A4_U+30E4_U+30FC 1
100
AcDbBlockReference
  2
block 3
 10
0.0
 20
0.0
 30
0.0
  0
INSERT
  5
EE
330
43
100
AcDbEntity
  8
_U+30EC_U+30A4_U+30E4_U+30FC 1
100
AcDbBlockReference
  2
block 4
 10
0.0
 20
0.0
 30
0.0
  0
POLYLINE
  5
F2
330
43
100
AcDbEntity
  8
_U+30EC_U+30A4_U+30E4_U+30FC 1
 62
   179
420
  2234388
370
     9
100
AcDb2dPolyline
 66
     1
 10
0.0
 20
0.0
 30
0.0
  0
VERTEX
  5
F3
330
F2
100
AcDbEntity
  8
_U+30EC_U+30A4_U+30E4_U+30FC 1
 62
   179
420
  2234388
370
     9
100
AcDbVertex
100
AcDb2dVertex
 10
96.15847088012636
 20
-135.0994249662254
 30
0.0
  0
VERTEX
  5
F4
330
F2
100
AcDbEntity
  8
_U+30EC_U+30A4_U+30E4_U+30FC 1
 62
   179
420
  2234388
370
     9
100
AcDbVertex
100
AcDb2dVertex
 10
98.65857164967682
 20
-135.0994249662254
 30
0.0
  0
SEQEND
  5
F5
330
F2
100
AcDbEntity
  8
_U+30EC_U+30A4_U+30E4_U+30FC 1
 62
   179
420
  2234388
370
     9
  0
POLYLINE
  5
F6
330
43
100
AcDbEntity
  8
_U+30EC_U+30A4_U+30E4_U+30FC 1
 62
   179
420
  2234388
370
     9
100
AcDb2dPolyline
 66
     1
 10
0.0
 20
0.0
 30
0.0
  0
VERTEX
  5
F7
330
F6
100
AcDbEntity
  8
_U+30EC_U+30A4_U+30E4_U+30FC 1
 62
   179
420
  2234388
370
     9
100
AcDbVertex
100
AcDb2dVertex
 10
96.15847088012636
 20
-135.8290752438204
 30
0.0
  0
VERTEX
  5
F8
330
F6
100
AcDbEntity
  8
_U+30EC_U+30A4_U+30E4_U+30FC 1
 62
   179
420
  2234388
370
     9
100
AcDbVertex
100
AcDb2dVertex
 10
96.15847088012636
 20
-134.5991860774611
 30
0.0
  0
SEQEND
  5
F9
330
F6
100
AcDbEntity
  8
_U+30EC_U+30A4_U+30E4_U+30FC 1
 62
   179
420
  2234388
370
     9
  0
POLYLINE
  5
FA
330
43
100
AcDbEntity
  8
_U+30EC_U+30A4_U+30E4_U+30FC 1
 62
   179
420
  2234388
370
     9
100
AcDb2dPolyline
 66
     1
 10
0.0
 20
0.0
 30
0.0
  0
VERTEX
  5
FB
330
FA
100
AcDbEntity
  8
_U+30EC_U+30A4_U+30E4_U+30FC 1
 62
   179
420
  2234388
370
     9
100
AcDbVertex
100
AcDb2dVertex
 10
98.65857164967682
 20
-135.8290752438204
 30
0.0
  0
VERTEX
  5
FC
330
FA
100
AcDbEntity
  8
_U+30EC_U+30A4_U+30E4_U+30FC 1
 62
   179
420
  2234388
370
     9
100
AcDbVertex
100
AcDb2dVertex
 10
98.65857164967682
 20
-134.5991860774611
 30
0.0
  0
SEQEND
  5
FD
330
FA
100
AcDbEntity
  8
_U+30EC_U+30A4_U+30E4_U+30FC 1
 62
   179
420
  2234388
370
     9
  0
INSERT
  5
FF
330
43
100
AcDbEntity
  8
_U+30EC_U+30A4_U+30E4_U+30FC 1
100
AcDbBlockReference
  2
block 5
 10
0.0
 20
0.0
 30
0.0
  0
INSERT
  5
105
330
43
100
AcDbEntity
  8
_U+30EC_U+30A4_U+30E4_U+30FC 1
100
AcDbBlockReference
  2
block 6
 10
0.0
 20
0.0
 30
0.0
  0
INSERT
  5
10A
330
43
100
AcDbEntity
  8
_U+30EC_U+30A4_U+30E4_U+30FC 1
100
AcDbBlockReference
  2
block 7
 10
0.0
 20
0.0
 30
0.0
  0
INSERT
  5
10F
330
43
100
AcDbEntity
  8
_U+30EC_U+30A4_U+30E4_U+30FC 1
100
AcDbBlockReference
  2
block 8
 10
0.0
 20
0.0
 30
0.0
  0
POLYLINE
  5
113
330
43
100
AcDbEntity
  8
_U+30EC_U+30A4_U+30E4_U+30FC 1
 62
   179
420
  2234388
370
     9
100
AcDb2dPolyline
 66
     1
 10
0.0
 20
0.0
 30
0.0
  0
VERTEX
  5
114
330
113
100
AcDbEntity
  8
_U+30EC_U+30A4_U+30E4_U+30FC 1
 62
   179
420
  2234388
370
     9
100
AcDbVertex
100
AcDb2dVertex
 10
106.1585564583363
 20
-137.0996396879472
 30
0.0
  0
VERTEX
  5
115
330
113
100
AcDbEntity
  8
_U+30EC_U+30A4_U+30E4_U+30FC 1
 62
   179
420
  2234388
370
     9
100
AcDbVertex
100
AcDb2dVertex
 10
106.1585564583363
 20
-139.5993877428778
 30
0.0
  0
SEQEND
  5
116
330
113
100
AcDbEntity
  8
_U+30EC_U+30A4_U+30E4_U+30FC 1
 62
   179
420
  2234388
370
     9
  0
POLYLINE
  5
117
330
43
100
AcDbEntity
  8
_U+30EC_U+30A4_U+30E4_U+30FC 1
 62
   179
420
  2234388
370
     9
100
AcDb2dPolyline
 66
     1
 10
0.0
 20
0.0
 30
0.0
  0
VERTEX
  5
118
330
117
100
AcDbEntity
  8
_U+30EC_U+30A4_U+30E4_U+30FC 1
 62
   179
420
  2234388
370
     9
100
AcDbVertex
100
AcDb2dVertex
 10
105.4285181436278
 20
-137.0996396879472
 30
0.0
  0
VERTEX
  5
119
330
117
100
AcDbEntity
  8
_U+30EC_U+30A4_U+30E4_U+30FC 1
 62
   179
420
  2234388
370
     9
100
AcDbVertex
100
AcDb2dVertex
 10
106.6584425566942
 20
-137.0996396879472
 30
0.0
  0
SEQEND
  5
11A
330
117
100
AcDbEntity
  8
_U+30EC_U+30A4_U+30E4_U+30FC 1
 62
   179
420
  2234388
370
     9
  0
POLYLINE
  5
11B
330
43
100
AcDbEntity
  8
_U+30EC_U+30A4_U+30E4_U+30FC 1
 62
   179
420
  2234388
370
     9
100
AcDb2dPolyline
 66
     1
 10
0.0
 20
0.0
 30
0.0
  0
VERTEX
  5
11C
330
11B
100
AcDbEntity
  8
_U+30EC_U+30A4_U+30E4_U+30FC 1
 62
   179
420
  2234388
370
     9
100
AcDbVertex
100
AcDb2dVertex
 10
105.4285181436278
 20
-139.5993877428778
 30
0.0
  0
VERTEX
  5
11D
330
11B
100
AcDbEntity
  8
_U+30EC_U+30A4_U+30E4_U+30FC 1
 62
   179
420
  2234388
370
     9
100
AcDbVertex
100
AcDb2dVertex
 10
106.6584425566942
 20
-139.5993877428778
 30
0.0
  0
SEQEND
  5
11E
330
11B
100
AcDbEntity
  8
_U+30EC_U+30A4_U+30E4_U+30FC 1
 62
   179
420
  2234388
370
     9
  0
INSERT
  5
120
330
43
100
AcDbEntity
  8
_U+30EC_U+30A4_U+30E4_U+30FC 1
100
AcDbBlockReference
  2
block 9
 10
0.0
 20
0.0
 30
0.0
  0
INSERT
  5
126
330
43
100
AcDbEntity
  8
_U+30EC_U+30A4_U+30E4_U+30FC 1
100
AcDbBlockReference
  2
block 10
 10
0.0
 20
0.0
 30
0.0
  0
INSERT
  5
12B
330
43
100
AcDbEntity
  8
_U+30EC_U+30A4_U+30E4_U+30FC 1
100
AcDbBlockReference
  2
block 11
 10
0.0
 20
0.0
 30
0.0
  0
INSERT
  5
130
330
43
100
AcDbEntity
  8
_U+30EC_U+30A4_U+30E4_U+30FC 1
100
AcDbBlockReference
  2
block 12
 10
0.0
 20
0.0
 30
0.0
  0
POLYLINE
  5
134
330
43
100
AcDbEntity
  8
_U+30EC_U+30A4_U+30E4_U+30FC 1
 62
   179
420
  2234388
370
     9
100
AcDb2dPolyline
 66
     1
 10
0.0
 20
0.0
 30
0.0
  0
VERTEX
  5
135
330
134
100
AcDbEntity
  8
_U+30EC_U+30A4_U+30E4_U+30FC 1
 62
   179
420
  2234388
370
     9
100
AcDbVertex
100
AcDb2dVertex
 10
75.76004890053346
 20
-139.5993877428778
 30
0.0
  0
VERTEX
  5
136
330
134
100
AcDbEntity
  8
_U+30EC_U+30A4_U+30E4_U+30FC 1
 62
   179
420
  2234388
370
     9
100
AcDbVertex
100
AcDb2dVertex
 10
75.76004890053346
 20
-117.0993269151695
 30
0.0
  0
SEQEND
  5
137
330
134
100
AcDbEntity
  8
_U+30EC_U+30A4_U+30E4_U+30FC 1
 62
   179
420
  2234388
370
     9
  0
POLYLINE
  5
138
330
43
100
AcDbEntity
  8
_U+30EC_U+30A4_U+30E4_U+30FC 1
 62
   179
420
  2234388
370
     9
100
AcDb2dPolyline
 66
     1
 10
0.0
 20
0.0
 30
0.0
  0
VERTEX
  5
139
330
138
100
AcDbEntity
  8
_U+30EC_U+30A4_U+30E4_U+30FC 1
 62
   179
420
  2234388
370
     9
100
AcDbVertex
100
AcDb2dVertex
 10
77.91566217887252
 20
-139.5993877428778
 30
0.0
  0
VERTEX
  5
13A
330
138
100
AcDbEntity
  8
_U+30EC_U+30A4_U+30E4_U+30FC 1
 62
   179
420
  2234388
370
     9
100
AcDbVertex
100
AcDb2dVertex
 10
75.25984720340728
 20
-139.5993877428778
 30
0.0
  0
SEQEND
  5
13B
330
138
100
AcDbEntity
  8
_U+30EC_U+30A4_U+30E4_U+30FC 1
 62
   179
420
  2234388
370
     9
  0
POLYLINE
  5
13C
330
43
100
AcDbEntity
  8
_U+30EC_U+30A4_U+30E4_U+30FC 1
 62
   179
420
  2234388
370
     9
100
AcDb2dPolyline
 66
     1
 10
0.0
 20
0.0
 30
0.0
  0
VERTEX
  5
13D
330
13C
100
AcDbEntity
  8
_U+30EC_U+30A4_U+30E4_U+30FC 1
 62
   179
420
  2234388
370
     9
100
AcDbVertex
100
AcDb2dVertex
 10
90.78824073935456
 20
-117.0993269151695
 30
0.0
  0
VERTEX
  5
13E
330
13C
100
AcDbEntity
  8
_U+30EC_U+30A4_U+30E4_U+30FC 1
 62
   179
420
  2234388
370
     9
100
AcDbVertex
100
AcDb2dVertex
 10
75.25984720340728
 20
-117.0993269151695
 30
0.0
  0
SEQEND
  5
13F
330
13C
100
AcDbEntity
  8
_U+30EC_U+30A4_U+30E4_U+30FC 1
 62
   179
420
  2234388
370
     9
  0
INSERT
  5
141
330
43
100
AcDbEntity
  8
_U+30EC_U+30A4_U+30E4_U+30FC 1
100
AcDbBlockReference
  2
block 13
 10
0.0
 20
0.0
 30
0.0
  0
INSERT
  5
15C
330
43
100
AcDbEntity
  8
_U+30EC_U+30A4_U+30E4_U+30FC 1
100
AcDbBlockReference
  2
block 14
 10
0.0
 20
0.0
 30
0.0
  0
INSERT
  5
161
330
43
100
AcDbEntity
  8
_U+30EC_U+30A4_U+30E4_U+30FC 1
100
AcDbBlockReference
  2
block 15
 10
0.0
 20
0.0
 30
0.0
  0
POLYLINE
  5
165
330
43
100
AcDbEntity
  8
_U+30EC_U+30A4_U+30E4_U+30FC 1
 62
   179
420
  2234388
370
     9
100
AcDb2dPolyline
 66
     1
 10
0.0
 20
0.0
 30
0.0
  0
VERTEX
  5
166
330
165
100
AcDbEntity
  8
_U+30EC_U+30A4_U+30E4_U+30FC 1
 62
   179
420
  2234388
370
     9
100
AcDbVertex
100
AcDb2dVertex
 10
79.15863936938375
 20
-141.5996377423778
 30
0.0
  0
VERTEX
  5
167
330
165
100
AcDbEntity
  8
_U+30EC_U+30A4_U+30E4_U+30FC 1
 62
   179
420
  2234388
370
     9
100
AcDbVertex
100
AcDb2dVertex
 10
104.1586592871357
 20
-141.5996377423778
 30
0.0
  0
SEQEND
  5
168
330
165
100
AcDbEntity
  8
_U+30EC_U+30A4_U+30E4_U+30FC 1
 62
   179
420
  2234388
370
     9
  0
POLYLINE
  5
169
330
43
100
AcDbEntity
  8
_U+30EC_U+30A4_U+30E4_U+30FC 1
 62
   179
420
  2234388
370
     9
100
AcDb2dPolyline
 66
     1
 10
0.0
 20
0.0
 30
0.0
  0
VERTEX
  5
16A
330
169
100
AcDbEntity
  8
_U+30EC_U+30A4_U+30E4_U+30FC 1
 62
   179
420
  2234388
370
     9
100
AcDbVertex
100
AcDb2dVertex
 10
79.15863936938375
 20
-140.8692819092273
 30
0.0
  0
VERTEX
  5
16B
330
169
100
AcDbEntity
  8
_U+30EC_U+30A4_U+30E4_U+30FC 1
 62
   179
420
  2234388
370
     9
100
AcDbVertex
100
AcDb2dVertex
 10
79.15863936938375
 20
-142.0991710755866
 30
0.0
  0
SEQEND
  5
16C
330
169
100
AcDbEntity
  8
_U+30EC_U+30A4_U+30E4_U+30FC 1
 62
   179
420
  2234388
370
     9
  0
POLYLINE
  5
16D
330
43
100
AcDbEntity
  8
_U+30EC_U+30A4_U+30E4_U+30FC 1
 62
   179
420
  2234388
370
     9
100
AcDb2dPolyline
 66
     1
 10
0.0
 20
0.0
 30
0.0
  0
VERTEX
  5
16E
330
16D
100
AcDbEntity
  8
_U+30EC_U+30A4_U+30E4_U+30FC 1
 62
   179
420
  2234388
370
     9
100
AcDbVertex
100
AcDb2dVertex
 10
104.1586592871357
 20
-140.8692819092273
 30
0.0
  0
VERTEX
  5
16F
330
16D
100
AcDbEntity
  8
_U+30EC_U+30A4_U+30E4_U+30FC 1
 62
   179
420
  2234388
370
     9
100
AcDbVertex
100
AcDb2dVertex
 10
104.1586592871357
 20
-142.0991710755866
 30
0.0
  0
SEQEND
  5
170
330
16D
100
AcDbEntity
  8
_U+30EC_U+30A4_U+30E4_U+30FC 1
 62
   179
420
  2234388
370
     9
  0
INSERT
  5
172
330
43
100
AcDbEntity
  8
_U+30EC_U+30A4_U+30E4_U+30FC 1
100
AcDbBlockReference
  2
block 16
 10
0.0
 20
0.0
 30
0.0
  0
INSERT
  5
17B
330
43
100
AcDbEntity
  8
_U+30EC_U+30A4_U+30E4_U+30FC 1
100
AcDbBlockReference
  2
block 17
 10
0.0
 20
0.0
 30
0.0
  0
INSERT
  5
180
330
43
100
AcDbEntity
  8
_U+30EC_U+30A4_U+30E4_U+30FC 1
100
AcDbBlockReference
  2
block 18
 10
0.0
 20
0.0
 30
0.0
  0
INSERT
  5
185
330
43
100
AcDbEntity
  8
_U+30EC_U+30A4_U+30E4_U+30FC 1
100
AcDbBlockReference
  2
block 19
 10
0.0
 20
0.0
 30
0.0
  0
ENDBLK
  5
46
330
43
100
AcDbEntity
  8
0
100
AcDbBlockEnd
  0
BLOCK
  5
CC
330
CA
100
AcDbEntity
  8
0
100
AcDbBlockBegin
  2
block 3
 70
     0
 10
0.0
 20
0.0
 30
0.0
  3
block 3
  1

  0
SPLINE
  5
CE
330
CA
100
AcDbEntity
  8
_U+30EC_U+30A4_U+30E4_U+30FC 1
370
     0
100
AcDbSpline
210
0.0
220
0.0
230
1.0
 70
    11
 71
     3
 72
    26
 73
    22
 74
     0
 42
0.0000000001
 43
0.0000000001
 12
1.0
 22
0.0
 32
0.0
 13
1.0
 23
0.0
 33
0.0
 40
0.0
 40
0.0
 40
0.0
 40
0.0
 40
1.0
 40
1.0
 40
1.0
 40
2.0
 40
2.0
 40
2.0
 40
3.0
 40
3.0
 40
3.0
 40
4.0
 40
4.0
 40
4.0
 40
5.0
 40
5.0
 40
5.0
 40
6.0
 40
6.0
 40
6.0
 40
7.0
 40
7.0
 40
7.0
 40
7.0
 10
90.83287079977443
 20
-114.2800184176106
 30
0.0
 10
90.83287079977443
 20
-114.2800184176106
 30
0.0
 10
90.83287079977443
 20
-113.1756930598137
 30
0.0
 10
90.83287079977443
 20
-113.1756930598137
 30
0.0
 10
90.83287079977443
 20
-113.1756930598137
 30
0.0
 10
90.50283065228749
 20
-113.1756930598137
 30
0.0
 10
90.50283065228749
 20
-113.1756930598137
 30
0.0
 10
90.50283065228749
 20
-113.1756930598137
 30
0.0
 10
90.50283065228749
 20
-113.0277262087222
 30
0.0
 10
90.50283065228749
 20
-113.0277262087222
 30
0.0
 10
90.83493785706557
 20
-113.0129122981357
 30
0.0
 10
90.88144664611644
 20
-112.8499592816834
 30
0.0
 10
90.9110744672896
 20
-112.7357543663473
 30
0.0
 10
90.9110744672896
 20
-112.7357543663473
 30
0.0
 10
91.05714651586419
 20
-112.7357543663473
 30
0.0
 10
91.05714651586419
 20
-112.7357543663473
 30
0.0
 10
91.05714651586419
 20
-112.7357543663473
 30
0.0
 10
91.05714651586419
 20
-114.2800184176106
 30
0.0
 10
91.05714651586419
 20
-114.2800184176106
 30
0.0
 10
91.05714651586419
 20
-114.2800184176106
 30
0.0
 10
90.83287079977443
 20
-114.2800184176106
 30
0.0
 10
90.83287079977443
 20
-114.2800184176106
 30
0.0
  0
HATCH
  5
CF
330
CA
100
AcDbEntity
  8
_U+30EC_U+30A4_U+30E4_U+30FC 1
 62
   179
420
  2234388
100
AcDbHatch
 10
0.0
 20
0.0
 30
0.0
210
0.0
220
0.0
230
1.0
  2
SOLID
 70
     1
 71
     0
 91
        1
 92
        1
 93
        1
 72
     4
 94
        3
 73
     0
 74
     1
 95
       26
 96
       22
 40
0.0
 40
0.0
 40
0.0
 40
0.0
 40
1.0
 40
1.0
 40
1.0
 40
2.0
 40
2.0
 40
2.0
 40
3.0
 40
3.0
 40
3.0
 40
4.0
 40
4.0
 40
4.0
 40
5.0
 40
5.0
 40
5.0
 40
6.0
 40
6.0
 40
6.0
 40
7.0
 40
7.0
 40
7.0
 40
7.0
 10
90.83287079977443
 20
-114.2800184176106
 10
90.83287079977443
 20
-114.2800184176106
 10
90.83287079977443
 20
-113.1756930598137
 10
90.83287079977443
 20
-113.1756930598137
 10
90.83287079977443
 20
-113.1756930598137
 10
90.50283065228749
 20
-113.1756930598137
 10
90.50283065228749
 20
-113.1756930598137
 10
90.50283065228749
 20
-113.1756930598137
 10
90.50283065228749
 20
-113.0277262087222
 10
90.50283065228749
 20
-113.0277262087222
 10
90.83493785706557
 20
-113.0129122981357
 10
90.88144664611644
 20
-112.8499592816834
 10
90.9110744672896
 20
-112.7357543663473
 10
90.9110744672896
 20
-112.7357543663473
 10
91.05714651586419
 20
-112.7357543663473
 10
91.05714651586419
 20
-112.7357543663473
 10
91.05714651586419
 20
-112.7357543663473
 10
91.05714651586419
 20
-114.2800184176106
 10
91.05714651586419
 20
-114.2800184176106
 10
91.05714651586419
 20
-114.2800184176106
 10
90.83287079977443
 20
-114.2800184176106
 10
90.83287079977443
 20
-114.2800184176106
 97
        0
 97
        0
 75
     2
 76
     1
 98
        0
  0
POLYLINE
  5
D0
330
CA
100
AcDbEntity
  8
_U+30EC_U+30A4_U+30E4_U+30FC 1
370
     0
100
AcDb2dPolyline
 66
     1
 10
0.0
 20
0.0
 30
0.0
  0
VERTEX
  5
D1
330
D0
100
AcDbEntity
  8
_U+30EC_U+30A4_U+30E4_U+30FC 1
370
     0
100
AcDbVertex
100
AcDb2dVertex
 10
91.61818031563712
 20
-114.2800184176106
 30
0.0
  0
VERTEX
  5
D2
330
D0
100
AcDbEntity
  8
_U+30EC_U+30A4_U+30E4_U+30FC 1
370
     0
100
AcDbVertex
100
AcDb2dVertex
 10
91.61818031563712
 20
-114.0283541924131
 30
0.0
  0
VERTEX
  5
D3
330
D0
100
AcDbEntity
  8
_U+30EC_U+30A4_U+30E4_U+30FC 1
370
     0
100
AcDbVertex
100
AcDb2dVertex
 10
91.87036130515742
 20
-114.0283541924131
 30
0.0
  0
VERTEX
  5
D4
330
D0
100
AcDbEntity
  8
_U+30EC_U+30A4_U+30E4_U+30FC 1
370
     0
100
AcDbVertex
100
AcDb2dVertex
 10
91.87036130515742
 20
-114.2800184176106
 30
0.0
  0
VERTEX
  5
D5
330
D0
100
AcDbEntity
  8
_U+30EC_U+30A4_U+30E4_U+30FC 1
370
     0
100
AcDbVertex
100
AcDb2dVertex
 10
91.61818031563712
 20
-114.2800184176106
 30
0.0
  0
SEQEND
  5
D6
330
D0
100
AcDbEntity
  8
_U+30EC_U+30A4_U+30E4_U+30FC 1
370
     0
  0
HATCH
  5
D7
330
CA
100
AcDbEntity
  8
_U+30EC_U+30A4_U+30E4_U+30FC 1
 62
   179
420
  2234388
100
AcDbHatch
 10
0.0
 20
0.0
 30
0.0
210
0.0
220
0.0
230
1.0
  2
SOLID
 70
     1
 71
     0
 91
        1
 92
        1
 93
        4
 72
     1
 10
91.61818031563712
 20
-114.2800184176106
 11
91.61818031563712
 21
-114.0283541924131
 72
     1
 10
91.61818031563712
 20
-114.0283541924131
 11
91.87036130515742
 21
-114.0283541924131
 72
     1
 10
91.87036130515742
 20
-114.0283541924131
 11
91.87036130515742
 21
-114.2800184176106
 72
     1
 10
91.87036130515742
 20
-114.2800184176106
 11
91.61818031563712
 21
-114.2800184176106
 97
        0
 75
     2
 76
     1
 98
        0
  0
POLYLINE
  5
D8
330
CA
100
AcDbEntity
  8
_U+30EC_U+30A4_U+30E4_U+30FC 1
370
     0
100
AcDb2dPolyline
 66
     1
 10
0.0
 20
0.0
 30
0.0
  0
VERTEX
  5
D9
330
D8
100
AcDbEntity
  8
_U+30EC_U+30A4_U+30E4_U+30FC 1
370
     0
100
AcDbVertex
100
AcDb2dVertex
 10
92.93834090558487
 20
-113.9330973022459
 30
0.0
  0
VERTEX
  5
DA
330
D8
100
AcDbEntity
  8
_U+30EC_U+30A4_U+30E4_U+30FC 1
370
     0
100
AcDbVertex
100
AcDb2dVertex
 10
92.93834090558487
 20
-114.2800184176106
 30
0.0
  0
VERTEX
  5
DB
330
D8
100
AcDbEntity
  8
_U+30EC_U+30A4_U+30E4_U+30FC 1
370
     0
100
AcDbVertex
100
AcDb2dVertex
 10
92.72061087091707
 20
-114.2800184176106
 30
0.0
  0
VERTEX
  5
DC
330
D8
100
AcDbEntity
  8
_U+30EC_U+30A4_U+30E4_U+30FC 1
370
     0
100
AcDbVertex
100
AcDb2dVertex
 10
92.72061087091707
 20
-113.9330973022459
 30
0.0
  0
VERTEX
  5
DD
330
D8
100
AcDbEntity
  8
_U+30EC_U+30A4_U+30E4_U+30FC 1
370
     0
100
AcDbVertex
100
AcDb2dVertex
 10
92.0646646905255
 20
-113.9330973022459
 30
0.0
  0
VERTEX
  5
DE
330
D8
100
AcDbEntity
  8
_U+30EC_U+30A4_U+30E4_U+30FC 1
370
     0
100
AcDbVertex
100
AcDb2dVertex
 10
92.0646646905255
 20
-113.7088215861561
 30
0.0
  0
VERTEX
  5
DF
330
D8
100
AcDbEntity
  8
_U+30EC_U+30A4_U+30E4_U+30FC 1
370
     0
100
AcDbVertex
100
AcDb2dVertex
 10
92.74403752021678
 20
-112.7357543663473
 30
0.0
  0
VERTEX
  5
E0
330
D8
100
AcDbEntity
  8
_U+30EC_U+30A4_U+30E4_U+30FC 1
370
     0
100
AcDbVertex
100
AcDb2dVertex
 10
92.93834090558487
 20
-112.7357543663473
 30
0.0
  0
VERTEX
  5
E1
330
D8
100
AcDbEntity
  8
_U+30EC_U+30A4_U+30E4_U+30FC 1
370
     0
100
AcDbVertex
100
AcDb2dVertex
 10
92.93834090558487
 20
-113.7341430379727
 30
0.0
  0
VERTEX
  5
E2
330
D8
100
AcDbEntity
  8
_U+30EC_U+30A4_U+30E4_U+30FC 1
370
     0
100
AcDbVertex
100
AcDb2dVertex
 10
93.1457356537969
 20
-113.7341430379727
 30
0.0
  0
VERTEX
  5
E3
330
D8
100
AcDbEntity
  8
_U+30EC_U+30A4_U+30E4_U+30FC 1
370
     0
100
AcDbVertex
100
AcDb2dVertex
 10
93.1457356537969
 20
-113.9330973022459
 30
0.0
  0
VERTEX
  5
E4
330
D8
100
AcDbEntity
  8
_U+30EC_U+30A4_U+30E4_U+30FC 1
370
     0
100
AcDbVertex
100
AcDb2dVertex
 10
92.93834090558487
 20
-113.9330973022459
 30
0.0
  0
SEQEND
  5
E5
330
D8
100
AcDbEntity
  8
_U+30EC_U+30A4_U+30E4_U+30FC 1
370
     0
  0
POLYLINE
  5
E6
330
CA
100
AcDbEntity
  8
_U+30EC_U+30A4_U+30E4_U+30FC 1
370
     0
100
AcDb2dPolyline
 66
     1
 10
0.0
 20
0.0
 30
0.0
  0
VERTEX
  5
E7
330
E6
100
AcDbEntity
  8
_U+30EC_U+30A4_U+30E4_U+30FC 1
370
     0
100
AcDbVertex
100
AcDb2dVertex
 10
92.72061087091707
 20
-113.0783691123554
 30
0.0
  0
VERTEX
  5
E8
330
E6
100
AcDbEntity
  8
_U+30EC_U+30A4_U+30E4_U+30FC 1
370
     0
100
AcDbVertex
100
AcDb2dVertex
 10
92.26379120957294
 20
-113.7341430379727
 30
0.0
  0
VERTEX
  5
E9
330
E6
100
AcDbEntity
  8
_U+30EC_U+30A4_U+30E4_U+30FC 1
370
     0
100
AcDbVertex
100
AcDb2dVertex
 10
92.72061087091707
 20
-113.7341430379727
 30
0.0
  0
VERTEX
  5
EA
330
E6
100
AcDbEntity
  8
_U+30EC_U+30A4_U+30E4_U+30FC 1
370
     0
100
AcDbVertex
100
AcDb2dVertex
 10
92.72061087091707
 20
-113.0783691123554
 30
0.0
  0
SEQEND
  5
EB
330
E6
100
AcDbEntity
  8
_U+30EC_U+30A4_U+30E4_U+30FC 1
370
     0
  0
HATCH
  5
EC
330
CA
100
AcDbEntity
  8
_U+30EC_U+30A4_U+30E4_U+30FC 1
 62
   179
420
  2234388
100
AcDbHatch
 10
0.0
 20
0.0
 30
0.0
210
0.0
220
0.0
230
1.0
  2
SOLID
 70
     1
 71
     0
 91
        2
 92
        1
 93
       11
 72
     1
 10
92.93834090558487
 20
-113.9330973022459
 11
92.93834090558487
 21
-114.2800184176106
 72
     1
 10
92.93834090558487
 20
-114.2800184176106
 11
92.72061087091707
 21
-114.2800184176106
 72
     1
 10
92.72061087091707
 20
-114.2800184176106
 11
92.72061087091707
 21
-113.9330973022459
 72
     1
 10
92.72061087091707
 20
-113.9330973022459
 11
92.0646646905255
 21
-113.9330973022459
 72
     1
 10
92.0646646905255
 20
-113.9330973022459
 11
92.0646646905255
 21
-113.7088215861561
 72
     1
 10
92.0646646905255
 20
-113.7088215861561
 11
92.74403752021678
 21
-112.7357543663473
 72
     1
 10
92.74403752021678
 20
-112.7357543663473
 11
92.93834090558487
 21
-112.7357543663473
 72
     1
 10
92.93834090558487
 20
-112.7357543663473
 11
92.93834090558487
 21
-113.7341430379727
 72
     1
 10
92.93834090558487
 20
-113.7341430379727
 11
93.1457356537969
 21
-113.7341430379727
 72
     1
 10
93.1457356537969
 20
-113.7341430379727
 11
93.1457356537969
 21
-113.9330973022459
 72
     1
 10
93.1457356537969
 20
-113.9330973022459
 11
92.93834090558487
 21
-113.9330973022459
 97
        0
 92
        1
 93
        3
 72
     1
 10
92.72061087091707
 20
-113.0783691123554
 11
92.26379120957294
 21
-113.7341430379727
 72
     1
 10
92.26379120957294
 20
-113.7341430379727
 11
92.72061087091707
 21
-113.7341430379727
 72
     1
 10
92.72061087091707
 20
-113.7341430379727
 11
92.72061087091707
 21
-113.0783691123554
 97
        0
 75
     2
 76
     1
 98
        0
  0
ENDBLK
  5
CD
330
CA
100
AcDbEntity
  8
0
100
AcDbBlockEnd
  0
BLOCK
  5
EF
330
ED
100
AcDbEntity
  8
0
100
AcDbBlockBegin
  2
block 4
 70
     0
 10
0.0
 20
0.0
 30
0.0
  3
block 4
  1

  0
SPLINE
  5
F1
330
ED
100
AcDbEntity
  8
_U+30EC_U+30A4_U+30E4_U+30FC 1
 62
   179
420
  2234388
370
     9
100
AcDbSpline
210
0.0
220
0.0
230
1.0
 70
    11
 71
     3
 72
    17
 73
    13
 74
     0
 42
0.0000000001
 43
0.0000000001
 12
1.0
 22
0.0
 32
0.0
 13
1.0
 23
0.0
 33
0.0
 40
0.0
 40
0.0
 40
0.0
 40
0.0
 40
1.0
 40
1.0
 40
1.0
 40
2.0
 40
2.0
 40
2.0
 40
3.0
 40
3.0
 40
3.0
 40
4.0
 40
4.0
 40
4.0
 40
4.0
 10
92.02642015221042
 20
-115.0992533045584
 30
0.0
 10
92.02642015221042
 20
-115.109095804556
 30
0.0
 10
92.01816515242103
 20
-115.1169980267762
 30
0.0
 10
92.00849904155652
 20
-115.1169980267762
 30
0.0
 10
91.99886820846889
 20
-115.1169980267762
 30
0.0
 10
91.9909307086714
 20
-115.109095804556
 30
0.0
 10
91.9909307086714
 20
-115.0992533045584
 30
0.0
 10
91.9909307086714
 20
-115.0896224712276
 30
0.0
 10
91.99886820846889
 20
-115.0816849712296
 30
0.0
 10
92.00849904155652
 20
-115.0816849712296
 30
0.0
 10
92.01816515242103
 20
-115.0816849712296
 30
0.0
 10
92.02642015221042
 20
-115.0896224712276
 30
0.0
 10
92.02642015221042
 20
-115.0992533045584
 30
0.0
  0
ENDBLK
  5
F0
330
ED
100
AcDbEntity
  8
0
100
AcDbBlockEnd
  0
BLOCK
  5
100
330
FE
100
AcDbEntity
  8
0
100
AcDbBlockBegin
  2
block 5
 70
     0
 10
0.0
 20
0.0
 30
0.0
  3
block 5
  1

  0
SPLINE
  5
102
330
FE
100
AcDbEntity
  8
_U+30EC_U+30A4_U+30E4_U+30FC 1
370
     0
100
AcDbSpline
210
0.0
220
0.0
230
1.0
 70
    11
 71
     3
 72
    53
 73
    49
 74
     0
 42
0.0000000001
 43
0.0000000001
 12
1.0
 22
0.0
 32
0.0
 13
1.0
 23
0.0
 33
0.0
 40
0.0
 40
0.0
 40
0.0
 40
0.0
 40
1.0
 40
1.0
 40
1.0
 40
2.0
 40
2.0
 40
2.0
 40
3.0
 40
3.0
 40
3.0
 40
4.0
 40
4.0
 40
4.0
 40
5.0
 40
5.0
 40
5.0
 40
6.0
 40
6.0
 40
6.0
 40
7.0
 40
7.0
 40
7.0
 40
8.0
 40
8.0
 40
8.0
 40
9.0
 40
9.0
 40
9.0
 40
10.0
 40
10.0
 40
10.0
 40
11.0
 40
11.0
 40
11.0
 40
12.0
 40
12.0
 40
12.0
 40
13.0
 40
13.0
 40
13.0
 40
14.0
 40
14.0
 40
14.0
 40
15.0
 40
15.0
 40
15.0
 40
16.0
 40
16.0
 40
16.0
 40
16.0
 10
97.3887152534306
 20
-134.2315999013379
 30
0.0
 10
97.31085609546396
 20
-134.2315999013379
 30
0.0
 10
97.20888126910056
 20
-134.2147189334602
 30
0.0
 10
97.10759546183422
 20
-134.1513291765316
 30
0.0
 10
96.93396264937762
 20
-134.0410861210036
 30
0.0
 10
96.91260305736908
 20
-133.9101724925641
 30
0.0
 10
96.89399954174873
 20
-133.8019964943273
 30
0.0
 10
96.89399954174873
 20
-133.8019964943273
 30
0.0
 10
97.11586369099882
 20
-133.8019964943273
 30
0.0
 10
97.11586369099882
 20
-133.8019964943273
 30
0.0
 10
97.17098521876281
 20
-134.0011230133747
 30
0.0
 10
97.29776473262001
 20
-134.0307508345479
 30
0.0
 10
97.39078231072175
 20
-134.0307508345479
 30
0.0
 10
97.5306531874229
 20
-134.0307508345479
 30
0.0
 10
97.68292640787094
 20
-133.9311875750242
 30
0.0
 10
97.68292640787094
 20
-133.6986436297698
 30
0.0
 10
97.68292640787094
 20
-133.4423285256672
 30
0.0
 10
97.50309242354089
 20
-133.3727375968652
 30
0.0
 10
97.38251408155715
 20
-133.3727375968652
 30
0.0
 10
97.35081920309285
 20
-133.3727375968652
 30
0.0
 10
97.20888126910056
 20
-133.3727375968652
 30
0.0
 10
97.11999780558112
 20
-133.5015841680135
 30
0.0
 10
97.11999780558112
 20
-133.5015841680135
 30
0.0
 10
96.94429793583338
 20
-133.4826361428446
 30
0.0
 10
96.94429793583338
 20
-133.4826361428446
 30
0.0
 10
96.94429793583338
 20
-133.4826361428446
 30
0.0
 10
97.06487627781712
 20
-132.6365206916673
 30
0.0
 10
97.06487627781712
 20
-132.6365206916673
 30
0.0
 10
97.06487627781712
 20
-132.6365206916673
 30
0.0
 10
97.84346785748359
 20
-132.6365206916673
 30
0.0
 10
97.84346785748359
 20
-132.6365206916673
 30
0.0
 10
97.84346785748359
 20
-132.6365206916673
 30
0.0
 10
97.84346785748359
 20
-132.8311685865839
 30
0.0
 10
97.84346785748359
 20
-132.8311685865839
 30
0.0
 10
97.84346785748359
 20
-132.8311685865839
 30
0.0
 10
97.22817380381797
 20
-132.8311685865839
 30
0.0
 10
97.22817380381797
 20
-132.8311685865839
 30
0.0
 10
97.22817380381797
 20
-132.8311685865839
 30
0.0
 10
97.16271698959821
 20
-133.2542263121726
 30
0.0
 10
97.16271698959821
 20
-133.2542263121726
 30
0.0
 10
97.22403968923567
 20
-133.2204643764171
 30
0.0
 10
97.30603296178461
 20
-133.1801567592397
 30
0.0
 10
97.4245442464772
 20
-133.1801567592397
 30
0.0
 10
97.67879229328864
 20
-133.1801567592397
 30
0.0
 10
97.91581486267383
 20
-133.3665364249917
 30
0.0
 10
97.91581486267383
 20
-133.6793510950524
 30
0.0
 10
97.91581486267383
 20
-133.9969888987924
 30
0.0
 10
97.69119463703554
 20
-134.2315999013379
 30
0.0
 10
97.3887152534306
 20
-134.2315999013379
 30
0.0
  0
HATCH
  5
103
330
FE
100
AcDbEntity
  8
_U+30EC_U+30A4_U+30E4_U+30FC 1
 62
   179
420
  2234388
100
AcDbHatch
 10
0.0
 20
0.0
 30
0.0
210
0.0
220
0.0
230
1.0
  2
SOLID
 70
     1
 71
     0
 91
        1
 92
        1
 93
        1
 72
     4
 94
        3
 73
     0
 74
     1
 95
       53
 96
       49
 40
0.0
 40
0.0
 40
0.0
 40
0.0
 40
1.0
 40
1.0
 40
1.0
 40
2.0
 40
2.0
 40
2.0
 40
3.0
 40
3.0
 40
3.0
 40
4.0
 40
4.0
 40
4.0
 40
5.0
 40
5.0
 40
5.0
 40
6.0
 40
6.0
 40
6.0
 40
7.0
 40
7.0
 40
7.0
 40
8.0
 40
8.0
 40
8.0
 40
9.0
 40
9.0
 40
9.0
 40
10.0
 40
10.0
 40
10.0
 40
11.0
 40
11.0
 40
11.0
 40
12.0
 40
12.0
 40
12.0
 40
13.0
 40
13.0
 40
13.0
 40
14.0
 40
14.0
 40
14.0
 40
15.0
 40
15.0
 40
15.0
 40
16.0
 40
16.0
 40
16.0
 40
16.0
 10
97.3887152534306
 20
-134.2315999013379
 10
97.31085609546396
 20
-134.2315999013379
 10
97.20888126910056
 20
-134.2147189334602
 10
97.10759546183422
 20
-134.1513291765316
 10
96.93396264937762
 20
-134.0410861210036
 10
96.91260305736908
 20
-133.9101724925641
 10
96.89399954174873
 20
-133.8019964943273
 10
96.89399954174873
 20
-133.8019964943273
 10
97.11586369099882
 20
-133.8019964943273
 10
97.11586369099882
 20
-133.8019964943273
 10
97.17098521876281
 20
-134.0011230133747
 10
97.29776473262001
 20
-134.0307508345479
 10
97.39078231072175
 20
-134.0307508345479
 10
97.5306531874229
 20
-134.0307508345479
 10
97.68292640787094
 20
-133.9311875750242
 10
97.68292640787094
 20
-133.6986436297698
 10
97.68292640787094
 20
-133.4423285256672
 10
97.50309242354089
 20
-133.3727375968652
 10
97.38251408155715
 20
-133.3727375968652
 10
97.35081920309285
 20
-133.3727375968652
 10
97.20888126910056
 20
-133.3727375968652
 10
97.11999780558112
 20
-133.5015841680135
 10
97.11999780558112
 20
-133.5015841680135
 10
96.94429793583338
 20
-133.4826361428446
 10
96.94429793583338
 20
-133.4826361428446
 10
96.94429793583338
 20
-133.4826361428446
 10
97.06487627781712
 20
-132.6365206916673
 10
97.06487627781712
 20
-132.6365206916673
 10
97.06487627781712
 20
-132.6365206916673
 10
97.84346785748359
 20
-132.6365206916673
 10
97.84346785748359
 20
-132.6365206916673
 10
97.84346785748359
 20
-132.6365206916673
 10
97.84346785748359
 20
-132.8311685865839
 10
97.84346785748359
 20
-132.8311685865839
 10
97.84346785748359
 20
-132.8311685865839
 10
97.22817380381797
 20
-132.8311685865839
 10
97.22817380381797
 20
-132.8311685865839
 10
97.22817380381797
 20
-132.8311685865839
 10
97.16271698959821
 20
-133.2542263121726
 10
97.16271698959821
 20
-133.2542263121726
 10
97.22403968923567
 20
-133.2204643764171
 10
97.30603296178461
 20
-133.1801567592397
 10
97.4245442464772
 20
-133.1801567592397
 10
97.67879229328864
 20
-133.1801567592397
 10
97.91581486267383
 20
-133.3665364249917
 10
97.91581486267383
 20
-133.6793510950524
 10
97.91581486267383
 20
-133.9969888987924
 10
97.69119463703554
 20
-134.2315999013379
 10
97.3887152534306
 20
-134.2315999013379
 97
        0
 97
        0
 75
     2
 76
     1
 98
        0
  0
ENDBLK
  5
101
330
FE
100
AcDbEntity
  8
0
100
AcDbBlockEnd
  0
BLOCK
  5
106
330
104
100
AcDbEntity
  8
0
100
AcDbBlockBegin
  2
block 6
 70
     0
 10
0.0
 20
0.0
 30
0.0
  3
block 6
  1

  0
SPLINE
  5
108
330
104
100
AcDbEntity
  8
_U+30EC_U+30A4_U+30E4_U+30FC 1
 62
   179
420
  2234388
370
    25
100
AcDbSpline
210
0.0
220
0.0
230
1.0
 70
    11
 71
     3
 72
    17
 73
    13
 74
     0
 42
0.0000000001
 43
0.0000000001
 12
1.0
 22
0.0
 32
0.0
 13
1.0
 23
0.0
 33
0.0
 40
0.0
 40
0.0
 40
0.0
 40
0.0
 40
1.0
 40
1.0
 40
1.0
 40
2.0
 40
2.0
 40
2.0
 40
3.0
 40
3.0
 40
3.0
 40
4.0
 40
4.0
 40
4.0
 40
4.0
 10
96.17639442040043
 20
-137.0996396879472
 30
0.0
 10
96.17639442040043
 20
-137.1093057990562
 30
0.0
 10
96.168101713214
 20
-137.1168552434986
 30
0.0
 10
96.15847088012636
 20
-137.1168552434986
 30
0.0
 10
96.14884004703873
 20
-137.1168552434986
 30
0.0
 10
96.14090254724124
 20
-137.1093057990562
 30
0.0
 10
96.14090254724124
 20
-137.0996396879472
 30
0.0
 10
96.14090254724124
 20
-137.0893032990608
 30
0.0
 10
96.14884004703873
 20
-137.0817185768409
 30
0.0
 10
96.15847088012636
 20
-137.0817185768409
 30
0.0
 10
96.168101713214
 20
-137.0817185768409
 30
0.0
 10
96.17639442040043
 20
-137.0893032990608
 30
0.0
 10
96.17639442040043
 20
-137.0996396879472
 30
0.0
  0
ENDBLK
  5
107
330
104
100
AcDbEntity
  8
0
100
AcDbBlockEnd
  0
BLOCK
  5
10B
330
109
100
AcDbEntity
  8
0
100
AcDbBlockBegin
  2
block 7
 70
     0
 10
0.0
 20
0.0
 30
0.0
  3
block 7
  1

  0
SPLINE
  5
10D
330
109
100
AcDbEntity
  8
_U+30EC_U+30A4_U+30E4_U+30FC 1
 62
   179
420
  2234388
370
    25
100
AcDbSpline
210
0.0
220
0.0
230
1.0
 70
    11
 71
     3
 72
    17
 73
    13
 74
     0
 42
0.0000000001
 43
0.0000000001
 12
1.0
 22
0.0
 32
0.0
 13
1.0
 23
0.0
 33
0.0
 40
0.0
 40
0.0
 40
0.0
 40
0.0
 40
1.0
 40
1.0
 40
1.0
 40
2.0
 40
2.0
 40
2.0
 40
3.0
 40
3.0
 40
3.0
 40
4.0
 40
4.0
 40
4.0
 40
4.0
 10
98.67613998256193
 20
-137.0996396879472
 30
0.0
 10
98.67613998256193
 20
-137.1093057990562
 30
0.0
 10
98.66855526053322
 20
-137.1168552434986
 30
0.0
 10
98.65857164967682
 20
-137.1168552434986
 30
0.0
 10
98.6485880388204
 20
-137.1168552434986
 30
0.0
 10
98.64100331679168
 20
-137.1093057990562
 30
0.0
 10
98.64100331679168
 20
-137.0996396879472
 30
0.0
 10
98.64100331679168
 20
-137.0893032990608
 30
0.0
 10
98.6485880388204
 20
-137.0817185768409
 30
0.0
 10
98.65857164967682
 20
-137.0817185768409
 30
0.0
 10
98.66855526053322
 20
-137.0817185768409
 30
0.0
 10
98.67613998256193
 20
-137.0893032990608
 30
0.0
 10
98.67613998256193
 20
-137.0996396879472
 30
0.0
  0
ENDBLK
  5
10C
330
109
100
AcDbEntity
  8
0
100
AcDbBlockEnd
  0
BLOCK
  5
110
330
10E
100
AcDbEntity
  8
0
100
AcDbBlockBegin
  2
block 8
 70
     0
 10
0.0
 20
0.0
 30
0.0
  3
block 8
  1

  0
SPLINE
  5
112
330
10E
100
AcDbEntity
  8
_U+30EC_U+30A4_U+30E4_U+30FC 1
 62
   179
420
  2234388
370
     9
100
AcDbSpline
210
0.0
220
0.0
230
1.0
 70
    11
 71
     3
 72
    17
 73
    13
 74
     0
 42
0.0000000001
 43
0.0000000001
 12
1.0
 22
0.0
 32
0.0
 13
1.0
 23
0.0
 33
0.0
 40
0.0
 40
0.0
 40
0.0
 40
0.0
 40
1.0
 40
1.0
 40
1.0
 40
2.0
 40
2.0
 40
2.0
 40
3.0
 40
3.0
 40
3.0
 40
4.0
 40
4.0
 40
4.0
 40
4.0
 10
98.67613998256193
 20
-135.0994249662254
 30
0.0
 10
98.67613998256193
 20
-135.1090557995562
 30
0.0
 10
98.66855526053322
 20
-135.1173460773317
 30
0.0
 10
98.65857164967682
 20
-135.1173460773317
 30
0.0
 10
98.6485880388204
 20
-135.1173460773317
 30
0.0
 10
98.64100331679168
 20
-135.1090557995562
 30
0.0
 10
98.64100331679168
 20
-135.0994249662254
 30
0.0
 10
98.64100331679168
 20
-135.0897588551164
 30
0.0
 10
98.6485880388204
 20
-135.0815038551185
 30
0.0
 10
98.65857164967682
 20
-135.0815038551185
 30
0.0
 10
98.66855526053322
 20
-135.0815038551185
 30
0.0
 10
98.67613998256193
 20
-135.0897588551164
 30
0.0
 10
98.67613998256193
 20
-135.0994249662254
 30
0.0
  0
ENDBLK
  5
111
330
10E
100
AcDbEntity
  8
0
100
AcDbBlockEnd
  0
BLOCK
  5
121
330
11F
100
AcDbEntity
  8
0
100
AcDbBlockBegin
  2
block 9
 70
     0
 10
0.0
 20
0.0
 30
0.0
  3
block 9
  1

  0
SPLINE
  5
123
330
11F
100
AcDbEntity
  8
_U+30EC_U+30A4_U+30E4_U+30FC 1
370
     0
100
AcDbSpline
210
0.0
220
0.0
230
1.0
 70
    11
 71
     3
 72
    53
 73
    49
 74
     0
 42
0.0000000001
 43
0.0000000001
 12
1.0
 22
0.0
 32
0.0
 13
1.0
 23
0.0
 33
0.0
 40
0.0
 40
0.0
 40
0.0
 40
0.0
 40
1.0
 40
1.0
 40
1.0
 40
2.0
 40
2.0
 40
2.0
 40
3.0
 40
3.0
 40
3.0
 40
4.0
 40
4.0
 40
4.0
 40
5.0
 40
5.0
 40
5.0
 40
6.0
 40
6.0
 40
6.0
 40
7.0
 40
7.0
 40
7.0
 40
8.0
 40
8.0
 40
8.0
 40
9.0
 40
9.0
 40
9.0
 40
10.0
 40
10.0
 40
10.0
 40
11.0
 40
11.0
 40
11.0
 40
12.0
 40
12.0
 40
12.0
 40
13.0
 40
13.0
 40
13.0
 40
14.0
 40
14.0
 40
14.0
 40
15.0
 40
15.0
 40
15.0
 40
16.0
 40
16.0
 40
16.0
 40
16.0
 10
108.3475639920103
 20
-138.3688150695745
 30
0.0
 10
108.3475639920103
 20
-138.4473632466382
 30
0.0
 10
108.3303385145841
 20
-138.5486490539045
 30
0.0
 10
108.2669487576555
 20
-138.6502793707194
 30
0.0
 10
108.1573947212245
 20
-138.8235676736275
 30
0.0
 10
108.025792073688
 20
-138.844927265636
 30
0.0
 10
107.9183050945482
 20
-138.8638752908049
 30
0.0
 10
107.9183050945482
 20
-138.8638752908049
 30
0.0
 10
107.9183050945482
 20
-138.6416666320063
 30
0.0
 10
107.9183050945482
 20
-138.6416666320063
 30
0.0
 10
108.1167425944986
 20
-138.5865451042422
 30
0.0
 10
108.1463704156717
 20
-138.4597655903851
 30
0.0
 10
108.1463704156717
 20
-138.3667480122833
 30
0.0
 10
108.1463704156717
 20
-138.2272216451307
 30
0.0
 10
108.0471516656965
 20
-138.0746039151341
 30
0.0
 10
107.8142632108937
 20
-138.0746039151341
 30
0.0
 10
107.5586371258881
 20
-138.0746039151341
 30
0.0
 10
107.488357177989
 20
-138.2544378994642
 30
0.0
 10
107.488357177989
 20
-138.3750162414479
 30
0.0
 10
107.488357177989
 20
-138.4067111199122
 30
0.0
 10
107.488357177989
 20
-138.5486490539045
 30
0.0
 10
107.6178927682344
 20
-138.6375325174239
 30
0.0
 10
107.6178927682344
 20
-138.6375325174239
 30
0.0
 10
107.598600233517
 20
-138.8132323871717
 30
0.0
 10
107.598600233517
 20
-138.8132323871717
 30
0.0
 10
107.598600233517
 20
-138.8132323871717
 30
0.0
 10
106.7524847823397
 20
-138.692654045188
 30
0.0
 10
106.7524847823397
 20
-138.692654045188
 30
0.0
 10
106.7524847823397
 20
-138.692654045188
 30
0.0
 10
106.7524847823397
 20
-137.9140624655215
 30
0.0
 10
106.7524847823397
 20
-137.9140624655215
 30
0.0
 10
106.7524847823397
 20
-137.9140624655215
 30
0.0
 10
106.9467881677078
 20
-137.9140624655215
 30
0.0
 10
106.9467881677078
 20
-137.9140624655215
 30
0.0
 10
106.9467881677078
 20
-137.9140624655215
 30
0.0
 10
106.9467881677078
 20
-138.5297010287356
 30
0.0
 10
106.9467881677078
 20
-138.5297010287356
 30
0.0
 10
106.9467881677078
 20
-138.5297010287356
 30
0.0
 10
107.3698458932964
 20
-138.5951578429554
 30
0.0
 10
107.3698458932964
 20
-138.5951578429554
 30
0.0
 10
107.336083957541
 20
-138.5338351433179
 30
0.0
 10
107.2961208499121
 20
-138.4514973612205
 30
0.0
 10
107.2961208499121
 20
-138.3329860765279
 30
0.0
 10
107.2961208499121
 20
-138.079082539265
 30
0.0
 10
107.4821560061156
 20
-137.8420599698798
 30
0.0
 10
107.7956596952733
 20
-137.8420599698798
 30
0.0
 10
108.1126084799163
 20
-137.8420599698798
 30
0.0
 10
108.3475639920103
 20
-138.0663356859695
 30
0.0
 10
108.3475639920103
 20
-138.3688150695745
 30
0.0
  0
HATCH
  5
124
330
11F
100
AcDbEntity
  8
_U+30EC_U+30A4_U+30E4_U+30FC 1
 62
   179
420
  2234388
100
AcDbHatch
 10
0.0
 20
0.0
 30
0.0
210
0.0
220
0.0
230
1.0
  2
SOLID
 70
     1
 71
     0
 91
        1
 92
        1
 93
        1
 72
     4
 94
        3
 73
     0
 74
     1
 95
       53
 96
       49
 40
0.0
 40
0.0
 40
0.0
 40
0.0
 40
1.0
 40
1.0
 40
1.0
 40
2.0
 40
2.0
 40
2.0
 40
3.0
 40
3.0
 40
3.0
 40
4.0
 40
4.0
 40
4.0
 40
5.0
 40
5.0
 40
5.0
 40
6.0
 40
6.0
 40
6.0
 40
7.0
 40
7.0
 40
7.0
 40
8.0
 40
8.0
 40
8.0
 40
9.0
 40
9.0
 40
9.0
 40
10.0
 40
10.0
 40
10.0
 40
11.0
 40
11.0
 40
11.0
 40
12.0
 40
12.0
 40
12.0
 40
13.0
 40
13.0
 40
13.0
 40
14.0
 40
14.0
 40
14.0
 40
15.0
 40
15.0
 40
15.0
 40
16.0
 40
16.0
 40
16.0
 40
16.0
 10
108.3475639920103
 20
-138.3688150695745
 10
108.3475639920103
 20
-138.4473632466382
 10
108.3303385145841
 20
-138.5486490539045
 10
108.2669487576555
 20
-138.6502793707194
 10
108.1573947212245
 20
-138.8235676736275
 10
108.025792073688
 20
-138.844927265636
 10
107.9183050945482
 20
-138.8638752908049
 10
107.9183050945482
 20
-138.8638752908049
 10
107.9183050945482
 20
-138.6416666320063
 10
107.9183050945482
 20
-138.6416666320063
 10
108.1167425944986
 20
-138.5865451042422
 10
108.1463704156717
 20
-138.4597655903851
 10
108.1463704156717
 20
-138.3667480122833
 10
108.1463704156717
 20
-138.2272216451307
 10
108.0471516656965
 20
-138.0746039151341
 10
107.8142632108937
 20
-138.0746039151341
 10
107.5586371258881
 20
-138.0746039151341
 10
107.488357177989
 20
-138.2544378994642
 10
107.488357177989
 20
-138.3750162414479
 10
107.488357177989
 20
-138.4067111199122
 10
107.488357177989
 20
-138.5486490539045
 10
107.6178927682344
 20
-138.6375325174239
 10
107.6178927682344
 20
-138.6375325174239
 10
107.598600233517
 20
-138.8132323871717
 10
107.598600233517
 20
-138.8132323871717
 10
107.598600233517
 20
-138.8132323871717
 10
106.7524847823397
 20
-138.692654045188
 10
106.7524847823397
 20
-138.692654045188
 10
106.7524847823397
 20
-138.692654045188
 10
106.7524847823397
 20
-137.9140624655215
 10
106.7524847823397
 20
-137.9140624655215
 10
106.7524847823397
 20
-137.9140624655215
 10
106.9467881677078
 20
-137.9140624655215
 10
106.9467881677078
 20
-137.9140624655215
 10
106.9467881677078
 20
-137.9140624655215
 10
106.9467881677078
 20
-138.5297010287356
 10
106.9467881677078
 20
-138.5297010287356
 10
106.9467881677078
 20
-138.5297010287356
 10
107.3698458932964
 20
-138.5951578429554
 10
107.3698458932964
 20
-138.5951578429554
 10
107.336083957541
 20
-138.5338351433179
 10
107.2961208499121
 20
-138.4514973612205
 10
107.2961208499121
 20
-138.3329860765279
 10
107.2961208499121
 20
-138.079082539265
 10
107.4821560061156
 20
-137.8420599698798
 10
107.7956596952733
 20
-137.8420599698798
 10
108.1126084799163
 20
-137.8420599698798
 10
108.3475639920103
 20
-138.0663356859695
 10
108.3475639920103
 20
-138.3688150695745
 97
        0
 97
        0
 75
     2
 76
     1
 98
        0
  0
ENDBLK
  5
122
330
11F
100
AcDbEntity
  8
0
100
AcDbBlockEnd
  0
BLOCK
  5
127
330
125
100
AcDbEntity
  8
0
100
AcDbBlockBegin
  2
block 10
 70
     0
 10
0.0
 20
0.0
 30
0.0
  3
block 10
  1

  0
SPLINE
  5
129
330
125
100
AcDbEntity
  8
_U+30EC_U+30A4_U+30E4_U+30FC 1
 62
   179
420
  2234388
370
    25
100
AcDbSpline
210
0.0
220
0.0
230
1.0
 70
    11
 71
     3
 72
    17
 73
    13
 74
     0
 42
0.0000000001
 43
0.0000000001
 12
1.0
 22
0.0
 32
0.0
 13
1.0
 23
0.0
 33
0.0
 40
0.0
 40
0.0
 40
0.0
 40
0.0
 40
1.0
 40
1.0
 40
1.0
 40
2.0
 40
2.0
 40
2.0
 40
3.0
 40
3.0
 40
3.0
 40
4.0
 40
4.0
 40
4.0
 40
4.0
 10
104.1762276200208
 20
-137.0996396879472
 30
0.0
 10
104.1762276200208
 20
-137.1093057990562
 30
0.0
 10
104.1683253980002
 20
-137.1168552434986
 30
0.0
 10
104.1586592871357
 20
-137.1168552434986
 30
0.0
 10
104.149028454048
 20
-137.1168552434986
 30
0.0
 10
104.1407381764818
 20
-137.1093057990562
 30
0.0
 10
104.1407381764818
 20
-137.0996396879472
 30
0.0
 10
104.1407381764818
 20
-137.0893032990608
 30
0.0
 10
104.149028454048
 20
-137.0817185768409
 30
0.0
 10
104.1586592871357
 20
-137.0817185768409
 30
0.0
 10
104.1683253980002
 20
-137.0817185768409
 30
0.0
 10
104.1762276200208
 20
-137.0893032990608
 30
0.0
 10
104.1762276200208
 20
-137.0996396879472
 30
0.0
  0
ENDBLK
  5
128
330
125
100
AcDbEntity
  8
0
100
AcDbBlockEnd
  0
BLOCK
  5
12C
330
12A
100
AcDbEntity
  8
0
100
AcDbBlockBegin
  2
block 11
 70
     0
 10
0.0
 20
0.0
 30
0.0
  3
block 11
  1

  0
SPLINE
  5
12E
330
12A
100
AcDbEntity
  8
_U+30EC_U+30A4_U+30E4_U+30FC 1
 62
   179
420
  2234388
370
    25
100
AcDbSpline
210
0.0
220
0.0
230
1.0
 70
    11
 71
     3
 72
    17
 73
    13
 74
     0
 42
0.0000000001
 43
0.0000000001
 12
1.0
 22
0.0
 32
0.0
 13
1.0
 23
0.0
 33
0.0
 40
0.0
 40
0.0
 40
0.0
 40
0.0
 40
1.0
 40
1.0
 40
1.0
 40
2.0
 40
2.0
 40
2.0
 40
3.0
 40
3.0
 40
3.0
 40
4.0
 40
4.0
 40
4.0
 40
4.0
 10
104.1762276200208
 20
-139.5993877428778
 30
0.0
 10
104.1762276200208
 20
-139.6090538539868
 30
0.0
 10
104.1683253980002
 20
-139.6173088539848
 30
0.0
 10
104.1586592871357
 20
-139.6173088539848
 30
0.0
 10
104.149028454048
 20
-139.6173088539848
 30
0.0
 10
104.1407381764818
 20
-139.6090538539868
 30
0.0
 10
104.1407381764818
 20
-139.5993877428778
 30
0.0
 10
104.1407381764818
 20
-139.589756909547
 30
0.0
 10
104.149028454048
 20
-139.5815019095491
 30
0.0
 10
104.1586592871357
 20
-139.5815019095491
 30
0.0
 10
104.1683253980002
 20
-139.5815019095491
 30
0.0
 10
104.1762276200208
 20
-139.589756909547
 30
0.0
 10
104.1762276200208
 20
-139.5993877428778
 30
0.0
  0
ENDBLK
  5
12D
330
12A
100
AcDbEntity
  8
0
100
AcDbBlockEnd
  0
BLOCK
  5
131
330
12F
100
AcDbEntity
  8
0
100
AcDbBlockBegin
  2
block 12
 70
     0
 10
0.0
 20
0.0
 30
0.0
  3
block 12
  1

  0
SPLINE
  5
133
330
12F
100
AcDbEntity
  8
_U+30EC_U+30A4_U+30E4_U+30FC 1
 62
   179
420
  2234388
370
     9
100
AcDbSpline
210
0.0
220
0.0
230
1.0
 70
    11
 71
     3
 72
    17
 73
    13
 74
     0
 42
0.0000000001
 43
0.0000000001
 12
1.0
 22
0.0
 32
0.0
 13
1.0
 23
0.0
 33
0.0
 40
0.0
 40
0.0
 40
0.0
 40
0.0
 40
1.0
 40
1.0
 40
1.0
 40
2.0
 40
2.0
 40
2.0
 40
3.0
 40
3.0
 40
3.0
 40
4.0
 40
4.0
 40
4.0
 40
4.0
 10
106.1761247912214
 20
-139.5993877428778
 30
0.0
 10
106.1761247912214
 20
-139.6090538539868
 30
0.0
 10
106.1685400691927
 20
-139.6173088539848
 30
0.0
 10
106.1585564583363
 20
-139.6173088539848
 30
0.0
 10
106.1488903474717
 20
-139.6173088539848
 30
0.0
 10
106.1409881254511
 20
-139.6090538539868
 30
0.0
 10
106.1409881254511
 20
-139.5993877428778
 30
0.0
 10
106.1409881254511
 20
-139.589756909547
 30
0.0
 10
106.1488903474717
 20
-139.5815019095491
 30
0.0
 10
106.1585564583363
 20
-139.5815019095491
 30
0.0
 10
106.1685400691927
 20
-139.5815019095491
 30
0.0
 10
106.1761247912214
 20
-139.589756909547
 30
0.0
 10
106.1761247912214
 20
-139.5993877428778
 30
0.0
  0
ENDBLK
  5
132
330
12F
100
AcDbEntity
  8
0
100
AcDbBlockEnd
  0
BLOCK
  5
142
330
140
100
AcDbEntity
  8
0
100
AcDbBlockBegin
  2
block 13
 70
     0
 10
0.0
 20
0.0
 30
0.0
  3
block 13
  1

  0
POLYLINE
  5
144
330
140
100
AcDbEntity
  8
_U+30EC_U+30A4_U+30E4_U+30FC 1
370
     0
100
AcDb2dPolyline
 66
     1
 10
0.0
 20
0.0
 30
0.0
  0
VERTEX
  5
145
330
144
100
AcDbEntity
  8
_U+30EC_U+30A4_U+30E4_U+30FC 1
370
     0
100
AcDbVertex
100
AcDb2dVertex
 10
74.66176484678596
 20
-128.6059312286992
 30
0.0
  0
VERTEX
  5
146
330
144
100
AcDbEntity
  8
_U+30EC_U+30A4_U+30E4_U+30FC 1
370
     0
100
AcDbVertex
100
AcDb2dVertex
 10
75.00868596215061
 20
-128.6059312286992
 30
0.0
  0
VERTEX
  5
147
330
144
100
AcDbEntity
  8
_U+30EC_U+30A4_U+30E4_U+30FC 1
370
     0
100
AcDbVertex
100
AcDb2dVertex
 10
75.00868596215061
 20
-128.8238335181413
 30
0.0
  0
VERTEX
  5
148
330
144
100
AcDbEntity
  8
_U+30EC_U+30A4_U+30E4_U+30FC 1
370
     0
100
AcDbVertex
100
AcDb2dVertex
 10
74.66176484678596
 20
-128.8238335181413
 30
0.0
  0
VERTEX
  5
149
330
144
100
AcDbEntity
  8
_U+30EC_U+30A4_U+30E4_U+30FC 1
370
     0
100
AcDbVertex
100
AcDb2dVertex
 10
74.66176484678596
 20
-129.4797796985328
 30
0.0
  0
VERTEX
  5
14A
330
144
100
AcDbEntity
  8
_U+30EC_U+30A4_U+30E4_U+30FC 1
370
     0
100
AcDbVertex
100
AcDb2dVertex
 10
74.43748913069619
 20
-129.4797796985328
 30
0.0
  0
VERTEX
  5
14B
330
144
100
AcDbEntity
  8
_U+30EC_U+30A4_U+30E4_U+30FC 1
370
     0
100
AcDbVertex
100
AcDb2dVertex
 10
73.46424965611311
 20
-128.8004068688416
 30
0.0
  0
VERTEX
  5
14C
330
144
100
AcDbEntity
  8
_U+30EC_U+30A4_U+30E4_U+30FC 1
370
     0
100
AcDbVertex
100
AcDb2dVertex
 10
73.46424965611311
 20
-128.6059312286992
 30
0.0
  0
VERTEX
  5
14D
330
144
100
AcDbEntity
  8
_U+30EC_U+30A4_U+30E4_U+30FC 1
370
     0
100
AcDbVertex
100
AcDb2dVertex
 10
74.46298283728703
 20
-128.6059312286992
 30
0.0
  0
VERTEX
  5
14E
330
144
100
AcDbEntity
  8
_U+30EC_U+30A4_U+30E4_U+30FC 1
370
     0
100
AcDbVertex
100
AcDb2dVertex
 10
74.46298283728703
 20
-128.3985364804872
 30
0.0
  0
VERTEX
  5
14F
330
144
100
AcDbEntity
  8
_U+30EC_U+30A4_U+30E4_U+30FC 1
370
     0
100
AcDbVertex
100
AcDb2dVertex
 10
74.66176484678596
 20
-128.3985364804872
 30
0.0
  0
VERTEX
  5
150
330
144
100
AcDbEntity
  8
_U+30EC_U+30A4_U+30E4_U+30FC 1
370
     0
100
AcDbVertex
100
AcDb2dVertex
 10
74.66176484678596
 20
-128.6059312286992
 30
0.0
  0
SEQEND
  5
151
330
144
100
AcDbEntity
  8
_U+30EC_U+30A4_U+30E4_U+30FC 1
370
     0
  0
POLYLINE
  5
152
330
140
100
AcDbEntity
  8
_U+30EC_U+30A4_U+30E4_U+30FC 1
370
     0
100
AcDb2dPolyline
 66
     1
 10
0.0
 20
0.0
 30
0.0
  0
VERTEX
  5
153
330
152
100
AcDbEntity
  8
_U+30EC_U+30A4_U+30E4_U+30FC 1
370
     0
100
AcDbVertex
100
AcDb2dVertex
 10
73.80703665689546
 20
-128.8238335181413
 30
0.0
  0
VERTEX
  5
154
330
152
100
AcDbEntity
  8
_U+30EC_U+30A4_U+30E4_U+30FC 1
370
     0
100
AcDbVertex
100
AcDb2dVertex
 10
74.46298283728703
 20
-129.2806531794854
 30
0.0
  0
VERTEX
  5
155
330
152
100
AcDbEntity
  8
_U+30EC_U+30A4_U+30E4_U+30FC 1
370
     0
100
AcDbVertex
100
AcDb2dVertex
 10
74.46298283728703
 20
-128.8238335181413
 30
0.0
  0
VERTEX
  5
156
330
152
100
AcDbEntity
  8
_U+30EC_U+30A4_U+30E4_U+30FC 1
370
     0
100
AcDbVertex
100
AcDb2dVertex
 10
73.80703665689546
 20
-128.8238335181413
 30
0.0
  0
SEQEND
  5
157
330
152
100
AcDbEntity
  8
_U+30EC_U+30A4_U+30E4_U+30FC 1
370
     0
  0
HATCH
  5
158
330
140
100
AcDbEntity
  8
_U+30EC_U+30A4_U+30E4_U+30FC 1
 62
   179
420
  2234388
100
AcDbHatch
 10
0.0
 20
0.0
 30
0.0
210
0.0
220
0.0
230
1.0
  2
SOLID
 70
     1
 71
     0
 91
        2
 92
        1
 93
       11
 72
     1
 10
74.66176484678596
 20
-128.6059312286992
 11
75.00868596215061
 21
-128.6059312286992
 72
     1
 10
75.00868596215061
 20
-128.6059312286992
 11
75.00868596215061
 21
-128.8238335181413
 72
     1
 10
75.00868596215061
 20
-128.8238335181413
 11
74.66176484678596
 21
-128.8238335181413
 72
     1
 10
74.66176484678596
 20
-128.8238335181413
 11
74.66176484678596
 21
-129.4797796985328
 72
     1
 10
74.66176484678596
 20
-129.4797796985328
 11
74.43748913069619
 21
-129.4797796985328
 72
     1
 10
74.43748913069619
 20
-129.4797796985328
 11
73.46424965611311
 21
-128.8004068688416
 72
     1
 10
73.46424965611311
 20
-128.8004068688416
 11
73.46424965611311
 21
-128.6059312286992
 72
     1
 10
73.46424965611311
 20
-128.6059312286992
 11
74.46298283728703
 21
-128.6059312286992
 72
     1
 10
74.46298283728703
 20
-128.6059312286992
 11
74.46298283728703
 21
-128.3985364804872
 72
     1
 10
74.46298283728703
 20
-128.3985364804872
 11
74.66176484678596
 21
-128.3985364804872
 72
     1
 10
74.66176484678596
 20
-128.3985364804872
 11
74.66176484678596
 21
-128.6059312286992
 97
        0
 92
        1
 93
        3
 72
     1
 10
73.80703665689546
 20
-128.8238335181413
 11
74.46298283728703
 21
-129.2806531794854
 72
     1
 10
74.46298283728703
 20
-129.2806531794854
 11
74.46298283728703
 21
-128.8238335181413
 72
     1
 10
74.46298283728703
 20
-128.8238335181413
 11
73.80703665689546
 21
-128.8238335181413
 97
        0
 75
     2
 76
     1
 98
        0
  0
SPLINE
  5
159
330
140
100
AcDbEntity
  8
_U+30EC_U+30A4_U+30E4_U+30FC 1
370
     0
100
AcDbSpline
210
0.0
220
0.0
230
1.0
 70
    11
 71
     3
 72
    53
 73
    49
 74
     0
 42
0.0000000001
 43
0.0000000001
 12
1.0
 22
0.0
 32
0.0
 13
1.0
 23
0.0
 33
0.0
 40
0.0
 40
0.0
 40
0.0
 40
0.0
 40
1.0
 40
1.0
 40
1.0
 40
2.0
 40
2.0
 40
2.0
 40
3.0
 40
3.0
 40
3.0
 40
4.0
 40
4.0
 40
4.0
 40
5.0
 40
5.0
 40
5.0
 40
6.0
 40
6.0
 40
6.0
 40
7.0
 40
7.0
 40
7.0
 40
8.0
 40
8.0
 40
8.0
 40
9.0
 40
9.0
 40
9.0
 40
10.0
 40
10.0
 40
10.0
 40
11.0
 40
11.0
 40
11.0
 40
12.0
 40
12.0
 40
12.0
 40
13.0
 40
13.0
 40
13.0
 40
14.0
 40
14.0
 40
14.0
 40
15.0
 40
15.0
 40
15.0
 40
16.0
 40
16.0
 40
16.0
 40
16.0
 10
75.05932886578378
 20
-127.7801418408848
 30
0.0
 10
75.05932886578378
 20
-127.8585177631743
 30
0.0
 10
75.04244789790606
 20
-127.9599758252149
 30
0.0
 10
74.97905814097746
 20
-128.0616061420297
 30
0.0
 10
74.869159594998
 20
-128.2350666997121
 30
0.0
 10
74.73790145700997
 20
-128.2562540369464
 30
0.0
 10
74.63006996832165
 20
-128.2752020621152
 30
0.0
 10
74.63006996832165
 20
-128.2752020621152
 30
0.0
 10
74.63006996832165
 20
-128.0531656580909
 30
0.0
 10
74.63006996832165
 20
-128.0531656580909
 30
0.0
 10
74.82885197782056
 20
-127.9980441303269
 30
0.0
 10
74.85847979899371
 20
-127.8710923616954
 30
0.0
 10
74.85847979899371
 20
-127.7780747835937
 30
0.0
 10
74.85847979899371
 20
-127.6383761616668
 30
0.0
 10
74.75891653947
 20
-127.4861029412188
 30
0.0
 10
74.52637259421563
 20
-127.4861029412188
 30
0.0
 10
74.27040199966157
 20
-127.4861029412188
 30
0.0
 10
74.200466561311
 20
-127.6659369255488
 30
0.0
 10
74.200466561311
 20
-127.7865152675326
 30
0.0
 10
74.200466561311
 20
-127.8182101459968
 30
0.0
 10
74.200466561311
 20
-127.9599758252149
 30
0.0
 10
74.32965764200787
 20
-128.0488592887343
 30
0.0
 10
74.32965764200787
 20
-128.0488592887343
 30
0.0
 10
74.31070961683899
 20
-128.2243869037078
 30
0.0
 10
74.31070961683899
 20
-128.2243869037078
 30
0.0
 10
74.31070961683899
 20
-128.2243869037078
 30
0.0
 10
73.46424965611311
 20
-128.1038085617241
 30
0.0
 10
73.46424965611311
 20
-128.1038085617241
 30
0.0
 10
73.46424965611311
 20
-128.1038085617241
 30
0.0
 10
73.46424965611311
 20
-127.3253892368319
 30
0.0
 10
73.46424965611311
 20
-127.3253892368319
 30
0.0
 10
73.46424965611311
 20
-127.3253892368319
 30
0.0
 10
73.65889755102972
 20
-127.3253892368319
 30
0.0
 10
73.65889755102972
 20
-127.3253892368319
 30
0.0
 10
73.65889755102972
 20
-127.3253892368319
 30
0.0
 10
73.65889755102972
 20
-127.941027800046
 30
0.0
 10
73.65889755102972
 20
-127.941027800046
 30
0.0
 10
73.65889755102972
 20
-127.941027800046
 30
0.0
 10
74.0819552766184
 20
-128.0064846142658
 30
0.0
 10
74.0819552766184
 20
-128.0064846142658
 30
0.0
 10
74.04819334086295
 20
-127.9451619146283
 30
0.0
 10
74.00788572368553
 20
-127.8626518777566
 30
0.0
 10
74.00788572368553
 20
-127.7443128478382
 30
0.0
 10
74.00788572368553
 20
-127.4904093105753
 30
0.0
 10
74.19426538943755
 20
-127.2533867411901
 30
0.0
 10
74.50742456904676
 20
-127.2533867411901
 30
0.0
 10
74.82471786323826
 20
-127.2533867411901
 30
0.0
 10
75.05932886578378
 20
-127.4776624572799
 30
0.0
 10
75.05932886578378
 20
-127.7801418408848
 30
0.0
  0
HATCH
  5
15A
330
140
100
AcDbEntity
  8
_U+30EC_U+30A4_U+30E4_U+30FC 1
 62
   179
420
  2234388
100
AcDbHatch
 10
0.0
 20
0.0
 30
0.0
210
0.0
220
0.0
230
1.0
  2
SOLID
 70
     1
 71
     0
 91
        1
 92
        1
 93
        1
 72
     4
 94
        3
 73
     0
 74
     1
 95
       53
 96
       49
 40
0.0
 40
0.0
 40
0.0
 40
0.0
 40
1.0
 40
1.0
 40
1.0
 40
2.0
 40
2.0
 40
2.0
 40
3.0
 40
3.0
 40
3.0
 40
4.0
 40
4.0
 40
4.0
 40
5.0
 40
5.0
 40
5.0
 40
6.0
 40
6.0
 40
6.0
 40
7.0
 40
7.0
 40
7.0
 40
8.0
 40
8.0
 40
8.0
 40
9.0
 40
9.0
 40
9.0
 40
10.0
 40
10.0
 40
10.0
 40
11.0
 40
11.0
 40
11.0
 40
12.0
 40
12.0
 40
12.0
 40
13.0
 40
13.0
 40
13.0
 40
14.0
 40
14.0
 40
14.0
 40
15.0
 40
15.0
 40
15.0
 40
16.0
 40
16.0
 40
16.0
 40
16.0
 10
75.05932886578378
 20
-127.7801418408848
 10
75.05932886578378
 20
-127.8585177631743
 10
75.04244789790606
 20
-127.9599758252149
 10
74.97905814097746
 20
-128.0616061420297
 10
74.869159594998
 20
-128.2350666997121
 10
74.73790145700997
 20
-128.2562540369464
 10
74.63006996832165
 20
-128.2752020621152
 10
74.63006996832165
 20
-128.2752020621152
 10
74.63006996832165
 20
-128.0531656580909
 10
74.63006996832165
 20
-128.0531656580909
 10
74.82885197782056
 20
-127.9980441303269
 10
74.85847979899371
 20
-127.8710923616954
 10
74.85847979899371
 20
-127.7780747835937
 10
74.85847979899371
 20
-127.6383761616668
 10
74.75891653947
 20
-127.4861029412188
 10
74.52637259421563
 20
-127.4861029412188
 10
74.27040199966157
 20
-127.4861029412188
 10
74.200466561311
 20
-127.6659369255488
 10
74.200466561311
 20
-127.7865152675326
 10
74.200466561311
 20
-127.8182101459968
 10
74.200466561311
 20
-127.9599758252149
 10
74.32965764200787
 20
-128.0488592887343
 10
74.32965764200787
 20
-128.0488592887343
 10
74.31070961683899
 20
-128.2243869037078
 10
74.31070961683899
 20
-128.2243869037078
 10
74.31070961683899
 20
-128.2243869037078
 10
73.46424965611311
 20
-128.1038085617241
 10
73.46424965611311
 20
-128.1038085617241
 10
73.46424965611311
 20
-128.1038085617241
 10
73.46424965611311
 20
-127.3253892368319
 10
73.46424965611311
 20
-127.3253892368319
 10
73.46424965611311
 20
-127.3253892368319
 10
73.65889755102972
 20
-127.3253892368319
 10
73.65889755102972
 20
-127.3253892368319
 10
73.65889755102972
 20
-127.3253892368319
 10
73.65889755102972
 20
-127.941027800046
 10
73.65889755102972
 20
-127.941027800046
 10
73.65889755102972
 20
-127.941027800046
 10
74.0819552766184
 20
-128.0064846142658
 10
74.0819552766184
 20
-128.0064846142658
 10
74.04819334086295
 20
-127.9451619146283
 10
74.00788572368553
 20
-127.8626518777566
 10
74.00788572368553
 20
-127.7443128478382
 10
74.00788572368553
 20
-127.4904093105753
 10
74.19426538943755
 20
-127.2533867411901
 10
74.50742456904676
 20
-127.2533867411901
 10
74.82471786323826
 20
-127.2533867411901
 10
75.05932886578378
 20
-127.4776624572799
 10
75.05932886578378
 20
-127.7801418408848
 97
        0
 97
        0
 75
     2
 76
     1
 98
        0
  0
ENDBLK
  5
143
330
140
100
AcDbEntity
  8
0
100
AcDbBlockEnd
  0
BLOCK
  5
15D
330
15B
100
AcDbEntity
  8
0
100
AcDbBlockBegin
  2
block 14
 70
     0
 10
0.0
 20
0.0
 30
0.0
  3
block 14
  1

  0
SPLINE
  5
15F
330
15B
100
AcDbEntity
  8
_U+30EC_U+30A4_U+30E4_U+30FC 1
 62
   179
420
  2234388
370
    25
100
AcDbSpline
210
0.0
220
0.0
230
1.0
 70
    11
 71
     3
 72
    17
 73
    13
 74
     0
 42
0.0000000001
 43
0.0000000001
 12
1.0
 22
0.0
 32
0.0
 13
1.0
 23
0.0
 33
0.0
 40
0.0
 40
0.0
 40
0.0
 40
0.0
 40
1.0
 40
1.0
 40
1.0
 40
2.0
 40
2.0
 40
2.0
 40
3.0
 40
3.0
 40
3.0
 40
4.0
 40
4.0
 40
4.0
 40
4.0
 10
79.17620770226888
 20
-139.5993877428778
 30
0.0
 10
79.17620770226888
 20
-139.6090538539868
 30
0.0
 10
79.16830548024826
 20
-139.6173088539848
 30
0.0
 10
79.15863936938375
 20
-139.6173088539848
 30
0.0
 10
79.14865575852734
 20
-139.6173088539848
 30
0.0
 10
79.14107103649863
 20
-139.6090538539868
 30
0.0
 10
79.14107103649863
 20
-139.5993877428778
 30
0.0
 10
79.14107103649863
 20
-139.589756909547
 30
0.0
 10
79.14865575852734
 20
-139.5815019095491
 30
0.0
 10
79.15863936938375
 20
-139.5815019095491
 30
0.0
 10
79.16830548024826
 20
-139.5815019095491
 30
0.0
 10
79.17620770226888
 20
-139.589756909547
 30
0.0
 10
79.17620770226888
 20
-139.5993877428778
 30
0.0
  0
ENDBLK
  5
15E
330
15B
100
AcDbEntity
  8
0
100
AcDbBlockEnd
  0
BLOCK
  5
162
330
160
100
AcDbEntity
  8
0
100
AcDbBlockBegin
  2
block 15
 70
     0
 10
0.0
 20
0.0
 30
0.0
  3
block 15
  1

  0
SPLINE
  5
164
330
160
100
AcDbEntity
  8
_U+30EC_U+30A4_U+30E4_U+30FC 1
 62
   179
420
  2234388
370
     9
100
AcDbSpline
210
0.0
220
0.0
230
1.0
 70
    11
 71
     3
 72
    17
 73
    13
 74
     0
 42
0.0000000001
 43
0.0000000001
 12
1.0
 22
0.0
 32
0.0
 13
1.0
 23
0.0
 33
0.0
 40
0.0
 40
0.0
 40
0.0
 40
0.0
 40
1.0
 40
1.0
 40
1.0
 40
2.0
 40
2.0
 40
2.0
 40
3.0
 40
3.0
 40
3.0
 40
4.0
 40
4.0
 40
4.0
 40
4.0
 10
75.77729973342669
 20
-117.0993269151695
 30
0.0
 10
75.77729973342669
 20
-117.1089577485007
 30
0.0
 10
75.76971501139798
 20
-117.1168952484987
 30
0.0
 10
75.76004890053346
 20
-117.1168952484987
 30
0.0
 10
75.75006528967705
 20
-117.1168952484987
 30
0.0
 10
75.74212778987956
 20
-117.1089577485007
 30
0.0
 10
75.74212778987956
 20
-117.0993269151695
 30
0.0
 10
75.74212778987956
 20
-117.089484415172
 30
0.0
 10
75.75006528967705
 20
-117.0817585818406
 30
0.0
 10
75.76004890053346
 20
-117.0817585818406
 30
0.0
 10
75.76971501139798
 20
-117.0817585818406
 30
0.0
 10
75.77729973342669
 20
-117.089484415172
 30
0.0
 10
75.77729973342669
 20
-117.0993269151695
 30
0.0
  0
ENDBLK
  5
163
330
160
100
AcDbEntity
  8
0
100
AcDbBlockEnd
  0
BLOCK
  5
173
330
171
100
AcDbEntity
  8
0
100
AcDbBlockBegin
  2
block 16
 70
     0
 10
0.0
 20
0.0
 30
0.0
  3
block 16
  1

  0
SPLINE
  5
175
330
171
100
AcDbEntity
  8
_U+30EC_U+30A4_U+30E4_U+30FC 1
370
     0
100
AcDbSpline
210
0.0
220
0.0
230
1.0
 70
    11
 71
     3
 72
    53
 73
    49
 74
     0
 42
0.0000000001
 43
0.0000000001
 12
1.0
 22
0.0
 32
0.0
 13
1.0
 23
0.0
 33
0.0
 40
0.0
 40
0.0
 40
0.0
 40
0.0
 40
1.0
 40
1.0
 40
1.0
 40
2.0
 40
2.0
 40
2.0
 40
3.0
 40
3.0
 40
3.0
 40
4.0
 40
4.0
 40
4.0
 40
5.0
 40
5.0
 40
5.0
 40
6.0
 40
6.0
 40
6.0
 40
7.0
 40
7.0
 40
7.0
 40
8.0
 40
8.0
 40
8.0
 40
9.0
 40
9.0
 40
9.0
 40
10.0
 40
10.0
 40
10.0
 40
11.0
 40
11.0
 40
11.0
 40
12.0
 40
12.0
 40
12.0
 40
13.0
 40
13.0
 40
13.0
 40
14.0
 40
14.0
 40
14.0
 40
15.0
 40
15.0
 40
15.0
 40
16.0
 40
16.0
 40
16.0
 40
16.0
 10
91.05060083444222
 20
-143.8206786749823
 30
0.0
 10
90.97239716692704
 20
-143.8206786749823
 30
0.0
 10
90.87076685011218
 20
-143.8037977071046
 30
0.0
 10
90.7691365332973
 20
-143.740407950176
 30
0.0
 10
90.59584823038924
 20
-143.630164894648
 30
0.0
 10
90.57448863838069
 20
-143.4992512662085
 30
0.0
 10
90.55554061321182
 20
-143.3910752679717
 30
0.0
 10
90.55554061321182
 20
-143.3910752679717
 30
0.0
 10
90.77774927201042
 20
-143.3910752679717
 30
0.0
 10
90.77774927201042
 20
-143.3910752679717
 30
0.0
 10
90.8325262902259
 20
-143.5902017870191
 30
0.0
 10
90.95965031363161
 20
-143.6198296081923
 30
0.0
 10
91.05266789173336
 20
-143.6198296081923
 30
0.0
 10
91.19219425888598
 20
-143.6198296081923
 30
0.0
 10
91.34446747933403
 20
-143.5202663486685
 30
0.0
 10
91.34446747933403
 20
-143.2877224034142
 30
0.0
 10
91.34446747933403
 20
-143.0314072993116
 30
0.0
 10
91.16463349500398
 20
-142.9618163705096
 30
0.0
 10
91.04405515302024
 20
-142.9618163705096
 30
0.0
 10
91.01236027455595
 20
-142.9618163705096
 30
0.0
 10
90.87076685011218
 20
-142.9618163705096
 30
0.0
 10
90.78188338659272
 20
-143.0906629416579
 30
0.0
 10
90.78188338659272
 20
-143.0906629416579
 30
0.0
 10
90.60618351684498
 20
-143.071714916489
 30
0.0
 10
90.60618351684498
 20
-143.071714916489
 30
0.0
 10
90.60618351684498
 20
-143.071714916489
 30
0.0
 10
90.72676185882872
 20
-142.2255994653117
 30
0.0
 10
90.72676185882872
 20
-142.2255994653117
 30
0.0
 10
90.72676185882872
 20
-142.2255994653117
 30
0.0
 10
91.50518118372094
 20
-142.2255994653117
 30
0.0
 10
91.50518118372094
 20
-142.2255994653117
 30
0.0
 10
91.50518118372094
 20
-142.2255994653117
 30
0.0
 10
91.50518118372094
 20
-142.4202473602283
 30
0.0
 10
91.50518118372094
 20
-142.4202473602283
 30
0.0
 10
91.50518118372094
 20
-142.4202473602283
 30
0.0
 10
90.88971487528104
 20
-142.4202473602283
 30
0.0
 10
90.88971487528104
 20
-142.4202473602283
 30
0.0
 10
90.88971487528104
 20
-142.4202473602283
 30
0.0
 10
90.8242580610613
 20
-142.843305085817
 30
0.0
 10
90.8242580610613
 20
-142.843305085817
 30
0.0
 10
90.88558076069874
 20
-142.8095431500615
 30
0.0
 10
90.96791854279621
 20
-142.7692355328841
 30
0.0
 10
91.08642982748881
 20
-142.7692355328841
 30
0.0
 10
91.34033336475173
 20
-142.7692355328841
 30
0.0
 10
91.57752818891117
 20
-142.9556151986361
 30
0.0
 10
91.57752818891117
 20
-143.2684298686968
 30
0.0
 10
91.57752818891117
 20
-143.5860676724368
 30
0.0
 10
91.35308021804715
 20
-143.8206786749823
 30
0.0
 10
91.05060083444222
 20
-143.8206786749823
 30
0.0
  0
HATCH
  5
176
330
171
100
AcDbEntity
  8
_U+30EC_U+30A4_U+30E4_U+30FC 1
 62
   179
420
  2234388
100
AcDbHatch
 10
0.0
 20
0.0
 30
0.0
210
0.0
220
0.0
230
1.0
  2
SOLID
 70
     1
 71
     0
 91
        1
 92
        1
 93
        1
 72
     4
 94
        3
 73
     0
 74
     1
 95
       53
 96
       49
 40
0.0
 40
0.0
 40
0.0
 40
0.0
 40
1.0
 40
1.0
 40
1.0
 40
2.0
 40
2.0
 40
2.0
 40
3.0
 40
3.0
 40
3.0
 40
4.0
 40
4.0
 40
4.0
 40
5.0
 40
5.0
 40
5.0
 40
6.0
 40
6.0
 40
6.0
 40
7.0
 40
7.0
 40
7.0
 40
8.0
 40
8.0
 40
8.0
 40
9.0
 40
9.0
 40
9.0
 40
10.0
 40
10.0
 40
10.0
 40
11.0
 40
11.0
 40
11.0
 40
12.0
 40
12.0
 40
12.0
 40
13.0
 40
13.0
 40
13.0
 40
14.0
 40
14.0
 40
14.0
 40
15.0
 40
15.0
 40
15.0
 40
16.0
 40
16.0
 40
16.0
 40
16.0
 10
91.05060083444222
 20
-143.8206786749823
 10
90.97239716692704
 20
-143.8206786749823
 10
90.87076685011218
 20
-143.8037977071046
 10
90.7691365332973
 20
-143.740407950176
 10
90.59584823038924
 20
-143.630164894648
 10
90.57448863838069
 20
-143.4992512662085
 10
90.55554061321182
 20
-143.3910752679717
 10
90.55554061321182
 20
-143.3910752679717
 10
90.77774927201042
 20
-143.3910752679717
 10
90.77774927201042
 20
-143.3910752679717
 10
90.8325262902259
 20
-143.5902017870191
 10
90.95965031363161
 20
-143.6198296081923
 10
91.05266789173336
 20
-143.6198296081923
 10
91.19219425888598
 20
-143.6198296081923
 10
91.34446747933403
 20
-143.5202663486685
 10
91.34446747933403
 20
-143.2877224034142
 10
91.34446747933403
 20
-143.0314072993116
 10
91.16463349500398
 20
-142.9618163705096
 10
91.04405515302024
 20
-142.9618163705096
 10
91.01236027455595
 20
-142.9618163705096
 10
90.87076685011218
 20
-142.9618163705096
 10
90.78188338659272
 20
-143.0906629416579
 10
90.78188338659272
 20
-143.0906629416579
 10
90.60618351684498
 20
-143.071714916489
 10
90.60618351684498
 20
-143.071714916489
 10
90.60618351684498
 20
-143.071714916489
 10
90.72676185882872
 20
-142.2255994653117
 10
90.72676185882872
 20
-142.2255994653117
 10
90.72676185882872
 20
-142.2255994653117
 10
91.50518118372094
 20
-142.2255994653117
 10
91.50518118372094
 20
-142.2255994653117
 10
91.50518118372094
 20
-142.2255994653117
 10
91.50518118372094
 20
-142.4202473602283
 10
91.50518118372094
 20
-142.4202473602283
 10
91.50518118372094
 20
-142.4202473602283
 10
90.88971487528104
 20
-142.4202473602283
 10
90.88971487528104
 20
-142.4202473602283
 10
90.88971487528104
 20
-142.4202473602283
 10
90.8242580610613
 20
-142.843305085817
 10
90.8242580610613
 20
-142.843305085817
 10
90.88558076069874
 20
-142.8095431500615
 10
90.96791854279621
 20
-142.7692355328841
 10
91.08642982748881
 20
-142.7692355328841
 10
91.34033336475173
 20
-142.7692355328841
 10
91.57752818891117
 20
-142.9556151986361
 10
91.57752818891117
 20
-143.2684298686968
 10
91.57752818891117
 20
-143.5860676724368
 10
91.35308021804715
 20
-143.8206786749823
 10
91.05060083444222
 20
-143.8206786749823
 97
        0
 97
        0
 75
     2
 76
     1
 98
        0
  0
SPLINE
  5
177
330
171
100
AcDbEntity
  8
_U+30EC_U+30A4_U+30E4_U+30FC 1
370
     0
100
AcDbSpline
210
0.0
220
0.0
230
1.0
 70
    11
 71
     3
 72
    29
 73
    25
 74
     0
 42
0.0000000001
 43
0.0000000001
 12
1.0
 22
0.0
 32
0.0
 13
1.0
 23
0.0
 33
0.0
 40
0.0
 40
0.0
 40
0.0
 40
0.0
 40
1.0
 40
1.0
 40
1.0
 40
2.0
 40
2.0
 40
2.0
 40
3.0
 40
3.0
 40
3.0
 40
4.0
 40
4.0
 40
4.0
 40
5.0
 40
5.0
 40
5.0
 40
6.0
 40
6.0
 40
6.0
 40
7.0
 40
7.0
 40
7.0
 40
8.0
 40
8.0
 40
8.0
 40
8.0
 10
92.64412975114453
 20
-143.5922688443103
 30
0.0
 10
92.53595375290769
 20
-143.8017306498135
 30
0.0
 10
92.36300995954814
 20
-143.8206786749823
 30
0.0
 10
92.24656573214669
 20
-143.8206786749823
 30
0.0
 10
92.085335263437
 20
-143.8206786749823
 30
0.0
 10
91.94408634854176
 20
-143.7741698859315
 30
0.0
 10
91.84900171314887
 20
-143.5922688443103
 30
0.0
 10
91.74495982949432
 20
-143.3976209493937
 30
0.0
 10
91.72566729477693
 20
-143.1605983800085
 30
0.0
 10
91.72566729477693
 20
-142.9976453635562
 30
0.0
 10
91.72566729477693
 20
-142.8536403722727
 30
0.0
 10
91.74289277220316
 20
-142.6021484018495
 30
0.0
 10
91.84900171314887
 20
-142.403021882802
 30
0.0
 10
91.95648869228866
 20
-142.2001057587208
 30
0.0
 10
92.11771916099835
 20
-142.1770236189696
 30
0.0
 10
92.24656573214669
 20
-142.1770236189696
 30
0.0
 10
92.40504012446819
 20
-142.1770236189696
 30
0.0
 10
92.54904511575162
 20
-142.2211208411808
 30
0.0
 10
92.64412975114453
 20
-142.403021882802
 30
0.0
 10
92.74334850111973
 20
-142.595947229976
 30
0.0
 10
92.76677515041942
 20
-142.8240125510996
 30
0.0
 10
92.76677515041942
 20
-142.9976453635562
 30
0.0
 10
92.76677515041942
 20
-143.1692111187216
 30
0.0
 10
92.74541555841087
 20
-143.3996880066848
 30
0.0
 10
92.64412975114453
 20
-143.5922688443103
 30
0.0
  0
SPLINE
  5
178
330
171
100
AcDbEntity
  8
_U+30EC_U+30A4_U+30E4_U+30FC 1
370
     0
100
AcDbSpline
210
0.0
220
0.0
230
1.0
 70
    11
 71
     3
 72
    17
 73
    13
 74
     0
 42
0.0000000001
 43
0.0000000001
 12
1.0
 22
0.0
 32
0.0
 13
1.0
 23
0.0
 33
0.0
 40
0.0
 40
0.0
 40
0.0
 40
0.0
 40
1.0
 40
1.0
 40
1.0
 40
2.0
 40
2.0
 40
2.0
 40
3.0
 40
3.0
 40
3.0
 40
4.0
 40
4.0
 40
4.0
 40
4.0
 10
92.24656573214669
 20
-142.3692599470466
 30
0.0
 10
91.99645179991755
 20
-142.3692599470466
 30
0.0
 10
91.95028752041522
 20
-142.6527913054827
 30
0.0
 10
91.95028752041522
 20
-142.9976453635562
 30
0.0
 10
91.95028752041522
 20
-143.3173502245873
 30
0.0
 10
91.98611651346181
 20
-143.6260307800657
 30
0.0
 10
92.24656573214669
 20
-143.6260307800657
 30
0.0
 10
92.49392358798764
 20
-143.6260307800657
 30
0.0
 10
92.54284394387818
 20
-143.3445664789208
 30
0.0
 10
92.54284394387818
 20
-142.9976453635562
 30
0.0
 10
92.54284394387818
 20
-142.6782850120735
 30
0.0
 10
92.50425887444338
 20
-142.3692599470466
 30
0.0
 10
92.24656573214669
 20
-142.3692599470466
 30
0.0
  0
HATCH
  5
179
330
171
100
AcDbEntity
  8
_U+30EC_U+30A4_U+30E4_U+30FC 1
 62
   179
420
  2234388
100
AcDbHatch
 10
0.0
 20
0.0
 30
0.0
210
0.0
220
0.0
230
1.0
  2
SOLID
 70
     1
 71
     0
 91
        2
 92
        1
 93
        1
 72
     4
 94
        3
 73
     0
 74
     1
 95
       29
 96
       25
 40
0.0
 40
0.0
 40
0.0
 40
0.0
 40
1.0
 40
1.0
 40
1.0
 40
2.0
 40
2.0
 40
2.0
 40
3.0
 40
3.0
 40
3.0
 40
4.0
 40
4.0
 40
4.0
 40
5.0
 40
5.0
 40
5.0
 40
6.0
 40
6.0
 40
6.0
 40
7.0
 40
7.0
 40
7.0
 40
8.0
 40
8.0
 40
8.0
 40
8.0
 10
92.64412975114453
 20
-143.5922688443103
 10
92.53595375290769
 20
-143.8017306498135
 10
92.36300995954814
 20
-143.8206786749823
 10
92.24656573214669
 20
-143.8206786749823
 10
92.085335263437
 20
-143.8206786749823
 10
91.94408634854176
 20
-143.7741698859315
 10
91.84900171314887
 20
-143.5922688443103
 10
91.74495982949432
 20
-143.3976209493937
 10
91.72566729477693
 20
-143.1605983800085
 10
91.72566729477693
 20
-142.9976453635562
 10
91.72566729477693
 20
-142.8536403722727
 10
91.74289277220316
 20
-142.6021484018495
 10
91.84900171314887
 20
-142.403021882802
 10
91.95648869228866
 20
-142.2001057587208
 10
92.11771916099835
 20
-142.1770236189696
 10
92.24656573214669
 20
-142.1770236189696
 10
92.40504012446819
 20
-142.1770236189696
 10
92.54904511575162
 20
-142.2211208411808
 10
92.64412975114453
 20
-142.403021882802
 10
92.74334850111973
 20
-142.595947229976
 10
92.76677515041942
 20
-142.8240125510996
 10
92.76677515041942
 20
-142.9976453635562
 10
92.76677515041942
 20
-143.1692111187216
 10
92.74541555841087
 20
-143.3996880066848
 10
92.64412975114453
 20
-143.5922688443103
 97
        0
 97
        0
 92
        1
 93
        1
 72
     4
 94
        3
 73
     0
 74
     1
 95
       17
 96
       13
 40
0.0
 40
0.0
 40
0.0
 40
0.0
 40
1.0
 40
1.0
 40
1.0
 40
2.0
 40
2.0
 40
2.0
 40
3.0
 40
3.0
 40
3.0
 40
4.0
 40
4.0
 40
4.0
 40
4.0
 10
92.24656573214669
 20
-142.3692599470466
 10
91.99645179991755
 20
-142.3692599470466
 10
91.95028752041522
 20
-142.6527913054827
 10
91.95028752041522
 20
-142.9976453635562
 10
91.95028752041522
 20
-143.3173502245873
 10
91.98611651346181
 20
-143.6260307800657
 10
92.24656573214669
 20
-143.6260307800657
 10
92.49392358798764
 20
-143.6260307800657
 10
92.54284394387818
 20
-143.3445664789208
 10
92.54284394387818
 20
-142.9976453635562
 10
92.54284394387818
 20
-142.6782850120735
 10
92.50425887444338
 20
-142.3692599470466
 10
92.24656573214669
 20
-142.3692599470466
 97
        0
 97
        0
 75
     2
 76
     1
 98
        0
  0
ENDBLK
  5
174
330
171
100
AcDbEntity
  8
0
100
AcDbBlockEnd
  0
BLOCK
  5
17C
330
17A
100
AcDbEntity
  8
0
100
AcDbBlockBegin
  2
block 17
 70
     0
 10
0.0
 20
0.0
 30
0.0
  3
block 17
  1

  0
SPLINE
  5
17E
330
17A
100
AcDbEntity
  8
_U+30EC_U+30A4_U+30E4_U+30FC 1
 62
   179
420
  2234388
370
    25
100
AcDbSpline
210
0.0
220
0.0
230
1.0
 70
    11
 71
     3
 72
    17
 73
    13
 74
     0
 42
0.0000000001
 43
0.0000000001
 12
1.0
 22
0.0
 32
0.0
 13
1.0
 23
0.0
 33
0.0
 40
0.0
 40
0.0
 40
0.0
 40
0.0
 40
1.0
 40
1.0
 40
1.0
 40
2.0
 40
2.0
 40
2.0
 40
3.0
 40
3.0
 40
3.0
 40
4.0
 40
4.0
 40
4.0
 40
4.0
 10
79.17620770226888
 20
-139.5993877428778
 30
0.0
 10
79.17620770226888
 20
-139.6090538539868
 30
0.0
 10
79.16830548024826
 20
-139.6173088539848
 30
0.0
 10
79.15863936938375
 20
-139.6173088539848
 30
0.0
 10
79.14865575852734
 20
-139.6173088539848
 30
0.0
 10
79.14107103649863
 20
-139.6090538539868
 30
0.0
 10
79.14107103649863
 20
-139.5993877428778
 30
0.0
 10
79.14107103649863
 20
-139.589756909547
 30
0.0
 10
79.14865575852734
 20
-139.5815019095491
 30
0.0
 10
79.15863936938375
 20
-139.5815019095491
 30
0.0
 10
79.16830548024826
 20
-139.5815019095491
 30
0.0
 10
79.17620770226888
 20
-139.589756909547
 30
0.0
 10
79.17620770226888
 20
-139.5993877428778
 30
0.0
  0
ENDBLK
  5
17D
330
17A
100
AcDbEntity
  8
0
100
AcDbBlockEnd
  0
BLOCK
  5
181
330
17F
100
AcDbEntity
  8
0
100
AcDbBlockBegin
  2
block 18
 70
     0
 10
0.0
 20
0.0
 30
0.0
  3
block 18
  1

  0
SPLINE
  5
183
330
17F
100
AcDbEntity
  8
_U+30EC_U+30A4_U+30E4_U+30FC 1
 62
   179
420
  2234388
370
    25
100
AcDbSpline
210
0.0
220
0.0
230
1.0
 70
    11
 71
     3
 72
    17
 73
    13
 74
     0
 42
0.0000000001
 43
0.0000000001
 12
1.0
 22
0.0
 32
0.0
 13
1.0
 23
0.0
 33
0.0
 40
0.0
 40
0.0
 40
0.0
 40
0.0
 40
1.0
 40
1.0
 40
1.0
 40
2.0
 40
2.0
 40
2.0
 40
3.0
 40
3.0
 40
3.0
 40
4.0
 40
4.0
 40
4.0
 40
4.0
 10
104.1762276200208
 20
-139.5993877428778
 30
0.0
 10
104.1762276200208
 20
-139.6090538539868
 30
0.0
 10
104.1683253980002
 20
-139.6173088539848
 30
0.0
 10
104.1586592871357
 20
-139.6173088539848
 30
0.0
 10
104.149028454048
 20
-139.6173088539848
 30
0.0
 10
104.1407381764818
 20
-139.6090538539868
 30
0.0
 10
104.1407381764818
 20
-139.5993877428778
 30
0.0
 10
104.1407381764818
 20
-139.589756909547
 30
0.0
 10
104.149028454048
 20
-139.5815019095491
 30
0.0
 10
104.1586592871357
 20
-139.5815019095491
 30
0.0
 10
104.1683253980002
 20
-139.5815019095491
 30
0.0
 10
104.1762276200208
 20
-139.589756909547
 30
0.0
 10
104.1762276200208
 20
-139.5993877428778
 30
0.0
  0
ENDBLK
  5
182
330
17F
100
AcDbEntity
  8
0
100
AcDbBlockEnd
  0
BLOCK
  5
186
330
184
100
AcDbEntity
  8
0
100
AcDbBlockBegin
  2
block 19
 70
     0
 10
0.0
 20
0.0
 30
0.0
  3
block 19
  1

  0
SPLINE
  5
188
330
184
100
AcDbEntity
  8
_U+30EC_U+30A4_U+30E4_U+30FC 1
 62
   179
420
  2234388
370
     9
100
AcDbSpline
210
0.0
220
0.0
230
1.0
 70
    11
 71
     3
 72
    17
 73
    13
 74
     0
 42
0.0000000001
 43
0.0000000001
 12
1.0
 22
0.0
 32
0.0
 13
1.0
 23
0.0
 33
0.0
 40
0.0
 40
0.0
 40
0.0
 40
0.0
 40
1.0
 40
1.0
 40
1.0
 40
2.0
 40
2.0
 40
2.0
 40
3.0
 40
3.0
 40
3.0
 40
4.0
 40
4.0
 40
4.0
 40
4.0
 10
104.1762276200208
 20
-141.5996377423778
 30
0.0
 10
104.1762276200208
 20
-141.6092685757087
 30
0.0
 10
104.1683253980002
 20
-141.6168532979292
 30
0.0
 10
104.1586592871357
 20
-141.6168532979292
 30
0.0
 10
104.149028454048
 20
-141.6168532979292
 30
0.0
 10
104.1407381764818
 20
-141.6092685757087
 30
0.0
 10
104.1407381764818
 20
-141.5996377423778
 30
0.0
 10
104.1407381764818
 20
-141.5899716312695
 30
0.0
 10
104.149028454048
 20
-141.5817166312715
 30
0.0
 10
104.1586592871357
 20
-141.5817166312715
 30
0.0
 10
104.1683253980002
 20
-141.5817166312715
 30
0.0
 10
104.1762276200208
 20
-141.5899716312695
 30
0.0
 10
104.1762276200208
 20
-141.5996377423778
 30
0.0
  0
ENDBLK
  5
187
330
184
100
AcDbEntity
  8
0
100
AcDbBlockEnd
  0
BLOCK
  5
18B
330
189
100
AcDbEntity
  8
0
100
AcDbBlockBegin
  2
block 20
 70
     0
 10
0.0
 20
0.0
 30
0.0
  3
block 20
  1

  0
SPLINE
  5
18D
330
189
100
AcDbEntity
  8
_U+30EC_U+30A4_U+30E4_U+30FC 1
370
     0
100
AcDbSpline
210
0.0
220
0.0
230
1.0
 70
    11
 71
     3
 72
    26
 73
    22
 74
     0
 42
0.0000000001
 43
0.0000000001
 12
1.0
 22
0.0
 32
0.0
 13
1.0
 23
0.0
 33
0.0
 40
0.0
 40
0.0
 40
0.0
 40
0.0
 40
1.0
 40
1.0
 40
1.0
 40
2.0
 40
2.0
 40
2.0
 40
3.0
 40
3.0
 40
3.0
 40
4.0
 40
4.0
 40
4.0
 40
5.0
 40
5.0
 40
5.0
 40
6.0
 40
6.0
 40
6.0
 40
7.0
 40
7.0
 40
7.0
 40
7.0
 10
77.86501462897125
 20
-138.0263725783406
 30
0.0
 10
77.86501462897125
 20
-138.0263725783406
 30
0.0
 10
76.76068927117441
 20
-138.0263725783406
 30
0.0
 10
76.76068927117441
 20
-138.0263725783406
 30
0.0
 10
76.76068927117441
 20
-138.0263725783406
 30
0.0
 10
76.76068927117441
 20
-138.3564127258276
 30
0.0
 10
76.76068927117441
 20
-138.3564127258276
 30
0.0
 10
76.76068927117441
 20
-138.3564127258276
 30
0.0
 10
76.61272242008293
 20
-138.3564127258276
 30
0.0
 10
76.61272242008293
 20
-138.3564127258276
 30
0.0
 10
76.59790850949636
 20
-138.0243055210495
 30
0.0
 10
76.43495549304404
 20
-137.9777967319986
 30
0.0
 10
76.32075057770801
 20
-137.9481689108255
 30
0.0
 10
76.32075057770801
 20
-137.9481689108255
 30
0.0
 10
76.32075057770801
 20
-137.8020968622509
 30
0.0
 10
76.32075057770801
 20
-137.8020968622509
 30
0.0
 10
76.32075057770801
 20
-137.8020968622509
 30
0.0
 10
77.86501462897125
 20
-137.8020968622509
 30
0.0
 10
77.86501462897125
 20
-137.8020968622509
 30
0.0
 10
77.86501462897125
 20
-137.8020968622509
 30
0.0
 10
77.86501462897125
 20
-138.0263725783406
 30
0.0
 10
77.86501462897125
 20
-138.0263725783406
 30
0.0
  0
HATCH
  5
18E
330
189
100
AcDbEntity
  8
_U+30EC_U+30A4_U+30E4_U+30FC 1
 62
   179
420
  2234388
100
AcDbHatch
 10
0.0
 20
0.0
 30
0.0
210
0.0
220
0.0
230
1.0
  2
SOLID
 70
     1
 71
     0
 91
        1
 92
        1
 93
        1
 72
     4
 94
        3
 73
     0
 74
     1
 95
       26
 96
       22
 40
0.0
 40
0.0
 40
0.0
 40
0.0
 40
1.0
 40
1.0
 40
1.0
 40
2.0
 40
2.0
 40
2.0
 40
3.0
 40
3.0
 40
3.0
 40
4.0
 40
4.0
 40
4.0
 40
5.0
 40
5.0
 40
5.0
 40
6.0
 40
6.0
 40
6.0
 40
7.0
 40
7.0
 40
7.0
 40
7.0
 10
77.86501462897125
 20
-138.0263725783406
 10
77.86501462897125
 20
-138.0263725783406
 10
76.76068927117441
 20
-138.0263725783406
 10
76.76068927117441
 20
-138.0263725783406
 10
76.76068927117441
 20
-138.0263725783406
 10
76.76068927117441
 20
-138.3564127258276
 10
76.76068927117441
 20
-138.3564127258276
 10
76.76068927117441
 20
-138.3564127258276
 10
76.61272242008293
 20
-138.3564127258276
 10
76.61272242008293
 20
-138.3564127258276
 10
76.59790850949636
 20
-138.0243055210495
 10
76.43495549304404
 20
-137.9777967319986
 10
76.32075057770801
 20
-137.9481689108255
 10
76.32075057770801
 20
-137.9481689108255
 10
76.32075057770801
 20
-137.8020968622509
 10
76.32075057770801
 20
-137.8020968622509
 10
76.32075057770801
 20
-137.8020968622509
 10
77.86501462897125
 20
-137.8020968622509
 10
77.86501462897125
 20
-137.8020968622509
 10
77.86501462897125
 20
-137.8020968622509
 10
77.86501462897125
 20
-138.0263725783406
 10
77.86501462897125
 20
-138.0263725783406
 97
        0
 97
        0
 75
     2
 76
     1
 98
        0
  0
POLYLINE
  5
18F
330
189
100
AcDbEntity
  8
_U+30EC_U+30A4_U+30E4_U+30FC 1
370
     0
100
AcDb2dPolyline
 66
     1
 10
0.0
 20
0.0
 30
0.0
  0
VERTEX
  5
190
330
18F
100
AcDbEntity
  8
_U+30EC_U+30A4_U+30E4_U+30FC 1
370
     0
100
AcDbVertex
100
AcDb2dVertex
 10
77.86501462897125
 20
-137.2408908077037
 30
0.0
  0
VERTEX
  5
191
330
18F
100
AcDbEntity
  8
_U+30EC_U+30A4_U+30E4_U+30FC 1
370
     0
100
AcDbVertex
100
AcDb2dVertex
 10
77.61335040377375
 20
-137.2408908077037
 30
0.0
  0
VERTEX
  5
192
330
18F
100
AcDbEntity
  8
_U+30EC_U+30A4_U+30E4_U+30FC 1
370
     0
100
AcDbVertex
100
AcDb2dVertex
 10
77.61335040377375
 20
-136.9893988372804
 30
0.0
  0
VERTEX
  5
193
330
18F
100
AcDbEntity
  8
_U+30EC_U+30A4_U+30E4_U+30FC 1
370
     0
100
AcDbVertex
100
AcDb2dVertex
 10
77.86501462897125
 20
-136.9893988372804
 30
0.0
  0
VERTEX
  5
194
330
18F
100
AcDbEntity
  8
_U+30EC_U+30A4_U+30E4_U+30FC 1
370
     0
100
AcDbVertex
100
AcDb2dVertex
 10
77.86501462897125
 20
-137.2408908077037
 30
0.0
  0
SEQEND
  5
195
330
18F
100
AcDbEntity
  8
_U+30EC_U+30A4_U+30E4_U+30FC 1
370
     0
  0
HATCH
  5
196
330
189
100
AcDbEntity
  8
_U+30EC_U+30A4_U+30E4_U+30FC 1
 62
   179
420
  2234388
100
AcDbHatch
 10
0.0
 20
0.0
 30
0.0
210
0.0
220
0.0
230
1.0
  2
SOLID
 70
     1
 71
     0
 91
        1
 92
        1
 93
        4
 72
     1
 10
77.86501462897125
 20
-137.2408908077037
 11
77.61335040377375
 21
-137.2408908077037
 72
     1
 10
77.61335040377375
 20
-137.2408908077037
 11
77.61335040377375
 21
-136.9893988372804
 72
     1
 10
77.61335040377375
 20
-136.9893988372804
 11
77.86501462897125
 21
-136.9893988372804
 72
     1
 10
77.86501462897125
 20
-136.9893988372804
 11
77.86501462897125
 21
-137.2408908077037
 97
        0
 75
     2
 76
     1
 98
        0
  0
SPLINE
  5
197
330
189
100
AcDbEntity
  8
_U+30EC_U+30A4_U+30E4_U+30FC 1
370
     0
100
AcDbSpline
210
0.0
220
0.0
230
1.0
 70
    11
 71
     3
 72
    44
 73
    40
 74
     0
 42
0.0000000001
 43
0.0000000001
 12
1.0
 22
0.0
 32
0.0
 13
1.0
 23
0.0
 33
0.0
 40
0.0
 40
0.0
 40
0.0
 40
0.0
 40
1.0
 40
1.0
 40
1.0
 40
2.0
 40
2.0
 40
2.0
 40
3.0
 40
3.0
 40
3.0
 40
4.0
 40
4.0
 40
4.0
 40
5.0
 40
5.0
 40
5.0
 40
6.0
 40
6.0
 40
6.0
 40
7.0
 40
7.0
 40
7.0
 40
8.0
 40
8.0
 40
8.0
 40
9.0
 40
9.0
 40
9.0
 40
10.0
 40
10.0
 40
10.0
 40
11.0
 40
11.0
 40
11.0
 40
12.0
 40
12.0
 40
12.0
 40
13.0
 40
13.0
 40
13.0
 40
13.0
 10
77.28331025628681
 20
-136.1598198444323
 30
0.0
 10
77.44195690338258
 20
-136.3775498791001
 30
0.0
 10
77.51602645631544
 20
-136.4705674572018
 30
0.0
 10
77.65985919282463
 20
-136.5194878130924
 30
0.0
 10
77.65985919282463
 20
-136.5194878130924
 30
0.0
 10
77.65985919282463
 20
-135.7408962334259
 30
0.0
 10
77.65985919282463
 20
-135.7408962334259
 30
0.0
 10
77.65985919282463
 20
-135.7408962334259
 30
0.0
 10
77.86501462897125
 20
-135.7408962334259
 30
0.0
 10
77.86501462897125
 20
-135.7408962334259
 30
0.0
 10
77.86501462897125
 20
-135.7408962334259
 30
0.0
 10
77.86501462897125
 20
-136.7689127262244
 30
0.0
 10
77.86501462897125
 20
-136.7689127262244
 30
0.0
 10
77.50741371760232
 20
-136.7372178477601
 30
0.0
 10
77.42921005008715
 20
-136.6717610335404
 30
0.0
 10
77.1308647810645
 20
-136.2865993582895
 30
0.0
 10
76.93208277156559
 20
-136.0306287637354
 30
0.0
 10
76.86438664528043
 20
-135.9651719495156
 30
0.0
 10
76.72692733541896
 20
-135.9651719495156
 30
0.0
 10
76.60841605072638
 20
-135.9651719495156
 30
0.0
 10
76.47733016751262
 20
-136.0371744451574
 30
0.0
 10
76.47733016751262
 20
-136.2335448878166
 30
0.0
 10
76.47733016751262
 20
-136.4939941065015
 30
0.0
 10
76.70780705547583
 20
-136.5022623356661
 30
0.0
 10
76.82425128287727
 20
-136.5067409597969
 30
0.0
 10
76.82425128287727
 20
-136.5067409597969
 30
0.0
 10
76.82425128287727
 20
-136.7310166758867
 30
0.0
 10
76.82425128287727
 20
-136.7310166758867
 30
0.0
 10
76.69729951424581
 20
-136.7224039371736
 30
0.0
 10
76.58516165620094
 20
-136.7117241411693
 30
0.0
 10
76.46665037150834
 20
-136.631453416363
 30
0.0
 10
76.30593666712143
 20
-136.5215548703835
 30
0.0
 10
76.27200247659172
 20
-136.33551971418
 30
0.0
 10
76.27200247659172
 20
-136.2190754867786
 30
0.0
 10
76.27200247659172
 20
-135.941745300216
 30
0.0
 10
76.45614283027832
 20
-135.7346950615525
 30
0.0
 10
76.72899439271012
 20
-135.7346950615525
 30
0.0
 10
76.95740422338218
 20
-135.7346950615525
 30
0.0
 10
77.0569674829059
 20
-135.8507947794054
 30
0.0
 10
77.28331025628681
 20
-136.1598198444323
 30
0.0
  0
HATCH
  5
198
330
189
100
AcDbEntity
  8
_U+30EC_U+30A4_U+30E4_U+30FC 1
 62
   179
420
  2234388
100
AcDbHatch
 10
0.0
 20
0.0
 30
0.0
210
0.0
220
0.0
230
1.0
  2
SOLID
 70
     1
 71
     0
 91
        1
 92
        1
 93
        1
 72
     4
 94
        3
 73
     0
 74
     1
 95
       44
 96
       40
 40
0.0
 40
0.0
 40
0.0
 40
0.0
 40
1.0
 40
1.0
 40
1.0
 40
2.0
 40
2.0
 40
2.0
 40
3.0
 40
3.0
 40
3.0
 40
4.0
 40
4.0
 40
4.0
 40
5.0
 40
5.0
 40
5.0
 40
6.0
 40
6.0
 40
6.0
 40
7.0
 40
7.0
 40
7.0
 40
8.0
 40
8.0
 40
8.0
 40
9.0
 40
9.0
 40
9.0
 40
10.0
 40
10.0
 40
10.0
 40
11.0
 40
11.0
 40
11.0
 40
12.0
 40
12.0
 40
12.0
 40
13.0
 40
13.0
 40
13.0
 40
13.0
 10
77.28331025628681
 20
-136.1598198444323
 10
77.44195690338258
 20
-136.3775498791001
 10
77.51602645631544
 20
-136.4705674572018
 10
77.65985919282463
 20
-136.5194878130924
 10
77.65985919282463
 20
-136.5194878130924
 10
77.65985919282463
 20
-135.7408962334259
 10
77.65985919282463
 20
-135.7408962334259
 10
77.65985919282463
 20
-135.7408962334259
 10
77.86501462897125
 20
-135.7408962334259
 10
77.86501462897125
 20
-135.7408962334259
 10
77.86501462897125
 20
-135.7408962334259
 10
77.86501462897125
 20
-136.7689127262244
 10
77.86501462897125
 20
-136.7689127262244
 10
77.50741371760232
 20
-136.7372178477601
 10
77.42921005008715
 20
-136.6717610335404
 10
77.1308647810645
 20
-136.2865993582895
 10
76.93208277156559
 20
-136.0306287637354
 10
76.86438664528043
 20
-135.9651719495156
 10
76.72692733541896
 20
-135.9651719495156
 10
76.60841605072638
 20
-135.9651719495156
 10
76.47733016751262
 20
-136.0371744451574
 10
76.47733016751262
 20
-136.2335448878166
 10
76.47733016751262
 20
-136.4939941065015
 10
76.70780705547583
 20
-136.5022623356661
 10
76.82425128287727
 20
-136.5067409597969
 10
76.82425128287727
 20
-136.5067409597969
 10
76.82425128287727
 20
-136.7310166758867
 10
76.82425128287727
 20
-136.7310166758867
 10
76.69729951424581
 20
-136.7224039371736
 10
76.58516165620094
 20
-136.7117241411693
 10
76.46665037150834
 20
-136.631453416363
 10
76.30593666712143
 20
-136.5215548703835
 10
76.27200247659172
 20
-136.33551971418
 10
76.27200247659172
 20
-136.2190754867786
 10
76.27200247659172
 20
-135.941745300216
 10
76.45614283027832
 20
-135.7346950615525
 10
76.72899439271012
 20
-135.7346950615525
 10
76.95740422338218
 20
-135.7346950615525
 10
77.0569674829059
 20
-135.8507947794054
 10
77.28331025628681
 20
-136.1598198444323
 97
        0
 97
        0
 75
     2
 76
     1
 98
        0
  0
ENDBLK
  5
18C
330
189
100
AcDbEntity
  8
0
100
AcDbBlockEnd
  0
ENDSEC
  0
SECTION
  2
ENTITIES
  0
SPLINE
  5
41
330
1F
100
AcDbEntity
  8
_U+30EC_U+30A4_U+30E4_U+30FC 1
370
     0
100
AcDbSpline
210
0.0
220
0.0
230
1.0
 70
    11
 71
     3
 72
   113
 73
   109
 74
     0
 42
0.0000000001
 43
0.0000000001
 12
1.0
 22
0.0
 32
0.0
 13
1.0
 23
0.0
 33
0.0
 40
0.0
 40
0.0
 40
0.0
 40
0.0
 40
1.0
 40
1.0
 40
1.0
 40
2.0
 40
2.0
 40
2.0
 40
3.0
 40
3.0
 40
3.0
 40
4.0
 40
4.0
 40
4.0
 40
5.0
 40
5.0
 40
5.0
 40
6.0
 40
6.0
 40
6.0
 40
7.0
 40
7.0
 40
7.0
 40
8.0
 40
8.0
 40
8.0
 40
9.0
 40
9.0
 40
9.0
 40
10.0
 40
10.0
 40
10.0
 40
11.0
 40
11.0
 40
11.0
 40
12.0
 40
12.0
 40
12.0
 40
13.0
 40
13.0
 40
13.0
 40
14.0
 40
14.0
 40
14.0
 40
15.0
 40
15.0
 40
15.0
 40
16.0
 40
16.0
 40
16.0
 40
17.0
 40
17.0
 40
17.0
 40
18.0
 40
18.0
 40
18.0
 40
19.0
 40
19.0
 40
19.0
 40
20.0
 40
20.0
 40
20.0
 40
21.0
 40
21.0
 40
21.0
 40
22.0
 40
22.0
 40
22.0
 40
23.0
 40
23.0
 40
23.0
 40
24.0
 40
24.0
 40
24.0
 40
25.0
 40
25.0
 40
25.0
 40
26.0
 40
26.0
 40
26.0
 40
27.0
 40
27.0
 40
27.0
 40
28.0
 40
28.0
 40
28.0
 40
29.0
 40
29.0
 40
29.0
 40
30.0
 40
30.0
 40
30.0
 40
31.0
 40
31.0
 40
31.0
 40
32.0
 40
32.0
 40
32.0
 40
33.0
 40
33.0
 40
33.0
 40
34.0
 40
34.0
 40
34.0
 40
35.0
 40
35.0
 40
35.0
 40
36.0
 40
36.0
 40
36.0
 40
36.0
 10
98.65857164967682
 20
-137.1168552434986
 30
0.0
 10
98.6485880388204
 20
-137.1168552434986
 30
0.0
 10
98.64100331679168
 20
-137.1093057990562
 30
0.0
 10
98.64100331679168
 20
-137.0996396879472
 30
0.0
 10
98.64100331679168
 20
-137.0996396879472
 30
0.0
 10
96.17639442040043
 20
-137.0996396879472
 30
0.0
 10
96.17639442040043
 20
-137.0996396879472
 30
0.0
 10
96.17639442040043
 20
-137.1093057990562
 30
0.0
 10
96.168101713214
 20
-137.1168552434986
 30
0.0
 10
96.15847088012636
 20
-137.1168552434986
 30
0.0
 10
96.15847088012636
 20
-137.1168552434986
 30
0.0
 10
96.15847088012636
 20
-137.7996919099948
 30
0.0
 10
96.15847088012636
 20
-137.7996919099948
 30
0.0
 10
96.15847088012636
 20
-137.7996919099948
 30
0.0
 10
97.95851944531441
 20
-137.7996919099948
 30
0.0
 10
97.95851944531441
 20
-137.7996919099948
 30
0.0
 10
97.95851944531441
 20
-137.7996919099948
 30
0.0
 10
97.95851944531441
 20
-138.8993707986084
 30
0.0
 10
97.95851944531441
 20
-138.8993707986084
 30
0.0
 10
97.95851944531441
 20
-138.8993707986084
 30
0.0
 10
92.00849904155652
 20
-138.8993707986084
 30
0.0
 10
92.00849904155652
 20
-138.8993707986084
 30
0.0
 10
92.00849904155652
 20
-138.8993707986084
 30
0.0
 10
92.00849904155652
 20
-118.5993027481279
 30
0.0
 10
92.00849904155652
 20
-118.5993027481279
 30
0.0
 10
92.00849904155652
 20
-118.5993027481279
 30
0.0
 10
93.00862401604121
 20
-119.0993652480031
 30
0.0
 10
93.00862401604121
 20
-119.0993652480031
 30
0.0
 10
93.00862401604121
 20
-119.0993652480031
 30
0.0
 10
93.00862401604121
 20
-118.0992402482531
 30
0.0
 10
93.00862401604121
 20
-118.0992402482531
 30
0.0
 10
93.00862401604121
 20
-118.0992402482531
 30
0.0
 10
91.87966460039891
 20
-117.178208026261
 30
0.0
 10
91.87966460039891
 20
-117.178208026261
 30
0.0
 10
91.81799904641657
 20
-117.1277255262735
 30
0.0
 10
91.74391571497327
 20
-117.1077583040563
 30
0.0
 10
91.67018516129873
 20
-117.1053241373905
 30
0.0
 10
91.66711599471037
 20
-117.1105099707224
 30
0.0
 10
91.6646818281058
 20
-117.1168952484987
 30
0.0
 10
91.65847293937532
 20
-117.1168952484987
 30
0.0
 10
91.65092349512348
 20
-117.1168952484987
 30
0.0
 10
91.64711349522068
 20
-117.1098044151669
 30
0.0
 10
91.644714606393
 20
-117.103101637391
 30
0.0
 10
91.54791238664039
 20
-117.1068763596123
 30
0.0
 10
91.4535090557155
 20
-117.1471988596022
 30
0.0
 10
91.38736322406969
 20
-117.2279849706929
 30
0.0
 10
91.33638683648131
 20
-117.2905324706774
 30
0.0
 10
91.30844683719411
 20
-117.3687080262134
 30
0.0
 10
91.30844683719411
 20
-117.4493177484155
 30
0.0
 10
91.30844683719411
 20
-117.4493177484155
 30
0.0
 10
91.30844683719411
 20
-138.8993707986084
 30
0.0
 10
91.30844683719411
 20
-138.8993707986084
 30
0.0
 10
91.30844683719411
 20
-138.8993707986084
 30
0.0
 10
85.358779211205
 20
-138.8993707986084
 30
0.0
 10
85.358779211205
 20
-138.8993707986084
 30
0.0
 10
85.358779211205
 20
-138.8993707986084
 30
0.0
 10
85.358779211205
 20
-137.7996919099948
 30
0.0
 10
85.358779211205
 20
-137.7996919099948
 30
0.0
 10
85.358779211205
 20
-137.7996919099948
 30
0.0
 10
87.15851027640116
 20
-137.7996919099948
 30
0.0
 10
87.15851027640116
 20
-137.7996919099948
 30
0.0
 10
87.15851027640116
 20
-137.7996919099948
 30
0.0
 10
87.15851027640116
 20
-137.0996396879472
 30
0.0
 10
87.15851027640116
 20
-137.0996396879472
 30
0.0
 10
87.15851027640116
 20
-137.0996396879472
 30
0.0
 10
84.65872700684261
 20
-137.0996396879472
 30
0.0
 10
84.65872700684261
 20
-137.0996396879472
 30
0.0
 10
84.65872700684261
 20
-137.0996396879472
 30
0.0
 10
84.65872700684261
 20
-138.8993707986084
 30
0.0
 10
84.65872700684261
 20
-138.8993707986084
 30
0.0
 10
84.65872700684261
 20
-138.8993707986084
 30
0.0
 10
79.85833879597737
 20
-138.8993707986084
 30
0.0
 10
79.85833879597737
 20
-138.8993707986084
 30
0.0
 10
79.85833879597737
 20
-138.8993707986084
 30
0.0
 10
79.85833879597737
 20
-137.0996396879472
 30
0.0
 10
79.85833879597737
 20
-137.0996396879472
 30
0.0
 10
79.85833879597737
 20
-137.0996396879472
 30
0.0
 10
79.15863936938375
 20
-137.0996396879472
 30
0.0
 10
79.15863936938375
 20
-137.0996396879472
 30
0.0
 10
79.15863936938375
 20
-137.0996396879472
 30
0.0
 10
79.15863936938375
 20
-139.5815019095491
 30
0.0
 10
79.15863936938375
 20
-139.5815019095491
 30
0.0
 10
79.16830548024826
 20
-139.5815019095491
 30
0.0
 10
79.17620770226888
 20
-139.589756909547
 30
0.0
 10
79.17620770226888
 20
-139.5993877428778
 30
0.0
 10
79.17620770226888
 20
-139.5993877428778
 30
0.0
 10
104.1407381764818
 20
-139.5993877428778
 30
0.0
 10
104.1407381764818
 20
-139.5993877428778
 30
0.0
 10
104.1407381764818
 20
-139.589756909547
 30
0.0
 10
104.149028454048
 20
-139.5815019095491
 30
0.0
 10
104.1586592871357
 20
-139.5815019095491
 30
0.0
 10
104.1586592871357
 20
-139.5815019095491
 30
0.0
 10
104.1586592871357
 20
-137.1168552434986
 30
0.0
 10
104.1586592871357
 20
-137.1168552434986
 30
0.0
 10
104.149028454048
 20
-137.1168552434986
 30
0.0
 10
104.1407381764818
 20
-137.1093057990562
 30
0.0
 10
104.1407381764818
 20
-137.0996396879472
 30
0.0
 10
104.1407381764818
 20
-137.0996396879472
 30
0.0
 10
103.4586423605501
 20
-137.0996396879472
 30
0.0
 10
103.4586423605501
 20
-137.0996396879472
 30
0.0
 10
103.4586423605501
 20
-137.0996396879472
 30
0.0
 10
103.4586423605501
 20
-138.8993707986084
 30
0.0
 10
103.4586423605501
 20
-138.8993707986084
 30
0.0
 10
103.4586423605501
 20
-138.8993707986084
 30
0.0
 10
98.65857164967682
 20
-138.8993707986084
 30
0.0
 10
98.65857164967682
 20
-138.8993707986084
 30
0.0
 10
98.65857164967682
 20
-138.8993707986084
 30
0.0
 10
98.65857164967682
 20
-137.1168552434986
 30
0.0
 10
98.65857164967682
 20
-137.1168552434986
 30
0.0
  0
HATCH
  5
42
330
1F
100
AcDbEntity
  8
_U+30EC_U+30A4_U+30E4_U+30FC 1
 62
   253
420
 11711154
100
AcDbHatch
 10
0.0
 20
0.0
 30
0.0
210
0.0
220
0.0
230
1.0
  2
SOLID
 70
     1
 71
     0
 91
        1
 92
        1
 93
        1
 72
     4
 94
        3
 73
     0
 74
     1
 95
      113
 96
      109
 40
0.0
 40
0.0
 40
0.0
 40
0.0
 40
1.0
 40
1.0
 40
1.0
 40
2.0
 40
2.0
 40
2.0
 40
3.0
 40
3.0
 40
3.0
 40
4.0
 40
4.0
 40
4.0
 40
5.0
 40
5.0
 40
5.0
 40
6.0
 40
6.0
 40
6.0
 40
7.0
 40
7.0
 40
7.0
 40
8.0
 40
8.0
 40
8.0
 40
9.0
 40
9.0
 40
9.0
 40
10.0
 40
10.0
 40
10.0
 40
11.0
 40
11.0
 40
11.0
 40
12.0
 40
12.0
 40
12.0
 40
13.0
 40
13.0
 40
13.0
 40
14.0
 40
14.0
 40
14.0
 40
15.0
 40
15.0
 40
15.0
 40
16.0
 40
16.0
 40
16.0
 40
17.0
 40
17.0
 40
17.0
 40
18.0
 40
18.0
 40
18.0
 40
19.0
 40
19.0
 40
19.0
 40
20.0
 40
20.0
 40
20.0
 40
21.0
 40
21.0
 40
21.0
 40
22.0
 40
22.0
 40
22.0
 40
23.0
 40
23.0
 40
23.0
 40
24.0
 40
24.0
 40
24.0
 40
25.0
 40
25.0
 40
25.0
 40
26.0
 40
26.0
 40
26.0
 40
27.0
 40
27.0
 40
27.0
 40
28.0
 40
28.0
 40
28.0
 40
29.0
 40
29.0
 40
29.0
 40
30.0
 40
30.0
 40
30.0
 40
31.0
 40
31.0
 40
31.0
 40
32.0
 40
32.0
 40
32.0
 40
33.0
 40
33.0
 40
33.0
 40
34.0
 40
34.0
 40
34.0
 40
35.0
 40
35.0
 40
35.0
 40
36.0
 40
36.0
 40
36.0
 40
36.0
 10
98.65857164967682
 20
-137.1168552434986
 10
98.6485880388204
 20
-137.1168552434986
 10
98.64100331679168
 20
-137.1093057990562
 10
98.64100331679168
 20
-137.0996396879472
 10
98.64100331679168
 20
-137.0996396879472
 10
96.17639442040043
 20
-137.0996396879472
 10
96.17639442040043
 20
-137.0996396879472
 10
96.17639442040043
 20
-137.1093057990562
 10
96.168101713214
 20
-137.1168552434986
 10
96.15847088012636
 20
-137.1168552434986
 10
96.15847088012636
 20
-137.1168552434986
 10
96.15847088012636
 20
-137.7996919099948
 10
96.15847088012636
 20
-137.7996919099948
 10
96.15847088012636
 20
-137.7996919099948
 10
97.95851944531441
 20
-137.7996919099948
 10
97.95851944531441
 20
-137.7996919099948
 10
97.95851944531441
 20
-137.7996919099948
 10
97.95851944531441
 20
-138.8993707986084
 10
97.95851944531441
 20
-138.8993707986084
 10
97.95851944531441
 20
-138.8993707986084
 10
92.00849904155652
 20
-138.8993707986084
 10
92.00849904155652
 20
-138.8993707986084
 10
92.00849904155652
 20
-138.8993707986084
 10
92.00849904155652
 20
-118.5993027481279
 10
92.00849904155652
 20
-118.5993027481279
 10
92.00849904155652
 20
-118.5993027481279
 10
93.00862401604121
 20
-119.0993652480031
 10
93.00862401604121
 20
-119.0993652480031
 10
93.00862401604121
 20
-119.0993652480031
 10
93.00862401604121
 20
-118.0992402482531
 10
93.00862401604121
 20
-118.0992402482531
 10
93.00862401604121
 20
-118.0992402482531
 10
91.87966460039891
 20
-117.178208026261
 10
91.87966460039891
 20
-117.178208026261
 10
91.81799904641657
 20
-117.1277255262735
 10
91.74391571497327
 20
-117.1077583040563
 10
91.67018516129873
 20
-117.1053241373905
 10
91.66711599471037
 20
-117.1105099707224
 10
91.6646818281058
 20
-117.1168952484987
 10
91.65847293937532
 20
-117.1168952484987
 10
91.65092349512348
 20
-117.1168952484987
 10
91.64711349522068
 20
-117.1098044151669
 10
91.644714606393
 20
-117.103101637391
 10
91.54791238664039
 20
-117.1068763596123
 10
91.4535090557155
 20
-117.1471988596022
 10
91.38736322406969
 20
-117.2279849706929
 10
91.33638683648131
 20
-117.2905324706774
 10
91.30844683719411
 20
-117.3687080262134
 10
91.30844683719411
 20
-117.4493177484155
 10
91.30844683719411
 20
-117.4493177484155
 10
91.30844683719411
 20
-138.8993707986084
 10
91.30844683719411
 20
-138.8993707986084
 10
91.30844683719411
 20
-138.8993707986084
 10
85.358779211205
 20
-138.8993707986084
 10
85.358779211205
 20
-138.8993707986084
 10
85.358779211205
 20
-138.8993707986084
 10
85.358779211205
 20
-137.7996919099948
 10
85.358779211205
 20
-137.7996919099948
 10
85.358779211205
 20
-137.7996919099948
 10
87.15851027640116
 20
-137.7996919099948
 10
87.15851027640116
 20
-137.7996919099948
 10
87.15851027640116
 20
-137.7996919099948
 10
87.15851027640116
 20
-137.0996396879472
 10
87.15851027640116
 20
-137.0996396879472
 10
87.15851027640116
 20
-137.0996396879472
 10
84.65872700684261
 20
-137.0996396879472
 10
84.65872700684261
 20
-137.0996396879472
 10
84.65872700684261
 20
-137.0996396879472
 10
84.65872700684261
 20
-138.8993707986084
 10
84.65872700684261
 20
-138.8993707986084
 10
84.65872700684261
 20
-138.8993707986084
 10
79.85833879597737
 20
-138.8993707986084
 10
79.85833879597737
 20
-138.8993707986084
 10
79.85833879597737
 20
-138.8993707986084
 10
79.85833879597737
 20
-137.0996396879472
 10
79.85833879597737
 20
-137.0996396879472
 10
79.85833879597737
 20
-137.0996396879472
 10
79.15863936938375
 20
-137.0996396879472
 10
79.15863936938375
 20
-137.0996396879472
 10
79.15863936938375
 20
-137.0996396879472
 10
79.15863936938375
 20
-139.5815019095491
 10
79.15863936938375
 20
-139.5815019095491
 10
79.16830548024826
 20
-139.5815019095491
 10
79.17620770226888
 20
-139.589756909547
 10
79.17620770226888
 20
-139.5993877428778
 10
79.17620770226888
 20
-139.5993877428778
 10
104.1407381764818
 20
-139.5993877428778
 10
104.1407381764818
 20
-139.5993877428778
 10
104.1407381764818
 20
-139.589756909547
 10
104.149028454048
 20
-139.5815019095491
 10
104.1586592871357
 20
-139.5815019095491
 10
104.1586592871357
 20
-139.5815019095491
 10
104.1586592871357
 20
-137.1168552434986
 10
104.1586592871357
 20
-137.1168552434986
 10
104.149028454048
 20
-137.1168552434986
 10
104.1407381764818
 20
-137.1093057990562
 10
104.1407381764818
 20
-137.0996396879472
 10
104.1407381764818
 20
-137.0996396879472
 10
103.4586423605501
 20
-137.0996396879472
 10
103.4586423605501
 20
-137.0996396879472
 10
103.4586423605501
 20
-137.0996396879472
 10
103.4586423605501
 20
-138.8993707986084
 10
103.4586423605501
 20
-138.8993707986084
 10
103.4586423605501
 20
-138.8993707986084
 10
98.65857164967682
 20
-138.8993707986084
 10
98.65857164967682
 20
-138.8993707986084
 10
98.65857164967682
 20
-138.8993707986084
 10
98.65857164967682
 20
-137.1168552434986
 10
98.65857164967682
 20
-137.1168552434986
 97
        0
 97
        0
 75
     2
 76
     1
 98
        0
  0
INSERT
  5
44
330
1F
100
AcDbEntity
  8
_U+30EC_U+30A4_U+30E4_U+30FC 1
100
AcDbBlockReference
  2
block 2
 10
0.0
 20
0.0
 30
0.0
  0
INSERT
  5
18A
330
1F
100
AcDbEntity
  8
_U+30EC_U+30A4_U+30E4_U+30FC 1
100
AcDbBlockReference
  2
block 20
 10
0.0
 20
0.0
 30
0.0
  0
POLYLINE
  5
199
330
1F
100
AcDbEntity
  8
_U+30EC_U+30A4_U+30E4_U+30FC 1
 62
   179
420
  2234388
370
     9
100
AcDb2dPolyline
 66
     1
 10
0.0
 20
0.0
 30
0.0
  0
VERTEX
  5
19A
330
199
100
AcDbEntity
  8
_U+30EC_U+30A4_U+30E4_U+30FC 1
 62
   179
420
  2234388
370
     9
100
AcDbVertex
100
AcDb2dVertex
 10
78.20952606026431
 20
-135.2145010773076
 30
0.0
  0
VERTEX
  5
19B
330
199
100
AcDbEntity
  8
_U+30EC_U+30A4_U+30E4_U+30FC 1
 62
   179
420
  2234388
370
     9
100
AcDbVertex
100
AcDb2dVertex
 10
78.20952606026431
 20
-139.5993877428778
 30
0.0
  0
SEQEND
  5
19C
330
199
100
AcDbEntity
  8
_U+30EC_U+30A4_U+30E4_U+30FC 1
 62
   179
420
  2234388
370
     9
  0
POLYLINE
  5
19D
330
1F
100
AcDbEntity
  8
_U+30EC_U+30A4_U+30E4_U+30FC 1
 62
   179
420
  2234388
370
     9
100
AcDb2dPolyline
 66
     1
 10
0.0
 20
0.0
 30
0.0
  0
VERTEX
  5
19E
330
19D
100
AcDbEntity
  8
_U+30EC_U+30A4_U+30E4_U+30FC 1
 62
   179
420
  2234388
370
     9
100
AcDbVertex
100
AcDb2dVertex
 10
77.47952498063026
 20
-138.9000410763864
 30
0.0
  0
VERTEX
  5
19F
330
19D
100
AcDbEntity
  8
_U+30EC_U+30A4_U+30E4_U+30FC 1
 62
   179
420
  2234388
370
     9
100
AcDbVertex
100
AcDb2dVertex
 10
78.70941215862227
 20
-138.9000410763864
 30
0.0
  0
SEQEND
  5
1A0
330
19D
100
AcDbEntity
  8
_U+30EC_U+30A4_U+30E4_U+30FC 1
 62
   179
420
  2234388
370
     9
  0
POLYLINE
  5
1A1
330
1F
100
AcDbEntity
  8
_U+30EC_U+30A4_U+30E4_U+30FC 1
 62
   179
420
  2234388
370
     9
100
AcDb2dPolyline
 66
     1
 10
0.0
 20
0.0
 30
0.0
  0
VERTEX
  5
1A2
330
1A1
100
AcDbEntity
  8
_U+30EC_U+30A4_U+30E4_U+30FC 1
 62
   179
420
  2234388
370
     9
100
AcDbVertex
100
AcDb2dVertex
 10
77.47952498063026
 20
-139.5993877428778
 30
0.0
  0
VERTEX
  5
1A3
330
1A1
100
AcDbEntity
  8
_U+30EC_U+30A4_U+30E4_U+30FC 1
 62
   179
420
  2234388
370
     9
100
AcDbVertex
100
AcDb2dVertex
 10
78.70941215862227
 20
-139.5993877428778
 30
0.0
  0
SEQEND
  5
1A4
330
1A1
100
AcDbEntity
  8
_U+30EC_U+30A4_U+30E4_U+30FC 1
 62
   179
420
  2234388
370
     9
  0
SPLINE
  5
1A5
330
1F
100
AcDbEntity
  8
_U+30EC_U+30A4_U+30E4_U+30FC 1
 62
   179
420
  2234388
370
     9
100
AcDbSpline
210
0.0
220
0.0
230
1.0
 70
    11
 71
     3
 72
    17
 73
    13
 74
     0
 42
0.0000000001
 43
0.0000000001
 12
1.0
 22
0.0
 32
0.0
 13
1.0
 23
0.0
 33
0.0
 40
0.0
 40
0.0
 40
0.0
 40
0.0
 40
1.0
 40
1.0
 40
1.0
 40
2.0
 40
2.0
 40
2.0
 40
3.0
 40
3.0
 40
3.0
 40
4.0
 40
4.0
 40
4.0
 40
4.0
 10
78.25912661455446
 20
-139.5993877428778
 30
0.0
 10
78.25912661455446
 20
-139.5718357984401
 30
0.0
 10
78.23640772624518
 20
-139.5497871873345
 30
0.0
 10
78.20882050472676
 20
-139.5497871873345
 30
0.0
 10
78.18126856098523
 20
-139.5497871873345
 30
0.0
 10
78.15921995043662
 20
-139.5718357984401
 30
0.0
 10
78.15921995043662
 20
-139.5993877428778
 30
0.0
 10
78.15921995043662
 20
-139.6269749650932
 30
0.0
 10
78.18126856098523
 20
-139.6496938539767
 30
0.0
 10
78.20882050472676
 20
-139.6496938539767
 30
0.0
 10
78.23640772624518
 20
-139.6496938539767
 30
0.0
 10
78.25912661455446
 20
-139.6269749650932
 30
0.0
 10
78.25912661455446
 20
-139.5993877428778
 30
0.0
  0
SPLINE
  5
1A6
330
1F
100
AcDbEntity
  8
_U+30EC_U+30A4_U+30E4_U+30FC 1
 62
   179
420
  2234388
370
     9
100
AcDbSpline
210
0.0
220
0.0
230
1.0
 70
    11
 71
     3
 72
    17
 73
    13
 74
     0
 42
0.0000000001
 43
0.0000000001
 12
1.0
 22
0.0
 32
0.0
 13
1.0
 23
0.0
 33
0.0
 40
0.0
 40
0.0
 40
0.0
 40
0.0
 40
1.0
 40
1.0
 40
1.0
 40
2.0
 40
2.0
 40
2.0
 40
3.0
 40
3.0
 40
3.0
 40
4.0
 40
4.0
 40
4.0
 40
4.0
 10
78.25947939232323
 20
-138.9000410763864
 30
0.0
 10
78.25947939232323
 20
-138.8724891319486
 30
0.0
 10
78.23707800400585
 20
-138.8497349652875
 30
0.0
 10
78.20952606026431
 20
-138.8497349652875
 30
0.0
 10
78.18197411652278
 20
-138.8497349652875
 30
0.0
 10
78.1595727282054
 20
-138.8724891319486
 30
0.0
 10
78.1595727282054
 20
-138.9000410763864
 30
0.0
 10
78.1595727282054
 20
-138.9275930208235
 30
0.0
 10
78.18197411652278
 20
-138.9496416319291
 30
0.0
 10
78.20952606026431
 20
-138.9496416319291
 30
0.0
 10
78.23707800400585
 20
-138.9496416319291
 30
0.0
 10
78.25947939232323
 20
-138.9275930208235
 30
0.0
 10
78.25947939232323
 20
-138.9000410763864
 30
0.0
  0
ENDSEC
  0
SECTION
  2
OBJECTS
  0
DICTIONARY
  5
C
330
0
100
AcDbDictionary
281
     1
  3
ACAD_GROUP
350
D
  3
ACAD_LAYOUT
350
1A
  3
ACAD_MATERIAL
350
3B
  3
ACAD_MLEADERSTYLE
350
1A8
  3
ACAD_MLINESTYLE
350
17
  3
ACAD_PLOTSETTINGS
350
19
  3
ACAD_PLOTSTYLENAME
350
E
  3
ACAD_TABLESTYLE
350
1A7
  3
ACAD_VISUALSTYLE
350
2A
  0
SUN
  5
3F
330
29
100
AcDbSun
 90
        1
290
     0
 63
     7
421
 16777215
 40
1.0
291
     1
 91
  2455826
 92
 54000000
292
     0
 70
     2
 71
   256
280
     1
  0
DICTIONARY
  5
D
102
{ACAD_REACTORS
330
C
102
}
330
C
100
AcDbDictionary
281
     1
  0
DICTIONARY
  5
1A
102
{ACAD_REACTORS
330
C
102
}
330
C
100
AcDbDictionary
281
     1
  3
Layout1
350
1E
  3
Layout2
350
26
  3
Model
350
22
  0
DICTIONARY
  5
3B
102
{ACAD_REACTORS
330
C
102
}
330
C
100
AcDbDictionary
281
     1
  3
ByBlock
350
3D
  3
ByLayer
350
3C
  3
Global
350
3E
  0
DICTIONARY
  5
1A8
102
{ACAD_REACTORS
330
C
102
}
330
C
100
AcDbDictionary
281
     1
  0
DICTIONARY
  5
17
102
{ACAD_REACTORS
330
C
102
}
330
C
100
AcDbDictionary
281
     1
  3
Standard
350
18
  0
DICTIONARY
  5
19
102
{ACAD_REACTORS
330
C
102
}
330
C
100
AcDbDictionary
281
     1
  0
ACDBDICTIONARYWDFLT
  5
E
102
{ACAD_REACTORS
330
C
102
}
330
C
100
AcDbDictionary
281
     1
  3
Normal
350
F
100
AcDbDictionaryWithDefault
340
F
  0
DICTIONARY
  5
1A7
102
{ACAD_REACTORS
330
C
102
}
330
C
100
AcDbDictionary
281
     1
  0
DICTIONARY
  5
2A
102
{ACAD_REACTORS
330
C
102
}
330
C
100
AcDbDictionary
281
     1
  3
2dWireframe
350
2F
  3
3D Hidden
350
31
  3
3dWireframe
350
30
  3
Basic
350
32
  3
Brighten
350
36
  3
ColorChange
350
3A
  3
Conceptual
350
34
  3
Dim
350
35
  3
Facepattern
350
39
  3
Flat
350
2B
  3
FlatWithEdges
350
2C
  3
Gouraud
350
2D
  3
GouraudWithEdges
350
2E
  3
Linepattern
350
38
  3
Realistic
350
33
  3
Thicken
350
37
  0
LAYOUT
  5
1E
102
{ACAD_REACTORS
330
1A
102
}
330
1A
100
AcDbPlotSettings
  1

  2
none_device
  4

  6

 40
0.0
 41
0.0
 42
0.0
 43
0.0
 44
0.0
 45
0.0
 46
0.0
 47
0.0
 48
0.0
 49
0.0
140
0.0
141
0.0
142
1.0
143
1.0
 70
   688
 72
     0
 73
     0
 74
     5
  7

 75
    16
 76
     0
 77
     2
 78
   300
147
1.0
148
0.0
149
0.0
100
AcDbLayout
  1
Layout1
 70
     1
 71
     1
 10
0.0
 20
0.0
 11
12.0
 21
9.0
 12
0.0
 22
0.0
 32
0.0
 14
1.000000000000000E+20
 24
1.000000000000000E+20
 34
1.000000000000000E+20
 15
-1.000000000000000E+20
 25
-1.000000000000000E+20
 35
-1.000000000000000E+20
146
0.0
 13
0.0
 23
0.0
 33
0.0
 16
1.0
 26
0.0
 36
0.0
 17
0.0
 27
1.0
 37
0.0
 76
     0
330
1B
  0
LAYOUT
  5
26
102
{ACAD_REACTORS
330
1A
102
}
330
1A
100
AcDbPlotSettings
  1

  2
none_device
  4

  6

 40
0.0
 41
0.0
 42
0.0
 43
0.0
 44
0.0
 45
0.0
 46
0.0
 47
0.0
 48
0.0
 49
0.0
140
0.0
141
0.0
142
1.0
143
1.0
 70
   688
 72
     0
 73
     0
 74
     5
  7

 75
    16
 76
     0
 77
     2
 78
   300
147
1.0
148
0.0
149
0.0
100
AcDbLayout
  1
Layout2
 70
     1
 71
     2
 10
0.0
 20
0.0
 11
0.0
 21
0.0
 12
0.0
 22
0.0
 32
0.0
 14
0.0
 24
0.0
 34
0.0
 15
0.0
 25
0.0
 35
0.0
146
0.0
 13
0.0
 23
0.0
 33
0.0
 16
1.0
 26
0.0
 36
0.0
 17
0.0
 27
1.0
 37
0.0
 76
     0
330
23
  0
LAYOUT
  5
22
102
{ACAD_REACTORS
330
1A
102
}
330
1A
100
AcDbPlotSettings
  1

  2
none_device
  4

  6

 40
0.0
 41
0.0
 42
0.0
 43
0.0
 44
0.0
 45
0.0
 46
0.0
 47
0.0
 48
0.0
 49
0.0
140
0.0
141
0.0
142
1.0
143
1.0
 70
  1712
 72
     0
 73
     0
 74
     0
  7

 75
     0
 76
     0
 77
     2
 78
   300
147
1.0
148
0.0
149
0.0
100
AcDbLayout
  1
Model
 70
     1
 71
     0
 10
0.0
 20
0.0
 11
12.0
 21
9.0
 12
0.0
 22
0.0
 32
0.0
 14
1.000000000000000E+20
 24
1.000000000000000E+20
 34
1.000000000000000E+20
 15
-1.000000000000000E+20
 25
-1.000000000000000E+20
 35
-1.000000000000000E+20
146
0.0
 13
0.0
 23
0.0
 33
0.0
 16
1.0
 26
0.0
 36
0.0
 17
0.0
 27
1.0
 37
0.0
 76
     0
330
1F
331
29
  0
MATERIAL
  5
3D
102
{ACAD_REACTORS
330
3B
102
}
330
3B
100
AcDbMaterial
  1
ByBlock
 72
     1
 94
      127
  0
MATERIAL
  5
3C
102
{ACAD_REACTORS
330
3B
102
}
330
3B
100
AcDbMaterial
  1
ByLayer
 72
     1
 94
      127
  0
MATERIAL
  5
3E
102
{ACAD_REACTORS
330
3B
102
}
330
3B
100
AcDbMaterial
  1
Global
 72
     1
 94
      127
  0
MLINESTYLE
  5
18
102
{ACAD_REACTORS
330
17
102
}
330
17
100
AcDbMlineStyle
  2
Standard
 70
     0
  3

 62
   256
 51
90.0
 52
90.0
 71
     2
 49
0.5
 62
   256
  6
BYLAYER
 49
-0.5
 62
   256
  6
BYLAYER
  0
ACDBPLACEHOLDER
  5
F
102
{ACAD_REACTORS
330
E
102
}
330
E
  0
VISUALSTYLE
  5
2F
102
{ACAD_REACTORS
330
2A
102
}
330
2A
100
AcDbVisualStyle
  2
2dWireframe
 70
     4
177
     2
291
     0
 71
     0
176
     1
 72
     2
176
     1
 73
     0
176
     1
 90
        0
176
     1
 40
-0.6
176
     1
 41
-30.0
176
     1
 62
     5
 63
     7
421
 16777215
176
     1
 74
     1
176
     1
 91
        4
176
     1
 64
     7
176
     1
 65
   257
176
     1
 75
     1
176
     1
175
     1
176
     1
 42
1.0
176
     1
 92
        0
176
     1
 66
   257
176
     1
 43
1.0
176
     1
 76
     1
176
     1
 77
     6
176
     1
 78
     2
176
     1
 67
     7
176
     1
 79
     5
176
     1
170
     0
176
     1
171
     0
176
     1
290
     0
176
     1
 93
        1
176
     1
 44
0.0
176
     1
173
     0
176
     1
  0
VISUALSTYLE
  5
31
102
{ACAD_REACTORS
330
2A
102
}
330
2A
100
AcDbVisualStyle
  2
3D Hidden
 70
     6
177
     2
291
     0
 71
     1
176
     1
 72
     2
176
     1
 73
     2
176
     1
 90
        0
176
     1
 40
-0.6
176
     1
 41
-30.0
176
     1
 62
     5
 63
     7
421
 16777215
176
     1
 74
     2
176
     1
 91
        2
176
     1
 64
     7
176
     1
 65
   257
176
     1
 75
     2
176
     1
175
     1
176
     1
 42
40.0
176
     1
 92
        0
176
     1
 66
   257
176
     1
 43
1.0
176
     1
 76
     1
176
     1
 77
     6
176
     1
 78
     2
176
     1
 67
     7
176
     1
 79
     3
176
     1
170
     0
176
     1
171
     0
176
     1
290
     0
176
     1
 93
        1
176
     1
 44
0.0
176
     1
173
     0
176
     1
  0
VISUALSTYLE
  5
30
102
{ACAD_REACTORS
330
2A
102
}
330
2A
100
AcDbVisualStyle
  2
3dWireframe
 70
     5
177
     2
291
     0
 71
     0
176
     1
 72
     2
176
     1
 73
     0
176
     1
 90
        0
176
     1
 40
-0.6
176
     1
 41
-30.0
176
     1
 62
     5
 63
     7
421
 16777215
176
     1
 74
     1
176
     1
 91
        4
176
     1
 64
     7
176
     1
 65
   257
176
     1
 75
     1
176
     1
175
     1
176
     1
 42
1.0
176
     1
 92
        0
176
     1
 66
   257
176
     1
 43
1.0
176
     1
 76
     1
176
     1
 77
     6
176
     1
 78
     2
176
     1
 67
     7
176
     1
 79
     5
176
     1
170
     0
176
     1
171
     0
176
     1
290
     0
176
     1
 93
        1
176
     1
 44
0.0
176
     1
173
     0
176
     1
  0
VISUALSTYLE
  5
32
102
{ACAD_REACTORS
330
2A
102
}
330
2A
100
AcDbVisualStyle
  2
Basic
 70
     7
177
     2
291
     1
 71
     1
176
     1
 72
     0
176
     1
 73
     1
176
     1
 90
        0
176
     1
 40
-0.6
176
     1
 41
-30.0
176
     1
 62
     5
 63
     7
421
 16777215
176
     1
 74
     0
176
     1
 91
        4
176
     1
 64
     7
176
     1
 65
   257
176
     1
 75
     1
176
     1
175
     1
176
     1
 42
1.0
176
     1
 92
        8
176
     1
 66
     7
176
     1
 43
1.0
176
     1
 76
     1
176
     1
 77
     6
176
     1
 78
     2
176
     1
 67
     7
176
     1
 79
     5
176
     1
170
     0
176
     1
171
     0
176
     1
290
     0
176
     1
 93
        1
176
     1
 44
0.0
176
     1
173
     0
176
     1
  0
VISUALSTYLE
  5
36
102
{ACAD_REACTORS
330
2A
102
}
330
2A
100
AcDbVisualStyle
  2
Brighten
 70
    12
177
     2
291
     1
 71
     2
176
     1
 72
     2
176
     1
 73
     0
176
     1
 90
        0
176
     1
 40
-0.6
176
     1
 41
-30.0
176
     1
 62
     5
 63
     7
421
 16777215
176
     1
 74
     1
176
     1
 91
        4
176
     1
 64
     7
176
     1
 65
   257
176
     1
 75
     1
176
     1
175
     1
176
     1
 42
1.0
176
     1
 92
        8
176
     1
 66
     7
176
     1
 43
1.0
176
     1
 76
     1
176
     1
 77
     6
176
     1
 78
     2
176
     1
 67
     7
176
     1
 79
     5
176
     1
170
     0
176
     1
171
     0
176
     1
290
     0
176
     1
 93
        1
176
     1
 44
50.0
176
     1
173
     0
176
     1
  0
VISUALSTYLE
  5
3A
102
{ACAD_REACTORS
330
2A
102
}
330
2A
100
AcDbVisualStyle
  2
ColorChange
 70
    16
177
     2
291
     1
 71
     2
176
     1
 72
     2
176
     1
 73
     3
176
     1
 90
        0
176
     1
 40
-0.6
176
     1
 41
-30.0
176
     1
 62
     5
 63
     8
421
  8421504
176
     1
 74
     1
176
     1
 91
        4
176
     1
 64
     7
176
     1
 65
   257
176
     1
 75
     1
176
     1
175
     1
176
     1
 42
1.0
176
     1
 92
        8
176
     1
 66
     8
424
  8421504
176
     1
 43
1.0
176
     1
 76
     1
176
     1
 77
     6
176
     1
 78
     2
176
     1
 67
     7
176
     1
 79
     5
176
     1
170
     0
176
     1
171
     0
176
     1
290
     0
176
     1
 93
        1
176
     1
 44
0.0
176
     1
173
     0
176
     1
  0
VISUALSTYLE
  5
34
102
{ACAD_REACTORS
330
2A
102
}
330
2A
100
AcDbVisualStyle
  2
Conceptual
 70
     9
177
     2
291
     0
 71
     3
176
     1
 72
     2
176
     1
 73
     0
176
     1
 90
        0
176
     1
 40
-0.6
176
     1
 41
-30.0
176
     1
 62
     5
 63
     7
421
 16777215
176
     1
 74
     2
176
     1
 91
        2
176
     1
 64
     7
176
     1
 65
   257
176
     1
 75
     1
176
     1
175
     1
176
     1
 42
40.0
176
     1
 92
        8
176
     1
 66
     7
176
     1
 43
1.0
176
     1
 76
     1
176
     1
 77
     6
176
     1
 78
     2
176
     1
 67
     7
176
     1
 79
     3
176
     1
170
     0
176
     1
171
     0
176
     1
290
     0
176
     1
 93
        1
176
     1
 44
0.0
176
     1
173
     0
176
     1
  0
VISUALSTYLE
  5
35
102
{ACAD_REACTORS
330
2A
102
}
330
2A
100
AcDbVisualStyle
  2
Dim
 70
    11
177
     2
291
     1
 71
     2
176
     1
 72
     2
176
     1
 73
     0
176
     1
 90
        0
176
     1
 40
-0.6
176
     1
 41
-30.0
176
     1
 62
     5
 63
     7
421
 16777215
176
     1
 74
     1
176
     1
 91
        4
176
     1
 64
     7
176
     1
 65
   257
176
     1
 75
     1
176
     1
175
     1
176
     1
 42
1.0
176
     1
 92
        8
176
     1
 66
     7
176
     1
 43
1.0
176
     1
 76
     1
176
     1
 77
     6
176
     1
 78
     2
176
     1
 67
     7
176
     1
 79
     5
176
     1
170
     0
176
     1
171
     0
176
     1
290
     0
176
     1
 93
        1
176
     1
 44
-50.0
176
     1
173
     0
176
     1
  0
VISUALSTYLE
  5
39
102
{ACAD_REACTORS
330
2A
102
}
330
2A
100
AcDbVisualStyle
  2
Facepattern
 70
    15
177
     2
291
     1
 71
     2
176
     1
 72
     2
176
     1
 73
     0
176
     1
 90
        0
176
     1
 40
-0.6
176
     1
 41
-30.0
176
     1
 62
     5
 63
     7
421
 16777215
176
     1
 74
     1
176
     1
 91
        4
176
     1
 64
     7
176
     1
 65
   257
176
     1
 75
     1
176
     1
175
     1
176
     1
 42
1.0
176
     1
 92
        8
176
     1
 66
     7
176
     1
 43
1.0
176
     1
 76
     1
176
     1
 77
     6
176
     1
 78
     2
176
     1
 67
     7
176
     1
 79
     5
176
     1
170
     0
176
     1
171
     0
176
     1
290
     0
176
     1
 93
        1
176
     1
 44
0.0
176
     1
173
     0
176
     1
  0
VISUALSTYLE
  5
2B
102
{ACAD_REACTORS
330
2A
102
}
330
2A
100
AcDbVisualStyle
  2
Flat
 70
     0
177
     2
291
     1
 71
     2
176
     1
 72
     1
176
     1
 73
     1
176
     1
 90
        2
176
     1
 40
-0.6
176
     1
 41
30.0
176
     1
 62
     5
 63
     7
421
 16777215
176
     1
 74
     0
176
     1
 91
        4
176
     1
 64
     7
176
     1
 65
   257
176
     1
 75
     1
176
     1
175
     1
176
     1
 42
1.0
176
     1
 92
        8
176
     1
 66
     7
176
     1
 43
1.0
176
     1
 76
     1
176
     1
 77
     6
176
     1
 78
     2
176
     1
 67
     7
176
     1
 79
     5
176
     1
170
     0
176
     1
171
     0
176
     1
290
     0
176
     1
 93
       13
176
     1
 44
0.0
176
     1
173
     0
176
     1
  0
VISUALSTYLE
  5
2C
102
{ACAD_REACTORS
330
2A
102
}
330
2A
100
AcDbVisualStyle
  2
FlatWithEdges
 70
     1
177
     2
291
     1
 71
     2
176
     1
 72
     1
176
     1
 73
     1
176
     1
 90
        2
176
     1
 40
-0.6
176
     1
 41
30.0
176
     1
 62
     5
 63
     7
421
 16777215
176
     1
 74
     1
176
     1
 91
        4
176
     1
 64
     7
176
     1
 65
   257
176
     1
 75
     1
176
     1
175
     1
176
     1
 42
1.0
176
     1
 92
        0
176
     1
 66
   257
176
     1
 43
1.0
176
     1
 76
     1
176
     1
 77
     6
176
     1
 78
     2
176
     1
 67
     7
176
     1
 79
     5
176
     1
170
     0
176
     1
171
     0
176
     1
290
     0
176
     1
 93
       13
176
     1
 44
0.0
176
     1
173
     0
176
     1
  0
VISUALSTYLE
  5
2D
102
{ACAD_REACTORS
330
2A
102
}
330
2A
100
AcDbVisualStyle
  2
Gouraud
 70
     2
177
     2
291
     1
 71
     2
176
     1
 72
     2
176
     1
 73
     1
176
     1
 90
        2
176
     1
 40
-0.6
176
     1
 41
30.0
176
     1
 62
     5
 63
     7
421
 16777215
176
     1
 74
     0
176
     1
 91
        4
176
     1
 64
     7
176
     1
 65
   257
176
     1
 75
     1
176
     1
175
     1
176
     1
 42
1.0
176
     1
 92
        0
176
     1
 66
     7
176
     1
 43
1.0
176
     1
 76
     1
176
     1
 77
     6
176
     1
 78
     2
176
     1
 67
     7
176
     1
 79
     5
176
     1
170
     0
176
     1
171
     0
176
     1
290
     0
176
     1
 93
       13
176
     1
 44
0.0
176
     1
173
     0
176
     1
  0
VISUALSTYLE
  5
2E
102
{ACAD_REACTORS
330
2A
102
}
330
2A
100
AcDbVisualStyle
  2
GouraudWithEdges
 70
     3
177
     2
291
     1
 71
     2
176
     1
 72
     2
176
     1
 73
     1
176
     1
 90
        2
176
     1
 40
-0.6
176
     1
 41
30.0
176
     1
 62
     5
 63
     7
421
 16777215
176
     1
 74
     1
176
     1
 91
        4
176
     1
 64
     7
176
     1
 65
   257
176
     1
 75
     1
176
     1
175
     1
176
     1
 42
1.0
176
     1
 92
        0
176
     1
 66
   257
176
     1
 43
1.0
176
     1
 76
     1
176
     1
 77
     6
176
     1
 78
     2
176
     1
 67
     7
176
     1
 79
     5
176
     1
170
     0
176
     1
171
     0
176
     1
290
     0
176
     1
 93
       13
176
     1
 44
0.0
176
     1
173
     0
176
     1
  0
VISUALSTYLE
  5
38
102
{ACAD_REACTORS
330
2A
102
}
330
2A
100
AcDbVisualStyle
  2
Linepattern
 70
    14
177
     2
291
     1
 71
     2
176
     1
 72
     2
176
     1
 73
     0
176
     1
 90
        0
176
     1
 40
-0.6
176
     1
 41
-30.0
176
     1
 62
     5
 63
     7
421
 16777215
176
     1
 74
     1
176
     1
 91
        4
176
     1
 64
     7
176
     1
 65
   257
176
     1
 75
     7
176
     1
175
     7
176
     1
 42
1.0
176
     1
 92
        8
176
     1
 66
     7
176
     1
 43
1.0
176
     1
 76
     1
176
     1
 77
     6
176
     1
 78
     2
176
     1
 67
     7
176
     1
 79
     5
176
     1
170
     0
176
     1
171
     0
176
     1
290
     0
176
     1
 93
        1
176
     1
 44
0.0
176
     1
173
     0
176
     1
  0
VISUALSTYLE
  5
33
102
{ACAD_REACTORS
330
2A
102
}
330
2A
100
AcDbVisualStyle
  2
Realistic
 70
     8
177
     2
291
     0
 71
     2
176
     1
 72
     2
176
     1
 73
     0
176
     1
 90
        0
176
     1
 40
-0.6
176
     1
 41
-30.0
176
     1
 62
     5
 63
     7
421
 16777215
176
     1
 74
     1
176
     1
 91
        0
176
     1
 64
     7
176
     1
 65
   257
176
     1
 75
     1
176
     1
175
     1
176
     1
 42
1.0
176
     1
 92
        8
176
     1
 66
     8
424
  7895160
176
     1
 43
1.0
176
     1
 76
     1
176
     1
 77
     6
176
     1
 78
     2
176
     1
 67
     7
176
     1
 79
     5
176
     1
170
     0
176
     1
171
     0
176
     1
290
     0
176
     1
 93
       13
176
     1
 44
0.0
176
     1
173
     0
176
     1
  0
VISUALSTYLE
  5
37
102
{ACAD_REACTORS
330
2A
102
}
330
2A
100
AcDbVisualStyle
  2
Thicken
 70
    13
177
     2
291
     1
 71
     2
176
     1
 72
     2
176
     1
 73
     0
176
     1
 90
        0
176
     1
 40
-0.6
176
     1
 41
-30.0
176
     1
 62
     5
 63
     7
421
 16777215
176
     1
 74
     1
176
     1
 91
        4
176
     1
 64
     7
176
     1
 65
   257
176
     1
 75
     1
176
     1
175
     1
176
     1
 42
1.0
176
     1
 92
       12
176
     1
 66
     7
176
     1
 43
1.0
176
     1
 76
     1
176
     1
 77
     6
176
     1
 78
     2
176
     1
 67
     7
176
     1
 79
     5
176
     1
170
     0
176
     1
171
     0
176
     1
290
     0
176
     1
 93
        1
176
     1
 44
0.0
176
     1
173
     0
176
     1
  0
ENDSEC
  0
EOF
