  0
SECTION
  2
HEADER
  9
$ACADVER
  1
AC1024
  9
$ACADMAINTVER
 70
     6
  9
$DWGCODEPAGE
  3
UNDEFINED
  9
$INSBASE
 10
0.0
 20
0.0
 30
0.0
  9
$EXTMIN
 10
1.000000000000000E+20
 20
1.000000000000000E+20
 30
1.000000000000000E+20
  9
$EXTMAX
 10
-1.000000000000000E+20
 20
-1.000000000000000E+20
 30
-1.000000000000000E+20
  9
$LIMMIN
 10
0.0
 20
0.0
  9
$LIMMAX
 10
12.0
 20
9.0
  9
$ORTHOMODE
 70
     0
  9
$REGENMODE
 70
     1
  9
$FILLMODE
 70
     1
  9
$QTEXTMODE
 70
     0
  9
$MIRRTEXT
 70
     1
  9
$LTSCALE
 40
1.0
  9
$ATTMODE
 70
     1
  9
$TEXTSIZE
 40
0.2
  9
$TRACEWID
 40
0.05
  9
$TEXTSTYLE
  7
Standard
  9
$CLAYER
  8
0
  9
$CELTYPE
  6
ByLayer
  9
$CECOLOR
 62
   256
  9
$CELTSCALE
 40
1.0
  9
$DISPSILH
 70
     0
  9
$DIMSCALE
 40
1.0
  9
$DIMASZ
 40
0.18
  9
$DIMEXO
 40
0.0625
  9
$DIMDLI
 40
0.38
  9
$DIMRND
 40
0.0
  9
$DIMDLE
 40
0.0
  9
$DIMEXE
 40
0.18
  9
$DIMTP
 40
0.0
  9
$DIMTM
 40
0.0
  9
$DIMTXT
 40
0.18
  9
$DIMCEN
 40
0.09
  9
$DIMTSZ
 40
0.0
  9
$DIMTOL
 70
     0
  9
$DIMLIM
 70
     0
  9
$DIMTIH
 70
     1
  9
$DIMTOH
 70
     1
  9
$DIMSE1
 70
     0
  9
$DIMSE2
 70
     0
  9
$DIMTAD
 70
     0
  9
$DIMZIN
 70
     0
  9
$DIMBLK
  1

  9
$DIMASO
 70
     1
  9
$DIMSHO
 70
     1
  9
$DIMPOST
  1

  9
$DIMAPOST
  1

  9
$DIMALT
 70
     0
  9
$DIMALTD
 70
     2
  9
$DIMALTF
 40
25.4
  9
$DIMLFAC
 40
1.0
  9
$DIMTOFL
 70
     0
  9
$DIMTVP
 40
0.0
  9
$DIMTIX
 70
     0
  9
$DIMSOXD
 70
     0
  9
$DIMSAH
 70
     0
  9
$DIMBLK1
  1

  9
$DIMBLK2
  1

  9
$DIMSTYLE
  2
Standard
  9
$DIMCLRD
 70
     0
  9
$DIMCLRE
 70
     0
  9
$DIMCLRT
 70
     0
  9
$DIMTFAC
 40
1.0
  9
$DIMGAP
 40
0.09
  9
$DIMJUST
 70
     0
  9
$DIMSD1
 70
     0
  9
$DIMSD2
 70
     0
  9
$DIMTOLJ
 70
     1
  9
$DIMTZIN
 70
     0
  9
$DIMALTZ
 70
     0
  9
$DIMALTTZ
 70
     0
  9
$DIMUPT
 70
     0
  9
$DIMDEC
 70
     4
  9
$DIMTDEC
 70
     4
  9
$DIMALTU
 70
     2
  9
$DIMALTTD
 70
     2
  9
$DIMTXSTY
  7
Standard
  9
$DIMAUNIT
 70
     0
  9
$DIMADEC
 70
     0
  9
$DIMALTRND
 40
0.0
  9
$DIMAZIN
 70
     0
  9
$DIMDSEP
 70
    46
  9
$DIMATFIT
 70
     3
  9
$DIMFRAC
 70
     0
  9
$DIMLDRBLK
  1

  9
$DIMLUNIT
 70
     2
  9
$DIMLWD
 70
    -2
  9
$DIMLWE
 70
    -2
  9
$DIMTMOVE
 70
     0
  9
$DIMFXL
 40
1.0
  9
$DIMFXLON
 70
     0
  9
$DIMJOGANG
 40
0.7853981633974483
  9
$DIMTFILL
 70
     0
  9
$DIMTFILLCLR
 70
     0
  9
$DIMARCSYM
 70
     0
  9
$DIMLTYPE
  6

  9
$DIMLTEX1
  6

  9
$DIMLTEX2
  6

  9
$DIMTXTDIRECTION
 70
     0
  9
$LUNITS
 70
     2
  9
$LUPREC
 70
     4
  9
$SKETCHINC
 40
0.1
  9
$FILLETRAD
 40
0.5
  9
$AUNITS
 70
     0
  9
$AUPREC
 70
     0
  9
$MENU
  1
.
  9
$ELEVATION
 40
0.0
  9
$PELEVATION
 40
0.0
  9
$THICKNESS
 40
0.0
  9
$LIMCHECK
 70
     0
  9
$CHAMFERA
 40
0.5
  9
$CHAMFERB
 40
0.5
  9
$CHAMFERC
 40
1.0
  9
$CHAMFERD
 40
0.0
  9
$SKPOLY
 70
     0
  9
$TDCREATE
 40
2457917.646354167
  9
$TDUCREATE
 40
2457917.271354167
  9
$TDUPDATE
 40
2457917.646354167
  9
$TDUUPDATE
 40
2457917.271354167
  9
$TDINDWG
 40
0.0000000116
  9
$TDUSRTIMER
 40
0.0000000116
  9
$USRTIMER
 70
     1
  9
$ANGBASE
 50
0.0
  9
$ANGDIR
 70
     0
  9
$PDMODE
 70
     0
  9
$PDSIZE
 40
0.0
  9
$PLINEWID
 40
0.0
  9
$SPLFRAME
 70
     0
  9
$SPLINETYPE
 70
     6
  9
$SPLINESEGS
 70
     8
  9
$HANDSEED
  5
18F
  9
$SURFTAB1
 70
     6
  9
$SURFTAB2
 70
     6
  9
$SURFTYPE
 70
     6
  9
$SURFU
 70
     6
  9
$SURFV
 70
     6
  9
$UCSBASE
  2

  9
$UCSNAME
  2

  9
$UCSORG
 10
0.0
 20
0.0
 30
0.0
  9
$UCSXDIR
 10
1.0
 20
0.0
 30
0.0
  9
$UCSYDIR
 10
0.0
 20
1.0
 30
0.0
  9
$UCSORTHOREF
  2

  9
$UCSORTHOVIEW
 70
     0
  9
$UCSORGTOP
 10
0.0
 20
0.0
 30
0.0
  9
$UCSORGBOTTOM
 10
0.0
 20
0.0
 30
0.0
  9
$UCSORGLEFT
 10
0.0
 20
0.0
 30
0.0
  9
$UCSORGRIGHT
 10
0.0
 20
0.0
 30
0.0
  9
$UCSORGFRONT
 10
0.0
 20
0.0
 30
0.0
  9
$UCSORGBACK
 10
0.0
 20
0.0
 30
0.0
  9
$PUCSBASE
  2

  9
$PUCSNAME
  2

  9
$PUCSORG
 10
0.0
 20
0.0
 30
0.0
  9
$PUCSXDIR
 10
1.0
 20
0.0
 30
0.0
  9
$PUCSYDIR
 10
0.0
 20
1.0
 30
0.0
  9
$PUCSORTHOREF
  2

  9
$PUCSORTHOVIEW
 70
     0
  9
$PUCSORGTOP
 10
0.0
 20
0.0
 30
0.0
  9
$PUCSORGBOTTOM
 10
0.0
 20
0.0
 30
0.0
  9
$PUCSORGLEFT
 10
0.0
 20
0.0
 30
0.0
  9
$PUCSORGRIGHT
 10
0.0
 20
0.0
 30
0.0
  9
$PUCSORGFRONT
 10
0.0
 20
0.0
 30
0.0
  9
$PUCSORGBACK
 10
0.0
 20
0.0
 30
0.0
  9
$USERI1
 70
     0
  9
$USERI2
 70
     0
  9
$USERI3
 70
     0
  9
$USERI4
 70
     0
  9
$USERI5
 70
     0
  9
$USERR1
 40
0.0
  9
$USERR2
 40
0.0
  9
$USERR3
 40
0.0
  9
$USERR4
 40
0.0
  9
$USERR5
 40
0.0
  9
$WORLDVIEW
 70
     1
  9
$SHADEDGE
 70
     3
  9
$SHADEDIF
 70
    70
  9
$TILEMODE
 70
     1
  9
$MAXACTVP
 70
    64
  9
$PINSBASE
 10
0.0
 20
0.0
 30
0.0
  9
$PLIMCHECK
 70
     0
  9
$PEXTMIN
 10
1.000000000000000E+20
 20
1.000000000000000E+20
 30
1.000000000000000E+20
  9
$PEXTMAX
 10
-1.000000000000000E+20
 20
-1.000000000000000E+20
 30
-1.000000000000000E+20
  9
$PLIMMIN
 10
0.0
 20
0.0
  9
$PLIMMAX
 10
12.0
 20
9.0
  9
$UNITMODE
 70
     0
  9
$VISRETAIN
 70
     1
  9
$PLINEGEN
 70
     0
  9
$PSLTSCALE
 70
     1
  9
$TREEDEPTH
 70
  3020
  9
$CMLSTYLE
  2
Standard
  9
$CMLJUST
 70
     0
  9
$CMLSCALE
 40
1.0
  9
$PROXYGRAPHICS
 70
     1
  9
$MEASUREMENT
 70
     0
  9
$CELWEIGHT
370
    -1
  9
$ENDCAPS
280
     0
  9
$JOINSTYLE
280
     0
  9
$LWDISPLAY
290
     1
  9
$INSUNITS
 70
     1
  9
$HYPERLINKBASE
  1

  9
$STYLESHEET
  1

  9
$XEDIT
290
     1
  9
$CEPSNTYPE
380
     0
  9
$PSTYLEMODE
290
     1
  9
$FINGERPRINTGUID
  2
{A1F5288E-CEF3-5CBD-21A2-EC9B76C669D2}
  9
$VERSIONGUID
  2
{FAEB1C32-E019-11D5-929B-00C0DF256EC4}
  9
$EXTNAMES
290
     1
  9
$PSVPSCALE
 40
0.0
  9
$OLESTARTUP
290
     0
  9
$SORTENTS
280
   127
  9
$INDEXCTL
280
     0
  9
$HIDETEXT
280
     1
  9
$XCLIPFRAME
280
     2
  9
$HALOGAP
280
     0
  9
$OBSCOLOR
 70
   257
  9
$OBSLTYPE
280
     0
  9
$INTERSECTIONDISPLAY
280
     0
  9
$INTERSECTIONCOLOR
 70
   257
  9
$DIMASSOC
280
     2
  9
$PROJECTNAME
  1

  9
$CAMERADISPLAY
290
     0
  9
$LENSLENGTH
 40
50.0
  9
$CAMERAHEIGHT
 40
0.0
  9
$STEPSPERSEC
 40
2.0
  9
$STEPSIZE
 40
6.0
  9
$3DDWFPREC
 40
2.0
  9
$PSOLWIDTH
 40
0.25
  9
$PSOLHEIGHT
 40
4.0
  9
$LOFTANG1
 40
1.570796326794897
  9
$LOFTANG2
 40
1.570796326794897
  9
$LOFTMAG1
 40
0.0
  9
$LOFTMAG2
 40
0.0
  9
$LOFTPARAM
 70
     7
  9
$LOFTNORMALS
280
     1
  9
$LATITUDE
 40
37.795
  9
$LONGITUDE
 40
-122.394
  9
$NORTHDIRECTION
 40
0.0
  9
$TIMEZONE
 70
 -8000
  9
$LIGHTGLYPHDISPLAY
280
     1
  9
$TILEMODELIGHTSYNCH
280
     1
  9
$CMATERIAL
347
3C
  9
$SOLIDHIST
280
     1
  9
$SHOWHIST
280
     1
  9
$DWFFRAME
280
     2
  9
$DGNFRAME
280
     2
  9
$REALWORLDSCALE
290
     1
  9
$INTERFERECOLOR
 62
   256
  9
$CSHADOW
280
     0
  9
$SHADOWPLANELOCATION
 40
0.0
  0
ENDSEC
  0
SECTION
  2
CLASSES
  0
CLASS
  1
ACDBDICTIONARYWDFLT
  2
AcDbDictionaryWithDefault
  3
ObjectDBX Classes
 90
        0
 91
        4
280
     0
281
     0
  0
CLASS
  1
VISUALSTYLE
  2
AcDbVisualStyle
  3
ObjectDBX Classes
 90
     4095
 91
        4
280
     0
281
     0
  0
CLASS
  1
MATERIAL
  2
AcDbMaterial
  3
ObjectDBX Classes
 90
     1153
 91
        4
280
     0
281
     0
  0
CLASS
  1
SUN
  2
AcDbSun
  3
SCENEOE
 90
     1024
 91
        4
280
     0
281
     0
  0
ENDSEC
  0
SECTION
  2
TABLES
  0
TABLE
  2
VPORT
  5
8
330
0
100
AcDbSymbolTable
 70
     1
  0
VPORT
  5
29
330
8
100
AcDbSymbolTableRecord
100
AcDbViewportTableRecord
  2
*Active
 70
     0
 10
0.0
 20
0.0
 11
1.0
 21
1.0
 12
0.0
 22
0.0
 13
0.0
 23
0.0
 14
0.5
 24
0.5
 15
0.5
 25
0.5
 16
0.0
 26
0.0
 36
1.0
 17
91.00082462281999
 27
-128.4993055234307
 37
0.0
 40
256.9986110468615
 41
0.7081814508812795
 42
50.0
 43
0.0
 44
0.0
 50
0.0
 51
0.0
 71
     0
 72
   100
 73
     1
 74
     3
 75
     0
 76
     0
 77
     0
 78
     0
281
     0
 65
     1
110
0.0
120
0.0
130
0.0
111
1.0
121
0.0
131
0.0
112
0.0
122
1.0
132
0.0
 79
     0
146
0.0
 60
     3
 61
     5
292
     1
282
     1
141
0.0
142
0.0
 63
   250
361
3F
  0
ENDTAB
  0
TABLE
  2
LTYPE
  5
5
330
0
100
AcDbSymbolTable
 70
     1
  0
LTYPE
  5
14
330
5
100
AcDbSymbolTableRecord
100
AcDbLinetypeTableRecord
  2
ByBlock
 70
     0
  3

 72
    65
 73
     0
 40
0.0
  0
LTYPE
  5
15
330
5
100
AcDbSymbolTableRecord
100
AcDbLinetypeTableRecord
  2
ByLayer
 70
     0
  3

 72
    65
 73
     0
 40
0.0
  0
LTYPE
  5
16
330
5
100
AcDbSymbolTableRecord
100
AcDbLinetypeTableRecord
  2
Continuous
 70
     0
  3
Solid line
 72
    65
 73
     0
 40
0.0
  0
ENDTAB
  0
TABLE
  2
LAYER
  5
2
330
0
100
AcDbSymbolTable
 70
     2
  0
LAYER
  5
10
330
2
100
AcDbSymbolTableRecord
100
AcDbLayerTableRecord
  2
0
 70
     0
 62
     7
  6
Continuous
370
    -3
390
F
347
3E
  0
LAYER
  5
40
330
2
100
AcDbSymbolTableRecord
100
AcDbLayerTableRecord
  2
_U+30EC_U+30A4_U+30E4_U+30FC 1
 70
     0
 62
     7
  6
Continuous
370
    -3
390
F
347
3E
  0
ENDTAB
  0
TABLE
  2
STYLE
  5
3
330
0
100
AcDbSymbolTable
 70
     1
  0
STYLE
  5
11
330
3
100
AcDbSymbolTableRecord
100
AcDbTextStyleTableRecord
  2
Standard
 70
     0
 40
0.0
 41
1.0
 50
0.0
 71
     0
 42
0.2
  3
txt
  4

  0
ENDTAB
  0
TABLE
  2
VIEW
  5
6
330
0
100
AcDbSymbolTable
 70
     0
  0
ENDTAB
  0
TABLE
  2
UCS
  5
7
330
0
100
AcDbSymbolTable
 70
     0
  0
ENDTAB
  0
TABLE
  2
APPID
  5
9
330
0
100
AcDbSymbolTable
 70
     1
  0
APPID
  5
12
330
9
100
AcDbSymbolTableRecord
100
AcDbRegAppTableRecord
  2
ACAD
 70
     0
  0
ENDTAB
  0
TABLE
  2
DIMSTYLE
  5
A
330
0
100
AcDbSymbolTable
 70
     1
100
AcDbDimStyleTable
  0
DIMSTYLE
105
27
330
A
100
AcDbSymbolTableRecord
100
AcDbDimStyleTableRecord
  2
Standard
 70
     0
178
     0
340
11
  0
ENDTAB
  0
TABLE
  2
BLOCK_RECORD
  5
1
330
0
100
AcDbSymbolTable
 70
    21
  0
BLOCK_RECORD
  5
1F
330
1
100
AcDbSymbolTableRecord
100
AcDbBlockTableRecord
  2
*Model_Space
340
22
 70
     0
280
     1
281
     0
  0
BLOCK_RECORD
  5
1B
330
1
100
AcDbSymbolTableRecord
100
AcDbBlockTableRecord
  2
*Paper_Space
340
1E
 70
     0
280
     1
281
     0
  0
BLOCK_RECORD
  5
23
330
1
100
AcDbSymbolTableRecord
100
AcDbBlockTableRecord
  2
*Paper_Space0
340
26
 70
     0
280
     1
281
     0
  0
BLOCK_RECORD
  5
41
330
1
100
AcDbSymbolTableRecord
100
AcDbBlockTableRecord
  2
block 2
340
0
102
{BLKREFS
331
42
102
}
 70
     0
280
     1
281
     0
  0
BLOCK_RECORD
  5
AA
330
1
100
AcDbSymbolTableRecord
100
AcDbBlockTableRecord
  2
block 3
340
0
102
{BLKREFS
331
AB
102
}
 70
     0
280
     1
281
     0
  0
BLOCK_RECORD
  5
CD
330
1
100
AcDbSymbolTableRecord
100
AcDbBlockTableRecord
  2
block 4
340
0
102
{BLKREFS
331
CE
102
}
 70
     0
280
     1
281
     0
  0
BLOCK_RECORD
  5
DE
330
1
100
AcDbSymbolTableRecord
100
AcDbBlockTableRecord
  2
block 5
340
0
102
{BLKREFS
331
DF
102
}
 70
     0
280
     1
281
     0
  0
BLOCK_RECORD
  5
E4
330
1
100
AcDbSymbolTableRecord
100
AcDbBlockTableRecord
  2
block 6
340
0
102
{BLKREFS
331
E5
102
}
 70
     0
280
     1
281
     0
  0
BLOCK_RECORD
  5
E9
330
1
100
AcDbSymbolTableRecord
100
AcDbBlockTableRecord
  2
block 7
340
0
102
{BLKREFS
331
EA
102
}
 70
     0
280
     1
281
     0
  0
BLOCK_RECORD
  5
EE
330
1
100
AcDbSymbolTableRecord
100
AcDbBlockTableRecord
  2
block 8
340
0
102
{BLKREFS
331
EF
102
}
 70
     0
280
     1
281
     0
  0
BLOCK_RECORD
  5
FF
330
1
100
AcDbSymbolTableRecord
100
AcDbBlockTableRecord
  2
block 9
340
0
102
{BLKREFS
331
100
102
}
 70
     0
280
     1
281
     0
  0
BLOCK_RECORD
  5
105
330
1
100
AcDbSymbolTableRecord
100
AcDbBlockTableRecord
  2
block 10
340
0
102
{BLKREFS
331
106
102
}
 70
     0
280
     1
281
     0
  0
BLOCK_RECORD
  5
10A
330
1
100
AcDbSymbolTableRecord
100
AcDbBlockTableRecord
  2
block 11
340
0
102
{BLKREFS
331
10B
102
}
 70
     0
280
     1
281
     0
  0
BLOCK_RECORD
  5
10F
330
1
100
AcDbSymbolTableRecord
100
AcDbBlockTableRecord
  2
block 12
340
0
102
{BLKREFS
331
110
102
}
 70
     0
280
     1
281
     0
  0
BLOCK_RECORD
  5
120
330
1
100
AcDbSymbolTableRecord
100
AcDbBlockTableRecord
  2
block 13
340
0
102
{BLKREFS
331
121
102
}
 70
     0
280
     1
281
     0
  0
BLOCK_RECORD
  5
12A
330
1
100
AcDbSymbolTableRecord
100
AcDbBlockTableRecord
  2
block 14
340
0
102
{BLKREFS
331
12B
102
}
 70
     0
280
     1
281
     0
  0
BLOCK_RECORD
  5
12F
330
1
100
AcDbSymbolTableRecord
100
AcDbBlockTableRecord
  2
block 15
340
0
102
{BLKREFS
331
130
102
}
 70
     0
280
     1
281
     0
  0
BLOCK_RECORD
  5
134
330
1
100
AcDbSymbolTableRecord
100
AcDbBlockTableRecord
  2
block 16
340
0
102
{BLKREFS
331
135
102
}
 70
     0
280
     1
281
     0
  0
BLOCK_RECORD
  5
145
330
1
100
AcDbSymbolTableRecord
100
AcDbBlockTableRecord
  2
block 17
340
0
102
{BLKREFS
331
146
102
}
 70
     0
280
     1
281
     0
  0
BLOCK_RECORD
  5
160
330
1
100
AcDbSymbolTableRecord
100
AcDbBlockTableRecord
  2
block 18
340
0
102
{BLKREFS
331
161
102
}
 70
     0
280
     1
281
     0
  0
BLOCK_RECORD
  5
165
330
1
100
AcDbSymbolTableRecord
100
AcDbBlockTableRecord
  2
block 19
340
0
102
{BLKREFS
331
166
102
}
 70
     0
280
     1
281
     0
  0
BLOCK_RECORD
  5
16A
330
1
100
AcDbSymbolTableRecord
100
AcDbBlockTableRecord
  2
block 20
340
0
102
{BLKREFS
331
16B
102
}
 70
     0
280
     1
281
     0
  0
BLOCK_RECORD
  5
16F
330
1
100
AcDbSymbolTableRecord
100
AcDbBlockTableRecord
  2
block 21
340
0
102
{BLKREFS
331
170
102
}
 70
     0
280
     1
281
     0
  0
ENDTAB
  0
ENDSEC
  0
SECTION
  2
BLOCKS
  0
BLOCK
  5
20
330
1F
100
AcDbEntity
  8
0
100
AcDbBlockBegin
  2
*Model_Space
 70
     0
 10
0.0
 20
0.0
 30
0.0
  3
*Model_Space
  1

  0
ENDBLK
  5
21
330
1F
100
AcDbEntity
  8
0
100
AcDbBlockEnd
  0
BLOCK
  5
1C
330
1B
100
AcDbEntity
 67
     1
  8
0
100
AcDbBlockBegin
  2
*Paper_Space
 70
     0
 10
0.0
 20
0.0
 30
0.0
  3
*Paper_Space
  1

  0
ENDBLK
  5
1D
330
1B
100
AcDbEntity
 67
     1
  8
0
100
AcDbBlockEnd
  0
BLOCK
  5
24
330
23
100
AcDbEntity
  8
0
100
AcDbBlockBegin
  2
*Paper_Space0
 70
     0
 10
0.0
 20
0.0
 30
0.0
  3
*Paper_Space0
  1

  0
ENDBLK
  5
25
330
23
100
AcDbEntity
  8
0
100
AcDbBlockEnd
  0
BLOCK
  5
43
330
41
100
AcDbEntity
  8
0
100
AcDbBlockBegin
  2
block 2
 70
     0
 10
0.0
 20
0.0
 30
0.0
  3
block 2
  1

  0
SPLINE
  5
45
330
41
100
AcDbEntity
  8
_U+30EC_U+30A4_U+30E4_U+30FC 1
370
     0
100
AcDbSpline
210
0.0
220
0.0
230
1.0
 70
    11
 71
     3
 72
    86
 73
    82
 74
     0
 42
0.0000000001
 43
0.0000000001
 12
1.0
 22
0.0
 32
0.0
 13
1.0
 23
0.0
 33
0.0
 40
0.0
 40
0.0
 40
0.0
 40
0.0
 40
1.0
 40
1.0
 40
1.0
 40
2.0
 40
2.0
 40
2.0
 40
3.0
 40
3.0
 40
3.0
 40
4.0
 40
4.0
 40
4.0
 40
5.0
 40
5.0
 40
5.0
 40
6.0
 40
6.0
 40
6.0
 40
7.0
 40
7.0
 40
7.0
 40
8.0
 40
8.0
 40
8.0
 40
9.0
 40
9.0
 40
9.0
 40
10.0
 40
10.0
 40
10.0
 40
11.0
 40
11.0
 40
11.0
 40
12.0
 40
12.0
 40
12.0
 40
13.0
 40
13.0
 40
13.0
 40
14.0
 40
14.0
 40
14.0
 40
15.0
 40
15.0
 40
15.0
 40
16.0
 40
16.0
 40
16.0
 40
17.0
 40
17.0
 40
17.0
 40
18.0
 40
18.0
 40
18.0
 40
19.0
 40
19.0
 40
19.0
 40
20.0
 40
20.0
 40
20.0
 40
21.0
 40
21.0
 40
21.0
 40
22.0
 40
22.0
 40
22.0
 40
23.0
 40
23.0
 40
23.0
 40
24.0
 40
24.0
 40
24.0
 40
25.0
 40
25.0
 40
25.0
 40
26.0
 40
26.0
 40
26.0
 40
27.0
 40
27.0
 40
27.0
 40
27.0
 10
92.137368760491
 20
-139.252148576298
 30
0.0
 10
92.137368760491
 20
-139.252148576298
 30
0.0
 10
92.137368760491
 20
-118.9520805258175
 30
0.0
 10
92.137368760491
 20
-118.9520805258175
 30
0.0
 10
92.137368760491
 20
-118.9520805258175
 30
0.0
 10
93.1374584571988
 20
-119.4523194145812
 30
0.0
 10
93.1374584571988
 20
-119.4523194145812
 30
0.0
 10
93.1374584571988
 20
-119.4523194145812
 30
0.0
 10
93.1374584571988
 20
-118.4521944148316
 30
0.0
 10
93.1374584571988
 20
-118.4521944148316
 30
0.0
 10
93.1374584571988
 20
-118.4521944148316
 30
0.0
 10
92.0088518193253
 20
-117.5309858039506
 30
0.0
 10
92.0088518193253
 20
-117.5309858039506
 30
0.0
 10
91.94683348757418
 20
-117.4805033039631
 30
0.0
 10
91.87310293389964
 20
-117.4605360817459
 30
0.0
 10
91.79870210246445
 20
-117.4581019150801
 30
0.0
 10
91.79595275482906
 20
-117.463287748412
 30
0.0
 10
91.79386904703219
 20
-117.4696730261883
 30
0.0
 10
91.7876601583017
 20
-117.4696730261883
 30
0.0
 10
91.77975793628109
 20
-117.4696730261883
 30
0.0
 10
91.77594793637829
 20
-117.4625821928565
 30
0.0
 10
91.77354904755059
 20
-117.4558794150806
 30
0.0
 10
91.676746827798
 20
-117.4596541373018
 30
0.0
 10
91.5823434968731
 20
-117.4999766372918
 30
0.0
 10
91.51619997712069
 20
-117.5809391372714
 30
0.0
 10
91.46522127763892
 20
-117.643310248367
 30
0.0
 10
91.43766933389738
 20
-117.7214858039029
 30
0.0
 10
91.43766933389738
 20
-117.8020955261051
 30
0.0
 10
91.43766933389738
 20
-117.8020955261051
 30
0.0
 10
91.43766933389738
 20
-139.252148576298
 30
0.0
 10
91.43766933389738
 20
-139.252148576298
 30
0.0
 10
91.43766933389738
 20
-139.252148576298
 30
0.0
 10
85.48729615237072
 20
-139.252148576298
 30
0.0
 10
85.48729615237072
 20
-139.252148576298
 30
0.0
 10
85.48729615237072
 20
-139.252148576298
 30
0.0
 10
85.48729615237072
 20
-138.1524696876844
 30
0.0
 10
85.48729615237072
 20
-138.1524696876844
 30
0.0
 10
85.48729615237072
 20
-138.1524696876844
 30
0.0
 10
87.28734471755875
 20
-138.1524696876844
 30
0.0
 10
87.28734471755875
 20
-138.1524696876844
 30
0.0
 10
87.28734471755875
 20
-138.1524696876844
 30
0.0
 10
87.28734471755875
 20
-137.4524174656368
 30
0.0
 10
87.28734471755875
 20
-137.4524174656368
 30
0.0
 10
87.28734471755875
 20
-137.4524174656368
 30
0.0
 10
84.78724394800831
 20
-137.4524174656368
 30
0.0
 10
84.78724394800831
 20
-137.4524174656368
 30
0.0
 10
84.78724394800831
 20
-137.4524174656368
 30
0.0
 10
84.78724394800831
 20
-139.9342796872386
 30
0.0
 10
84.78724394800831
 20
-139.9342796872386
 30
0.0
 10
84.79722755886472
 20
-139.9342796872386
 30
0.0
 10
84.80516505866221
 20
-139.9425346872366
 30
0.0
 10
84.80516505866221
 20
-139.9521655205674
 30
0.0
 10
84.80516505866221
 20
-139.9521655205674
 30
0.0
 10
98.77019053571807
 20
-139.9521655205674
 30
0.0
 10
98.77019053571807
 20
-139.9521655205674
 30
0.0
 10
98.77019053571807
 20
-139.9425346872366
 30
0.0
 10
98.7781305308611
 20
-139.9342796872386
 30
0.0
 10
98.78775886860319
 20
-139.9342796872386
 30
0.0
 10
98.78775886860319
 20
-139.9342796872386
 30
0.0
 10
98.78775886860319
 20
-137.4696330211882
 30
0.0
 10
98.78775886860319
 20
-137.4696330211882
 30
0.0
 10
98.7781305308611
 20
-137.4696330211882
 30
0.0
 10
98.77019053571807
 20
-137.4620835767458
 30
0.0
 10
98.77019053571807
 20
-137.4524174656368
 30
0.0
 10
98.77019053571807
 20
-137.4524174656368
 30
0.0
 10
96.3048736541691
 20
-137.4524174656368
 30
0.0
 10
96.3048736541691
 20
-137.4524174656368
 30
0.0
 10
96.3048736541691
 20
-137.4620835767458
 30
0.0
 10
96.29732420991725
 20
-137.4696330211882
 30
0.0
 10
96.28765809905275
 20
-137.4696330211882
 30
0.0
 10
96.28765809905275
 20
-137.4696330211882
 30
0.0
 10
96.28765809905275
 20
-138.1524696876844
 30
0.0
 10
96.28765809905275
 20
-138.1524696876844
 30
0.0
 10
96.28765809905275
 20
-138.1524696876844
 30
0.0
 10
98.08770666424078
 20
-138.1524696876844
 30
0.0
 10
98.08770666424078
 20
-138.1524696876844
 30
0.0
 10
98.08770666424078
 20
-138.1524696876844
 30
0.0
 10
98.08770666424078
 20
-139.252148576298
 30
0.0
 10
98.08770666424078
 20
-139.252148576298
 30
0.0
 10
98.08770666424078
 20
-139.252148576298
 30
0.0
 10
92.137368760491
 20
-139.252148576298
 30
0.0
 10
92.137368760491
 20
-139.252148576298
 30
0.0
  0
HATCH
  5
46
330
41
100
AcDbEntity
  8
_U+30EC_U+30A4_U+30E4_U+30FC 1
 62
   253
420
 11711154
100
AcDbHatch
 10
0.0
 20
0.0
 30
0.0
210
0.0
220
0.0
230
1.0
  2
SOLID
 70
     1
 71
     0
 91
        1
 92
        1
 93
        1
 72
     4
 94
        3
 73
     0
 74
     1
 95
       86
 96
       82
 40
0.0
 40
0.0
 40
0.0
 40
0.0
 40
1.0
 40
1.0
 40
1.0
 40
2.0
 40
2.0
 40
2.0
 40
3.0
 40
3.0
 40
3.0
 40
4.0
 40
4.0
 40
4.0
 40
5.0
 40
5.0
 40
5.0
 40
6.0
 40
6.0
 40
6.0
 40
7.0
 40
7.0
 40
7.0
 40
8.0
 40
8.0
 40
8.0
 40
9.0
 40
9.0
 40
9.0
 40
10.0
 40
10.0
 40
10.0
 40
11.0
 40
11.0
 40
11.0
 40
12.0
 40
12.0
 40
12.0
 40
13.0
 40
13.0
 40
13.0
 40
14.0
 40
14.0
 40
14.0
 40
15.0
 40
15.0
 40
15.0
 40
16.0
 40
16.0
 40
16.0
 40
17.0
 40
17.0
 40
17.0
 40
18.0
 40
18.0
 40
18.0
 40
19.0
 40
19.0
 40
19.0
 40
20.0
 40
20.0
 40
20.0
 40
21.0
 40
21.0
 40
21.0
 40
22.0
 40
22.0
 40
22.0
 40
23.0
 40
23.0
 40
23.0
 40
24.0
 40
24.0
 40
24.0
 40
25.0
 40
25.0
 40
25.0
 40
26.0
 40
26.0
 40
26.0
 40
27.0
 40
27.0
 40
27.0
 40
27.0
 10
92.137368760491
 20
-139.252148576298
 10
92.137368760491
 20
-139.252148576298
 10
92.137368760491
 20
-118.9520805258175
 10
92.137368760491
 20
-118.9520805258175
 10
92.137368760491
 20
-118.9520805258175
 10
93.1374584571988
 20
-119.4523194145812
 10
93.1374584571988
 20
-119.4523194145812
 10
93.1374584571988
 20
-119.4523194145812
 10
93.1374584571988
 20
-118.4521944148316
 10
93.1374584571988
 20
-118.4521944148316
 10
93.1374584571988
 20
-118.4521944148316
 10
92.0088518193253
 20
-117.5309858039506
 10
92.0088518193253
 20
-117.5309858039506
 10
91.94683348757418
 20
-117.4805033039631
 10
91.87310293389964
 20
-117.4605360817459
 10
91.79870210246445
 20
-117.4581019150801
 10
91.79595275482906
 20
-117.463287748412
 10
91.79386904703219
 20
-117.4696730261883
 10
91.7876601583017
 20
-117.4696730261883
 10
91.77975793628109
 20
-117.4696730261883
 10
91.77594793637829
 20
-117.4625821928565
 10
91.77354904755059
 20
-117.4558794150806
 10
91.676746827798
 20
-117.4596541373018
 10
91.5823434968731
 20
-117.4999766372918
 10
91.51619997712069
 20
-117.5809391372714
 10
91.46522127763892
 20
-117.643310248367
 10
91.43766933389738
 20
-117.7214858039029
 10
91.43766933389738
 20
-117.8020955261051
 10
91.43766933389738
 20
-117.8020955261051
 10
91.43766933389738
 20
-139.252148576298
 10
91.43766933389738
 20
-139.252148576298
 10
91.43766933389738
 20
-139.252148576298
 10
85.48729615237072
 20
-139.252148576298
 10
85.48729615237072
 20
-139.252148576298
 10
85.48729615237072
 20
-139.252148576298
 10
85.48729615237072
 20
-138.1524696876844
 10
85.48729615237072
 20
-138.1524696876844
 10
85.48729615237072
 20
-138.1524696876844
 10
87.28734471755875
 20
-138.1524696876844
 10
87.28734471755875
 20
-138.1524696876844
 10
87.28734471755875
 20
-138.1524696876844
 10
87.28734471755875
 20
-137.4524174656368
 10
87.28734471755875
 20
-137.4524174656368
 10
87.28734471755875
 20
-137.4524174656368
 10
84.78724394800831
 20
-137.4524174656368
 10
84.78724394800831
 20
-137.4524174656368
 10
84.78724394800831
 20
-137.4524174656368
 10
84.78724394800831
 20
-139.9342796872386
 10
84.78724394800831
 20
-139.9342796872386
 10
84.79722755886472
 20
-139.9342796872386
 10
84.80516505866221
 20
-139.9425346872366
 10
84.80516505866221
 20
-139.9521655205674
 10
84.80516505866221
 20
-139.9521655205674
 10
98.77019053571807
 20
-139.9521655205674
 10
98.77019053571807
 20
-139.9521655205674
 10
98.77019053571807
 20
-139.9425346872366
 10
98.7781305308611
 20
-139.9342796872386
 10
98.78775886860319
 20
-139.9342796872386
 10
98.78775886860319
 20
-139.9342796872386
 10
98.78775886860319
 20
-137.4696330211882
 10
98.78775886860319
 20
-137.4696330211882
 10
98.7781305308611
 20
-137.4696330211882
 10
98.77019053571807
 20
-137.4620835767458
 10
98.77019053571807
 20
-137.4524174656368
 10
98.77019053571807
 20
-137.4524174656368
 10
96.3048736541691
 20
-137.4524174656368
 10
96.3048736541691
 20
-137.4524174656368
 10
96.3048736541691
 20
-137.4620835767458
 10
96.29732420991725
 20
-137.4696330211882
 10
96.28765809905275
 20
-137.4696330211882
 10
96.28765809905275
 20
-137.4696330211882
 10
96.28765809905275
 20
-138.1524696876844
 10
96.28765809905275
 20
-138.1524696876844
 10
96.28765809905275
 20
-138.1524696876844
 10
98.08770666424078
 20
-138.1524696876844
 10
98.08770666424078
 20
-138.1524696876844
 10
98.08770666424078
 20
-138.1524696876844
 10
98.08770666424078
 20
-139.252148576298
 10
98.08770666424078
 20
-139.252148576298
 10
98.08770666424078
 20
-139.252148576298
 10
92.137368760491
 20
-139.252148576298
 10
92.137368760491
 20
-139.252148576298
 97
        0
 97
        0
 75
     2
 76
     1
 98
        0
  0
POLYLINE
  5
47
330
41
100
AcDbEntity
  8
_U+30EC_U+30A4_U+30E4_U+30FC 1
 62
   179
420
  2234388
370
    25
100
AcDb2dPolyline
 66
     1
 10
0.0
 20
0.0
 30
0.0
  0
VERTEX
  5
48
330
47
100
AcDbEntity
  8
_U+30EC_U+30A4_U+30E4_U+30FC 1
 62
   179
420
  2234388
370
    25
100
AcDbVertex
100
AcDb2dVertex
 10
91.43766933389738
 20
-117.8020955261051
 30
0.0
  0
VERTEX
  5
49
330
47
100
AcDbEntity
  8
_U+30EC_U+30A4_U+30E4_U+30FC 1
 62
   179
420
  2234388
370
    25
100
AcDbVertex
100
AcDb2dVertex
 10
91.43766933389738
 20
-139.252148576298
 30
0.0
  0
SEQEND
  5
4A
330
47
100
AcDbEntity
  8
_U+30EC_U+30A4_U+30E4_U+30FC 1
 62
   179
420
  2234388
370
    25
  0
POLYLINE
  5
4B
330
41
100
AcDbEntity
  8
_U+30EC_U+30A4_U+30E4_U+30FC 1
 62
   179
420
  2234388
370
    25
100
AcDb2dPolyline
 66
     1
 10
0.0
 20
0.0
 30
0.0
  0
VERTEX
  5
4C
330
4B
100
AcDbEntity
  8
_U+30EC_U+30A4_U+30E4_U+30FC 1
 62
   179
420
  2234388
370
    25
100
AcDbVertex
100
AcDb2dVertex
 10
92.137368760491
 20
-118.9520805258175
 30
0.0
  0
VERTEX
  5
4D
330
4B
100
AcDbEntity
  8
_U+30EC_U+30A4_U+30E4_U+30FC 1
 62
   179
420
  2234388
370
    25
100
AcDbVertex
100
AcDb2dVertex
 10
92.137368760491
 20
-139.252148576298
 30
0.0
  0
SEQEND
  5
4E
330
4B
100
AcDbEntity
  8
_U+30EC_U+30A4_U+30E4_U+30FC 1
 62
   179
420
  2234388
370
    25
  0
POLYLINE
  5
4F
330
41
100
AcDbEntity
  8
_U+30EC_U+30A4_U+30E4_U+30FC 1
 62
   179
420
  2234388
370
    25
100
AcDb2dPolyline
 66
     1
 10
0.0
 20
0.0
 30
0.0
  0
VERTEX
  5
50
330
4F
100
AcDbEntity
  8
_U+30EC_U+30A4_U+30E4_U+30FC 1
 62
   179
420
  2234388
370
    25
100
AcDbVertex
100
AcDb2dVertex
 10
84.78724394800831
 20
-139.9521655205674
 30
0.0
  0
VERTEX
  5
51
330
4F
100
AcDbEntity
  8
_U+30EC_U+30A4_U+30E4_U+30FC 1
 62
   179
420
  2234388
370
    25
100
AcDbVertex
100
AcDb2dVertex
 10
98.78775886860319
 20
-139.9521655205674
 30
0.0
  0
SEQEND
  5
52
330
4F
100
AcDbEntity
  8
_U+30EC_U+30A4_U+30E4_U+30FC 1
 62
   179
420
  2234388
370
    25
  0
POLYLINE
  5
53
330
41
100
AcDbEntity
  8
_U+30EC_U+30A4_U+30E4_U+30FC 1
 62
   179
420
  2234388
370
    25
100
AcDb2dPolyline
 66
     1
 10
0.0
 20
0.0
 30
0.0
  0
VERTEX
  5
54
330
53
100
AcDbEntity
  8
_U+30EC_U+30A4_U+30E4_U+30FC 1
 62
   179
420
  2234388
370
    25
100
AcDbVertex
100
AcDb2dVertex
 10
96.28765809905275
 20
-137.4524174656368
 30
0.0
  0
VERTEX
  5
55
330
53
100
AcDbEntity
  8
_U+30EC_U+30A4_U+30E4_U+30FC 1
 62
   179
420
  2234388
370
    25
100
AcDbVertex
100
AcDb2dVertex
 10
98.78775886860319
 20
-137.4524174656368
 30
0.0
  0
SEQEND
  5
56
330
53
100
AcDbEntity
  8
_U+30EC_U+30A4_U+30E4_U+30FC 1
 62
   179
420
  2234388
370
    25
  0
POLYLINE
  5
57
330
41
100
AcDbEntity
  8
_U+30EC_U+30A4_U+30E4_U+30FC 1
 62
   179
420
  2234388
370
    25
100
AcDb2dPolyline
 66
     1
 10
0.0
 20
0.0
 30
0.0
  0
VERTEX
  5
58
330
57
100
AcDbEntity
  8
_U+30EC_U+30A4_U+30E4_U+30FC 1
 62
   179
420
  2234388
370
    25
100
AcDbVertex
100
AcDb2dVertex
 10
96.28765809905275
 20
-137.4524174656368
 30
0.0
  0
VERTEX
  5
59
330
57
100
AcDbEntity
  8
_U+30EC_U+30A4_U+30E4_U+30FC 1
 62
   179
420
  2234388
370
    25
100
AcDbVertex
100
AcDb2dVertex
 10
96.28765809905275
 20
-138.1524696876844
 30
0.0
  0
SEQEND
  5
5A
330
57
100
AcDbEntity
  8
_U+30EC_U+30A4_U+30E4_U+30FC 1
 62
   179
420
  2234388
370
    25
  0
POLYLINE
  5
5B
330
41
100
AcDbEntity
  8
_U+30EC_U+30A4_U+30E4_U+30FC 1
 62
   179
420
  2234388
370
    25
100
AcDb2dPolyline
 66
     1
 10
0.0
 20
0.0
 30
0.0
  0
VERTEX
  5
5C
330
5B
100
AcDbEntity
  8
_U+30EC_U+30A4_U+30E4_U+30FC 1
 62
   179
420
  2234388
370
    25
100
AcDbVertex
100
AcDb2dVertex
 10
92.137368760491
 20
-139.252148576298
 30
0.0
  0
VERTEX
  5
5D
330
5B
100
AcDbEntity
  8
_U+30EC_U+30A4_U+30E4_U+30FC 1
 62
   179
420
  2234388
370
    25
100
AcDbVertex
100
AcDb2dVertex
 10
98.08770666424078
 20
-139.252148576298
 30
0.0
  0
SEQEND
  5
5E
330
5B
100
AcDbEntity
  8
_U+30EC_U+30A4_U+30E4_U+30FC 1
 62
   179
420
  2234388
370
    25
  0
POLYLINE
  5
5F
330
41
100
AcDbEntity
  8
_U+30EC_U+30A4_U+30E4_U+30FC 1
 62
   179
420
  2234388
370
    25
100
AcDb2dPolyline
 66
     1
 10
0.0
 20
0.0
 30
0.0
  0
VERTEX
  5
60
330
5F
100
AcDbEntity
  8
_U+30EC_U+30A4_U+30E4_U+30FC 1
 62
   179
420
  2234388
370
    25
100
AcDbVertex
100
AcDb2dVertex
 10
98.08770666424078
 20
-138.1524696876844
 30
0.0
  0
VERTEX
  5
61
330
5F
100
AcDbEntity
  8
_U+30EC_U+30A4_U+30E4_U+30FC 1
 62
   179
420
  2234388
370
    25
100
AcDbVertex
100
AcDb2dVertex
 10
98.08770666424078
 20
-139.252148576298
 30
0.0
  0
SEQEND
  5
62
330
5F
100
AcDbEntity
  8
_U+30EC_U+30A4_U+30E4_U+30FC 1
 62
   179
420
  2234388
370
    25
  0
POLYLINE
  5
63
330
41
100
AcDbEntity
  8
_U+30EC_U+30A4_U+30E4_U+30FC 1
 62
   179
420
  2234388
370
    25
100
AcDb2dPolyline
 66
     1
 10
0.0
 20
0.0
 30
0.0
  0
VERTEX
  5
64
330
63
100
AcDbEntity
  8
_U+30EC_U+30A4_U+30E4_U+30FC 1
 62
   179
420
  2234388
370
    25
100
AcDbVertex
100
AcDb2dVertex
 10
96.28765809905275
 20
-138.1524696876844
 30
0.0
  0
VERTEX
  5
65
330
63
100
AcDbEntity
  8
_U+30EC_U+30A4_U+30E4_U+30FC 1
 62
   179
420
  2234388
370
    25
100
AcDbVertex
100
AcDb2dVertex
 10
98.08770666424078
 20
-138.1524696876844
 30
0.0
  0
SEQEND
  5
66
330
63
100
AcDbEntity
  8
_U+30EC_U+30A4_U+30E4_U+30FC 1
 62
   179
420
  2234388
370
    25
  0
POLYLINE
  5
67
330
41
100
AcDbEntity
  8
_U+30EC_U+30A4_U+30E4_U+30FC 1
 62
   179
420
  2234388
370
    25
100
AcDb2dPolyline
 66
     1
 10
0.0
 20
0.0
 30
0.0
  0
VERTEX
  5
68
330
67
100
AcDbEntity
  8
_U+30EC_U+30A4_U+30E4_U+30FC 1
 62
   179
420
  2234388
370
    25
100
AcDbVertex
100
AcDb2dVertex
 10
98.78775886860319
 20
-137.4524174656368
 30
0.0
  0
VERTEX
  5
69
330
67
100
AcDbEntity
  8
_U+30EC_U+30A4_U+30E4_U+30FC 1
 62
   179
420
  2234388
370
    25
100
AcDbVertex
100
AcDb2dVertex
 10
98.78775886860319
 20
-139.9521655205674
 30
0.0
  0
SEQEND
  5
6A
330
67
100
AcDbEntity
  8
_U+30EC_U+30A4_U+30E4_U+30FC 1
 62
   179
420
  2234388
370
    25
  0
POLYLINE
  5
6B
330
41
100
AcDbEntity
  8
_U+30EC_U+30A4_U+30E4_U+30FC 1
 62
   179
420
  2234388
370
    25
100
AcDb2dPolyline
 66
     1
 10
0.0
 20
0.0
 30
0.0
  0
VERTEX
  5
6C
330
6B
100
AcDbEntity
  8
_U+30EC_U+30A4_U+30E4_U+30FC 1
 62
   179
420
  2234388
370
    25
100
AcDbVertex
100
AcDb2dVertex
 10
84.78724394800831
 20
-137.4524174656368
 30
0.0
  0
VERTEX
  5
6D
330
6B
100
AcDbEntity
  8
_U+30EC_U+30A4_U+30E4_U+30FC 1
 62
   179
420
  2234388
370
    25
100
AcDbVertex
100
AcDb2dVertex
 10
84.78724394800831
 20
-139.9521655205674
 30
0.0
  0
SEQEND
  5
6E
330
6B
100
AcDbEntity
  8
_U+30EC_U+30A4_U+30E4_U+30FC 1
 62
   179
420
  2234388
370
    25
  0
POLYLINE
  5
6F
330
41
100
AcDbEntity
  8
_U+30EC_U+30A4_U+30E4_U+30FC 1
 62
   179
420
  2234388
370
    25
100
AcDb2dPolyline
 66
     1
 10
0.0
 20
0.0
 30
0.0
  0
VERTEX
  5
70
330
6F
100
AcDbEntity
  8
_U+30EC_U+30A4_U+30E4_U+30FC 1
 62
   179
420
  2234388
370
    25
100
AcDbVertex
100
AcDb2dVertex
 10
87.28734471755875
 20
-138.1524696876844
 30
0.0
  0
VERTEX
  5
71
330
6F
100
AcDbEntity
  8
_U+30EC_U+30A4_U+30E4_U+30FC 1
 62
   179
420
  2234388
370
    25
100
AcDbVertex
100
AcDb2dVertex
 10
85.48729615237072
 20
-138.1524696876844
 30
0.0
  0
SEQEND
  5
72
330
6F
100
AcDbEntity
  8
_U+30EC_U+30A4_U+30E4_U+30FC 1
 62
   179
420
  2234388
370
    25
  0
POLYLINE
  5
73
330
41
100
AcDbEntity
  8
_U+30EC_U+30A4_U+30E4_U+30FC 1
 62
   179
420
  2234388
370
    25
100
AcDb2dPolyline
 66
     1
 10
0.0
 20
0.0
 30
0.0
  0
VERTEX
  5
74
330
73
100
AcDbEntity
  8
_U+30EC_U+30A4_U+30E4_U+30FC 1
 62
   179
420
  2234388
370
    25
100
AcDbVertex
100
AcDb2dVertex
 10
85.48729615237072
 20
-138.1524696876844
 30
0.0
  0
VERTEX
  5
75
330
73
100
AcDbEntity
  8
_U+30EC_U+30A4_U+30E4_U+30FC 1
 62
   179
420
  2234388
370
    25
100
AcDbVertex
100
AcDb2dVertex
 10
85.48729615237072
 20
-139.252148576298
 30
0.0
  0
SEQEND
  5
76
330
73
100
AcDbEntity
  8
_U+30EC_U+30A4_U+30E4_U+30FC 1
 62
   179
420
  2234388
370
    25
  0
POLYLINE
  5
77
330
41
100
AcDbEntity
  8
_U+30EC_U+30A4_U+30E4_U+30FC 1
 62
   179
420
  2234388
370
    25
100
AcDb2dPolyline
 66
     1
 10
0.0
 20
0.0
 30
0.0
  0
VERTEX
  5
78
330
77
100
AcDbEntity
  8
_U+30EC_U+30A4_U+30E4_U+30FC 1
 62
   179
420
  2234388
370
    25
100
AcDbVertex
100
AcDb2dVertex
 10
91.43766933389738
 20
-139.252148576298
 30
0.0
  0
VERTEX
  5
79
330
77
100
AcDbEntity
  8
_U+30EC_U+30A4_U+30E4_U+30FC 1
 62
   179
420
  2234388
370
    25
100
AcDbVertex
100
AcDb2dVertex
 10
85.48729615237072
 20
-139.252148576298
 30
0.0
  0
SEQEND
  5
7A
330
77
100
AcDbEntity
  8
_U+30EC_U+30A4_U+30E4_U+30FC 1
 62
   179
420
  2234388
370
    25
  0
POLYLINE
  5
7B
330
41
100
AcDbEntity
  8
_U+30EC_U+30A4_U+30E4_U+30FC 1
 62
   179
420
  2234388
370
    25
100
AcDb2dPolyline
 66
     1
 10
0.0
 20
0.0
 30
0.0
  0
VERTEX
  5
7C
330
7B
100
AcDbEntity
  8
_U+30EC_U+30A4_U+30E4_U+30FC 1
 62
   179
420
  2234388
370
    25
100
AcDbVertex
100
AcDb2dVertex
 10
87.28734471755875
 20
-137.4524174656368
 30
0.0
  0
VERTEX
  5
7D
330
7B
100
AcDbEntity
  8
_U+30EC_U+30A4_U+30E4_U+30FC 1
 62
   179
420
  2234388
370
    25
100
AcDbVertex
100
AcDb2dVertex
 10
87.28734471755875
 20
-138.1524696876844
 30
0.0
  0
SEQEND
  5
7E
330
7B
100
AcDbEntity
  8
_U+30EC_U+30A4_U+30E4_U+30FC 1
 62
   179
420
  2234388
370
    25
  0
POLYLINE
  5
7F
330
41
100
AcDbEntity
  8
_U+30EC_U+30A4_U+30E4_U+30FC 1
 62
   179
420
  2234388
370
    25
100
AcDb2dPolyline
 66
     1
 10
0.0
 20
0.0
 30
0.0
  0
VERTEX
  5
80
330
7F
100
AcDbEntity
  8
_U+30EC_U+30A4_U+30E4_U+30FC 1
 62
   179
420
  2234388
370
    25
100
AcDbVertex
100
AcDb2dVertex
 10
87.28734471755875
 20
-137.4524174656368
 30
0.0
  0
VERTEX
  5
81
330
7F
100
AcDbEntity
  8
_U+30EC_U+30A4_U+30E4_U+30FC 1
 62
   179
420
  2234388
370
    25
100
AcDbVertex
100
AcDb2dVertex
 10
84.78724394800831
 20
-137.4524174656368
 30
0.0
  0
SEQEND
  5
82
330
7F
100
AcDbEntity
  8
_U+30EC_U+30A4_U+30E4_U+30FC 1
 62
   179
420
  2234388
370
    25
  0
POLYLINE
  5
83
330
41
100
AcDbEntity
  8
_U+30EC_U+30A4_U+30E4_U+30FC 1
 62
   179
420
  2234388
370
    25
100
AcDb2dPolyline
 66
     1
 10
0.0
 20
0.0
 30
0.0
  0
VERTEX
  5
84
330
83
100
AcDbEntity
  8
_U+30EC_U+30A4_U+30E4_U+30FC 1
 62
   179
420
  2234388
370
    25
100
AcDbVertex
100
AcDb2dVertex
 10
93.1374584571988
 20
-118.4521944148316
 30
0.0
  0
VERTEX
  5
85
330
83
100
AcDbEntity
  8
_U+30EC_U+30A4_U+30E4_U+30FC 1
 62
   179
420
  2234388
370
    25
100
AcDbVertex
100
AcDb2dVertex
 10
93.1374584571988
 20
-119.4523194145812
 30
0.0
  0
SEQEND
  5
86
330
83
100
AcDbEntity
  8
_U+30EC_U+30A4_U+30E4_U+30FC 1
 62
   179
420
  2234388
370
    25
  0
POLYLINE
  5
87
330
41
100
AcDbEntity
  8
_U+30EC_U+30A4_U+30E4_U+30FC 1
 62
   179
420
  2234388
370
    25
100
AcDb2dPolyline
 66
     1
 10
0.0
 20
0.0
 30
0.0
  0
VERTEX
  5
88
330
87
100
AcDbEntity
  8
_U+30EC_U+30A4_U+30E4_U+30FC 1
 62
   179
420
  2234388
370
    25
100
AcDbVertex
100
AcDb2dVertex
 10
92.137368760491
 20
-118.9520805258175
 30
0.0
  0
VERTEX
  5
89
330
87
100
AcDbEntity
  8
_U+30EC_U+30A4_U+30E4_U+30FC 1
 62
   179
420
  2234388
370
    25
100
AcDbVertex
100
AcDb2dVertex
 10
93.1374584571988
 20
-119.4523194145812
 30
0.0
  0
SEQEND
  5
8A
330
87
100
AcDbEntity
  8
_U+30EC_U+30A4_U+30E4_U+30FC 1
 62
   179
420
  2234388
370
    25
  0
POLYLINE
  5
8B
330
41
100
AcDbEntity
  8
_U+30EC_U+30A4_U+30E4_U+30FC 1
 62
   179
420
  2234388
370
    25
100
AcDb2dPolyline
 66
     1
 10
0.0
 20
0.0
 30
0.0
  0
VERTEX
  5
8C
330
8B
100
AcDbEntity
  8
_U+30EC_U+30A4_U+30E4_U+30FC 1
 62
   179
420
  2234388
370
    25
100
AcDbVertex
100
AcDb2dVertex
 10
93.1374584571988
 20
-118.4521944148316
 30
0.0
  0
VERTEX
  5
8D
330
8B
100
AcDbEntity
  8
_U+30EC_U+30A4_U+30E4_U+30FC 1
 62
   179
420
  2234388
370
    25
100
AcDbVertex
100
AcDb2dVertex
 10
92.0088518193253
 20
-117.5309858039506
 30
0.0
  0
SEQEND
  5
8E
330
8B
100
AcDbEntity
  8
_U+30EC_U+30A4_U+30E4_U+30FC 1
 62
   179
420
  2234388
370
    25
  0
SPLINE
  5
8F
330
41
100
AcDbEntity
  8
_U+30EC_U+30A4_U+30E4_U+30FC 1
 62
   179
420
  2234388
370
     9
100
AcDbSpline
210
0.0
220
0.0
230
1.0
 70
    11
 71
     3
 72
    17
 73
    13
 74
     0
 42
0.0000000001
 43
0.0000000001
 12
1.0
 22
0.0
 32
0.0
 13
1.0
 23
0.0
 33
0.0
 40
0.0
 40
0.0
 40
0.0
 40
0.0
 40
1.0
 40
1.0
 40
1.0
 40
2.0
 40
2.0
 40
2.0
 40
3.0
 40
3.0
 40
3.0
 40
4.0
 40
4.0
 40
4.0
 40
4.0
 10
92.18732209254992
 20
-115.4522074711369
 30
0.0
 10
92.18732209254992
 20
-115.4246555266994
 30
0.0
 10
92.16527348200131
 20
-115.4022541378161
 30
0.0
 10
92.137368760491
 20
-115.4022541378161
 30
0.0
 10
92.10978153897258
 20
-115.4022541378161
 30
0.0
 10
92.08741542843208
 20
-115.4246555266994
 30
0.0
 10
92.08741542843208
 20
-115.4522074711369
 30
0.0
 10
92.08741542843208
 20
-115.4797594155743
 30
0.0
 10
92.10978153897258
 20
-115.5021608044577
 30
0.0
 10
92.137368760491
 20
-115.5021608044577
 30
0.0
 10
92.16527348200131
 20
-115.5021608044577
 30
0.0
 10
92.18732209254992
 20
-115.4797594155743
 30
0.0
 10
92.18732209254992
 20
-115.4522074711369
 30
0.0
  0
SPLINE
  5
90
330
41
100
AcDbEntity
  8
_U+30EC_U+30A4_U+30E4_U+30FC 1
 62
   179
420
  2234388
370
     9
100
AcDbSpline
210
0.0
220
0.0
230
1.0
 70
    11
 71
     3
 72
    17
 73
    13
 74
     0
 42
0.0000000001
 43
0.0000000001
 12
1.0
 22
0.0
 32
0.0
 13
1.0
 23
0.0
 33
0.0
 40
0.0
 40
0.0
 40
0.0
 40
0.0
 40
1.0
 40
1.0
 40
1.0
 40
2.0
 40
2.0
 40
2.0
 40
3.0
 40
3.0
 40
3.0
 40
4.0
 40
4.0
 40
4.0
 40
4.0
 10
91.48727219935067
 20
-115.4522074711369
 30
0.0
 10
91.48727219935067
 20
-115.4246555266994
 30
0.0
 10
91.46522127763892
 20
-115.4022541378161
 30
0.0
 10
91.43766933389738
 20
-115.4022541378161
 30
0.0
 10
91.40976461238706
 20
-115.4022541378161
 30
0.0
 10
91.38736322406969
 20
-115.4246555266994
 30
0.0
 10
91.38736322406969
 20
-115.4522074711369
 30
0.0
 10
91.38736322406969
 20
-115.4797594155743
 30
0.0
 10
91.40976461238706
 20
-115.5021608044577
 30
0.0
 10
91.43766933389738
 20
-115.5021608044577
 30
0.0
 10
91.46522127763892
 20
-115.5021608044577
 30
0.0
 10
91.48727219935067
 20
-115.4797594155743
 30
0.0
 10
91.48727219935067
 20
-115.4522074711369
 30
0.0
  0
SPLINE
  5
91
330
41
100
AcDbEntity
  8
_U+30EC_U+30A4_U+30E4_U+30FC 1
 62
   179
420
  2234388
370
     9
100
AcDbSpline
210
0.0
220
0.0
230
1.0
 70
    11
 71
     3
 72
    17
 73
    13
 74
     0
 42
0.0000000001
 43
0.0000000001
 12
1.0
 22
0.0
 32
0.0
 13
1.0
 23
0.0
 33
0.0
 40
0.0
 40
0.0
 40
0.0
 40
0.0
 40
1.0
 40
1.0
 40
1.0
 40
2.0
 40
2.0
 40
2.0
 40
3.0
 40
3.0
 40
3.0
 40
4.0
 40
4.0
 40
4.0
 40
4.0
 10
98.83771220066211
 20
-135.452202743915
 30
0.0
 10
98.83771220066211
 20
-135.4246507994772
 30
0.0
 10
98.81531081234473
 20
-135.4018966328161
 30
0.0
 10
98.78775886860319
 20
-135.4018966328161
 30
0.0
 10
98.76020692486166
 20
-135.4018966328161
 30
0.0
 10
98.73780553654427
 20
-135.4246507994772
 30
0.0
 10
98.73780553654427
 20
-135.452202743915
 30
0.0
 10
98.73780553654427
 20
-135.4797546883521
 30
0.0
 10
98.76020692486166
 20
-135.5025088550132
 30
0.0
 10
98.78775886860319
 20
-135.5025088550132
 30
0.0
 10
98.81531081234473
 20
-135.5025088550132
 30
0.0
 10
98.83771220066211
 20
-135.4797546883521
 30
0.0
 10
98.83771220066211
 20
-135.452202743915
 30
0.0
  0
SPLINE
  5
92
330
41
100
AcDbEntity
  8
_U+30EC_U+30A4_U+30E4_U+30FC 1
 62
   179
420
  2234388
370
     9
100
AcDbSpline
210
0.0
220
0.0
230
1.0
 70
    11
 71
     3
 72
    17
 73
    13
 74
     0
 42
0.0000000001
 43
0.0000000001
 12
1.0
 22
0.0
 32
0.0
 13
1.0
 23
0.0
 33
0.0
 40
0.0
 40
0.0
 40
0.0
 40
0.0
 40
1.0
 40
1.0
 40
1.0
 40
2.0
 40
2.0
 40
2.0
 40
3.0
 40
3.0
 40
3.0
 40
4.0
 40
4.0
 40
4.0
 40
4.0
 10
96.33726108702692
 20
-135.452202743915
 30
0.0
 10
96.33726108702692
 20
-135.4246507994772
 30
0.0
 10
96.31521004279428
 20
-135.4018966328161
 30
0.0
 10
96.28765809905275
 20
-135.4018966328161
 30
0.0
 10
96.25975337754242
 20
-135.4018966328161
 30
0.0
 10
96.23735198922505
 20
-135.4246507994772
 30
0.0
 10
96.23735198922505
 20
-135.452202743915
 30
0.0
 10
96.23735198922505
 20
-135.4797546883521
 30
0.0
 10
96.25975337754242
 20
-135.5025088550132
 30
0.0
 10
96.28765809905275
 20
-135.5025088550132
 30
0.0
 10
96.31521004279428
 20
-135.5025088550132
 30
0.0
 10
96.33726108702692
 20
-135.4797546883521
 30
0.0
 10
96.33726108702692
 20
-135.452202743915
 30
0.0
  0
SPLINE
  5
93
330
41
100
AcDbEntity
  8
_U+30EC_U+30A4_U+30E4_U+30FC 1
 62
   179
420
  2234388
370
    25
100
AcDbSpline
210
0.0
220
0.0
230
1.0
 70
     8
 71
     3
 72
    11
 73
     7
 74
     0
 42
0.0000000001
 43
0.0000000001
 12
1.0
 22
0.0
 32
0.0
 13
1.0
 23
0.0
 33
0.0
 40
0.0
 40
0.0
 40
0.0
 40
0.0
 40
1.0
 40
1.0
 40
1.0
 40
2.0
 40
2.0
 40
2.0
 40
2.0
 10
92.0088518193253
 20
-117.5309858039506
 30
0.0
 10
91.85899182314854
 20
-117.4086777484256
 30
0.0
 10
91.6385057176625
 20
-117.4310791373089
 30
0.0
 10
91.51619997712069
 20
-117.5809391372714
 30
0.0
 10
91.46522127763892
 20
-117.643310248367
 30
0.0
 10
91.43766933389738
 20
-117.7214858039029
 30
0.0
 10
91.43766933389738
 20
-117.8020955261051
 30
0.0
  0
SPLINE
  5
94
330
41
100
AcDbEntity
  8
_U+30EC_U+30A4_U+30E4_U+30FC 1
 62
   179
420
  2234388
370
     9
100
AcDbSpline
210
0.0
220
0.0
230
1.0
 70
    11
 71
     3
 72
    17
 73
    13
 74
     0
 42
0.0000000001
 43
0.0000000001
 12
1.0
 22
0.0
 32
0.0
 13
1.0
 23
0.0
 33
0.0
 40
0.0
 40
0.0
 40
0.0
 40
0.0
 40
1.0
 40
1.0
 40
1.0
 40
2.0
 40
2.0
 40
2.0
 40
3.0
 40
3.0
 40
3.0
 40
4.0
 40
4.0
 40
4.0
 40
4.0
 10
100.8376093718627
 20
-137.4524174656368
 30
0.0
 10
100.8376093718627
 20
-137.4248655211996
 30
0.0
 10
100.8155607613141
 20
-137.4021113545385
 30
0.0
 10
100.7879735397957
 20
-137.4021113545385
 30
0.0
 10
100.7600688182854
 20
-137.4021113545385
 30
0.0
 10
100.7377027077449
 20
-137.4248655211996
 30
0.0
 10
100.7377027077449
 20
-137.4524174656368
 30
0.0
 10
100.7377027077449
 20
-137.4799694100746
 30
0.0
 10
100.7600688182854
 20
-137.5020180211802
 30
0.0
 10
100.7879735397957
 20
-137.5020180211802
 30
0.0
 10
100.8155607613141
 20
-137.5020180211802
 30
0.0
 10
100.8376093718627
 20
-137.4799694100746
 30
0.0
 10
100.8376093718627
 20
-137.4524174656368
 30
0.0
  0
SPLINE
  5
95
330
41
100
AcDbEntity
  8
_U+30EC_U+30A4_U+30E4_U+30FC 1
 62
   179
420
  2234388
370
     9
100
AcDbSpline
210
0.0
220
0.0
230
1.0
 70
    11
 71
     3
 72
    17
 73
    13
 74
     0
 42
0.0000000001
 43
0.0000000001
 12
1.0
 22
0.0
 32
0.0
 13
1.0
 23
0.0
 33
0.0
 40
0.0
 40
0.0
 40
0.0
 40
0.0
 40
1.0
 40
1.0
 40
1.0
 40
2.0
 40
2.0
 40
2.0
 40
3.0
 40
3.0
 40
3.0
 40
4.0
 40
4.0
 40
4.0
 40
4.0
 10
100.8376093718627
 20
-139.9521655205674
 30
0.0
 10
100.8376093718627
 20
-139.9246135761296
 30
0.0
 10
100.8155607613141
 20
-139.9018946872467
 30
0.0
 10
100.7879735397957
 20
-139.9018946872467
 30
0.0
 10
100.7600688182854
 20
-139.9018946872467
 30
0.0
 10
100.7377027077449
 20
-139.9246135761296
 30
0.0
 10
100.7377027077449
 20
-139.9521655205674
 30
0.0
 10
100.7377027077449
 20
-139.9797527427827
 30
0.0
 10
100.7600688182854
 20
-140.0024716316663
 30
0.0
 10
100.7879735397957
 20
-140.0024716316663
 30
0.0
 10
100.8155607613141
 20
-140.0024716316663
 30
0.0
 10
100.8376093718627
 20
-139.9797527427827
 30
0.0
 10
100.8376093718627
 20
-139.9521655205674
 30
0.0
  0
SPLINE
  5
96
330
41
100
AcDbEntity
  8
_U+30EC_U+30A4_U+30E4_U+30FC 1
 62
   179
420
  2234388
370
     9
100
AcDbSpline
210
0.0
220
0.0
230
1.0
 70
    11
 71
     3
 72
    17
 73
    13
 74
     0
 42
0.0000000001
 43
0.0000000001
 12
1.0
 22
0.0
 32
0.0
 13
1.0
 23
0.0
 33
0.0
 40
0.0
 40
0.0
 40
0.0
 40
0.0
 40
1.0
 40
1.0
 40
1.0
 40
2.0
 40
2.0
 40
2.0
 40
3.0
 40
3.0
 40
3.0
 40
4.0
 40
4.0
 40
4.0
 40
4.0
 10
98.83771220066211
 20
-141.9524155200674
 30
0.0
 10
98.83771220066211
 20
-141.9248282978521
 30
0.0
 10
98.81531081234473
 20
-141.9021094089691
 30
0.0
 10
98.78775886860319
 20
-141.9021094089691
 30
0.0
 10
98.76020692486166
 20
-141.9021094089691
 30
0.0
 10
98.73780553654427
 20
-141.9248282978521
 30
0.0
 10
98.73780553654427
 20
-141.9524155200674
 30
0.0
 10
98.73780553654427
 20
-141.9799674645052
 30
0.0
 10
98.76020692486166
 20
-142.0020160756108
 30
0.0
 10
98.78775886860319
 20
-142.0020160756108
 30
0.0
 10
98.81531081234473
 20
-142.0020160756108
 30
0.0
 10
98.83771220066211
 20
-141.9799674645052
 30
0.0
 10
98.83771220066211
 20
-141.9524155200674
 30
0.0
  0
SPLINE
  5
97
330
41
100
AcDbEntity
  8
_U+30EC_U+30A4_U+30E4_U+30FC 1
 62
   179
420
  2234388
370
     9
100
AcDbSpline
210
0.0
220
0.0
230
1.0
 70
    11
 71
     3
 72
    17
 73
    13
 74
     0
 42
0.0000000001
 43
0.0000000001
 12
1.0
 22
0.0
 32
0.0
 13
1.0
 23
0.0
 33
0.0
 40
0.0
 40
0.0
 40
0.0
 40
0.0
 40
1.0
 40
1.0
 40
1.0
 40
2.0
 40
2.0
 40
2.0
 40
3.0
 40
3.0
 40
3.0
 40
4.0
 40
4.0
 40
4.0
 40
4.0
 10
84.837550057836
 20
-141.9524155200674
 30
0.0
 10
84.837550057836
 20
-141.9248282978521
 30
0.0
 10
84.81479589174984
 20
-141.9021094089691
 30
0.0
 10
84.78724394800831
 20
-141.9021094089691
 30
0.0
 10
84.75969200426677
 20
-141.9021094089691
 30
0.0
 10
84.73764339371817
 20
-141.9248282978521
 30
0.0
 10
84.73764339371817
 20
-141.9524155200674
 30
0.0
 10
84.73764339371817
 20
-141.9799674645052
 30
0.0
 10
84.75969200426677
 20
-142.0020160756108
 30
0.0
 10
84.78724394800831
 20
-142.0020160756108
 30
0.0
 10
84.81479589174984
 20
-142.0020160756108
 30
0.0
 10
84.837550057836
 20
-141.9799674645052
 30
0.0
 10
84.837550057836
 20
-141.9524155200674
 30
0.0
  0
SPLINE
  5
98
330
41
100
AcDbEntity
  8
_U+30EC_U+30A4_U+30E4_U+30FC 1
 62
   179
420
  2234388
370
     9
100
AcDbSpline
210
0.0
220
0.0
230
1.0
 70
    11
 71
     3
 72
    17
 73
    13
 74
     0
 42
0.0000000001
 43
0.0000000001
 12
1.0
 22
0.0
 32
0.0
 13
1.0
 23
0.0
 33
0.0
 40
0.0
 40
0.0
 40
0.0
 40
0.0
 40
1.0
 40
1.0
 40
1.0
 40
2.0
 40
2.0
 40
2.0
 40
3.0
 40
3.0
 40
3.0
 40
4.0
 40
4.0
 40
4.0
 40
4.0
 10
80.83743821544292
 20
-139.9521655205674
 30
0.0
 10
80.83743821544292
 20
-139.9246135761296
 30
0.0
 10
80.81539164646269
 20
-139.9018946872467
 30
0.0
 10
80.787484883384
 20
-139.9018946872467
 30
0.0
 10
80.75993293964245
 20
-139.9018946872467
 30
0.0
 10
80.73753155132508
 20
-139.9246135761296
 30
0.0
 10
80.73753155132508
 20
-139.9521655205674
 30
0.0
 10
80.73753155132508
 20
-139.9797527427827
 30
0.0
 10
80.75993293964245
 20
-140.0024716316663
 30
0.0
 10
80.787484883384
 20
-140.0024716316663
 30
0.0
 10
80.81539164646269
 20
-140.0024716316663
 30
0.0
 10
80.83743821544292
 20
-139.9797527427827
 30
0.0
 10
80.83743821544292
 20
-139.9521655205674
 30
0.0
  0
SPLINE
  5
99
330
41
100
AcDbEntity
  8
_U+30EC_U+30A4_U+30E4_U+30FC 1
 62
   179
420
  2234388
370
     9
100
AcDbSpline
210
0.0
220
0.0
230
1.0
 70
    11
 71
     3
 72
    17
 73
    13
 74
     0
 42
0.0000000001
 43
0.0000000001
 12
1.0
 22
0.0
 32
0.0
 13
1.0
 23
0.0
 33
0.0
 40
0.0
 40
0.0
 40
0.0
 40
0.0
 40
1.0
 40
1.0
 40
1.0
 40
2.0
 40
2.0
 40
2.0
 40
3.0
 40
3.0
 40
3.0
 40
4.0
 40
4.0
 40
4.0
 40
4.0
 10
80.83743821544292
 20
-117.4521046928591
 30
0.0
 10
80.83743821544292
 20
-117.4245174706438
 30
0.0
 10
80.81539164646269
 20
-117.4021513595383
 30
0.0
 10
80.787484883384
 20
-117.4021513595383
 30
0.0
 10
80.75993293964245
 20
-117.4021513595383
 30
0.0
 10
80.73753155132508
 20
-117.4245174706438
 30
0.0
 10
80.73753155132508
 20
-117.4521046928591
 30
0.0
 10
80.73753155132508
 20
-117.4796566372969
 30
0.0
 10
80.75993293964245
 20
-117.5020580261799
 30
0.0
 10
80.787484883384
 20
-117.5020580261799
 30
0.0
 10
80.81539164646269
 20
-117.5020580261799
 30
0.0
 10
80.83743821544292
 20
-117.4796566372969
 30
0.0
 10
80.83743821544292
 20
-117.4521046928591
 30
0.0
  0
POLYLINE
  5
9A
330
41
100
AcDbEntity
  8
_U+30EC_U+30A4_U+30E4_U+30FC 1
 62
   179
420
  2234388
370
     9
100
AcDb2dPolyline
 66
     1
 10
0.0
 20
0.0
 30
0.0
  0
VERTEX
  5
9B
330
9A
100
AcDbEntity
  8
_U+30EC_U+30A4_U+30E4_U+30FC 1
 62
   179
420
  2234388
370
     9
100
AcDbVertex
100
AcDb2dVertex
 10
92.137368760491
 20
-115.4522074711369
 30
0.0
  0
VERTEX
  5
9C
330
9A
100
AcDbEntity
  8
_U+30EC_U+30A4_U+30E4_U+30FC 1
 62
   179
420
  2234388
370
     9
100
AcDbVertex
100
AcDb2dVertex
 10
94.76630397119905
 20
-115.4522074711369
 30
0.0
  0
SEQEND
  5
9D
330
9A
100
AcDbEntity
  8
_U+30EC_U+30A4_U+30E4_U+30FC 1
 62
   179
420
  2234388
370
     9
  0
POLYLINE
  5
9E
330
41
100
AcDbEntity
  8
_U+30EC_U+30A4_U+30E4_U+30FC 1
 62
   179
420
  2234388
370
     9
100
AcDb2dPolyline
 66
     1
 10
0.0
 20
0.0
 30
0.0
  0
VERTEX
  5
9F
330
9E
100
AcDbEntity
  8
_U+30EC_U+30A4_U+30E4_U+30FC 1
 62
   179
420
  2234388
370
     9
100
AcDbVertex
100
AcDb2dVertex
 10
90.93743045777065
 20
-115.4522074711369
 30
0.0
  0
VERTEX
  5
A0
330
9E
100
AcDbEntity
  8
_U+30EC_U+30A4_U+30E4_U+30FC 1
 62
   179
420
  2234388
370
     9
100
AcDbVertex
100
AcDb2dVertex
 10
92.137368760491
 20
-115.4522074711369
 30
0.0
  0
SEQEND
  5
A1
330
9E
100
AcDbEntity
  8
_U+30EC_U+30A4_U+30E4_U+30FC 1
 62
   179
420
  2234388
370
     9
  0
POLYLINE
  5
A2
330
41
100
AcDbEntity
  8
_U+30EC_U+30A4_U+30E4_U+30FC 1
 62
   179
420
  2234388
370
     9
100
AcDb2dPolyline
 66
     1
 10
0.0
 20
0.0
 30
0.0
  0
VERTEX
  5
A3
330
A2
100
AcDbEntity
  8
_U+30EC_U+30A4_U+30E4_U+30FC 1
 62
   179
420
  2234388
370
     9
100
AcDbVertex
100
AcDb2dVertex
 10
91.43766933389738
 20
-116.18221052651
 30
0.0
  0
VERTEX
  5
A4
330
A2
100
AcDbEntity
  8
_U+30EC_U+30A4_U+30E4_U+30FC 1
 62
   179
420
  2234388
370
     9
100
AcDbVertex
100
AcDb2dVertex
 10
91.43766933389738
 20
-114.9523213601509
 30
0.0
  0
SEQEND
  5
A5
330
A2
100
AcDbEntity
  8
_U+30EC_U+30A4_U+30E4_U+30FC 1
 62
   179
420
  2234388
370
     9
  0
POLYLINE
  5
A6
330
41
100
AcDbEntity
  8
_U+30EC_U+30A4_U+30E4_U+30FC 1
 62
   179
420
  2234388
370
     9
100
AcDb2dPolyline
 66
     1
 10
0.0
 20
0.0
 30
0.0
  0
VERTEX
  5
A7
330
A6
100
AcDbEntity
  8
_U+30EC_U+30A4_U+30E4_U+30FC 1
 62
   179
420
  2234388
370
     9
100
AcDbVertex
100
AcDb2dVertex
 10
92.137368760491
 20
-116.18221052651
 30
0.0
  0
VERTEX
  5
A8
330
A6
100
AcDbEntity
  8
_U+30EC_U+30A4_U+30E4_U+30FC 1
 62
   179
420
  2234388
370
     9
100
AcDbVertex
100
AcDb2dVertex
 10
92.137368760491
 20
-114.9523213601509
 30
0.0
  0
SEQEND
  5
A9
330
A6
100
AcDbEntity
  8
_U+30EC_U+30A4_U+30E4_U+30FC 1
 62
   179
420
  2234388
370
     9
  0
INSERT
  5
AB
330
41
100
AcDbEntity
  8
_U+30EC_U+30A4_U+30E4_U+30FC 1
100
AcDbBlockReference
  2
block 3
 10
0.0
 20
0.0
 30
0.0
  0
INSERT
  5
CE
330
41
100
AcDbEntity
  8
_U+30EC_U+30A4_U+30E4_U+30FC 1
100
AcDbBlockReference
  2
block 4
 10
0.0
 20
0.0
 30
0.0
  0
POLYLINE
  5
D2
330
41
100
AcDbEntity
  8
_U+30EC_U+30A4_U+30E4_U+30FC 1
 62
   179
420
  2234388
370
     9
100
AcDb2dPolyline
 66
     1
 10
0.0
 20
0.0
 30
0.0
  0
VERTEX
  5
D3
330
D2
100
AcDbEntity
  8
_U+30EC_U+30A4_U+30E4_U+30FC 1
 62
   179
420
  2234388
370
     9
100
AcDbVertex
100
AcDb2dVertex
 10
96.28765809905275
 20
-135.452202743915
 30
0.0
  0
VERTEX
  5
D4
330
D2
100
AcDbEntity
  8
_U+30EC_U+30A4_U+30E4_U+30FC 1
 62
   179
420
  2234388
370
     9
100
AcDbVertex
100
AcDb2dVertex
 10
98.78775886860319
 20
-135.452202743915
 30
0.0
  0
SEQEND
  5
D5
330
D2
100
AcDbEntity
  8
_U+30EC_U+30A4_U+30E4_U+30FC 1
 62
   179
420
  2234388
370
     9
  0
POLYLINE
  5
D6
330
41
100
AcDbEntity
  8
_U+30EC_U+30A4_U+30E4_U+30FC 1
 62
   179
420
  2234388
370
     9
100
AcDb2dPolyline
 66
     1
 10
0.0
 20
0.0
 30
0.0
  0
VERTEX
  5
D7
330
D6
100
AcDbEntity
  8
_U+30EC_U+30A4_U+30E4_U+30FC 1
 62
   179
420
  2234388
370
     9
100
AcDbVertex
100
AcDb2dVertex
 10
96.28765809905275
 20
-136.18185302151
 30
0.0
  0
VERTEX
  5
D8
330
D6
100
AcDbEntity
  8
_U+30EC_U+30A4_U+30E4_U+30FC 1
 62
   179
420
  2234388
370
     9
100
AcDbVertex
100
AcDb2dVertex
 10
96.28765809905275
 20
-134.9519638551506
 30
0.0
  0
SEQEND
  5
D9
330
D6
100
AcDbEntity
  8
_U+30EC_U+30A4_U+30E4_U+30FC 1
 62
   179
420
  2234388
370
     9
  0
POLYLINE
  5
DA
330
41
100
AcDbEntity
  8
_U+30EC_U+30A4_U+30E4_U+30FC 1
 62
   179
420
  2234388
370
     9
100
AcDb2dPolyline
 66
     1
 10
0.0
 20
0.0
 30
0.0
  0
VERTEX
  5
DB
330
DA
100
AcDbEntity
  8
_U+30EC_U+30A4_U+30E4_U+30FC 1
 62
   179
420
  2234388
370
     9
100
AcDbVertex
100
AcDb2dVertex
 10
98.78775886860319
 20
-136.18185302151
 30
0.0
  0
VERTEX
  5
DC
330
DA
100
AcDbEntity
  8
_U+30EC_U+30A4_U+30E4_U+30FC 1
 62
   179
420
  2234388
370
     9
100
AcDbVertex
100
AcDb2dVertex
 10
98.78775886860319
 20
-134.9519638551506
 30
0.0
  0
SEQEND
  5
DD
330
DA
100
AcDbEntity
  8
_U+30EC_U+30A4_U+30E4_U+30FC 1
 62
   179
420
  2234388
370
     9
  0
INSERT
  5
DF
330
41
100
AcDbEntity
  8
_U+30EC_U+30A4_U+30E4_U+30FC 1
100
AcDbBlockReference
  2
block 5
 10
0.0
 20
0.0
 30
0.0
  0
INSERT
  5
E5
330
41
100
AcDbEntity
  8
_U+30EC_U+30A4_U+30E4_U+30FC 1
100
AcDbBlockReference
  2
block 6
 10
0.0
 20
0.0
 30
0.0
  0
INSERT
  5
EA
330
41
100
AcDbEntity
  8
_U+30EC_U+30A4_U+30E4_U+30FC 1
100
AcDbBlockReference
  2
block 7
 10
0.0
 20
0.0
 30
0.0
  0
INSERT
  5
EF
330
41
100
AcDbEntity
  8
_U+30EC_U+30A4_U+30E4_U+30FC 1
100
AcDbBlockReference
  2
block 8
 10
0.0
 20
0.0
 30
0.0
  0
POLYLINE
  5
F3
330
41
100
AcDbEntity
  8
_U+30EC_U+30A4_U+30E4_U+30FC 1
 62
   179
420
  2234388
370
     9
100
AcDb2dPolyline
 66
     1
 10
0.0
 20
0.0
 30
0.0
  0
VERTEX
  5
F4
330
F3
100
AcDbEntity
  8
_U+30EC_U+30A4_U+30E4_U+30FC 1
 62
   179
420
  2234388
370
     9
100
AcDbVertex
100
AcDb2dVertex
 10
100.7879735397957
 20
-137.4524174656368
 30
0.0
  0
VERTEX
  5
F5
330
F3
100
AcDbEntity
  8
_U+30EC_U+30A4_U+30E4_U+30FC 1
 62
   179
420
  2234388
370
     9
100
AcDbVertex
100
AcDb2dVertex
 10
100.7879735397957
 20
-139.9521655205674
 30
0.0
  0
SEQEND
  5
F6
330
F3
100
AcDbEntity
  8
_U+30EC_U+30A4_U+30E4_U+30FC 1
 62
   179
420
  2234388
370
     9
  0
POLYLINE
  5
F7
330
41
100
AcDbEntity
  8
_U+30EC_U+30A4_U+30E4_U+30FC 1
 62
   179
420
  2234388
370
     9
100
AcDb2dPolyline
 66
     1
 10
0.0
 20
0.0
 30
0.0
  0
VERTEX
  5
F8
330
F7
100
AcDbEntity
  8
_U+30EC_U+30A4_U+30E4_U+30FC 1
 62
   179
420
  2234388
370
     9
100
AcDbVertex
100
AcDb2dVertex
 10
100.0576177250953
 20
-137.4524174656368
 30
0.0
  0
VERTEX
  5
F9
330
F7
100
AcDbEntity
  8
_U+30EC_U+30A4_U+30E4_U+30FC 1
 62
   179
420
  2234388
370
     9
100
AcDbVertex
100
AcDb2dVertex
 10
101.2875421381617
 20
-137.4524174656368
 30
0.0
  0
SEQEND
  5
FA
330
F7
100
AcDbEntity
  8
_U+30EC_U+30A4_U+30E4_U+30FC 1
 62
   179
420
  2234388
370
     9
  0
POLYLINE
  5
FB
330
41
100
AcDbEntity
  8
_U+30EC_U+30A4_U+30E4_U+30FC 1
 62
   179
420
  2234388
370
     9
100
AcDb2dPolyline
 66
     1
 10
0.0
 20
0.0
 30
0.0
  0
VERTEX
  5
FC
330
FB
100
AcDbEntity
  8
_U+30EC_U+30A4_U+30E4_U+30FC 1
 62
   179
420
  2234388
370
     9
100
AcDbVertex
100
AcDb2dVertex
 10
100.0576177250953
 20
-139.9521655205674
 30
0.0
  0
VERTEX
  5
FD
330
FB
100
AcDbEntity
  8
_U+30EC_U+30A4_U+30E4_U+30FC 1
 62
   179
420
  2234388
370
     9
100
AcDbVertex
100
AcDb2dVertex
 10
101.2875421381617
 20
-139.9521655205674
 30
0.0
  0
SEQEND
  5
FE
330
FB
100
AcDbEntity
  8
_U+30EC_U+30A4_U+30E4_U+30FC 1
 62
   179
420
  2234388
370
     9
  0
INSERT
  5
100
330
41
100
AcDbEntity
  8
_U+30EC_U+30A4_U+30E4_U+30FC 1
100
AcDbBlockReference
  2
block 9
 10
0.0
 20
0.0
 30
0.0
  0
INSERT
  5
106
330
41
100
AcDbEntity
  8
_U+30EC_U+30A4_U+30E4_U+30FC 1
100
AcDbBlockReference
  2
block 10
 10
0.0
 20
0.0
 30
0.0
  0
INSERT
  5
10B
330
41
100
AcDbEntity
  8
_U+30EC_U+30A4_U+30E4_U+30FC 1
100
AcDbBlockReference
  2
block 11
 10
0.0
 20
0.0
 30
0.0
  0
INSERT
  5
110
330
41
100
AcDbEntity
  8
_U+30EC_U+30A4_U+30E4_U+30FC 1
100
AcDbBlockReference
  2
block 12
 10
0.0
 20
0.0
 30
0.0
  0
POLYLINE
  5
114
330
41
100
AcDbEntity
  8
_U+30EC_U+30A4_U+30E4_U+30FC 1
 62
   179
420
  2234388
370
     9
100
AcDb2dPolyline
 66
     1
 10
0.0
 20
0.0
 30
0.0
  0
VERTEX
  5
115
330
114
100
AcDbEntity
  8
_U+30EC_U+30A4_U+30E4_U+30FC 1
 62
   179
420
  2234388
370
     9
100
AcDbVertex
100
AcDb2dVertex
 10
84.78724394800831
 20
-141.9524155200674
 30
0.0
  0
VERTEX
  5
116
330
114
100
AcDbEntity
  8
_U+30EC_U+30A4_U+30E4_U+30FC 1
 62
   179
420
  2234388
370
     9
100
AcDbVertex
100
AcDb2dVertex
 10
98.78775886860319
 20
-141.9524155200674
 30
0.0
  0
SEQEND
  5
117
330
114
100
AcDbEntity
  8
_U+30EC_U+30A4_U+30E4_U+30FC 1
 62
   179
420
  2234388
370
     9
  0
POLYLINE
  5
118
330
41
100
AcDbEntity
  8
_U+30EC_U+30A4_U+30E4_U+30FC 1
 62
   179
420
  2234388
370
     9
100
AcDb2dPolyline
 66
     1
 10
0.0
 20
0.0
 30
0.0
  0
VERTEX
  5
119
330
118
100
AcDbEntity
  8
_U+30EC_U+30A4_U+30E4_U+30FC 1
 62
   179
420
  2234388
370
     9
100
AcDbVertex
100
AcDb2dVertex
 10
84.78724394800831
 20
-141.2220596869169
 30
0.0
  0
VERTEX
  5
11A
330
118
100
AcDbEntity
  8
_U+30EC_U+30A4_U+30E4_U+30FC 1
 62
   179
420
  2234388
370
     9
100
AcDbVertex
100
AcDb2dVertex
 10
84.78724394800831
 20
-142.4519488532762
 30
0.0
  0
SEQEND
  5
11B
330
118
100
AcDbEntity
  8
_U+30EC_U+30A4_U+30E4_U+30FC 1
 62
   179
420
  2234388
370
     9
  0
POLYLINE
  5
11C
330
41
100
AcDbEntity
  8
_U+30EC_U+30A4_U+30E4_U+30FC 1
 62
   179
420
  2234388
370
     9
100
AcDb2dPolyline
 66
     1
 10
0.0
 20
0.0
 30
0.0
  0
VERTEX
  5
11D
330
11C
100
AcDbEntity
  8
_U+30EC_U+30A4_U+30E4_U+30FC 1
 62
   179
420
  2234388
370
     9
100
AcDbVertex
100
AcDb2dVertex
 10
98.78775886860319
 20
-141.2220596869169
 30
0.0
  0
VERTEX
  5
11E
330
11C
100
AcDbEntity
  8
_U+30EC_U+30A4_U+30E4_U+30FC 1
 62
   179
420
  2234388
370
     9
100
AcDbVertex
100
AcDb2dVertex
 10
98.78775886860319
 20
-142.4519488532762
 30
0.0
  0
SEQEND
  5
11F
330
11C
100
AcDbEntity
  8
_U+30EC_U+30A4_U+30E4_U+30FC 1
 62
   179
420
  2234388
370
     9
  0
INSERT
  5
121
330
41
100
AcDbEntity
  8
_U+30EC_U+30A4_U+30E4_U+30FC 1
100
AcDbBlockReference
  2
block 13
 10
0.0
 20
0.0
 30
0.0
  0
INSERT
  5
12B
330
41
100
AcDbEntity
  8
_U+30EC_U+30A4_U+30E4_U+30FC 1
100
AcDbBlockReference
  2
block 14
 10
0.0
 20
0.0
 30
0.0
  0
INSERT
  5
130
330
41
100
AcDbEntity
  8
_U+30EC_U+30A4_U+30E4_U+30FC 1
100
AcDbBlockReference
  2
block 15
 10
0.0
 20
0.0
 30
0.0
  0
INSERT
  5
135
330
41
100
AcDbEntity
  8
_U+30EC_U+30A4_U+30E4_U+30FC 1
100
AcDbBlockReference
  2
block 16
 10
0.0
 20
0.0
 30
0.0
  0
POLYLINE
  5
139
330
41
100
AcDbEntity
  8
_U+30EC_U+30A4_U+30E4_U+30FC 1
 62
   179
420
  2234388
370
     9
100
AcDb2dPolyline
 66
     1
 10
0.0
 20
0.0
 30
0.0
  0
VERTEX
  5
13A
330
139
100
AcDbEntity
  8
_U+30EC_U+30A4_U+30E4_U+30FC 1
 62
   179
420
  2234388
370
     9
100
AcDbVertex
100
AcDb2dVertex
 10
80.787484883384
 20
-117.4521046928591
 30
0.0
  0
VERTEX
  5
13B
330
139
100
AcDbEntity
  8
_U+30EC_U+30A4_U+30E4_U+30FC 1
 62
   179
420
  2234388
370
     9
100
AcDbVertex
100
AcDb2dVertex
 10
80.787484883384
 20
-139.9521655205674
 30
0.0
  0
SEQEND
  5
13C
330
139
100
AcDbEntity
  8
_U+30EC_U+30A4_U+30E4_U+30FC 1
 62
   179
420
  2234388
370
     9
  0
POLYLINE
  5
13D
330
41
100
AcDbEntity
  8
_U+30EC_U+30A4_U+30E4_U+30FC 1
 62
   179
420
  2234388
370
     9
100
AcDb2dPolyline
 66
     1
 10
0.0
 20
0.0
 30
0.0
  0
VERTEX
  5
13E
330
13D
100
AcDbEntity
  8
_U+30EC_U+30A4_U+30E4_U+30FC 1
 62
   179
420
  2234388
370
     9
100
AcDbVertex
100
AcDb2dVertex
 10
88.51758886675955
 20
-117.4521046928591
 30
0.0
  0
VERTEX
  5
13F
330
13D
100
AcDbEntity
  8
_U+30EC_U+30A4_U+30E4_U+30FC 1
 62
   179
420
  2234388
370
     9
100
AcDbVertex
100
AcDb2dVertex
 10
80.28759878502605
 20
-117.4521046928591
 30
0.0
  0
SEQEND
  5
140
330
13D
100
AcDbEntity
  8
_U+30EC_U+30A4_U+30E4_U+30FC 1
 62
   179
420
  2234388
370
     9
  0
POLYLINE
  5
141
330
41
100
AcDbEntity
  8
_U+30EC_U+30A4_U+30E4_U+30FC 1
 62
   179
420
  2234388
370
     9
100
AcDb2dPolyline
 66
     1
 10
0.0
 20
0.0
 30
0.0
  0
VERTEX
  5
142
330
141
100
AcDbEntity
  8
_U+30EC_U+30A4_U+30E4_U+30FC 1
 62
   179
420
  2234388
370
     9
100
AcDbVertex
100
AcDb2dVertex
 10
83.20662315499997
 20
-139.9521655205674
 30
0.0
  0
VERTEX
  5
143
330
141
100
AcDbEntity
  8
_U+30EC_U+30A4_U+30E4_U+30FC 1
 62
   179
420
  2234388
370
     9
100
AcDbVertex
100
AcDb2dVertex
 10
80.28759878502605
 20
-139.9521655205674
 30
0.0
  0
SEQEND
  5
144
330
141
100
AcDbEntity
  8
_U+30EC_U+30A4_U+30E4_U+30FC 1
 62
   179
420
  2234388
370
     9
  0
INSERT
  5
146
330
41
100
AcDbEntity
  8
_U+30EC_U+30A4_U+30E4_U+30FC 1
100
AcDbBlockReference
  2
block 17
 10
0.0
 20
0.0
 30
0.0
  0
INSERT
  5
161
330
41
100
AcDbEntity
  8
_U+30EC_U+30A4_U+30E4_U+30FC 1
100
AcDbBlockReference
  2
block 18
 10
0.0
 20
0.0
 30
0.0
  0
INSERT
  5
166
330
41
100
AcDbEntity
  8
_U+30EC_U+30A4_U+30E4_U+30FC 1
100
AcDbBlockReference
  2
block 19
 10
0.0
 20
0.0
 30
0.0
  0
INSERT
  5
16B
330
41
100
AcDbEntity
  8
_U+30EC_U+30A4_U+30E4_U+30FC 1
100
AcDbBlockReference
  2
block 20
 10
0.0
 20
0.0
 30
0.0
  0
ENDBLK
  5
44
330
41
100
AcDbEntity
  8
0
100
AcDbBlockEnd
  0
BLOCK
  5
AC
330
AA
100
AcDbEntity
  8
0
100
AcDbBlockBegin
  2
block 3
 70
     0
 10
0.0
 20
0.0
 30
0.0
  3
block 3
  1

  0
SPLINE
  5
AE
330
AA
100
AcDbEntity
  8
_U+30EC_U+30A4_U+30E4_U+30FC 1
370
     0
100
AcDbSpline
210
0.0
220
0.0
230
1.0
 70
    11
 71
     3
 72
    26
 73
    22
 74
     0
 42
0.0000000001
 43
0.0000000001
 12
1.0
 22
0.0
 32
0.0
 13
1.0
 23
0.0
 33
0.0
 40
0.0
 40
0.0
 40
0.0
 40
0.0
 40
1.0
 40
1.0
 40
1.0
 40
2.0
 40
2.0
 40
2.0
 40
3.0
 40
3.0
 40
3.0
 40
4.0
 40
4.0
 40
4.0
 40
5.0
 40
5.0
 40
5.0
 40
6.0
 40
6.0
 40
6.0
 40
7.0
 40
7.0
 40
7.0
 40
7.0
 10
90.84475637919854
 20
-114.251424125083
 30
0.0
 10
90.84475637919854
 20
-114.251424125083
 30
0.0
 10
90.84475637919854
 20
-113.1470987672862
 30
0.0
 10
90.84475637919854
 20
-113.1470987672862
 30
0.0
 10
90.84475637919854
 20
-113.1470987672862
 30
0.0
 10
90.5147162317116
 20
-113.1470987672862
 30
0.0
 10
90.5147162317116
 20
-113.1470987672862
 30
0.0
 10
90.5147162317116
 20
-113.1470987672862
 30
0.0
 10
90.5147162317116
 20
-112.9991319161947
 30
0.0
 10
90.5147162317116
 20
-112.9991319161947
 30
0.0
 10
90.84682343648969
 20
-112.9843180056081
 30
0.0
 10
90.89333222554056
 20
-112.8213649891558
 30
0.0
 10
90.92296004671371
 20
-112.7071600738197
 30
0.0
 10
90.92296004671371
 20
-112.7071600738197
 30
0.0
 10
91.0690320952883
 20
-112.7071600738197
 30
0.0
 10
91.0690320952883
 20
-112.7071600738197
 30
0.0
 10
91.0690320952883
 20
-112.7071600738197
 30
0.0
 10
91.0690320952883
 20
-114.251424125083
 30
0.0
 10
91.0690320952883
 20
-114.251424125083
 30
0.0
 10
91.0690320952883
 20
-114.251424125083
 30
0.0
 10
90.84475637919854
 20
-114.251424125083
 30
0.0
 10
90.84475637919854
 20
-114.251424125083
 30
0.0
  0
HATCH
  5
AF
330
AA
100
AcDbEntity
  8
_U+30EC_U+30A4_U+30E4_U+30FC 1
 62
   179
420
  2234388
100
AcDbHatch
 10
0.0
 20
0.0
 30
0.0
210
0.0
220
0.0
230
1.0
  2
SOLID
 70
     1
 71
     0
 91
        1
 92
        1
 93
        1
 72
     4
 94
        3
 73
     0
 74
     1
 95
       26
 96
       22
 40
0.0
 40
0.0
 40
0.0
 40
0.0
 40
1.0
 40
1.0
 40
1.0
 40
2.0
 40
2.0
 40
2.0
 40
3.0
 40
3.0
 40
3.0
 40
4.0
 40
4.0
 40
4.0
 40
5.0
 40
5.0
 40
5.0
 40
6.0
 40
6.0
 40
6.0
 40
7.0
 40
7.0
 40
7.0
 40
7.0
 10
90.84475637919854
 20
-114.251424125083
 10
90.84475637919854
 20
-114.251424125083
 10
90.84475637919854
 20
-113.1470987672862
 10
90.84475637919854
 20
-113.1470987672862
 10
90.84475637919854
 20
-113.1470987672862
 10
90.5147162317116
 20
-113.1470987672862
 10
90.5147162317116
 20
-113.1470987672862
 10
90.5147162317116
 20
-113.1470987672862
 10
90.5147162317116
 20
-112.9991319161947
 10
90.5147162317116
 20
-112.9991319161947
 10
90.84682343648969
 20
-112.9843180056081
 10
90.89333222554056
 20
-112.8213649891558
 10
90.92296004671371
 20
-112.7071600738197
 10
90.92296004671371
 20
-112.7071600738197
 10
91.0690320952883
 20
-112.7071600738197
 10
91.0690320952883
 20
-112.7071600738197
 10
91.0690320952883
 20
-112.7071600738197
 10
91.0690320952883
 20
-114.251424125083
 10
91.0690320952883
 20
-114.251424125083
 10
91.0690320952883
 20
-114.251424125083
 10
90.84475637919854
 20
-114.251424125083
 10
90.84475637919854
 20
-114.251424125083
 97
        0
 97
        0
 75
     2
 76
     1
 98
        0
  0
POLYLINE
  5
B0
330
AA
100
AcDbEntity
  8
_U+30EC_U+30A4_U+30E4_U+30FC 1
370
     0
100
AcDb2dPolyline
 66
     1
 10
0.0
 20
0.0
 30
0.0
  0
VERTEX
  5
B1
330
B0
100
AcDbEntity
  8
_U+30EC_U+30A4_U+30E4_U+30FC 1
370
     0
100
AcDbVertex
100
AcDb2dVertex
 10
91.6302381498355
 20
-114.251424125083
 30
0.0
  0
VERTEX
  5
B2
330
B0
100
AcDbEntity
  8
_U+30EC_U+30A4_U+30E4_U+30FC 1
370
     0
100
AcDbVertex
100
AcDb2dVertex
 10
91.6302381498355
 20
-113.9997598998855
 30
0.0
  0
VERTEX
  5
B3
330
B0
100
AcDbEntity
  8
_U+30EC_U+30A4_U+30E4_U+30FC 1
370
     0
100
AcDbVertex
100
AcDb2dVertex
 10
91.88207462980726
 20
-113.9997598998855
 30
0.0
  0
VERTEX
  5
B4
330
B0
100
AcDbEntity
  8
_U+30EC_U+30A4_U+30E4_U+30FC 1
370
     0
100
AcDbVertex
100
AcDb2dVertex
 10
91.88207462980726
 20
-114.251424125083
 30
0.0
  0
VERTEX
  5
B5
330
B0
100
AcDbEntity
  8
_U+30EC_U+30A4_U+30E4_U+30FC 1
370
     0
100
AcDbVertex
100
AcDb2dVertex
 10
91.6302381498355
 20
-114.251424125083
 30
0.0
  0
SEQEND
  5
B6
330
B0
100
AcDbEntity
  8
_U+30EC_U+30A4_U+30E4_U+30FC 1
370
     0
  0
HATCH
  5
B7
330
AA
100
AcDbEntity
  8
_U+30EC_U+30A4_U+30E4_U+30FC 1
 62
   179
420
  2234388
100
AcDbHatch
 10
0.0
 20
0.0
 30
0.0
210
0.0
220
0.0
230
1.0
  2
SOLID
 70
     1
 71
     0
 91
        1
 92
        1
 93
        4
 72
     1
 10
91.6302381498355
 20
-114.251424125083
 11
91.6302381498355
 21
-113.9997598998855
 72
     1
 10
91.6302381498355
 20
-113.9997598998855
 11
91.88207462980726
 21
-113.9997598998855
 72
     1
 10
91.88207462980726
 20
-113.9997598998855
 11
91.88207462980726
 21
-114.251424125083
 72
     1
 10
91.88207462980726
 20
-114.251424125083
 11
91.6302381498355
 21
-114.251424125083
 97
        0
 75
     2
 76
     1
 98
        0
  0
POLYLINE
  5
B8
330
AA
100
AcDbEntity
  8
_U+30EC_U+30A4_U+30E4_U+30FC 1
370
     0
100
AcDb2dPolyline
 66
     1
 10
0.0
 20
0.0
 30
0.0
  0
VERTEX
  5
B9
330
B8
100
AcDbEntity
  8
_U+30EC_U+30A4_U+30E4_U+30FC 1
370
     0
100
AcDbVertex
100
AcDb2dVertex
 10
92.95039873978324
 20
-113.9045030097183
 30
0.0
  0
VERTEX
  5
BA
330
B8
100
AcDbEntity
  8
_U+30EC_U+30A4_U+30E4_U+30FC 1
370
     0
100
AcDbVertex
100
AcDb2dVertex
 10
92.95039873978324
 20
-114.251424125083
 30
0.0
  0
VERTEX
  5
BB
330
B8
100
AcDbEntity
  8
_U+30EC_U+30A4_U+30E4_U+30FC 1
370
     0
100
AcDbVertex
100
AcDb2dVertex
 10
92.73266870511544
 20
-114.251424125083
 30
0.0
  0
VERTEX
  5
BC
330
B8
100
AcDbEntity
  8
_U+30EC_U+30A4_U+30E4_U+30FC 1
370
     0
100
AcDbVertex
100
AcDb2dVertex
 10
92.73266870511544
 20
-113.9045030097183
 30
0.0
  0
VERTEX
  5
BD
330
B8
100
AcDbEntity
  8
_U+30EC_U+30A4_U+30E4_U+30FC 1
370
     0
100
AcDbVertex
100
AcDb2dVertex
 10
92.07672252472388
 20
-113.9045030097183
 30
0.0
  0
VERTEX
  5
BE
330
B8
100
AcDbEntity
  8
_U+30EC_U+30A4_U+30E4_U+30FC 1
370
     0
100
AcDbVertex
100
AcDb2dVertex
 10
92.07672252472388
 20
-113.6802272936286
 30
0.0
  0
VERTEX
  5
BF
330
B8
100
AcDbEntity
  8
_U+30EC_U+30A4_U+30E4_U+30FC 1
370
     0
100
AcDbVertex
100
AcDb2dVertex
 10
92.75575084486663
 20
-112.7071600738197
 30
0.0
  0
VERTEX
  5
C0
330
B8
100
AcDbEntity
  8
_U+30EC_U+30A4_U+30E4_U+30FC 1
370
     0
100
AcDbVertex
100
AcDb2dVertex
 10
92.95039873978324
 20
-112.7071600738197
 30
0.0
  0
VERTEX
  5
C1
330
B8
100
AcDbEntity
  8
_U+30EC_U+30A4_U+30E4_U+30FC 1
370
     0
100
AcDbVertex
100
AcDb2dVertex
 10
92.95039873978324
 20
-113.7055487454451
 30
0.0
  0
VERTEX
  5
C2
330
B8
100
AcDbEntity
  8
_U+30EC_U+30A4_U+30E4_U+30FC 1
370
     0
100
AcDbVertex
100
AcDb2dVertex
 10
93.15779348799528
 20
-113.7055487454451
 30
0.0
  0
VERTEX
  5
C3
330
B8
100
AcDbEntity
  8
_U+30EC_U+30A4_U+30E4_U+30FC 1
370
     0
100
AcDbVertex
100
AcDb2dVertex
 10
93.15779348799528
 20
-113.9045030097183
 30
0.0
  0
VERTEX
  5
C4
330
B8
100
AcDbEntity
  8
_U+30EC_U+30A4_U+30E4_U+30FC 1
370
     0
100
AcDbVertex
100
AcDb2dVertex
 10
92.95039873978324
 20
-113.9045030097183
 30
0.0
  0
SEQEND
  5
C5
330
B8
100
AcDbEntity
  8
_U+30EC_U+30A4_U+30E4_U+30FC 1
370
     0
  0
POLYLINE
  5
C6
330
AA
100
AcDbEntity
  8
_U+30EC_U+30A4_U+30E4_U+30FC 1
370
     0
100
AcDb2dPolyline
 66
     1
 10
0.0
 20
0.0
 30
0.0
  0
VERTEX
  5
C7
330
C6
100
AcDbEntity
  8
_U+30EC_U+30A4_U+30E4_U+30FC 1
370
     0
100
AcDbVertex
100
AcDb2dVertex
 10
92.73266870511544
 20
-113.0497748198278
 30
0.0
  0
VERTEX
  5
C8
330
C6
100
AcDbEntity
  8
_U+30EC_U+30A4_U+30E4_U+30FC 1
370
     0
100
AcDbVertex
100
AcDb2dVertex
 10
92.27550453422279
 20
-113.7055487454451
 30
0.0
  0
VERTEX
  5
C9
330
C6
100
AcDbEntity
  8
_U+30EC_U+30A4_U+30E4_U+30FC 1
370
     0
100
AcDbVertex
100
AcDb2dVertex
 10
92.73266870511544
 20
-113.7055487454451
 30
0.0
  0
VERTEX
  5
CA
330
C6
100
AcDbEntity
  8
_U+30EC_U+30A4_U+30E4_U+30FC 1
370
     0
100
AcDbVertex
100
AcDb2dVertex
 10
92.73266870511544
 20
-113.0497748198278
 30
0.0
  0
SEQEND
  5
CB
330
C6
100
AcDbEntity
  8
_U+30EC_U+30A4_U+30E4_U+30FC 1
370
     0
  0
HATCH
  5
CC
330
AA
100
AcDbEntity
  8
_U+30EC_U+30A4_U+30E4_U+30FC 1
 62
   179
420
  2234388
100
AcDbHatch
 10
0.0
 20
0.0
 30
0.0
210
0.0
220
0.0
230
1.0
  2
SOLID
 70
     1
 71
     0
 91
        2
 92
        1
 93
       11
 72
     1
 10
92.95039873978324
 20
-113.9045030097183
 11
92.95039873978324
 21
-114.251424125083
 72
     1
 10
92.95039873978324
 20
-114.251424125083
 11
92.73266870511544
 21
-114.251424125083
 72
     1
 10
92.73266870511544
 20
-114.251424125083
 11
92.73266870511544
 21
-113.9045030097183
 72
     1
 10
92.73266870511544
 20
-113.9045030097183
 11
92.07672252472388
 21
-113.9045030097183
 72
     1
 10
92.07672252472388
 20
-113.9045030097183
 11
92.07672252472388
 21
-113.6802272936286
 72
     1
 10
92.07672252472388
 20
-113.6802272936286
 11
92.75575084486663
 21
-112.7071600738197
 72
     1
 10
92.75575084486663
 20
-112.7071600738197
 11
92.95039873978324
 21
-112.7071600738197
 72
     1
 10
92.95039873978324
 20
-112.7071600738197
 11
92.95039873978324
 21
-113.7055487454451
 72
     1
 10
92.95039873978324
 20
-113.7055487454451
 11
93.15779348799528
 21
-113.7055487454451
 72
     1
 10
93.15779348799528
 20
-113.7055487454451
 11
93.15779348799528
 21
-113.9045030097183
 72
     1
 10
93.15779348799528
 20
-113.9045030097183
 11
92.95039873978324
 21
-113.9045030097183
 97
        0
 92
        1
 93
        3
 72
     1
 10
92.73266870511544
 20
-113.0497748198278
 11
92.27550453422279
 21
-113.7055487454451
 72
     1
 10
92.27550453422279
 20
-113.7055487454451
 11
92.73266870511544
 21
-113.7055487454451
 72
     1
 10
92.73266870511544
 20
-113.7055487454451
 11
92.73266870511544
 21
-113.0497748198278
 97
        0
 75
     2
 76
     1
 98
        0
  0
ENDBLK
  5
AD
330
AA
100
AcDbEntity
  8
0
100
AcDbBlockEnd
  0
BLOCK
  5
CF
330
CD
100
AcDbEntity
  8
0
100
AcDbBlockBegin
  2
block 4
 70
     0
 10
0.0
 20
0.0
 30
0.0
  3
block 4
  1

  0
SPLINE
  5
D1
330
CD
100
AcDbEntity
  8
_U+30EC_U+30A4_U+30E4_U+30FC 1
 62
   179
420
  2234388
370
     9
100
AcDbSpline
210
0.0
220
0.0
230
1.0
 70
    11
 71
     3
 72
    17
 73
    13
 74
     0
 42
0.0000000001
 43
0.0000000001
 12
1.0
 22
0.0
 32
0.0
 13
1.0
 23
0.0
 33
0.0
 40
0.0
 40
0.0
 40
0.0
 40
0.0
 40
1.0
 40
1.0
 40
1.0
 40
2.0
 40
2.0
 40
2.0
 40
3.0
 40
3.0
 40
3.0
 40
4.0
 40
4.0
 40
4.0
 40
4.0
 10
92.15493709337613
 20
-115.4522074711369
 30
0.0
 10
92.15493709337613
 20
-115.4618735822456
 30
0.0
 10
92.14735237134741
 20
-115.4697758044658
 30
0.0
 10
92.137368760491
 20
-115.4697758044658
 30
0.0
 10
92.1277026496265
 20
-115.4697758044658
 30
0.0
 10
92.11980275474798
 20
-115.4618735822456
 30
0.0
 10
92.11980275474798
 20
-115.4522074711369
 30
0.0
 10
92.11980275474798
 20
-115.4425766378061
 30
0.0
 10
92.1277026496265
 20
-115.434639137808
 30
0.0
 10
92.137368760491
 20
-115.434639137808
 30
0.0
 10
92.14735237134741
 20
-115.434639137808
 30
0.0
 10
92.15493709337613
 20
-115.4425766378061
 30
0.0
 10
92.15493709337613
 20
-115.4522074711369
 30
0.0
  0
ENDBLK
  5
D0
330
CD
100
AcDbEntity
  8
0
100
AcDbBlockEnd
  0
BLOCK
  5
E0
330
DE
100
AcDbEntity
  8
0
100
AcDbBlockBegin
  2
block 5
 70
     0
 10
0.0
 20
0.0
 30
0.0
  3
block 5
  1

  0
SPLINE
  5
E2
330
DE
100
AcDbEntity
  8
_U+30EC_U+30A4_U+30E4_U+30FC 1
370
     0
100
AcDbSpline
210
0.0
220
0.0
230
1.0
 70
    11
 71
     3
 72
    53
 73
    49
 74
     0
 42
0.0000000001
 43
0.0000000001
 12
1.0
 22
0.0
 32
0.0
 13
1.0
 23
0.0
 33
0.0
 40
0.0
 40
0.0
 40
0.0
 40
0.0
 40
1.0
 40
1.0
 40
1.0
 40
2.0
 40
2.0
 40
2.0
 40
3.0
 40
3.0
 40
3.0
 40
4.0
 40
4.0
 40
4.0
 40
5.0
 40
5.0
 40
5.0
 40
6.0
 40
6.0
 40
6.0
 40
7.0
 40
7.0
 40
7.0
 40
8.0
 40
8.0
 40
8.0
 40
9.0
 40
9.0
 40
9.0
 40
10.0
 40
10.0
 40
10.0
 40
11.0
 40
11.0
 40
11.0
 40
12.0
 40
12.0
 40
12.0
 40
13.0
 40
13.0
 40
13.0
 40
14.0
 40
14.0
 40
14.0
 40
15.0
 40
15.0
 40
15.0
 40
16.0
 40
16.0
 40
16.0
 40
16.0
 10
97.518250843676
 20
-134.7149467979185
 30
0.0
 10
97.44004717616083
 20
-134.7149467979185
 30
0.0
 10
97.33841685934595
 20
-134.6980658300408
 30
0.0
 10
97.23678654253109
 20
-134.6346760731122
 30
0.0
 10
97.06349823962302
 20
-134.5247775271327
 30
0.0
 10
97.04213864761446
 20
-134.3935193891447
 30
0.0
 10
97.0231906224456
 20
-134.2856879004564
 30
0.0
 10
97.0231906224456
 20
-134.2856879004564
 30
0.0
 10
97.2453992812442
 20
-134.2856879004564
 30
0.0
 10
97.2453992812442
 20
-134.2856879004564
 30
0.0
 10
97.30017629945968
 20
-134.4844699099553
 30
0.0
 10
97.4273003228654
 20
-134.5140977311284
 30
0.0
 10
97.52031790096714
 20
-134.5140977311284
 30
0.0
 10
97.65984426811977
 20
-134.5140977311284
 30
0.0
 10
97.81211748856781
 20
-134.4145344716047
 30
0.0
 10
97.81211748856781
 20
-134.1819905263503
 30
0.0
 10
97.81211748856781
 20
-133.9260199317963
 30
0.0
 10
97.63228350423776
 20
-133.8564290029942
 30
0.0
 10
97.51170516225402
 20
-133.8564290029942
 30
0.0
 10
97.48001028378972
 20
-133.8564290029942
 30
0.0
 10
97.33841685934595
 20
-133.8564290029942
 30
0.0
 10
97.2495333958265
 20
-133.9852755741426
 30
0.0
 10
97.2495333958265
 20
-133.9852755741426
 30
0.0
 10
97.07383352607877
 20
-133.9659830394252
 30
0.0
 10
97.07383352607877
 20
-133.9659830394252
 30
0.0
 10
97.07383352607877
 20
-133.9659830394252
 30
0.0
 10
97.19441186806252
 20
-133.1198675882478
 30
0.0
 10
97.19441186806252
 20
-133.1198675882478
 30
0.0
 10
97.19441186806252
 20
-133.1198675882478
 30
0.0
 10
97.97300344772897
 20
-133.1198675882478
 30
0.0
 10
97.97300344772897
 20
-133.1198675882478
 30
0.0
 10
97.97300344772897
 20
-133.1198675882478
 30
0.0
 10
97.97300344772897
 20
-133.314859992713
 30
0.0
 10
97.97300344772897
 20
-133.314859992713
 30
0.0
 10
97.97300344772897
 20
-133.314859992713
 30
0.0
 10
97.35736488451484
 20
-133.314859992713
 30
0.0
 10
97.35736488451484
 20
-133.314859992713
 30
0.0
 10
97.35736488451484
 20
-133.314859992713
 30
0.0
 10
97.29190807029508
 20
-133.7379177183016
 30
0.0
 10
97.29190807029508
 20
-133.7379177183016
 30
0.0
 10
97.35323076993252
 20
-133.7038112729977
 30
0.0
 10
97.43556855203
 20
-133.6635036558203
 30
0.0
 10
97.5540798367226
 20
-133.6635036558203
 30
0.0
 10
97.80798337398551
 20
-133.6635036558203
 30
0.0
 10
98.0450059433707
 20
-133.8498833215723
 30
0.0
 10
98.0450059433707
 20
-134.1630425011815
 30
0.0
 10
98.0450059433707
 20
-134.480335795373
 30
0.0
 10
97.82073022728093
 20
-134.7149467979185
 30
0.0
 10
97.518250843676
 20
-134.7149467979185
 30
0.0
  0
HATCH
  5
E3
330
DE
100
AcDbEntity
  8
_U+30EC_U+30A4_U+30E4_U+30FC 1
 62
   179
420
  2234388
100
AcDbHatch
 10
0.0
 20
0.0
 30
0.0
210
0.0
220
0.0
230
1.0
  2
SOLID
 70
     1
 71
     0
 91
        1
 92
        1
 93
        1
 72
     4
 94
        3
 73
     0
 74
     1
 95
       53
 96
       49
 40
0.0
 40
0.0
 40
0.0
 40
0.0
 40
1.0
 40
1.0
 40
1.0
 40
2.0
 40
2.0
 40
2.0
 40
3.0
 40
3.0
 40
3.0
 40
4.0
 40
4.0
 40
4.0
 40
5.0
 40
5.0
 40
5.0
 40
6.0
 40
6.0
 40
6.0
 40
7.0
 40
7.0
 40
7.0
 40
8.0
 40
8.0
 40
8.0
 40
9.0
 40
9.0
 40
9.0
 40
10.0
 40
10.0
 40
10.0
 40
11.0
 40
11.0
 40
11.0
 40
12.0
 40
12.0
 40
12.0
 40
13.0
 40
13.0
 40
13.0
 40
14.0
 40
14.0
 40
14.0
 40
15.0
 40
15.0
 40
15.0
 40
16.0
 40
16.0
 40
16.0
 40
16.0
 10
97.518250843676
 20
-134.7149467979185
 10
97.44004717616083
 20
-134.7149467979185
 10
97.33841685934595
 20
-134.6980658300408
 10
97.23678654253109
 20
-134.6346760731122
 10
97.06349823962302
 20
-134.5247775271327
 10
97.04213864761446
 20
-134.3935193891447
 10
97.0231906224456
 20
-134.2856879004564
 10
97.0231906224456
 20
-134.2856879004564
 10
97.2453992812442
 20
-134.2856879004564
 10
97.2453992812442
 20
-134.2856879004564
 10
97.30017629945968
 20
-134.4844699099553
 10
97.4273003228654
 20
-134.5140977311284
 10
97.52031790096714
 20
-134.5140977311284
 10
97.65984426811977
 20
-134.5140977311284
 10
97.81211748856781
 20
-134.4145344716047
 10
97.81211748856781
 20
-134.1819905263503
 10
97.81211748856781
 20
-133.9260199317963
 10
97.63228350423776
 20
-133.8564290029942
 10
97.51170516225402
 20
-133.8564290029942
 10
97.48001028378972
 20
-133.8564290029942
 10
97.33841685934595
 20
-133.8564290029942
 10
97.2495333958265
 20
-133.9852755741426
 10
97.2495333958265
 20
-133.9852755741426
 10
97.07383352607877
 20
-133.9659830394252
 10
97.07383352607877
 20
-133.9659830394252
 10
97.07383352607877
 20
-133.9659830394252
 10
97.19441186806252
 20
-133.1198675882478
 10
97.19441186806252
 20
-133.1198675882478
 10
97.19441186806252
 20
-133.1198675882478
 10
97.97300344772897
 20
-133.1198675882478
 10
97.97300344772897
 20
-133.1198675882478
 10
97.97300344772897
 20
-133.1198675882478
 10
97.97300344772897
 20
-133.314859992713
 10
97.97300344772897
 20
-133.314859992713
 10
97.97300344772897
 20
-133.314859992713
 10
97.35736488451484
 20
-133.314859992713
 10
97.35736488451484
 20
-133.314859992713
 10
97.35736488451484
 20
-133.314859992713
 10
97.29190807029508
 20
-133.7379177183016
 10
97.29190807029508
 20
-133.7379177183016
 10
97.35323076993252
 20
-133.7038112729977
 10
97.43556855203
 20
-133.6635036558203
 10
97.5540798367226
 20
-133.6635036558203
 10
97.80798337398551
 20
-133.6635036558203
 10
98.0450059433707
 20
-133.8498833215723
 10
98.0450059433707
 20
-134.1630425011815
 10
98.0450059433707
 20
-134.480335795373
 10
97.82073022728093
 20
-134.7149467979185
 10
97.518250843676
 20
-134.7149467979185
 97
        0
 97
        0
 75
     2
 76
     1
 98
        0
  0
ENDBLK
  5
E1
330
DE
100
AcDbEntity
  8
0
100
AcDbBlockEnd
  0
BLOCK
  5
E6
330
E4
100
AcDbEntity
  8
0
100
AcDbBlockBegin
  2
block 6
 70
     0
 10
0.0
 20
0.0
 30
0.0
  3
block 6
  1

  0
SPLINE
  5
E8
330
E4
100
AcDbEntity
  8
_U+30EC_U+30A4_U+30E4_U+30FC 1
 62
   179
420
  2234388
370
    25
100
AcDbSpline
210
0.0
220
0.0
230
1.0
 70
    11
 71
     3
 72
    17
 73
    13
 74
     0
 42
0.0000000001
 43
0.0000000001
 12
1.0
 22
0.0
 32
0.0
 13
1.0
 23
0.0
 33
0.0
 40
0.0
 40
0.0
 40
0.0
 40
0.0
 40
1.0
 40
1.0
 40
1.0
 40
2.0
 40
2.0
 40
2.0
 40
3.0
 40
3.0
 40
3.0
 40
4.0
 40
4.0
 40
4.0
 40
4.0
 10
96.3048736541691
 20
-137.4524174656368
 30
0.0
 10
96.3048736541691
 20
-137.4620835767458
 30
0.0
 10
96.29732420991725
 20
-137.4696330211882
 30
0.0
 10
96.28765809905275
 20
-137.4696330211882
 30
0.0
 10
96.27767448819634
 20
-137.4696330211882
 30
0.0
 10
96.26973698839883
 20
-137.4620835767458
 30
0.0
 10
96.26973698839883
 20
-137.4524174656368
 30
0.0
 10
96.26973698839883
 20
-137.4420810767504
 30
0.0
 10
96.27767448819634
 20
-137.4344963545305
 30
0.0
 10
96.28765809905275
 20
-137.4344963545305
 30
0.0
 10
96.29732420991725
 20
-137.4344963545305
 30
0.0
 10
96.3048736541691
 20
-137.4420810767504
 30
0.0
 10
96.3048736541691
 20
-137.4524174656368
 30
0.0
  0
ENDBLK
  5
E7
330
E4
100
AcDbEntity
  8
0
100
AcDbBlockEnd
  0
BLOCK
  5
EB
330
E9
100
AcDbEntity
  8
0
100
AcDbBlockBegin
  2
block 7
 70
     0
 10
0.0
 20
0.0
 30
0.0
  3
block 7
  1

  0
SPLINE
  5
ED
330
E9
100
AcDbEntity
  8
_U+30EC_U+30A4_U+30E4_U+30FC 1
 62
   179
420
  2234388
370
    25
100
AcDbSpline
210
0.0
220
0.0
230
1.0
 70
    11
 71
     3
 72
    17
 73
    13
 74
     0
 42
0.0000000001
 43
0.0000000001
 12
1.0
 22
0.0
 32
0.0
 13
1.0
 23
0.0
 33
0.0
 40
0.0
 40
0.0
 40
0.0
 40
0.0
 40
1.0
 40
1.0
 40
1.0
 40
2.0
 40
2.0
 40
2.0
 40
3.0
 40
3.0
 40
3.0
 40
4.0
 40
4.0
 40
4.0
 40
4.0
 10
98.80532720148832
 20
-137.4524174656368
 30
0.0
 10
98.80532720148832
 20
-137.4620835767458
 30
0.0
 10
98.7974249794677
 20
-137.4696330211882
 30
0.0
 10
98.78775886860319
 20
-137.4696330211882
 30
0.0
 10
98.7781305308611
 20
-137.4696330211882
 30
0.0
 10
98.77019053571807
 20
-137.4620835767458
 30
0.0
 10
98.77019053571807
 20
-137.4524174656368
 30
0.0
 10
98.77019053571807
 20
-137.4420810767504
 30
0.0
 10
98.7781305308611
 20
-137.4344963545305
 30
0.0
 10
98.78775886860319
 20
-137.4344963545305
 30
0.0
 10
98.7974249794677
 20
-137.4344963545305
 30
0.0
 10
98.80532720148832
 20
-137.4420810767504
 30
0.0
 10
98.80532720148832
 20
-137.4524174656368
 30
0.0
  0
ENDBLK
  5
EC
330
E9
100
AcDbEntity
  8
0
100
AcDbBlockEnd
  0
BLOCK
  5
F0
330
EE
100
AcDbEntity
  8
0
100
AcDbBlockBegin
  2
block 8
 70
     0
 10
0.0
 20
0.0
 30
0.0
  3
block 8
  1

  0
SPLINE
  5
F2
330
EE
100
AcDbEntity
  8
_U+30EC_U+30A4_U+30E4_U+30FC 1
 62
   179
420
  2234388
370
     9
100
AcDbSpline
210
0.0
220
0.0
230
1.0
 70
    11
 71
     3
 72
    17
 73
    13
 74
     0
 42
0.0000000001
 43
0.0000000001
 12
1.0
 22
0.0
 32
0.0
 13
1.0
 23
0.0
 33
0.0
 40
0.0
 40
0.0
 40
0.0
 40
0.0
 40
1.0
 40
1.0
 40
1.0
 40
2.0
 40
2.0
 40
2.0
 40
3.0
 40
3.0
 40
3.0
 40
4.0
 40
4.0
 40
4.0
 40
4.0
 10
98.80532720148832
 20
-135.452202743915
 30
0.0
 10
98.80532720148832
 20
-135.4618335772458
 30
0.0
 10
98.7974249794677
 20
-135.4701238550213
 30
0.0
 10
98.78775886860319
 20
-135.4701238550213
 30
0.0
 10
98.7781305308611
 20
-135.4701238550213
 30
0.0
 10
98.77019053571807
 20
-135.4618335772458
 30
0.0
 10
98.77019053571807
 20
-135.452202743915
 30
0.0
 10
98.77019053571807
 20
-135.442536632806
 30
0.0
 10
98.7781305308611
 20
-135.4342816328081
 30
0.0
 10
98.78775886860319
 20
-135.4342816328081
 30
0.0
 10
98.7974249794677
 20
-135.4342816328081
 30
0.0
 10
98.80532720148832
 20
-135.442536632806
 30
0.0
 10
98.80532720148832
 20
-135.452202743915
 30
0.0
  0
ENDBLK
  5
F1
330
EE
100
AcDbEntity
  8
0
100
AcDbBlockEnd
  0
BLOCK
  5
101
330
FF
100
AcDbEntity
  8
0
100
AcDbBlockBegin
  2
block 9
 70
     0
 10
0.0
 20
0.0
 30
0.0
  3
block 9
  1

  0
SPLINE
  5
103
330
FF
100
AcDbEntity
  8
_U+30EC_U+30A4_U+30E4_U+30FC 1
370
     0
100
AcDbSpline
210
0.0
220
0.0
230
1.0
 70
    11
 71
     3
 72
    53
 73
    49
 74
     0
 42
0.0000000001
 43
0.0000000001
 12
1.0
 22
0.0
 32
0.0
 13
1.0
 23
0.0
 33
0.0
 40
0.0
 40
0.0
 40
0.0
 40
0.0
 40
1.0
 40
1.0
 40
1.0
 40
2.0
 40
2.0
 40
2.0
 40
3.0
 40
3.0
 40
3.0
 40
4.0
 40
4.0
 40
4.0
 40
5.0
 40
5.0
 40
5.0
 40
6.0
 40
6.0
 40
6.0
 40
7.0
 40
7.0
 40
7.0
 40
8.0
 40
8.0
 40
8.0
 40
9.0
 40
9.0
 40
9.0
 40
10.0
 40
10.0
 40
10.0
 40
11.0
 40
11.0
 40
11.0
 40
12.0
 40
12.0
 40
12.0
 40
13.0
 40
13.0
 40
13.0
 40
14.0
 40
14.0
 40
14.0
 40
15.0
 40
15.0
 40
15.0
 40
16.0
 40
16.0
 40
16.0
 40
16.0
 10
103.0245469577508
 20
-138.721592847264
 30
0.0
 10
103.0245469577508
 20
-138.8001410243278
 30
0.0
 10
103.0076659898731
 20
-138.9014268315941
 30
0.0
 10
102.9442762329445
 20
-139.003057148409
 30
0.0
 10
102.834377686965
 20
-139.176345451317
 30
0.0
 10
102.703119548977
 20
-139.1977050433256
 30
0.0
 10
102.5952880602887
 20
-139.2166530684945
 30
0.0
 10
102.5952880602887
 20
-139.2166530684945
 30
0.0
 10
102.5952880602887
 20
-138.9944444096958
 30
0.0
 10
102.5952880602887
 20
-138.9944444096958
 30
0.0
 10
102.7940700697876
 20
-138.9393228819318
 30
0.0
 10
102.8236978909607
 20
-138.8125433680746
 30
0.0
 10
102.8236978909607
 20
-138.7195257899729
 30
0.0
 10
102.8236978909607
 20
-138.5799994228203
 30
0.0
 10
102.724134631437
 20
-138.4273816928237
 30
0.0
 10
102.4915906861827
 20
-138.4273816928237
 30
0.0
 10
102.2356200916286
 20
-138.4273816928237
 30
0.0
 10
102.165684653278
 20
-138.6072156771538
 30
0.0
 10
102.165684653278
 20
-138.7277940191375
 30
0.0
 10
102.165684653278
 20
-138.7594888976018
 30
0.0
 10
102.165684653278
 20
-138.9014268315941
 30
0.0
 10
102.2948757339749
 20
-138.9903102951135
 30
0.0
 10
102.2948757339749
 20
-138.9903102951135
 30
0.0
 10
102.275927708806
 20
-139.1660101648613
 30
0.0
 10
102.275927708806
 20
-139.1660101648613
 30
0.0
 10
102.275927708806
 20
-139.1660101648613
 30
0.0
 10
101.4294677480801
 20
-139.0454318228775
 30
0.0
 10
101.4294677480801
 20
-139.0454318228775
 30
0.0
 10
101.4294677480801
 20
-139.0454318228775
 30
0.0
 10
101.4294677480801
 20
-138.2668402432111
 30
0.0
 10
101.4294677480801
 20
-138.2668402432111
 30
0.0
 10
101.4294677480801
 20
-138.2668402432111
 30
0.0
 10
101.6241156429968
 20
-138.2668402432111
 30
0.0
 10
101.6241156429968
 20
-138.2668402432111
 30
0.0
 10
101.6241156429968
 20
-138.2668402432111
 30
0.0
 10
101.6241156429968
 20
-138.8824788064252
 30
0.0
 10
101.6241156429968
 20
-138.8824788064252
 30
0.0
 10
101.6241156429968
 20
-138.8824788064252
 30
0.0
 10
102.0471733685854
 20
-138.947935620645
 30
0.0
 10
102.0471733685854
 20
-138.947935620645
 30
0.0
 10
102.01341143283
 20
-138.8866129210075
 30
0.0
 10
101.9731038156526
 20
-138.80427513891
 30
0.0
 10
101.9731038156526
 20
-138.6857638542174
 30
0.0
 10
101.9731038156526
 20
-138.4318603169546
 30
0.0
 10
102.1594834814046
 20
-138.1948377475694
 30
0.0
 10
102.4726426610138
 20
-138.1948377475694
 30
0.0
 10
102.7899359552053
 20
-138.1948377475694
 30
0.0
 10
103.0245469577508
 20
-138.4191134636591
 30
0.0
 10
103.0245469577508
 20
-138.721592847264
 30
0.0
  0
HATCH
  5
104
330
FF
100
AcDbEntity
  8
_U+30EC_U+30A4_U+30E4_U+30FC 1
 62
   179
420
  2234388
100
AcDbHatch
 10
0.0
 20
0.0
 30
0.0
210
0.0
220
0.0
230
1.0
  2
SOLID
 70
     1
 71
     0
 91
        1
 92
        1
 93
        1
 72
     4
 94
        3
 73
     0
 74
     1
 95
       53
 96
       49
 40
0.0
 40
0.0
 40
0.0
 40
0.0
 40
1.0
 40
1.0
 40
1.0
 40
2.0
 40
2.0
 40
2.0
 40
3.0
 40
3.0
 40
3.0
 40
4.0
 40
4.0
 40
4.0
 40
5.0
 40
5.0
 40
5.0
 40
6.0
 40
6.0
 40
6.0
 40
7.0
 40
7.0
 40
7.0
 40
8.0
 40
8.0
 40
8.0
 40
9.0
 40
9.0
 40
9.0
 40
10.0
 40
10.0
 40
10.0
 40
11.0
 40
11.0
 40
11.0
 40
12.0
 40
12.0
 40
12.0
 40
13.0
 40
13.0
 40
13.0
 40
14.0
 40
14.0
 40
14.0
 40
15.0
 40
15.0
 40
15.0
 40
16.0
 40
16.0
 40
16.0
 40
16.0
 10
103.0245469577508
 20
-138.721592847264
 10
103.0245469577508
 20
-138.8001410243278
 10
103.0076659898731
 20
-138.9014268315941
 10
102.9442762329445
 20
-139.003057148409
 10
102.834377686965
 20
-139.176345451317
 10
102.703119548977
 20
-139.1977050433256
 10
102.5952880602887
 20
-139.2166530684945
 10
102.5952880602887
 20
-139.2166530684945
 10
102.5952880602887
 20
-138.9944444096958
 10
102.5952880602887
 20
-138.9944444096958
 10
102.7940700697876
 20
-138.9393228819318
 10
102.8236978909607
 20
-138.8125433680746
 10
102.8236978909607
 20
-138.7195257899729
 10
102.8236978909607
 20
-138.5799994228203
 10
102.724134631437
 20
-138.4273816928237
 10
102.4915906861827
 20
-138.4273816928237
 10
102.2356200916286
 20
-138.4273816928237
 10
102.165684653278
 20
-138.6072156771538
 10
102.165684653278
 20
-138.7277940191375
 10
102.165684653278
 20
-138.7594888976018
 10
102.165684653278
 20
-138.9014268315941
 10
102.2948757339749
 20
-138.9903102951135
 10
102.2948757339749
 20
-138.9903102951135
 10
102.275927708806
 20
-139.1660101648613
 10
102.275927708806
 20
-139.1660101648613
 10
102.275927708806
 20
-139.1660101648613
 10
101.4294677480801
 20
-139.0454318228775
 10
101.4294677480801
 20
-139.0454318228775
 10
101.4294677480801
 20
-139.0454318228775
 10
101.4294677480801
 20
-138.2668402432111
 10
101.4294677480801
 20
-138.2668402432111
 10
101.4294677480801
 20
-138.2668402432111
 10
101.6241156429968
 20
-138.2668402432111
 10
101.6241156429968
 20
-138.2668402432111
 10
101.6241156429968
 20
-138.2668402432111
 10
101.6241156429968
 20
-138.8824788064252
 10
101.6241156429968
 20
-138.8824788064252
 10
101.6241156429968
 20
-138.8824788064252
 10
102.0471733685854
 20
-138.947935620645
 10
102.0471733685854
 20
-138.947935620645
 10
102.01341143283
 20
-138.8866129210075
 10
101.9731038156526
 20
-138.80427513891
 10
101.9731038156526
 20
-138.6857638542174
 10
101.9731038156526
 20
-138.4318603169546
 10
102.1594834814046
 20
-138.1948377475694
 10
102.4726426610138
 20
-138.1948377475694
 10
102.7899359552053
 20
-138.1948377475694
 10
103.0245469577508
 20
-138.4191134636591
 10
103.0245469577508
 20
-138.721592847264
 97
        0
 97
        0
 75
     2
 76
     1
 98
        0
  0
ENDBLK
  5
102
330
FF
100
AcDbEntity
  8
0
100
AcDbBlockEnd
  0
BLOCK
  5
107
330
105
100
AcDbEntity
  8
0
100
AcDbBlockBegin
  2
block 10
 70
     0
 10
0.0
 20
0.0
 30
0.0
  3
block 10
  1

  0
SPLINE
  5
109
330
105
100
AcDbEntity
  8
_U+30EC_U+30A4_U+30E4_U+30FC 1
 62
   179
420
  2234388
370
    25
100
AcDbSpline
210
0.0
220
0.0
230
1.0
 70
    11
 71
     3
 72
    17
 73
    13
 74
     0
 42
0.0000000001
 43
0.0000000001
 12
1.0
 22
0.0
 32
0.0
 13
1.0
 23
0.0
 33
0.0
 40
0.0
 40
0.0
 40
0.0
 40
0.0
 40
1.0
 40
1.0
 40
1.0
 40
2.0
 40
2.0
 40
2.0
 40
3.0
 40
3.0
 40
3.0
 40
4.0
 40
4.0
 40
4.0
 40
4.0
 10
98.80532720148832
 20
-137.4524174656368
 30
0.0
 10
98.80532720148832
 20
-137.4620835767458
 30
0.0
 10
98.7974249794677
 20
-137.4696330211882
 30
0.0
 10
98.78775886860319
 20
-137.4696330211882
 30
0.0
 10
98.7781305308611
 20
-137.4696330211882
 30
0.0
 10
98.77019053571807
 20
-137.4620835767458
 30
0.0
 10
98.77019053571807
 20
-137.4524174656368
 30
0.0
 10
98.77019053571807
 20
-137.4420810767504
 30
0.0
 10
98.7781305308611
 20
-137.4344963545305
 30
0.0
 10
98.78775886860319
 20
-137.4344963545305
 30
0.0
 10
98.7974249794677
 20
-137.4344963545305
 30
0.0
 10
98.80532720148832
 20
-137.4420810767504
 30
0.0
 10
98.80532720148832
 20
-137.4524174656368
 30
0.0
  0
ENDBLK
  5
108
330
105
100
AcDbEntity
  8
0
100
AcDbBlockEnd
  0
BLOCK
  5
10C
330
10A
100
AcDbEntity
  8
0
100
AcDbBlockBegin
  2
block 11
 70
     0
 10
0.0
 20
0.0
 30
0.0
  3
block 11
  1

  0
SPLINE
  5
10E
330
10A
100
AcDbEntity
  8
_U+30EC_U+30A4_U+30E4_U+30FC 1
 62
   179
420
  2234388
370
    25
100
AcDbSpline
210
0.0
220
0.0
230
1.0
 70
    11
 71
     3
 72
    17
 73
    13
 74
     0
 42
0.0000000001
 43
0.0000000001
 12
1.0
 22
0.0
 32
0.0
 13
1.0
 23
0.0
 33
0.0
 40
0.0
 40
0.0
 40
0.0
 40
0.0
 40
1.0
 40
1.0
 40
1.0
 40
2.0
 40
2.0
 40
2.0
 40
3.0
 40
3.0
 40
3.0
 40
4.0
 40
4.0
 40
4.0
 40
4.0
 10
98.80532720148832
 20
-139.9521655205674
 30
0.0
 10
98.80532720148832
 20
-139.9618316316764
 30
0.0
 10
98.7974249794677
 20
-139.9700866316744
 30
0.0
 10
98.78775886860319
 20
-139.9700866316744
 30
0.0
 10
98.7781305308611
 20
-139.9700866316744
 30
0.0
 10
98.77019053571807
 20
-139.9618316316764
 30
0.0
 10
98.77019053571807
 20
-139.9521655205674
 30
0.0
 10
98.77019053571807
 20
-139.9425346872366
 30
0.0
 10
98.7781305308611
 20
-139.9342796872386
 30
0.0
 10
98.78775886860319
 20
-139.9342796872386
 30
0.0
 10
98.7974249794677
 20
-139.9342796872386
 30
0.0
 10
98.80532720148832
 20
-139.9425346872366
 30
0.0
 10
98.80532720148832
 20
-139.9521655205674
 30
0.0
  0
ENDBLK
  5
10D
330
10A
100
AcDbEntity
  8
0
100
AcDbBlockEnd
  0
BLOCK
  5
111
330
10F
100
AcDbEntity
  8
0
100
AcDbBlockBegin
  2
block 12
 70
     0
 10
0.0
 20
0.0
 30
0.0
  3
block 12
  1

  0
SPLINE
  5
113
330
10F
100
AcDbEntity
  8
_U+30EC_U+30A4_U+30E4_U+30FC 1
 62
   179
420
  2234388
370
     9
100
AcDbSpline
210
0.0
220
0.0
230
1.0
 70
    11
 71
     3
 72
    17
 73
    13
 74
     0
 42
0.0000000001
 43
0.0000000001
 12
1.0
 22
0.0
 32
0.0
 13
1.0
 23
0.0
 33
0.0
 40
0.0
 40
0.0
 40
0.0
 40
0.0
 40
1.0
 40
1.0
 40
1.0
 40
2.0
 40
2.0
 40
2.0
 40
3.0
 40
3.0
 40
3.0
 40
4.0
 40
4.0
 40
4.0
 40
4.0
 10
100.8052243726889
 20
-139.9521655205674
 30
0.0
 10
100.8052243726889
 20
-139.9618316316764
 30
0.0
 10
100.7976396506602
 20
-139.9700866316744
 30
0.0
 10
100.7879735397957
 20
-139.9700866316744
 30
0.0
 10
100.7779899289393
 20
-139.9700866316744
 30
0.0
 10
100.7700877069187
 20
-139.9618316316764
 30
0.0
 10
100.7700877069187
 20
-139.9521655205674
 30
0.0
 10
100.7700877069187
 20
-139.9425346872366
 30
0.0
 10
100.7779899289393
 20
-139.9342796872386
 30
0.0
 10
100.7879735397957
 20
-139.9342796872386
 30
0.0
 10
100.7976396506602
 20
-139.9342796872386
 30
0.0
 10
100.8052243726889
 20
-139.9425346872366
 30
0.0
 10
100.8052243726889
 20
-139.9521655205674
 30
0.0
  0
ENDBLK
  5
112
330
10F
100
AcDbEntity
  8
0
100
AcDbBlockEnd
  0
BLOCK
  5
122
330
120
100
AcDbEntity
  8
0
100
AcDbBlockBegin
  2
block 13
 70
     0
 10
0.0
 20
0.0
 30
0.0
  3
block 13
  1

  0
SPLINE
  5
124
330
120
100
AcDbEntity
  8
_U+30EC_U+30A4_U+30E4_U+30FC 1
370
     0
100
AcDbSpline
210
0.0
220
0.0
230
1.0
 70
    11
 71
     3
 72
    44
 73
    40
 74
     0
 42
0.0000000001
 43
0.0000000001
 12
1.0
 22
0.0
 32
0.0
 13
1.0
 23
0.0
 33
0.0
 40
0.0
 40
0.0
 40
0.0
 40
0.0
 40
1.0
 40
1.0
 40
1.0
 40
2.0
 40
2.0
 40
2.0
 40
3.0
 40
3.0
 40
3.0
 40
4.0
 40
4.0
 40
4.0
 40
5.0
 40
5.0
 40
5.0
 40
6.0
 40
6.0
 40
6.0
 40
7.0
 40
7.0
 40
7.0
 40
8.0
 40
8.0
 40
8.0
 40
9.0
 40
9.0
 40
9.0
 40
10.0
 40
10.0
 40
10.0
 40
11.0
 40
11.0
 40
11.0
 40
12.0
 40
12.0
 40
12.0
 40
13.0
 40
13.0
 40
13.0
 40
13.0
 10
91.29175751840971
 20
-143.6587591871756
 30
0.0
 10
91.07402748374192
 20
-143.8175780890456
 30
0.0
 10
90.98100990564016
 20
-143.89130313243
 30
0.0
 10
90.93208954974962
 20
-144.0353081237134
 30
0.0
 10
90.93208954974962
 20
-144.0353081237134
 30
0.0
 10
91.71050887464182
 20
-144.0353081237134
 30
0.0
 10
91.71050887464182
 20
-144.0353081237134
 30
0.0
 10
91.71050887464182
 20
-144.0353081237134
 30
0.0
 10
91.71050887464182
 20
-144.2406358146343
 30
0.0
 10
91.71050887464182
 20
-144.2406358146343
 30
0.0
 10
91.71050887464182
 20
-144.2406358146343
 30
0.0
 10
90.68266463661753
 20
-144.2406358146343
 30
0.0
 10
90.68266463661753
 20
-144.2406358146343
 30
0.0
 10
90.71435951508182
 20
-143.8830349032654
 30
0.0
 10
90.77981632930158
 20
-143.8044867262017
 30
0.0
 10
91.16497800455251
 20
-143.506141457179
 30
0.0
 10
91.42077634433231
 20
-143.3077039572286
 30
0.0
 10
91.48623315855205
 20
-143.2398355761692
 30
0.0
 10
91.48623315855205
 20
-143.1023762663077
 30
0.0
 10
91.48623315855205
 20
-142.9838649816151
 30
0.0
 10
91.41423066291034
 20
-142.8526068436271
 30
0.0
 10
91.21768796547683
 20
-142.8526068436271
 30
0.0
 10
90.95758325634047
 20
-142.8526068436271
 30
0.0
 10
90.94931502717587
 20
-143.0830837315903
 30
0.0
 10
90.94483640304504
 20
-143.1995279589918
 30
0.0
 10
90.94483640304504
 20
-143.1995279589918
 30
0.0
 10
90.72056068695528
 20
-143.1995279589918
 30
0.0
 10
90.72056068695528
 20
-143.1995279589918
 30
0.0
 10
90.7291734256684
 20
-143.0727484451346
 30
0.0
 10
90.73985322167267
 20
-142.9604383323154
 30
0.0
 10
90.820123946479
 20
-142.8419270476228
 30
0.0
 10
90.93002249245848
 20
-142.6813855980102
 30
0.0
 10
91.11640215821049
 20
-142.6476236622548
 30
0.0
 10
91.23250187606341
 20
-142.6476236622548
 30
0.0
 10
91.50965980785176
 20
-142.6476236622548
 30
0.0
 10
91.7170545560638
 20
-142.8315917611671
 30
0.0
 10
91.7170545560638
 20
-143.1044433235989
 30
0.0
 10
91.7170545560638
 20
-143.332853154271
 30
0.0
 10
91.60061032866236
 20
-143.4324164137947
 30
0.0
 10
91.29175751840971
 20
-143.6587591871756
 30
0.0
  0
HATCH
  5
125
330
120
100
AcDbEntity
  8
_U+30EC_U+30A4_U+30E4_U+30FC 1
 62
   179
420
  2234388
100
AcDbHatch
 10
0.0
 20
0.0
 30
0.0
210
0.0
220
0.0
230
1.0
  2
SOLID
 70
     1
 71
     0
 91
        1
 92
        1
 93
        1
 72
     4
 94
        3
 73
     0
 74
     1
 95
       44
 96
       40
 40
0.0
 40
0.0
 40
0.0
 40
0.0
 40
1.0
 40
1.0
 40
1.0
 40
2.0
 40
2.0
 40
2.0
 40
3.0
 40
3.0
 40
3.0
 40
4.0
 40
4.0
 40
4.0
 40
5.0
 40
5.0
 40
5.0
 40
6.0
 40
6.0
 40
6.0
 40
7.0
 40
7.0
 40
7.0
 40
8.0
 40
8.0
 40
8.0
 40
9.0
 40
9.0
 40
9.0
 40
10.0
 40
10.0
 40
10.0
 40
11.0
 40
11.0
 40
11.0
 40
12.0
 40
12.0
 40
12.0
 40
13.0
 40
13.0
 40
13.0
 40
13.0
 10
91.29175751840971
 20
-143.6587591871756
 10
91.07402748374192
 20
-143.8175780890456
 10
90.98100990564016
 20
-143.89130313243
 10
90.93208954974962
 20
-144.0353081237134
 10
90.93208954974962
 20
-144.0353081237134
 10
91.71050887464182
 20
-144.0353081237134
 10
91.71050887464182
 20
-144.0353081237134
 10
91.71050887464182
 20
-144.0353081237134
 10
91.71050887464182
 20
-144.2406358146343
 10
91.71050887464182
 20
-144.2406358146343
 10
91.71050887464182
 20
-144.2406358146343
 10
90.68266463661753
 20
-144.2406358146343
 10
90.68266463661753
 20
-144.2406358146343
 10
90.71435951508182
 20
-143.8830349032654
 10
90.77981632930158
 20
-143.8044867262017
 10
91.16497800455251
 20
-143.506141457179
 10
91.42077634433231
 20
-143.3077039572286
 10
91.48623315855205
 20
-143.2398355761692
 10
91.48623315855205
 20
-143.1023762663077
 10
91.48623315855205
 20
-142.9838649816151
 10
91.41423066291034
 20
-142.8526068436271
 10
91.21768796547683
 20
-142.8526068436271
 10
90.95758325634047
 20
-142.8526068436271
 10
90.94931502717587
 20
-143.0830837315903
 10
90.94483640304504
 20
-143.1995279589918
 10
90.94483640304504
 20
-143.1995279589918
 10
90.72056068695528
 20
-143.1995279589918
 10
90.72056068695528
 20
-143.1995279589918
 10
90.7291734256684
 20
-143.0727484451346
 10
90.73985322167267
 20
-142.9604383323154
 10
90.820123946479
 20
-142.8419270476228
 10
90.93002249245848
 20
-142.6813855980102
 10
91.11640215821049
 20
-142.6476236622548
 10
91.23250187606341
 20
-142.6476236622548
 10
91.50965980785176
 20
-142.6476236622548
 10
91.7170545560638
 20
-142.8315917611671
 10
91.7170545560638
 20
-143.1044433235989
 10
91.7170545560638
 20
-143.332853154271
 10
91.60061032866236
 20
-143.4324164137947
 10
91.29175751840971
 20
-143.6587591871756
 97
        0
 97
        0
 75
     2
 76
     1
 98
        0
  0
SPLINE
  5
126
330
120
100
AcDbEntity
  8
_U+30EC_U+30A4_U+30E4_U+30FC 1
370
     0
100
AcDbSpline
210
0.0
220
0.0
230
1.0
 70
    11
 71
     3
 72
    29
 73
    25
 74
     0
 42
0.0000000001
 43
0.0000000001
 12
1.0
 22
0.0
 32
0.0
 13
1.0
 23
0.0
 33
0.0
 40
0.0
 40
0.0
 40
0.0
 40
0.0
 40
1.0
 40
1.0
 40
1.0
 40
2.0
 40
2.0
 40
2.0
 40
3.0
 40
3.0
 40
3.0
 40
4.0
 40
4.0
 40
4.0
 40
5.0
 40
5.0
 40
5.0
 40
6.0
 40
6.0
 40
6.0
 40
7.0
 40
7.0
 40
7.0
 40
8.0
 40
8.0
 40
8.0
 40
8.0
 10
92.37541230329504
 20
-144.2912787182675
 30
0.0
 10
92.1087619127367
 20
-144.2912787182675
 30
0.0
 10
91.85520288502231
 20
-144.153819408406
 30
0.0
 10
91.85520288502231
 20
-143.8044867262017
 30
0.0
 10
91.85520288502231
 20
-143.5488606411961
 30
0.0
 10
91.99679630946608
 20
-143.4534314962547
 30
0.0
 10
92.10256074086325
 20
-143.3921087966173
 30
0.0
 10
91.97784828429721
 20
-143.332853154271
 30
0.0
 10
91.90171167407318
 20
-143.2188204937092
 30
0.0
 10
91.90171167407318
 20
-143.057934534548
 30
0.0
 10
91.90171167407318
 20
-142.7826714052766
 30
0.0
 10
92.1004936835721
 20
-142.6476236622548
 30
0.0
 10
92.37541230329504
 20
-142.6476236622548
 30
0.0
 10
92.6589436617311
 20
-142.6476236622548
 30
0.0
 10
92.84945744206541
 20
-142.7912841439897
 30
0.0
 10
92.84945744206541
 20
-143.057934534548
 30
0.0
 10
92.84945744206541
 20
-143.2188204937092
 30
0.0
 10
92.77090926500172
 20
-143.332853154271
 30
0.0
 10
92.64619680843568
 20
-143.3921087966173
 30
0.0
 10
92.73508027195513
 20
-143.4427517002504
 30
0.0
 10
92.89389917382515
 20
-143.5381808451918
 30
0.0
 10
92.89389917382515
 20
-143.8003526116194
 30
0.0
 10
92.89389917382515
 20
-144.174834490866
 30
0.0
 10
92.61450192997138
 20
-144.2912787182675
 30
0.0
 10
92.37541230329504
 20
-144.2912787182675
 30
0.0
  0
SPLINE
  5
127
330
120
100
AcDbEntity
  8
_U+30EC_U+30A4_U+30E4_U+30FC 1
370
     0
100
AcDbSpline
210
0.0
220
0.0
230
1.0
 70
    11
 71
     3
 72
    17
 73
    13
 74
     0
 42
0.0000000001
 43
0.0000000001
 12
1.0
 22
0.0
 32
0.0
 13
1.0
 23
0.0
 33
0.0
 40
0.0
 40
0.0
 40
0.0
 40
0.0
 40
1.0
 40
1.0
 40
1.0
 40
2.0
 40
2.0
 40
2.0
 40
3.0
 40
3.0
 40
3.0
 40
4.0
 40
4.0
 40
4.0
 40
4.0
 10
92.37541230329504
 20
-143.4999402853056
 30
0.0
 10
92.23175182156012
 20
-143.4999402853056
 30
0.0
 10
92.07913409156356
 20
-143.5867566915339
 30
0.0
 10
92.07913409156356
 20
-143.7900173251636
 30
0.0
 10
92.07913409156356
 20
-143.995000506536
 30
0.0
 10
92.20625811496927
 20
-144.0966308233508
 30
0.0
 10
92.37541230329504
 20
-144.0966308233508
 30
0.0
 10
92.56144745949854
 20
-144.0966308233508
 30
0.0
 10
92.67169051502653
 20
-143.9739854240759
 30
0.0
 10
92.67169051502653
 20
-143.7962184970371
 30
0.0
 10
92.67169051502653
 20
-143.5740098382385
 30
0.0
 10
92.5087374985742
 20
-143.4999402853056
 30
0.0
 10
92.37541230329504
 20
-143.4999402853056
 30
0.0
  0
SPLINE
  5
128
330
120
100
AcDbEntity
  8
_U+30EC_U+30A4_U+30E4_U+30FC 1
370
     0
100
AcDbSpline
210
0.0
220
0.0
230
1.0
 70
    11
 71
     3
 72
    17
 73
    13
 74
     0
 42
0.0000000001
 43
0.0000000001
 12
1.0
 22
0.0
 32
0.0
 13
1.0
 23
0.0
 33
0.0
 40
0.0
 40
0.0
 40
0.0
 40
0.0
 40
1.0
 40
1.0
 40
1.0
 40
2.0
 40
2.0
 40
2.0
 40
3.0
 40
3.0
 40
3.0
 40
4.0
 40
4.0
 40
4.0
 40
4.0
 10
92.37541230329504
 20
-142.8398599903317
 30
0.0
 10
92.21039222955157
 20
-142.8398599903317
 30
0.0
 10
92.12598739016295
 20
-142.9349446257246
 30
0.0
 10
92.12598739016295
 20
-143.0706813878435
 30
0.0
 10
92.12598739016295
 20
-143.1933267871183
 30
0.0
 10
92.19764537625615
 20
-143.3118380718109
 30
0.0
 10
92.37541230329504
 20
-143.3118380718109
 30
0.0
 10
92.55317923033394
 20
-143.3118380718109
 30
0.0
 10
92.62518172597565
 20
-143.1933267871183
 30
0.0
 10
92.62518172597565
 20
-143.0706813878435
 30
0.0
 10
92.62518172597565
 20
-142.9349446257246
 30
0.0
 10
92.53836531974736
 20
-142.8398599903317
 30
0.0
 10
92.37541230329504
 20
-142.8398599903317
 30
0.0
  0
HATCH
  5
129
330
120
100
AcDbEntity
  8
_U+30EC_U+30A4_U+30E4_U+30FC 1
 62
   179
420
  2234388
100
AcDbHatch
 10
0.0
 20
0.0
 30
0.0
210
0.0
220
0.0
230
1.0
  2
SOLID
 70
     1
 71
     0
 91
        3
 92
        1
 93
        1
 72
     4
 94
        3
 73
     0
 74
     1
 95
       29
 96
       25
 40
0.0
 40
0.0
 40
0.0
 40
0.0
 40
1.0
 40
1.0
 40
1.0
 40
2.0
 40
2.0
 40
2.0
 40
3.0
 40
3.0
 40
3.0
 40
4.0
 40
4.0
 40
4.0
 40
5.0
 40
5.0
 40
5.0
 40
6.0
 40
6.0
 40
6.0
 40
7.0
 40
7.0
 40
7.0
 40
8.0
 40
8.0
 40
8.0
 40
8.0
 10
92.37541230329504
 20
-144.2912787182675
 10
92.1087619127367
 20
-144.2912787182675
 10
91.85520288502231
 20
-144.153819408406
 10
91.85520288502231
 20
-143.8044867262017
 10
91.85520288502231
 20
-143.5488606411961
 10
91.99679630946608
 20
-143.4534314962547
 10
92.10256074086325
 20
-143.3921087966173
 10
91.97784828429721
 20
-143.332853154271
 10
91.90171167407318
 20
-143.2188204937092
 10
91.90171167407318
 20
-143.057934534548
 10
91.90171167407318
 20
-142.7826714052766
 10
92.1004936835721
 20
-142.6476236622548
 10
92.37541230329504
 20
-142.6476236622548
 10
92.6589436617311
 20
-142.6476236622548
 10
92.84945744206541
 20
-142.7912841439897
 10
92.84945744206541
 20
-143.057934534548
 10
92.84945744206541
 20
-143.2188204937092
 10
92.77090926500172
 20
-143.332853154271
 10
92.64619680843568
 20
-143.3921087966173
 10
92.73508027195513
 20
-143.4427517002504
 10
92.89389917382515
 20
-143.5381808451918
 10
92.89389917382515
 20
-143.8003526116194
 10
92.89389917382515
 20
-144.174834490866
 10
92.61450192997138
 20
-144.2912787182675
 10
92.37541230329504
 20
-144.2912787182675
 97
        0
 97
        0
 92
        1
 93
        1
 72
     4
 94
        3
 73
     0
 74
     1
 95
       17
 96
       13
 40
0.0
 40
0.0
 40
0.0
 40
0.0
 40
1.0
 40
1.0
 40
1.0
 40
2.0
 40
2.0
 40
2.0
 40
3.0
 40
3.0
 40
3.0
 40
4.0
 40
4.0
 40
4.0
 40
4.0
 10
92.37541230329504
 20
-143.4999402853056
 10
92.23175182156012
 20
-143.4999402853056
 10
92.07913409156356
 20
-143.5867566915339
 10
92.07913409156356
 20
-143.7900173251636
 10
92.07913409156356
 20
-143.995000506536
 10
92.20625811496927
 20
-144.0966308233508
 10
92.37541230329504
 20
-144.0966308233508
 10
92.56144745949854
 20
-144.0966308233508
 10
92.67169051502653
 20
-143.9739854240759
 10
92.67169051502653
 20
-143.7962184970371
 10
92.67169051502653
 20
-143.5740098382385
 10
92.5087374985742
 20
-143.4999402853056
 10
92.37541230329504
 20
-143.4999402853056
 97
        0
 97
        0
 92
        1
 93
        1
 72
     4
 94
        3
 73
     0
 74
     1
 95
       17
 96
       13
 40
0.0
 40
0.0
 40
0.0
 40
0.0
 40
1.0
 40
1.0
 40
1.0
 40
2.0
 40
2.0
 40
2.0
 40
3.0
 40
3.0
 40
3.0
 40
4.0
 40
4.0
 40
4.0
 40
4.0
 10
92.37541230329504
 20
-142.8398599903317
 10
92.21039222955157
 20
-142.8398599903317
 10
92.12598739016295
 20
-142.9349446257246
 10
92.12598739016295
 20
-143.0706813878435
 10
92.12598739016295
 20
-143.1933267871183
 10
92.19764537625615
 20
-143.3118380718109
 10
92.37541230329504
 20
-143.3118380718109
 10
92.55317923033394
 20
-143.3118380718109
 10
92.62518172597565
 20
-143.1933267871183
 10
92.62518172597565
 20
-143.0706813878435
 10
92.62518172597565
 20
-142.9349446257246
 10
92.53836531974736
 20
-142.8398599903317
 10
92.37541230329504
 20
-142.8398599903317
 97
        0
 97
        0
 75
     2
 76
     1
 98
        0
  0
ENDBLK
  5
123
330
120
100
AcDbEntity
  8
0
100
AcDbBlockEnd
  0
BLOCK
  5
12C
330
12A
100
AcDbEntity
  8
0
100
AcDbBlockBegin
  2
block 14
 70
     0
 10
0.0
 20
0.0
 30
0.0
  3
block 14
  1

  0
SPLINE
  5
12E
330
12A
100
AcDbEntity
  8
_U+30EC_U+30A4_U+30E4_U+30FC 1
 62
   179
420
  2234388
370
    25
100
AcDbSpline
210
0.0
220
0.0
230
1.0
 70
    11
 71
     3
 72
    17
 73
    13
 74
     0
 42
0.0000000001
 43
0.0000000001
 12
1.0
 22
0.0
 32
0.0
 13
1.0
 23
0.0
 33
0.0
 40
0.0
 40
0.0
 40
0.0
 40
0.0
 40
1.0
 40
1.0
 40
1.0
 40
2.0
 40
2.0
 40
2.0
 40
3.0
 40
3.0
 40
3.0
 40
4.0
 40
4.0
 40
4.0
 40
4.0
 10
84.80516505866221
 20
-139.9521655205674
 30
0.0
 10
84.80516505866221
 20
-139.9618316316764
 30
0.0
 10
84.79722755886472
 20
-139.9700866316744
 30
0.0
 10
84.78724394800831
 20
-139.9700866316744
 30
0.0
 10
84.77761311492068
 20
-139.9700866316744
 30
0.0
 10
84.77003053436293
 20
-139.9618316316764
 30
0.0
 10
84.77003053436293
 20
-139.9521655205674
 30
0.0
 10
84.77003053436293
 20
-139.9425346872366
 30
0.0
 10
84.77761311492068
 20
-139.9342796872386
 30
0.0
 10
84.78724394800831
 20
-139.9342796872386
 30
0.0
 10
84.79722755886472
 20
-139.9342796872386
 30
0.0
 10
84.80516505866221
 20
-139.9425346872366
 30
0.0
 10
84.80516505866221
 20
-139.9521655205674
 30
0.0
  0
ENDBLK
  5
12D
330
12A
100
AcDbEntity
  8
0
100
AcDbBlockEnd
  0
BLOCK
  5
131
330
12F
100
AcDbEntity
  8
0
100
AcDbBlockBegin
  2
block 15
 70
     0
 10
0.0
 20
0.0
 30
0.0
  3
block 15
  1

  0
SPLINE
  5
133
330
12F
100
AcDbEntity
  8
_U+30EC_U+30A4_U+30E4_U+30FC 1
 62
   179
420
  2234388
370
    25
100
AcDbSpline
210
0.0
220
0.0
230
1.0
 70
    11
 71
     3
 72
    17
 73
    13
 74
     0
 42
0.0000000001
 43
0.0000000001
 12
1.0
 22
0.0
 32
0.0
 13
1.0
 23
0.0
 33
0.0
 40
0.0
 40
0.0
 40
0.0
 40
0.0
 40
1.0
 40
1.0
 40
1.0
 40
2.0
 40
2.0
 40
2.0
 40
3.0
 40
3.0
 40
3.0
 40
4.0
 40
4.0
 40
4.0
 40
4.0
 10
98.80532720148832
 20
-139.9521655205674
 30
0.0
 10
98.80532720148832
 20
-139.9618316316764
 30
0.0
 10
98.7974249794677
 20
-139.9700866316744
 30
0.0
 10
98.78775886860319
 20
-139.9700866316744
 30
0.0
 10
98.7781305308611
 20
-139.9700866316744
 30
0.0
 10
98.77019053571807
 20
-139.9618316316764
 30
0.0
 10
98.77019053571807
 20
-139.9521655205674
 30
0.0
 10
98.77019053571807
 20
-139.9425346872366
 30
0.0
 10
98.7781305308611
 20
-139.9342796872386
 30
0.0
 10
98.78775886860319
 20
-139.9342796872386
 30
0.0
 10
98.7974249794677
 20
-139.9342796872386
 30
0.0
 10
98.80532720148832
 20
-139.9425346872366
 30
0.0
 10
98.80532720148832
 20
-139.9521655205674
 30
0.0
  0
ENDBLK
  5
132
330
12F
100
AcDbEntity
  8
0
100
AcDbBlockEnd
  0
BLOCK
  5
136
330
134
100
AcDbEntity
  8
0
100
AcDbBlockBegin
  2
block 16
 70
     0
 10
0.0
 20
0.0
 30
0.0
  3
block 16
  1

  0
SPLINE
  5
138
330
134
100
AcDbEntity
  8
_U+30EC_U+30A4_U+30E4_U+30FC 1
 62
   179
420
  2234388
370
     9
100
AcDbSpline
210
0.0
220
0.0
230
1.0
 70
    11
 71
     3
 72
    17
 73
    13
 74
     0
 42
0.0000000001
 43
0.0000000001
 12
1.0
 22
0.0
 32
0.0
 13
1.0
 23
0.0
 33
0.0
 40
0.0
 40
0.0
 40
0.0
 40
0.0
 40
1.0
 40
1.0
 40
1.0
 40
2.0
 40
2.0
 40
2.0
 40
3.0
 40
3.0
 40
3.0
 40
4.0
 40
4.0
 40
4.0
 40
4.0
 10
98.80532720148832
 20
-141.9524155200674
 30
0.0
 10
98.80532720148832
 20
-141.9620463533982
 30
0.0
 10
98.7974249794677
 20
-141.9696310756188
 30
0.0
 10
98.78775886860319
 20
-141.9696310756188
 30
0.0
 10
98.7781305308611
 20
-141.9696310756188
 30
0.0
 10
98.77019053571807
 20
-141.9620463533982
 30
0.0
 10
98.77019053571807
 20
-141.9524155200674
 30
0.0
 10
98.77019053571807
 20
-141.942749408959
 30
0.0
 10
98.7781305308611
 20
-141.9344944089611
 30
0.0
 10
98.78775886860319
 20
-141.9344944089611
 30
0.0
 10
98.7974249794677
 20
-141.9344944089611
 30
0.0
 10
98.80532720148832
 20
-141.942749408959
 30
0.0
 10
98.80532720148832
 20
-141.9524155200674
 30
0.0
  0
ENDBLK
  5
137
330
134
100
AcDbEntity
  8
0
100
AcDbBlockEnd
  0
BLOCK
  5
147
330
145
100
AcDbEntity
  8
0
100
AcDbBlockBegin
  2
block 17
 70
     0
 10
0.0
 20
0.0
 30
0.0
  3
block 17
  1

  0
POLYLINE
  5
149
330
145
100
AcDbEntity
  8
_U+30EC_U+30A4_U+30E4_U+30FC 1
370
     0
100
AcDb2dPolyline
 66
     1
 10
0.0
 20
0.0
 30
0.0
  0
VERTEX
  5
14A
330
149
100
AcDbEntity
  8
_U+30EC_U+30A4_U+30E4_U+30FC 1
370
     0
100
AcDbVertex
100
AcDb2dVertex
 10
79.63958331342344
 20
-128.9588812611631
 30
0.0
  0
VERTEX
  5
14B
330
149
100
AcDbEntity
  8
_U+30EC_U+30A4_U+30E4_U+30FC 1
370
     0
100
AcDbVertex
100
AcDb2dVertex
 10
79.9865044287881
 20
-128.9588812611631
 30
0.0
  0
VERTEX
  5
14C
330
149
100
AcDbEntity
  8
_U+30EC_U+30A4_U+30E4_U+30FC 1
370
     0
100
AcDbVertex
100
AcDb2dVertex
 10
79.9865044287881
 20
-129.1766112958309
 30
0.0
  0
VERTEX
  5
14D
330
149
100
AcDbEntity
  8
_U+30EC_U+30A4_U+30E4_U+30FC 1
370
     0
100
AcDbVertex
100
AcDb2dVertex
 10
79.63958331342344
 20
-129.1766112958309
 30
0.0
  0
VERTEX
  5
14E
330
149
100
AcDbEntity
  8
_U+30EC_U+30A4_U+30E4_U+30FC 1
370
     0
100
AcDbVertex
100
AcDb2dVertex
 10
79.63958331342344
 20
-129.8325574762224
 30
0.0
  0
VERTEX
  5
14F
330
149
100
AcDbEntity
  8
_U+30EC_U+30A4_U+30E4_U+30FC 1
370
     0
100
AcDbVertex
100
AcDb2dVertex
 10
79.41530759733368
 20
-129.8325574762224
 30
0.0
  0
VERTEX
  5
150
330
149
100
AcDbEntity
  8
_U+30EC_U+30A4_U+30E4_U+30FC 1
370
     0
100
AcDbVertex
100
AcDb2dVertex
 10
78.4420681227506
 20
-129.1535291560797
 30
0.0
  0
VERTEX
  5
151
330
149
100
AcDbEntity
  8
_U+30EC_U+30A4_U+30E4_U+30FC 1
370
     0
100
AcDbVertex
100
AcDb2dVertex
 10
78.4420681227506
 20
-128.9588812611631
 30
0.0
  0
VERTEX
  5
152
330
149
100
AcDbEntity
  8
_U+30EC_U+30A4_U+30E4_U+30FC 1
370
     0
100
AcDbVertex
100
AcDb2dVertex
 10
79.44080130392453
 20
-128.9588812611631
 30
0.0
  0
VERTEX
  5
153
330
149
100
AcDbEntity
  8
_U+30EC_U+30A4_U+30E4_U+30FC 1
370
     0
100
AcDbVertex
100
AcDb2dVertex
 10
79.44080130392453
 20
-128.751486512951
 30
0.0
  0
VERTEX
  5
154
330
149
100
AcDbEntity
  8
_U+30EC_U+30A4_U+30E4_U+30FC 1
370
     0
100
AcDbVertex
100
AcDb2dVertex
 10
79.63958331342344
 20
-128.751486512951
 30
0.0
  0
VERTEX
  5
155
330
149
100
AcDbEntity
  8
_U+30EC_U+30A4_U+30E4_U+30FC 1
370
     0
100
AcDbVertex
100
AcDb2dVertex
 10
79.63958331342344
 20
-128.9588812611631
 30
0.0
  0
SEQEND
  5
156
330
149
100
AcDbEntity
  8
_U+30EC_U+30A4_U+30E4_U+30FC 1
370
     0
  0
POLYLINE
  5
157
330
145
100
AcDbEntity
  8
_U+30EC_U+30A4_U+30E4_U+30FC 1
370
     0
100
AcDb2dPolyline
 66
     1
 10
0.0
 20
0.0
 30
0.0
  0
VERTEX
  5
158
330
157
100
AcDbEntity
  8
_U+30EC_U+30A4_U+30E4_U+30FC 1
370
     0
100
AcDbVertex
100
AcDb2dVertex
 10
78.78485512353295
 20
-129.1766112958309
 30
0.0
  0
VERTEX
  5
159
330
157
100
AcDbEntity
  8
_U+30EC_U+30A4_U+30E4_U+30FC 1
370
     0
100
AcDbVertex
100
AcDb2dVertex
 10
79.44080130392453
 20
-129.633430957175
 30
0.0
  0
VERTEX
  5
15A
330
157
100
AcDbEntity
  8
_U+30EC_U+30A4_U+30E4_U+30FC 1
370
     0
100
AcDbVertex
100
AcDb2dVertex
 10
79.44080130392453
 20
-129.1766112958309
 30
0.0
  0
VERTEX
  5
15B
330
157
100
AcDbEntity
  8
_U+30EC_U+30A4_U+30E4_U+30FC 1
370
     0
100
AcDbVertex
100
AcDb2dVertex
 10
78.78485512353295
 20
-129.1766112958309
 30
0.0
  0
SEQEND
  5
15C
330
157
100
AcDbEntity
  8
_U+30EC_U+30A4_U+30E4_U+30FC 1
370
     0
  0
HATCH
  5
15D
330
145
100
AcDbEntity
  8
_U+30EC_U+30A4_U+30E4_U+30FC 1
 62
   179
420
  2234388
100
AcDbHatch
 10
0.0
 20
0.0
 30
0.0
210
0.0
220
0.0
230
1.0
  2
SOLID
 70
     1
 71
     0
 91
        2
 92
        1
 93
       11
 72
     1
 10
79.63958331342344
 20
-128.9588812611631
 11
79.9865044287881
 21
-128.9588812611631
 72
     1
 10
79.9865044287881
 20
-128.9588812611631
 11
79.9865044287881
 21
-129.1766112958309
 72
     1
 10
79.9865044287881
 20
-129.1766112958309
 11
79.63958331342344
 21
-129.1766112958309
 72
     1
 10
79.63958331342344
 20
-129.1766112958309
 11
79.63958331342344
 21
-129.8325574762224
 72
     1
 10
79.63958331342344
 20
-129.8325574762224
 11
79.41530759733368
 21
-129.8325574762224
 72
     1
 10
79.41530759733368
 20
-129.8325574762224
 11
78.4420681227506
 21
-129.1535291560797
 72
     1
 10
78.4420681227506
 20
-129.1535291560797
 11
78.4420681227506
 21
-128.9588812611631
 72
     1
 10
78.4420681227506
 20
-128.9588812611631
 11
79.44080130392453
 21
-128.9588812611631
 72
     1
 10
79.44080130392453
 20
-128.9588812611631
 11
79.44080130392453
 21
-128.751486512951
 72
     1
 10
79.44080130392453
 20
-128.751486512951
 11
79.63958331342344
 21
-128.751486512951
 72
     1
 10
79.63958331342344
 20
-128.751486512951
 11
79.63958331342344
 21
-128.9588812611631
 97
        0
 92
        1
 93
        3
 72
     1
 10
78.78485512353295
 20
-129.1766112958309
 11
79.44080130392453
 21
-129.633430957175
 72
     1
 10
79.44080130392453
 20
-129.633430957175
 11
79.44080130392453
 21
-129.1766112958309
 72
     1
 10
79.44080130392453
 20
-129.1766112958309
 11
78.78485512353295
 21
-129.1766112958309
 97
        0
 75
     2
 76
     1
 98
        0
  0
SPLINE
  5
15E
330
145
100
AcDbEntity
  8
_U+30EC_U+30A4_U+30E4_U+30FC 1
370
     0
100
AcDbSpline
210
0.0
220
0.0
230
1.0
 70
    11
 71
     3
 72
    53
 73
    49
 74
     0
 42
0.0000000001
 43
0.0000000001
 12
1.0
 22
0.0
 32
0.0
 13
1.0
 23
0.0
 33
0.0
 40
0.0
 40
0.0
 40
0.0
 40
0.0
 40
1.0
 40
1.0
 40
1.0
 40
2.0
 40
2.0
 40
2.0
 40
3.0
 40
3.0
 40
3.0
 40
4.0
 40
4.0
 40
4.0
 40
5.0
 40
5.0
 40
5.0
 40
6.0
 40
6.0
 40
6.0
 40
7.0
 40
7.0
 40
7.0
 40
8.0
 40
8.0
 40
8.0
 40
9.0
 40
9.0
 40
9.0
 40
10.0
 40
10.0
 40
10.0
 40
11.0
 40
11.0
 40
11.0
 40
12.0
 40
12.0
 40
12.0
 40
13.0
 40
13.0
 40
13.0
 40
14.0
 40
14.0
 40
14.0
 40
15.0
 40
15.0
 40
15.0
 40
16.0
 40
16.0
 40
16.0
 40
16.0
 10
80.03714733242127
 20
-128.1330918733487
 30
0.0
 10
80.03714733242127
 20
-128.2114677956381
 30
0.0
 10
80.02026636454355
 20
-128.3129258576787
 30
0.0
 10
79.95687660761494
 20
-128.4145561744936
 30
0.0
 10
79.84697806163548
 20
-128.5880167321759
 30
0.0
 10
79.71571992364747
 20
-128.6092040694102
 30
0.0
 10
79.60788843495914
 20
-128.6281520945791
 30
0.0
 10
79.60788843495914
 20
-128.6281520945791
 30
0.0
 10
79.60788843495914
 20
-128.4061156905547
 30
0.0
 10
79.60788843495914
 20
-128.4061156905547
 30
0.0
 10
79.80667044445806
 20
-128.3509941627907
 30
0.0
 10
79.8362982656312
 20
-128.2240423941593
 30
0.0
 10
79.8362982656312
 20
-128.1310248160575
 30
0.0
 10
79.8362982656312
 20
-127.9914984489049
 30
0.0
 10
79.73673500610748
 20
-127.8390529736826
 30
0.0
 10
79.50419106085312
 20
-127.8390529736826
 30
0.0
 10
79.24822046629906
 20
-127.8390529736826
 30
0.0
 10
79.17828502794849
 20
-128.0188869580126
 30
0.0
 10
79.17828502794849
 20
-128.1394652999964
 30
0.0
 10
79.17828502794849
 20
-128.1711601784607
 30
0.0
 10
79.17828502794849
 20
-128.3129258576787
 30
0.0
 10
79.30747610864536
 20
-128.4018093211982
 30
0.0
 10
79.30747610864536
 20
-128.4018093211982
 30
0.0
 10
79.28852808347648
 20
-128.5773369361716
 30
0.0
 10
79.28852808347648
 20
-128.5773369361716
 30
0.0
 10
79.28852808347648
 20
-128.5773369361716
 30
0.0
 10
78.4420681227506
 20
-128.4567585941879
 30
0.0
 10
78.4420681227506
 20
-128.4567585941879
 30
0.0
 10
78.4420681227506
 20
-128.4567585941879
 30
0.0
 10
78.4420681227506
 20
-127.6783392692957
 30
0.0
 10
78.4420681227506
 20
-127.6783392692957
 30
0.0
 10
78.4420681227506
 20
-127.6783392692957
 30
0.0
 10
78.63671601766721
 20
-127.6783392692957
 30
0.0
 10
78.63671601766721
 20
-127.6783392692957
 30
0.0
 10
78.63671601766721
 20
-127.6783392692957
 30
0.0
 10
78.63671601766721
 20
-128.2939778325099
 30
0.0
 10
78.63671601766721
 20
-128.2939778325099
 30
0.0
 10
78.63671601766721
 20
-128.2939778325099
 30
0.0
 10
79.05977374325589
 20
-128.3594346467296
 30
0.0
 10
79.05977374325589
 20
-128.3594346467296
 30
0.0
 10
79.02601180750044
 20
-128.2981119470921
 30
0.0
 10
78.98570419032302
 20
-128.2156019102204
 30
0.0
 10
78.98570419032302
 20
-128.0972628803021
 30
0.0
 10
78.98570419032302
 20
-127.8433593430392
 30
0.0
 10
79.17208385607503
 20
-127.606336773654
 30
0.0
 10
79.48524303568425
 20
-127.606336773654
 30
0.0
 10
79.80253632987576
 20
-127.606336773654
 30
0.0
 10
80.03714733242127
 20
-127.8306124897437
 30
0.0
 10
80.03714733242127
 20
-128.1330918733487
 30
0.0
  0
HATCH
  5
15F
330
145
100
AcDbEntity
  8
_U+30EC_U+30A4_U+30E4_U+30FC 1
 62
   179
420
  2234388
100
AcDbHatch
 10
0.0
 20
0.0
 30
0.0
210
0.0
220
0.0
230
1.0
  2
SOLID
 70
     1
 71
     0
 91
        1
 92
        1
 93
        1
 72
     4
 94
        3
 73
     0
 74
     1
 95
       53
 96
       49
 40
0.0
 40
0.0
 40
0.0
 40
0.0
 40
1.0
 40
1.0
 40
1.0
 40
2.0
 40
2.0
 40
2.0
 40
3.0
 40
3.0
 40
3.0
 40
4.0
 40
4.0
 40
4.0
 40
5.0
 40
5.0
 40
5.0
 40
6.0
 40
6.0
 40
6.0
 40
7.0
 40
7.0
 40
7.0
 40
8.0
 40
8.0
 40
8.0
 40
9.0
 40
9.0
 40
9.0
 40
10.0
 40
10.0
 40
10.0
 40
11.0
 40
11.0
 40
11.0
 40
12.0
 40
12.0
 40
12.0
 40
13.0
 40
13.0
 40
13.0
 40
14.0
 40
14.0
 40
14.0
 40
15.0
 40
15.0
 40
15.0
 40
16.0
 40
16.0
 40
16.0
 40
16.0
 10
80.03714733242127
 20
-128.1330918733487
 10
80.03714733242127
 20
-128.2114677956381
 10
80.02026636454355
 20
-128.3129258576787
 10
79.95687660761494
 20
-128.4145561744936
 10
79.84697806163548
 20
-128.5880167321759
 10
79.71571992364747
 20
-128.6092040694102
 10
79.60788843495914
 20
-128.6281520945791
 10
79.60788843495914
 20
-128.6281520945791
 10
79.60788843495914
 20
-128.4061156905547
 10
79.60788843495914
 20
-128.4061156905547
 10
79.80667044445806
 20
-128.3509941627907
 10
79.8362982656312
 20
-128.2240423941593
 10
79.8362982656312
 20
-128.1310248160575
 10
79.8362982656312
 20
-127.9914984489049
 10
79.73673500610748
 20
-127.8390529736826
 10
79.50419106085312
 20
-127.8390529736826
 10
79.24822046629906
 20
-127.8390529736826
 10
79.17828502794849
 20
-128.0188869580126
 10
79.17828502794849
 20
-128.1394652999964
 10
79.17828502794849
 20
-128.1711601784607
 10
79.17828502794849
 20
-128.3129258576787
 10
79.30747610864536
 20
-128.4018093211982
 10
79.30747610864536
 20
-128.4018093211982
 10
79.28852808347648
 20
-128.5773369361716
 10
79.28852808347648
 20
-128.5773369361716
 10
79.28852808347648
 20
-128.5773369361716
 10
78.4420681227506
 20
-128.4567585941879
 10
78.4420681227506
 20
-128.4567585941879
 10
78.4420681227506
 20
-128.4567585941879
 10
78.4420681227506
 20
-127.6783392692957
 10
78.4420681227506
 20
-127.6783392692957
 10
78.4420681227506
 20
-127.6783392692957
 10
78.63671601766721
 20
-127.6783392692957
 10
78.63671601766721
 20
-127.6783392692957
 10
78.63671601766721
 20
-127.6783392692957
 10
78.63671601766721
 20
-128.2939778325099
 10
78.63671601766721
 20
-128.2939778325099
 10
78.63671601766721
 20
-128.2939778325099
 10
79.05977374325589
 20
-128.3594346467296
 10
79.05977374325589
 20
-128.3594346467296
 10
79.02601180750044
 20
-128.2981119470921
 10
78.98570419032302
 20
-128.2156019102204
 10
78.98570419032302
 20
-128.0972628803021
 10
78.98570419032302
 20
-127.8433593430392
 10
79.17208385607503
 20
-127.606336773654
 10
79.48524303568425
 20
-127.606336773654
 10
79.80253632987576
 20
-127.606336773654
 10
80.03714733242127
 20
-127.8306124897437
 10
80.03714733242127
 20
-128.1330918733487
 97
        0
 97
        0
 75
     2
 76
     1
 98
        0
  0
ENDBLK
  5
148
330
145
100
AcDbEntity
  8
0
100
AcDbBlockEnd
  0
BLOCK
  5
162
330
160
100
AcDbEntity
  8
0
100
AcDbBlockBegin
  2
block 18
 70
     0
 10
0.0
 20
0.0
 30
0.0
  3
block 18
  1

  0
SPLINE
  5
164
330
160
100
AcDbEntity
  8
_U+30EC_U+30A4_U+30E4_U+30FC 1
 62
   179
420
  2234388
370
    25
100
AcDbSpline
210
0.0
220
0.0
230
1.0
 70
    11
 71
     3
 72
    17
 73
    13
 74
     0
 42
0.0000000001
 43
0.0000000001
 12
1.0
 22
0.0
 32
0.0
 13
1.0
 23
0.0
 33
0.0
 40
0.0
 40
0.0
 40
0.0
 40
0.0
 40
1.0
 40
1.0
 40
1.0
 40
2.0
 40
2.0
 40
2.0
 40
3.0
 40
3.0
 40
3.0
 40
4.0
 40
4.0
 40
4.0
 40
4.0
 10
91.80491099119493
 20
-117.4521046928591
 30
0.0
 10
91.80491099119493
 20
-117.4617355261903
 30
0.0
 10
91.7973262691662
 20
-117.4696730261883
 30
0.0
 10
91.7876601583017
 20
-117.4696730261883
 30
0.0
 10
91.7776765474453
 20
-117.4696730261883
 30
0.0
 10
91.76977432542468
 20
-117.4617355261903
 30
0.0
 10
91.76977432542468
 20
-117.4521046928591
 30
0.0
 10
91.76977432542468
 20
-117.4424385817504
 30
0.0
 10
91.7776765474453
 20
-117.4345363595302
 30
0.0
 10
91.7876601583017
 20
-117.4345363595302
 30
0.0
 10
91.7973262691662
 20
-117.4345363595302
 30
0.0
 10
91.80491099119493
 20
-117.4424385817504
 30
0.0
 10
91.80491099119493
 20
-117.4521046928591
 30
0.0
  0
ENDBLK
  5
163
330
160
100
AcDbEntity
  8
0
100
AcDbBlockEnd
  0
BLOCK
  5
167
330
165
100
AcDbEntity
  8
0
100
AcDbBlockBegin
  2
block 19
 70
     0
 10
0.0
 20
0.0
 30
0.0
  3
block 19
  1

  0
SPLINE
  5
169
330
165
100
AcDbEntity
  8
_U+30EC_U+30A4_U+30E4_U+30FC 1
 62
   179
420
  2234388
370
    25
100
AcDbSpline
210
0.0
220
0.0
230
1.0
 70
    11
 71
     3
 72
    17
 73
    13
 74
     0
 42
0.0000000001
 43
0.0000000001
 12
1.0
 22
0.0
 32
0.0
 13
1.0
 23
0.0
 33
0.0
 40
0.0
 40
0.0
 40
0.0
 40
0.0
 40
1.0
 40
1.0
 40
1.0
 40
2.0
 40
2.0
 40
2.0
 40
3.0
 40
3.0
 40
3.0
 40
4.0
 40
4.0
 40
4.0
 40
4.0
 10
84.80516505866221
 20
-139.9521655205674
 30
0.0
 10
84.80516505866221
 20
-139.9618316316764
 30
0.0
 10
84.79722755886472
 20
-139.9700866316744
 30
0.0
 10
84.78724394800831
 20
-139.9700866316744
 30
0.0
 10
84.77761311492068
 20
-139.9700866316744
 30
0.0
 10
84.77003053436293
 20
-139.9618316316764
 30
0.0
 10
84.77003053436293
 20
-139.9521655205674
 30
0.0
 10
84.77003053436293
 20
-139.9425346872366
 30
0.0
 10
84.77761311492068
 20
-139.9342796872386
 30
0.0
 10
84.78724394800831
 20
-139.9342796872386
 30
0.0
 10
84.79722755886472
 20
-139.9342796872386
 30
0.0
 10
84.80516505866221
 20
-139.9425346872366
 30
0.0
 10
84.80516505866221
 20
-139.9521655205674
 30
0.0
  0
ENDBLK
  5
168
330
165
100
AcDbEntity
  8
0
100
AcDbBlockEnd
  0
BLOCK
  5
16C
330
16A
100
AcDbEntity
  8
0
100
AcDbBlockBegin
  2
block 20
 70
     0
 10
0.0
 20
0.0
 30
0.0
  3
block 20
  1

  0
SPLINE
  5
16E
330
16A
100
AcDbEntity
  8
_U+30EC_U+30A4_U+30E4_U+30FC 1
 62
   179
420
  2234388
370
     9
100
AcDbSpline
210
0.0
220
0.0
230
1.0
 70
    11
 71
     3
 72
    17
 73
    13
 74
     0
 42
0.0000000001
 43
0.0000000001
 12
1.0
 22
0.0
 32
0.0
 13
1.0
 23
0.0
 33
0.0
 40
0.0
 40
0.0
 40
0.0
 40
0.0
 40
1.0
 40
1.0
 40
1.0
 40
2.0
 40
2.0
 40
2.0
 40
3.0
 40
3.0
 40
3.0
 40
4.0
 40
4.0
 40
4.0
 40
4.0
 10
80.80505321626913
 20
-139.9521655205674
 30
0.0
 10
80.80505321626913
 20
-139.9618316316764
 30
0.0
 10
80.7974684942404
 20
-139.9700866316744
 30
0.0
 10
80.787484883384
 20
-139.9700866316744
 30
0.0
 10
80.77785405029637
 20
-139.9700866316744
 30
0.0
 10
80.76991655049886
 20
-139.9618316316764
 30
0.0
 10
80.76991655049886
 20
-139.9521655205674
 30
0.0
 10
80.76991655049886
 20
-139.9425346872366
 30
0.0
 10
80.77785405029637
 20
-139.9342796872386
 30
0.0
 10
80.787484883384
 20
-139.9342796872386
 30
0.0
 10
80.7974684942404
 20
-139.9342796872386
 30
0.0
 10
80.80505321626913
 20
-139.9425346872366
 30
0.0
 10
80.80505321626913
 20
-139.9521655205674
 30
0.0
  0
ENDBLK
  5
16D
330
16A
100
AcDbEntity
  8
0
100
AcDbBlockEnd
  0
BLOCK
  5
171
330
16F
100
AcDbEntity
  8
0
100
AcDbBlockBegin
  2
block 21
 70
     0
 10
0.0
 20
0.0
 30
0.0
  3
block 21
  1

  0
SPLINE
  5
173
330
16F
100
AcDbEntity
  8
_U+30EC_U+30A4_U+30E4_U+30FC 1
370
     0
100
AcDbSpline
210
0.0
220
0.0
230
1.0
 70
    11
 71
     3
 72
    26
 73
    22
 74
     0
 42
0.0000000001
 43
0.0000000001
 12
1.0
 22
0.0
 32
0.0
 13
1.0
 23
0.0
 33
0.0
 40
0.0
 40
0.0
 40
0.0
 40
0.0
 40
1.0
 40
1.0
 40
1.0
 40
2.0
 40
2.0
 40
2.0
 40
3.0
 40
3.0
 40
3.0
 40
4.0
 40
4.0
 40
4.0
 40
5.0
 40
5.0
 40
5.0
 40
6.0
 40
6.0
 40
6.0
 40
7.0
 40
7.0
 40
7.0
 40
7.0
 10
83.49343937799817
 20
-138.3791503560302
 30
0.0
 10
83.49343937799817
 20
-138.3791503560302
 30
0.0
 10
82.38911402020133
 20
-138.3791503560302
 30
0.0
 10
82.38911402020133
 20
-138.3791503560302
 30
0.0
 10
82.38911402020133
 20
-138.3791503560302
 30
0.0
 10
82.38911402020133
 20
-138.7091905035172
 30
0.0
 10
82.38911402020133
 20
-138.7091905035172
 30
0.0
 10
82.38911402020133
 20
-138.7091905035172
 30
0.0
 10
82.24114716910985
 20
-138.7091905035172
 30
0.0
 10
82.24114716910985
 20
-138.7091905035172
 30
0.0
 10
82.22633325852328
 20
-138.3770832987391
 30
0.0
 10
82.06338024207096
 20
-138.3305745096882
 30
0.0
 10
81.94917532673493
 20
-138.300946688515
 30
0.0
 10
81.94917532673493
 20
-138.300946688515
 30
0.0
 10
81.94917532673493
 20
-138.1548746399405
 30
0.0
 10
81.94917532673493
 20
-138.1548746399405
 30
0.0
 10
81.94917532673493
 20
-138.1548746399405
 30
0.0
 10
83.49343937799817
 20
-138.1548746399405
 30
0.0
 10
83.49343937799817
 20
-138.1548746399405
 30
0.0
 10
83.49343937799817
 20
-138.1548746399405
 30
0.0
 10
83.49343937799817
 20
-138.3791503560302
 30
0.0
 10
83.49343937799817
 20
-138.3791503560302
 30
0.0
  0
HATCH
  5
174
330
16F
100
AcDbEntity
  8
_U+30EC_U+30A4_U+30E4_U+30FC 1
 62
   179
420
  2234388
100
AcDbHatch
 10
0.0
 20
0.0
 30
0.0
210
0.0
220
0.0
230
1.0
  2
SOLID
 70
     1
 71
     0
 91
        1
 92
        1
 93
        1
 72
     4
 94
        3
 73
     0
 74
     1
 95
       26
 96
       22
 40
0.0
 40
0.0
 40
0.0
 40
0.0
 40
1.0
 40
1.0
 40
1.0
 40
2.0
 40
2.0
 40
2.0
 40
3.0
 40
3.0
 40
3.0
 40
4.0
 40
4.0
 40
4.0
 40
5.0
 40
5.0
 40
5.0
 40
6.0
 40
6.0
 40
6.0
 40
7.0
 40
7.0
 40
7.0
 40
7.0
 10
83.49343937799817
 20
-138.3791503560302
 10
83.49343937799817
 20
-138.3791503560302
 10
82.38911402020133
 20
-138.3791503560302
 10
82.38911402020133
 20
-138.3791503560302
 10
82.38911402020133
 20
-138.3791503560302
 10
82.38911402020133
 20
-138.7091905035172
 10
82.38911402020133
 20
-138.7091905035172
 10
82.38911402020133
 20
-138.7091905035172
 10
82.24114716910985
 20
-138.7091905035172
 10
82.24114716910985
 20
-138.7091905035172
 10
82.22633325852328
 20
-138.3770832987391
 10
82.06338024207096
 20
-138.3305745096882
 10
81.94917532673493
 20
-138.300946688515
 10
81.94917532673493
 20
-138.300946688515
 10
81.94917532673493
 20
-138.1548746399405
 10
81.94917532673493
 20
-138.1548746399405
 10
81.94917532673493
 20
-138.1548746399405
 10
83.49343937799817
 20
-138.1548746399405
 10
83.49343937799817
 20
-138.1548746399405
 10
83.49343937799817
 20
-138.1548746399405
 10
83.49343937799817
 20
-138.3791503560302
 10
83.49343937799817
 20
-138.3791503560302
 97
        0
 97
        0
 75
     2
 76
     1
 98
        0
  0
POLYLINE
  5
175
330
16F
100
AcDbEntity
  8
_U+30EC_U+30A4_U+30E4_U+30FC 1
370
     0
100
AcDb2dPolyline
 66
     1
 10
0.0
 20
0.0
 30
0.0
  0
VERTEX
  5
176
330
175
100
AcDbEntity
  8
_U+30EC_U+30A4_U+30E4_U+30FC 1
370
     0
100
AcDbVertex
100
AcDb2dVertex
 10
83.49343937799817
 20
-137.5936685853933
 30
0.0
  0
VERTEX
  5
177
330
175
100
AcDbEntity
  8
_U+30EC_U+30A4_U+30E4_U+30FC 1
370
     0
100
AcDbVertex
100
AcDb2dVertex
 10
83.24177515280067
 20
-137.5936685853933
 30
0.0
  0
VERTEX
  5
178
330
175
100
AcDbEntity
  8
_U+30EC_U+30A4_U+30E4_U+30FC 1
370
     0
100
AcDbVertex
100
AcDb2dVertex
 10
83.24177515280067
 20
-137.34217661497
 30
0.0
  0
VERTEX
  5
179
330
175
100
AcDbEntity
  8
_U+30EC_U+30A4_U+30E4_U+30FC 1
370
     0
100
AcDbVertex
100
AcDb2dVertex
 10
83.49343937799817
 20
-137.34217661497
 30
0.0
  0
VERTEX
  5
17A
330
175
100
AcDbEntity
  8
_U+30EC_U+30A4_U+30E4_U+30FC 1
370
     0
100
AcDbVertex
100
AcDb2dVertex
 10
83.49343937799817
 20
-137.5936685853933
 30
0.0
  0
SEQEND
  5
17B
330
175
100
AcDbEntity
  8
_U+30EC_U+30A4_U+30E4_U+30FC 1
370
     0
  0
HATCH
  5
17C
330
16F
100
AcDbEntity
  8
_U+30EC_U+30A4_U+30E4_U+30FC 1
 62
   179
420
  2234388
100
AcDbHatch
 10
0.0
 20
0.0
 30
0.0
210
0.0
220
0.0
230
1.0
  2
SOLID
 70
     1
 71
     0
 91
        1
 92
        1
 93
        4
 72
     1
 10
83.49343937799817
 20
-137.5936685853933
 11
83.24177515280067
 21
-137.5936685853933
 72
     1
 10
83.24177515280067
 20
-137.5936685853933
 11
83.24177515280067
 21
-137.34217661497
 72
     1
 10
83.24177515280067
 20
-137.34217661497
 11
83.49343937799817
 21
-137.34217661497
 72
     1
 10
83.49343937799817
 20
-137.34217661497
 11
83.49343937799817
 21
-137.5936685853933
 97
        0
 75
     2
 76
     1
 98
        0
  0
SPLINE
  5
17D
330
16F
100
AcDbEntity
  8
_U+30EC_U+30A4_U+30E4_U+30FC 1
370
     0
100
AcDbSpline
210
0.0
220
0.0
230
1.0
 70
    11
 71
     3
 72
    44
 73
    40
 74
     0
 42
0.0000000001
 43
0.0000000001
 12
1.0
 22
0.0
 32
0.0
 13
1.0
 23
0.0
 33
0.0
 40
0.0
 40
0.0
 40
0.0
 40
0.0
 40
1.0
 40
1.0
 40
1.0
 40
2.0
 40
2.0
 40
2.0
 40
3.0
 40
3.0
 40
3.0
 40
4.0
 40
4.0
 40
4.0
 40
5.0
 40
5.0
 40
5.0
 40
6.0
 40
6.0
 40
6.0
 40
7.0
 40
7.0
 40
7.0
 40
8.0
 40
8.0
 40
8.0
 40
9.0
 40
9.0
 40
9.0
 40
10.0
 40
10.0
 40
10.0
 40
11.0
 40
11.0
 40
11.0
 40
12.0
 40
12.0
 40
12.0
 40
13.0
 40
13.0
 40
13.0
 40
13.0
 10
82.91173500531373
 20
-136.5125976221219
 30
0.0
 10
83.0703816524095
 20
-136.7303276567897
 30
0.0
 10
83.14445120534236
 20
-136.8233452348914
 30
0.0
 10
83.28828394185155
 20
-136.872265590782
 30
0.0
 10
83.28828394185155
 20
-136.872265590782
 30
0.0
 10
83.28828394185155
 20
-136.0936740111155
 30
0.0
 10
83.28828394185155
 20
-136.0936740111155
 30
0.0
 10
83.28828394185155
 20
-136.0936740111155
 30
0.0
 10
83.49343937799817
 20
-136.0936740111155
 30
0.0
 10
83.49343937799817
 20
-136.0936740111155
 30
0.0
 10
83.49343937799817
 20
-136.0936740111155
 30
0.0
 10
83.49343937799817
 20
-137.121690503914
 30
0.0
 10
83.49343937799817
 20
-137.121690503914
 30
0.0
 10
83.13583846662924
 20
-137.0899956254497
 30
0.0
 10
83.05763479911407
 20
-137.02453881123
 30
0.0
 10
82.75928953009144
 20
-136.6393771359791
 30
0.0
 10
82.56050752059251
 20
-136.383406541425
 30
0.0
 10
82.49281139430735
 20
-136.3179497272052
 30
0.0
 10
82.35535208444588
 20
-136.3179497272052
 30
0.0
 10
82.2368407997533
 20
-136.3179497272052
 30
0.0
 10
82.10575491653954
 20
-136.389952222847
 30
0.0
 10
82.10575491653954
 20
-136.5863226655062
 30
0.0
 10
82.10575491653954
 20
-136.8467718841911
 30
0.0
 10
82.33623180450275
 20
-136.8550401133557
 30
0.0
 10
82.45267603190419
 20
-136.8595187374865
 30
0.0
 10
82.45267603190419
 20
-136.8595187374865
 30
0.0
 10
82.45267603190419
 20
-137.0837944535763
 30
0.0
 10
82.45267603190419
 20
-137.0837944535763
 30
0.0
 10
82.32572426327273
 20
-137.0751817148632
 30
0.0
 10
82.21358640522786
 20
-137.0645019188589
 30
0.0
 10
82.09507512053526
 20
-136.9842311940526
 30
0.0
 10
81.93436141614836
 20
-136.8743326480731
 30
0.0
 10
81.90042722561864
 20
-136.6882974918696
 30
0.0
 10
81.90042722561864
 20
-136.5718532644682
 30
0.0
 10
81.90042722561864
 20
-136.2945230779056
 30
0.0
 10
82.08456757930526
 20
-136.087472839242
 30
0.0
 10
82.35741914173704
 20
-136.087472839242
 30
0.0
 10
82.5858289724091
 20
-136.087472839242
 30
0.0
 10
82.68539223193282
 20
-136.203572557095
 30
0.0
 10
82.91173500531373
 20
-136.5125976221219
 30
0.0
  0
HATCH
  5
17E
330
16F
100
AcDbEntity
  8
_U+30EC_U+30A4_U+30E4_U+30FC 1
 62
   179
420
  2234388
100
AcDbHatch
 10
0.0
 20
0.0
 30
0.0
210
0.0
220
0.0
230
1.0
  2
SOLID
 70
     1
 71
     0
 91
        1
 92
        1
 93
        1
 72
     4
 94
        3
 73
     0
 74
     1
 95
       44
 96
       40
 40
0.0
 40
0.0
 40
0.0
 40
0.0
 40
1.0
 40
1.0
 40
1.0
 40
2.0
 40
2.0
 40
2.0
 40
3.0
 40
3.0
 40
3.0
 40
4.0
 40
4.0
 40
4.0
 40
5.0
 40
5.0
 40
5.0
 40
6.0
 40
6.0
 40
6.0
 40
7.0
 40
7.0
 40
7.0
 40
8.0
 40
8.0
 40
8.0
 40
9.0
 40
9.0
 40
9.0
 40
10.0
 40
10.0
 40
10.0
 40
11.0
 40
11.0
 40
11.0
 40
12.0
 40
12.0
 40
12.0
 40
13.0
 40
13.0
 40
13.0
 40
13.0
 10
82.91173500531373
 20
-136.5125976221219
 10
83.0703816524095
 20
-136.7303276567897
 10
83.14445120534236
 20
-136.8233452348914
 10
83.28828394185155
 20
-136.872265590782
 10
83.28828394185155
 20
-136.872265590782
 10
83.28828394185155
 20
-136.0936740111155
 10
83.28828394185155
 20
-136.0936740111155
 10
83.28828394185155
 20
-136.0936740111155
 10
83.49343937799817
 20
-136.0936740111155
 10
83.49343937799817
 20
-136.0936740111155
 10
83.49343937799817
 20
-136.0936740111155
 10
83.49343937799817
 20
-137.121690503914
 10
83.49343937799817
 20
-137.121690503914
 10
83.13583846662924
 20
-137.0899956254497
 10
83.05763479911407
 20
-137.02453881123
 10
82.75928953009144
 20
-136.6393771359791
 10
82.56050752059251
 20
-136.383406541425
 10
82.49281139430735
 20
-136.3179497272052
 10
82.35535208444588
 20
-136.3179497272052
 10
82.2368407997533
 20
-136.3179497272052
 10
82.10575491653954
 20
-136.389952222847
 10
82.10575491653954
 20
-136.5863226655062
 10
82.10575491653954
 20
-136.8467718841911
 10
82.33623180450275
 20
-136.8550401133557
 10
82.45267603190419
 20
-136.8595187374865
 10
82.45267603190419
 20
-136.8595187374865
 10
82.45267603190419
 20
-137.0837944535763
 10
82.45267603190419
 20
-137.0837944535763
 10
82.32572426327273
 20
-137.0751817148632
 10
82.21358640522786
 20
-137.0645019188589
 10
82.09507512053526
 20
-136.9842311940526
 10
81.93436141614836
 20
-136.8743326480731
 10
81.90042722561864
 20
-136.6882974918696
 10
81.90042722561864
 20
-136.5718532644682
 10
81.90042722561864
 20
-136.2945230779056
 10
82.08456757930526
 20
-136.087472839242
 10
82.35741914173704
 20
-136.087472839242
 10
82.5858289724091
 20
-136.087472839242
 10
82.68539223193282
 20
-136.203572557095
 10
82.91173500531373
 20
-136.5125976221219
 97
        0
 97
        0
 75
     2
 76
     1
 98
        0
  0
ENDBLK
  5
172
330
16F
100
AcDbEntity
  8
0
100
AcDbBlockEnd
  0
ENDSEC
  0
SECTION
  2
ENTITIES
  0
INSERT
  5
42
330
1F
100
AcDbEntity
  8
_U+30EC_U+30A4_U+30E4_U+30FC 1
100
AcDbBlockReference
  2
block 2
 10
0.0
 20
0.0
 30
0.0
  0
INSERT
  5
170
330
1F
100
AcDbEntity
  8
_U+30EC_U+30A4_U+30E4_U+30FC 1
100
AcDbBlockReference
  2
block 21
 10
0.0
 20
0.0
 30
0.0
  0
POLYLINE
  5
17F
330
1F
100
AcDbEntity
  8
_U+30EC_U+30A4_U+30E4_U+30FC 1
 62
   179
420
  2234388
370
     9
100
AcDb2dPolyline
 66
     1
 10
0.0
 20
0.0
 30
0.0
  0
VERTEX
  5
180
330
17F
100
AcDbEntity
  8
_U+30EC_U+30A4_U+30E4_U+30FC 1
 62
   179
420
  2234388
370
     9
100
AcDbVertex
100
AcDb2dVertex
 10
83.8376014722357
 20
-135.5672788549972
 30
0.0
  0
VERTEX
  5
181
330
17F
100
AcDbEntity
  8
_U+30EC_U+30A4_U+30E4_U+30FC 1
 62
   179
420
  2234388
370
     9
100
AcDbVertex
100
AcDb2dVertex
 10
83.8376014722357
 20
-139.9521655205674
 30
0.0
  0
SEQEND
  5
182
330
17F
100
AcDbEntity
  8
_U+30EC_U+30A4_U+30E4_U+30FC 1
 62
   179
420
  2234388
370
     9
  0
POLYLINE
  5
183
330
1F
100
AcDbEntity
  8
_U+30EC_U+30A4_U+30E4_U+30FC 1
 62
   179
420
  2234388
370
     9
100
AcDb2dPolyline
 66
     1
 10
0.0
 20
0.0
 30
0.0
  0
VERTEX
  5
184
330
183
100
AcDbEntity
  8
_U+30EC_U+30A4_U+30E4_U+30FC 1
 62
   179
420
  2234388
370
     9
100
AcDbVertex
100
AcDb2dVertex
 10
83.10759843530408
 20
-139.252818854076
 30
0.0
  0
VERTEX
  5
185
330
183
100
AcDbEntity
  8
_U+30EC_U+30A4_U+30E4_U+30FC 1
 62
   179
420
  2234388
370
     9
100
AcDbVertex
100
AcDb2dVertex
 10
84.33748757059367
 20
-139.252818854076
 30
0.0
  0
SEQEND
  5
186
330
183
100
AcDbEntity
  8
_U+30EC_U+30A4_U+30E4_U+30FC 1
 62
   179
420
  2234388
370
     9
  0
POLYLINE
  5
187
330
1F
100
AcDbEntity
  8
_U+30EC_U+30A4_U+30E4_U+30FC 1
 62
   179
420
  2234388
370
     9
100
AcDb2dPolyline
 66
     1
 10
0.0
 20
0.0
 30
0.0
  0
VERTEX
  5
188
330
187
100
AcDbEntity
  8
_U+30EC_U+30A4_U+30E4_U+30FC 1
 62
   179
420
  2234388
370
     9
100
AcDbVertex
100
AcDb2dVertex
 10
83.10759843530408
 20
-139.9521655205674
 30
0.0
  0
VERTEX
  5
189
330
187
100
AcDbEntity
  8
_U+30EC_U+30A4_U+30E4_U+30FC 1
 62
   179
420
  2234388
370
     9
100
AcDbVertex
100
AcDb2dVertex
 10
84.33748757059367
 20
-139.9521655205674
 30
0.0
  0
SEQEND
  5
18A
330
187
100
AcDbEntity
  8
_U+30EC_U+30A4_U+30E4_U+30FC 1
 62
   179
420
  2234388
370
     9
  0
SPLINE
  5
18B
330
1F
100
AcDbEntity
  8
_U+30EC_U+30A4_U+30E4_U+30FC 1
 62
   179
420
  2234388
370
     9
100
AcDbSpline
210
0.0
220
0.0
230
1.0
 70
    11
 71
     3
 72
    17
 73
    13
 74
     0
 42
0.0000000001
 43
0.0000000001
 12
1.0
 22
0.0
 32
0.0
 13
1.0
 23
0.0
 33
0.0
 40
0.0
 40
0.0
 40
0.0
 40
0.0
 40
1.0
 40
1.0
 40
1.0
 40
2.0
 40
2.0
 40
2.0
 40
3.0
 40
3.0
 40
3.0
 40
4.0
 40
4.0
 40
4.0
 40
4.0
 10
83.887027756806
 20
-139.9521655205674
 30
0.0
 10
83.887027756806
 20
-139.9246135761296
 30
0.0
 10
83.86465952710095
 20
-139.9025649650241
 30
0.0
 10
83.83707230558254
 20
-139.9025649650241
 30
0.0
 10
83.80952036184101
 20
-139.9025649650241
 30
0.0
 10
83.78711897352362
 20
-139.9246135761296
 30
0.0
 10
83.78711897352362
 20
-139.9521655205674
 30
0.0
 10
83.78711897352362
 20
-139.9797527427827
 30
0.0
 10
83.80952036184101
 20
-140.0024716316663
 30
0.0
 10
83.83707230558254
 20
-140.0024716316663
 30
0.0
 10
83.86465952710095
 20
-140.0024716316663
 30
0.0
 10
83.887027756806
 20
-139.9797527427827
 30
0.0
 10
83.887027756806
 20
-139.9521655205674
 30
0.0
  0
SPLINE
  5
18C
330
1F
100
AcDbEntity
  8
_U+30EC_U+30A4_U+30E4_U+30FC 1
 62
   179
420
  2234388
370
     9
100
AcDbSpline
210
0.0
220
0.0
230
1.0
 70
    11
 71
     3
 72
    17
 73
    13
 74
     0
 42
0.0000000001
 43
0.0000000001
 12
1.0
 22
0.0
 32
0.0
 13
1.0
 23
0.0
 33
0.0
 40
0.0
 40
0.0
 40
0.0
 40
0.0
 40
1.0
 40
1.0
 40
1.0
 40
2.0
 40
2.0
 40
2.0
 40
3.0
 40
3.0
 40
3.0
 40
4.0
 40
4.0
 40
4.0
 40
4.0
 10
83.88755480429462
 20
-139.252818854076
 30
0.0
 10
83.88755480429462
 20
-139.2252669096382
 30
0.0
 10
83.86515553458929
 20
-139.2025127429771
 30
0.0
 10
83.8376014722357
 20
-139.2025127429771
 30
0.0
 10
83.81004952849418
 20
-139.2025127429771
 30
0.0
 10
83.78764814017678
 20
-139.2252669096382
 30
0.0
 10
83.78764814017678
 20
-139.252818854076
 30
0.0
 10
83.78764814017678
 20
-139.2803707985131
 30
0.0
 10
83.81004952849418
 20
-139.3024194096187
 30
0.0
 10
83.8376014722357
 20
-139.3024194096187
 30
0.0
 10
83.86515553458929
 20
-139.3024194096187
 30
0.0
 10
83.88755480429462
 20
-139.2803707985131
 30
0.0
 10
83.88755480429462
 20
-139.252818854076
 30
0.0
  0
ENDSEC
  0
SECTION
  2
OBJECTS
  0
DICTIONARY
  5
C
330
0
100
AcDbDictionary
281
     1
  3
ACAD_GROUP
350
D
  3
ACAD_LAYOUT
350
1A
  3
ACAD_MATERIAL
350
3B
  3
ACAD_MLEADERSTYLE
350
18E
  3
ACAD_MLINESTYLE
350
17
  3
ACAD_PLOTSETTINGS
350
19
  3
ACAD_PLOTSTYLENAME
350
E
  3
ACAD_TABLESTYLE
350
18D
  3
ACAD_VISUALSTYLE
350
2A
  0
SUN
  5
3F
330
29
100
AcDbSun
 90
        1
290
     0
 63
     7
421
 16777215
 40
1.0
291
     1
 91
  2455826
 92
 54000000
292
     0
 70
     2
 71
   256
280
     1
  0
DICTIONARY
  5
D
102
{ACAD_REACTORS
330
C
102
}
330
C
100
AcDbDictionary
281
     1
  0
DICTIONARY
  5
1A
102
{ACAD_REACTORS
330
C
102
}
330
C
100
AcDbDictionary
281
     1
  3
Layout1
350
1E
  3
Layout2
350
26
  3
Model
350
22
  0
DICTIONARY
  5
3B
102
{ACAD_REACTORS
330
C
102
}
330
C
100
AcDbDictionary
281
     1
  3
ByBlock
350
3D
  3
ByLayer
350
3C
  3
Global
350
3E
  0
DICTIONARY
  5
18E
102
{ACAD_REACTORS
330
C
102
}
330
C
100
AcDbDictionary
281
     1
  0
DICTIONARY
  5
17
102
{ACAD_REACTORS
330
C
102
}
330
C
100
AcDbDictionary
281
     1
  3
Standard
350
18
  0
DICTIONARY
  5
19
102
{ACAD_REACTORS
330
C
102
}
330
C
100
AcDbDictionary
281
     1
  0
ACDBDICTIONARYWDFLT
  5
E
102
{ACAD_REACTORS
330
C
102
}
330
C
100
AcDbDictionary
281
     1
  3
Normal
350
F
100
AcDbDictionaryWithDefault
340
F
  0
DICTIONARY
  5
18D
102
{ACAD_REACTORS
330
C
102
}
330
C
100
AcDbDictionary
281
     1
  0
DICTIONARY
  5
2A
102
{ACAD_REACTORS
330
C
102
}
330
C
100
AcDbDictionary
281
     1
  3
2dWireframe
350
2F
  3
3D Hidden
350
31
  3
3dWireframe
350
30
  3
Basic
350
32
  3
Brighten
350
36
  3
ColorChange
350
3A
  3
Conceptual
350
34
  3
Dim
350
35
  3
Facepattern
350
39
  3
Flat
350
2B
  3
FlatWithEdges
350
2C
  3
Gouraud
350
2D
  3
GouraudWithEdges
350
2E
  3
Linepattern
350
38
  3
Realistic
350
33
  3
Thicken
350
37
  0
LAYOUT
  5
1E
102
{ACAD_REACTORS
330
1A
102
}
330
1A
100
AcDbPlotSettings
  1

  2
none_device
  4

  6

 40
0.0
 41
0.0
 42
0.0
 43
0.0
 44
0.0
 45
0.0
 46
0.0
 47
0.0
 48
0.0
 49
0.0
140
0.0
141
0.0
142
1.0
143
1.0
 70
   688
 72
     0
 73
     0
 74
     5
  7

 75
    16
 76
     0
 77
     2
 78
   300
147
1.0
148
0.0
149
0.0
100
AcDbLayout
  1
Layout1
 70
     1
 71
     1
 10
0.0
 20
0.0
 11
12.0
 21
9.0
 12
0.0
 22
0.0
 32
0.0
 14
1.000000000000000E+20
 24
1.000000000000000E+20
 34
1.000000000000000E+20
 15
-1.000000000000000E+20
 25
-1.000000000000000E+20
 35
-1.000000000000000E+20
146
0.0
 13
0.0
 23
0.0
 33
0.0
 16
1.0
 26
0.0
 36
0.0
 17
0.0
 27
1.0
 37
0.0
 76
     0
330
1B
  0
LAYOUT
  5
26
102
{ACAD_REACTORS
330
1A
102
}
330
1A
100
AcDbPlotSettings
  1

  2
none_device
  4

  6

 40
0.0
 41
0.0
 42
0.0
 43
0.0
 44
0.0
 45
0.0
 46
0.0
 47
0.0
 48
0.0
 49
0.0
140
0.0
141
0.0
142
1.0
143
1.0
 70
   688
 72
     0
 73
     0
 74
     5
  7

 75
    16
 76
     0
 77
     2
 78
   300
147
1.0
148
0.0
149
0.0
100
AcDbLayout
  1
Layout2
 70
     1
 71
     2
 10
0.0
 20
0.0
 11
0.0
 21
0.0
 12
0.0
 22
0.0
 32
0.0
 14
0.0
 24
0.0
 34
0.0
 15
0.0
 25
0.0
 35
0.0
146
0.0
 13
0.0
 23
0.0
 33
0.0
 16
1.0
 26
0.0
 36
0.0
 17
0.0
 27
1.0
 37
0.0
 76
     0
330
23
  0
LAYOUT
  5
22
102
{ACAD_REACTORS
330
1A
102
}
330
1A
100
AcDbPlotSettings
  1

  2
none_device
  4

  6

 40
0.0
 41
0.0
 42
0.0
 43
0.0
 44
0.0
 45
0.0
 46
0.0
 47
0.0
 48
0.0
 49
0.0
140
0.0
141
0.0
142
1.0
143
1.0
 70
  1712
 72
     0
 73
     0
 74
     0
  7

 75
     0
 76
     0
 77
     2
 78
   300
147
1.0
148
0.0
149
0.0
100
AcDbLayout
  1
Model
 70
     1
 71
     0
 10
0.0
 20
0.0
 11
12.0
 21
9.0
 12
0.0
 22
0.0
 32
0.0
 14
1.000000000000000E+20
 24
1.000000000000000E+20
 34
1.000000000000000E+20
 15
-1.000000000000000E+20
 25
-1.000000000000000E+20
 35
-1.000000000000000E+20
146
0.0
 13
0.0
 23
0.0
 33
0.0
 16
1.0
 26
0.0
 36
0.0
 17
0.0
 27
1.0
 37
0.0
 76
     0
330
1F
331
29
  0
MATERIAL
  5
3D
102
{ACAD_REACTORS
330
3B
102
}
330
3B
100
AcDbMaterial
  1
ByBlock
 72
     1
 94
      127
  0
MATERIAL
  5
3C
102
{ACAD_REACTORS
330
3B
102
}
330
3B
100
AcDbMaterial
  1
ByLayer
 72
     1
 94
      127
  0
MATERIAL
  5
3E
102
{ACAD_REACTORS
330
3B
102
}
330
3B
100
AcDbMaterial
  1
Global
 72
     1
 94
      127
  0
MLINESTYLE
  5
18
102
{ACAD_REACTORS
330
17
102
}
330
17
100
AcDbMlineStyle
  2
Standard
 70
     0
  3

 62
   256
 51
90.0
 52
90.0
 71
     2
 49
0.5
 62
   256
  6
BYLAYER
 49
-0.5
 62
   256
  6
BYLAYER
  0
ACDBPLACEHOLDER
  5
F
102
{ACAD_REACTORS
330
E
102
}
330
E
  0
VISUALSTYLE
  5
2F
102
{ACAD_REACTORS
330
2A
102
}
330
2A
100
AcDbVisualStyle
  2
2dWireframe
 70
     4
177
     2
291
     0
 71
     0
176
     1
 72
     2
176
     1
 73
     0
176
     1
 90
        0
176
     1
 40
-0.6
176
     1
 41
-30.0
176
     1
 62
     5
 63
     7
421
 16777215
176
     1
 74
     1
176
     1
 91
        4
176
     1
 64
     7
176
     1
 65
   257
176
     1
 75
     1
176
     1
175
     1
176
     1
 42
1.0
176
     1
 92
        0
176
     1
 66
   257
176
     1
 43
1.0
176
     1
 76
     1
176
     1
 77
     6
176
     1
 78
     2
176
     1
 67
     7
176
     1
 79
     5
176
     1
170
     0
176
     1
171
     0
176
     1
290
     0
176
     1
 93
        1
176
     1
 44
0.0
176
     1
173
     0
176
     1
  0
VISUALSTYLE
  5
31
102
{ACAD_REACTORS
330
2A
102
}
330
2A
100
AcDbVisualStyle
  2
3D Hidden
 70
     6
177
     2
291
     0
 71
     1
176
     1
 72
     2
176
     1
 73
     2
176
     1
 90
        0
176
     1
 40
-0.6
176
     1
 41
-30.0
176
     1
 62
     5
 63
     7
421
 16777215
176
     1
 74
     2
176
     1
 91
        2
176
     1
 64
     7
176
     1
 65
   257
176
     1
 75
     2
176
     1
175
     1
176
     1
 42
40.0
176
     1
 92
        0
176
     1
 66
   257
176
     1
 43
1.0
176
     1
 76
     1
176
     1
 77
     6
176
     1
 78
     2
176
     1
 67
     7
176
     1
 79
     3
176
     1
170
     0
176
     1
171
     0
176
     1
290
     0
176
     1
 93
        1
176
     1
 44
0.0
176
     1
173
     0
176
     1
  0
VISUALSTYLE
  5
30
102
{ACAD_REACTORS
330
2A
102
}
330
2A
100
AcDbVisualStyle
  2
3dWireframe
 70
     5
177
     2
291
     0
 71
     0
176
     1
 72
     2
176
     1
 73
     0
176
     1
 90
        0
176
     1
 40
-0.6
176
     1
 41
-30.0
176
     1
 62
     5
 63
     7
421
 16777215
176
     1
 74
     1
176
     1
 91
        4
176
     1
 64
     7
176
     1
 65
   257
176
     1
 75
     1
176
     1
175
     1
176
     1
 42
1.0
176
     1
 92
        0
176
     1
 66
   257
176
     1
 43
1.0
176
     1
 76
     1
176
     1
 77
     6
176
     1
 78
     2
176
     1
 67
     7
176
     1
 79
     5
176
     1
170
     0
176
     1
171
     0
176
     1
290
     0
176
     1
 93
        1
176
     1
 44
0.0
176
     1
173
     0
176
     1
  0
VISUALSTYLE
  5
32
102
{ACAD_REACTORS
330
2A
102
}
330
2A
100
AcDbVisualStyle
  2
Basic
 70
     7
177
     2
291
     1
 71
     1
176
     1
 72
     0
176
     1
 73
     1
176
     1
 90
        0
176
     1
 40
-0.6
176
     1
 41
-30.0
176
     1
 62
     5
 63
     7
421
 16777215
176
     1
 74
     0
176
     1
 91
        4
176
     1
 64
     7
176
     1
 65
   257
176
     1
 75
     1
176
     1
175
     1
176
     1
 42
1.0
176
     1
 92
        8
176
     1
 66
     7
176
     1
 43
1.0
176
     1
 76
     1
176
     1
 77
     6
176
     1
 78
     2
176
     1
 67
     7
176
     1
 79
     5
176
     1
170
     0
176
     1
171
     0
176
     1
290
     0
176
     1
 93
        1
176
     1
 44
0.0
176
     1
173
     0
176
     1
  0
VISUALSTYLE
  5
36
102
{ACAD_REACTORS
330
2A
102
}
330
2A
100
AcDbVisualStyle
  2
Brighten
 70
    12
177
     2
291
     1
 71
     2
176
     1
 72
     2
176
     1
 73
     0
176
     1
 90
        0
176
     1
 40
-0.6
176
     1
 41
-30.0
176
     1
 62
     5
 63
     7
421
 16777215
176
     1
 74
     1
176
     1
 91
        4
176
     1
 64
     7
176
     1
 65
   257
176
     1
 75
     1
176
     1
175
     1
176
     1
 42
1.0
176
     1
 92
        8
176
     1
 66
     7
176
     1
 43
1.0
176
     1
 76
     1
176
     1
 77
     6
176
     1
 78
     2
176
     1
 67
     7
176
     1
 79
     5
176
     1
170
     0
176
     1
171
     0
176
     1
290
     0
176
     1
 93
        1
176
     1
 44
50.0
176
     1
173
     0
176
     1
  0
VISUALSTYLE
  5
3A
102
{ACAD_REACTORS
330
2A
102
}
330
2A
100
AcDbVisualStyle
  2
ColorChange
 70
    16
177
     2
291
     1
 71
     2
176
     1
 72
     2
176
     1
 73
     3
176
     1
 90
        0
176
     1
 40
-0.6
176
     1
 41
-30.0
176
     1
 62
     5
 63
     8
421
  8421504
176
     1
 74
     1
176
     1
 91
        4
176
     1
 64
     7
176
     1
 65
   257
176
     1
 75
     1
176
     1
175
     1
176
     1
 42
1.0
176
     1
 92
        8
176
     1
 66
     8
424
  8421504
176
     1
 43
1.0
176
     1
 76
     1
176
     1
 77
     6
176
     1
 78
     2
176
     1
 67
     7
176
     1
 79
     5
176
     1
170
     0
176
     1
171
     0
176
     1
290
     0
176
     1
 93
        1
176
     1
 44
0.0
176
     1
173
     0
176
     1
  0
VISUALSTYLE
  5
34
102
{ACAD_REACTORS
330
2A
102
}
330
2A
100
AcDbVisualStyle
  2
Conceptual
 70
     9
177
     2
291
     0
 71
     3
176
     1
 72
     2
176
     1
 73
     0
176
     1
 90
        0
176
     1
 40
-0.6
176
     1
 41
-30.0
176
     1
 62
     5
 63
     7
421
 16777215
176
     1
 74
     2
176
     1
 91
        2
176
     1
 64
     7
176
     1
 65
   257
176
     1
 75
     1
176
     1
175
     1
176
     1
 42
40.0
176
     1
 92
        8
176
     1
 66
     7
176
     1
 43
1.0
176
     1
 76
     1
176
     1
 77
     6
176
     1
 78
     2
176
     1
 67
     7
176
     1
 79
     3
176
     1
170
     0
176
     1
171
     0
176
     1
290
     0
176
     1
 93
        1
176
     1
 44
0.0
176
     1
173
     0
176
     1
  0
VISUALSTYLE
  5
35
102
{ACAD_REACTORS
330
2A
102
}
330
2A
100
AcDbVisualStyle
  2
Dim
 70
    11
177
     2
291
     1
 71
     2
176
     1
 72
     2
176
     1
 73
     0
176
     1
 90
        0
176
     1
 40
-0.6
176
     1
 41
-30.0
176
     1
 62
     5
 63
     7
421
 16777215
176
     1
 74
     1
176
     1
 91
        4
176
     1
 64
     7
176
     1
 65
   257
176
     1
 75
     1
176
     1
175
     1
176
     1
 42
1.0
176
     1
 92
        8
176
     1
 66
     7
176
     1
 43
1.0
176
     1
 76
     1
176
     1
 77
     6
176
     1
 78
     2
176
     1
 67
     7
176
     1
 79
     5
176
     1
170
     0
176
     1
171
     0
176
     1
290
     0
176
     1
 93
        1
176
     1
 44
-50.0
176
     1
173
     0
176
     1
  0
VISUALSTYLE
  5
39
102
{ACAD_REACTORS
330
2A
102
}
330
2A
100
AcDbVisualStyle
  2
Facepattern
 70
    15
177
     2
291
     1
 71
     2
176
     1
 72
     2
176
     1
 73
     0
176
     1
 90
        0
176
     1
 40
-0.6
176
     1
 41
-30.0
176
     1
 62
     5
 63
     7
421
 16777215
176
     1
 74
     1
176
     1
 91
        4
176
     1
 64
     7
176
     1
 65
   257
176
     1
 75
     1
176
     1
175
     1
176
     1
 42
1.0
176
     1
 92
        8
176
     1
 66
     7
176
     1
 43
1.0
176
     1
 76
     1
176
     1
 77
     6
176
     1
 78
     2
176
     1
 67
     7
176
     1
 79
     5
176
     1
170
     0
176
     1
171
     0
176
     1
290
     0
176
     1
 93
        1
176
     1
 44
0.0
176
     1
173
     0
176
     1
  0
VISUALSTYLE
  5
2B
102
{ACAD_REACTORS
330
2A
102
}
330
2A
100
AcDbVisualStyle
  2
Flat
 70
     0
177
     2
291
     1
 71
     2
176
     1
 72
     1
176
     1
 73
     1
176
     1
 90
        2
176
     1
 40
-0.6
176
     1
 41
30.0
176
     1
 62
     5
 63
     7
421
 16777215
176
     1
 74
     0
176
     1
 91
        4
176
     1
 64
     7
176
     1
 65
   257
176
     1
 75
     1
176
     1
175
     1
176
     1
 42
1.0
176
     1
 92
        8
176
     1
 66
     7
176
     1
 43
1.0
176
     1
 76
     1
176
     1
 77
     6
176
     1
 78
     2
176
     1
 67
     7
176
     1
 79
     5
176
     1
170
     0
176
     1
171
     0
176
     1
290
     0
176
     1
 93
       13
176
     1
 44
0.0
176
     1
173
     0
176
     1
  0
VISUALSTYLE
  5
2C
102
{ACAD_REACTORS
330
2A
102
}
330
2A
100
AcDbVisualStyle
  2
FlatWithEdges
 70
     1
177
     2
291
     1
 71
     2
176
     1
 72
     1
176
     1
 73
     1
176
     1
 90
        2
176
     1
 40
-0.6
176
     1
 41
30.0
176
     1
 62
     5
 63
     7
421
 16777215
176
     1
 74
     1
176
     1
 91
        4
176
     1
 64
     7
176
     1
 65
   257
176
     1
 75
     1
176
     1
175
     1
176
     1
 42
1.0
176
     1
 92
        0
176
     1
 66
   257
176
     1
 43
1.0
176
     1
 76
     1
176
     1
 77
     6
176
     1
 78
     2
176
     1
 67
     7
176
     1
 79
     5
176
     1
170
     0
176
     1
171
     0
176
     1
290
     0
176
     1
 93
       13
176
     1
 44
0.0
176
     1
173
     0
176
     1
  0
VISUALSTYLE
  5
2D
102
{ACAD_REACTORS
330
2A
102
}
330
2A
100
AcDbVisualStyle
  2
Gouraud
 70
     2
177
     2
291
     1
 71
     2
176
     1
 72
     2
176
     1
 73
     1
176
     1
 90
        2
176
     1
 40
-0.6
176
     1
 41
30.0
176
     1
 62
     5
 63
     7
421
 16777215
176
     1
 74
     0
176
     1
 91
        4
176
     1
 64
     7
176
     1
 65
   257
176
     1
 75
     1
176
     1
175
     1
176
     1
 42
1.0
176
     1
 92
        0
176
     1
 66
     7
176
     1
 43
1.0
176
     1
 76
     1
176
     1
 77
     6
176
     1
 78
     2
176
     1
 67
     7
176
     1
 79
     5
176
     1
170
     0
176
     1
171
     0
176
     1
290
     0
176
     1
 93
       13
176
     1
 44
0.0
176
     1
173
     0
176
     1
  0
VISUALSTYLE
  5
2E
102
{ACAD_REACTORS
330
2A
102
}
330
2A
100
AcDbVisualStyle
  2
GouraudWithEdges
 70
     3
177
     2
291
     1
 71
     2
176
     1
 72
     2
176
     1
 73
     1
176
     1
 90
        2
176
     1
 40
-0.6
176
     1
 41
30.0
176
     1
 62
     5
 63
     7
421
 16777215
176
     1
 74
     1
176
     1
 91
        4
176
     1
 64
     7
176
     1
 65
   257
176
     1
 75
     1
176
     1
175
     1
176
     1
 42
1.0
176
     1
 92
        0
176
     1
 66
   257
176
     1
 43
1.0
176
     1
 76
     1
176
     1
 77
     6
176
     1
 78
     2
176
     1
 67
     7
176
     1
 79
     5
176
     1
170
     0
176
     1
171
     0
176
     1
290
     0
176
     1
 93
       13
176
     1
 44
0.0
176
     1
173
     0
176
     1
  0
VISUALSTYLE
  5
38
102
{ACAD_REACTORS
330
2A
102
}
330
2A
100
AcDbVisualStyle
  2
Linepattern
 70
    14
177
     2
291
     1
 71
     2
176
     1
 72
     2
176
     1
 73
     0
176
     1
 90
        0
176
     1
 40
-0.6
176
     1
 41
-30.0
176
     1
 62
     5
 63
     7
421
 16777215
176
     1
 74
     1
176
     1
 91
        4
176
     1
 64
     7
176
     1
 65
   257
176
     1
 75
     7
176
     1
175
     7
176
     1
 42
1.0
176
     1
 92
        8
176
     1
 66
     7
176
     1
 43
1.0
176
     1
 76
     1
176
     1
 77
     6
176
     1
 78
     2
176
     1
 67
     7
176
     1
 79
     5
176
     1
170
     0
176
     1
171
     0
176
     1
290
     0
176
     1
 93
        1
176
     1
 44
0.0
176
     1
173
     0
176
     1
  0
VISUALSTYLE
  5
33
102
{ACAD_REACTORS
330
2A
102
}
330
2A
100
AcDbVisualStyle
  2
Realistic
 70
     8
177
     2
291
     0
 71
     2
176
     1
 72
     2
176
     1
 73
     0
176
     1
 90
        0
176
     1
 40
-0.6
176
     1
 41
-30.0
176
     1
 62
     5
 63
     7
421
 16777215
176
     1
 74
     1
176
     1
 91
        0
176
     1
 64
     7
176
     1
 65
   257
176
     1
 75
     1
176
     1
175
     1
176
     1
 42
1.0
176
     1
 92
        8
176
     1
 66
     8
424
  7895160
176
     1
 43
1.0
176
     1
 76
     1
176
     1
 77
     6
176
     1
 78
     2
176
     1
 67
     7
176
     1
 79
     5
176
     1
170
     0
176
     1
171
     0
176
     1
290
     0
176
     1
 93
       13
176
     1
 44
0.0
176
     1
173
     0
176
     1
  0
VISUALSTYLE
  5
37
102
{ACAD_REACTORS
330
2A
102
}
330
2A
100
AcDbVisualStyle
  2
Thicken
 70
    13
177
     2
291
     1
 71
     2
176
     1
 72
     2
176
     1
 73
     0
176
     1
 90
        0
176
     1
 40
-0.6
176
     1
 41
-30.0
176
     1
 62
     5
 63
     7
421
 16777215
176
     1
 74
     1
176
     1
 91
        4
176
     1
 64
     7
176
     1
 65
   257
176
     1
 75
     1
176
     1
175
     1
176
     1
 42
1.0
176
     1
 92
       12
176
     1
 66
     7
176
     1
 43
1.0
176
     1
 76
     1
176
     1
 77
     6
176
     1
 78
     2
176
     1
 67
     7
176
     1
 79
     5
176
     1
170
     0
176
     1
171
     0
176
     1
290
     0
176
     1
 93
        1
176
     1
 44
0.0
176
     1
173
     0
176
     1
  0
ENDSEC
  0
EOF
