  0
SECTION
  2
HEADER
  9
$ACADVER
  1
AC1024
  9
$ACADMAINTVER
 70
     6
  9
$DWGCODEPAGE
  3
UNDEFINED
  9
$INSBASE
 10
0.0
 20
0.0
 30
0.0
  9
$EXTMIN
 10
1.000000000000000E+20
 20
1.000000000000000E+20
 30
1.000000000000000E+20
  9
$EXTMAX
 10
-1.000000000000000E+20
 20
-1.000000000000000E+20
 30
-1.000000000000000E+20
  9
$LIMMIN
 10
0.0
 20
0.0
  9
$LIMMAX
 10
12.0
 20
9.0
  9
$ORTHOMODE
 70
     0
  9
$REGENMODE
 70
     1
  9
$FILLMODE
 70
     1
  9
$QTEXTMODE
 70
     0
  9
$MIRRTEXT
 70
     1
  9
$LTSCALE
 40
1.0
  9
$ATTMODE
 70
     1
  9
$TEXTSIZE
 40
0.2
  9
$TRACEWID
 40
0.05
  9
$TEXTSTYLE
  7
Standard
  9
$CLAYER
  8
0
  9
$CELTYPE
  6
ByLayer
  9
$CECOLOR
 62
   256
  9
$CELTSCALE
 40
1.0
  9
$DISPSILH
 70
     0
  9
$DIMSCALE
 40
1.0
  9
$DIMASZ
 40
0.18
  9
$DIMEXO
 40
0.0625
  9
$DIMDLI
 40
0.38
  9
$DIMRND
 40
0.0
  9
$DIMDLE
 40
0.0
  9
$DIMEXE
 40
0.18
  9
$DIMTP
 40
0.0
  9
$DIMTM
 40
0.0
  9
$DIMTXT
 40
0.18
  9
$DIMCEN
 40
0.09
  9
$DIMTSZ
 40
0.0
  9
$DIMTOL
 70
     0
  9
$DIMLIM
 70
     0
  9
$DIMTIH
 70
     1
  9
$DIMTOH
 70
     1
  9
$DIMSE1
 70
     0
  9
$DIMSE2
 70
     0
  9
$DIMTAD
 70
     0
  9
$DIMZIN
 70
     0
  9
$DIMBLK
  1

  9
$DIMASO
 70
     1
  9
$DIMSHO
 70
     1
  9
$DIMPOST
  1

  9
$DIMAPOST
  1

  9
$DIMALT
 70
     0
  9
$DIMALTD
 70
     2
  9
$DIMALTF
 40
25.4
  9
$DIMLFAC
 40
1.0
  9
$DIMTOFL
 70
     0
  9
$DIMTVP
 40
0.0
  9
$DIMTIX
 70
     0
  9
$DIMSOXD
 70
     0
  9
$DIMSAH
 70
     0
  9
$DIMBLK1
  1

  9
$DIMBLK2
  1

  9
$DIMSTYLE
  2
Standard
  9
$DIMCLRD
 70
     0
  9
$DIMCLRE
 70
     0
  9
$DIMCLRT
 70
     0
  9
$DIMTFAC
 40
1.0
  9
$DIMGAP
 40
0.09
  9
$DIMJUST
 70
     0
  9
$DIMSD1
 70
     0
  9
$DIMSD2
 70
     0
  9
$DIMTOLJ
 70
     1
  9
$DIMTZIN
 70
     0
  9
$DIMALTZ
 70
     0
  9
$DIMALTTZ
 70
     0
  9
$DIMUPT
 70
     0
  9
$DIMDEC
 70
     4
  9
$DIMTDEC
 70
     4
  9
$DIMALTU
 70
     2
  9
$DIMALTTD
 70
     2
  9
$DIMTXSTY
  7
Standard
  9
$DIMAUNIT
 70
     0
  9
$DIMADEC
 70
     0
  9
$DIMALTRND
 40
0.0
  9
$DIMAZIN
 70
     0
  9
$DIMDSEP
 70
    46
  9
$DIMATFIT
 70
     3
  9
$DIMFRAC
 70
     0
  9
$DIMLDRBLK
  1

  9
$DIMLUNIT
 70
     2
  9
$DIMLWD
 70
    -2
  9
$DIMLWE
 70
    -2
  9
$DIMTMOVE
 70
     0
  9
$DIMFXL
 40
1.0
  9
$DIMFXLON
 70
     0
  9
$DIMJOGANG
 40
0.7853981633974483
  9
$DIMTFILL
 70
     0
  9
$DIMTFILLCLR
 70
     0
  9
$DIMARCSYM
 70
     0
  9
$DIMLTYPE
  6

  9
$DIMLTEX1
  6

  9
$DIMLTEX2
  6

  9
$DIMTXTDIRECTION
 70
     0
  9
$LUNITS
 70
     2
  9
$LUPREC
 70
     4
  9
$SKETCHINC
 40
0.1
  9
$FILLETRAD
 40
0.5
  9
$AUNITS
 70
     0
  9
$AUPREC
 70
     0
  9
$MENU
  1
.
  9
$ELEVATION
 40
0.0
  9
$PELEVATION
 40
0.0
  9
$THICKNESS
 40
0.0
  9
$LIMCHECK
 70
     0
  9
$CHAMFERA
 40
0.5
  9
$CHAMFERB
 40
0.5
  9
$CHAMFERC
 40
1.0
  9
$CHAMFERD
 40
0.0
  9
$SKPOLY
 70
     0
  9
$TDCREATE
 40
2457917.646342593
  9
$TDUCREATE
 40
2457917.271342593
  9
$TDUPDATE
 40
2457917.646342593
  9
$TDUUPDATE
 40
2457917.271342593
  9
$TDINDWG
 40
0.0000000116
  9
$TDUSRTIMER
 40
0.0000000116
  9
$USRTIMER
 70
     1
  9
$ANGBASE
 50
0.0
  9
$ANGDIR
 70
     0
  9
$PDMODE
 70
     0
  9
$PDSIZE
 40
0.0
  9
$PLINEWID
 40
0.0
  9
$SPLFRAME
 70
     0
  9
$SPLINETYPE
 70
     6
  9
$SPLINESEGS
 70
     8
  9
$HANDSEED
  5
195
  9
$SURFTAB1
 70
     6
  9
$SURFTAB2
 70
     6
  9
$SURFTYPE
 70
     6
  9
$SURFU
 70
     6
  9
$SURFV
 70
     6
  9
$UCSBASE
  2

  9
$UCSNAME
  2

  9
$UCSORG
 10
0.0
 20
0.0
 30
0.0
  9
$UCSXDIR
 10
1.0
 20
0.0
 30
0.0
  9
$UCSYDIR
 10
0.0
 20
1.0
 30
0.0
  9
$UCSORTHOREF
  2

  9
$UCSORTHOVIEW
 70
     0
  9
$UCSORGTOP
 10
0.0
 20
0.0
 30
0.0
  9
$UCSORGBOTTOM
 10
0.0
 20
0.0
 30
0.0
  9
$UCSORGLEFT
 10
0.0
 20
0.0
 30
0.0
  9
$UCSORGRIGHT
 10
0.0
 20
0.0
 30
0.0
  9
$UCSORGFRONT
 10
0.0
 20
0.0
 30
0.0
  9
$UCSORGBACK
 10
0.0
 20
0.0
 30
0.0
  9
$PUCSBASE
  2

  9
$PUCSNAME
  2

  9
$PUCSORG
 10
0.0
 20
0.0
 30
0.0
  9
$PUCSXDIR
 10
1.0
 20
0.0
 30
0.0
  9
$PUCSYDIR
 10
0.0
 20
1.0
 30
0.0
  9
$PUCSORTHOREF
  2

  9
$PUCSORTHOVIEW
 70
     0
  9
$PUCSORGTOP
 10
0.0
 20
0.0
 30
0.0
  9
$PUCSORGBOTTOM
 10
0.0
 20
0.0
 30
0.0
  9
$PUCSORGLEFT
 10
0.0
 20
0.0
 30
0.0
  9
$PUCSORGRIGHT
 10
0.0
 20
0.0
 30
0.0
  9
$PUCSORGFRONT
 10
0.0
 20
0.0
 30
0.0
  9
$PUCSORGBACK
 10
0.0
 20
0.0
 30
0.0
  9
$USERI1
 70
     0
  9
$USERI2
 70
     0
  9
$USERI3
 70
     0
  9
$USERI4
 70
     0
  9
$USERI5
 70
     0
  9
$USERR1
 40
0.0
  9
$USERR2
 40
0.0
  9
$USERR3
 40
0.0
  9
$USERR4
 40
0.0
  9
$USERR5
 40
0.0
  9
$WORLDVIEW
 70
     1
  9
$SHADEDGE
 70
     3
  9
$SHADEDIF
 70
    70
  9
$TILEMODE
 70
     1
  9
$MAXACTVP
 70
    64
  9
$PINSBASE
 10
0.0
 20
0.0
 30
0.0
  9
$PLIMCHECK
 70
     0
  9
$PEXTMIN
 10
1.000000000000000E+20
 20
1.000000000000000E+20
 30
1.000000000000000E+20
  9
$PEXTMAX
 10
-1.000000000000000E+20
 20
-1.000000000000000E+20
 30
-1.000000000000000E+20
  9
$PLIMMIN
 10
0.0
 20
0.0
  9
$PLIMMAX
 10
12.0
 20
9.0
  9
$UNITMODE
 70
     0
  9
$VISRETAIN
 70
     1
  9
$PLINEGEN
 70
     0
  9
$PSLTSCALE
 70
     1
  9
$TREEDEPTH
 70
  3020
  9
$CMLSTYLE
  2
Standard
  9
$CMLJUST
 70
     0
  9
$CMLSCALE
 40
1.0
  9
$PROXYGRAPHICS
 70
     1
  9
$MEASUREMENT
 70
     0
  9
$CELWEIGHT
370
    -1
  9
$ENDCAPS
280
     0
  9
$JOINSTYLE
280
     0
  9
$LWDISPLAY
290
     1
  9
$INSUNITS
 70
     1
  9
$HYPERLINKBASE
  1

  9
$STYLESHEET
  1

  9
$XEDIT
290
     1
  9
$CEPSNTYPE
380
     0
  9
$PSTYLEMODE
290
     1
  9
$FINGERPRINTGUID
  2
{12D53582-1341-F01C-4C3F-CD89BFAB5BEB}
  9
$VERSIONGUID
  2
{FAEB1C32-E019-11D5-929B-00C0DF256EC4}
  9
$EXTNAMES
290
     1
  9
$PSVPSCALE
 40
0.0
  9
$OLESTARTUP
290
     0
  9
$SORTENTS
280
   127
  9
$INDEXCTL
280
     0
  9
$HIDETEXT
280
     1
  9
$XCLIPFRAME
280
     2
  9
$HALOGAP
280
     0
  9
$OBSCOLOR
 70
   257
  9
$OBSLTYPE
280
     0
  9
$INTERSECTIONDISPLAY
280
     0
  9
$INTERSECTIONCOLOR
 70
   257
  9
$DIMASSOC
280
     2
  9
$PROJECTNAME
  1

  9
$CAMERADISPLAY
290
     0
  9
$LENSLENGTH
 40
50.0
  9
$CAMERAHEIGHT
 40
0.0
  9
$STEPSPERSEC
 40
2.0
  9
$STEPSIZE
 40
6.0
  9
$3DDWFPREC
 40
2.0
  9
$PSOLWIDTH
 40
0.25
  9
$PSOLHEIGHT
 40
4.0
  9
$LOFTANG1
 40
1.570796326794897
  9
$LOFTANG2
 40
1.570796326794897
  9
$LOFTMAG1
 40
0.0
  9
$LOFTMAG2
 40
0.0
  9
$LOFTPARAM
 70
     7
  9
$LOFTNORMALS
280
     1
  9
$LATITUDE
 40
37.795
  9
$LONGITUDE
 40
-122.394
  9
$NORTHDIRECTION
 40
0.0
  9
$TIMEZONE
 70
 -8000
  9
$LIGHTGLYPHDISPLAY
280
     1
  9
$TILEMODELIGHTSYNCH
280
     1
  9
$CMATERIAL
347
3C
  9
$SOLIDHIST
280
     1
  9
$SHOWHIST
280
     1
  9
$DWFFRAME
280
     2
  9
$DGNFRAME
280
     2
  9
$REALWORLDSCALE
290
     1
  9
$INTERFERECOLOR
 62
   256
  9
$CSHADOW
280
     0
  9
$SHADOWPLANELOCATION
 40
0.0
  0
ENDSEC
  0
SECTION
  2
CLASSES
  0
CLASS
  1
ACDBDICTIONARYWDFLT
  2
AcDbDictionaryWithDefault
  3
ObjectDBX Classes
 90
        0
 91
        4
280
     0
281
     0
  0
CLASS
  1
VISUALSTYLE
  2
AcDbVisualStyle
  3
ObjectDBX Classes
 90
     4095
 91
        4
280
     0
281
     0
  0
CLASS
  1
MATERIAL
  2
AcDbMaterial
  3
ObjectDBX Classes
 90
     1153
 91
        4
280
     0
281
     0
  0
CLASS
  1
SUN
  2
AcDbSun
  3
SCENEOE
 90
     1024
 91
        4
280
     0
281
     0
  0
ENDSEC
  0
SECTION
  2
TABLES
  0
TABLE
  2
VPORT
  5
8
330
0
100
AcDbSymbolTable
 70
     1
  0
VPORT
  5
29
330
8
100
AcDbSymbolTableRecord
100
AcDbViewportTableRecord
  2
*Active
 70
     0
 10
0.0
 20
0.0
 11
1.0
 21
1.0
 12
0.0
 22
0.0
 13
0.0
 23
0.0
 14
0.5
 24
0.5
 15
0.5
 25
0.5
 16
0.0
 26
0.0
 36
1.0
 17
91.00082462281999
 27
-128.4993055234307
 37
0.0
 40
256.9986110468615
 41
0.7081814508812795
 42
50.0
 43
0.0
 44
0.0
 50
0.0
 51
0.0
 71
     0
 72
   100
 73
     1
 74
     3
 75
     0
 76
     0
 77
     0
 78
     0
281
     0
 65
     1
110
0.0
120
0.0
130
0.0
111
1.0
121
0.0
131
0.0
112
0.0
122
1.0
132
0.0
 79
     0
146
0.0
 60
     3
 61
     5
292
     1
282
     1
141
0.0
142
0.0
 63
   250
361
3F
  0
ENDTAB
  0
TABLE
  2
LTYPE
  5
5
330
0
100
AcDbSymbolTable
 70
     1
  0
LTYPE
  5
14
330
5
100
AcDbSymbolTableRecord
100
AcDbLinetypeTableRecord
  2
ByBlock
 70
     0
  3

 72
    65
 73
     0
 40
0.0
  0
LTYPE
  5
15
330
5
100
AcDbSymbolTableRecord
100
AcDbLinetypeTableRecord
  2
ByLayer
 70
     0
  3

 72
    65
 73
     0
 40
0.0
  0
LTYPE
  5
16
330
5
100
AcDbSymbolTableRecord
100
AcDbLinetypeTableRecord
  2
Continuous
 70
     0
  3
Solid line
 72
    65
 73
     0
 40
0.0
  0
ENDTAB
  0
TABLE
  2
LAYER
  5
2
330
0
100
AcDbSymbolTable
 70
     2
  0
LAYER
  5
10
330
2
100
AcDbSymbolTableRecord
100
AcDbLayerTableRecord
  2
0
 70
     0
 62
     7
  6
Continuous
370
    -3
390
F
347
3E
  0
LAYER
  5
40
330
2
100
AcDbSymbolTableRecord
100
AcDbLayerTableRecord
  2
_U+30EC_U+30A4_U+30E4_U+30FC 1
 70
     0
 62
     7
  6
Continuous
370
    -3
390
F
347
3E
  0
ENDTAB
  0
TABLE
  2
STYLE
  5
3
330
0
100
AcDbSymbolTable
 70
     1
  0
STYLE
  5
11
330
3
100
AcDbSymbolTableRecord
100
AcDbTextStyleTableRecord
  2
Standard
 70
     0
 40
0.0
 41
1.0
 50
0.0
 71
     0
 42
0.2
  3
txt
  4

  0
ENDTAB
  0
TABLE
  2
VIEW
  5
6
330
0
100
AcDbSymbolTable
 70
     0
  0
ENDTAB
  0
TABLE
  2
UCS
  5
7
330
0
100
AcDbSymbolTable
 70
     0
  0
ENDTAB
  0
TABLE
  2
APPID
  5
9
330
0
100
AcDbSymbolTable
 70
     1
  0
APPID
  5
12
330
9
100
AcDbSymbolTableRecord
100
AcDbRegAppTableRecord
  2
ACAD
 70
     0
  0
ENDTAB
  0
TABLE
  2
DIMSTYLE
  5
A
330
0
100
AcDbSymbolTable
 70
     1
100
AcDbDimStyleTable
  0
DIMSTYLE
105
27
330
A
100
AcDbSymbolTableRecord
100
AcDbDimStyleTableRecord
  2
Standard
 70
     0
178
     0
340
11
  0
ENDTAB
  0
TABLE
  2
BLOCK_RECORD
  5
1
330
0
100
AcDbSymbolTable
 70
    20
  0
BLOCK_RECORD
  5
1F
330
1
100
AcDbSymbolTableRecord
100
AcDbBlockTableRecord
  2
*Model_Space
340
22
 70
     0
280
     1
281
     0
  0
BLOCK_RECORD
  5
1B
330
1
100
AcDbSymbolTableRecord
100
AcDbBlockTableRecord
  2
*Paper_Space
340
1E
 70
     0
280
     1
281
     0
  0
BLOCK_RECORD
  5
23
330
1
100
AcDbSymbolTableRecord
100
AcDbBlockTableRecord
  2
*Paper_Space0
340
26
 70
     0
280
     1
281
     0
  0
BLOCK_RECORD
  5
9D
330
1
100
AcDbSymbolTableRecord
100
AcDbBlockTableRecord
  2
block 2
340
0
102
{BLKREFS
331
9E
102
}
 70
     0
280
     1
281
     0
  0
BLOCK_RECORD
  5
C0
330
1
100
AcDbSymbolTableRecord
100
AcDbBlockTableRecord
  2
block 3
340
0
102
{BLKREFS
331
C1
102
}
 70
     0
280
     1
281
     0
  0
BLOCK_RECORD
  5
D1
330
1
100
AcDbSymbolTableRecord
100
AcDbBlockTableRecord
  2
block 4
340
0
102
{BLKREFS
331
D2
102
}
 70
     0
280
     1
281
     0
  0
BLOCK_RECORD
  5
D7
330
1
100
AcDbSymbolTableRecord
100
AcDbBlockTableRecord
  2
block 5
340
0
102
{BLKREFS
331
D8
102
}
 70
     0
280
     1
281
     0
  0
BLOCK_RECORD
  5
DC
330
1
100
AcDbSymbolTableRecord
100
AcDbBlockTableRecord
  2
block 6
340
0
102
{BLKREFS
331
DD
102
}
 70
     0
280
     1
281
     0
  0
BLOCK_RECORD
  5
E1
330
1
100
AcDbSymbolTableRecord
100
AcDbBlockTableRecord
  2
block 7
340
0
102
{BLKREFS
331
E2
102
}
 70
     0
280
     1
281
     0
  0
BLOCK_RECORD
  5
F2
330
1
100
AcDbSymbolTableRecord
100
AcDbBlockTableRecord
  2
block 8
340
0
102
{BLKREFS
331
F3
102
}
 70
     0
280
     1
281
     0
  0
BLOCK_RECORD
  5
F8
330
1
100
AcDbSymbolTableRecord
100
AcDbBlockTableRecord
  2
block 9
340
0
102
{BLKREFS
331
F9
102
}
 70
     0
280
     1
281
     0
  0
BLOCK_RECORD
  5
FD
330
1
100
AcDbSymbolTableRecord
100
AcDbBlockTableRecord
  2
block 10
340
0
102
{BLKREFS
331
FE
102
}
 70
     0
280
     1
281
     0
  0
BLOCK_RECORD
  5
102
330
1
100
AcDbSymbolTableRecord
100
AcDbBlockTableRecord
  2
block 11
340
0
102
{BLKREFS
331
103
102
}
 70
     0
280
     1
281
     0
  0
BLOCK_RECORD
  5
113
330
1
100
AcDbSymbolTableRecord
100
AcDbBlockTableRecord
  2
block 12
340
0
102
{BLKREFS
331
114
102
}
 70
     0
280
     1
281
     0
  0
BLOCK_RECORD
  5
11B
330
1
100
AcDbSymbolTableRecord
100
AcDbBlockTableRecord
  2
block 13
340
0
102
{BLKREFS
331
11C
102
}
 70
     0
280
     1
281
     0
  0
BLOCK_RECORD
  5
120
330
1
100
AcDbSymbolTableRecord
100
AcDbBlockTableRecord
  2
block 14
340
0
102
{BLKREFS
331
121
102
}
 70
     0
280
     1
281
     0
  0
BLOCK_RECORD
  5
125
330
1
100
AcDbSymbolTableRecord
100
AcDbBlockTableRecord
  2
block 15
340
0
102
{BLKREFS
331
126
102
}
 70
     0
280
     1
281
     0
  0
BLOCK_RECORD
  5
136
330
1
100
AcDbSymbolTableRecord
100
AcDbBlockTableRecord
  2
block 16
340
0
102
{BLKREFS
331
137
102
}
 70
     0
280
     1
281
     0
  0
BLOCK_RECORD
  5
151
330
1
100
AcDbSymbolTableRecord
100
AcDbBlockTableRecord
  2
block 17
340
0
102
{BLKREFS
331
152
102
}
 70
     0
280
     1
281
     0
  0
BLOCK_RECORD
  5
156
330
1
100
AcDbSymbolTableRecord
100
AcDbBlockTableRecord
  2
block 18
340
0
102
{BLKREFS
331
157
102
}
 70
     0
280
     1
281
     0
  0
BLOCK_RECORD
  5
170
330
1
100
AcDbSymbolTableRecord
100
AcDbBlockTableRecord
  2
block 19
340
0
102
{BLKREFS
331
171
102
}
 70
     0
280
     1
281
     0
  0
BLOCK_RECORD
  5
175
330
1
100
AcDbSymbolTableRecord
100
AcDbBlockTableRecord
  2
block 20
340
0
102
{BLKREFS
331
176
102
}
 70
     0
280
     1
281
     0
  0
ENDTAB
  0
ENDSEC
  0
SECTION
  2
BLOCKS
  0
BLOCK
  5
20
330
1F
100
AcDbEntity
  8
0
100
AcDbBlockBegin
  2
*Model_Space
 70
     0
 10
0.0
 20
0.0
 30
0.0
  3
*Model_Space
  1

  0
ENDBLK
  5
21
330
1F
100
AcDbEntity
  8
0
100
AcDbBlockEnd
  0
BLOCK
  5
1C
330
1B
100
AcDbEntity
 67
     1
  8
0
100
AcDbBlockBegin
  2
*Paper_Space
 70
     0
 10
0.0
 20
0.0
 30
0.0
  3
*Paper_Space
  1

  0
ENDBLK
  5
1D
330
1B
100
AcDbEntity
 67
     1
  8
0
100
AcDbBlockEnd
  0
BLOCK
  5
24
330
23
100
AcDbEntity
  8
0
100
AcDbBlockBegin
  2
*Paper_Space0
 70
     0
 10
0.0
 20
0.0
 30
0.0
  3
*Paper_Space0
  1

  0
ENDBLK
  5
25
330
23
100
AcDbEntity
  8
0
100
AcDbBlockEnd
  0
BLOCK
  5
9F
330
9D
100
AcDbEntity
  8
0
100
AcDbBlockBegin
  2
block 2
 70
     0
 10
0.0
 20
0.0
 30
0.0
  3
block 2
  1

  0
SPLINE
  5
A1
330
9D
100
AcDbEntity
  8
_U+30EC_U+30A4_U+30E4_U+30FC 1
370
     0
100
AcDbSpline
210
0.0
220
0.0
230
1.0
 70
    11
 71
     3
 72
    26
 73
    22
 74
     0
 42
0.0000000001
 43
0.0000000001
 12
1.0
 22
0.0
 32
0.0
 13
1.0
 23
0.0
 33
0.0
 40
0.0
 40
0.0
 40
0.0
 40
0.0
 40
1.0
 40
1.0
 40
1.0
 40
2.0
 40
2.0
 40
2.0
 40
3.0
 40
3.0
 40
3.0
 40
4.0
 40
4.0
 40
4.0
 40
5.0
 40
5.0
 40
5.0
 40
6.0
 40
6.0
 40
6.0
 40
7.0
 40
7.0
 40
7.0
 40
7.0
 10
84.69061005912249
 20
-114.455546032584
 30
0.0
 10
84.69061005912249
 20
-114.455546032584
 30
0.0
 10
84.69061005912249
 20
-113.3512206747872
 30
0.0
 10
84.69061005912249
 20
-113.3512206747872
 30
0.0
 10
84.69061005912249
 20
-113.3512206747872
 30
0.0
 10
84.36056991163555
 20
-113.3512206747872
 30
0.0
 10
84.36056991163555
 20
-113.3512206747872
 30
0.0
 10
84.36056991163555
 20
-113.3512206747872
 30
0.0
 10
84.36056991163555
 20
-113.2030815689215
 30
0.0
 10
84.36056991163555
 20
-113.2030815689215
 30
0.0
 10
84.69267711641363
 20
-113.1884399131091
 30
0.0
 10
84.73918590546451
 20
-113.0254868966568
 30
0.0
 10
84.76881372663766
 20
-112.9112819813208
 30
0.0
 10
84.76881372663766
 20
-112.9112819813208
 30
0.0
 10
84.91488577521226
 20
-112.9112819813208
 30
0.0
 10
84.91488577521226
 20
-112.9112819813208
 30
0.0
 10
84.91488577521226
 20
-112.9112819813208
 30
0.0
 10
84.91488577521226
 20
-114.455546032584
 30
0.0
 10
84.91488577521226
 20
-114.455546032584
 30
0.0
 10
84.91488577521226
 20
-114.455546032584
 30
0.0
 10
84.69061005912249
 20
-114.455546032584
 30
0.0
 10
84.69061005912249
 20
-114.455546032584
 30
0.0
  0
HATCH
  5
A2
330
9D
100
AcDbEntity
  8
_U+30EC_U+30A4_U+30E4_U+30FC 1
 62
   179
420
  2234388
100
AcDbHatch
 10
0.0
 20
0.0
 30
0.0
210
0.0
220
0.0
230
1.0
  2
SOLID
 70
     1
 71
     0
 91
        1
 92
        1
 93
        1
 72
     4
 94
        3
 73
     0
 74
     1
 95
       26
 96
       22
 40
0.0
 40
0.0
 40
0.0
 40
0.0
 40
1.0
 40
1.0
 40
1.0
 40
2.0
 40
2.0
 40
2.0
 40
3.0
 40
3.0
 40
3.0
 40
4.0
 40
4.0
 40
4.0
 40
5.0
 40
5.0
 40
5.0
 40
6.0
 40
6.0
 40
6.0
 40
7.0
 40
7.0
 40
7.0
 40
7.0
 10
84.69061005912249
 20
-114.455546032584
 10
84.69061005912249
 20
-114.455546032584
 10
84.69061005912249
 20
-113.3512206747872
 10
84.69061005912249
 20
-113.3512206747872
 10
84.69061005912249
 20
-113.3512206747872
 10
84.36056991163555
 20
-113.3512206747872
 10
84.36056991163555
 20
-113.3512206747872
 10
84.36056991163555
 20
-113.3512206747872
 10
84.36056991163555
 20
-113.2030815689215
 10
84.36056991163555
 20
-113.2030815689215
 10
84.69267711641363
 20
-113.1884399131091
 10
84.73918590546451
 20
-113.0254868966568
 10
84.76881372663766
 20
-112.9112819813208
 10
84.76881372663766
 20
-112.9112819813208
 10
84.91488577521226
 20
-112.9112819813208
 10
84.91488577521226
 20
-112.9112819813208
 10
84.91488577521226
 20
-112.9112819813208
 10
84.91488577521226
 20
-114.455546032584
 10
84.91488577521226
 20
-114.455546032584
 10
84.91488577521226
 20
-114.455546032584
 10
84.69061005912249
 20
-114.455546032584
 10
84.69061005912249
 20
-114.455546032584
 97
        0
 97
        0
 75
     2
 76
     1
 98
        0
  0
POLYLINE
  5
A3
330
9D
100
AcDbEntity
  8
_U+30EC_U+30A4_U+30E4_U+30FC 1
370
     0
100
AcDb2dPolyline
 66
     1
 10
0.0
 20
0.0
 30
0.0
  0
VERTEX
  5
A4
330
A3
100
AcDbEntity
  8
_U+30EC_U+30A4_U+30E4_U+30FC 1
370
     0
100
AcDbVertex
100
AcDb2dVertex
 10
85.47609182975945
 20
-114.455546032584
 30
0.0
  0
VERTEX
  5
A5
330
A3
100
AcDbEntity
  8
_U+30EC_U+30A4_U+30E4_U+30FC 1
370
     0
100
AcDbVertex
100
AcDb2dVertex
 10
85.47609182975945
 20
-114.2038818073865
 30
0.0
  0
VERTEX
  5
A6
330
A3
100
AcDbEntity
  8
_U+30EC_U+30A4_U+30E4_U+30FC 1
370
     0
100
AcDbVertex
100
AcDb2dVertex
 10
85.72775605495696
 20
-114.2038818073865
 30
0.0
  0
VERTEX
  5
A7
330
A3
100
AcDbEntity
  8
_U+30EC_U+30A4_U+30E4_U+30FC 1
370
     0
100
AcDbVertex
100
AcDb2dVertex
 10
85.72775605495696
 20
-114.455546032584
 30
0.0
  0
VERTEX
  5
A8
330
A3
100
AcDbEntity
  8
_U+30EC_U+30A4_U+30E4_U+30FC 1
370
     0
100
AcDbVertex
100
AcDb2dVertex
 10
85.47609182975945
 20
-114.455546032584
 30
0.0
  0
SEQEND
  5
A9
330
A3
100
AcDbEntity
  8
_U+30EC_U+30A4_U+30E4_U+30FC 1
370
     0
  0
HATCH
  5
AA
330
9D
100
AcDbEntity
  8
_U+30EC_U+30A4_U+30E4_U+30FC 1
 62
   179
420
  2234388
100
AcDbHatch
 10
0.0
 20
0.0
 30
0.0
210
0.0
220
0.0
230
1.0
  2
SOLID
 70
     1
 71
     0
 91
        1
 92
        1
 93
        4
 72
     1
 10
85.47609182975945
 20
-114.455546032584
 11
85.47609182975945
 21
-114.2038818073865
 72
     1
 10
85.47609182975945
 20
-114.2038818073865
 11
85.72775605495696
 21
-114.2038818073865
 72
     1
 10
85.72775605495696
 20
-114.2038818073865
 11
85.72775605495696
 21
-114.455546032584
 72
     1
 10
85.72775605495696
 20
-114.455546032584
 11
85.47609182975945
 21
-114.455546032584
 97
        0
 75
     2
 76
     1
 98
        0
  0
POLYLINE
  5
AB
330
9D
100
AcDbEntity
  8
_U+30EC_U+30A4_U+30E4_U+30FC 1
370
     0
100
AcDb2dPolyline
 66
     1
 10
0.0
 20
0.0
 30
0.0
  0
VERTEX
  5
AC
330
AB
100
AcDbEntity
  8
_U+30EC_U+30A4_U+30E4_U+30FC 1
370
     0
100
AcDbVertex
100
AcDb2dVertex
 10
86.79625241970719
 20
-114.1086249172194
 30
0.0
  0
VERTEX
  5
AD
330
AB
100
AcDbEntity
  8
_U+30EC_U+30A4_U+30E4_U+30FC 1
370
     0
100
AcDbVertex
100
AcDb2dVertex
 10
86.79625241970719
 20
-114.455546032584
 30
0.0
  0
VERTEX
  5
AE
330
AB
100
AcDbEntity
  8
_U+30EC_U+30A4_U+30E4_U+30FC 1
370
     0
100
AcDbVertex
100
AcDb2dVertex
 10
86.57835013026514
 20
-114.455546032584
 30
0.0
  0
VERTEX
  5
AF
330
AB
100
AcDbEntity
  8
_U+30EC_U+30A4_U+30E4_U+30FC 1
370
     0
100
AcDbVertex
100
AcDb2dVertex
 10
86.57835013026514
 20
-114.1086249172194
 30
0.0
  0
VERTEX
  5
B0
330
AB
100
AcDbEntity
  8
_U+30EC_U+30A4_U+30E4_U+30FC 1
370
     0
100
AcDbVertex
100
AcDb2dVertex
 10
85.92257620464783
 20
-114.1086249172194
 30
0.0
  0
VERTEX
  5
B1
330
AB
100
AcDbEntity
  8
_U+30EC_U+30A4_U+30E4_U+30FC 1
370
     0
100
AcDbVertex
100
AcDb2dVertex
 10
85.92257620464783
 20
-113.8843492011296
 30
0.0
  0
VERTEX
  5
B2
330
AB
100
AcDbEntity
  8
_U+30EC_U+30A4_U+30E4_U+30FC 1
370
     0
100
AcDbVertex
100
AcDb2dVertex
 10
86.60160452479057
 20
-112.9112819813208
 30
0.0
  0
VERTEX
  5
B3
330
AB
100
AcDbEntity
  8
_U+30EC_U+30A4_U+30E4_U+30FC 1
370
     0
100
AcDbVertex
100
AcDb2dVertex
 10
86.79625241970719
 20
-112.9112819813208
 30
0.0
  0
VERTEX
  5
B4
330
AB
100
AcDbEntity
  8
_U+30EC_U+30A4_U+30E4_U+30FC 1
370
     0
100
AcDbVertex
100
AcDb2dVertex
 10
86.79625241970719
 20
-113.9096706529462
 30
0.0
  0
VERTEX
  5
B5
330
AB
100
AcDbEntity
  8
_U+30EC_U+30A4_U+30E4_U+30FC 1
370
     0
100
AcDbVertex
100
AcDb2dVertex
 10
87.00364716791923
 20
-113.9096706529462
 30
0.0
  0
VERTEX
  5
B6
330
AB
100
AcDbEntity
  8
_U+30EC_U+30A4_U+30E4_U+30FC 1
370
     0
100
AcDbVertex
100
AcDb2dVertex
 10
87.00364716791923
 20
-114.1086249172194
 30
0.0
  0
VERTEX
  5
B7
330
AB
100
AcDbEntity
  8
_U+30EC_U+30A4_U+30E4_U+30FC 1
370
     0
100
AcDbVertex
100
AcDb2dVertex
 10
86.79625241970719
 20
-114.1086249172194
 30
0.0
  0
SEQEND
  5
B8
330
AB
100
AcDbEntity
  8
_U+30EC_U+30A4_U+30E4_U+30FC 1
370
     0
  0
POLYLINE
  5
B9
330
9D
100
AcDbEntity
  8
_U+30EC_U+30A4_U+30E4_U+30FC 1
370
     0
100
AcDb2dPolyline
 66
     1
 10
0.0
 20
0.0
 30
0.0
  0
VERTEX
  5
BA
330
B9
100
AcDbEntity
  8
_U+30EC_U+30A4_U+30E4_U+30FC 1
370
     0
100
AcDbVertex
100
AcDb2dVertex
 10
86.57835013026514
 20
-113.2538967273289
 30
0.0
  0
VERTEX
  5
BB
330
B9
100
AcDbEntity
  8
_U+30EC_U+30A4_U+30E4_U+30FC 1
370
     0
100
AcDbVertex
100
AcDb2dVertex
 10
86.12153046892101
 20
-113.9096706529462
 30
0.0
  0
VERTEX
  5
BC
330
B9
100
AcDbEntity
  8
_U+30EC_U+30A4_U+30E4_U+30FC 1
370
     0
100
AcDbVertex
100
AcDb2dVertex
 10
86.57835013026514
 20
-113.9096706529462
 30
0.0
  0
VERTEX
  5
BD
330
B9
100
AcDbEntity
  8
_U+30EC_U+30A4_U+30E4_U+30FC 1
370
     0
100
AcDbVertex
100
AcDb2dVertex
 10
86.57835013026514
 20
-113.2538967273289
 30
0.0
  0
SEQEND
  5
BE
330
B9
100
AcDbEntity
  8
_U+30EC_U+30A4_U+30E4_U+30FC 1
370
     0
  0
HATCH
  5
BF
330
9D
100
AcDbEntity
  8
_U+30EC_U+30A4_U+30E4_U+30FC 1
 62
   179
420
  2234388
100
AcDbHatch
 10
0.0
 20
0.0
 30
0.0
210
0.0
220
0.0
230
1.0
  2
SOLID
 70
     1
 71
     0
 91
        2
 92
        1
 93
       11
 72
     1
 10
86.79625241970719
 20
-114.1086249172194
 11
86.79625241970719
 21
-114.455546032584
 72
     1
 10
86.79625241970719
 20
-114.455546032584
 11
86.57835013026514
 21
-114.455546032584
 72
     1
 10
86.57835013026514
 20
-114.455546032584
 11
86.57835013026514
 21
-114.1086249172194
 72
     1
 10
86.57835013026514
 20
-114.1086249172194
 11
85.92257620464783
 21
-114.1086249172194
 72
     1
 10
85.92257620464783
 20
-114.1086249172194
 11
85.92257620464783
 21
-113.8843492011296
 72
     1
 10
85.92257620464783
 20
-113.8843492011296
 11
86.60160452479057
 21
-112.9112819813208
 72
     1
 10
86.60160452479057
 20
-112.9112819813208
 11
86.79625241970719
 21
-112.9112819813208
 72
     1
 10
86.79625241970719
 20
-112.9112819813208
 11
86.79625241970719
 21
-113.9096706529462
 72
     1
 10
86.79625241970719
 20
-113.9096706529462
 11
87.00364716791923
 21
-113.9096706529462
 72
     1
 10
87.00364716791923
 20
-113.9096706529462
 11
87.00364716791923
 21
-114.1086249172194
 72
     1
 10
87.00364716791923
 20
-114.1086249172194
 11
86.79625241970719
 21
-114.1086249172194
 97
        0
 92
        1
 93
        3
 72
     1
 10
86.57835013026514
 20
-113.2538967273289
 11
86.12153046892101
 21
-113.9096706529462
 72
     1
 10
86.12153046892101
 20
-113.9096706529462
 11
86.57835013026514
 21
-113.9096706529462
 72
     1
 10
86.57835013026514
 20
-113.9096706529462
 11
86.57835013026514
 21
-113.2538967273289
 97
        0
 75
     2
 76
     1
 98
        0
  0
ENDBLK
  5
A0
330
9D
100
AcDbEntity
  8
0
100
AcDbBlockEnd
  0
BLOCK
  5
C2
330
C0
100
AcDbEntity
  8
0
100
AcDbBlockBegin
  2
block 3
 70
     0
 10
0.0
 20
0.0
 30
0.0
  3
block 3
  1

  0
SPLINE
  5
C4
330
C0
100
AcDbEntity
  8
_U+30EC_U+30A4_U+30E4_U+30FC 1
 62
   179
420
  2234388
370
     9
100
AcDbSpline
210
0.0
220
0.0
230
1.0
 70
    11
 71
     3
 72
    17
 73
    13
 74
     0
 42
0.0000000001
 43
0.0000000001
 12
1.0
 22
0.0
 32
0.0
 13
1.0
 23
0.0
 33
0.0
 40
0.0
 40
0.0
 40
0.0
 40
0.0
 40
1.0
 40
1.0
 40
1.0
 40
2.0
 40
2.0
 40
2.0
 40
3.0
 40
3.0
 40
3.0
 40
4.0
 40
4.0
 40
4.0
 40
4.0
 10
86.22470752244666
 20
-115.452031082248
 30
0.0
 10
86.22470752244666
 20
-115.4618735822456
 30
0.0
 10
86.21677220066812
 20
-115.4697758044658
 30
0.0
 10
86.20713918956154
 20
-115.4697758044658
 30
0.0
 10
86.1975083564739
 20
-115.4697758044658
 30
0.0
 10
86.18957085667641
 20
-115.4618735822456
 30
0.0
 10
86.18957085667641
 20
-115.452031082248
 30
0.0
 10
86.18957085667641
 20
-115.4424002489172
 30
0.0
 10
86.1975083564739
 20
-115.4344627489191
 30
0.0
 10
86.20713918956154
 20
-115.4344627489191
 30
0.0
 10
86.21677220066812
 20
-115.4344627489191
 30
0.0
 10
86.22470752244666
 20
-115.4424002489172
 30
0.0
 10
86.22470752244666
 20
-115.452031082248
 30
0.0
  0
ENDBLK
  5
C3
330
C0
100
AcDbEntity
  8
0
100
AcDbBlockEnd
  0
BLOCK
  5
D3
330
D1
100
AcDbEntity
  8
0
100
AcDbBlockBegin
  2
block 4
 70
     0
 10
0.0
 20
0.0
 30
0.0
  3
block 4
  1

  0
SPLINE
  5
D5
330
D1
100
AcDbEntity
  8
_U+30EC_U+30A4_U+30E4_U+30FC 1
370
     0
100
AcDbSpline
210
0.0
220
0.0
230
1.0
 70
    11
 71
     3
 72
    53
 73
    49
 74
     0
 42
0.0000000001
 43
0.0000000001
 12
1.0
 22
0.0
 32
0.0
 13
1.0
 23
0.0
 33
0.0
 40
0.0
 40
0.0
 40
0.0
 40
0.0
 40
1.0
 40
1.0
 40
1.0
 40
2.0
 40
2.0
 40
2.0
 40
3.0
 40
3.0
 40
3.0
 40
4.0
 40
4.0
 40
4.0
 40
5.0
 40
5.0
 40
5.0
 40
6.0
 40
6.0
 40
6.0
 40
7.0
 40
7.0
 40
7.0
 40
8.0
 40
8.0
 40
8.0
 40
9.0
 40
9.0
 40
9.0
 40
10.0
 40
10.0
 40
10.0
 40
11.0
 40
11.0
 40
11.0
 40
12.0
 40
12.0
 40
12.0
 40
13.0
 40
13.0
 40
13.0
 40
14.0
 40
14.0
 40
14.0
 40
15.0
 40
15.0
 40
15.0
 40
16.0
 40
16.0
 40
16.0
 40
16.0
 10
92.23760848388504
 20
-134.9829752266709
 30
0.0
 10
92.15940481636987
 20
-134.9829752266709
 30
0.0
 10
92.05777449955501
 20
-134.9660942587932
 30
0.0
 10
91.95614418274013
 20
-134.9023599923161
 30
0.0
 10
91.78285587983207
 20
-134.7924614463366
 30
0.0
 10
91.76149628782352
 20
-134.6612033083486
 30
0.0
 10
91.74254826265465
 20
-134.5537163292088
 30
0.0
 10
91.74254826265465
 20
-134.5537163292088
 30
0.0
 10
91.96475692145326
 20
-134.5537163292088
 30
0.0
 10
91.96475692145326
 20
-134.5537163292088
 30
0.0
 10
92.01987844921726
 20
-134.7521538291592
 30
0.0
 10
92.14665796307445
 20
-134.7817816503323
 30
0.0
 10
92.2396755411762
 20
-134.7817816503323
 30
0.0
 10
92.37920190832881
 20
-134.7817816503323
 30
0.0
 10
92.53181963832539
 20
-134.6825629003571
 30
0.0
 10
92.53181963832539
 20
-134.4496744455543
 30
0.0
 10
92.53181963832539
 20
-134.1940483605487
 30
0.0
 10
92.35198565399534
 20
-134.1241129221982
 30
0.0
 10
92.2314073120116
 20
-134.1241129221982
 30
0.0
 10
92.1997124335473
 20
-134.1241129221982
 30
0.0
 10
92.05777449955501
 20
-134.1241129221982
 30
0.0
 10
91.96889103603556
 20
-134.253304002895
 30
0.0
 10
91.96889103603556
 20
-134.253304002895
 30
0.0
 10
91.79353567583634
 20
-134.2340114681776
 30
0.0
 10
91.79353567583634
 20
-134.2340114681776
 30
0.0
 10
91.79353567583634
 20
-134.2340114681776
 30
0.0
 10
91.91411401782008
 20
-133.3878960170003
 30
0.0
 10
91.91411401782008
 20
-133.3878960170003
 30
0.0
 10
91.91411401782008
 20
-133.3878960170003
 30
0.0
 10
92.69236108793802
 20
-133.3878960170003
 30
0.0
 10
92.69236108793802
 20
-133.3878960170003
 30
0.0
 10
92.69236108793802
 20
-133.3878960170003
 30
0.0
 10
92.69236108793802
 20
-133.5825439119169
 30
0.0
 10
92.69236108793802
 20
-133.5825439119169
 30
0.0
 10
92.69236108793802
 20
-133.5825439119169
 30
0.0
 10
92.07672252472388
 20
-133.5825439119169
 30
0.0
 10
92.07672252472388
 20
-133.5825439119169
 30
0.0
 10
92.07672252472388
 20
-133.5825439119169
 30
0.0
 10
92.01126571050413
 20
-134.0056016375055
 30
0.0
 10
92.01126571050413
 20
-134.0056016375055
 30
0.0
 10
92.07258841014158
 20
-133.9714951922016
 30
0.0
 10
92.15527070178757
 20
-133.9315320845727
 30
0.0
 10
92.27343747693165
 20
-133.9315320845727
 30
0.0
 10
92.52734101419456
 20
-133.9315320845727
 30
0.0
 10
92.76436358357975
 20
-134.1175672407762
 30
0.0
 10
92.76436358357975
 20
-134.4307264203854
 30
0.0
 10
92.76436358357975
 20
-134.7480197145769
 30
0.0
 10
92.54008786748999
 20
-134.9829752266709
 30
0.0
 10
92.23760848388504
 20
-134.9829752266709
 30
0.0
  0
HATCH
  5
D6
330
D1
100
AcDbEntity
  8
_U+30EC_U+30A4_U+30E4_U+30FC 1
 62
   179
420
  2234388
100
AcDbHatch
 10
0.0
 20
0.0
 30
0.0
210
0.0
220
0.0
230
1.0
  2
SOLID
 70
     1
 71
     0
 91
        1
 92
        1
 93
        1
 72
     4
 94
        3
 73
     0
 74
     1
 95
       53
 96
       49
 40
0.0
 40
0.0
 40
0.0
 40
0.0
 40
1.0
 40
1.0
 40
1.0
 40
2.0
 40
2.0
 40
2.0
 40
3.0
 40
3.0
 40
3.0
 40
4.0
 40
4.0
 40
4.0
 40
5.0
 40
5.0
 40
5.0
 40
6.0
 40
6.0
 40
6.0
 40
7.0
 40
7.0
 40
7.0
 40
8.0
 40
8.0
 40
8.0
 40
9.0
 40
9.0
 40
9.0
 40
10.0
 40
10.0
 40
10.0
 40
11.0
 40
11.0
 40
11.0
 40
12.0
 40
12.0
 40
12.0
 40
13.0
 40
13.0
 40
13.0
 40
14.0
 40
14.0
 40
14.0
 40
15.0
 40
15.0
 40
15.0
 40
16.0
 40
16.0
 40
16.0
 40
16.0
 10
92.23760848388504
 20
-134.9829752266709
 10
92.15940481636987
 20
-134.9829752266709
 10
92.05777449955501
 20
-134.9660942587932
 10
91.95614418274013
 20
-134.9023599923161
 10
91.78285587983207
 20
-134.7924614463366
 10
91.76149628782352
 20
-134.6612033083486
 10
91.74254826265465
 20
-134.5537163292088
 10
91.74254826265465
 20
-134.5537163292088
 10
91.96475692145326
 20
-134.5537163292088
 10
91.96475692145326
 20
-134.5537163292088
 10
92.01987844921726
 20
-134.7521538291592
 10
92.14665796307445
 20
-134.7817816503323
 10
92.2396755411762
 20
-134.7817816503323
 10
92.37920190832881
 20
-134.7817816503323
 10
92.53181963832539
 20
-134.6825629003571
 10
92.53181963832539
 20
-134.4496744455543
 10
92.53181963832539
 20
-134.1940483605487
 10
92.35198565399534
 20
-134.1241129221982
 10
92.2314073120116
 20
-134.1241129221982
 10
92.1997124335473
 20
-134.1241129221982
 10
92.05777449955501
 20
-134.1241129221982
 10
91.96889103603556
 20
-134.253304002895
 10
91.96889103603556
 20
-134.253304002895
 10
91.79353567583634
 20
-134.2340114681776
 10
91.79353567583634
 20
-134.2340114681776
 10
91.79353567583634
 20
-134.2340114681776
 10
91.91411401782008
 20
-133.3878960170003
 10
91.91411401782008
 20
-133.3878960170003
 10
91.91411401782008
 20
-133.3878960170003
 10
92.69236108793802
 20
-133.3878960170003
 10
92.69236108793802
 20
-133.3878960170003
 10
92.69236108793802
 20
-133.3878960170003
 10
92.69236108793802
 20
-133.5825439119169
 10
92.69236108793802
 20
-133.5825439119169
 10
92.69236108793802
 20
-133.5825439119169
 10
92.07672252472388
 20
-133.5825439119169
 10
92.07672252472388
 20
-133.5825439119169
 10
92.07672252472388
 20
-133.5825439119169
 10
92.01126571050413
 20
-134.0056016375055
 10
92.01126571050413
 20
-134.0056016375055
 10
92.07258841014158
 20
-133.9714951922016
 10
92.15527070178757
 20
-133.9315320845727
 10
92.27343747693165
 20
-133.9315320845727
 10
92.52734101419456
 20
-133.9315320845727
 10
92.76436358357975
 20
-134.1175672407762
 10
92.76436358357975
 20
-134.4307264203854
 10
92.76436358357975
 20
-134.7480197145769
 10
92.54008786748999
 20
-134.9829752266709
 10
92.23760848388504
 20
-134.9829752266709
 97
        0
 97
        0
 75
     2
 76
     1
 98
        0
  0
ENDBLK
  5
D4
330
D1
100
AcDbEntity
  8
0
100
AcDbBlockEnd
  0
BLOCK
  5
D9
330
D7
100
AcDbEntity
  8
0
100
AcDbBlockBegin
  2
block 5
 70
     0
 10
0.0
 20
0.0
 30
0.0
  3
block 5
  1

  0
SPLINE
  5
DB
330
D7
100
AcDbEntity
  8
_U+30EC_U+30A4_U+30E4_U+30FC 1
 62
   179
420
  2234388
370
    25
100
AcDbSpline
210
0.0
220
0.0
230
1.0
 70
    11
 71
     3
 72
    17
 73
    13
 74
     0
 42
0.0000000001
 43
0.0000000001
 12
1.0
 22
0.0
 32
0.0
 13
1.0
 23
0.0
 33
0.0
 40
0.0
 40
0.0
 40
0.0
 40
0.0
 40
1.0
 40
1.0
 40
1.0
 40
2.0
 40
2.0
 40
2.0
 40
3.0
 40
3.0
 40
3.0
 40
4.0
 40
4.0
 40
4.0
 40
4.0
 10
91.02474295554312
 20
-137.4524174656368
 30
0.0
 10
91.02474295554312
 20
-137.4620835767458
 30
0.0
 10
91.0168407335225
 20
-137.4696330211882
 30
0.0
 10
91.00717462265798
 20
-137.4696330211882
 30
0.0
 10
90.99754378957036
 20
-137.4696330211882
 30
0.0
 10
90.98960628977287
 20
-137.4620835767458
 30
0.0
 10
90.98960628977287
 20
-137.4524174656368
 30
0.0
 10
90.98960628977287
 20
-137.4420810767504
 30
0.0
 10
90.99754378957036
 20
-137.4344963545305
 30
0.0
 10
91.00717462265798
 20
-137.4344963545305
 30
0.0
 10
91.0168407335225
 20
-137.4344963545305
 30
0.0
 10
91.02474295554312
 20
-137.4420810767504
 30
0.0
 10
91.02474295554312
 20
-137.4524174656368
 30
0.0
  0
ENDBLK
  5
DA
330
D7
100
AcDbEntity
  8
0
100
AcDbBlockEnd
  0
BLOCK
  5
DE
330
DC
100
AcDbEntity
  8
0
100
AcDbBlockBegin
  2
block 6
 70
     0
 10
0.0
 20
0.0
 30
0.0
  3
block 6
  1

  0
SPLINE
  5
E0
330
DC
100
AcDbEntity
  8
_U+30EC_U+30A4_U+30E4_U+30FC 1
 62
   179
420
  2234388
370
    25
100
AcDbSpline
210
0.0
220
0.0
230
1.0
 70
    11
 71
     3
 72
    17
 73
    13
 74
     0
 42
0.0000000001
 43
0.0000000001
 12
1.0
 22
0.0
 32
0.0
 13
1.0
 23
0.0
 33
0.0
 40
0.0
 40
0.0
 40
0.0
 40
0.0
 40
1.0
 40
1.0
 40
1.0
 40
2.0
 40
2.0
 40
2.0
 40
3.0
 40
3.0
 40
3.0
 40
4.0
 40
4.0
 40
4.0
 40
4.0
 10
93.52470261398605
 20
-137.4524174656368
 30
0.0
 10
93.52470261398605
 20
-137.4620835767458
 30
0.0
 10
93.51711789195734
 20
-137.4696330211882
 30
0.0
 10
93.50678150333215
 20
-137.4696330211882
 30
0.0
 10
93.49715067024452
 20
-137.4696330211882
 30
0.0
 10
93.4895659482158
 20
-137.4620835767458
 30
0.0
 10
93.4895659482158
 20
-137.4524174656368
 30
0.0
 10
93.4895659482158
 20
-137.4420810767504
 30
0.0
 10
93.49715067024452
 20
-137.4344963545305
 30
0.0
 10
93.50678150333215
 20
-137.4344963545305
 30
0.0
 10
93.51711789195734
 20
-137.4344963545305
 30
0.0
 10
93.52470261398605
 20
-137.4420810767504
 30
0.0
 10
93.52470261398605
 20
-137.4524174656368
 30
0.0
  0
ENDBLK
  5
DF
330
DC
100
AcDbEntity
  8
0
100
AcDbBlockEnd
  0
BLOCK
  5
E3
330
E1
100
AcDbEntity
  8
0
100
AcDbBlockBegin
  2
block 7
 70
     0
 10
0.0
 20
0.0
 30
0.0
  3
block 7
  1

  0
SPLINE
  5
E5
330
E1
100
AcDbEntity
  8
_U+30EC_U+30A4_U+30E4_U+30FC 1
 62
   179
420
  2234388
370
     9
100
AcDbSpline
210
0.0
220
0.0
230
1.0
 70
    11
 71
     3
 72
    17
 73
    13
 74
     0
 42
0.0000000001
 43
0.0000000001
 12
1.0
 22
0.0
 32
0.0
 13
1.0
 23
0.0
 33
0.0
 40
0.0
 40
0.0
 40
0.0
 40
0.0
 40
1.0
 40
1.0
 40
1.0
 40
2.0
 40
2.0
 40
2.0
 40
3.0
 40
3.0
 40
3.0
 40
4.0
 40
4.0
 40
4.0
 40
4.0
 10
93.52470261398605
 20
-135.452202743915
 30
0.0
 10
93.52470261398605
 20
-135.4618335772458
 30
0.0
 10
93.51711789195734
 20
-135.4701238550213
 30
0.0
 10
93.50678150333215
 20
-135.4701238550213
 30
0.0
 10
93.49715067024452
 20
-135.4701238550213
 30
0.0
 10
93.4895659482158
 20
-135.4618335772458
 30
0.0
 10
93.4895659482158
 20
-135.452202743915
 30
0.0
 10
93.4895659482158
 20
-135.442536632806
 30
0.0
 10
93.49715067024452
 20
-135.4342816328081
 30
0.0
 10
93.50678150333215
 20
-135.4342816328081
 30
0.0
 10
93.51711789195734
 20
-135.4342816328081
 30
0.0
 10
93.52470261398605
 20
-135.442536632806
 30
0.0
 10
93.52470261398605
 20
-135.452202743915
 30
0.0
  0
ENDBLK
  5
E4
330
E1
100
AcDbEntity
  8
0
100
AcDbBlockEnd
  0
BLOCK
  5
F4
330
F2
100
AcDbEntity
  8
0
100
AcDbBlockBegin
  2
block 8
 70
     0
 10
0.0
 20
0.0
 30
0.0
  3
block 8
  1

  0
SPLINE
  5
F6
330
F2
100
AcDbEntity
  8
_U+30EC_U+30A4_U+30E4_U+30FC 1
370
     0
100
AcDbSpline
210
0.0
220
0.0
230
1.0
 70
    11
 71
     3
 72
    53
 73
    49
 74
     0
 42
0.0000000001
 43
0.0000000001
 12
1.0
 22
0.0
 32
0.0
 13
1.0
 23
0.0
 33
0.0
 40
0.0
 40
0.0
 40
0.0
 40
0.0
 40
1.0
 40
1.0
 40
1.0
 40
2.0
 40
2.0
 40
2.0
 40
3.0
 40
3.0
 40
3.0
 40
4.0
 40
4.0
 40
4.0
 40
5.0
 40
5.0
 40
5.0
 40
6.0
 40
6.0
 40
6.0
 40
7.0
 40
7.0
 40
7.0
 40
8.0
 40
8.0
 40
8.0
 40
9.0
 40
9.0
 40
9.0
 40
10.0
 40
10.0
 40
10.0
 40
11.0
 40
11.0
 40
11.0
 40
12.0
 40
12.0
 40
12.0
 40
13.0
 40
13.0
 40
13.0
 40
14.0
 40
14.0
 40
14.0
 40
15.0
 40
15.0
 40
15.0
 40
16.0
 40
16.0
 40
16.0
 40
16.0
 10
102.3761799874268
 20
-138.8097872916865
 30
0.0
 10
102.3761799874268
 20
-138.8879909592016
 30
0.0
 10
102.3589545100005
 20
-138.9896212760165
 30
0.0
 10
102.2955647530719
 20
-139.0909070832828
 30
0.0
 10
102.1856662070925
 20
-139.2645398957394
 30
0.0
 10
102.0544080691045
 20
-139.285899487748
 30
0.0
 10
101.9465765804161
 20
-139.3045030033683
 30
0.0
 10
101.9465765804161
 20
-139.3045030033683
 30
0.0
 10
101.9465765804161
 20
-139.0826388541182
 30
0.0
 10
101.9465765804161
 20
-139.0826388541182
 30
0.0
 10
102.145358589915
 20
-139.0275173263542
 30
0.0
 10
102.1749864110882
 20
-138.9007378124971
 30
0.0
 10
102.1749864110882
 20
-138.8077202343953
 30
0.0
 10
102.1749864110882
 20
-138.6678493576942
 30
0.0
 10
102.075767661113
 20
-138.5155761372461
 30
0.0
 10
101.8428792063101
 20
-138.5155761372461
 30
0.0
 10
101.5869086117561
 20
-138.5155761372461
 30
0.0
 10
101.517317682954
 20
-138.6954101215761
 30
0.0
 10
101.517317682954
 20
-138.8159884635599
 30
0.0
 10
101.517317682954
 20
-138.8476833420242
 30
0.0
 10
101.517317682954
 20
-138.9896212760165
 30
0.0
 10
101.6461642541024
 20
-139.0785047395359
 30
0.0
 10
101.6461642541024
 20
-139.0785047395359
 30
0.0
 10
101.6272162289335
 20
-139.2538600997352
 30
0.0
 10
101.6272162289335
 20
-139.2538600997352
 30
0.0
 10
101.6272162289335
 20
-139.2538600997352
 30
0.0
 10
100.7811007777561
 20
-139.1332817577514
 30
0.0
 10
100.7811007777561
 20
-139.1332817577514
 30
0.0
 10
100.7811007777561
 20
-139.1332817577514
 30
0.0
 10
100.7811007777561
 20
-138.3550346876335
 30
0.0
 10
100.7811007777561
 20
-138.3550346876335
 30
0.0
 10
100.7811007777561
 20
-138.3550346876335
 30
0.0
 10
100.9757486726727
 20
-138.3550346876335
 30
0.0
 10
100.9757486726727
 20
-138.3550346876335
 30
0.0
 10
100.9757486726727
 20
-138.3550346876335
 30
0.0
 10
100.9757486726727
 20
-138.9703287412991
 30
0.0
 10
100.9757486726727
 20
-138.9703287412991
 30
0.0
 10
100.9757486726727
 20
-138.9703287412991
 30
0.0
 10
101.3988063982614
 20
-139.0357855555188
 30
0.0
 10
101.3988063982614
 20
-139.0357855555188
 30
0.0
 10
101.3646999529574
 20
-138.9744628558814
 30
0.0
 10
101.3247368453285
 20
-138.8921250737839
 30
0.0
 10
101.3247368453285
 20
-138.7739582986399
 30
0.0
 10
101.3247368453285
 20
-138.5197102518284
 30
0.0
 10
101.510772001532
 20
-138.2826876824432
 30
0.0
 10
101.8239311811412
 20
-138.2826876824432
 30
0.0
 10
102.1412244753327
 20
-138.2826876824432
 30
0.0
 10
102.3761799874268
 20
-138.5073079080815
 30
0.0
 10
102.3761799874268
 20
-138.8097872916865
 30
0.0
  0
HATCH
  5
F7
330
F2
100
AcDbEntity
  8
_U+30EC_U+30A4_U+30E4_U+30FC 1
 62
   179
420
  2234388
100
AcDbHatch
 10
0.0
 20
0.0
 30
0.0
210
0.0
220
0.0
230
1.0
  2
SOLID
 70
     1
 71
     0
 91
        1
 92
        1
 93
        1
 72
     4
 94
        3
 73
     0
 74
     1
 95
       53
 96
       49
 40
0.0
 40
0.0
 40
0.0
 40
0.0
 40
1.0
 40
1.0
 40
1.0
 40
2.0
 40
2.0
 40
2.0
 40
3.0
 40
3.0
 40
3.0
 40
4.0
 40
4.0
 40
4.0
 40
5.0
 40
5.0
 40
5.0
 40
6.0
 40
6.0
 40
6.0
 40
7.0
 40
7.0
 40
7.0
 40
8.0
 40
8.0
 40
8.0
 40
9.0
 40
9.0
 40
9.0
 40
10.0
 40
10.0
 40
10.0
 40
11.0
 40
11.0
 40
11.0
 40
12.0
 40
12.0
 40
12.0
 40
13.0
 40
13.0
 40
13.0
 40
14.0
 40
14.0
 40
14.0
 40
15.0
 40
15.0
 40
15.0
 40
16.0
 40
16.0
 40
16.0
 40
16.0
 10
102.3761799874268
 20
-138.8097872916865
 10
102.3761799874268
 20
-138.8879909592016
 10
102.3589545100005
 20
-138.9896212760165
 10
102.2955647530719
 20
-139.0909070832828
 10
102.1856662070925
 20
-139.2645398957394
 10
102.0544080691045
 20
-139.285899487748
 10
101.9465765804161
 20
-139.3045030033683
 10
101.9465765804161
 20
-139.3045030033683
 10
101.9465765804161
 20
-139.0826388541182
 10
101.9465765804161
 20
-139.0826388541182
 10
102.145358589915
 20
-139.0275173263542
 10
102.1749864110882
 20
-138.9007378124971
 10
102.1749864110882
 20
-138.8077202343953
 10
102.1749864110882
 20
-138.6678493576942
 10
102.075767661113
 20
-138.5155761372461
 10
101.8428792063101
 20
-138.5155761372461
 10
101.5869086117561
 20
-138.5155761372461
 10
101.517317682954
 20
-138.6954101215761
 10
101.517317682954
 20
-138.8159884635599
 10
101.517317682954
 20
-138.8476833420242
 10
101.517317682954
 20
-138.9896212760165
 10
101.6461642541024
 20
-139.0785047395359
 10
101.6461642541024
 20
-139.0785047395359
 10
101.6272162289335
 20
-139.2538600997352
 10
101.6272162289335
 20
-139.2538600997352
 10
101.6272162289335
 20
-139.2538600997352
 10
100.7811007777561
 20
-139.1332817577514
 10
100.7811007777561
 20
-139.1332817577514
 10
100.7811007777561
 20
-139.1332817577514
 10
100.7811007777561
 20
-138.3550346876335
 10
100.7811007777561
 20
-138.3550346876335
 10
100.7811007777561
 20
-138.3550346876335
 10
100.9757486726727
 20
-138.3550346876335
 10
100.9757486726727
 20
-138.3550346876335
 10
100.9757486726727
 20
-138.3550346876335
 10
100.9757486726727
 20
-138.9703287412991
 10
100.9757486726727
 20
-138.9703287412991
 10
100.9757486726727
 20
-138.9703287412991
 10
101.3988063982614
 20
-139.0357855555188
 10
101.3988063982614
 20
-139.0357855555188
 10
101.3646999529574
 20
-138.9744628558814
 10
101.3247368453285
 20
-138.8921250737839
 10
101.3247368453285
 20
-138.7739582986399
 10
101.3247368453285
 20
-138.5197102518284
 10
101.510772001532
 20
-138.2826876824432
 10
101.8239311811412
 20
-138.2826876824432
 10
102.1412244753327
 20
-138.2826876824432
 10
102.3761799874268
 20
-138.5073079080815
 10
102.3761799874268
 20
-138.8097872916865
 97
        0
 97
        0
 75
     2
 76
     1
 98
        0
  0
ENDBLK
  5
F5
330
F2
100
AcDbEntity
  8
0
100
AcDbBlockEnd
  0
BLOCK
  5
FA
330
F8
100
AcDbEntity
  8
0
100
AcDbBlockBegin
  2
block 9
 70
     0
 10
0.0
 20
0.0
 30
0.0
  3
block 9
  1

  0
SPLINE
  5
FC
330
F8
100
AcDbEntity
  8
_U+30EC_U+30A4_U+30E4_U+30FC 1
 62
   179
420
  2234388
370
    25
100
AcDbSpline
210
0.0
220
0.0
230
1.0
 70
    11
 71
     3
 72
    17
 73
    13
 74
     0
 42
0.0000000001
 43
0.0000000001
 12
1.0
 22
0.0
 32
0.0
 13
1.0
 23
0.0
 33
0.0
 40
0.0
 40
0.0
 40
0.0
 40
0.0
 40
1.0
 40
1.0
 40
1.0
 40
2.0
 40
2.0
 40
2.0
 40
3.0
 40
3.0
 40
3.0
 40
4.0
 40
4.0
 40
4.0
 40
4.0
 10
98.02466527696022
 20
-137.4524174656368
 30
0.0
 10
98.02466527696022
 20
-137.4620835767458
 30
0.0
 10
98.01711583270838
 20
-137.4696330211882
 30
0.0
 10
98.00744972184387
 20
-137.4696330211882
 30
0.0
 10
97.99711333321869
 20
-137.4696330211882
 30
0.0
 10
97.98952861118997
 20
-137.4620835767458
 30
0.0
 10
97.98952861118997
 20
-137.4524174656368
 30
0.0
 10
97.98952861118997
 20
-137.4420810767504
 30
0.0
 10
97.99711333321869
 20
-137.4344963545305
 30
0.0
 10
98.00744972184387
 20
-137.4344963545305
 30
0.0
 10
98.01711583270838
 20
-137.4344963545305
 30
0.0
 10
98.02466527696022
 20
-137.4420810767504
 30
0.0
 10
98.02466527696022
 20
-137.4524174656368
 30
0.0
  0
ENDBLK
  5
FB
330
F8
100
AcDbEntity
  8
0
100
AcDbBlockEnd
  0
BLOCK
  5
FF
330
FD
100
AcDbEntity
  8
0
100
AcDbBlockBegin
  2
block 10
 70
     0
 10
0.0
 20
0.0
 30
0.0
  3
block 10
  1

  0
SPLINE
  5
101
330
FD
100
AcDbEntity
  8
_U+30EC_U+30A4_U+30E4_U+30FC 1
 62
   179
420
  2234388
370
    25
100
AcDbSpline
210
0.0
220
0.0
230
1.0
 70
    11
 71
     3
 72
    17
 73
    13
 74
     0
 42
0.0000000001
 43
0.0000000001
 12
1.0
 22
0.0
 32
0.0
 13
1.0
 23
0.0
 33
0.0
 40
0.0
 40
0.0
 40
0.0
 40
0.0
 40
1.0
 40
1.0
 40
1.0
 40
2.0
 40
2.0
 40
2.0
 40
3.0
 40
3.0
 40
3.0
 40
4.0
 40
4.0
 40
4.0
 40
4.0
 10
98.02466527696022
 20
-139.9521655205674
 30
0.0
 10
98.02466527696022
 20
-139.9618316316764
 30
0.0
 10
98.01711583270838
 20
-139.9700866316744
 30
0.0
 10
98.00744972184387
 20
-139.9700866316744
 30
0.0
 10
97.99711333321869
 20
-139.9700866316744
 30
0.0
 10
97.98952861118997
 20
-139.9618316316764
 30
0.0
 10
97.98952861118997
 20
-139.9521655205674
 30
0.0
 10
97.98952861118997
 20
-139.9425346872366
 30
0.0
 10
97.99711333321869
 20
-139.9342796872386
 30
0.0
 10
98.00744972184387
 20
-139.9342796872386
 30
0.0
 10
98.01711583270838
 20
-139.9342796872386
 30
0.0
 10
98.02466527696022
 20
-139.9425346872366
 30
0.0
 10
98.02466527696022
 20
-139.9521655205674
 30
0.0
  0
ENDBLK
  5
100
330
FD
100
AcDbEntity
  8
0
100
AcDbBlockEnd
  0
BLOCK
  5
104
330
102
100
AcDbEntity
  8
0
100
AcDbBlockBegin
  2
block 11
 70
     0
 10
0.0
 20
0.0
 30
0.0
  3
block 11
  1

  0
SPLINE
  5
106
330
102
100
AcDbEntity
  8
_U+30EC_U+30A4_U+30E4_U+30FC 1
 62
   179
420
  2234388
370
     9
100
AcDbSpline
210
0.0
220
0.0
230
1.0
 70
    11
 71
     3
 72
    17
 73
    13
 74
     0
 42
0.0000000001
 43
0.0000000001
 12
1.0
 22
0.0
 32
0.0
 13
1.0
 23
0.0
 33
0.0
 40
0.0
 40
0.0
 40
0.0
 40
0.0
 40
1.0
 40
1.0
 40
1.0
 40
2.0
 40
2.0
 40
2.0
 40
3.0
 40
3.0
 40
3.0
 40
4.0
 40
4.0
 40
4.0
 40
4.0
 10
100.0249152259296
 20
-139.9521655205674
 30
0.0
 10
100.0249152259296
 20
-139.9618316316764
 30
0.0
 10
100.0166249483633
 20
-139.9700866316744
 30
0.0
 10
100.0069941152757
 20
-139.9700866316744
 30
0.0
 10
99.99733053055634
 20
-139.9700866316744
 30
0.0
 10
99.98974328238246
 20
-139.9618316316764
 30
0.0
 10
99.98974328238246
 20
-139.9521655205674
 30
0.0
 10
99.98974328238246
 20
-139.9425346872366
 30
0.0
 10
99.99733053055634
 20
-139.9342796872386
 30
0.0
 10
100.0069941152757
 20
-139.9342796872386
 30
0.0
 10
100.0166249483633
 20
-139.9342796872386
 30
0.0
 10
100.0249152259296
 20
-139.9425346872366
 30
0.0
 10
100.0249152259296
 20
-139.9521655205674
 30
0.0
  0
ENDBLK
  5
105
330
102
100
AcDbEntity
  8
0
100
AcDbBlockEnd
  0
BLOCK
  5
115
330
113
100
AcDbEntity
  8
0
100
AcDbBlockBegin
  2
block 12
 70
     0
 10
0.0
 20
0.0
 30
0.0
  3
block 12
  1

  0
SPLINE
  5
117
330
113
100
AcDbEntity
  8
_U+30EC_U+30A4_U+30E4_U+30FC 1
370
     0
100
AcDbSpline
210
0.0
220
0.0
230
1.0
 70
    11
 71
     3
 72
    44
 73
    40
 74
     0
 42
0.0000000001
 43
0.0000000001
 12
1.0
 22
0.0
 32
0.0
 13
1.0
 23
0.0
 33
0.0
 40
0.0
 40
0.0
 40
0.0
 40
0.0
 40
1.0
 40
1.0
 40
1.0
 40
2.0
 40
2.0
 40
2.0
 40
3.0
 40
3.0
 40
3.0
 40
4.0
 40
4.0
 40
4.0
 40
5.0
 40
5.0
 40
5.0
 40
6.0
 40
6.0
 40
6.0
 40
7.0
 40
7.0
 40
7.0
 40
8.0
 40
8.0
 40
8.0
 40
9.0
 40
9.0
 40
9.0
 40
10.0
 40
10.0
 40
10.0
 40
11.0
 40
11.0
 40
11.0
 40
12.0
 40
12.0
 40
12.0
 40
13.0
 40
13.0
 40
13.0
 40
13.0
 10
91.26161293291376
 20
-143.6160400031585
 30
0.0
 10
91.04371064347171
 20
-143.7748589050285
 30
0.0
 10
90.9505208105957
 20
-143.8485839484129
 30
0.0
 10
90.90194496425369
 20
-143.9925889396963
 30
0.0
 10
90.90194496425369
 20
-143.9925889396963
 30
0.0
 10
91.68019203437163
 20
-143.9925889396963
 30
0.0
 10
91.68019203437163
 20
-143.9925889396963
 30
0.0
 10
91.68019203437163
 20
-143.9925889396963
 30
0.0
 10
91.68019203437163
 20
-144.1979166306172
 30
0.0
 10
91.68019203437163
 20
-144.1979166306172
 30
0.0
 10
91.68019203437163
 20
-144.1979166306172
 30
0.0
 10
90.65234779634733
 20
-144.1979166306172
 30
0.0
 10
90.65234779634733
 20
-144.1979166306172
 30
0.0
 10
90.68404267481164
 20
-143.8403157192483
 30
0.0
 10
90.74949948903138
 20
-143.7617675421846
 30
0.0
 10
91.1346611642823
 20
-143.4634222731619
 30
0.0
 10
91.39045950406211
 20
-143.2649847732116
 30
0.0
 10
91.45591631828187
 20
-143.1971163921521
 30
0.0
 10
91.45591631828187
 20
-143.0596570822906
 30
0.0
 10
91.45591631828187
 20
-142.941145797598
 30
0.0
 10
91.38425833218867
 20
-142.80988765961
 30
0.0
 10
91.1875433799809
 20
-142.80988765961
 30
0.0
 10
90.92726641607027
 20
-142.80988765961
 30
0.0
 10
90.91882593213141
 20
-143.0403645475733
 30
0.0
 10
90.91451956277484
 20
-143.1568087749747
 30
0.0
 10
90.91451956277484
 20
-143.1568087749747
 30
0.0
 10
90.69041610145935
 20
-143.1568087749747
 30
0.0
 10
90.69041610145935
 20
-143.1568087749747
 30
0.0
 10
90.6988565853982
 20
-143.0300292611175
 30
0.0
 10
90.70936412662822
 20
-142.9177191482983
 30
0.0
 10
90.7898071062088
 20
-142.7992078636058
 30
0.0
 10
90.89970565218827
 20
-142.6386664139931
 30
0.0
 10
91.08591306316603
 20
-142.6049044782377
 30
0.0
 10
91.20235729056748
 20
-142.6049044782377
 30
0.0
 10
91.47934296758156
 20
-142.6049044782377
 30
0.0
 10
91.6867377157936
 20
-142.78887257715
 30
0.0
 10
91.6867377157936
 20
-143.0617241395818
 30
0.0
 10
91.6867377157936
 20
-143.2901339702539
 30
0.0
 10
91.57029348839215
 20
-143.3896972297776
 30
0.0
 10
91.26161293291376
 20
-143.6160400031585
 30
0.0
  0
HATCH
  5
118
330
113
100
AcDbEntity
  8
_U+30EC_U+30A4_U+30E4_U+30FC 1
 62
   179
420
  2234388
100
AcDbHatch
 10
0.0
 20
0.0
 30
0.0
210
0.0
220
0.0
230
1.0
  2
SOLID
 70
     1
 71
     0
 91
        1
 92
        1
 93
        1
 72
     4
 94
        3
 73
     0
 74
     1
 95
       44
 96
       40
 40
0.0
 40
0.0
 40
0.0
 40
0.0
 40
1.0
 40
1.0
 40
1.0
 40
2.0
 40
2.0
 40
2.0
 40
3.0
 40
3.0
 40
3.0
 40
4.0
 40
4.0
 40
4.0
 40
5.0
 40
5.0
 40
5.0
 40
6.0
 40
6.0
 40
6.0
 40
7.0
 40
7.0
 40
7.0
 40
8.0
 40
8.0
 40
8.0
 40
9.0
 40
9.0
 40
9.0
 40
10.0
 40
10.0
 40
10.0
 40
11.0
 40
11.0
 40
11.0
 40
12.0
 40
12.0
 40
12.0
 40
13.0
 40
13.0
 40
13.0
 40
13.0
 10
91.26161293291376
 20
-143.6160400031585
 10
91.04371064347171
 20
-143.7748589050285
 10
90.9505208105957
 20
-143.8485839484129
 10
90.90194496425369
 20
-143.9925889396963
 10
90.90194496425369
 20
-143.9925889396963
 10
91.68019203437163
 20
-143.9925889396963
 10
91.68019203437163
 20
-143.9925889396963
 10
91.68019203437163
 20
-143.9925889396963
 10
91.68019203437163
 20
-144.1979166306172
 10
91.68019203437163
 20
-144.1979166306172
 10
91.68019203437163
 20
-144.1979166306172
 10
90.65234779634733
 20
-144.1979166306172
 10
90.65234779634733
 20
-144.1979166306172
 10
90.68404267481164
 20
-143.8403157192483
 10
90.74949948903138
 20
-143.7617675421846
 10
91.1346611642823
 20
-143.4634222731619
 10
91.39045950406211
 20
-143.2649847732116
 10
91.45591631828187
 20
-143.1971163921521
 10
91.45591631828187
 20
-143.0596570822906
 10
91.45591631828187
 20
-142.941145797598
 10
91.38425833218867
 20
-142.80988765961
 10
91.1875433799809
 20
-142.80988765961
 10
90.92726641607027
 20
-142.80988765961
 10
90.91882593213141
 20
-143.0403645475733
 10
90.91451956277484
 20
-143.1568087749747
 10
90.91451956277484
 20
-143.1568087749747
 10
90.69041610145935
 20
-143.1568087749747
 10
90.69041610145935
 20
-143.1568087749747
 10
90.6988565853982
 20
-143.0300292611175
 10
90.70936412662822
 20
-142.9177191482983
 10
90.7898071062088
 20
-142.7992078636058
 10
90.89970565218827
 20
-142.6386664139931
 10
91.08591306316603
 20
-142.6049044782377
 10
91.20235729056748
 20
-142.6049044782377
 10
91.47934296758156
 20
-142.6049044782377
 10
91.6867377157936
 20
-142.78887257715
 10
91.6867377157936
 20
-143.0617241395818
 10
91.6867377157936
 20
-143.2901339702539
 10
91.57029348839215
 20
-143.3896972297776
 10
91.26161293291376
 20
-143.6160400031585
 97
        0
 97
        0
 75
     2
 76
     1
 98
        0
  0
SPLINE
  5
119
330
113
100
AcDbEntity
  8
_U+30EC_U+30A4_U+30E4_U+30FC 1
370
     0
100
AcDbSpline
210
0.0
220
0.0
230
1.0
 70
    11
 71
     3
 72
    53
 73
    49
 74
     0
 42
0.0000000001
 43
0.0000000001
 12
1.0
 22
0.0
 32
0.0
 13
1.0
 23
0.0
 33
0.0
 40
0.0
 40
0.0
 40
0.0
 40
0.0
 40
1.0
 40
1.0
 40
1.0
 40
2.0
 40
2.0
 40
2.0
 40
3.0
 40
3.0
 40
3.0
 40
4.0
 40
4.0
 40
4.0
 40
5.0
 40
5.0
 40
5.0
 40
6.0
 40
6.0
 40
6.0
 40
7.0
 40
7.0
 40
7.0
 40
8.0
 40
8.0
 40
8.0
 40
9.0
 40
9.0
 40
9.0
 40
10.0
 40
10.0
 40
10.0
 40
11.0
 40
11.0
 40
11.0
 40
12.0
 40
12.0
 40
12.0
 40
13.0
 40
13.0
 40
13.0
 40
14.0
 40
14.0
 40
14.0
 40
15.0
 40
15.0
 40
15.0
 40
16.0
 40
16.0
 40
16.0
 40
16.0
 10
92.32614743785597
 20
-144.2485595342504
 30
0.0
 10
92.2479437703408
 20
-144.2485595342504
 30
0.0
 10
92.14631345352592
 20
-144.2316785663726
 30
0.0
 10
92.04468313671106
 20
-144.1682888094441
 30
0.0
 10
91.871394833803
 20
-144.058045753916
 30
0.0
 10
91.85003524179444
 20
-143.9271321254766
 30
0.0
 10
91.83108721662556
 20
-143.8189561272397
 30
0.0
 10
91.83108721662556
 20
-143.8189561272397
 30
0.0
 10
92.05329587542418
 20
-143.8189561272397
 30
0.0
 10
92.05329587542418
 20
-143.8189561272397
 30
0.0
 10
92.10841740318818
 20
-144.0180826462872
 30
0.0
 10
92.23519691704537
 20
-144.0477104674603
 30
0.0
 10
92.32821449514712
 20
-144.0477104674603
 30
0.0
 10
92.46774086229973
 20
-144.0477104674603
 30
0.0
 10
92.6203585922963
 20
-143.9481472079366
 30
0.0
 10
92.6203585922963
 20
-143.7156032626822
 30
0.0
 10
92.6203585922963
 20
-143.4592881585796
 30
0.0
 10
92.44052460796627
 20
-143.3896972297776
 30
0.0
 10
92.31994626598252
 20
-143.3896972297776
 30
0.0
 10
92.28825138751822
 20
-143.3896972297776
 30
0.0
 10
92.14631345352592
 20
-143.3896972297776
 30
0.0
 10
92.05742999000648
 20
-143.5185438009259
 30
0.0
 10
92.05742999000648
 20
-143.5185438009259
 30
0.0
 10
91.88207462980726
 20
-143.4995957757571
 30
0.0
 10
91.88207462980726
 20
-143.4995957757571
 30
0.0
 10
91.88207462980726
 20
-143.4995957757571
 30
0.0
 10
92.00265297179101
 20
-142.6534803245797
 30
0.0
 10
92.00265297179101
 20
-142.6534803245797
 30
0.0
 10
92.00265297179101
 20
-142.6534803245797
 30
0.0
 10
92.78090004190895
 20
-142.6534803245797
 30
0.0
 10
92.78090004190895
 20
-142.6534803245797
 30
0.0
 10
92.78090004190895
 20
-142.6534803245797
 30
0.0
 10
92.78090004190895
 20
-142.8481282194963
 30
0.0
 10
92.78090004190895
 20
-142.8481282194963
 30
0.0
 10
92.78090004190895
 20
-142.8481282194963
 30
0.0
 10
92.1652614786948
 20
-142.8481282194963
 30
0.0
 10
92.1652614786948
 20
-142.8481282194963
 30
0.0
 10
92.1652614786948
 20
-142.8481282194963
 30
0.0
 10
92.09980466447506
 20
-143.271185945085
 30
0.0
 10
92.09980466447506
 20
-143.271185945085
 30
0.0
 10
92.1611273641125
 20
-143.2374240093295
 30
0.0
 10
92.2438096557585
 20
-143.1971163921521
 30
0.0
 10
92.36197643090257
 20
-143.1971163921521
 30
0.0
 10
92.61587996816547
 20
-143.1971163921521
 30
0.0
 10
92.85290253755066
 20
-143.3834960579041
 30
0.0
 10
92.85290253755066
 20
-143.6963107279648
 30
0.0
 10
92.85290253755066
 20
-144.0139485317048
 30
0.0
 10
92.6286268214609
 20
-144.2485595342504
 30
0.0
 10
92.32614743785597
 20
-144.2485595342504
 30
0.0
  0
HATCH
  5
11A
330
113
100
AcDbEntity
  8
_U+30EC_U+30A4_U+30E4_U+30FC 1
 62
   179
420
  2234388
100
AcDbHatch
 10
0.0
 20
0.0
 30
0.0
210
0.0
220
0.0
230
1.0
  2
SOLID
 70
     1
 71
     0
 91
        1
 92
        1
 93
        1
 72
     4
 94
        3
 73
     0
 74
     1
 95
       53
 96
       49
 40
0.0
 40
0.0
 40
0.0
 40
0.0
 40
1.0
 40
1.0
 40
1.0
 40
2.0
 40
2.0
 40
2.0
 40
3.0
 40
3.0
 40
3.0
 40
4.0
 40
4.0
 40
4.0
 40
5.0
 40
5.0
 40
5.0
 40
6.0
 40
6.0
 40
6.0
 40
7.0
 40
7.0
 40
7.0
 40
8.0
 40
8.0
 40
8.0
 40
9.0
 40
9.0
 40
9.0
 40
10.0
 40
10.0
 40
10.0
 40
11.0
 40
11.0
 40
11.0
 40
12.0
 40
12.0
 40
12.0
 40
13.0
 40
13.0
 40
13.0
 40
14.0
 40
14.0
 40
14.0
 40
15.0
 40
15.0
 40
15.0
 40
16.0
 40
16.0
 40
16.0
 40
16.0
 10
92.32614743785597
 20
-144.2485595342504
 10
92.2479437703408
 20
-144.2485595342504
 10
92.14631345352592
 20
-144.2316785663726
 10
92.04468313671106
 20
-144.1682888094441
 10
91.871394833803
 20
-144.058045753916
 10
91.85003524179444
 20
-143.9271321254766
 10
91.83108721662556
 20
-143.8189561272397
 10
91.83108721662556
 20
-143.8189561272397
 10
92.05329587542418
 20
-143.8189561272397
 10
92.05329587542418
 20
-143.8189561272397
 10
92.10841740318818
 20
-144.0180826462872
 10
92.23519691704537
 20
-144.0477104674603
 10
92.32821449514712
 20
-144.0477104674603
 10
92.46774086229973
 20
-144.0477104674603
 10
92.6203585922963
 20
-143.9481472079366
 10
92.6203585922963
 20
-143.7156032626822
 10
92.6203585922963
 20
-143.4592881585796
 10
92.44052460796627
 20
-143.3896972297776
 10
92.31994626598252
 20
-143.3896972297776
 10
92.28825138751822
 20
-143.3896972297776
 10
92.14631345352592
 20
-143.3896972297776
 10
92.05742999000648
 20
-143.5185438009259
 10
92.05742999000648
 20
-143.5185438009259
 10
91.88207462980726
 20
-143.4995957757571
 10
91.88207462980726
 20
-143.4995957757571
 10
91.88207462980726
 20
-143.4995957757571
 10
92.00265297179101
 20
-142.6534803245797
 10
92.00265297179101
 20
-142.6534803245797
 10
92.00265297179101
 20
-142.6534803245797
 10
92.78090004190895
 20
-142.6534803245797
 10
92.78090004190895
 20
-142.6534803245797
 10
92.78090004190895
 20
-142.6534803245797
 10
92.78090004190895
 20
-142.8481282194963
 10
92.78090004190895
 20
-142.8481282194963
 10
92.78090004190895
 20
-142.8481282194963
 10
92.1652614786948
 20
-142.8481282194963
 10
92.1652614786948
 20
-142.8481282194963
 10
92.1652614786948
 20
-142.8481282194963
 10
92.09980466447506
 20
-143.271185945085
 10
92.09980466447506
 20
-143.271185945085
 10
92.1611273641125
 20
-143.2374240093295
 10
92.2438096557585
 20
-143.1971163921521
 10
92.36197643090257
 20
-143.1971163921521
 10
92.61587996816547
 20
-143.1971163921521
 10
92.85290253755066
 20
-143.3834960579041
 10
92.85290253755066
 20
-143.6963107279648
 10
92.85290253755066
 20
-144.0139485317048
 10
92.6286268214609
 20
-144.2485595342504
 10
92.32614743785597
 20
-144.2485595342504
 97
        0
 97
        0
 75
     2
 76
     1
 98
        0
  0
ENDBLK
  5
116
330
113
100
AcDbEntity
  8
0
100
AcDbBlockEnd
  0
BLOCK
  5
11D
330
11B
100
AcDbEntity
  8
0
100
AcDbBlockBegin
  2
block 13
 70
     0
 10
0.0
 20
0.0
 30
0.0
  3
block 13
  1

  0
SPLINE
  5
11F
330
11B
100
AcDbEntity
  8
_U+30EC_U+30A4_U+30E4_U+30FC 1
 62
   179
420
  2234388
370
    25
100
AcDbSpline
210
0.0
220
0.0
230
1.0
 70
    11
 71
     3
 72
    17
 73
    13
 74
     0
 42
0.0000000001
 43
0.0000000001
 12
1.0
 22
0.0
 32
0.0
 13
1.0
 23
0.0
 33
0.0
 40
0.0
 40
0.0
 40
0.0
 40
0.0
 40
1.0
 40
1.0
 40
1.0
 40
2.0
 40
2.0
 40
2.0
 40
3.0
 40
3.0
 40
3.0
 40
4.0
 40
4.0
 40
4.0
 40
4.0
 10
85.52465531808427
 20
-139.9521655205674
 30
0.0
 10
85.52465531808427
 20
-139.9618316316764
 30
0.0
 10
85.51675309606365
 20
-139.9700866316744
 30
0.0
 10
85.50708698519914
 20
-139.9700866316744
 30
0.0
 10
85.49745831195882
 20
-139.9700866316744
 30
0.0
 10
85.489518652314
 20
-139.9618316316764
 30
0.0
 10
85.489518652314
 20
-139.9521655205674
 30
0.0
 10
85.489518652314
 20
-139.9425346872366
 30
0.0
 10
85.49745831195882
 20
-139.9342796872386
 30
0.0
 10
85.50708698519914
 20
-139.9342796872386
 30
0.0
 10
85.51675309606365
 20
-139.9342796872386
 30
0.0
 10
85.52465531808427
 20
-139.9425346872366
 30
0.0
 10
85.52465531808427
 20
-139.9521655205674
 30
0.0
  0
ENDBLK
  5
11E
330
11B
100
AcDbEntity
  8
0
100
AcDbBlockEnd
  0
BLOCK
  5
122
330
120
100
AcDbEntity
  8
0
100
AcDbBlockBegin
  2
block 14
 70
     0
 10
0.0
 20
0.0
 30
0.0
  3
block 14
  1

  0
SPLINE
  5
124
330
120
100
AcDbEntity
  8
_U+30EC_U+30A4_U+30E4_U+30FC 1
 62
   179
420
  2234388
370
    25
100
AcDbSpline
210
0.0
220
0.0
230
1.0
 70
    11
 71
     3
 72
    17
 73
    13
 74
     0
 42
0.0000000001
 43
0.0000000001
 12
1.0
 22
0.0
 32
0.0
 13
1.0
 23
0.0
 33
0.0
 40
0.0
 40
0.0
 40
0.0
 40
0.0
 40
1.0
 40
1.0
 40
1.0
 40
2.0
 40
2.0
 40
2.0
 40
3.0
 40
3.0
 40
3.0
 40
4.0
 40
4.0
 40
4.0
 40
4.0
 10
98.02466527696022
 20
-139.9521655205674
 30
0.0
 10
98.02466527696022
 20
-139.9618316316764
 30
0.0
 10
98.01711583270838
 20
-139.9700866316744
 30
0.0
 10
98.00744972184387
 20
-139.9700866316744
 30
0.0
 10
97.99711333321869
 20
-139.9700866316744
 30
0.0
 10
97.98952861118997
 20
-139.9618316316764
 30
0.0
 10
97.98952861118997
 20
-139.9521655205674
 30
0.0
 10
97.98952861118997
 20
-139.9425346872366
 30
0.0
 10
97.99711333321869
 20
-139.9342796872386
 30
0.0
 10
98.00744972184387
 20
-139.9342796872386
 30
0.0
 10
98.01711583270838
 20
-139.9342796872386
 30
0.0
 10
98.02466527696022
 20
-139.9425346872366
 30
0.0
 10
98.02466527696022
 20
-139.9521655205674
 30
0.0
  0
ENDBLK
  5
123
330
120
100
AcDbEntity
  8
0
100
AcDbBlockEnd
  0
BLOCK
  5
127
330
125
100
AcDbEntity
  8
0
100
AcDbBlockBegin
  2
block 15
 70
     0
 10
0.0
 20
0.0
 30
0.0
  3
block 15
  1

  0
SPLINE
  5
129
330
125
100
AcDbEntity
  8
_U+30EC_U+30A4_U+30E4_U+30FC 1
 62
   179
420
  2234388
370
     9
100
AcDbSpline
210
0.0
220
0.0
230
1.0
 70
    11
 71
     3
 72
    17
 73
    13
 74
     0
 42
0.0000000001
 43
0.0000000001
 12
1.0
 22
0.0
 32
0.0
 13
1.0
 23
0.0
 33
0.0
 40
0.0
 40
0.0
 40
0.0
 40
0.0
 40
1.0
 40
1.0
 40
1.0
 40
2.0
 40
2.0
 40
2.0
 40
3.0
 40
3.0
 40
3.0
 40
4.0
 40
4.0
 40
4.0
 40
4.0
 10
98.02466527696022
 20
-141.9524155200674
 30
0.0
 10
98.02466527696022
 20
-141.9620463533982
 30
0.0
 10
98.01711583270838
 20
-141.9696310756188
 30
0.0
 10
98.00744972184387
 20
-141.9696310756188
 30
0.0
 10
97.99711333321869
 20
-141.9696310756188
 30
0.0
 10
97.98952861118997
 20
-141.9620463533982
 30
0.0
 10
97.98952861118997
 20
-141.9524155200674
 30
0.0
 10
97.98952861118997
 20
-141.942749408959
 30
0.0
 10
97.99711333321869
 20
-141.9344944089611
 30
0.0
 10
98.00744972184387
 20
-141.9344944089611
 30
0.0
 10
98.01711583270838
 20
-141.9344944089611
 30
0.0
 10
98.02466527696022
 20
-141.942749408959
 30
0.0
 10
98.02466527696022
 20
-141.9524155200674
 30
0.0
  0
ENDBLK
  5
128
330
125
100
AcDbEntity
  8
0
100
AcDbBlockEnd
  0
BLOCK
  5
138
330
136
100
AcDbEntity
  8
0
100
AcDbBlockBegin
  2
block 16
 70
     0
 10
0.0
 20
0.0
 30
0.0
  3
block 16
  1

  0
POLYLINE
  5
13A
330
136
100
AcDbEntity
  8
_U+30EC_U+30A4_U+30E4_U+30FC 1
370
     0
100
AcDb2dPolyline
 66
     1
 10
0.0
 20
0.0
 30
0.0
  0
VERTEX
  5
13B
330
13A
100
AcDbEntity
  8
_U+30EC_U+30A4_U+30E4_U+30FC 1
370
     0
100
AcDbVertex
100
AcDb2dVertex
 10
80.72719995811681
 20
-128.9585367516145
 30
0.0
  0
VERTEX
  5
13C
330
13A
100
AcDbEntity
  8
_U+30EC_U+30A4_U+30E4_U+30FC 1
370
     0
100
AcDbVertex
100
AcDb2dVertex
 10
81.07412107348148
 20
-128.9585367516145
 30
0.0
  0
VERTEX
  5
13D
330
13A
100
AcDbEntity
  8
_U+30EC_U+30A4_U+30E4_U+30FC 1
370
     0
100
AcDbVertex
100
AcDb2dVertex
 10
81.07412107348148
 20
-129.1766112958309
 30
0.0
  0
VERTEX
  5
13E
330
13A
100
AcDbEntity
  8
_U+30EC_U+30A4_U+30E4_U+30FC 1
370
     0
100
AcDbVertex
100
AcDb2dVertex
 10
80.72719995811681
 20
-129.1766112958309
 30
0.0
  0
VERTEX
  5
13F
330
13A
100
AcDbEntity
  8
_U+30EC_U+30A4_U+30E4_U+30FC 1
370
     0
100
AcDbVertex
100
AcDb2dVertex
 10
80.72719995811681
 20
-129.8322129666739
 30
0.0
  0
VERTEX
  5
140
330
13A
100
AcDbEntity
  8
_U+30EC_U+30A4_U+30E4_U+30FC 1
370
     0
100
AcDbVertex
100
AcDb2dVertex
 10
80.50292424202705
 20
-129.8322129666739
 30
0.0
  0
VERTEX
  5
141
330
13A
100
AcDbEntity
  8
_U+30EC_U+30A4_U+30E4_U+30FC 1
370
     0
100
AcDbVertex
100
AcDb2dVertex
 10
79.52985702221824
 20
-129.1531846465311
 30
0.0
  0
VERTEX
  5
142
330
13A
100
AcDbEntity
  8
_U+30EC_U+30A4_U+30E4_U+30FC 1
370
     0
100
AcDbVertex
100
AcDb2dVertex
 10
79.52985702221824
 20
-128.9585367516145
 30
0.0
  0
VERTEX
  5
143
330
13A
100
AcDbEntity
  8
_U+30EC_U+30A4_U+30E4_U+30FC 1
370
     0
100
AcDbVertex
100
AcDb2dVertex
 10
80.52824569384363
 20
-128.9585367516145
 30
0.0
  0
VERTEX
  5
144
330
13A
100
AcDbEntity
  8
_U+30EC_U+30A4_U+30E4_U+30FC 1
370
     0
100
AcDbVertex
100
AcDb2dVertex
 10
80.52824569384363
 20
-128.7511420034025
 30
0.0
  0
VERTEX
  5
145
330
13A
100
AcDbEntity
  8
_U+30EC_U+30A4_U+30E4_U+30FC 1
370
     0
100
AcDbVertex
100
AcDb2dVertex
 10
80.72719995811681
 20
-128.7511420034025
 30
0.0
  0
VERTEX
  5
146
330
13A
100
AcDbEntity
  8
_U+30EC_U+30A4_U+30E4_U+30FC 1
370
     0
100
AcDbVertex
100
AcDb2dVertex
 10
80.72719995811681
 20
-128.9585367516145
 30
0.0
  0
SEQEND
  5
147
330
13A
100
AcDbEntity
  8
_U+30EC_U+30A4_U+30E4_U+30FC 1
370
     0
  0
POLYLINE
  5
148
330
136
100
AcDbEntity
  8
_U+30EC_U+30A4_U+30E4_U+30FC 1
370
     0
100
AcDb2dPolyline
 66
     1
 10
0.0
 20
0.0
 30
0.0
  0
VERTEX
  5
149
330
148
100
AcDbEntity
  8
_U+30EC_U+30A4_U+30E4_U+30FC 1
370
     0
100
AcDbVertex
100
AcDb2dVertex
 10
79.87247176822633
 20
-129.1766112958309
 30
0.0
  0
VERTEX
  5
14A
330
148
100
AcDbEntity
  8
_U+30EC_U+30A4_U+30E4_U+30FC 1
370
     0
100
AcDbVertex
100
AcDb2dVertex
 10
80.52824569384363
 20
-129.633430957175
 30
0.0
  0
VERTEX
  5
14B
330
148
100
AcDbEntity
  8
_U+30EC_U+30A4_U+30E4_U+30FC 1
370
     0
100
AcDbVertex
100
AcDb2dVertex
 10
80.52824569384363
 20
-129.1766112958309
 30
0.0
  0
VERTEX
  5
14C
330
148
100
AcDbEntity
  8
_U+30EC_U+30A4_U+30E4_U+30FC 1
370
     0
100
AcDbVertex
100
AcDb2dVertex
 10
79.87247176822633
 20
-129.1766112958309
 30
0.0
  0
SEQEND
  5
14D
330
148
100
AcDbEntity
  8
_U+30EC_U+30A4_U+30E4_U+30FC 1
370
     0
  0
HATCH
  5
14E
330
136
100
AcDbEntity
  8
_U+30EC_U+30A4_U+30E4_U+30FC 1
 62
   179
420
  2234388
100
AcDbHatch
 10
0.0
 20
0.0
 30
0.0
210
0.0
220
0.0
230
1.0
  2
SOLID
 70
     1
 71
     0
 91
        2
 92
        1
 93
       11
 72
     1
 10
80.72719995811681
 20
-128.9585367516145
 11
81.07412107348148
 21
-128.9585367516145
 72
     1
 10
81.07412107348148
 20
-128.9585367516145
 11
81.07412107348148
 21
-129.1766112958309
 72
     1
 10
81.07412107348148
 20
-129.1766112958309
 11
80.72719995811681
 21
-129.1766112958309
 72
     1
 10
80.72719995811681
 20
-129.1766112958309
 11
80.72719995811681
 21
-129.8322129666739
 72
     1
 10
80.72719995811681
 20
-129.8322129666739
 11
80.50292424202705
 21
-129.8322129666739
 72
     1
 10
80.50292424202705
 20
-129.8322129666739
 11
79.52985702221824
 21
-129.1531846465311
 72
     1
 10
79.52985702221824
 20
-129.1531846465311
 11
79.52985702221824
 21
-128.9585367516145
 72
     1
 10
79.52985702221824
 20
-128.9585367516145
 11
80.52824569384363
 21
-128.9585367516145
 72
     1
 10
80.52824569384363
 20
-128.9585367516145
 11
80.52824569384363
 21
-128.7511420034025
 72
     1
 10
80.52824569384363
 20
-128.7511420034025
 11
80.72719995811681
 21
-128.7511420034025
 72
     1
 10
80.72719995811681
 20
-128.7511420034025
 11
80.72719995811681
 21
-128.9585367516145
 97
        0
 92
        1
 93
        3
 72
     1
 10
79.87247176822633
 20
-129.1766112958309
 11
80.52824569384363
 21
-129.633430957175
 72
     1
 10
80.52824569384363
 20
-129.633430957175
 11
80.52824569384363
 21
-129.1766112958309
 72
     1
 10
80.52824569384363
 20
-129.1766112958309
 11
79.87247176822633
 21
-129.1766112958309
 97
        0
 75
     2
 76
     1
 98
        0
  0
SPLINE
  5
14F
330
136
100
AcDbEntity
  8
_U+30EC_U+30A4_U+30E4_U+30FC 1
370
     0
100
AcDbSpline
210
0.0
220
0.0
230
1.0
 70
    11
 71
     3
 72
    53
 73
    49
 74
     0
 42
0.0000000001
 43
0.0000000001
 12
1.0
 22
0.0
 32
0.0
 13
1.0
 23
0.0
 33
0.0
 40
0.0
 40
0.0
 40
0.0
 40
0.0
 40
1.0
 40
1.0
 40
1.0
 40
2.0
 40
2.0
 40
2.0
 40
3.0
 40
3.0
 40
3.0
 40
4.0
 40
4.0
 40
4.0
 40
5.0
 40
5.0
 40
5.0
 40
6.0
 40
6.0
 40
6.0
 40
7.0
 40
7.0
 40
7.0
 40
8.0
 40
8.0
 40
8.0
 40
9.0
 40
9.0
 40
9.0
 40
10.0
 40
10.0
 40
10.0
 40
11.0
 40
11.0
 40
11.0
 40
12.0
 40
12.0
 40
12.0
 40
13.0
 40
13.0
 40
13.0
 40
14.0
 40
14.0
 40
14.0
 40
15.0
 40
15.0
 40
15.0
 40
16.0
 40
16.0
 40
16.0
 40
16.0
 10
81.12493623188891
 20
-128.1327473638001
 30
0.0
 10
81.12493623188891
 20
-128.2111232860896
 30
0.0
 10
81.10805526401118
 20
-128.3125813481302
 30
0.0
 10
81.04449325230833
 20
-128.4142116649451
 30
0.0
 10
80.9344224515546
 20
-128.5876722226274
 30
0.0
 10
80.80333656834084
 20
-128.6088595598617
 30
0.0
 10
80.69550507965252
 20
-128.6278075850306
 30
0.0
 10
80.69550507965252
 20
-128.6278075850306
 30
0.0
 10
80.69550507965252
 20
-128.4057711810062
 30
0.0
 10
80.69550507965252
 20
-128.4057711810062
 30
0.0
 10
80.89428708915143
 20
-128.3506496532422
 30
0.0
 10
80.92391491032458
 20
-128.2236978846107
 30
0.0
 10
80.92391491032458
 20
-128.130680306509
 30
0.0
 10
80.92391491032458
 20
-127.9911539393564
 30
0.0
 10
80.82452390557512
 20
-127.8387084641341
 30
0.0
 10
80.5918077055465
 20
-127.8387084641341
 30
0.0
 10
80.33583711099243
 20
-127.8387084641341
 30
0.0
 10
80.26607392741613
 20
-128.0185424484641
 30
0.0
 10
80.26607392741613
 20
-128.1391207904479
 30
0.0
 10
80.26607392741613
 20
-128.1708156689122
 30
0.0
 10
80.26607392741613
 20
-128.3125813481302
 30
0.0
 10
80.39509275333873
 20
-128.4014648116496
 30
0.0
 10
80.39509275333873
 20
-128.4014648116496
 30
0.0
 10
80.37597247339559
 20
-128.5769924266231
 30
0.0
 10
80.37597247339559
 20
-128.5769924266231
 30
0.0
 10
80.37597247339559
 20
-128.5769924266231
 30
0.0
 10
79.52985702221824
 20
-128.4564140846394
 30
0.0
 10
79.52985702221824
 20
-128.4564140846394
 30
0.0
 10
79.52985702221824
 20
-128.4564140846394
 30
0.0
 10
79.52985702221824
 20
-127.6779947597472
 30
0.0
 10
79.52985702221824
 20
-127.6779947597472
 30
0.0
 10
79.52985702221824
 20
-127.6779947597472
 30
0.0
 10
79.72450491713485
 20
-127.6779947597472
 30
0.0
 10
79.72450491713485
 20
-127.6779947597472
 30
0.0
 10
79.72450491713485
 20
-127.6779947597472
 30
0.0
 10
79.72450491713485
 20
-128.2936333229613
 30
0.0
 10
79.72450491713485
 20
-128.2936333229613
 30
0.0
 10
79.72450491713485
 20
-128.2936333229613
 30
0.0
 10
80.14756264272353
 20
-128.3590901371811
 30
0.0
 10
80.14756264272353
 20
-128.3590901371811
 30
0.0
 10
80.11362845219382
 20
-128.2977674375436
 30
0.0
 10
80.07349308979066
 20
-128.2152574006719
 30
0.0
 10
80.07349308979066
 20
-128.0969183707535
 30
0.0
 10
80.07349308979066
 20
-127.8430148334906
 30
0.0
 10
80.25970050076842
 20
-127.6059922641055
 30
0.0
 10
80.57268742560336
 20
-127.6059922641055
 30
0.0
 10
80.89015297456913
 20
-127.6059922641055
 30
0.0
 10
81.12493623188891
 20
-127.8302679801952
 30
0.0
 10
81.12493623188891
 20
-128.1327473638001
 30
0.0
  0
HATCH
  5
150
330
136
100
AcDbEntity
  8
_U+30EC_U+30A4_U+30E4_U+30FC 1
 62
   179
420
  2234388
100
AcDbHatch
 10
0.0
 20
0.0
 30
0.0
210
0.0
220
0.0
230
1.0
  2
SOLID
 70
     1
 71
     0
 91
        1
 92
        1
 93
        1
 72
     4
 94
        3
 73
     0
 74
     1
 95
       53
 96
       49
 40
0.0
 40
0.0
 40
0.0
 40
0.0
 40
1.0
 40
1.0
 40
1.0
 40
2.0
 40
2.0
 40
2.0
 40
3.0
 40
3.0
 40
3.0
 40
4.0
 40
4.0
 40
4.0
 40
5.0
 40
5.0
 40
5.0
 40
6.0
 40
6.0
 40
6.0
 40
7.0
 40
7.0
 40
7.0
 40
8.0
 40
8.0
 40
8.0
 40
9.0
 40
9.0
 40
9.0
 40
10.0
 40
10.0
 40
10.0
 40
11.0
 40
11.0
 40
11.0
 40
12.0
 40
12.0
 40
12.0
 40
13.0
 40
13.0
 40
13.0
 40
14.0
 40
14.0
 40
14.0
 40
15.0
 40
15.0
 40
15.0
 40
16.0
 40
16.0
 40
16.0
 40
16.0
 10
81.12493623188891
 20
-128.1327473638001
 10
81.12493623188891
 20
-128.2111232860896
 10
81.10805526401118
 20
-128.3125813481302
 10
81.04449325230833
 20
-128.4142116649451
 10
80.9344224515546
 20
-128.5876722226274
 10
80.80333656834084
 20
-128.6088595598617
 10
80.69550507965252
 20
-128.6278075850306
 10
80.69550507965252
 20
-128.6278075850306
 10
80.69550507965252
 20
-128.4057711810062
 10
80.69550507965252
 20
-128.4057711810062
 10
80.89428708915143
 20
-128.3506496532422
 10
80.92391491032458
 20
-128.2236978846107
 10
80.92391491032458
 20
-128.130680306509
 10
80.92391491032458
 20
-127.9911539393564
 10
80.82452390557512
 20
-127.8387084641341
 10
80.5918077055465
 20
-127.8387084641341
 10
80.33583711099243
 20
-127.8387084641341
 10
80.26607392741613
 20
-128.0185424484641
 10
80.26607392741613
 20
-128.1391207904479
 10
80.26607392741613
 20
-128.1708156689122
 10
80.26607392741613
 20
-128.3125813481302
 10
80.39509275333873
 20
-128.4014648116496
 10
80.39509275333873
 20
-128.4014648116496
 10
80.37597247339559
 20
-128.5769924266231
 10
80.37597247339559
 20
-128.5769924266231
 10
80.37597247339559
 20
-128.5769924266231
 10
79.52985702221824
 20
-128.4564140846394
 10
79.52985702221824
 20
-128.4564140846394
 10
79.52985702221824
 20
-128.4564140846394
 10
79.52985702221824
 20
-127.6779947597472
 10
79.52985702221824
 20
-127.6779947597472
 10
79.52985702221824
 20
-127.6779947597472
 10
79.72450491713485
 20
-127.6779947597472
 10
79.72450491713485
 20
-127.6779947597472
 10
79.72450491713485
 20
-127.6779947597472
 10
79.72450491713485
 20
-128.2936333229613
 10
79.72450491713485
 20
-128.2936333229613
 10
79.72450491713485
 20
-128.2936333229613
 10
80.14756264272353
 20
-128.3590901371811
 10
80.14756264272353
 20
-128.3590901371811
 10
80.11362845219382
 20
-128.2977674375436
 10
80.07349308979066
 20
-128.2152574006719
 10
80.07349308979066
 20
-128.0969183707535
 10
80.07349308979066
 20
-127.8430148334906
 10
80.25970050076842
 20
-127.6059922641055
 10
80.57268742560336
 20
-127.6059922641055
 10
80.89015297456913
 20
-127.6059922641055
 10
81.12493623188891
 20
-127.8302679801952
 10
81.12493623188891
 20
-128.1327473638001
 97
        0
 97
        0
 75
     2
 76
     1
 98
        0
  0
ENDBLK
  5
139
330
136
100
AcDbEntity
  8
0
100
AcDbBlockEnd
  0
BLOCK
  5
153
330
151
100
AcDbEntity
  8
0
100
AcDbBlockBegin
  2
block 17
 70
     0
 10
0.0
 20
0.0
 30
0.0
  3
block 17
  1

  0
SPLINE
  5
155
330
151
100
AcDbEntity
  8
_U+30EC_U+30A4_U+30E4_U+30FC 1
 62
   179
420
  2234388
370
    25
100
AcDbSpline
210
0.0
220
0.0
230
1.0
 70
    11
 71
     3
 72
    17
 73
    13
 74
     0
 42
0.0000000001
 43
0.0000000001
 12
1.0
 22
0.0
 32
0.0
 13
1.0
 23
0.0
 33
0.0
 40
0.0
 40
0.0
 40
0.0
 40
0.0
 40
1.0
 40
1.0
 40
1.0
 40
2.0
 40
2.0
 40
2.0
 40
3.0
 40
3.0
 40
3.0
 40
4.0
 40
4.0
 40
4.0
 40
4.0
 10
85.52465531808427
 20
-139.9521655205674
 30
0.0
 10
85.52465531808427
 20
-139.9618316316764
 30
0.0
 10
85.51675309606365
 20
-139.9700866316744
 30
0.0
 10
85.50708698519914
 20
-139.9700866316744
 30
0.0
 10
85.49745831195882
 20
-139.9700866316744
 30
0.0
 10
85.489518652314
 20
-139.9618316316764
 30
0.0
 10
85.489518652314
 20
-139.9521655205674
 30
0.0
 10
85.489518652314
 20
-139.9425346872366
 30
0.0
 10
85.49745831195882
 20
-139.9342796872386
 30
0.0
 10
85.50708698519914
 20
-139.9342796872386
 30
0.0
 10
85.51675309606365
 20
-139.9342796872386
 30
0.0
 10
85.52465531808427
 20
-139.9425346872366
 30
0.0
 10
85.52465531808427
 20
-139.9521655205674
 30
0.0
  0
ENDBLK
  5
154
330
151
100
AcDbEntity
  8
0
100
AcDbBlockEnd
  0
BLOCK
  5
158
330
156
100
AcDbEntity
  8
0
100
AcDbBlockBegin
  2
block 18
 70
     0
 10
0.0
 20
0.0
 30
0.0
  3
block 18
  1

  0
SPLINE
  5
15A
330
156
100
AcDbEntity
  8
_U+30EC_U+30A4_U+30E4_U+30FC 1
 62
   179
420
  2234388
370
     9
100
AcDbSpline
210
0.0
220
0.0
230
1.0
 70
    11
 71
     3
 72
    17
 73
    13
 74
     0
 42
0.0000000001
 43
0.0000000001
 12
1.0
 22
0.0
 32
0.0
 13
1.0
 23
0.0
 33
0.0
 40
0.0
 40
0.0
 40
0.0
 40
0.0
 40
1.0
 40
1.0
 40
1.0
 40
2.0
 40
2.0
 40
2.0
 40
3.0
 40
3.0
 40
3.0
 40
4.0
 40
4.0
 40
4.0
 40
4.0
 10
81.62497930646218
 20
-139.9521655205674
 30
0.0
 10
81.62497930646218
 20
-139.9618316316764
 30
0.0
 10
81.61707708444156
 20
-139.9700866316744
 30
0.0
 10
81.60741097357705
 20
-139.9700866316744
 30
0.0
 10
81.59742736272064
 20
-139.9700866316744
 30
0.0
 10
81.58984264069193
 20
-139.9618316316764
 30
0.0
 10
81.58984264069193
 20
-139.9521655205674
 30
0.0
 10
81.58984264069193
 20
-139.9425346872366
 30
0.0
 10
81.59742736272064
 20
-139.9342796872386
 30
0.0
 10
81.60741097357705
 20
-139.9342796872386
 30
0.0
 10
81.61707708444156
 20
-139.9342796872386
 30
0.0
 10
81.62497930646218
 20
-139.9425346872366
 30
0.0
 10
81.62497930646218
 20
-139.9521655205674
 30
0.0
  0
ENDBLK
  5
159
330
156
100
AcDbEntity
  8
0
100
AcDbBlockEnd
  0
BLOCK
  5
172
330
170
100
AcDbEntity
  8
0
100
AcDbBlockBegin
  2
block 19
 70
     0
 10
0.0
 20
0.0
 30
0.0
  3
block 19
  1

  0
SPLINE
  5
174
330
170
100
AcDbEntity
  8
_U+30EC_U+30A4_U+30E4_U+30FC 1
 62
   179
420
  2234388
370
    25
100
AcDbSpline
210
0.0
220
0.0
230
1.0
 70
    11
 71
     3
 72
    17
 73
    13
 74
     0
 42
0.0000000001
 43
0.0000000001
 12
1.0
 22
0.0
 32
0.0
 13
1.0
 23
0.0
 33
0.0
 40
0.0
 40
0.0
 40
0.0
 40
0.0
 40
1.0
 40
1.0
 40
1.0
 40
2.0
 40
2.0
 40
2.0
 40
3.0
 40
3.0
 40
3.0
 40
4.0
 40
4.0
 40
4.0
 40
4.0
 10
85.87432864249669
 20
-118.1518041371286
 30
0.0
 10
85.87432864249669
 20
-118.1614349704598
 30
0.0
 10
85.86677919824484
 20
-118.1693724704578
 30
0.0
 10
85.85711308738034
 20
-118.1693724704578
 30
0.0
 10
85.84712947652393
 20
-118.1693724704578
 30
0.0
 10
85.83919197672644
 20
-118.1614349704598
 30
0.0
 10
85.83919197672644
 20
-118.1518041371286
 30
0.0
 10
85.83919197672644
 20
-118.14213802602
 30
0.0
 10
85.84712947652393
 20
-118.1342358037998
 30
0.0
 10
85.85711308738034
 20
-118.1342358037998
 30
0.0
 10
85.86677919824484
 20
-118.1342358037998
 30
0.0
 10
85.87432864249669
 20
-118.14213802602
 30
0.0
 10
85.87432864249669
 20
-118.1518041371286
 30
0.0
  0
ENDBLK
  5
173
330
170
100
AcDbEntity
  8
0
100
AcDbBlockEnd
  0
BLOCK
  5
177
330
175
100
AcDbEntity
  8
0
100
AcDbBlockBegin
  2
block 20
 70
     0
 10
0.0
 20
0.0
 30
0.0
  3
block 20
  1

  0
SPLINE
  5
179
330
175
100
AcDbEntity
  8
_U+30EC_U+30A4_U+30E4_U+30FC 1
370
     0
100
AcDbSpline
210
0.0
220
0.0
230
1.0
 70
    11
 71
     3
 72
    26
 73
    22
 74
     0
 42
0.0000000001
 43
0.0000000001
 12
1.0
 22
0.0
 32
0.0
 13
1.0
 23
0.0
 33
0.0
 40
0.0
 40
0.0
 40
0.0
 40
0.0
 40
1.0
 40
1.0
 40
1.0
 40
2.0
 40
2.0
 40
2.0
 40
3.0
 40
3.0
 40
3.0
 40
4.0
 40
4.0
 40
4.0
 40
5.0
 40
5.0
 40
5.0
 40
6.0
 40
6.0
 40
6.0
 40
7.0
 40
7.0
 40
7.0
 40
7.0
 10
84.09788138088525
 20
-138.3791503560302
 30
0.0
 10
84.09788138088525
 20
-138.3791503560302
 30
0.0
 10
82.99355602308842
 20
-138.3791503560302
 30
0.0
 10
82.99355602308842
 20
-138.3791503560302
 30
0.0
 10
82.99355602308842
 20
-138.3791503560302
 30
0.0
 10
82.99355602308842
 20
-138.7091905035172
 30
0.0
 10
82.99355602308842
 20
-138.7091905035172
 30
0.0
 10
82.99355602308842
 20
-138.7091905035172
 30
0.0
 10
82.84558917199693
 20
-138.7091905035172
 30
0.0
 10
82.84558917199693
 20
-138.7091905035172
 30
0.0
 10
82.83077526141037
 20
-138.3770832987391
 30
0.0
 10
82.66782224495805
 20
-138.3305745096882
 30
0.0
 10
82.55361732962201
 20
-138.300946688515
 30
0.0
 10
82.55361732962201
 20
-138.300946688515
 30
0.0
 10
82.55361732962201
 20
-138.1548746399405
 30
0.0
 10
82.55361732962201
 20
-138.1548746399405
 30
0.0
 10
82.55361732962201
 20
-138.1548746399405
 30
0.0
 10
84.09788138088525
 20
-138.1548746399405
 30
0.0
 10
84.09788138088525
 20
-138.1548746399405
 30
0.0
 10
84.09788138088525
 20
-138.1548746399405
 30
0.0
 10
84.09788138088525
 20
-138.3791503560302
 30
0.0
 10
84.09788138088525
 20
-138.3791503560302
 30
0.0
  0
HATCH
  5
17A
330
175
100
AcDbEntity
  8
_U+30EC_U+30A4_U+30E4_U+30FC 1
 62
   179
420
  2234388
100
AcDbHatch
 10
0.0
 20
0.0
 30
0.0
210
0.0
220
0.0
230
1.0
  2
SOLID
 70
     1
 71
     0
 91
        1
 92
        1
 93
        1
 72
     4
 94
        3
 73
     0
 74
     1
 95
       26
 96
       22
 40
0.0
 40
0.0
 40
0.0
 40
0.0
 40
1.0
 40
1.0
 40
1.0
 40
2.0
 40
2.0
 40
2.0
 40
3.0
 40
3.0
 40
3.0
 40
4.0
 40
4.0
 40
4.0
 40
5.0
 40
5.0
 40
5.0
 40
6.0
 40
6.0
 40
6.0
 40
7.0
 40
7.0
 40
7.0
 40
7.0
 10
84.09788138088525
 20
-138.3791503560302
 10
84.09788138088525
 20
-138.3791503560302
 10
82.99355602308842
 20
-138.3791503560302
 10
82.99355602308842
 20
-138.3791503560302
 10
82.99355602308842
 20
-138.3791503560302
 10
82.99355602308842
 20
-138.7091905035172
 10
82.99355602308842
 20
-138.7091905035172
 10
82.99355602308842
 20
-138.7091905035172
 10
82.84558917199693
 20
-138.7091905035172
 10
82.84558917199693
 20
-138.7091905035172
 10
82.83077526141037
 20
-138.3770832987391
 10
82.66782224495805
 20
-138.3305745096882
 10
82.55361732962201
 20
-138.300946688515
 10
82.55361732962201
 20
-138.300946688515
 10
82.55361732962201
 20
-138.1548746399405
 10
82.55361732962201
 20
-138.1548746399405
 10
82.55361732962201
 20
-138.1548746399405
 10
84.09788138088525
 20
-138.1548746399405
 10
84.09788138088525
 20
-138.1548746399405
 10
84.09788138088525
 20
-138.1548746399405
 10
84.09788138088525
 20
-138.3791503560302
 10
84.09788138088525
 20
-138.3791503560302
 97
        0
 97
        0
 75
     2
 76
     1
 98
        0
  0
POLYLINE
  5
17B
330
175
100
AcDbEntity
  8
_U+30EC_U+30A4_U+30E4_U+30FC 1
370
     0
100
AcDb2dPolyline
 66
     1
 10
0.0
 20
0.0
 30
0.0
  0
VERTEX
  5
17C
330
17B
100
AcDbEntity
  8
_U+30EC_U+30A4_U+30E4_U+30FC 1
370
     0
100
AcDbVertex
100
AcDb2dVertex
 10
84.09788138088525
 20
-137.5936685853933
 30
0.0
  0
VERTEX
  5
17D
330
17B
100
AcDbEntity
  8
_U+30EC_U+30A4_U+30E4_U+30FC 1
370
     0
100
AcDbVertex
100
AcDb2dVertex
 10
83.84621715568775
 20
-137.5936685853933
 30
0.0
  0
VERTEX
  5
17E
330
17B
100
AcDbEntity
  8
_U+30EC_U+30A4_U+30E4_U+30FC 1
370
     0
100
AcDbVertex
100
AcDb2dVertex
 10
83.84621715568775
 20
-137.34217661497
 30
0.0
  0
VERTEX
  5
17F
330
17B
100
AcDbEntity
  8
_U+30EC_U+30A4_U+30E4_U+30FC 1
370
     0
100
AcDbVertex
100
AcDb2dVertex
 10
84.09788138088525
 20
-137.34217661497
 30
0.0
  0
VERTEX
  5
180
330
17B
100
AcDbEntity
  8
_U+30EC_U+30A4_U+30E4_U+30FC 1
370
     0
100
AcDbVertex
100
AcDb2dVertex
 10
84.09788138088525
 20
-137.5936685853933
 30
0.0
  0
SEQEND
  5
181
330
17B
100
AcDbEntity
  8
_U+30EC_U+30A4_U+30E4_U+30FC 1
370
     0
  0
HATCH
  5
182
330
175
100
AcDbEntity
  8
_U+30EC_U+30A4_U+30E4_U+30FC 1
 62
   179
420
  2234388
100
AcDbHatch
 10
0.0
 20
0.0
 30
0.0
210
0.0
220
0.0
230
1.0
  2
SOLID
 70
     1
 71
     0
 91
        1
 92
        1
 93
        4
 72
     1
 10
84.09788138088525
 20
-137.5936685853933
 11
83.84621715568775
 21
-137.5936685853933
 72
     1
 10
83.84621715568775
 20
-137.5936685853933
 11
83.84621715568775
 21
-137.34217661497
 72
     1
 10
83.84621715568775
 20
-137.34217661497
 11
84.09788138088525
 21
-137.34217661497
 72
     1
 10
84.09788138088525
 20
-137.34217661497
 11
84.09788138088525
 21
-137.5936685853933
 97
        0
 75
     2
 76
     1
 98
        0
  0
SPLINE
  5
183
330
175
100
AcDbEntity
  8
_U+30EC_U+30A4_U+30E4_U+30FC 1
370
     0
100
AcDbSpline
210
0.0
220
0.0
230
1.0
 70
    11
 71
     3
 72
    44
 73
    40
 74
     0
 42
0.0000000001
 43
0.0000000001
 12
1.0
 22
0.0
 32
0.0
 13
1.0
 23
0.0
 33
0.0
 40
0.0
 40
0.0
 40
0.0
 40
0.0
 40
1.0
 40
1.0
 40
1.0
 40
2.0
 40
2.0
 40
2.0
 40
3.0
 40
3.0
 40
3.0
 40
4.0
 40
4.0
 40
4.0
 40
5.0
 40
5.0
 40
5.0
 40
6.0
 40
6.0
 40
6.0
 40
7.0
 40
7.0
 40
7.0
 40
8.0
 40
8.0
 40
8.0
 40
9.0
 40
9.0
 40
9.0
 40
10.0
 40
10.0
 40
10.0
 40
11.0
 40
11.0
 40
11.0
 40
12.0
 40
12.0
 40
12.0
 40
13.0
 40
13.0
 40
13.0
 40
13.0
 10
83.51617700820083
 20
-136.5125976221219
 30
0.0
 10
83.67482365529658
 20
-136.7303276567897
 30
0.0
 10
83.74889320822945
 20
-136.8233452348914
 30
0.0
 10
83.89272594473863
 20
-136.872265590782
 30
0.0
 10
83.89272594473863
 20
-136.872265590782
 30
0.0
 10
83.89272594473863
 20
-136.0936740111155
 30
0.0
 10
83.89272594473863
 20
-136.0936740111155
 30
0.0
 10
83.89272594473863
 20
-136.0936740111155
 30
0.0
 10
84.09788138088525
 20
-136.0936740111155
 30
0.0
 10
84.09788138088525
 20
-136.0936740111155
 30
0.0
 10
84.09788138088525
 20
-136.0936740111155
 30
0.0
 10
84.09788138088525
 20
-137.121690503914
 30
0.0
 10
84.09788138088525
 20
-137.121690503914
 30
0.0
 10
83.74028046951632
 20
-137.0899956254497
 30
0.0
 10
83.66207680200115
 20
-137.02453881123
 30
0.0
 10
83.36373153297852
 20
-136.6393771359791
 30
0.0
 10
83.1649495234796
 20
-136.383406541425
 30
0.0
 10
83.09725339719444
 20
-136.3179497272052
 30
0.0
 10
82.95979408733297
 20
-136.3179497272052
 30
0.0
 10
82.84128280264038
 20
-136.3179497272052
 30
0.0
 10
82.71019691942662
 20
-136.389952222847
 30
0.0
 10
82.71019691942662
 20
-136.5863226655062
 30
0.0
 10
82.71019691942662
 20
-136.8467718841911
 30
0.0
 10
82.94067380738984
 20
-136.8550401133557
 30
0.0
 10
83.05711803479127
 20
-136.8595187374865
 30
0.0
 10
83.05711803479127
 20
-136.8595187374865
 30
0.0
 10
83.05711803479127
 20
-137.0837944535763
 30
0.0
 10
83.05711803479127
 20
-137.0837944535763
 30
0.0
 10
82.93016626615983
 20
-137.0751817148632
 30
0.0
 10
82.81802840811494
 20
-137.0645019188589
 30
0.0
 10
82.69951712342235
 20
-136.9842311940526
 30
0.0
 10
82.53880341903545
 20
-136.8743326480731
 30
0.0
 10
82.50486922850573
 20
-136.6882974918696
 30
0.0
 10
82.50486922850573
 20
-136.5718532644682
 30
0.0
 10
82.50486922850573
 20
-136.2945230779056
 30
0.0
 10
82.68900958219234
 20
-136.087472839242
 30
0.0
 10
82.96186114462412
 20
-136.087472839242
 30
0.0
 10
83.19027097529619
 20
-136.087472839242
 30
0.0
 10
83.2898342348199
 20
-136.203572557095
 30
0.0
 10
83.51617700820083
 20
-136.5125976221219
 30
0.0
  0
HATCH
  5
184
330
175
100
AcDbEntity
  8
_U+30EC_U+30A4_U+30E4_U+30FC 1
 62
   179
420
  2234388
100
AcDbHatch
 10
0.0
 20
0.0
 30
0.0
210
0.0
220
0.0
230
1.0
  2
SOLID
 70
     1
 71
     0
 91
        1
 92
        1
 93
        1
 72
     4
 94
        3
 73
     0
 74
     1
 95
       44
 96
       40
 40
0.0
 40
0.0
 40
0.0
 40
0.0
 40
1.0
 40
1.0
 40
1.0
 40
2.0
 40
2.0
 40
2.0
 40
3.0
 40
3.0
 40
3.0
 40
4.0
 40
4.0
 40
4.0
 40
5.0
 40
5.0
 40
5.0
 40
6.0
 40
6.0
 40
6.0
 40
7.0
 40
7.0
 40
7.0
 40
8.0
 40
8.0
 40
8.0
 40
9.0
 40
9.0
 40
9.0
 40
10.0
 40
10.0
 40
10.0
 40
11.0
 40
11.0
 40
11.0
 40
12.0
 40
12.0
 40
12.0
 40
13.0
 40
13.0
 40
13.0
 40
13.0
 10
83.51617700820083
 20
-136.5125976221219
 10
83.67482365529658
 20
-136.7303276567897
 10
83.74889320822945
 20
-136.8233452348914
 10
83.89272594473863
 20
-136.872265590782
 10
83.89272594473863
 20
-136.872265590782
 10
83.89272594473863
 20
-136.0936740111155
 10
83.89272594473863
 20
-136.0936740111155
 10
83.89272594473863
 20
-136.0936740111155
 10
84.09788138088525
 20
-136.0936740111155
 10
84.09788138088525
 20
-136.0936740111155
 10
84.09788138088525
 20
-136.0936740111155
 10
84.09788138088525
 20
-137.121690503914
 10
84.09788138088525
 20
-137.121690503914
 10
83.74028046951632
 20
-137.0899956254497
 10
83.66207680200115
 20
-137.02453881123
 10
83.36373153297852
 20
-136.6393771359791
 10
83.1649495234796
 20
-136.383406541425
 10
83.09725339719444
 20
-136.3179497272052
 10
82.95979408733297
 20
-136.3179497272052
 10
82.84128280264038
 20
-136.3179497272052
 10
82.71019691942662
 20
-136.389952222847
 10
82.71019691942662
 20
-136.5863226655062
 10
82.71019691942662
 20
-136.8467718841911
 10
82.94067380738984
 20
-136.8550401133557
 10
83.05711803479127
 20
-136.8595187374865
 10
83.05711803479127
 20
-136.8595187374865
 10
83.05711803479127
 20
-137.0837944535763
 10
83.05711803479127
 20
-137.0837944535763
 10
82.93016626615983
 20
-137.0751817148632
 10
82.81802840811494
 20
-137.0645019188589
 10
82.69951712342235
 20
-136.9842311940526
 10
82.53880341903545
 20
-136.8743326480731
 10
82.50486922850573
 20
-136.6882974918696
 10
82.50486922850573
 20
-136.5718532644682
 10
82.50486922850573
 20
-136.2945230779056
 10
82.68900958219234
 20
-136.087472839242
 10
82.96186114462412
 20
-136.087472839242
 10
83.19027097529619
 20
-136.087472839242
 10
83.2898342348199
 20
-136.203572557095
 10
83.51617700820083
 20
-136.5125976221219
 97
        0
 97
        0
 75
     2
 76
     1
 98
        0
  0
ENDBLK
  5
178
330
175
100
AcDbEntity
  8
0
100
AcDbBlockEnd
  0
ENDSEC
  0
SECTION
  2
ENTITIES
  0
SPLINE
  5
41
330
1F
100
AcDbEntity
  8
_U+30EC_U+30A4_U+30E4_U+30FC 1
370
     0
100
AcDbSpline
210
0.0
220
0.0
230
1.0
 70
    11
 71
     3
 72
    14
 73
    10
 74
     0
 42
0.0000000001
 43
0.0000000001
 12
1.0
 22
0.0
 32
0.0
 13
1.0
 23
0.0
 33
0.0
 40
0.0
 40
0.0
 40
0.0
 40
0.0
 40
1.0
 40
1.0
 40
1.0
 40
2.0
 40
2.0
 40
2.0
 40
3.0
 40
3.0
 40
3.0
 40
3.0
 10
91.00717462265798
 20
-137.4524174656368
 30
0.0
 10
91.00717462265798
 20
-137.4524174656368
 30
0.0
 10
91.00717462265798
 20
-137.4696330211882
 30
0.0
 10
91.00717462265798
 20
-137.4696330211882
 30
0.0
 10
91.0168407335225
 20
-137.4696330211882
 30
0.0
 10
91.02474295554312
 20
-137.4620835767458
 30
0.0
 10
91.02474295554312
 20
-137.4524174656368
 30
0.0
 10
91.02474295554312
 20
-137.4524174656368
 30
0.0
 10
91.00717462265798
 20
-137.4524174656368
 30
0.0
 10
91.00717462265798
 20
-137.4524174656368
 30
0.0
  0
HATCH
  5
42
330
1F
100
AcDbEntity
  8
_U+30EC_U+30A4_U+30E4_U+30FC 1
 62
   253
420
 11711154
100
AcDbHatch
 10
0.0
 20
0.0
 30
0.0
210
0.0
220
0.0
230
1.0
  2
SOLID
 70
     1
 71
     0
 91
        1
 92
        1
 93
        1
 72
     4
 94
        3
 73
     0
 74
     1
 95
       14
 96
       10
 40
0.0
 40
0.0
 40
0.0
 40
0.0
 40
1.0
 40
1.0
 40
1.0
 40
2.0
 40
2.0
 40
2.0
 40
3.0
 40
3.0
 40
3.0
 40
3.0
 10
91.00717462265798
 20
-137.4524174656368
 10
91.00717462265798
 20
-137.4524174656368
 10
91.00717462265798
 20
-137.4696330211882
 10
91.00717462265798
 20
-137.4696330211882
 10
91.0168407335225
 20
-137.4696330211882
 10
91.02474295554312
 20
-137.4620835767458
 10
91.02474295554312
 20
-137.4524174656368
 10
91.02474295554312
 20
-137.4524174656368
 10
91.00717462265798
 20
-137.4524174656368
 10
91.00717462265798
 20
-137.4524174656368
 97
        0
 97
        0
 75
     2
 76
     1
 98
        0
  0
SPLINE
  5
43
330
1F
100
AcDbEntity
  8
_U+30EC_U+30A4_U+30E4_U+30FC 1
370
     0
100
AcDbSpline
210
0.0
220
0.0
230
1.0
 70
    11
 71
     3
 72
    20
 73
    16
 74
     0
 42
0.0000000001
 43
0.0000000001
 12
1.0
 22
0.0
 32
0.0
 13
1.0
 23
0.0
 33
0.0
 40
0.0
 40
0.0
 40
0.0
 40
0.0
 40
1.0
 40
1.0
 40
1.0
 40
2.0
 40
2.0
 40
2.0
 40
3.0
 40
3.0
 40
3.0
 40
4.0
 40
4.0
 40
4.0
 40
5.0
 40
5.0
 40
5.0
 40
5.0
 10
91.02474295554312
 20
-137.4524174656368
 30
0.0
 10
91.02474295554312
 20
-137.4420810767504
 30
0.0
 10
91.0168407335225
 20
-137.4344963545305
 30
0.0
 10
91.00717462265798
 20
-137.4344963545305
 30
0.0
 10
90.99754378957036
 20
-137.4344963545305
 30
0.0
 10
90.98960628977287
 20
-137.4420810767504
 30
0.0
 10
90.98960628977287
 20
-137.4524174656368
 30
0.0
 10
90.98960628977287
 20
-137.4620835767458
 30
0.0
 10
90.99754378957036
 20
-137.4696330211882
 30
0.0
 10
91.00717462265798
 20
-137.4696330211882
 30
0.0
 10
91.00717462265798
 20
-137.4696330211882
 30
0.0
 10
91.00717462265798
 20
-137.4524174656368
 30
0.0
 10
91.00717462265798
 20
-137.4524174656368
 30
0.0
 10
91.00717462265798
 20
-137.4524174656368
 30
0.0
 10
91.02474295554312
 20
-137.4524174656368
 30
0.0
 10
91.02474295554312
 20
-137.4524174656368
 30
0.0
  0
HATCH
  5
44
330
1F
100
AcDbEntity
  8
_U+30EC_U+30A4_U+30E4_U+30FC 1
 62
   253
420
 11711154
100
AcDbHatch
 10
0.0
 20
0.0
 30
0.0
210
0.0
220
0.0
230
1.0
  2
SOLID
 70
     1
 71
     0
 91
        1
 92
        1
 93
        1
 72
     4
 94
        3
 73
     0
 74
     1
 95
       20
 96
       16
 40
0.0
 40
0.0
 40
0.0
 40
0.0
 40
1.0
 40
1.0
 40
1.0
 40
2.0
 40
2.0
 40
2.0
 40
3.0
 40
3.0
 40
3.0
 40
4.0
 40
4.0
 40
4.0
 40
5.0
 40
5.0
 40
5.0
 40
5.0
 10
91.02474295554312
 20
-137.4524174656368
 10
91.02474295554312
 20
-137.4420810767504
 10
91.0168407335225
 20
-137.4344963545305
 10
91.00717462265798
 20
-137.4344963545305
 10
90.99754378957036
 20
-137.4344963545305
 10
90.98960628977287
 20
-137.4420810767504
 10
90.98960628977287
 20
-137.4524174656368
 10
90.98960628977287
 20
-137.4620835767458
 10
90.99754378957036
 20
-137.4696330211882
 10
91.00717462265798
 20
-137.4696330211882
 10
91.00717462265798
 20
-137.4696330211882
 10
91.00717462265798
 20
-137.4524174656368
 10
91.00717462265798
 20
-137.4524174656368
 10
91.00717462265798
 20
-137.4524174656368
 10
91.02474295554312
 20
-137.4524174656368
 10
91.02474295554312
 20
-137.4524174656368
 97
        0
 97
        0
 75
     2
 76
     1
 98
        0
  0
SPLINE
  5
45
330
1F
100
AcDbEntity
  8
_U+30EC_U+30A4_U+30E4_U+30FC 1
370
     0
100
AcDbSpline
210
0.0
220
0.0
230
1.0
 70
    11
 71
     3
 72
    20
 73
    16
 74
     0
 42
0.0000000001
 43
0.0000000001
 12
1.0
 22
0.0
 32
0.0
 13
1.0
 23
0.0
 33
0.0
 40
0.0
 40
0.0
 40
0.0
 40
0.0
 40
1.0
 40
1.0
 40
1.0
 40
2.0
 40
2.0
 40
2.0
 40
3.0
 40
3.0
 40
3.0
 40
4.0
 40
4.0
 40
4.0
 40
5.0
 40
5.0
 40
5.0
 40
5.0
 10
93.50678150333215
 20
-137.4696330211882
 30
0.0
 10
93.51711789195734
 20
-137.4696330211882
 30
0.0
 10
93.52470261398605
 20
-137.4620835767458
 30
0.0
 10
93.52470261398605
 20
-137.4524174656368
 30
0.0
 10
93.52470261398605
 20
-137.4420810767504
 30
0.0
 10
93.51711789195734
 20
-137.4344963545305
 30
0.0
 10
93.50678150333215
 20
-137.4344963545305
 30
0.0
 10
93.49715067024452
 20
-137.4344963545305
 30
0.0
 10
93.4895659482158
 20
-137.4420810767504
 30
0.0
 10
93.4895659482158
 20
-137.4524174656368
 30
0.0
 10
93.4895659482158
 20
-137.4524174656368
 30
0.0
 10
93.50678150333215
 20
-137.4524174656368
 30
0.0
 10
93.50678150333215
 20
-137.4524174656368
 30
0.0
 10
93.50678150333215
 20
-137.4524174656368
 30
0.0
 10
93.50678150333215
 20
-137.4696330211882
 30
0.0
 10
93.50678150333215
 20
-137.4696330211882
 30
0.0
  0
HATCH
  5
46
330
1F
100
AcDbEntity
  8
_U+30EC_U+30A4_U+30E4_U+30FC 1
 62
   253
420
 11711154
100
AcDbHatch
 10
0.0
 20
0.0
 30
0.0
210
0.0
220
0.0
230
1.0
  2
SOLID
 70
     1
 71
     0
 91
        1
 92
        1
 93
        1
 72
     4
 94
        3
 73
     0
 74
     1
 95
       20
 96
       16
 40
0.0
 40
0.0
 40
0.0
 40
0.0
 40
1.0
 40
1.0
 40
1.0
 40
2.0
 40
2.0
 40
2.0
 40
3.0
 40
3.0
 40
3.0
 40
4.0
 40
4.0
 40
4.0
 40
5.0
 40
5.0
 40
5.0
 40
5.0
 10
93.50678150333215
 20
-137.4696330211882
 10
93.51711789195734
 20
-137.4696330211882
 10
93.52470261398605
 20
-137.4620835767458
 10
93.52470261398605
 20
-137.4524174656368
 10
93.52470261398605
 20
-137.4420810767504
 10
93.51711789195734
 20
-137.4344963545305
 10
93.50678150333215
 20
-137.4344963545305
 10
93.49715067024452
 20
-137.4344963545305
 10
93.4895659482158
 20
-137.4420810767504
 10
93.4895659482158
 20
-137.4524174656368
 10
93.4895659482158
 20
-137.4524174656368
 10
93.50678150333215
 20
-137.4524174656368
 10
93.50678150333215
 20
-137.4524174656368
 10
93.50678150333215
 20
-137.4524174656368
 10
93.50678150333215
 20
-137.4696330211882
 10
93.50678150333215
 20
-137.4696330211882
 97
        0
 97
        0
 75
     2
 76
     1
 98
        0
  0
SPLINE
  5
47
330
1F
100
AcDbEntity
  8
_U+30EC_U+30A4_U+30E4_U+30FC 1
370
     0
100
AcDbSpline
210
0.0
220
0.0
230
1.0
 70
    11
 71
     3
 72
    14
 73
    10
 74
     0
 42
0.0000000001
 43
0.0000000001
 12
1.0
 22
0.0
 32
0.0
 13
1.0
 23
0.0
 33
0.0
 40
0.0
 40
0.0
 40
0.0
 40
0.0
 40
1.0
 40
1.0
 40
1.0
 40
2.0
 40
2.0
 40
2.0
 40
3.0
 40
3.0
 40
3.0
 40
3.0
 10
93.50678150333215
 20
-137.4524174656368
 30
0.0
 10
93.50678150333215
 20
-137.4524174656368
 30
0.0
 10
93.4895659482158
 20
-137.4524174656368
 30
0.0
 10
93.4895659482158
 20
-137.4524174656368
 30
0.0
 10
93.4895659482158
 20
-137.4620835767458
 30
0.0
 10
93.49715067024452
 20
-137.4696330211882
 30
0.0
 10
93.50678150333215
 20
-137.4696330211882
 30
0.0
 10
93.50678150333215
 20
-137.4696330211882
 30
0.0
 10
93.50678150333215
 20
-137.4524174656368
 30
0.0
 10
93.50678150333215
 20
-137.4524174656368
 30
0.0
  0
HATCH
  5
48
330
1F
100
AcDbEntity
  8
_U+30EC_U+30A4_U+30E4_U+30FC 1
 62
   253
420
 11711154
100
AcDbHatch
 10
0.0
 20
0.0
 30
0.0
210
0.0
220
0.0
230
1.0
  2
SOLID
 70
     1
 71
     0
 91
        1
 92
        1
 93
        1
 72
     4
 94
        3
 73
     0
 74
     1
 95
       14
 96
       10
 40
0.0
 40
0.0
 40
0.0
 40
0.0
 40
1.0
 40
1.0
 40
1.0
 40
2.0
 40
2.0
 40
2.0
 40
3.0
 40
3.0
 40
3.0
 40
3.0
 10
93.50678150333215
 20
-137.4524174656368
 10
93.50678150333215
 20
-137.4524174656368
 10
93.4895659482158
 20
-137.4524174656368
 10
93.4895659482158
 20
-137.4524174656368
 10
93.4895659482158
 20
-137.4620835767458
 10
93.49715067024452
 20
-137.4696330211882
 10
93.50678150333215
 20
-137.4696330211882
 10
93.50678150333215
 20
-137.4696330211882
 10
93.50678150333215
 20
-137.4524174656368
 10
93.50678150333215
 20
-137.4524174656368
 97
        0
 97
        0
 75
     2
 76
     1
 98
        0
  0
SPLINE
  5
49
330
1F
100
AcDbEntity
  8
_U+30EC_U+30A4_U+30E4_U+30FC 1
370
     0
100
AcDbSpline
210
0.0
220
0.0
230
1.0
 70
    11
 71
     3
 72
    20
 73
    16
 74
     0
 42
0.0000000001
 43
0.0000000001
 12
1.0
 22
0.0
 32
0.0
 13
1.0
 23
0.0
 33
0.0
 40
0.0
 40
0.0
 40
0.0
 40
0.0
 40
1.0
 40
1.0
 40
1.0
 40
2.0
 40
2.0
 40
2.0
 40
3.0
 40
3.0
 40
3.0
 40
4.0
 40
4.0
 40
4.0
 40
5.0
 40
5.0
 40
5.0
 40
5.0
 10
98.00744972184387
 20
-137.4696330211882
 30
0.0
 10
98.01711583270838
 20
-137.4696330211882
 30
0.0
 10
98.02466527696022
 20
-137.4620835767458
 30
0.0
 10
98.02466527696022
 20
-137.4524174656368
 30
0.0
 10
98.02466527696022
 20
-137.4420810767504
 30
0.0
 10
98.01711583270838
 20
-137.4344963545305
 30
0.0
 10
98.00744972184387
 20
-137.4344963545305
 30
0.0
 10
97.99711333321869
 20
-137.4344963545305
 30
0.0
 10
97.98952861118997
 20
-137.4420810767504
 30
0.0
 10
97.98952861118997
 20
-137.4524174656368
 30
0.0
 10
97.98952861118997
 20
-137.4524174656368
 30
0.0
 10
98.00744972184387
 20
-137.4524174656368
 30
0.0
 10
98.00744972184387
 20
-137.4524174656368
 30
0.0
 10
98.00744972184387
 20
-137.4524174656368
 30
0.0
 10
98.00744972184387
 20
-137.4696330211882
 30
0.0
 10
98.00744972184387
 20
-137.4696330211882
 30
0.0
  0
HATCH
  5
4A
330
1F
100
AcDbEntity
  8
_U+30EC_U+30A4_U+30E4_U+30FC 1
 62
   253
420
 11711154
100
AcDbHatch
 10
0.0
 20
0.0
 30
0.0
210
0.0
220
0.0
230
1.0
  2
SOLID
 70
     1
 71
     0
 91
        1
 92
        1
 93
        1
 72
     4
 94
        3
 73
     0
 74
     1
 95
       20
 96
       16
 40
0.0
 40
0.0
 40
0.0
 40
0.0
 40
1.0
 40
1.0
 40
1.0
 40
2.0
 40
2.0
 40
2.0
 40
3.0
 40
3.0
 40
3.0
 40
4.0
 40
4.0
 40
4.0
 40
5.0
 40
5.0
 40
5.0
 40
5.0
 10
98.00744972184387
 20
-137.4696330211882
 10
98.01711583270838
 20
-137.4696330211882
 10
98.02466527696022
 20
-137.4620835767458
 10
98.02466527696022
 20
-137.4524174656368
 10
98.02466527696022
 20
-137.4420810767504
 10
98.01711583270838
 20
-137.4344963545305
 10
98.00744972184387
 20
-137.4344963545305
 10
97.99711333321869
 20
-137.4344963545305
 10
97.98952861118997
 20
-137.4420810767504
 10
97.98952861118997
 20
-137.4524174656368
 10
97.98952861118997
 20
-137.4524174656368
 10
98.00744972184387
 20
-137.4524174656368
 10
98.00744972184387
 20
-137.4524174656368
 10
98.00744972184387
 20
-137.4524174656368
 10
98.00744972184387
 20
-137.4696330211882
 10
98.00744972184387
 20
-137.4696330211882
 97
        0
 97
        0
 75
     2
 76
     1
 98
        0
  0
SPLINE
  5
4B
330
1F
100
AcDbEntity
  8
_U+30EC_U+30A4_U+30E4_U+30FC 1
370
     0
100
AcDbSpline
210
0.0
220
0.0
230
1.0
 70
    11
 71
     3
 72
    14
 73
    10
 74
     0
 42
0.0000000001
 43
0.0000000001
 12
1.0
 22
0.0
 32
0.0
 13
1.0
 23
0.0
 33
0.0
 40
0.0
 40
0.0
 40
0.0
 40
0.0
 40
1.0
 40
1.0
 40
1.0
 40
2.0
 40
2.0
 40
2.0
 40
3.0
 40
3.0
 40
3.0
 40
3.0
 10
98.00744972184387
 20
-137.4524174656368
 30
0.0
 10
98.00744972184387
 20
-137.4524174656368
 30
0.0
 10
97.98952861118997
 20
-137.4524174656368
 30
0.0
 10
97.98952861118997
 20
-137.4524174656368
 30
0.0
 10
97.98952861118997
 20
-137.4620835767458
 30
0.0
 10
97.99711333321869
 20
-137.4696330211882
 30
0.0
 10
98.00744972184387
 20
-137.4696330211882
 30
0.0
 10
98.00744972184387
 20
-137.4696330211882
 30
0.0
 10
98.00744972184387
 20
-137.4524174656368
 30
0.0
 10
98.00744972184387
 20
-137.4524174656368
 30
0.0
  0
HATCH
  5
4C
330
1F
100
AcDbEntity
  8
_U+30EC_U+30A4_U+30E4_U+30FC 1
 62
   253
420
 11711154
100
AcDbHatch
 10
0.0
 20
0.0
 30
0.0
210
0.0
220
0.0
230
1.0
  2
SOLID
 70
     1
 71
     0
 91
        1
 92
        1
 93
        1
 72
     4
 94
        3
 73
     0
 74
     1
 95
       14
 96
       10
 40
0.0
 40
0.0
 40
0.0
 40
0.0
 40
1.0
 40
1.0
 40
1.0
 40
2.0
 40
2.0
 40
2.0
 40
3.0
 40
3.0
 40
3.0
 40
3.0
 10
98.00744972184387
 20
-137.4524174656368
 10
98.00744972184387
 20
-137.4524174656368
 10
97.98952861118997
 20
-137.4524174656368
 10
97.98952861118997
 20
-137.4524174656368
 10
97.98952861118997
 20
-137.4620835767458
 10
97.99711333321869
 20
-137.4696330211882
 10
98.00744972184387
 20
-137.4696330211882
 10
98.00744972184387
 20
-137.4696330211882
 10
98.00744972184387
 20
-137.4524174656368
 10
98.00744972184387
 20
-137.4524174656368
 97
        0
 97
        0
 75
     2
 76
     1
 98
        0
  0
SPLINE
  5
4D
330
1F
100
AcDbEntity
  8
_U+30EC_U+30A4_U+30E4_U+30FC 1
370
     0
100
AcDbSpline
210
0.0
220
0.0
230
1.0
 70
    11
 71
     3
 72
    20
 73
    16
 74
     0
 42
0.0000000001
 43
0.0000000001
 12
1.0
 22
0.0
 32
0.0
 13
1.0
 23
0.0
 33
0.0
 40
0.0
 40
0.0
 40
0.0
 40
0.0
 40
1.0
 40
1.0
 40
1.0
 40
2.0
 40
2.0
 40
2.0
 40
3.0
 40
3.0
 40
3.0
 40
4.0
 40
4.0
 40
4.0
 40
5.0
 40
5.0
 40
5.0
 40
5.0
 10
97.98952861118997
 20
-139.9521655205674
 30
0.0
 10
97.98952861118997
 20
-139.9618316316764
 30
0.0
 10
97.99711333321869
 20
-139.9700866316744
 30
0.0
 10
98.00744972184387
 20
-139.9700866316744
 30
0.0
 10
98.01711583270838
 20
-139.9700866316744
 30
0.0
 10
98.02466527696022
 20
-139.9618316316764
 30
0.0
 10
98.02466527696022
 20
-139.9521655205674
 30
0.0
 10
98.02466527696022
 20
-139.9425346872366
 30
0.0
 10
98.01711583270838
 20
-139.9342796872386
 30
0.0
 10
98.00744972184387
 20
-139.9342796872386
 30
0.0
 10
98.00744972184387
 20
-139.9342796872386
 30
0.0
 10
98.00744972184387
 20
-139.9521655205674
 30
0.0
 10
98.00744972184387
 20
-139.9521655205674
 30
0.0
 10
98.00744972184387
 20
-139.9521655205674
 30
0.0
 10
97.98952861118997
 20
-139.9521655205674
 30
0.0
 10
97.98952861118997
 20
-139.9521655205674
 30
0.0
  0
HATCH
  5
4E
330
1F
100
AcDbEntity
  8
_U+30EC_U+30A4_U+30E4_U+30FC 1
 62
   253
420
 11711154
100
AcDbHatch
 10
0.0
 20
0.0
 30
0.0
210
0.0
220
0.0
230
1.0
  2
SOLID
 70
     1
 71
     0
 91
        1
 92
        1
 93
        1
 72
     4
 94
        3
 73
     0
 74
     1
 95
       20
 96
       16
 40
0.0
 40
0.0
 40
0.0
 40
0.0
 40
1.0
 40
1.0
 40
1.0
 40
2.0
 40
2.0
 40
2.0
 40
3.0
 40
3.0
 40
3.0
 40
4.0
 40
4.0
 40
4.0
 40
5.0
 40
5.0
 40
5.0
 40
5.0
 10
97.98952861118997
 20
-139.9521655205674
 10
97.98952861118997
 20
-139.9618316316764
 10
97.99711333321869
 20
-139.9700866316744
 10
98.00744972184387
 20
-139.9700866316744
 10
98.01711583270838
 20
-139.9700866316744
 10
98.02466527696022
 20
-139.9618316316764
 10
98.02466527696022
 20
-139.9521655205674
 10
98.02466527696022
 20
-139.9425346872366
 10
98.01711583270838
 20
-139.9342796872386
 10
98.00744972184387
 20
-139.9342796872386
 10
98.00744972184387
 20
-139.9342796872386
 10
98.00744972184387
 20
-139.9521655205674
 10
98.00744972184387
 20
-139.9521655205674
 10
98.00744972184387
 20
-139.9521655205674
 10
97.98952861118997
 20
-139.9521655205674
 10
97.98952861118997
 20
-139.9521655205674
 97
        0
 97
        0
 75
     2
 76
     1
 98
        0
  0
SPLINE
  5
4F
330
1F
100
AcDbEntity
  8
_U+30EC_U+30A4_U+30E4_U+30FC 1
370
     0
100
AcDbSpline
210
0.0
220
0.0
230
1.0
 70
    11
 71
     3
 72
    14
 73
    10
 74
     0
 42
0.0000000001
 43
0.0000000001
 12
1.0
 22
0.0
 32
0.0
 13
1.0
 23
0.0
 33
0.0
 40
0.0
 40
0.0
 40
0.0
 40
0.0
 40
1.0
 40
1.0
 40
1.0
 40
2.0
 40
2.0
 40
2.0
 40
3.0
 40
3.0
 40
3.0
 40
3.0
 10
98.00744972184387
 20
-139.9521655205674
 30
0.0
 10
98.00744972184387
 20
-139.9521655205674
 30
0.0
 10
98.00744972184387
 20
-139.9342796872386
 30
0.0
 10
98.00744972184387
 20
-139.9342796872386
 30
0.0
 10
97.99711333321869
 20
-139.9342796872386
 30
0.0
 10
97.98952861118997
 20
-139.9425346872366
 30
0.0
 10
97.98952861118997
 20
-139.9521655205674
 30
0.0
 10
97.98952861118997
 20
-139.9521655205674
 30
0.0
 10
98.00744972184387
 20
-139.9521655205674
 30
0.0
 10
98.00744972184387
 20
-139.9521655205674
 30
0.0
  0
HATCH
  5
50
330
1F
100
AcDbEntity
  8
_U+30EC_U+30A4_U+30E4_U+30FC 1
 62
   253
420
 11711154
100
AcDbHatch
 10
0.0
 20
0.0
 30
0.0
210
0.0
220
0.0
230
1.0
  2
SOLID
 70
     1
 71
     0
 91
        1
 92
        1
 93
        1
 72
     4
 94
        3
 73
     0
 74
     1
 95
       14
 96
       10
 40
0.0
 40
0.0
 40
0.0
 40
0.0
 40
1.0
 40
1.0
 40
1.0
 40
2.0
 40
2.0
 40
2.0
 40
3.0
 40
3.0
 40
3.0
 40
3.0
 10
98.00744972184387
 20
-139.9521655205674
 10
98.00744972184387
 20
-139.9521655205674
 10
98.00744972184387
 20
-139.9342796872386
 10
98.00744972184387
 20
-139.9342796872386
 10
97.99711333321869
 20
-139.9342796872386
 10
97.98952861118997
 20
-139.9425346872366
 10
97.98952861118997
 20
-139.9521655205674
 10
97.98952861118997
 20
-139.9521655205674
 10
98.00744972184387
 20
-139.9521655205674
 10
98.00744972184387
 20
-139.9521655205674
 97
        0
 97
        0
 75
     2
 76
     1
 98
        0
  0
SPLINE
  5
51
330
1F
100
AcDbEntity
  8
_U+30EC_U+30A4_U+30E4_U+30FC 1
370
     0
100
AcDbSpline
210
0.0
220
0.0
230
1.0
 70
    11
 71
     3
 72
    20
 73
    16
 74
     0
 42
0.0000000001
 43
0.0000000001
 12
1.0
 22
0.0
 32
0.0
 13
1.0
 23
0.0
 33
0.0
 40
0.0
 40
0.0
 40
0.0
 40
0.0
 40
1.0
 40
1.0
 40
1.0
 40
2.0
 40
2.0
 40
2.0
 40
3.0
 40
3.0
 40
3.0
 40
4.0
 40
4.0
 40
4.0
 40
5.0
 40
5.0
 40
5.0
 40
5.0
 10
85.50708698519914
 20
-139.9342796872386
 30
0.0
 10
85.49745831195882
 20
-139.9342796872386
 30
0.0
 10
85.489518652314
 20
-139.9425346872366
 30
0.0
 10
85.489518652314
 20
-139.9521655205674
 30
0.0
 10
85.489518652314
 20
-139.9618316316764
 30
0.0
 10
85.49745831195882
 20
-139.9700866316744
 30
0.0
 10
85.50708698519914
 20
-139.9700866316744
 30
0.0
 10
85.51675309606365
 20
-139.9700866316744
 30
0.0
 10
85.52465531808427
 20
-139.9618316316764
 30
0.0
 10
85.52465531808427
 20
-139.9521655205674
 30
0.0
 10
85.52465531808427
 20
-139.9521655205674
 30
0.0
 10
85.50708698519914
 20
-139.9521655205674
 30
0.0
 10
85.50708698519914
 20
-139.9521655205674
 30
0.0
 10
85.50708698519914
 20
-139.9521655205674
 30
0.0
 10
85.50708698519914
 20
-139.9342796872386
 30
0.0
 10
85.50708698519914
 20
-139.9342796872386
 30
0.0
  0
HATCH
  5
52
330
1F
100
AcDbEntity
  8
_U+30EC_U+30A4_U+30E4_U+30FC 1
 62
   253
420
 11711154
100
AcDbHatch
 10
0.0
 20
0.0
 30
0.0
210
0.0
220
0.0
230
1.0
  2
SOLID
 70
     1
 71
     0
 91
        1
 92
        1
 93
        1
 72
     4
 94
        3
 73
     0
 74
     1
 95
       20
 96
       16
 40
0.0
 40
0.0
 40
0.0
 40
0.0
 40
1.0
 40
1.0
 40
1.0
 40
2.0
 40
2.0
 40
2.0
 40
3.0
 40
3.0
 40
3.0
 40
4.0
 40
4.0
 40
4.0
 40
5.0
 40
5.0
 40
5.0
 40
5.0
 10
85.50708698519914
 20
-139.9342796872386
 10
85.49745831195882
 20
-139.9342796872386
 10
85.489518652314
 20
-139.9425346872366
 10
85.489518652314
 20
-139.9521655205674
 10
85.489518652314
 20
-139.9618316316764
 10
85.49745831195882
 20
-139.9700866316744
 10
85.50708698519914
 20
-139.9700866316744
 10
85.51675309606365
 20
-139.9700866316744
 10
85.52465531808427
 20
-139.9618316316764
 10
85.52465531808427
 20
-139.9521655205674
 10
85.52465531808427
 20
-139.9521655205674
 10
85.50708698519914
 20
-139.9521655205674
 10
85.50708698519914
 20
-139.9521655205674
 10
85.50708698519914
 20
-139.9521655205674
 10
85.50708698519914
 20
-139.9342796872386
 10
85.50708698519914
 20
-139.9342796872386
 97
        0
 97
        0
 75
     2
 76
     1
 98
        0
  0
SPLINE
  5
53
330
1F
100
AcDbEntity
  8
_U+30EC_U+30A4_U+30E4_U+30FC 1
370
     0
100
AcDbSpline
210
0.0
220
0.0
230
1.0
 70
    11
 71
     3
 72
    14
 73
    10
 74
     0
 42
0.0000000001
 43
0.0000000001
 12
1.0
 22
0.0
 32
0.0
 13
1.0
 23
0.0
 33
0.0
 40
0.0
 40
0.0
 40
0.0
 40
0.0
 40
1.0
 40
1.0
 40
1.0
 40
2.0
 40
2.0
 40
2.0
 40
3.0
 40
3.0
 40
3.0
 40
3.0
 10
85.50708698519914
 20
-139.9521655205674
 30
0.0
 10
85.50708698519914
 20
-139.9521655205674
 30
0.0
 10
85.52465531808427
 20
-139.9521655205674
 30
0.0
 10
85.52465531808427
 20
-139.9521655205674
 30
0.0
 10
85.52465531808427
 20
-139.9425346872366
 30
0.0
 10
85.51675309606365
 20
-139.9342796872386
 30
0.0
 10
85.50708698519914
 20
-139.9342796872386
 30
0.0
 10
85.50708698519914
 20
-139.9342796872386
 30
0.0
 10
85.50708698519914
 20
-139.9521655205674
 30
0.0
 10
85.50708698519914
 20
-139.9521655205674
 30
0.0
  0
HATCH
  5
54
330
1F
100
AcDbEntity
  8
_U+30EC_U+30A4_U+30E4_U+30FC 1
 62
   253
420
 11711154
100
AcDbHatch
 10
0.0
 20
0.0
 30
0.0
210
0.0
220
0.0
230
1.0
  2
SOLID
 70
     1
 71
     0
 91
        1
 92
        1
 93
        1
 72
     4
 94
        3
 73
     0
 74
     1
 95
       14
 96
       10
 40
0.0
 40
0.0
 40
0.0
 40
0.0
 40
1.0
 40
1.0
 40
1.0
 40
2.0
 40
2.0
 40
2.0
 40
3.0
 40
3.0
 40
3.0
 40
3.0
 10
85.50708698519914
 20
-139.9521655205674
 10
85.50708698519914
 20
-139.9521655205674
 10
85.52465531808427
 20
-139.9521655205674
 10
85.52465531808427
 20
-139.9521655205674
 10
85.52465531808427
 20
-139.9425346872366
 10
85.51675309606365
 20
-139.9342796872386
 10
85.50708698519914
 20
-139.9342796872386
 10
85.50708698519914
 20
-139.9342796872386
 10
85.50708698519914
 20
-139.9521655205674
 10
85.50708698519914
 20
-139.9521655205674
 97
        0
 97
        0
 75
     2
 76
     1
 98
        0
  0
SPLINE
  5
55
330
1F
100
AcDbEntity
  8
_U+30EC_U+30A4_U+30E4_U+30FC 1
370
     0
100
AcDbSpline
210
0.0
220
0.0
230
1.0
 70
    11
 71
     3
 72
    56
 73
    52
 74
     0
 42
0.0000000001
 43
0.0000000001
 12
1.0
 22
0.0
 32
0.0
 13
1.0
 23
0.0
 33
0.0
 40
0.0
 40
0.0
 40
0.0
 40
0.0
 40
1.0
 40
1.0
 40
1.0
 40
2.0
 40
2.0
 40
2.0
 40
3.0
 40
3.0
 40
3.0
 40
4.0
 40
4.0
 40
4.0
 40
5.0
 40
5.0
 40
5.0
 40
6.0
 40
6.0
 40
6.0
 40
7.0
 40
7.0
 40
7.0
 40
8.0
 40
8.0
 40
8.0
 40
9.0
 40
9.0
 40
9.0
 40
10.0
 40
10.0
 40
10.0
 40
11.0
 40
11.0
 40
11.0
 40
12.0
 40
12.0
 40
12.0
 40
13.0
 40
13.0
 40
13.0
 40
14.0
 40
14.0
 40
14.0
 40
15.0
 40
15.0
 40
15.0
 40
16.0
 40
16.0
 40
16.0
 40
17.0
 40
17.0
 40
17.0
 40
17.0
 10
85.47868837481253
 20
-118.6802652481078
 30
0.0
 10
85.47868837481253
 20
-118.6802652481078
 30
0.0
 10
85.5376022621984
 20
-117.8277777483208
 30
0.0
 10
86.15496335755932
 20
-118.3569444148552
 30
0.0
 10
86.15496335755932
 20
-118.3569444148552
 30
0.0
 10
87.24257721870087
 20
-119.1801513590938
 30
0.0
 10
87.24257721870087
 20
-119.1801513590938
 30
0.0
 10
87.24257721870087
 20
-119.1801513590938
 30
0.0
 10
87.18383972019939
 20
-120.0913763588661
 30
0.0
 10
87.18383972019939
 20
-120.0913763588661
 30
0.0
 10
87.18383972019939
 20
-120.0913763588661
 30
0.0
 10
86.18424391236788
 20
-119.7680555256135
 30
0.0
 10
86.18424391236788
 20
-119.7680555256135
 30
0.0
 10
86.18424391236788
 20
-119.7680555256135
 30
0.0
 10
86.18424391236788
 20
-139.259027742963
 30
0.0
 10
86.18424391236788
 20
-139.259027742963
 30
0.0
 10
86.18424391236788
 20
-139.259027742963
 30
0.0
 10
92.82810763175767
 20
-139.259027742963
 30
0.0
 10
92.82810763175767
 20
-139.259027742963
 30
0.0
 10
92.82810763175767
 20
-139.259027742963
 30
0.0
 10
92.82810763175767
 20
-138.1714138543458
 30
0.0
 10
92.82810763175767
 20
-138.1714138543458
 30
0.0
 10
92.82810763175767
 20
-138.1714138543458
 30
0.0
 10
91.06439517675373
 20
-138.1714138543458
 30
0.0
 10
91.06439517675373
 20
-138.1714138543458
 30
0.0
 10
91.06439517675373
 20
-138.1714138543458
 30
0.0
 10
91.06439517675373
 20
-137.4524174656368
 30
0.0
 10
91.06439517675373
 20
-137.4524174656368
 30
0.0
 10
91.06439517675373
 20
-137.4524174656368
 30
0.0
 10
93.50678150333215
 20
-137.4524174656368
 30
0.0
 10
93.50678150333215
 20
-137.4524174656368
 30
0.0
 10
93.50678150333215
 20
-137.4524174656368
 30
0.0
 10
93.50678150333215
 20
-139.2004666318668
 30
0.0
 10
93.50678150333215
 20
-139.2004666318668
 30
0.0
 10
93.50678150333215
 20
-139.2004666318668
 30
0.0
 10
97.29674362886438
 20
-139.2004666318668
 30
0.0
 10
97.29674362886438
 20
-139.2004666318668
 30
0.0
 10
97.29674362886438
 20
-139.2004666318668
 30
0.0
 10
97.29674362886438
 20
-137.4365777434189
 30
0.0
 10
97.29674362886438
 20
-137.4365777434189
 30
0.0
 10
97.29674362886438
 20
-137.4365777434189
 30
0.0
 10
98.00744972184387
 20
-137.4365777434189
 30
0.0
 10
98.00744972184387
 20
-137.4365777434189
 30
0.0
 10
98.00744972184387
 20
-137.4365777434189
 30
0.0
 10
98.00744972184387
 20
-139.9521655205674
 30
0.0
 10
98.00744972184387
 20
-139.9521655205674
 30
0.0
 10
98.00744972184387
 20
-139.9521655205674
 30
0.0
 10
85.50708698519914
 20
-139.9521655205674
 30
0.0
 10
85.50708698519914
 20
-139.9521655205674
 30
0.0
 10
85.50708698519914
 20
-139.9521655205674
 30
0.0
 10
85.47868837481253
 20
-118.6802652481078
 30
0.0
 10
85.47868837481253
 20
-118.6802652481078
 30
0.0
  0
HATCH
  5
56
330
1F
100
AcDbEntity
  8
_U+30EC_U+30A4_U+30E4_U+30FC 1
 62
   253
420
 11711154
100
AcDbHatch
 10
0.0
 20
0.0
 30
0.0
210
0.0
220
0.0
230
1.0
  2
SOLID
 70
     1
 71
     0
 91
        1
 92
        1
 93
        1
 72
     4
 94
        3
 73
     0
 74
     1
 95
       56
 96
       52
 40
0.0
 40
0.0
 40
0.0
 40
0.0
 40
1.0
 40
1.0
 40
1.0
 40
2.0
 40
2.0
 40
2.0
 40
3.0
 40
3.0
 40
3.0
 40
4.0
 40
4.0
 40
4.0
 40
5.0
 40
5.0
 40
5.0
 40
6.0
 40
6.0
 40
6.0
 40
7.0
 40
7.0
 40
7.0
 40
8.0
 40
8.0
 40
8.0
 40
9.0
 40
9.0
 40
9.0
 40
10.0
 40
10.0
 40
10.0
 40
11.0
 40
11.0
 40
11.0
 40
12.0
 40
12.0
 40
12.0
 40
13.0
 40
13.0
 40
13.0
 40
14.0
 40
14.0
 40
14.0
 40
15.0
 40
15.0
 40
15.0
 40
16.0
 40
16.0
 40
16.0
 40
17.0
 40
17.0
 40
17.0
 40
17.0
 10
85.47868837481253
 20
-118.6802652481078
 10
85.47868837481253
 20
-118.6802652481078
 10
85.5376022621984
 20
-117.8277777483208
 10
86.15496335755932
 20
-118.3569444148552
 10
86.15496335755932
 20
-118.3569444148552
 10
87.24257721870087
 20
-119.1801513590938
 10
87.24257721870087
 20
-119.1801513590938
 10
87.24257721870087
 20
-119.1801513590938
 10
87.18383972019939
 20
-120.0913763588661
 10
87.18383972019939
 20
-120.0913763588661
 10
87.18383972019939
 20
-120.0913763588661
 10
86.18424391236788
 20
-119.7680555256135
 10
86.18424391236788
 20
-119.7680555256135
 10
86.18424391236788
 20
-119.7680555256135
 10
86.18424391236788
 20
-139.259027742963
 10
86.18424391236788
 20
-139.259027742963
 10
86.18424391236788
 20
-139.259027742963
 10
92.82810763175767
 20
-139.259027742963
 10
92.82810763175767
 20
-139.259027742963
 10
92.82810763175767
 20
-139.259027742963
 10
92.82810763175767
 20
-138.1714138543458
 10
92.82810763175767
 20
-138.1714138543458
 10
92.82810763175767
 20
-138.1714138543458
 10
91.06439517675373
 20
-138.1714138543458
 10
91.06439517675373
 20
-138.1714138543458
 10
91.06439517675373
 20
-138.1714138543458
 10
91.06439517675373
 20
-137.4524174656368
 10
91.06439517675373
 20
-137.4524174656368
 10
91.06439517675373
 20
-137.4524174656368
 10
93.50678150333215
 20
-137.4524174656368
 10
93.50678150333215
 20
-137.4524174656368
 10
93.50678150333215
 20
-137.4524174656368
 10
93.50678150333215
 20
-139.2004666318668
 10
93.50678150333215
 20
-139.2004666318668
 10
93.50678150333215
 20
-139.2004666318668
 10
97.29674362886438
 20
-139.2004666318668
 10
97.29674362886438
 20
-139.2004666318668
 10
97.29674362886438
 20
-139.2004666318668
 10
97.29674362886438
 20
-137.4365777434189
 10
97.29674362886438
 20
-137.4365777434189
 10
97.29674362886438
 20
-137.4365777434189
 10
98.00744972184387
 20
-137.4365777434189
 10
98.00744972184387
 20
-137.4365777434189
 10
98.00744972184387
 20
-137.4365777434189
 10
98.00744972184387
 20
-139.9521655205674
 10
98.00744972184387
 20
-139.9521655205674
 10
98.00744972184387
 20
-139.9521655205674
 10
85.50708698519914
 20
-139.9521655205674
 10
85.50708698519914
 20
-139.9521655205674
 10
85.50708698519914
 20
-139.9521655205674
 10
85.47868837481253
 20
-118.6802652481078
 10
85.47868837481253
 20
-118.6802652481078
 97
        0
 97
        0
 75
     2
 76
     1
 98
        0
  0
POLYLINE
  5
57
330
1F
100
AcDbEntity
  8
_U+30EC_U+30A4_U+30E4_U+30FC 1
 62
   179
420
  2234388
370
    25
100
AcDb2dPolyline
 66
     1
 10
0.0
 20
0.0
 30
0.0
  0
VERTEX
  5
58
330
57
100
AcDbEntity
  8
_U+30EC_U+30A4_U+30E4_U+30FC 1
 62
   179
420
  2234388
370
    25
100
AcDbVertex
100
AcDb2dVertex
 10
85.50708698519914
 20
-139.9521655205674
 30
0.0
  0
VERTEX
  5
59
330
57
100
AcDbEntity
  8
_U+30EC_U+30A4_U+30E4_U+30FC 1
 62
   179
420
  2234388
370
    25
100
AcDbVertex
100
AcDb2dVertex
 10
98.00744972184387
 20
-139.9521655205674
 30
0.0
  0
SEQEND
  5
5A
330
57
100
AcDbEntity
  8
_U+30EC_U+30A4_U+30E4_U+30FC 1
 62
   179
420
  2234388
370
    25
  0
POLYLINE
  5
5B
330
1F
100
AcDbEntity
  8
_U+30EC_U+30A4_U+30E4_U+30FC 1
 62
   179
420
  2234388
370
    25
100
AcDb2dPolyline
 66
     1
 10
0.0
 20
0.0
 30
0.0
  0
VERTEX
  5
5C
330
5B
100
AcDbEntity
  8
_U+30EC_U+30A4_U+30E4_U+30FC 1
 62
   179
420
  2234388
370
    25
100
AcDbVertex
100
AcDb2dVertex
 10
98.00744972184387
 20
-137.4524174656368
 30
0.0
  0
VERTEX
  5
5D
330
5B
100
AcDbEntity
  8
_U+30EC_U+30A4_U+30E4_U+30FC 1
 62
   179
420
  2234388
370
    25
100
AcDbVertex
100
AcDb2dVertex
 10
98.00744972184387
 20
-139.9521655205674
 30
0.0
  0
SEQEND
  5
5E
330
5B
100
AcDbEntity
  8
_U+30EC_U+30A4_U+30E4_U+30FC 1
 62
   179
420
  2234388
370
    25
  0
POLYLINE
  5
5F
330
1F
100
AcDbEntity
  8
_U+30EC_U+30A4_U+30E4_U+30FC 1
 62
   179
420
  2234388
370
    25
100
AcDb2dPolyline
 66
     1
 10
0.0
 20
0.0
 30
0.0
  0
VERTEX
  5
60
330
5F
100
AcDbEntity
  8
_U+30EC_U+30A4_U+30E4_U+30FC 1
 62
   179
420
  2234388
370
    25
100
AcDbVertex
100
AcDb2dVertex
 10
91.00717462265798
 20
-137.4524174656368
 30
0.0
  0
VERTEX
  5
61
330
5F
100
AcDbEntity
  8
_U+30EC_U+30A4_U+30E4_U+30FC 1
 62
   179
420
  2234388
370
    25
100
AcDbVertex
100
AcDb2dVertex
 10
93.50678150333215
 20
-137.4524174656368
 30
0.0
  0
SEQEND
  5
62
330
5F
100
AcDbEntity
  8
_U+30EC_U+30A4_U+30E4_U+30FC 1
 62
   179
420
  2234388
370
    25
  0
POLYLINE
  5
63
330
1F
100
AcDbEntity
  8
_U+30EC_U+30A4_U+30E4_U+30FC 1
 62
   179
420
  2234388
370
    25
100
AcDb2dPolyline
 66
     1
 10
0.0
 20
0.0
 30
0.0
  0
VERTEX
  5
64
330
63
100
AcDbEntity
  8
_U+30EC_U+30A4_U+30E4_U+30FC 1
 62
   179
420
  2234388
370
    25
100
AcDbVertex
100
AcDb2dVertex
 10
91.00717462265798
 20
-137.4524174656368
 30
0.0
  0
VERTEX
  5
65
330
63
100
AcDbEntity
  8
_U+30EC_U+30A4_U+30E4_U+30FC 1
 62
   179
420
  2234388
370
    25
100
AcDbVertex
100
AcDb2dVertex
 10
91.00717462265798
 20
-138.1524696876844
 30
0.0
  0
SEQEND
  5
66
330
63
100
AcDbEntity
  8
_U+30EC_U+30A4_U+30E4_U+30FC 1
 62
   179
420
  2234388
370
    25
  0
POLYLINE
  5
67
330
1F
100
AcDbEntity
  8
_U+30EC_U+30A4_U+30E4_U+30FC 1
 62
   179
420
  2234388
370
    25
100
AcDb2dPolyline
 66
     1
 10
0.0
 20
0.0
 30
0.0
  0
VERTEX
  5
68
330
67
100
AcDbEntity
  8
_U+30EC_U+30A4_U+30E4_U+30FC 1
 62
   179
420
  2234388
370
    25
100
AcDbVertex
100
AcDb2dVertex
 10
86.20713918956154
 20
-139.252148576298
 30
0.0
  0
VERTEX
  5
69
330
67
100
AcDbEntity
  8
_U+30EC_U+30A4_U+30E4_U+30FC 1
 62
   179
420
  2234388
370
    25
100
AcDbVertex
100
AcDb2dVertex
 10
92.8074348545073
 20
-139.252148576298
 30
0.0
  0
SEQEND
  5
6A
330
67
100
AcDbEntity
  8
_U+30EC_U+30A4_U+30E4_U+30FC 1
 62
   179
420
  2234388
370
    25
  0
POLYLINE
  5
6B
330
1F
100
AcDbEntity
  8
_U+30EC_U+30A4_U+30E4_U+30FC 1
 62
   179
420
  2234388
370
    25
100
AcDb2dPolyline
 66
     1
 10
0.0
 20
0.0
 30
0.0
  0
VERTEX
  5
6C
330
6B
100
AcDbEntity
  8
_U+30EC_U+30A4_U+30E4_U+30FC 1
 62
   179
420
  2234388
370
    25
100
AcDbVertex
100
AcDb2dVertex
 10
92.8074348545073
 20
-138.1524696876844
 30
0.0
  0
VERTEX
  5
6D
330
6B
100
AcDbEntity
  8
_U+30EC_U+30A4_U+30E4_U+30FC 1
 62
   179
420
  2234388
370
    25
100
AcDbVertex
100
AcDb2dVertex
 10
92.8074348545073
 20
-139.252148576298
 30
0.0
  0
SEQEND
  5
6E
330
6B
100
AcDbEntity
  8
_U+30EC_U+30A4_U+30E4_U+30FC 1
 62
   179
420
  2234388
370
    25
  0
POLYLINE
  5
6F
330
1F
100
AcDbEntity
  8
_U+30EC_U+30A4_U+30E4_U+30FC 1
 62
   179
420
  2234388
370
    25
100
AcDb2dPolyline
 66
     1
 10
0.0
 20
0.0
 30
0.0
  0
VERTEX
  5
70
330
6F
100
AcDbEntity
  8
_U+30EC_U+30A4_U+30E4_U+30FC 1
 62
   179
420
  2234388
370
    25
100
AcDbVertex
100
AcDb2dVertex
 10
91.00717462265798
 20
-138.1524696876844
 30
0.0
  0
VERTEX
  5
71
330
6F
100
AcDbEntity
  8
_U+30EC_U+30A4_U+30E4_U+30FC 1
 62
   179
420
  2234388
370
    25
100
AcDbVertex
100
AcDb2dVertex
 10
92.8074348545073
 20
-138.1524696876844
 30
0.0
  0
SEQEND
  5
72
330
6F
100
AcDbEntity
  8
_U+30EC_U+30A4_U+30E4_U+30FC 1
 62
   179
420
  2234388
370
    25
  0
POLYLINE
  5
73
330
1F
100
AcDbEntity
  8
_U+30EC_U+30A4_U+30E4_U+30FC 1
 62
   179
420
  2234388
370
    25
100
AcDb2dPolyline
 66
     1
 10
0.0
 20
0.0
 30
0.0
  0
VERTEX
  5
74
330
73
100
AcDbEntity
  8
_U+30EC_U+30A4_U+30E4_U+30FC 1
 62
   179
420
  2234388
370
    25
100
AcDbVertex
100
AcDb2dVertex
 10
97.30739997567328
 20
-137.4524174656368
 30
0.0
  0
VERTEX
  5
75
330
73
100
AcDbEntity
  8
_U+30EC_U+30A4_U+30E4_U+30FC 1
 62
   179
420
  2234388
370
    25
100
AcDbVertex
100
AcDb2dVertex
 10
97.30739997567328
 20
-139.252148576298
 30
0.0
  0
SEQEND
  5
76
330
73
100
AcDbEntity
  8
_U+30EC_U+30A4_U+30E4_U+30FC 1
 62
   179
420
  2234388
370
    25
  0
POLYLINE
  5
77
330
1F
100
AcDbEntity
  8
_U+30EC_U+30A4_U+30E4_U+30FC 1
 62
   179
420
  2234388
370
    25
100
AcDb2dPolyline
 66
     1
 10
0.0
 20
0.0
 30
0.0
  0
VERTEX
  5
78
330
77
100
AcDbEntity
  8
_U+30EC_U+30A4_U+30E4_U+30FC 1
 62
   179
420
  2234388
370
    25
100
AcDbVertex
100
AcDb2dVertex
 10
93.50678150333215
 20
-139.252148576298
 30
0.0
  0
VERTEX
  5
79
330
77
100
AcDbEntity
  8
_U+30EC_U+30A4_U+30E4_U+30FC 1
 62
   179
420
  2234388
370
    25
100
AcDbVertex
100
AcDb2dVertex
 10
97.30739997567328
 20
-139.252148576298
 30
0.0
  0
SEQEND
  5
7A
330
77
100
AcDbEntity
  8
_U+30EC_U+30A4_U+30E4_U+30FC 1
 62
   179
420
  2234388
370
    25
  0
POLYLINE
  5
7B
330
1F
100
AcDbEntity
  8
_U+30EC_U+30A4_U+30E4_U+30FC 1
 62
   179
420
  2234388
370
    25
100
AcDb2dPolyline
 66
     1
 10
0.0
 20
0.0
 30
0.0
  0
VERTEX
  5
7C
330
7B
100
AcDbEntity
  8
_U+30EC_U+30A4_U+30E4_U+30FC 1
 62
   179
420
  2234388
370
    25
100
AcDbVertex
100
AcDb2dVertex
 10
93.50678150333215
 20
-137.4524174656368
 30
0.0
  0
VERTEX
  5
7D
330
7B
100
AcDbEntity
  8
_U+30EC_U+30A4_U+30E4_U+30FC 1
 62
   179
420
  2234388
370
    25
100
AcDbVertex
100
AcDb2dVertex
 10
93.50678150333215
 20
-139.252148576298
 30
0.0
  0
SEQEND
  5
7E
330
7B
100
AcDbEntity
  8
_U+30EC_U+30A4_U+30E4_U+30FC 1
 62
   179
420
  2234388
370
    25
  0
POLYLINE
  5
7F
330
1F
100
AcDbEntity
  8
_U+30EC_U+30A4_U+30E4_U+30FC 1
 62
   179
420
  2234388
370
    25
100
AcDb2dPolyline
 66
     1
 10
0.0
 20
0.0
 30
0.0
  0
VERTEX
  5
80
330
7F
100
AcDbEntity
  8
_U+30EC_U+30A4_U+30E4_U+30FC 1
 62
   179
420
  2234388
370
    25
100
AcDbVertex
100
AcDb2dVertex
 10
97.30739997567328
 20
-137.4524174656368
 30
0.0
  0
VERTEX
  5
81
330
7F
100
AcDbEntity
  8
_U+30EC_U+30A4_U+30E4_U+30FC 1
 62
   179
420
  2234388
370
    25
100
AcDbVertex
100
AcDb2dVertex
 10
98.00744972184387
 20
-137.4524174656368
 30
0.0
  0
SEQEND
  5
82
330
7F
100
AcDbEntity
  8
_U+30EC_U+30A4_U+30E4_U+30FC 1
 62
   179
420
  2234388
370
    25
  0
SPLINE
  5
83
330
1F
100
AcDbEntity
  8
_U+30EC_U+30A4_U+30E4_U+30FC 1
 62
   179
420
  2234388
370
     9
100
AcDbSpline
210
0.0
220
0.0
230
1.0
 70
    11
 71
     3
 72
    17
 73
    13
 74
     0
 42
0.0000000001
 43
0.0000000001
 12
1.0
 22
0.0
 32
0.0
 13
1.0
 23
0.0
 33
0.0
 40
0.0
 40
0.0
 40
0.0
 40
0.0
 40
1.0
 40
1.0
 40
1.0
 40
2.0
 40
2.0
 40
2.0
 40
3.0
 40
3.0
 40
3.0
 40
4.0
 40
4.0
 40
4.0
 40
4.0
 10
86.25709252162046
 20
-115.452031082248
 30
0.0
 10
86.25709252162046
 20
-115.4244791378106
 30
0.0
 10
86.23469113330307
 20
-115.4020777489272
 30
0.0
 10
86.20713918956154
 20
-115.4020777489272
 30
0.0
 10
86.17958724582
 20
-115.4020777489272
 30
0.0
 10
86.15718585750263
 20
-115.4244791378106
 30
0.0
 10
86.15718585750263
 20
-115.452031082248
 30
0.0
 10
86.15718585750263
 20
-115.4797594155743
 30
0.0
 10
86.17958724582
 20
-115.5019844155688
 30
0.0
 10
86.20713918956154
 20
-115.5019844155688
 30
0.0
 10
86.23469113330307
 20
-115.5019844155688
 30
0.0
 10
86.25709252162046
 20
-115.4797594155743
 30
0.0
 10
86.25709252162046
 20
-115.452031082248
 30
0.0
  0
SPLINE
  5
84
330
1F
100
AcDbEntity
  8
_U+30EC_U+30A4_U+30E4_U+30FC 1
 62
   179
420
  2234388
370
     9
100
AcDbSpline
210
0.0
220
0.0
230
1.0
 70
    11
 71
     3
 72
    17
 73
    13
 74
     0
 42
0.0000000001
 43
0.0000000001
 12
1.0
 22
0.0
 32
0.0
 13
1.0
 23
0.0
 33
0.0
 40
0.0
 40
0.0
 40
0.0
 40
0.0
 40
1.0
 40
1.0
 40
1.0
 40
2.0
 40
2.0
 40
2.0
 40
3.0
 40
3.0
 40
3.0
 40
4.0
 40
4.0
 40
4.0
 40
4.0
 10
85.55704031725806
 20
-115.452031082248
 30
0.0
 10
85.55704031725806
 20
-115.4244791378106
 30
0.0
 10
85.53463892894068
 20
-115.4020777489272
 30
0.0
 10
85.50708698519914
 20
-115.4020777489272
 30
0.0
 10
85.47953504145761
 20
-115.4020777489272
 30
0.0
 10
85.45713365314022
 20
-115.4244791378106
 30
0.0
 10
85.45713365314022
 20
-115.452031082248
 30
0.0
 10
85.45713365314022
 20
-115.4797594155743
 30
0.0
 10
85.47953504145761
 20
-115.5019844155688
 30
0.0
 10
85.50708698519914
 20
-115.5019844155688
 30
0.0
 10
85.53463892894068
 20
-115.5019844155688
 30
0.0
 10
85.55704031725806
 20
-115.4797594155743
 30
0.0
 10
85.55704031725806
 20
-115.452031082248
 30
0.0
  0
SPLINE
  5
85
330
1F
100
AcDbEntity
  8
_U+30EC_U+30A4_U+30E4_U+30FC 1
 62
   179
420
  2234388
370
     9
100
AcDbSpline
210
0.0
220
0.0
230
1.0
 70
    11
 71
     3
 72
    17
 73
    13
 74
     0
 42
0.0000000001
 43
0.0000000001
 12
1.0
 22
0.0
 32
0.0
 13
1.0
 23
0.0
 33
0.0
 40
0.0
 40
0.0
 40
0.0
 40
0.0
 40
1.0
 40
1.0
 40
1.0
 40
2.0
 40
2.0
 40
2.0
 40
3.0
 40
3.0
 40
3.0
 40
4.0
 40
4.0
 40
4.0
 40
4.0
 10
81.65736430563597
 20
-118.1590360815715
 30
0.0
 10
81.65736430563597
 20
-118.1314488593562
 30
0.0
 10
81.63499819509546
 20
-118.1090827482506
 30
0.0
 10
81.60741097357705
 20
-118.1090827482506
 30
0.0
 10
81.57986109071615
 20
-118.1090827482506
 30
0.0
 10
81.55745764151813
 20
-118.1314488593562
 30
0.0
 10
81.55745764151813
 20
-118.1590360815715
 30
0.0
 10
81.55745764151813
 20
-118.1865880260089
 30
0.0
 10
81.57986109071615
 20
-118.2089894148923
 30
0.0
 10
81.60741097357705
 20
-118.2089894148923
 30
0.0
 10
81.63499819509546
 20
-118.2089894148923
 30
0.0
 10
81.65736430563597
 20
-118.1865880260089
 30
0.0
 10
81.65736430563597
 20
-118.1590360815715
 30
0.0
  0
SPLINE
  5
86
330
1F
100
AcDbEntity
  8
_U+30EC_U+30A4_U+30E4_U+30FC 1
 62
   179
420
  2234388
370
     9
100
AcDbSpline
210
0.0
220
0.0
230
1.0
 70
    11
 71
     3
 72
    17
 73
    13
 74
     0
 42
0.0000000001
 43
0.0000000001
 12
1.0
 22
0.0
 32
0.0
 13
1.0
 23
0.0
 33
0.0
 40
0.0
 40
0.0
 40
0.0
 40
0.0
 40
1.0
 40
1.0
 40
1.0
 40
2.0
 40
2.0
 40
2.0
 40
3.0
 40
3.0
 40
3.0
 40
4.0
 40
4.0
 40
4.0
 40
4.0
 10
81.65736430563597
 20
-139.9521655205674
 30
0.0
 10
81.65736430563597
 20
-139.9246135761296
 30
0.0
 10
81.63499819509546
 20
-139.9018946872467
 30
0.0
 10
81.60741097357705
 20
-139.9018946872467
 30
0.0
 10
81.57986109071615
 20
-139.9018946872467
 30
0.0
 10
81.55745764151813
 20
-139.9246135761296
 30
0.0
 10
81.55745764151813
 20
-139.9521655205674
 30
0.0
 10
81.55745764151813
 20
-139.9797527427827
 30
0.0
 10
81.57986109071615
 20
-140.0024716316663
 30
0.0
 10
81.60741097357705
 20
-140.0024716316663
 30
0.0
 10
81.63499819509546
 20
-140.0024716316663
 30
0.0
 10
81.65736430563597
 20
-139.9797527427827
 30
0.0
 10
81.65736430563597
 20
-139.9521655205674
 30
0.0
  0
SPLINE
  5
87
330
1F
100
AcDbEntity
  8
_U+30EC_U+30A4_U+30E4_U+30FC 1
 62
   179
420
  2234388
370
     9
100
AcDbSpline
210
0.0
220
0.0
230
1.0
 70
    11
 71
     3
 72
    17
 73
    13
 74
     0
 42
0.0000000001
 43
0.0000000001
 12
1.0
 22
0.0
 32
0.0
 13
1.0
 23
0.0
 33
0.0
 40
0.0
 40
0.0
 40
0.0
 40
0.0
 40
1.0
 40
1.0
 40
1.0
 40
2.0
 40
2.0
 40
2.0
 40
3.0
 40
3.0
 40
3.0
 40
4.0
 40
4.0
 40
4.0
 40
4.0
 10
85.55704031725806
 20
-141.9524155200674
 30
0.0
 10
85.55704031725806
 20
-141.9248282978521
 30
0.0
 10
85.53463892894068
 20
-141.9021094089691
 30
0.0
 10
85.50708698519914
 20
-141.9021094089691
 30
0.0
 10
85.47953504145761
 20
-141.9021094089691
 30
0.0
 10
85.45713365314022
 20
-141.9248282978521
 30
0.0
 10
85.45713365314022
 20
-141.9524155200674
 30
0.0
 10
85.45713365314022
 20
-141.9799674645052
 30
0.0
 10
85.47953504145761
 20
-142.0020160756108
 30
0.0
 10
85.50708698519914
 20
-142.0020160756108
 30
0.0
 10
85.53463892894068
 20
-142.0020160756108
 30
0.0
 10
85.55704031725806
 20
-141.9799674645052
 30
0.0
 10
85.55704031725806
 20
-141.9524155200674
 30
0.0
  0
SPLINE
  5
88
330
1F
100
AcDbEntity
  8
_U+30EC_U+30A4_U+30E4_U+30FC 1
 62
   179
420
  2234388
370
     9
100
AcDbSpline
210
0.0
220
0.0
230
1.0
 70
    11
 71
     3
 72
    17
 73
    13
 74
     0
 42
0.0000000001
 43
0.0000000001
 12
1.0
 22
0.0
 32
0.0
 13
1.0
 23
0.0
 33
0.0
 40
0.0
 40
0.0
 40
0.0
 40
0.0
 40
1.0
 40
1.0
 40
1.0
 40
2.0
 40
2.0
 40
2.0
 40
3.0
 40
3.0
 40
3.0
 40
4.0
 40
4.0
 40
4.0
 40
4.0
 10
100.0573027527636
 20
-139.9521655205674
 30
0.0
 10
100.0573027527636
 20
-139.9246135761296
 30
0.0
 10
100.0345460590172
 20
-139.9018946872467
 30
0.0
 10
100.0069941152757
 20
-139.9018946872467
 30
0.0
 10
99.97944217153415
 20
-139.9018946872467
 30
0.0
 10
99.95739356098555
 20
-139.9246135761296
 30
0.0
 10
99.95739356098555
 20
-139.9521655205674
 30
0.0
 10
99.95739356098555
 20
-139.9797527427827
 30
0.0
 10
99.97944217153415
 20
-140.0024716316663
 30
0.0
 10
100.0069941152757
 20
-140.0024716316663
 30
0.0
 10
100.0345460590172
 20
-140.0024716316663
 30
0.0
 10
100.0573027527636
 20
-139.9797527427827
 30
0.0
 10
100.0573027527636
 20
-139.9521655205674
 30
0.0
  0
SPLINE
  5
89
330
1F
100
AcDbEntity
  8
_U+30EC_U+30A4_U+30E4_U+30FC 1
 62
   179
420
  2234388
370
     9
100
AcDbSpline
210
0.0
220
0.0
230
1.0
 70
    11
 71
     3
 72
    17
 73
    13
 74
     0
 42
0.0000000001
 43
0.0000000001
 12
1.0
 22
0.0
 32
0.0
 13
1.0
 23
0.0
 33
0.0
 40
0.0
 40
0.0
 40
0.0
 40
0.0
 40
1.0
 40
1.0
 40
1.0
 40
2.0
 40
2.0
 40
2.0
 40
3.0
 40
3.0
 40
3.0
 40
4.0
 40
4.0
 40
4.0
 40
4.0
 10
100.0573027527636
 20
-137.4524174656368
 30
0.0
 10
100.0573027527636
 20
-137.4248655211996
 30
0.0
 10
100.0345460590172
 20
-137.4021113545385
 30
0.0
 10
100.0069941152757
 20
-137.4021113545385
 30
0.0
 10
99.97944217153415
 20
-137.4021113545385
 30
0.0
 10
99.95739356098555
 20
-137.4248655211996
 30
0.0
 10
99.95739356098555
 20
-137.4524174656368
 30
0.0
 10
99.95739356098555
 20
-137.4799694100746
 30
0.0
 10
99.97944217153415
 20
-137.5020180211802
 30
0.0
 10
100.0069941152757
 20
-137.5020180211802
 30
0.0
 10
100.0345460590172
 20
-137.5020180211802
 30
0.0
 10
100.0573027527636
 20
-137.4799694100746
 30
0.0
 10
100.0573027527636
 20
-137.4524174656368
 30
0.0
  0
SPLINE
  5
8A
330
1F
100
AcDbEntity
  8
_U+30EC_U+30A4_U+30E4_U+30FC 1
 62
   179
420
  2234388
370
     9
100
AcDbSpline
210
0.0
220
0.0
230
1.0
 70
    11
 71
     3
 72
    17
 73
    13
 74
     0
 42
0.0000000001
 43
0.0000000001
 12
1.0
 22
0.0
 32
0.0
 13
1.0
 23
0.0
 33
0.0
 40
0.0
 40
0.0
 40
0.0
 40
0.0
 40
1.0
 40
1.0
 40
1.0
 40
2.0
 40
2.0
 40
2.0
 40
3.0
 40
3.0
 40
3.0
 40
4.0
 40
4.0
 40
4.0
 40
4.0
 10
93.55708761315985
 20
-135.452202743915
 30
0.0
 10
93.55708761315985
 20
-135.4246507994772
 30
0.0
 10
93.53503900261124
 20
-135.4018966328161
 30
0.0
 10
93.50678150333215
 20
-135.4018966328161
 30
0.0
 10
93.47922955959062
 20
-135.4018966328161
 30
0.0
 10
93.45718330996893
 20
-135.4246507994772
 30
0.0
 10
93.45718330996893
 20
-135.452202743915
 30
0.0
 10
93.45718330996893
 20
-135.4797546883521
 30
0.0
 10
93.47922955959062
 20
-135.5025088550132
 30
0.0
 10
93.50678150333215
 20
-135.5025088550132
 30
0.0
 10
93.53503900261124
 20
-135.5025088550132
 30
0.0
 10
93.55708761315985
 20
-135.4797546883521
 30
0.0
 10
93.55708761315985
 20
-135.452202743915
 30
0.0
  0
SPLINE
  5
8B
330
1F
100
AcDbEntity
  8
_U+30EC_U+30A4_U+30E4_U+30FC 1
 62
   179
420
  2234388
370
     9
100
AcDbSpline
210
0.0
220
0.0
230
1.0
 70
    11
 71
     3
 72
    17
 73
    13
 74
     0
 42
0.0000000001
 43
0.0000000001
 12
1.0
 22
0.0
 32
0.0
 13
1.0
 23
0.0
 33
0.0
 40
0.0
 40
0.0
 40
0.0
 40
0.0
 40
1.0
 40
1.0
 40
1.0
 40
2.0
 40
2.0
 40
2.0
 40
3.0
 40
3.0
 40
3.0
 40
4.0
 40
4.0
 40
4.0
 40
4.0
 10
91.0571279547169
 20
-135.452202743915
 30
0.0
 10
91.0571279547169
 20
-135.4246507994772
 30
0.0
 10
91.0347618441764
 20
-135.4018966328161
 30
0.0
 10
91.00717462265798
 20
-135.4018966328161
 30
0.0
 10
90.97962497725526
 20
-135.4018966328161
 30
0.0
 10
90.95722129059907
 20
-135.4246507994772
 30
0.0
 10
90.95722129059907
 20
-135.452202743915
 30
0.0
 10
90.95722129059907
 20
-135.4797546883521
 30
0.0
 10
90.97962497725526
 20
-135.5025088550132
 30
0.0
 10
91.00717462265798
 20
-135.5025088550132
 30
0.0
 10
91.0347618441764
 20
-135.5025088550132
 30
0.0
 10
91.0571279547169
 20
-135.4797546883521
 30
0.0
 10
91.0571279547169
 20
-135.452202743915
 30
0.0
  0
SPLINE
  5
8C
330
1F
100
AcDbEntity
  8
_U+30EC_U+30A4_U+30E4_U+30FC 1
 62
   179
420
  2234388
370
     9
100
AcDbSpline
210
0.0
220
0.0
230
1.0
 70
    11
 71
     3
 72
    17
 73
    13
 74
     0
 42
0.0000000001
 43
0.0000000001
 12
1.0
 22
0.0
 32
0.0
 13
1.0
 23
0.0
 33
0.0
 40
0.0
 40
0.0
 40
0.0
 40
0.0
 40
1.0
 40
1.0
 40
1.0
 40
2.0
 40
2.0
 40
2.0
 40
3.0
 40
3.0
 40
3.0
 40
4.0
 40
4.0
 40
4.0
 40
4.0
 10
98.05705275326363
 20
-141.9524155200674
 30
0.0
 10
98.05705275326363
 20
-141.9248282978521
 30
0.0
 10
98.03500166558541
 20
-141.9021094089691
 30
0.0
 10
98.00744972184387
 20
-141.9021094089691
 30
0.0
 10
97.97919222256478
 20
-141.9021094089691
 30
0.0
 10
97.95714361201618
 20
-141.9248282978521
 30
0.0
 10
97.95714361201618
 20
-141.9524155200674
 30
0.0
 10
97.95714361201618
 20
-141.9799674645052
 30
0.0
 10
97.97919222256478
 20
-142.0020160756108
 30
0.0
 10
98.00744972184387
 20
-142.0020160756108
 30
0.0
 10
98.03500166558541
 20
-142.0020160756108
 30
0.0
 10
98.05705275326363
 20
-141.9799674645052
 30
0.0
 10
98.05705275326363
 20
-141.9524155200674
 30
0.0
  0
POLYLINE
  5
8D
330
1F
100
AcDbEntity
  8
_U+30EC_U+30A4_U+30E4_U+30FC 1
 62
   179
420
  2234388
370
     9
100
AcDb2dPolyline
 66
     1
 10
0.0
 20
0.0
 30
0.0
  0
VERTEX
  5
8E
330
8D
100
AcDbEntity
  8
_U+30EC_U+30A4_U+30E4_U+30FC 1
 62
   179
420
  2234388
370
     9
100
AcDbVertex
100
AcDb2dVertex
 10
86.20713918956154
 20
-115.452031082248
 30
0.0
  0
VERTEX
  5
8F
330
8D
100
AcDbEntity
  8
_U+30EC_U+30A4_U+30E4_U+30FC 1
 62
   179
420
  2234388
370
     9
100
AcDbVertex
100
AcDb2dVertex
 10
88.8360744002696
 20
-115.452031082248
 30
0.0
  0
SEQEND
  5
90
330
8D
100
AcDbEntity
  8
_U+30EC_U+30A4_U+30E4_U+30FC 1
 62
   179
420
  2234388
370
     9
  0
POLYLINE
  5
91
330
1F
100
AcDbEntity
  8
_U+30EC_U+30A4_U+30E4_U+30FC 1
 62
   179
420
  2234388
370
     9
100
AcDb2dPolyline
 66
     1
 10
0.0
 20
0.0
 30
0.0
  0
VERTEX
  5
92
330
91
100
AcDbEntity
  8
_U+30EC_U+30A4_U+30E4_U+30FC 1
 62
   179
420
  2234388
370
     9
100
AcDbVertex
100
AcDb2dVertex
 10
85.00720088684119
 20
-115.452031082248
 30
0.0
  0
VERTEX
  5
93
330
91
100
AcDbEntity
  8
_U+30EC_U+30A4_U+30E4_U+30FC 1
 62
   179
420
  2234388
370
     9
100
AcDbVertex
100
AcDb2dVertex
 10
86.20713918956154
 20
-115.452031082248
 30
0.0
  0
SEQEND
  5
94
330
91
100
AcDbEntity
  8
_U+30EC_U+30A4_U+30E4_U+30FC 1
 62
   179
420
  2234388
370
     9
  0
POLYLINE
  5
95
330
1F
100
AcDbEntity
  8
_U+30EC_U+30A4_U+30E4_U+30FC 1
 62
   179
420
  2234388
370
     9
100
AcDb2dPolyline
 66
     1
 10
0.0
 20
0.0
 30
0.0
  0
VERTEX
  5
96
330
95
100
AcDbEntity
  8
_U+30EC_U+30A4_U+30E4_U+30FC 1
 62
   179
420
  2234388
370
     9
100
AcDbVertex
100
AcDb2dVertex
 10
85.50708698519914
 20
-116.1820694153989
 30
0.0
  0
VERTEX
  5
97
330
95
100
AcDbEntity
  8
_U+30EC_U+30A4_U+30E4_U+30FC 1
 62
   179
420
  2234388
370
     9
100
AcDbVertex
100
AcDb2dVertex
 10
85.50708698519914
 20
-114.9521449712621
 30
0.0
  0
SEQEND
  5
98
330
95
100
AcDbEntity
  8
_U+30EC_U+30A4_U+30E4_U+30FC 1
 62
   179
420
  2234388
370
     9
  0
POLYLINE
  5
99
330
1F
100
AcDbEntity
  8
_U+30EC_U+30A4_U+30E4_U+30FC 1
 62
   179
420
  2234388
370
     9
100
AcDb2dPolyline
 66
     1
 10
0.0
 20
0.0
 30
0.0
  0
VERTEX
  5
9A
330
99
100
AcDbEntity
  8
_U+30EC_U+30A4_U+30E4_U+30FC 1
 62
   179
420
  2234388
370
     9
100
AcDbVertex
100
AcDb2dVertex
 10
86.20713918956154
 20
-116.1820694153989
 30
0.0
  0
VERTEX
  5
9B
330
99
100
AcDbEntity
  8
_U+30EC_U+30A4_U+30E4_U+30FC 1
 62
   179
420
  2234388
370
     9
100
AcDbVertex
100
AcDb2dVertex
 10
86.20713918956154
 20
-114.9521449712621
 30
0.0
  0
SEQEND
  5
9C
330
99
100
AcDbEntity
  8
_U+30EC_U+30A4_U+30E4_U+30FC 1
 62
   179
420
  2234388
370
     9
  0
INSERT
  5
9E
330
1F
100
AcDbEntity
  8
_U+30EC_U+30A4_U+30E4_U+30FC 1
100
AcDbBlockReference
  2
block 2
 10
0.0
 20
0.0
 30
0.0
  0
INSERT
  5
C1
330
1F
100
AcDbEntity
  8
_U+30EC_U+30A4_U+30E4_U+30FC 1
100
AcDbBlockReference
  2
block 3
 10
0.0
 20
0.0
 30
0.0
  0
POLYLINE
  5
C5
330
1F
100
AcDbEntity
  8
_U+30EC_U+30A4_U+30E4_U+30FC 1
 62
   179
420
  2234388
370
     9
100
AcDb2dPolyline
 66
     1
 10
0.0
 20
0.0
 30
0.0
  0
VERTEX
  5
C6
330
C5
100
AcDbEntity
  8
_U+30EC_U+30A4_U+30E4_U+30FC 1
 62
   179
420
  2234388
370
     9
100
AcDbVertex
100
AcDb2dVertex
 10
91.00717462265798
 20
-135.452202743915
 30
0.0
  0
VERTEX
  5
C7
330
C5
100
AcDbEntity
  8
_U+30EC_U+30A4_U+30E4_U+30FC 1
 62
   179
420
  2234388
370
     9
100
AcDbVertex
100
AcDb2dVertex
 10
93.50678150333215
 20
-135.452202743915
 30
0.0
  0
SEQEND
  5
C8
330
C5
100
AcDbEntity
  8
_U+30EC_U+30A4_U+30E4_U+30FC 1
 62
   179
420
  2234388
370
     9
  0
POLYLINE
  5
C9
330
1F
100
AcDbEntity
  8
_U+30EC_U+30A4_U+30E4_U+30FC 1
 62
   179
420
  2234388
370
     9
100
AcDb2dPolyline
 66
     1
 10
0.0
 20
0.0
 30
0.0
  0
VERTEX
  5
CA
330
C9
100
AcDbEntity
  8
_U+30EC_U+30A4_U+30E4_U+30FC 1
 62
   179
420
  2234388
370
     9
100
AcDbVertex
100
AcDb2dVertex
 10
91.00717462265798
 20
-136.18185302151
 30
0.0
  0
VERTEX
  5
CB
330
C9
100
AcDbEntity
  8
_U+30EC_U+30A4_U+30E4_U+30FC 1
 62
   179
420
  2234388
370
     9
100
AcDbVertex
100
AcDb2dVertex
 10
91.00717462265798
 20
-134.9519638551506
 30
0.0
  0
SEQEND
  5
CC
330
C9
100
AcDbEntity
  8
_U+30EC_U+30A4_U+30E4_U+30FC 1
 62
   179
420
  2234388
370
     9
  0
POLYLINE
  5
CD
330
1F
100
AcDbEntity
  8
_U+30EC_U+30A4_U+30E4_U+30FC 1
 62
   179
420
  2234388
370
     9
100
AcDb2dPolyline
 66
     1
 10
0.0
 20
0.0
 30
0.0
  0
VERTEX
  5
CE
330
CD
100
AcDbEntity
  8
_U+30EC_U+30A4_U+30E4_U+30FC 1
 62
   179
420
  2234388
370
     9
100
AcDbVertex
100
AcDb2dVertex
 10
93.50678150333215
 20
-136.18185302151
 30
0.0
  0
VERTEX
  5
CF
330
CD
100
AcDbEntity
  8
_U+30EC_U+30A4_U+30E4_U+30FC 1
 62
   179
420
  2234388
370
     9
100
AcDbVertex
100
AcDb2dVertex
 10
93.50678150333215
 20
-134.9519638551506
 30
0.0
  0
SEQEND
  5
D0
330
CD
100
AcDbEntity
  8
_U+30EC_U+30A4_U+30E4_U+30FC 1
 62
   179
420
  2234388
370
     9
  0
INSERT
  5
D2
330
1F
100
AcDbEntity
  8
_U+30EC_U+30A4_U+30E4_U+30FC 1
100
AcDbBlockReference
  2
block 4
 10
0.0
 20
0.0
 30
0.0
  0
INSERT
  5
D8
330
1F
100
AcDbEntity
  8
_U+30EC_U+30A4_U+30E4_U+30FC 1
100
AcDbBlockReference
  2
block 5
 10
0.0
 20
0.0
 30
0.0
  0
INSERT
  5
DD
330
1F
100
AcDbEntity
  8
_U+30EC_U+30A4_U+30E4_U+30FC 1
100
AcDbBlockReference
  2
block 6
 10
0.0
 20
0.0
 30
0.0
  0
INSERT
  5
E2
330
1F
100
AcDbEntity
  8
_U+30EC_U+30A4_U+30E4_U+30FC 1
100
AcDbBlockReference
  2
block 7
 10
0.0
 20
0.0
 30
0.0
  0
POLYLINE
  5
E6
330
1F
100
AcDbEntity
  8
_U+30EC_U+30A4_U+30E4_U+30FC 1
 62
   179
420
  2234388
370
     9
100
AcDb2dPolyline
 66
     1
 10
0.0
 20
0.0
 30
0.0
  0
VERTEX
  5
E7
330
E6
100
AcDbEntity
  8
_U+30EC_U+30A4_U+30E4_U+30FC 1
 62
   179
420
  2234388
370
     9
100
AcDbVertex
100
AcDb2dVertex
 10
100.0069941152757
 20
-137.4524174656368
 30
0.0
  0
VERTEX
  5
E8
330
E6
100
AcDbEntity
  8
_U+30EC_U+30A4_U+30E4_U+30FC 1
 62
   179
420
  2234388
370
     9
100
AcDbVertex
100
AcDb2dVertex
 10
100.0069941152757
 20
-139.9521655205674
 30
0.0
  0
SEQEND
  5
E9
330
E6
100
AcDbEntity
  8
_U+30EC_U+30A4_U+30E4_U+30FC 1
 62
   179
420
  2234388
370
     9
  0
POLYLINE
  5
EA
330
1F
100
AcDbEntity
  8
_U+30EC_U+30A4_U+30E4_U+30FC 1
 62
   179
420
  2234388
370
     9
100
AcDb2dPolyline
 66
     1
 10
0.0
 20
0.0
 30
0.0
  0
VERTEX
  5
EB
330
EA
100
AcDbEntity
  8
_U+30EC_U+30A4_U+30E4_U+30FC 1
 62
   179
420
  2234388
370
     9
100
AcDbVertex
100
AcDb2dVertex
 10
99.27731108629153
 20
-137.4524174656368
 30
0.0
  0
VERTEX
  5
EC
330
EA
100
AcDbEntity
  8
_U+30EC_U+30A4_U+30E4_U+30FC 1
 62
   179
420
  2234388
370
     9
100
AcDbVertex
100
AcDb2dVertex
 10
100.5071977136255
 20
-137.4524174656368
 30
0.0
  0
SEQEND
  5
ED
330
EA
100
AcDbEntity
  8
_U+30EC_U+30A4_U+30E4_U+30FC 1
 62
   179
420
  2234388
370
     9
  0
POLYLINE
  5
EE
330
1F
100
AcDbEntity
  8
_U+30EC_U+30A4_U+30E4_U+30FC 1
 62
   179
420
  2234388
370
     9
100
AcDb2dPolyline
 66
     1
 10
0.0
 20
0.0
 30
0.0
  0
VERTEX
  5
EF
330
EE
100
AcDbEntity
  8
_U+30EC_U+30A4_U+30E4_U+30FC 1
 62
   179
420
  2234388
370
     9
100
AcDbVertex
100
AcDb2dVertex
 10
99.27731108629153
 20
-139.9521655205674
 30
0.0
  0
VERTEX
  5
F0
330
EE
100
AcDbEntity
  8
_U+30EC_U+30A4_U+30E4_U+30FC 1
 62
   179
420
  2234388
370
     9
100
AcDbVertex
100
AcDb2dVertex
 10
100.5071977136255
 20
-139.9521655205674
 30
0.0
  0
SEQEND
  5
F1
330
EE
100
AcDbEntity
  8
_U+30EC_U+30A4_U+30E4_U+30FC 1
 62
   179
420
  2234388
370
     9
  0
INSERT
  5
F3
330
1F
100
AcDbEntity
  8
_U+30EC_U+30A4_U+30E4_U+30FC 1
100
AcDbBlockReference
  2
block 8
 10
0.0
 20
0.0
 30
0.0
  0
INSERT
  5
F9
330
1F
100
AcDbEntity
  8
_U+30EC_U+30A4_U+30E4_U+30FC 1
100
AcDbBlockReference
  2
block 9
 10
0.0
 20
0.0
 30
0.0
  0
INSERT
  5
FE
330
1F
100
AcDbEntity
  8
_U+30EC_U+30A4_U+30E4_U+30FC 1
100
AcDbBlockReference
  2
block 10
 10
0.0
 20
0.0
 30
0.0
  0
INSERT
  5
103
330
1F
100
AcDbEntity
  8
_U+30EC_U+30A4_U+30E4_U+30FC 1
100
AcDbBlockReference
  2
block 11
 10
0.0
 20
0.0
 30
0.0
  0
POLYLINE
  5
107
330
1F
100
AcDbEntity
  8
_U+30EC_U+30A4_U+30E4_U+30FC 1
 62
   179
420
  2234388
370
     9
100
AcDb2dPolyline
 66
     1
 10
0.0
 20
0.0
 30
0.0
  0
VERTEX
  5
108
330
107
100
AcDbEntity
  8
_U+30EC_U+30A4_U+30E4_U+30FC 1
 62
   179
420
  2234388
370
     9
100
AcDbVertex
100
AcDb2dVertex
 10
85.50708698519914
 20
-141.9524155200674
 30
0.0
  0
VERTEX
  5
109
330
107
100
AcDbEntity
  8
_U+30EC_U+30A4_U+30E4_U+30FC 1
 62
   179
420
  2234388
370
     9
100
AcDbVertex
100
AcDb2dVertex
 10
98.00744972184387
 20
-141.9524155200674
 30
0.0
  0
SEQEND
  5
10A
330
107
100
AcDbEntity
  8
_U+30EC_U+30A4_U+30E4_U+30FC 1
 62
   179
420
  2234388
370
     9
  0
POLYLINE
  5
10B
330
1F
100
AcDbEntity
  8
_U+30EC_U+30A4_U+30E4_U+30FC 1
 62
   179
420
  2234388
370
     9
100
AcDb2dPolyline
 66
     1
 10
0.0
 20
0.0
 30
0.0
  0
VERTEX
  5
10C
330
10B
100
AcDbEntity
  8
_U+30EC_U+30A4_U+30E4_U+30FC 1
 62
   179
420
  2234388
370
     9
100
AcDbVertex
100
AcDb2dVertex
 10
85.50708698519914
 20
-141.2220596869169
 30
0.0
  0
VERTEX
  5
10D
330
10B
100
AcDbEntity
  8
_U+30EC_U+30A4_U+30E4_U+30FC 1
 62
   179
420
  2234388
370
     9
100
AcDbVertex
100
AcDb2dVertex
 10
85.50708698519914
 20
-142.4519488532762
 30
0.0
  0
SEQEND
  5
10E
330
10B
100
AcDbEntity
  8
_U+30EC_U+30A4_U+30E4_U+30FC 1
 62
   179
420
  2234388
370
     9
  0
POLYLINE
  5
10F
330
1F
100
AcDbEntity
  8
_U+30EC_U+30A4_U+30E4_U+30FC 1
 62
   179
420
  2234388
370
     9
100
AcDb2dPolyline
 66
     1
 10
0.0
 20
0.0
 30
0.0
  0
VERTEX
  5
110
330
10F
100
AcDbEntity
  8
_U+30EC_U+30A4_U+30E4_U+30FC 1
 62
   179
420
  2234388
370
     9
100
AcDbVertex
100
AcDb2dVertex
 10
98.00744972184387
 20
-141.2220596869169
 30
0.0
  0
VERTEX
  5
111
330
10F
100
AcDbEntity
  8
_U+30EC_U+30A4_U+30E4_U+30FC 1
 62
   179
420
  2234388
370
     9
100
AcDbVertex
100
AcDb2dVertex
 10
98.00744972184387
 20
-142.4519488532762
 30
0.0
  0
SEQEND
  5
112
330
10F
100
AcDbEntity
  8
_U+30EC_U+30A4_U+30E4_U+30FC 1
 62
   179
420
  2234388
370
     9
  0
INSERT
  5
114
330
1F
100
AcDbEntity
  8
_U+30EC_U+30A4_U+30E4_U+30FC 1
100
AcDbBlockReference
  2
block 12
 10
0.0
 20
0.0
 30
0.0
  0
INSERT
  5
11C
330
1F
100
AcDbEntity
  8
_U+30EC_U+30A4_U+30E4_U+30FC 1
100
AcDbBlockReference
  2
block 13
 10
0.0
 20
0.0
 30
0.0
  0
INSERT
  5
121
330
1F
100
AcDbEntity
  8
_U+30EC_U+30A4_U+30E4_U+30FC 1
100
AcDbBlockReference
  2
block 14
 10
0.0
 20
0.0
 30
0.0
  0
INSERT
  5
126
330
1F
100
AcDbEntity
  8
_U+30EC_U+30A4_U+30E4_U+30FC 1
100
AcDbBlockReference
  2
block 15
 10
0.0
 20
0.0
 30
0.0
  0
POLYLINE
  5
12A
330
1F
100
AcDbEntity
  8
_U+30EC_U+30A4_U+30E4_U+30FC 1
 62
   179
420
  2234388
370
     9
100
AcDb2dPolyline
 66
     1
 10
0.0
 20
0.0
 30
0.0
  0
VERTEX
  5
12B
330
12A
100
AcDbEntity
  8
_U+30EC_U+30A4_U+30E4_U+30FC 1
 62
   179
420
  2234388
370
     9
100
AcDbVertex
100
AcDb2dVertex
 10
81.60741097357705
 20
-118.1590360815715
 30
0.0
  0
VERTEX
  5
12C
330
12A
100
AcDbEntity
  8
_U+30EC_U+30A4_U+30E4_U+30FC 1
 62
   179
420
  2234388
370
     9
100
AcDbVertex
100
AcDb2dVertex
 10
81.60741097357705
 20
-139.9521655205674
 30
0.0
  0
SEQEND
  5
12D
330
12A
100
AcDbEntity
  8
_U+30EC_U+30A4_U+30E4_U+30FC 1
 62
   179
420
  2234388
370
     9
  0
POLYLINE
  5
12E
330
1F
100
AcDbEntity
  8
_U+30EC_U+30A4_U+30E4_U+30FC 1
 62
   179
420
  2234388
370
     9
100
AcDb2dPolyline
 66
     1
 10
0.0
 20
0.0
 30
0.0
  0
VERTEX
  5
12F
330
12E
100
AcDbEntity
  8
_U+30EC_U+30A4_U+30E4_U+30FC 1
 62
   179
420
  2234388
370
     9
100
AcDbVertex
100
AcDb2dVertex
 10
82.33744928828555
 20
-118.1590360815715
 30
0.0
  0
VERTEX
  5
130
330
12E
100
AcDbEntity
  8
_U+30EC_U+30A4_U+30E4_U+30FC 1
 62
   179
420
  2234388
370
     9
100
AcDbVertex
100
AcDb2dVertex
 10
81.10720737522719
 20
-118.1590360815715
 30
0.0
  0
SEQEND
  5
131
330
12E
100
AcDbEntity
  8
_U+30EC_U+30A4_U+30E4_U+30FC 1
 62
   179
420
  2234388
370
     9
  0
POLYLINE
  5
132
330
1F
100
AcDbEntity
  8
_U+30EC_U+30A4_U+30E4_U+30FC 1
 62
   179
420
  2234388
370
     9
100
AcDb2dPolyline
 66
     1
 10
0.0
 20
0.0
 30
0.0
  0
VERTEX
  5
133
330
132
100
AcDbEntity
  8
_U+30EC_U+30A4_U+30E4_U+30FC 1
 62
   179
420
  2234388
370
     9
100
AcDbVertex
100
AcDb2dVertex
 10
83.84225813878358
 20
-139.9521655205674
 30
0.0
  0
VERTEX
  5
134
330
132
100
AcDbEntity
  8
_U+30EC_U+30A4_U+30E4_U+30FC 1
 62
   179
420
  2234388
370
     9
100
AcDbVertex
100
AcDb2dVertex
 10
81.10720737522719
 20
-139.9521655205674
 30
0.0
  0
SEQEND
  5
135
330
132
100
AcDbEntity
  8
_U+30EC_U+30A4_U+30E4_U+30FC 1
 62
   179
420
  2234388
370
     9
  0
INSERT
  5
137
330
1F
100
AcDbEntity
  8
_U+30EC_U+30A4_U+30E4_U+30FC 1
100
AcDbBlockReference
  2
block 16
 10
0.0
 20
0.0
 30
0.0
  0
INSERT
  5
152
330
1F
100
AcDbEntity
  8
_U+30EC_U+30A4_U+30E4_U+30FC 1
100
AcDbBlockReference
  2
block 17
 10
0.0
 20
0.0
 30
0.0
  0
INSERT
  5
157
330
1F
100
AcDbEntity
  8
_U+30EC_U+30A4_U+30E4_U+30FC 1
100
AcDbBlockReference
  2
block 18
 10
0.0
 20
0.0
 30
0.0
  0
POLYLINE
  5
15B
330
1F
100
AcDbEntity
  8
_U+30EC_U+30A4_U+30E4_U+30FC 1
 62
   179
420
  2234388
370
    25
100
AcDb2dPolyline
 66
     1
 10
0.0
 20
0.0
 30
0.0
  0
VERTEX
  5
15C
330
15B
100
AcDbEntity
  8
_U+30EC_U+30A4_U+30E4_U+30FC 1
 62
   179
420
  2234388
370
    25
100
AcDbVertex
100
AcDb2dVertex
 10
85.50708698519914
 20
-118.5017949703746
 30
0.0
  0
VERTEX
  5
15D
330
15B
100
AcDbEntity
  8
_U+30EC_U+30A4_U+30E4_U+30FC 1
 62
   179
420
  2234388
370
    25
100
AcDbVertex
100
AcDb2dVertex
 10
85.50708698519914
 20
-139.9521655205674
 30
0.0
  0
SEQEND
  5
15E
330
15B
100
AcDbEntity
  8
_U+30EC_U+30A4_U+30E4_U+30FC 1
 62
   179
420
  2234388
370
    25
  0
POLYLINE
  5
15F
330
1F
100
AcDbEntity
  8
_U+30EC_U+30A4_U+30E4_U+30FC 1
 62
   179
420
  2234388
370
    25
100
AcDb2dPolyline
 66
     1
 10
0.0
 20
0.0
 30
0.0
  0
VERTEX
  5
160
330
15F
100
AcDbEntity
  8
_U+30EC_U+30A4_U+30E4_U+30FC 1
 62
   179
420
  2234388
370
    25
100
AcDbVertex
100
AcDb2dVertex
 10
86.20678641179276
 20
-119.651779970087
 30
0.0
  0
VERTEX
  5
161
330
15F
100
AcDbEntity
  8
_U+30EC_U+30A4_U+30E4_U+30FC 1
 62
   179
420
  2234388
370
    25
100
AcDbVertex
100
AcDb2dVertex
 10
86.20678641179276
 20
-139.2352505207468
 30
0.0
  0
SEQEND
  5
162
330
15F
100
AcDbEntity
  8
_U+30EC_U+30A4_U+30E4_U+30FC 1
 62
   179
420
  2234388
370
    25
  0
POLYLINE
  5
163
330
1F
100
AcDbEntity
  8
_U+30EC_U+30A4_U+30E4_U+30FC 1
 62
   179
420
  2234388
370
    25
100
AcDb2dPolyline
 66
     1
 10
0.0
 20
0.0
 30
0.0
  0
VERTEX
  5
164
330
163
100
AcDbEntity
  8
_U+30EC_U+30A4_U+30E4_U+30FC 1
 62
   179
420
  2234388
370
    25
100
AcDbVertex
100
AcDb2dVertex
 10
87.20691138627745
 20
-119.1518938591008
 30
0.0
  0
VERTEX
  5
165
330
163
100
AcDbEntity
  8
_U+30EC_U+30A4_U+30E4_U+30FC 1
 62
   179
420
  2234388
370
    25
100
AcDbVertex
100
AcDb2dVertex
 10
87.20691138627745
 20
-120.1520188588508
 30
0.0
  0
SEQEND
  5
166
330
163
100
AcDbEntity
  8
_U+30EC_U+30A4_U+30E4_U+30FC 1
 62
   179
420
  2234388
370
    25
  0
POLYLINE
  5
167
330
1F
100
AcDbEntity
  8
_U+30EC_U+30A4_U+30E4_U+30FC 1
 62
   179
420
  2234388
370
    25
100
AcDb2dPolyline
 66
     1
 10
0.0
 20
0.0
 30
0.0
  0
VERTEX
  5
168
330
167
100
AcDbEntity
  8
_U+30EC_U+30A4_U+30E4_U+30FC 1
 62
   179
420
  2234388
370
    25
100
AcDbVertex
100
AcDb2dVertex
 10
86.20678641179276
 20
-119.651779970087
 30
0.0
  0
VERTEX
  5
169
330
167
100
AcDbEntity
  8
_U+30EC_U+30A4_U+30E4_U+30FC 1
 62
   179
420
  2234388
370
    25
100
AcDbVertex
100
AcDb2dVertex
 10
87.20691138627745
 20
-120.1520188588508
 30
0.0
  0
SEQEND
  5
16A
330
167
100
AcDbEntity
  8
_U+30EC_U+30A4_U+30E4_U+30FC 1
 62
   179
420
  2234388
370
    25
  0
POLYLINE
  5
16B
330
1F
100
AcDbEntity
  8
_U+30EC_U+30A4_U+30E4_U+30FC 1
 62
   179
420
  2234388
370
    25
100
AcDb2dPolyline
 66
     1
 10
0.0
 20
0.0
 30
0.0
  0
VERTEX
  5
16C
330
16B
100
AcDbEntity
  8
_U+30EC_U+30A4_U+30E4_U+30FC 1
 62
   179
420
  2234388
370
    25
100
AcDbVertex
100
AcDb2dVertex
 10
87.20691138627745
 20
-119.1518938591008
 30
0.0
  0
VERTEX
  5
16D
330
16B
100
AcDbEntity
  8
_U+30EC_U+30A4_U+30E4_U+30FC 1
 62
   179
420
  2234388
370
    25
100
AcDbVertex
100
AcDb2dVertex
 10
86.07830474840394
 20
-118.2306852482201
 30
0.0
  0
SEQEND
  5
16E
330
16B
100
AcDbEntity
  8
_U+30EC_U+30A4_U+30E4_U+30FC 1
 62
   179
420
  2234388
370
    25
  0
SPLINE
  5
16F
330
1F
100
AcDbEntity
  8
_U+30EC_U+30A4_U+30E4_U+30FC 1
 62
   179
420
  2234388
370
    25
100
AcDbSpline
210
0.0
220
0.0
230
1.0
 70
     8
 71
     3
 72
    11
 73
     7
 74
     0
 42
0.0000000001
 43
0.0000000001
 12
1.0
 22
0.0
 32
0.0
 13
1.0
 23
0.0
 33
0.0
 40
0.0
 40
0.0
 40
0.0
 40
0.0
 40
1.0
 40
1.0
 40
1.0
 40
2.0
 40
2.0
 40
2.0
 40
2.0
 10
86.07830474840394
 20
-118.2306852482201
 30
0.0
 10
85.92844475222718
 20
-118.1083771926951
 30
0.0
 10
85.70795864674115
 20
-118.1307785815785
 30
0.0
 10
85.58565275638121
 20
-118.2806385815409
 30
0.0
 10
85.53463892894068
 20
-118.3429744148587
 30
0.0
 10
85.50708698519914
 20
-118.4211852481725
 30
0.0
 10
85.50708698519914
 20
-118.5017949703746
 30
0.0
  0
INSERT
  5
171
330
1F
100
AcDbEntity
  8
_U+30EC_U+30A4_U+30E4_U+30FC 1
100
AcDbBlockReference
  2
block 19
 10
0.0
 20
0.0
 30
0.0
  0
INSERT
  5
176
330
1F
100
AcDbEntity
  8
_U+30EC_U+30A4_U+30E4_U+30FC 1
100
AcDbBlockReference
  2
block 20
 10
0.0
 20
0.0
 30
0.0
  0
POLYLINE
  5
185
330
1F
100
AcDbEntity
  8
_U+30EC_U+30A4_U+30E4_U+30FC 1
 62
   179
420
  2234388
370
     9
100
AcDb2dPolyline
 66
     1
 10
0.0
 20
0.0
 30
0.0
  0
VERTEX
  5
186
330
185
100
AcDbEntity
  8
_U+30EC_U+30A4_U+30E4_U+30FC 1
 62
   179
420
  2234388
370
     9
100
AcDbVertex
100
AcDb2dVertex
 10
84.44240367902813
 20
-135.5672788549972
 30
0.0
  0
VERTEX
  5
187
330
185
100
AcDbEntity
  8
_U+30EC_U+30A4_U+30E4_U+30FC 1
 62
   179
420
  2234388
370
     9
100
AcDbVertex
100
AcDb2dVertex
 10
84.44240367902813
 20
-139.9521655205674
 30
0.0
  0
SEQEND
  5
188
330
185
100
AcDbEntity
  8
_U+30EC_U+30A4_U+30E4_U+30FC 1
 62
   179
420
  2234388
370
     9
  0
POLYLINE
  5
189
330
1F
100
AcDbEntity
  8
_U+30EC_U+30A4_U+30E4_U+30FC 1
 62
   179
420
  2234388
370
     9
100
AcDb2dPolyline
 66
     1
 10
0.0
 20
0.0
 30
0.0
  0
VERTEX
  5
18A
330
189
100
AcDbEntity
  8
_U+30EC_U+30A4_U+30E4_U+30FC 1
 62
   179
420
  2234388
370
     9
100
AcDbVertex
100
AcDb2dVertex
 10
83.71236536431964
 20
-139.252818854076
 30
0.0
  0
VERTEX
  5
18B
330
189
100
AcDbEntity
  8
_U+30EC_U+30A4_U+30E4_U+30FC 1
 62
   179
420
  2234388
370
     9
100
AcDbVertex
100
AcDb2dVertex
 10
84.9422897773861
 20
-139.252818854076
 30
0.0
  0
SEQEND
  5
18C
330
189
100
AcDbEntity
  8
_U+30EC_U+30A4_U+30E4_U+30FC 1
 62
   179
420
  2234388
370
     9
  0
POLYLINE
  5
18D
330
1F
100
AcDbEntity
  8
_U+30EC_U+30A4_U+30E4_U+30FC 1
 62
   179
420
  2234388
370
     9
100
AcDb2dPolyline
 66
     1
 10
0.0
 20
0.0
 30
0.0
  0
VERTEX
  5
18E
330
18D
100
AcDbEntity
  8
_U+30EC_U+30A4_U+30E4_U+30FC 1
 62
   179
420
  2234388
370
     9
100
AcDbVertex
100
AcDb2dVertex
 10
83.71236536431964
 20
-139.9521655205674
 30
0.0
  0
VERTEX
  5
18F
330
18D
100
AcDbEntity
  8
_U+30EC_U+30A4_U+30E4_U+30FC 1
 62
   179
420
  2234388
370
     9
100
AcDbVertex
100
AcDb2dVertex
 10
84.9422897773861
 20
-139.9521655205674
 30
0.0
  0
SEQEND
  5
190
330
18D
100
AcDbEntity
  8
_U+30EC_U+30A4_U+30E4_U+30FC 1
 62
   179
420
  2234388
370
     9
  0
SPLINE
  5
191
330
1F
100
AcDbEntity
  8
_U+30EC_U+30A4_U+30E4_U+30FC 1
 62
   179
420
  2234388
370
     9
100
AcDbSpline
210
0.0
220
0.0
230
1.0
 70
    11
 71
     3
 72
    17
 73
    13
 74
     0
 42
0.0000000001
 43
0.0000000001
 12
1.0
 22
0.0
 32
0.0
 13
1.0
 23
0.0
 33
0.0
 40
0.0
 40
0.0
 40
0.0
 40
0.0
 40
1.0
 40
1.0
 40
1.0
 40
2.0
 40
2.0
 40
2.0
 40
3.0
 40
3.0
 40
3.0
 40
4.0
 40
4.0
 40
4.0
 40
4.0
 10
84.49182784443389
 20
-139.9521655205674
 30
0.0
 10
84.49182784443389
 20
-139.9246135761296
 30
0.0
 10
84.46942645611651
 20
-139.9025649650241
 30
0.0
 10
84.44187451237497
 20
-139.9025649650241
 30
0.0
 10
84.41432256863344
 20
-139.9025649650241
 30
0.0
 10
84.39192118031606
 20
-139.9246135761296
 30
0.0
 10
84.39192118031606
 20
-139.9521655205674
 30
0.0
 10
84.39192118031606
 20
-139.9797527427827
 30
0.0
 10
84.41432256863344
 20
-140.0024716316663
 30
0.0
 10
84.44187451237497
 20
-140.0024716316663
 30
0.0
 10
84.46942645611651
 20
-140.0024716316663
 30
0.0
 10
84.49182784443389
 20
-139.9797527427827
 30
0.0
 10
84.49182784443389
 20
-139.9521655205674
 30
0.0
  0
SPLINE
  5
192
330
1F
100
AcDbEntity
  8
_U+30EC_U+30A4_U+30E4_U+30FC 1
 62
   179
420
  2234388
370
     9
100
AcDbSpline
210
0.0
220
0.0
230
1.0
 70
    11
 71
     3
 72
    17
 73
    13
 74
     0
 42
0.0000000001
 43
0.0000000001
 12
1.0
 22
0.0
 32
0.0
 13
1.0
 23
0.0
 33
0.0
 40
0.0
 40
0.0
 40
0.0
 40
0.0
 40
1.0
 40
1.0
 40
1.0
 40
2.0
 40
2.0
 40
2.0
 40
3.0
 40
3.0
 40
3.0
 40
4.0
 40
4.0
 40
4.0
 40
4.0
 10
84.49235701108705
 20
-139.252818854076
 30
0.0
 10
84.49235701108705
 20
-139.2252669096382
 30
0.0
 10
84.46995562276967
 20
-139.2025127429771
 30
0.0
 10
84.44240367902813
 20
-139.2025127429771
 30
0.0
 10
84.41481645750973
 20
-139.2025127429771
 30
0.0
 10
84.39245034696923
 20
-139.2252669096382
 30
0.0
 10
84.39245034696923
 20
-139.252818854076
 30
0.0
 10
84.39245034696923
 20
-139.2803707985131
 30
0.0
 10
84.41481645750973
 20
-139.3024194096187
 30
0.0
 10
84.44240367902813
 20
-139.3024194096187
 30
0.0
 10
84.46995562276967
 20
-139.3024194096187
 30
0.0
 10
84.49235701108705
 20
-139.2803707985131
 30
0.0
 10
84.49235701108705
 20
-139.252818854076
 30
0.0
  0
ENDSEC
  0
SECTION
  2
OBJECTS
  0
DICTIONARY
  5
C
330
0
100
AcDbDictionary
281
     1
  3
ACAD_GROUP
350
D
  3
ACAD_LAYOUT
350
1A
  3
ACAD_MATERIAL
350
3B
  3
ACAD_MLEADERSTYLE
350
194
  3
ACAD_MLINESTYLE
350
17
  3
ACAD_PLOTSETTINGS
350
19
  3
ACAD_PLOTSTYLENAME
350
E
  3
ACAD_TABLESTYLE
350
193
  3
ACAD_VISUALSTYLE
350
2A
  0
SUN
  5
3F
330
29
100
AcDbSun
 90
        1
290
     0
 63
     7
421
 16777215
 40
1.0
291
     1
 91
  2455826
 92
 54000000
292
     0
 70
     2
 71
   256
280
     1
  0
DICTIONARY
  5
D
102
{ACAD_REACTORS
330
C
102
}
330
C
100
AcDbDictionary
281
     1
  0
DICTIONARY
  5
1A
102
{ACAD_REACTORS
330
C
102
}
330
C
100
AcDbDictionary
281
     1
  3
Layout1
350
1E
  3
Layout2
350
26
  3
Model
350
22
  0
DICTIONARY
  5
3B
102
{ACAD_REACTORS
330
C
102
}
330
C
100
AcDbDictionary
281
     1
  3
ByBlock
350
3D
  3
ByLayer
350
3C
  3
Global
350
3E
  0
DICTIONARY
  5
194
102
{ACAD_REACTORS
330
C
102
}
330
C
100
AcDbDictionary
281
     1
  0
DICTIONARY
  5
17
102
{ACAD_REACTORS
330
C
102
}
330
C
100
AcDbDictionary
281
     1
  3
Standard
350
18
  0
DICTIONARY
  5
19
102
{ACAD_REACTORS
330
C
102
}
330
C
100
AcDbDictionary
281
     1
  0
ACDBDICTIONARYWDFLT
  5
E
102
{ACAD_REACTORS
330
C
102
}
330
C
100
AcDbDictionary
281
     1
  3
Normal
350
F
100
AcDbDictionaryWithDefault
340
F
  0
DICTIONARY
  5
193
102
{ACAD_REACTORS
330
C
102
}
330
C
100
AcDbDictionary
281
     1
  0
DICTIONARY
  5
2A
102
{ACAD_REACTORS
330
C
102
}
330
C
100
AcDbDictionary
281
     1
  3
2dWireframe
350
2F
  3
3D Hidden
350
31
  3
3dWireframe
350
30
  3
Basic
350
32
  3
Brighten
350
36
  3
ColorChange
350
3A
  3
Conceptual
350
34
  3
Dim
350
35
  3
Facepattern
350
39
  3
Flat
350
2B
  3
FlatWithEdges
350
2C
  3
Gouraud
350
2D
  3
GouraudWithEdges
350
2E
  3
Linepattern
350
38
  3
Realistic
350
33
  3
Thicken
350
37
  0
LAYOUT
  5
1E
102
{ACAD_REACTORS
330
1A
102
}
330
1A
100
AcDbPlotSettings
  1

  2
none_device
  4

  6

 40
0.0
 41
0.0
 42
0.0
 43
0.0
 44
0.0
 45
0.0
 46
0.0
 47
0.0
 48
0.0
 49
0.0
140
0.0
141
0.0
142
1.0
143
1.0
 70
   688
 72
     0
 73
     0
 74
     5
  7

 75
    16
 76
     0
 77
     2
 78
   300
147
1.0
148
0.0
149
0.0
100
AcDbLayout
  1
Layout1
 70
     1
 71
     1
 10
0.0
 20
0.0
 11
12.0
 21
9.0
 12
0.0
 22
0.0
 32
0.0
 14
1.000000000000000E+20
 24
1.000000000000000E+20
 34
1.000000000000000E+20
 15
-1.000000000000000E+20
 25
-1.000000000000000E+20
 35
-1.000000000000000E+20
146
0.0
 13
0.0
 23
0.0
 33
0.0
 16
1.0
 26
0.0
 36
0.0
 17
0.0
 27
1.0
 37
0.0
 76
     0
330
1B
  0
LAYOUT
  5
26
102
{ACAD_REACTORS
330
1A
102
}
330
1A
100
AcDbPlotSettings
  1

  2
none_device
  4

  6

 40
0.0
 41
0.0
 42
0.0
 43
0.0
 44
0.0
 45
0.0
 46
0.0
 47
0.0
 48
0.0
 49
0.0
140
0.0
141
0.0
142
1.0
143
1.0
 70
   688
 72
     0
 73
     0
 74
     5
  7

 75
    16
 76
     0
 77
     2
 78
   300
147
1.0
148
0.0
149
0.0
100
AcDbLayout
  1
Layout2
 70
     1
 71
     2
 10
0.0
 20
0.0
 11
0.0
 21
0.0
 12
0.0
 22
0.0
 32
0.0
 14
0.0
 24
0.0
 34
0.0
 15
0.0
 25
0.0
 35
0.0
146
0.0
 13
0.0
 23
0.0
 33
0.0
 16
1.0
 26
0.0
 36
0.0
 17
0.0
 27
1.0
 37
0.0
 76
     0
330
23
  0
LAYOUT
  5
22
102
{ACAD_REACTORS
330
1A
102
}
330
1A
100
AcDbPlotSettings
  1

  2
none_device
  4

  6

 40
0.0
 41
0.0
 42
0.0
 43
0.0
 44
0.0
 45
0.0
 46
0.0
 47
0.0
 48
0.0
 49
0.0
140
0.0
141
0.0
142
1.0
143
1.0
 70
  1712
 72
     0
 73
     0
 74
     0
  7

 75
     0
 76
     0
 77
     2
 78
   300
147
1.0
148
0.0
149
0.0
100
AcDbLayout
  1
Model
 70
     1
 71
     0
 10
0.0
 20
0.0
 11
12.0
 21
9.0
 12
0.0
 22
0.0
 32
0.0
 14
1.000000000000000E+20
 24
1.000000000000000E+20
 34
1.000000000000000E+20
 15
-1.000000000000000E+20
 25
-1.000000000000000E+20
 35
-1.000000000000000E+20
146
0.0
 13
0.0
 23
0.0
 33
0.0
 16
1.0
 26
0.0
 36
0.0
 17
0.0
 27
1.0
 37
0.0
 76
     0
330
1F
331
29
  0
MATERIAL
  5
3D
102
{ACAD_REACTORS
330
3B
102
}
330
3B
100
AcDbMaterial
  1
ByBlock
 72
     1
 94
      127
  0
MATERIAL
  5
3C
102
{ACAD_REACTORS
330
3B
102
}
330
3B
100
AcDbMaterial
  1
ByLayer
 72
     1
 94
      127
  0
MATERIAL
  5
3E
102
{ACAD_REACTORS
330
3B
102
}
330
3B
100
AcDbMaterial
  1
Global
 72
     1
 94
      127
  0
MLINESTYLE
  5
18
102
{ACAD_REACTORS
330
17
102
}
330
17
100
AcDbMlineStyle
  2
Standard
 70
     0
  3

 62
   256
 51
90.0
 52
90.0
 71
     2
 49
0.5
 62
   256
  6
BYLAYER
 49
-0.5
 62
   256
  6
BYLAYER
  0
ACDBPLACEHOLDER
  5
F
102
{ACAD_REACTORS
330
E
102
}
330
E
  0
VISUALSTYLE
  5
2F
102
{ACAD_REACTORS
330
2A
102
}
330
2A
100
AcDbVisualStyle
  2
2dWireframe
 70
     4
177
     2
291
     0
 71
     0
176
     1
 72
     2
176
     1
 73
     0
176
     1
 90
        0
176
     1
 40
-0.6
176
     1
 41
-30.0
176
     1
 62
     5
 63
     7
421
 16777215
176
     1
 74
     1
176
     1
 91
        4
176
     1
 64
     7
176
     1
 65
   257
176
     1
 75
     1
176
     1
175
     1
176
     1
 42
1.0
176
     1
 92
        0
176
     1
 66
   257
176
     1
 43
1.0
176
     1
 76
     1
176
     1
 77
     6
176
     1
 78
     2
176
     1
 67
     7
176
     1
 79
     5
176
     1
170
     0
176
     1
171
     0
176
     1
290
     0
176
     1
 93
        1
176
     1
 44
0.0
176
     1
173
     0
176
     1
  0
VISUALSTYLE
  5
31
102
{ACAD_REACTORS
330
2A
102
}
330
2A
100
AcDbVisualStyle
  2
3D Hidden
 70
     6
177
     2
291
     0
 71
     1
176
     1
 72
     2
176
     1
 73
     2
176
     1
 90
        0
176
     1
 40
-0.6
176
     1
 41
-30.0
176
     1
 62
     5
 63
     7
421
 16777215
176
     1
 74
     2
176
     1
 91
        2
176
     1
 64
     7
176
     1
 65
   257
176
     1
 75
     2
176
     1
175
     1
176
     1
 42
40.0
176
     1
 92
        0
176
     1
 66
   257
176
     1
 43
1.0
176
     1
 76
     1
176
     1
 77
     6
176
     1
 78
     2
176
     1
 67
     7
176
     1
 79
     3
176
     1
170
     0
176
     1
171
     0
176
     1
290
     0
176
     1
 93
        1
176
     1
 44
0.0
176
     1
173
     0
176
     1
  0
VISUALSTYLE
  5
30
102
{ACAD_REACTORS
330
2A
102
}
330
2A
100
AcDbVisualStyle
  2
3dWireframe
 70
     5
177
     2
291
     0
 71
     0
176
     1
 72
     2
176
     1
 73
     0
176
     1
 90
        0
176
     1
 40
-0.6
176
     1
 41
-30.0
176
     1
 62
     5
 63
     7
421
 16777215
176
     1
 74
     1
176
     1
 91
        4
176
     1
 64
     7
176
     1
 65
   257
176
     1
 75
     1
176
     1
175
     1
176
     1
 42
1.0
176
     1
 92
        0
176
     1
 66
   257
176
     1
 43
1.0
176
     1
 76
     1
176
     1
 77
     6
176
     1
 78
     2
176
     1
 67
     7
176
     1
 79
     5
176
     1
170
     0
176
     1
171
     0
176
     1
290
     0
176
     1
 93
        1
176
     1
 44
0.0
176
     1
173
     0
176
     1
  0
VISUALSTYLE
  5
32
102
{ACAD_REACTORS
330
2A
102
}
330
2A
100
AcDbVisualStyle
  2
Basic
 70
     7
177
     2
291
     1
 71
     1
176
     1
 72
     0
176
     1
 73
     1
176
     1
 90
        0
176
     1
 40
-0.6
176
     1
 41
-30.0
176
     1
 62
     5
 63
     7
421
 16777215
176
     1
 74
     0
176
     1
 91
        4
176
     1
 64
     7
176
     1
 65
   257
176
     1
 75
     1
176
     1
175
     1
176
     1
 42
1.0
176
     1
 92
        8
176
     1
 66
     7
176
     1
 43
1.0
176
     1
 76
     1
176
     1
 77
     6
176
     1
 78
     2
176
     1
 67
     7
176
     1
 79
     5
176
     1
170
     0
176
     1
171
     0
176
     1
290
     0
176
     1
 93
        1
176
     1
 44
0.0
176
     1
173
     0
176
     1
  0
VISUALSTYLE
  5
36
102
{ACAD_REACTORS
330
2A
102
}
330
2A
100
AcDbVisualStyle
  2
Brighten
 70
    12
177
     2
291
     1
 71
     2
176
     1
 72
     2
176
     1
 73
     0
176
     1
 90
        0
176
     1
 40
-0.6
176
     1
 41
-30.0
176
     1
 62
     5
 63
     7
421
 16777215
176
     1
 74
     1
176
     1
 91
        4
176
     1
 64
     7
176
     1
 65
   257
176
     1
 75
     1
176
     1
175
     1
176
     1
 42
1.0
176
     1
 92
        8
176
     1
 66
     7
176
     1
 43
1.0
176
     1
 76
     1
176
     1
 77
     6
176
     1
 78
     2
176
     1
 67
     7
176
     1
 79
     5
176
     1
170
     0
176
     1
171
     0
176
     1
290
     0
176
     1
 93
        1
176
     1
 44
50.0
176
     1
173
     0
176
     1
  0
VISUALSTYLE
  5
3A
102
{ACAD_REACTORS
330
2A
102
}
330
2A
100
AcDbVisualStyle
  2
ColorChange
 70
    16
177
     2
291
     1
 71
     2
176
     1
 72
     2
176
     1
 73
     3
176
     1
 90
        0
176
     1
 40
-0.6
176
     1
 41
-30.0
176
     1
 62
     5
 63
     8
421
  8421504
176
     1
 74
     1
176
     1
 91
        4
176
     1
 64
     7
176
     1
 65
   257
176
     1
 75
     1
176
     1
175
     1
176
     1
 42
1.0
176
     1
 92
        8
176
     1
 66
     8
424
  8421504
176
     1
 43
1.0
176
     1
 76
     1
176
     1
 77
     6
176
     1
 78
     2
176
     1
 67
     7
176
     1
 79
     5
176
     1
170
     0
176
     1
171
     0
176
     1
290
     0
176
     1
 93
        1
176
     1
 44
0.0
176
     1
173
     0
176
     1
  0
VISUALSTYLE
  5
34
102
{ACAD_REACTORS
330
2A
102
}
330
2A
100
AcDbVisualStyle
  2
Conceptual
 70
     9
177
     2
291
     0
 71
     3
176
     1
 72
     2
176
     1
 73
     0
176
     1
 90
        0
176
     1
 40
-0.6
176
     1
 41
-30.0
176
     1
 62
     5
 63
     7
421
 16777215
176
     1
 74
     2
176
     1
 91
        2
176
     1
 64
     7
176
     1
 65
   257
176
     1
 75
     1
176
     1
175
     1
176
     1
 42
40.0
176
     1
 92
        8
176
     1
 66
     7
176
     1
 43
1.0
176
     1
 76
     1
176
     1
 77
     6
176
     1
 78
     2
176
     1
 67
     7
176
     1
 79
     3
176
     1
170
     0
176
     1
171
     0
176
     1
290
     0
176
     1
 93
        1
176
     1
 44
0.0
176
     1
173
     0
176
     1
  0
VISUALSTYLE
  5
35
102
{ACAD_REACTORS
330
2A
102
}
330
2A
100
AcDbVisualStyle
  2
Dim
 70
    11
177
     2
291
     1
 71
     2
176
     1
 72
     2
176
     1
 73
     0
176
     1
 90
        0
176
     1
 40
-0.6
176
     1
 41
-30.0
176
     1
 62
     5
 63
     7
421
 16777215
176
     1
 74
     1
176
     1
 91
        4
176
     1
 64
     7
176
     1
 65
   257
176
     1
 75
     1
176
     1
175
     1
176
     1
 42
1.0
176
     1
 92
        8
176
     1
 66
     7
176
     1
 43
1.0
176
     1
 76
     1
176
     1
 77
     6
176
     1
 78
     2
176
     1
 67
     7
176
     1
 79
     5
176
     1
170
     0
176
     1
171
     0
176
     1
290
     0
176
     1
 93
        1
176
     1
 44
-50.0
176
     1
173
     0
176
     1
  0
VISUALSTYLE
  5
39
102
{ACAD_REACTORS
330
2A
102
}
330
2A
100
AcDbVisualStyle
  2
Facepattern
 70
    15
177
     2
291
     1
 71
     2
176
     1
 72
     2
176
     1
 73
     0
176
     1
 90
        0
176
     1
 40
-0.6
176
     1
 41
-30.0
176
     1
 62
     5
 63
     7
421
 16777215
176
     1
 74
     1
176
     1
 91
        4
176
     1
 64
     7
176
     1
 65
   257
176
     1
 75
     1
176
     1
175
     1
176
     1
 42
1.0
176
     1
 92
        8
176
     1
 66
     7
176
     1
 43
1.0
176
     1
 76
     1
176
     1
 77
     6
176
     1
 78
     2
176
     1
 67
     7
176
     1
 79
     5
176
     1
170
     0
176
     1
171
     0
176
     1
290
     0
176
     1
 93
        1
176
     1
 44
0.0
176
     1
173
     0
176
     1
  0
VISUALSTYLE
  5
2B
102
{ACAD_REACTORS
330
2A
102
}
330
2A
100
AcDbVisualStyle
  2
Flat
 70
     0
177
     2
291
     1
 71
     2
176
     1
 72
     1
176
     1
 73
     1
176
     1
 90
        2
176
     1
 40
-0.6
176
     1
 41
30.0
176
     1
 62
     5
 63
     7
421
 16777215
176
     1
 74
     0
176
     1
 91
        4
176
     1
 64
     7
176
     1
 65
   257
176
     1
 75
     1
176
     1
175
     1
176
     1
 42
1.0
176
     1
 92
        8
176
     1
 66
     7
176
     1
 43
1.0
176
     1
 76
     1
176
     1
 77
     6
176
     1
 78
     2
176
     1
 67
     7
176
     1
 79
     5
176
     1
170
     0
176
     1
171
     0
176
     1
290
     0
176
     1
 93
       13
176
     1
 44
0.0
176
     1
173
     0
176
     1
  0
VISUALSTYLE
  5
2C
102
{ACAD_REACTORS
330
2A
102
}
330
2A
100
AcDbVisualStyle
  2
FlatWithEdges
 70
     1
177
     2
291
     1
 71
     2
176
     1
 72
     1
176
     1
 73
     1
176
     1
 90
        2
176
     1
 40
-0.6
176
     1
 41
30.0
176
     1
 62
     5
 63
     7
421
 16777215
176
     1
 74
     1
176
     1
 91
        4
176
     1
 64
     7
176
     1
 65
   257
176
     1
 75
     1
176
     1
175
     1
176
     1
 42
1.0
176
     1
 92
        0
176
     1
 66
   257
176
     1
 43
1.0
176
     1
 76
     1
176
     1
 77
     6
176
     1
 78
     2
176
     1
 67
     7
176
     1
 79
     5
176
     1
170
     0
176
     1
171
     0
176
     1
290
     0
176
     1
 93
       13
176
     1
 44
0.0
176
     1
173
     0
176
     1
  0
VISUALSTYLE
  5
2D
102
{ACAD_REACTORS
330
2A
102
}
330
2A
100
AcDbVisualStyle
  2
Gouraud
 70
     2
177
     2
291
     1
 71
     2
176
     1
 72
     2
176
     1
 73
     1
176
     1
 90
        2
176
     1
 40
-0.6
176
     1
 41
30.0
176
     1
 62
     5
 63
     7
421
 16777215
176
     1
 74
     0
176
     1
 91
        4
176
     1
 64
     7
176
     1
 65
   257
176
     1
 75
     1
176
     1
175
     1
176
     1
 42
1.0
176
     1
 92
        0
176
     1
 66
     7
176
     1
 43
1.0
176
     1
 76
     1
176
     1
 77
     6
176
     1
 78
     2
176
     1
 67
     7
176
     1
 79
     5
176
     1
170
     0
176
     1
171
     0
176
     1
290
     0
176
     1
 93
       13
176
     1
 44
0.0
176
     1
173
     0
176
     1
  0
VISUALSTYLE
  5
2E
102
{ACAD_REACTORS
330
2A
102
}
330
2A
100
AcDbVisualStyle
  2
GouraudWithEdges
 70
     3
177
     2
291
     1
 71
     2
176
     1
 72
     2
176
     1
 73
     1
176
     1
 90
        2
176
     1
 40
-0.6
176
     1
 41
30.0
176
     1
 62
     5
 63
     7
421
 16777215
176
     1
 74
     1
176
     1
 91
        4
176
     1
 64
     7
176
     1
 65
   257
176
     1
 75
     1
176
     1
175
     1
176
     1
 42
1.0
176
     1
 92
        0
176
     1
 66
   257
176
     1
 43
1.0
176
     1
 76
     1
176
     1
 77
     6
176
     1
 78
     2
176
     1
 67
     7
176
     1
 79
     5
176
     1
170
     0
176
     1
171
     0
176
     1
290
     0
176
     1
 93
       13
176
     1
 44
0.0
176
     1
173
     0
176
     1
  0
VISUALSTYLE
  5
38
102
{ACAD_REACTORS
330
2A
102
}
330
2A
100
AcDbVisualStyle
  2
Linepattern
 70
    14
177
     2
291
     1
 71
     2
176
     1
 72
     2
176
     1
 73
     0
176
     1
 90
        0
176
     1
 40
-0.6
176
     1
 41
-30.0
176
     1
 62
     5
 63
     7
421
 16777215
176
     1
 74
     1
176
     1
 91
        4
176
     1
 64
     7
176
     1
 65
   257
176
     1
 75
     7
176
     1
175
     7
176
     1
 42
1.0
176
     1
 92
        8
176
     1
 66
     7
176
     1
 43
1.0
176
     1
 76
     1
176
     1
 77
     6
176
     1
 78
     2
176
     1
 67
     7
176
     1
 79
     5
176
     1
170
     0
176
     1
171
     0
176
     1
290
     0
176
     1
 93
        1
176
     1
 44
0.0
176
     1
173
     0
176
     1
  0
VISUALSTYLE
  5
33
102
{ACAD_REACTORS
330
2A
102
}
330
2A
100
AcDbVisualStyle
  2
Realistic
 70
     8
177
     2
291
     0
 71
     2
176
     1
 72
     2
176
     1
 73
     0
176
     1
 90
        0
176
     1
 40
-0.6
176
     1
 41
-30.0
176
     1
 62
     5
 63
     7
421
 16777215
176
     1
 74
     1
176
     1
 91
        0
176
     1
 64
     7
176
     1
 65
   257
176
     1
 75
     1
176
     1
175
     1
176
     1
 42
1.0
176
     1
 92
        8
176
     1
 66
     8
424
  7895160
176
     1
 43
1.0
176
     1
 76
     1
176
     1
 77
     6
176
     1
 78
     2
176
     1
 67
     7
176
     1
 79
     5
176
     1
170
     0
176
     1
171
     0
176
     1
290
     0
176
     1
 93
       13
176
     1
 44
0.0
176
     1
173
     0
176
     1
  0
VISUALSTYLE
  5
37
102
{ACAD_REACTORS
330
2A
102
}
330
2A
100
AcDbVisualStyle
  2
Thicken
 70
    13
177
     2
291
     1
 71
     2
176
     1
 72
     2
176
     1
 73
     0
176
     1
 90
        0
176
     1
 40
-0.6
176
     1
 41
-30.0
176
     1
 62
     5
 63
     7
421
 16777215
176
     1
 74
     1
176
     1
 91
        4
176
     1
 64
     7
176
     1
 65
   257
176
     1
 75
     1
176
     1
175
     1
176
     1
 42
1.0
176
     1
 92
       12
176
     1
 66
     7
176
     1
 43
1.0
176
     1
 76
     1
176
     1
 77
     6
176
     1
 78
     2
176
     1
 67
     7
176
     1
 79
     5
176
     1
170
     0
176
     1
171
     0
176
     1
290
     0
176
     1
 93
        1
176
     1
 44
0.0
176
     1
173
     0
176
     1
  0
ENDSEC
  0
EOF
