  0
SECTION
  2
HEADER
  9
$ACADVER
  1
AC1024
  9
$ACADMAINTVER
 70
     6
  9
$DWGCODEPAGE
  3
UNDEFINED
  9
$INSBASE
 10
0.0
 20
0.0
 30
0.0
  9
$EXTMIN
 10
1.000000000000000E+20
 20
1.000000000000000E+20
 30
1.000000000000000E+20
  9
$EXTMAX
 10
-1.000000000000000E+20
 20
-1.000000000000000E+20
 30
-1.000000000000000E+20
  9
$LIMMIN
 10
0.0
 20
0.0
  9
$LIMMAX
 10
12.0
 20
9.0
  9
$ORTHOMODE
 70
     0
  9
$REGENMODE
 70
     1
  9
$FILLMODE
 70
     1
  9
$QTEXTMODE
 70
     0
  9
$MIRRTEXT
 70
     1
  9
$LTSCALE
 40
1.0
  9
$ATTMODE
 70
     1
  9
$TEXTSIZE
 40
0.2
  9
$TRACEWID
 40
0.05
  9
$TEXTSTYLE
  7
Standard
  9
$CLAYER
  8
0
  9
$CELTYPE
  6
ByLayer
  9
$CECOLOR
 62
   256
  9
$CELTSCALE
 40
1.0
  9
$DISPSILH
 70
     0
  9
$DIMSCALE
 40
1.0
  9
$DIMASZ
 40
0.18
  9
$DIMEXO
 40
0.0625
  9
$DIMDLI
 40
0.38
  9
$DIMRND
 40
0.0
  9
$DIMDLE
 40
0.0
  9
$DIMEXE
 40
0.18
  9
$DIMTP
 40
0.0
  9
$DIMTM
 40
0.0
  9
$DIMTXT
 40
0.18
  9
$DIMCEN
 40
0.09
  9
$DIMTSZ
 40
0.0
  9
$DIMTOL
 70
     0
  9
$DIMLIM
 70
     0
  9
$DIMTIH
 70
     1
  9
$DIMTOH
 70
     1
  9
$DIMSE1
 70
     0
  9
$DIMSE2
 70
     0
  9
$DIMTAD
 70
     0
  9
$DIMZIN
 70
     0
  9
$DIMBLK
  1

  9
$DIMASO
 70
     1
  9
$DIMSHO
 70
     1
  9
$DIMPOST
  1

  9
$DIMAPOST
  1

  9
$DIMALT
 70
     0
  9
$DIMALTD
 70
     2
  9
$DIMALTF
 40
25.4
  9
$DIMLFAC
 40
1.0
  9
$DIMTOFL
 70
     0
  9
$DIMTVP
 40
0.0
  9
$DIMTIX
 70
     0
  9
$DIMSOXD
 70
     0
  9
$DIMSAH
 70
     0
  9
$DIMBLK1
  1

  9
$DIMBLK2
  1

  9
$DIMSTYLE
  2
Standard
  9
$DIMCLRD
 70
     0
  9
$DIMCLRE
 70
     0
  9
$DIMCLRT
 70
     0
  9
$DIMTFAC
 40
1.0
  9
$DIMGAP
 40
0.09
  9
$DIMJUST
 70
     0
  9
$DIMSD1
 70
     0
  9
$DIMSD2
 70
     0
  9
$DIMTOLJ
 70
     1
  9
$DIMTZIN
 70
     0
  9
$DIMALTZ
 70
     0
  9
$DIMALTTZ
 70
     0
  9
$DIMUPT
 70
     0
  9
$DIMDEC
 70
     4
  9
$DIMTDEC
 70
     4
  9
$DIMALTU
 70
     2
  9
$DIMALTTD
 70
     2
  9
$DIMTXSTY
  7
Standard
  9
$DIMAUNIT
 70
     0
  9
$DIMADEC
 70
     0
  9
$DIMALTRND
 40
0.0
  9
$DIMAZIN
 70
     0
  9
$DIMDSEP
 70
    46
  9
$DIMATFIT
 70
     3
  9
$DIMFRAC
 70
     0
  9
$DIMLDRBLK
  1

  9
$DIMLUNIT
 70
     2
  9
$DIMLWD
 70
    -2
  9
$DIMLWE
 70
    -2
  9
$DIMTMOVE
 70
     0
  9
$DIMFXL
 40
1.0
  9
$DIMFXLON
 70
     0
  9
$DIMJOGANG
 40
0.7853981633974483
  9
$DIMTFILL
 70
     0
  9
$DIMTFILLCLR
 70
     0
  9
$DIMARCSYM
 70
     0
  9
$DIMLTYPE
  6

  9
$DIMLTEX1
  6

  9
$DIMLTEX2
  6

  9
$DIMTXTDIRECTION
 70
     0
  9
$LUNITS
 70
     2
  9
$LUPREC
 70
     4
  9
$SKETCHINC
 40
0.1
  9
$FILLETRAD
 40
0.5
  9
$AUNITS
 70
     0
  9
$AUPREC
 70
     0
  9
$MENU
  1
.
  9
$ELEVATION
 40
0.0
  9
$PELEVATION
 40
0.0
  9
$THICKNESS
 40
0.0
  9
$LIMCHECK
 70
     0
  9
$CHAMFERA
 40
0.5
  9
$CHAMFERB
 40
0.5
  9
$CHAMFERC
 40
1.0
  9
$CHAMFERD
 40
0.0
  9
$SKPOLY
 70
     0
  9
$TDCREATE
 40
2457917.646319433
  9
$TDUCREATE
 40
2457917.271319444
  9
$TDUPDATE
 40
2457917.646319433
  9
$TDUUPDATE
 40
2457917.271319444
  9
$TDINDWG
 40
0.0000000116
  9
$TDUSRTIMER
 40
0.0000000116
  9
$USRTIMER
 70
     1
  9
$ANGBASE
 50
0.0
  9
$ANGDIR
 70
     0
  9
$PDMODE
 70
     0
  9
$PDSIZE
 40
0.0
  9
$PLINEWID
 40
0.0
  9
$SPLFRAME
 70
     0
  9
$SPLINETYPE
 70
     6
  9
$SPLINESEGS
 70
     8
  9
$HANDSEED
  5
17A
  9
$SURFTAB1
 70
     6
  9
$SURFTAB2
 70
     6
  9
$SURFTYPE
 70
     6
  9
$SURFU
 70
     6
  9
$SURFV
 70
     6
  9
$UCSBASE
  2

  9
$UCSNAME
  2

  9
$UCSORG
 10
0.0
 20
0.0
 30
0.0
  9
$UCSXDIR
 10
1.0
 20
0.0
 30
0.0
  9
$UCSYDIR
 10
0.0
 20
1.0
 30
0.0
  9
$UCSORTHOREF
  2

  9
$UCSORTHOVIEW
 70
     0
  9
$UCSORGTOP
 10
0.0
 20
0.0
 30
0.0
  9
$UCSORGBOTTOM
 10
0.0
 20
0.0
 30
0.0
  9
$UCSORGLEFT
 10
0.0
 20
0.0
 30
0.0
  9
$UCSORGRIGHT
 10
0.0
 20
0.0
 30
0.0
  9
$UCSORGFRONT
 10
0.0
 20
0.0
 30
0.0
  9
$UCSORGBACK
 10
0.0
 20
0.0
 30
0.0
  9
$PUCSBASE
  2

  9
$PUCSNAME
  2

  9
$PUCSORG
 10
0.0
 20
0.0
 30
0.0
  9
$PUCSXDIR
 10
1.0
 20
0.0
 30
0.0
  9
$PUCSYDIR
 10
0.0
 20
1.0
 30
0.0
  9
$PUCSORTHOREF
  2

  9
$PUCSORTHOVIEW
 70
     0
  9
$PUCSORGTOP
 10
0.0
 20
0.0
 30
0.0
  9
$PUCSORGBOTTOM
 10
0.0
 20
0.0
 30
0.0
  9
$PUCSORGLEFT
 10
0.0
 20
0.0
 30
0.0
  9
$PUCSORGRIGHT
 10
0.0
 20
0.0
 30
0.0
  9
$PUCSORGFRONT
 10
0.0
 20
0.0
 30
0.0
  9
$PUCSORGBACK
 10
0.0
 20
0.0
 30
0.0
  9
$USERI1
 70
     0
  9
$USERI2
 70
     0
  9
$USERI3
 70
     0
  9
$USERI4
 70
     0
  9
$USERI5
 70
     0
  9
$USERR1
 40
0.0
  9
$USERR2
 40
0.0
  9
$USERR3
 40
0.0
  9
$USERR4
 40
0.0
  9
$USERR5
 40
0.0
  9
$WORLDVIEW
 70
     1
  9
$SHADEDGE
 70
     3
  9
$SHADEDIF
 70
    70
  9
$TILEMODE
 70
     1
  9
$MAXACTVP
 70
    64
  9
$PINSBASE
 10
0.0
 20
0.0
 30
0.0
  9
$PLIMCHECK
 70
     0
  9
$PEXTMIN
 10
1.000000000000000E+20
 20
1.000000000000000E+20
 30
1.000000000000000E+20
  9
$PEXTMAX
 10
-1.000000000000000E+20
 20
-1.000000000000000E+20
 30
-1.000000000000000E+20
  9
$PLIMMIN
 10
0.0
 20
0.0
  9
$PLIMMAX
 10
12.0
 20
9.0
  9
$UNITMODE
 70
     0
  9
$VISRETAIN
 70
     1
  9
$PLINEGEN
 70
     0
  9
$PSLTSCALE
 70
     1
  9
$TREEDEPTH
 70
  3020
  9
$CMLSTYLE
  2
Standard
  9
$CMLJUST
 70
     0
  9
$CMLSCALE
 40
1.0
  9
$PROXYGRAPHICS
 70
     1
  9
$MEASUREMENT
 70
     0
  9
$CELWEIGHT
370
    -1
  9
$ENDCAPS
280
     0
  9
$JOINSTYLE
280
     0
  9
$LWDISPLAY
290
     1
  9
$INSUNITS
 70
     1
  9
$HYPERLINKBASE
  1

  9
$STYLESHEET
  1

  9
$XEDIT
290
     1
  9
$CEPSNTYPE
380
     0
  9
$PSTYLEMODE
290
     1
  9
$FINGERPRINTGUID
  2
{AAFC1555-9757-D3B2-DED9-F32F53E8638E}
  9
$VERSIONGUID
  2
{FAEB1C32-E019-11D5-929B-00C0DF256EC4}
  9
$EXTNAMES
290
     1
  9
$PSVPSCALE
 40
0.0
  9
$OLESTARTUP
290
     0
  9
$SORTENTS
280
   127
  9
$INDEXCTL
280
     0
  9
$HIDETEXT
280
     1
  9
$XCLIPFRAME
280
     2
  9
$HALOGAP
280
     0
  9
$OBSCOLOR
 70
   257
  9
$OBSLTYPE
280
     0
  9
$INTERSECTIONDISPLAY
280
     0
  9
$INTERSECTIONCOLOR
 70
   257
  9
$DIMASSOC
280
     2
  9
$PROJECTNAME
  1

  9
$CAMERADISPLAY
290
     0
  9
$LENSLENGTH
 40
50.0
  9
$CAMERAHEIGHT
 40
0.0
  9
$STEPSPERSEC
 40
2.0
  9
$STEPSIZE
 40
6.0
  9
$3DDWFPREC
 40
2.0
  9
$PSOLWIDTH
 40
0.25
  9
$PSOLHEIGHT
 40
4.0
  9
$LOFTANG1
 40
1.570796326794897
  9
$LOFTANG2
 40
1.570796326794897
  9
$LOFTMAG1
 40
0.0
  9
$LOFTMAG2
 40
0.0
  9
$LOFTPARAM
 70
     7
  9
$LOFTNORMALS
280
     1
  9
$LATITUDE
 40
37.795
  9
$LONGITUDE
 40
-122.394
  9
$NORTHDIRECTION
 40
0.0
  9
$TIMEZONE
 70
 -8000
  9
$LIGHTGLYPHDISPLAY
280
     1
  9
$TILEMODELIGHTSYNCH
280
     1
  9
$CMATERIAL
347
3C
  9
$SOLIDHIST
280
     1
  9
$SHOWHIST
280
     1
  9
$DWFFRAME
280
     2
  9
$DGNFRAME
280
     2
  9
$REALWORLDSCALE
290
     1
  9
$INTERFERECOLOR
 62
   256
  9
$CSHADOW
280
     0
  9
$SHADOWPLANELOCATION
 40
0.0
  0
ENDSEC
  0
SECTION
  2
CLASSES
  0
CLASS
  1
ACDBDICTIONARYWDFLT
  2
AcDbDictionaryWithDefault
  3
ObjectDBX Classes
 90
        0
 91
        4
280
     0
281
     0
  0
CLASS
  1
VISUALSTYLE
  2
AcDbVisualStyle
  3
ObjectDBX Classes
 90
     4095
 91
        4
280
     0
281
     0
  0
CLASS
  1
MATERIAL
  2
AcDbMaterial
  3
ObjectDBX Classes
 90
     1153
 91
        4
280
     0
281
     0
  0
CLASS
  1
SUN
  2
AcDbSun
  3
SCENEOE
 90
     1024
 91
        4
280
     0
281
     0
  0
ENDSEC
  0
SECTION
  2
TABLES
  0
TABLE
  2
VPORT
  5
8
330
0
100
AcDbSymbolTable
 70
     1
  0
VPORT
  5
29
330
8
100
AcDbSymbolTableRecord
100
AcDbViewportTableRecord
  2
*Active
 70
     0
 10
0.0
 20
0.0
 11
1.0
 21
1.0
 12
0.0
 22
0.0
 13
0.0
 23
0.0
 14
0.5
 24
0.5
 15
0.5
 25
0.5
 16
0.0
 26
0.0
 36
1.0
 17
91.00082462281999
 27
-128.4993055234307
 37
0.0
 40
256.9986110468615
 41
0.7081814508812795
 42
50.0
 43
0.0
 44
0.0
 50
0.0
 51
0.0
 71
     0
 72
   100
 73
     1
 74
     3
 75
     0
 76
     0
 77
     0
 78
     0
281
     0
 65
     1
110
0.0
120
0.0
130
0.0
111
1.0
121
0.0
131
0.0
112
0.0
122
1.0
132
0.0
 79
     0
146
0.0
 60
     3
 61
     5
292
     1
282
     1
141
0.0
142
0.0
 63
   250
361
3F
  0
ENDTAB
  0
TABLE
  2
LTYPE
  5
5
330
0
100
AcDbSymbolTable
 70
     1
  0
LTYPE
  5
14
330
5
100
AcDbSymbolTableRecord
100
AcDbLinetypeTableRecord
  2
ByBlock
 70
     0
  3

 72
    65
 73
     0
 40
0.0
  0
LTYPE
  5
15
330
5
100
AcDbSymbolTableRecord
100
AcDbLinetypeTableRecord
  2
ByLayer
 70
     0
  3

 72
    65
 73
     0
 40
0.0
  0
LTYPE
  5
16
330
5
100
AcDbSymbolTableRecord
100
AcDbLinetypeTableRecord
  2
Continuous
 70
     0
  3
Solid line
 72
    65
 73
     0
 40
0.0
  0
ENDTAB
  0
TABLE
  2
LAYER
  5
2
330
0
100
AcDbSymbolTable
 70
     2
  0
LAYER
  5
10
330
2
100
AcDbSymbolTableRecord
100
AcDbLayerTableRecord
  2
0
 70
     0
 62
     7
  6
Continuous
370
    -3
390
F
347
3E
  0
LAYER
  5
40
330
2
100
AcDbSymbolTableRecord
100
AcDbLayerTableRecord
  2
_U+30EC_U+30A4_U+30E4_U+30FC 1
 70
     0
 62
     7
  6
Continuous
370
    -3
390
F
347
3E
  0
ENDTAB
  0
TABLE
  2
STYLE
  5
3
330
0
100
AcDbSymbolTable
 70
     1
  0
STYLE
  5
11
330
3
100
AcDbSymbolTableRecord
100
AcDbTextStyleTableRecord
  2
Standard
 70
     0
 40
0.0
 41
1.0
 50
0.0
 71
     0
 42
0.2
  3
txt
  4

  0
ENDTAB
  0
TABLE
  2
VIEW
  5
6
330
0
100
AcDbSymbolTable
 70
     0
  0
ENDTAB
  0
TABLE
  2
UCS
  5
7
330
0
100
AcDbSymbolTable
 70
     0
  0
ENDTAB
  0
TABLE
  2
APPID
  5
9
330
0
100
AcDbSymbolTable
 70
     1
  0
APPID
  5
12
330
9
100
AcDbSymbolTableRecord
100
AcDbRegAppTableRecord
  2
ACAD
 70
     0
  0
ENDTAB
  0
TABLE
  2
DIMSTYLE
  5
A
330
0
100
AcDbSymbolTable
 70
     1
100
AcDbDimStyleTable
  0
DIMSTYLE
105
27
330
A
100
AcDbSymbolTableRecord
100
AcDbDimStyleTableRecord
  2
Standard
 70
     0
178
     0
340
11
  0
ENDTAB
  0
TABLE
  2
BLOCK_RECORD
  5
1
330
0
100
AcDbSymbolTable
 70
    23
  0
BLOCK_RECORD
  5
1F
330
1
100
AcDbSymbolTableRecord
100
AcDbBlockTableRecord
  2
*Model_Space
340
22
 70
     0
280
     1
281
     0
  0
BLOCK_RECORD
  5
1B
330
1
100
AcDbSymbolTableRecord
100
AcDbBlockTableRecord
  2
*Paper_Space
340
1E
 70
     0
280
     1
281
     0
  0
BLOCK_RECORD
  5
23
330
1
100
AcDbSymbolTableRecord
100
AcDbBlockTableRecord
  2
*Paper_Space0
340
26
 70
     0
280
     1
281
     0
  0
BLOCK_RECORD
  5
5B
330
1
100
AcDbSymbolTableRecord
100
AcDbBlockTableRecord
  2
block 2
340
0
102
{BLKREFS
331
5C
102
}
 70
     0
280
     1
281
     0
  0
BLOCK_RECORD
  5
9F
330
1
100
AcDbSymbolTableRecord
100
AcDbBlockTableRecord
  2
block 3
340
0
102
{BLKREFS
331
A0
102
}
 70
     0
280
     1
281
     0
  0
BLOCK_RECORD
  5
C2
330
1
100
AcDbSymbolTableRecord
100
AcDbBlockTableRecord
  2
block 4
340
0
102
{BLKREFS
331
C3
102
}
 70
     0
280
     1
281
     0
  0
BLOCK_RECORD
  5
C7
330
1
100
AcDbSymbolTableRecord
100
AcDbBlockTableRecord
  2
block 5
340
0
102
{BLKREFS
331
C8
102
}
 70
     0
280
     1
281
     0
  0
BLOCK_RECORD
  5
CC
330
1
100
AcDbSymbolTableRecord
100
AcDbBlockTableRecord
  2
block 6
340
0
102
{BLKREFS
331
CD
102
}
 70
     0
280
     1
281
     0
  0
BLOCK_RECORD
  5
DD
330
1
100
AcDbSymbolTableRecord
100
AcDbBlockTableRecord
  2
block 7
340
0
102
{BLKREFS
331
DE
102
}
 70
     0
280
     1
281
     0
  0
BLOCK_RECORD
  5
E3
330
1
100
AcDbSymbolTableRecord
100
AcDbBlockTableRecord
  2
block 8
340
0
102
{BLKREFS
331
E4
102
}
 70
     0
280
     1
281
     0
  0
BLOCK_RECORD
  5
E8
330
1
100
AcDbSymbolTableRecord
100
AcDbBlockTableRecord
  2
block 9
340
0
102
{BLKREFS
331
E9
102
}
 70
     0
280
     1
281
     0
  0
BLOCK_RECORD
  5
ED
330
1
100
AcDbSymbolTableRecord
100
AcDbBlockTableRecord
  2
block 10
340
0
102
{BLKREFS
331
EE
102
}
 70
     0
280
     1
281
     0
  0
BLOCK_RECORD
  5
FE
330
1
100
AcDbSymbolTableRecord
100
AcDbBlockTableRecord
  2
block 11
340
0
102
{BLKREFS
331
FF
102
}
 70
     0
280
     1
281
     0
  0
BLOCK_RECORD
  5
107
330
1
100
AcDbSymbolTableRecord
100
AcDbBlockTableRecord
  2
block 12
340
0
102
{BLKREFS
331
108
102
}
 70
     0
280
     1
281
     0
  0
BLOCK_RECORD
  5
10C
330
1
100
AcDbSymbolTableRecord
100
AcDbBlockTableRecord
  2
block 13
340
0
102
{BLKREFS
331
10D
102
}
 70
     0
280
     1
281
     0
  0
BLOCK_RECORD
  5
111
330
1
100
AcDbSymbolTableRecord
100
AcDbBlockTableRecord
  2
block 14
340
0
102
{BLKREFS
331
112
102
}
 70
     0
280
     1
281
     0
  0
BLOCK_RECORD
  5
122
330
1
100
AcDbSymbolTableRecord
100
AcDbBlockTableRecord
  2
block 15
340
0
102
{BLKREFS
331
123
102
}
 70
     0
280
     1
281
     0
  0
BLOCK_RECORD
  5
12A
330
1
100
AcDbSymbolTableRecord
100
AcDbBlockTableRecord
  2
block 16
340
0
102
{BLKREFS
331
12B
102
}
 70
     0
280
     1
281
     0
  0
BLOCK_RECORD
  5
12F
330
1
100
AcDbSymbolTableRecord
100
AcDbBlockTableRecord
  2
block 17
340
0
102
{BLKREFS
331
130
102
}
 70
     0
280
     1
281
     0
  0
BLOCK_RECORD
  5
134
330
1
100
AcDbSymbolTableRecord
100
AcDbBlockTableRecord
  2
block 18
340
0
102
{BLKREFS
331
135
102
}
 70
     0
280
     1
281
     0
  0
BLOCK_RECORD
  5
145
330
1
100
AcDbSymbolTableRecord
100
AcDbBlockTableRecord
  2
block 19
340
0
102
{BLKREFS
331
146
102
}
 70
     0
280
     1
281
     0
  0
BLOCK_RECORD
  5
14B
330
1
100
AcDbSymbolTableRecord
100
AcDbBlockTableRecord
  2
block 20
340
0
102
{BLKREFS
331
14C
102
}
 70
     0
280
     1
281
     0
  0
BLOCK_RECORD
  5
15B
330
1
100
AcDbSymbolTableRecord
100
AcDbBlockTableRecord
  2
block 21
340
0
102
{BLKREFS
331
15C
102
}
 70
     0
280
     1
281
     0
  0
BLOCK_RECORD
  5
160
330
1
100
AcDbSymbolTableRecord
100
AcDbBlockTableRecord
  2
block 22
340
0
102
{BLKREFS
331
161
102
}
 70
     0
280
     1
281
     0
  0
BLOCK_RECORD
  5
165
330
1
100
AcDbSymbolTableRecord
100
AcDbBlockTableRecord
  2
block 23
340
0
102
{BLKREFS
331
166
102
}
 70
     0
280
     1
281
     0
  0
ENDTAB
  0
ENDSEC
  0
SECTION
  2
BLOCKS
  0
BLOCK
  5
20
330
1F
100
AcDbEntity
  8
0
100
AcDbBlockBegin
  2
*Model_Space
 70
     0
 10
0.0
 20
0.0
 30
0.0
  3
*Model_Space
  1

  0
ENDBLK
  5
21
330
1F
100
AcDbEntity
  8
0
100
AcDbBlockEnd
  0
BLOCK
  5
1C
330
1B
100
AcDbEntity
 67
     1
  8
0
100
AcDbBlockBegin
  2
*Paper_Space
 70
     0
 10
0.0
 20
0.0
 30
0.0
  3
*Paper_Space
  1

  0
ENDBLK
  5
1D
330
1B
100
AcDbEntity
 67
     1
  8
0
100
AcDbBlockEnd
  0
BLOCK
  5
24
330
23
100
AcDbEntity
  8
0
100
AcDbBlockBegin
  2
*Paper_Space0
 70
     0
 10
0.0
 20
0.0
 30
0.0
  3
*Paper_Space0
  1

  0
ENDBLK
  5
25
330
23
100
AcDbEntity
  8
0
100
AcDbBlockEnd
  0
BLOCK
  5
5D
330
5B
100
AcDbEntity
  8
0
100
AcDbBlockBegin
  2
block 2
 70
     0
 10
0.0
 20
0.0
 30
0.0
  3
block 2
  1

  0
POLYLINE
  5
5F
330
5B
100
AcDbEntity
  8
_U+30EC_U+30A4_U+30E4_U+30FC 1
 62
   179
420
  2234388
370
    25
100
AcDb2dPolyline
 66
     1
 10
0.0
 20
0.0
 30
0.0
  0
VERTEX
  5
60
330
5F
100
AcDbEntity
  8
_U+30EC_U+30A4_U+30E4_U+30FC 1
 62
   179
420
  2234388
370
    25
100
AcDbVertex
100
AcDb2dVertex
 10
87.35193832702195
 20
-119.9532285811229
 30
0.0
  0
VERTEX
  5
61
330
5F
100
AcDbEntity
  8
_U+30EC_U+30A4_U+30E4_U+30FC 1
 62
   179
420
  2234388
370
    25
100
AcDbVertex
100
AcDb2dVertex
 10
87.35193832702195
 20
-137.4531230211923
 30
0.0
  0
SEQEND
  5
62
330
5F
100
AcDbEntity
  8
_U+30EC_U+30A4_U+30E4_U+30FC 1
 62
   179
420
  2234388
370
    25
  0
POLYLINE
  5
63
330
5B
100
AcDbEntity
  8
_U+30EC_U+30A4_U+30E4_U+30FC 1
 62
   179
420
  2234388
370
    25
100
AcDb2dPolyline
 66
     1
 10
0.0
 20
0.0
 30
0.0
  0
VERTEX
  5
64
330
63
100
AcDbEntity
  8
_U+30EC_U+30A4_U+30E4_U+30FC 1
 62
   179
420
  2234388
370
    25
100
AcDbVertex
100
AcDb2dVertex
 10
88.05199053138435
 20
-119.9532285811229
 30
0.0
  0
VERTEX
  5
65
330
63
100
AcDbEntity
  8
_U+30EC_U+30A4_U+30E4_U+30FC 1
 62
   179
420
  2234388
370
    25
100
AcDbVertex
100
AcDb2dVertex
 10
88.05199053138435
 20
-136.7530707991453
 30
0.0
  0
SEQEND
  5
66
330
63
100
AcDbEntity
  8
_U+30EC_U+30A4_U+30E4_U+30FC 1
 62
   179
420
  2234388
370
    25
  0
POLYLINE
  5
67
330
5B
100
AcDbEntity
  8
_U+30EC_U+30A4_U+30E4_U+30FC 1
 62
   179
420
  2234388
370
    25
100
AcDb2dPolyline
 66
     1
 10
0.0
 20
0.0
 30
0.0
  0
VERTEX
  5
68
330
67
100
AcDbEntity
  8
_U+30EC_U+30A4_U+30E4_U+30FC 1
 62
   179
420
  2234388
370
    25
100
AcDbVertex
100
AcDb2dVertex
 10
87.35193832702195
 20
-137.4531230211923
 30
0.0
  0
VERTEX
  5
69
330
67
100
AcDbEntity
  8
_U+30EC_U+30A4_U+30E4_U+30FC 1
 62
   179
420
  2234388
370
    25
100
AcDbVertex
100
AcDb2dVertex
 10
95.35198562292373
 20
-137.4531230211923
 30
0.0
  0
SEQEND
  5
6A
330
67
100
AcDbEntity
  8
_U+30EC_U+30A4_U+30E4_U+30FC 1
 62
   179
420
  2234388
370
    25
  0
POLYLINE
  5
6B
330
5B
100
AcDbEntity
  8
_U+30EC_U+30A4_U+30E4_U+30FC 1
 62
   179
420
  2234388
370
    25
100
AcDb2dPolyline
 66
     1
 10
0.0
 20
0.0
 30
0.0
  0
VERTEX
  5
6C
330
6B
100
AcDbEntity
  8
_U+30EC_U+30A4_U+30E4_U+30FC 1
 62
   179
420
  2234388
370
    25
100
AcDbVertex
100
AcDb2dVertex
 10
87.35193832702195
 20
-119.9532285811229
 30
0.0
  0
VERTEX
  5
6D
330
6B
100
AcDbEntity
  8
_U+30EC_U+30A4_U+30E4_U+30FC 1
 62
   179
420
  2234388
370
    25
100
AcDbVertex
100
AcDb2dVertex
 10
88.05199053138435
 20
-119.9532285811229
 30
0.0
  0
SEQEND
  5
6E
330
6B
100
AcDbEntity
  8
_U+30EC_U+30A4_U+30E4_U+30FC 1
 62
   179
420
  2234388
370
    25
  0
POLYLINE
  5
6F
330
5B
100
AcDbEntity
  8
_U+30EC_U+30A4_U+30E4_U+30FC 1
 62
   179
420
  2234388
370
    25
100
AcDb2dPolyline
 66
     1
 10
0.0
 20
0.0
 30
0.0
  0
VERTEX
  5
70
330
6F
100
AcDbEntity
  8
_U+30EC_U+30A4_U+30E4_U+30FC 1
 62
   179
420
  2234388
370
    25
100
AcDbVertex
100
AcDb2dVertex
 10
95.35198562292373
 20
-134.9533396884842
 30
0.0
  0
VERTEX
  5
71
330
6F
100
AcDbEntity
  8
_U+30EC_U+30A4_U+30E4_U+30FC 1
 62
   179
420
  2234388
370
    25
100
AcDbVertex
100
AcDb2dVertex
 10
95.35198562292373
 20
-137.4531230211923
 30
0.0
  0
SEQEND
  5
72
330
6F
100
AcDbEntity
  8
_U+30EC_U+30A4_U+30E4_U+30FC 1
 62
   179
420
  2234388
370
    25
  0
POLYLINE
  5
73
330
5B
100
AcDbEntity
  8
_U+30EC_U+30A4_U+30E4_U+30FC 1
 62
   179
420
  2234388
370
    25
100
AcDb2dPolyline
 66
     1
 10
0.0
 20
0.0
 30
0.0
  0
VERTEX
  5
74
330
73
100
AcDbEntity
  8
_U+30EC_U+30A4_U+30E4_U+30FC 1
 62
   179
420
  2234388
370
    25
100
AcDbVertex
100
AcDb2dVertex
 10
92.85220235336519
 20
-134.9533396884842
 30
0.0
  0
VERTEX
  5
75
330
73
100
AcDbEntity
  8
_U+30EC_U+30A4_U+30E4_U+30FC 1
 62
   179
420
  2234388
370
    25
100
AcDbVertex
100
AcDb2dVertex
 10
95.35198562292373
 20
-134.9533396884842
 30
0.0
  0
SEQEND
  5
76
330
73
100
AcDbEntity
  8
_U+30EC_U+30A4_U+30E4_U+30FC 1
 62
   179
420
  2234388
370
    25
  0
POLYLINE
  5
77
330
5B
100
AcDbEntity
  8
_U+30EC_U+30A4_U+30E4_U+30FC 1
 62
   179
420
  2234388
370
    25
100
AcDb2dPolyline
 66
     1
 10
0.0
 20
0.0
 30
0.0
  0
VERTEX
  5
78
330
77
100
AcDbEntity
  8
_U+30EC_U+30A4_U+30E4_U+30FC 1
 62
   179
420
  2234388
370
    25
100
AcDbVertex
100
AcDb2dVertex
 10
92.85220235336519
 20
-134.9533396884842
 30
0.0
  0
VERTEX
  5
79
330
77
100
AcDbEntity
  8
_U+30EC_U+30A4_U+30E4_U+30FC 1
 62
   179
420
  2234388
370
    25
100
AcDbVertex
100
AcDb2dVertex
 10
92.85220235336519
 20
-135.6533919105312
 30
0.0
  0
SEQEND
  5
7A
330
77
100
AcDbEntity
  8
_U+30EC_U+30A4_U+30E4_U+30FC 1
 62
   179
420
  2234388
370
    25
  0
POLYLINE
  5
7B
330
5B
100
AcDbEntity
  8
_U+30EC_U+30A4_U+30E4_U+30FC 1
 62
   179
420
  2234388
370
    25
100
AcDb2dPolyline
 66
     1
 10
0.0
 20
0.0
 30
0.0
  0
VERTEX
  5
7C
330
7B
100
AcDbEntity
  8
_U+30EC_U+30A4_U+30E4_U+30FC 1
 62
   179
420
  2234388
370
    25
100
AcDbVertex
100
AcDb2dVertex
 10
88.05199053138435
 20
-136.7530707991453
 30
0.0
  0
VERTEX
  5
7D
330
7B
100
AcDbEntity
  8
_U+30EC_U+30A4_U+30E4_U+30FC 1
 62
   179
420
  2234388
370
    25
100
AcDbVertex
100
AcDb2dVertex
 10
94.65193341856134
 20
-136.7530707991453
 30
0.0
  0
SEQEND
  5
7E
330
7B
100
AcDbEntity
  8
_U+30EC_U+30A4_U+30E4_U+30FC 1
 62
   179
420
  2234388
370
    25
  0
POLYLINE
  5
7F
330
5B
100
AcDbEntity
  8
_U+30EC_U+30A4_U+30E4_U+30FC 1
 62
   179
420
  2234388
370
    25
100
AcDb2dPolyline
 66
     1
 10
0.0
 20
0.0
 30
0.0
  0
VERTEX
  5
80
330
7F
100
AcDbEntity
  8
_U+30EC_U+30A4_U+30E4_U+30FC 1
 62
   179
420
  2234388
370
    25
100
AcDbVertex
100
AcDb2dVertex
 10
94.65193341856134
 20
-135.6533919105312
 30
0.0
  0
VERTEX
  5
81
330
7F
100
AcDbEntity
  8
_U+30EC_U+30A4_U+30E4_U+30FC 1
 62
   179
420
  2234388
370
    25
100
AcDbVertex
100
AcDb2dVertex
 10
94.65193341856134
 20
-136.7530707991453
 30
0.0
  0
SEQEND
  5
82
330
7F
100
AcDbEntity
  8
_U+30EC_U+30A4_U+30E4_U+30FC 1
 62
   179
420
  2234388
370
    25
  0
POLYLINE
  5
83
330
5B
100
AcDbEntity
  8
_U+30EC_U+30A4_U+30E4_U+30FC 1
 62
   179
420
  2234388
370
    25
100
AcDb2dPolyline
 66
     1
 10
0.0
 20
0.0
 30
0.0
  0
VERTEX
  5
84
330
83
100
AcDbEntity
  8
_U+30EC_U+30A4_U+30E4_U+30FC 1
 62
   179
420
  2234388
370
    25
100
AcDbVertex
100
AcDb2dVertex
 10
92.85220235336519
 20
-135.6533919105312
 30
0.0
  0
VERTEX
  5
85
330
83
100
AcDbEntity
  8
_U+30EC_U+30A4_U+30E4_U+30FC 1
 62
   179
420
  2234388
370
    25
100
AcDbVertex
100
AcDb2dVertex
 10
94.65193341856134
 20
-135.6533919105312
 30
0.0
  0
SEQEND
  5
86
330
83
100
AcDbEntity
  8
_U+30EC_U+30A4_U+30E4_U+30FC 1
 62
   179
420
  2234388
370
    25
  0
SPLINE
  5
87
330
5B
100
AcDbEntity
  8
_U+30EC_U+30A4_U+30E4_U+30FC 1
 62
   179
420
  2234388
370
     9
100
AcDbSpline
210
0.0
220
0.0
230
1.0
 70
    11
 71
     3
 72
    17
 73
    13
 74
     0
 42
0.0000000001
 43
0.0000000001
 12
1.0
 22
0.0
 32
0.0
 13
1.0
 23
0.0
 33
0.0
 40
0.0
 40
0.0
 40
0.0
 40
0.0
 40
1.0
 40
1.0
 40
1.0
 40
2.0
 40
2.0
 40
2.0
 40
3.0
 40
3.0
 40
3.0
 40
4.0
 40
4.0
 40
4.0
 40
4.0
 10
88.10194386344327
 20
-117.9530138594005
 30
0.0
 10
88.10194386344327
 20
-117.925461914963
 30
0.0
 10
88.07954247512589
 20
-117.9030605260797
 30
0.0
 10
88.05199053138435
 20
-117.9030605260797
 30
0.0
 10
88.02443858764282
 20
-117.9030605260797
 30
0.0
 10
88.00203719932543
 20
-117.925461914963
 30
0.0
 10
88.00203719932543
 20
-117.9530138594005
 30
0.0
 10
88.00203719932543
 20
-117.9805658038383
 30
0.0
 10
88.02443858764282
 20
-118.0029671927216
 30
0.0
 10
88.05199053138435
 20
-118.0029671927216
 30
0.0
 10
88.07954247512589
 20
-118.0029671927216
 30
0.0
 10
88.10194386344327
 20
-117.9805658038383
 30
0.0
 10
88.10194386344327
 20
-117.9530138594005
 30
0.0
  0
SPLINE
  5
88
330
5B
100
AcDbEntity
  8
_U+30EC_U+30A4_U+30E4_U+30FC 1
 62
   179
420
  2234388
370
     9
100
AcDbSpline
210
0.0
220
0.0
230
1.0
 70
    11
 71
     3
 72
    17
 73
    13
 74
     0
 42
0.0000000001
 43
0.0000000001
 12
1.0
 22
0.0
 32
0.0
 13
1.0
 23
0.0
 33
0.0
 40
0.0
 40
0.0
 40
0.0
 40
0.0
 40
1.0
 40
1.0
 40
1.0
 40
2.0
 40
2.0
 40
2.0
 40
3.0
 40
3.0
 40
3.0
 40
4.0
 40
4.0
 40
4.0
 40
4.0
 10
87.40189165908086
 20
-117.9530138594005
 30
0.0
 10
87.40189165908086
 20
-117.925461914963
 30
0.0
 10
87.37949027076348
 20
-117.9030605260797
 30
0.0
 10
87.35193832702195
 20
-117.9030605260797
 30
0.0
 10
87.32438638328041
 20
-117.9030605260797
 30
0.0
 10
87.30198499496304
 20
-117.925461914963
 30
0.0
 10
87.30198499496304
 20
-117.9530138594005
 30
0.0
 10
87.30198499496304
 20
-117.9805658038383
 30
0.0
 10
87.32438638328041
 20
-118.0029671927216
 30
0.0
 10
87.35193832702195
 20
-118.0029671927216
 30
0.0
 10
87.37949027076348
 20
-118.0029671927216
 30
0.0
 10
87.40189165908086
 20
-117.9805658038383
 30
0.0
 10
87.40189165908086
 20
-117.9530138594005
 30
0.0
  0
SPLINE
  5
89
330
5B
100
AcDbEntity
  8
_U+30EC_U+30A4_U+30E4_U+30FC 1
 62
   179
420
  2234388
370
     9
100
AcDbSpline
210
0.0
220
0.0
230
1.0
 70
    11
 71
     3
 72
    17
 73
    13
 74
     0
 42
0.0000000001
 43
0.0000000001
 12
1.0
 22
0.0
 32
0.0
 13
1.0
 23
0.0
 33
0.0
 40
0.0
 40
0.0
 40
0.0
 40
0.0
 40
1.0
 40
1.0
 40
1.0
 40
2.0
 40
2.0
 40
2.0
 40
3.0
 40
3.0
 40
3.0
 40
4.0
 40
4.0
 40
4.0
 40
4.0
 10
84.0026309124699
 20
-119.9532285811229
 30
0.0
 10
84.0026309124699
 20
-119.9253238589077
 30
0.0
 10
83.98022952415252
 20
-119.9029224700244
 30
0.0
 10
83.95267758041098
 20
-119.9029224700244
 30
0.0
 10
83.92509035889256
 20
-119.9029224700244
 30
0.0
 10
83.90272424835206
 20
-119.9253238589077
 30
0.0
 10
83.90272424835206
 20
-119.9532285811229
 30
0.0
 10
83.90272424835206
 20
-119.9807805255604
 30
0.0
 10
83.92509035889256
 20
-120.0031819144437
 30
0.0
 10
83.95267758041098
 20
-120.0031819144437
 30
0.0
 10
83.98022952415252
 20
-120.0031819144437
 30
0.0
 10
84.0026309124699
 20
-119.9807805255604
 30
0.0
 10
84.0026309124699
 20
-119.9532285811229
 30
0.0
  0
SPLINE
  5
8A
330
5B
100
AcDbEntity
  8
_U+30EC_U+30A4_U+30E4_U+30FC 1
 62
   179
420
  2234388
370
     9
100
AcDbSpline
210
0.0
220
0.0
230
1.0
 70
    11
 71
     3
 72
    17
 73
    13
 74
     0
 42
0.0000000001
 43
0.0000000001
 12
1.0
 22
0.0
 32
0.0
 13
1.0
 23
0.0
 33
0.0
 40
0.0
 40
0.0
 40
0.0
 40
0.0
 40
1.0
 40
1.0
 40
1.0
 40
2.0
 40
2.0
 40
2.0
 40
3.0
 40
3.0
 40
3.0
 40
4.0
 40
4.0
 40
4.0
 40
4.0
 10
84.0026309124699
 20
-137.4531230211923
 30
0.0
 10
84.0026309124699
 20
-137.425535798977
 30
0.0
 10
83.98022952415252
 20
-137.4028169100941
 30
0.0
 10
83.95267758041098
 20
-137.4028169100941
 30
0.0
 10
83.92509035889256
 20
-137.4028169100941
 30
0.0
 10
83.90272424835206
 20
-137.425535798977
 30
0.0
 10
83.90272424835206
 20
-137.4531230211923
 30
0.0
 10
83.90272424835206
 20
-137.4806749656301
 30
0.0
 10
83.92509035889256
 20
-137.5033938545131
 30
0.0
 10
83.95267758041098
 20
-137.5033938545131
 30
0.0
 10
83.98022952415252
 20
-137.5033938545131
 30
0.0
 10
84.0026309124699
 20
-137.4806749656301
 30
0.0
 10
84.0026309124699
 20
-137.4531230211923
 30
0.0
  0
SPLINE
  5
8B
330
5B
100
AcDbEntity
  8
_U+30EC_U+30A4_U+30E4_U+30FC 1
 62
   179
420
  2234388
370
     9
100
AcDbSpline
210
0.0
220
0.0
230
1.0
 70
    11
 71
     3
 72
    17
 73
    13
 74
     0
 42
0.0000000001
 43
0.0000000001
 12
1.0
 22
0.0
 32
0.0
 13
1.0
 23
0.0
 33
0.0
 40
0.0
 40
0.0
 40
0.0
 40
0.0
 40
1.0
 40
1.0
 40
1.0
 40
2.0
 40
2.0
 40
2.0
 40
3.0
 40
3.0
 40
3.0
 40
4.0
 40
4.0
 40
4.0
 40
4.0
 10
87.40189165908086
 20
-139.4533377429148
 30
0.0
 10
87.40189165908086
 20
-139.425785798477
 30
0.0
 10
87.37949027076348
 20
-139.4030316318158
 30
0.0
 10
87.35193832702195
 20
-139.4030316318158
 30
0.0
 10
87.32438638328041
 20
-139.4030316318158
 30
0.0
 10
87.30198499496304
 20
-139.425785798477
 30
0.0
 10
87.30198499496304
 20
-139.4533377429148
 30
0.0
 10
87.30198499496304
 20
-139.4808896873519
 30
0.0
 10
87.32438638328041
 20
-139.5029382984575
 30
0.0
 10
87.35193832702195
 20
-139.5029382984575
 30
0.0
 10
87.37949027076348
 20
-139.5029382984575
 30
0.0
 10
87.40189165908086
 20
-139.4808896873519
 30
0.0
 10
87.40189165908086
 20
-139.4533377429148
 30
0.0
  0
SPLINE
  5
8C
330
5B
100
AcDbEntity
  8
_U+30EC_U+30A4_U+30E4_U+30FC 1
 62
   179
420
  2234388
370
     9
100
AcDbSpline
210
0.0
220
0.0
230
1.0
 70
    11
 71
     3
 72
    17
 73
    13
 74
     0
 42
0.0000000001
 43
0.0000000001
 12
1.0
 22
0.0
 32
0.0
 13
1.0
 23
0.0
 33
0.0
 40
0.0
 40
0.0
 40
0.0
 40
0.0
 40
1.0
 40
1.0
 40
1.0
 40
2.0
 40
2.0
 40
2.0
 40
3.0
 40
3.0
 40
3.0
 40
4.0
 40
4.0
 40
4.0
 40
4.0
 10
95.40225645497456
 20
-139.4533377429148
 30
0.0
 10
95.40225645497456
 20
-139.425785798477
 30
0.0
 10
95.37953756666528
 20
-139.4030316318158
 30
0.0
 10
95.35198562292373
 20
-139.4030316318158
 30
0.0
 10
95.32439840140532
 20
-139.4030316318158
 30
0.0
 10
95.30167951309605
 20
-139.425785798477
 30
0.0
 10
95.30167951309605
 20
-139.4533377429148
 30
0.0
 10
95.30167951309605
 20
-139.4808896873519
 30
0.0
 10
95.32439840140532
 20
-139.5029382984575
 30
0.0
 10
95.35198562292373
 20
-139.5029382984575
 30
0.0
 10
95.37953756666528
 20
-139.5029382984575
 30
0.0
 10
95.40225645497456
 20
-139.4808896873519
 30
0.0
 10
95.40225645497456
 20
-139.4533377429148
 30
0.0
  0
SPLINE
  5
8D
330
5B
100
AcDbEntity
  8
_U+30EC_U+30A4_U+30E4_U+30FC 1
 62
   179
420
  2234388
370
     9
100
AcDbSpline
210
0.0
220
0.0
230
1.0
 70
    11
 71
     3
 72
    17
 73
    13
 74
     0
 42
0.0000000001
 43
0.0000000001
 12
1.0
 22
0.0
 32
0.0
 13
1.0
 23
0.0
 33
0.0
 40
0.0
 40
0.0
 40
0.0
 40
0.0
 40
1.0
 40
1.0
 40
1.0
 40
2.0
 40
2.0
 40
2.0
 40
3.0
 40
3.0
 40
3.0
 40
4.0
 40
4.0
 40
4.0
 40
4.0
 10
95.40225645497456
 20
-132.9531249667617
 30
0.0
 10
95.40225645497456
 20
-132.925573022324
 30
0.0
 10
95.37953756666528
 20
-132.9028188556635
 30
0.0
 10
95.35198562292373
 20
-132.9028188556635
 30
0.0
 10
95.32439840140532
 20
-132.9028188556635
 30
0.0
 10
95.30167951309605
 20
-132.925573022324
 30
0.0
 10
95.30167951309605
 20
-132.9531249667617
 30
0.0
 10
95.30167951309605
 20
-132.9806769111995
 30
0.0
 10
95.32439840140532
 20
-133.00343107786
 30
0.0
 10
95.35198562292373
 20
-133.00343107786
 30
0.0
 10
95.37953756666528
 20
-133.00343107786
 30
0.0
 10
95.40225645497456
 20
-132.9806769111995
 30
0.0
 10
95.40225645497456
 20
-132.9531249667617
 30
0.0
  0
SPLINE
  5
8E
330
5B
100
AcDbEntity
  8
_U+30EC_U+30A4_U+30E4_U+30FC 1
 62
   179
420
  2234388
370
     9
100
AcDbSpline
210
0.0
220
0.0
230
1.0
 70
    11
 71
     3
 72
    17
 73
    13
 74
     0
 42
0.0000000001
 43
0.0000000001
 12
1.0
 22
0.0
 32
0.0
 13
1.0
 23
0.0
 33
0.0
 40
0.0
 40
0.0
 40
0.0
 40
0.0
 40
1.0
 40
1.0
 40
1.0
 40
2.0
 40
2.0
 40
2.0
 40
3.0
 40
3.0
 40
3.0
 40
4.0
 40
4.0
 40
4.0
 40
4.0
 10
92.90183818543221
 20
-132.9531249667617
 30
0.0
 10
92.90183818543221
 20
-132.925573022324
 30
0.0
 10
92.8797895748836
 20
-132.9028188556635
 30
0.0
 10
92.85220235336519
 20
-132.9028188556635
 30
0.0
 10
92.82465275457162
 20
-132.9028188556635
 30
0.0
 10
92.8018962435375
 20
-132.925573022324
 30
0.0
 10
92.8018962435375
 20
-132.9531249667617
 30
0.0
 10
92.8018962435375
 20
-132.9806769111995
 30
0.0
 10
92.82465275457162
 20
-133.00343107786
 30
0.0
 10
92.85220235336519
 20
-133.00343107786
 30
0.0
 10
92.8797895748836
 20
-133.00343107786
 30
0.0
 10
92.90183818543221
 20
-132.9806769111995
 30
0.0
 10
92.90183818543221
 20
-132.9531249667617
 30
0.0
  0
POLYLINE
  5
8F
330
5B
100
AcDbEntity
  8
_U+30EC_U+30A4_U+30E4_U+30FC 1
 62
   179
420
  2234388
370
     9
100
AcDb2dPolyline
 66
     1
 10
0.0
 20
0.0
 30
0.0
  0
VERTEX
  5
90
330
8F
100
AcDbEntity
  8
_U+30EC_U+30A4_U+30E4_U+30FC 1
 62
   179
420
  2234388
370
     9
100
AcDbVertex
100
AcDb2dVertex
 10
88.05199053138435
 20
-117.9530138594005
 30
0.0
  0
VERTEX
  5
91
330
8F
100
AcDbEntity
  8
_U+30EC_U+30A4_U+30E4_U+30FC 1
 62
   179
420
  2234388
370
     9
100
AcDbVertex
100
AcDb2dVertex
 10
90.6809257420924
 20
-117.9530138594005
 30
0.0
  0
SEQEND
  5
92
330
8F
100
AcDbEntity
  8
_U+30EC_U+30A4_U+30E4_U+30FC 1
 62
   179
420
  2234388
370
     9
  0
POLYLINE
  5
93
330
5B
100
AcDbEntity
  8
_U+30EC_U+30A4_U+30E4_U+30FC 1
 62
   179
420
  2234388
370
     9
100
AcDb2dPolyline
 66
     1
 10
0.0
 20
0.0
 30
0.0
  0
VERTEX
  5
94
330
93
100
AcDbEntity
  8
_U+30EC_U+30A4_U+30E4_U+30FC 1
 62
   179
420
  2234388
370
     9
100
AcDbVertex
100
AcDb2dVertex
 10
86.852052228664
 20
-117.9530138594005
 30
0.0
  0
VERTEX
  5
95
330
93
100
AcDbEntity
  8
_U+30EC_U+30A4_U+30E4_U+30FC 1
 62
   179
420
  2234388
370
     9
100
AcDbVertex
100
AcDb2dVertex
 10
88.05199053138435
 20
-117.9530138594005
 30
0.0
  0
SEQEND
  5
96
330
93
100
AcDbEntity
  8
_U+30EC_U+30A4_U+30E4_U+30FC 1
 62
   179
420
  2234388
370
     9
  0
POLYLINE
  5
97
330
5B
100
AcDbEntity
  8
_U+30EC_U+30A4_U+30E4_U+30FC 1
 62
   179
420
  2234388
370
     9
100
AcDb2dPolyline
 66
     1
 10
0.0
 20
0.0
 30
0.0
  0
VERTEX
  5
98
330
97
100
AcDbEntity
  8
_U+30EC_U+30A4_U+30E4_U+30FC 1
 62
   179
420
  2234388
370
     9
100
AcDbVertex
100
AcDb2dVertex
 10
87.35193832702195
 20
-118.6830169147736
 30
0.0
  0
VERTEX
  5
99
330
97
100
AcDbEntity
  8
_U+30EC_U+30A4_U+30E4_U+30FC 1
 62
   179
420
  2234388
370
     9
100
AcDbVertex
100
AcDb2dVertex
 10
87.35193832702195
 20
-117.4531277484145
 30
0.0
  0
SEQEND
  5
9A
330
97
100
AcDbEntity
  8
_U+30EC_U+30A4_U+30E4_U+30FC 1
 62
   179
420
  2234388
370
     9
  0
POLYLINE
  5
9B
330
5B
100
AcDbEntity
  8
_U+30EC_U+30A4_U+30E4_U+30FC 1
 62
   179
420
  2234388
370
     9
100
AcDb2dPolyline
 66
     1
 10
0.0
 20
0.0
 30
0.0
  0
VERTEX
  5
9C
330
9B
100
AcDbEntity
  8
_U+30EC_U+30A4_U+30E4_U+30FC 1
 62
   179
420
  2234388
370
     9
100
AcDbVertex
100
AcDb2dVertex
 10
88.05199053138435
 20
-118.6830169147736
 30
0.0
  0
VERTEX
  5
9D
330
9B
100
AcDbEntity
  8
_U+30EC_U+30A4_U+30E4_U+30FC 1
 62
   179
420
  2234388
370
     9
100
AcDbVertex
100
AcDb2dVertex
 10
88.05199053138435
 20
-117.4531277484145
 30
0.0
  0
SEQEND
  5
9E
330
9B
100
AcDbEntity
  8
_U+30EC_U+30A4_U+30E4_U+30FC 1
 62
   179
420
  2234388
370
     9
  0
INSERT
  5
A0
330
5B
100
AcDbEntity
  8
_U+30EC_U+30A4_U+30E4_U+30FC 1
100
AcDbBlockReference
  2
block 3
 10
0.0
 20
0.0
 30
0.0
  0
INSERT
  5
C3
330
5B
100
AcDbEntity
  8
_U+30EC_U+30A4_U+30E4_U+30FC 1
100
AcDbBlockReference
  2
block 4
 10
0.0
 20
0.0
 30
0.0
  0
INSERT
  5
C8
330
5B
100
AcDbEntity
  8
_U+30EC_U+30A4_U+30E4_U+30FC 1
100
AcDbBlockReference
  2
block 5
 10
0.0
 20
0.0
 30
0.0
  0
INSERT
  5
CD
330
5B
100
AcDbEntity
  8
_U+30EC_U+30A4_U+30E4_U+30FC 1
100
AcDbBlockReference
  2
block 6
 10
0.0
 20
0.0
 30
0.0
  0
POLYLINE
  5
D1
330
5B
100
AcDbEntity
  8
_U+30EC_U+30A4_U+30E4_U+30FC 1
 62
   179
420
  2234388
370
     9
100
AcDb2dPolyline
 66
     1
 10
0.0
 20
0.0
 30
0.0
  0
VERTEX
  5
D2
330
D1
100
AcDbEntity
  8
_U+30EC_U+30A4_U+30E4_U+30FC 1
 62
   179
420
  2234388
370
     9
100
AcDbVertex
100
AcDb2dVertex
 10
92.85220235336519
 20
-132.9531249667617
 30
0.0
  0
VERTEX
  5
D3
330
D1
100
AcDbEntity
  8
_U+30EC_U+30A4_U+30E4_U+30FC 1
 62
   179
420
  2234388
370
     9
100
AcDbVertex
100
AcDb2dVertex
 10
95.35198562292373
 20
-132.9531249667617
 30
0.0
  0
SEQEND
  5
D4
330
D1
100
AcDbEntity
  8
_U+30EC_U+30A4_U+30E4_U+30FC 1
 62
   179
420
  2234388
370
     9
  0
POLYLINE
  5
D5
330
5B
100
AcDbEntity
  8
_U+30EC_U+30A4_U+30E4_U+30FC 1
 62
   179
420
  2234388
370
     9
100
AcDb2dPolyline
 66
     1
 10
0.0
 20
0.0
 30
0.0
  0
VERTEX
  5
D6
330
D5
100
AcDbEntity
  8
_U+30EC_U+30A4_U+30E4_U+30FC 1
 62
   179
420
  2234388
370
     9
100
AcDbVertex
100
AcDb2dVertex
 10
92.85220235336519
 20
-133.6828105221349
 30
0.0
  0
VERTEX
  5
D7
330
D5
100
AcDbEntity
  8
_U+30EC_U+30A4_U+30E4_U+30FC 1
 62
   179
420
  2234388
370
     9
100
AcDbVertex
100
AcDb2dVertex
 10
92.85220235336519
 20
-132.452886077998
 30
0.0
  0
SEQEND
  5
D8
330
D5
100
AcDbEntity
  8
_U+30EC_U+30A4_U+30E4_U+30FC 1
 62
   179
420
  2234388
370
     9
  0
POLYLINE
  5
D9
330
5B
100
AcDbEntity
  8
_U+30EC_U+30A4_U+30E4_U+30FC 1
 62
   179
420
  2234388
370
     9
100
AcDb2dPolyline
 66
     1
 10
0.0
 20
0.0
 30
0.0
  0
VERTEX
  5
DA
330
D9
100
AcDbEntity
  8
_U+30EC_U+30A4_U+30E4_U+30FC 1
 62
   179
420
  2234388
370
     9
100
AcDbVertex
100
AcDb2dVertex
 10
95.35198562292373
 20
-133.6828105221349
 30
0.0
  0
VERTEX
  5
DB
330
D9
100
AcDbEntity
  8
_U+30EC_U+30A4_U+30E4_U+30FC 1
 62
   179
420
  2234388
370
     9
100
AcDbVertex
100
AcDb2dVertex
 10
95.35198562292373
 20
-132.452886077998
 30
0.0
  0
SEQEND
  5
DC
330
D9
100
AcDbEntity
  8
_U+30EC_U+30A4_U+30E4_U+30FC 1
 62
   179
420
  2234388
370
     9
  0
INSERT
  5
DE
330
5B
100
AcDbEntity
  8
_U+30EC_U+30A4_U+30E4_U+30FC 1
100
AcDbBlockReference
  2
block 7
 10
0.0
 20
0.0
 30
0.0
  0
INSERT
  5
E4
330
5B
100
AcDbEntity
  8
_U+30EC_U+30A4_U+30E4_U+30FC 1
100
AcDbBlockReference
  2
block 8
 10
0.0
 20
0.0
 30
0.0
  0
INSERT
  5
E9
330
5B
100
AcDbEntity
  8
_U+30EC_U+30A4_U+30E4_U+30FC 1
100
AcDbBlockReference
  2
block 9
 10
0.0
 20
0.0
 30
0.0
  0
INSERT
  5
EE
330
5B
100
AcDbEntity
  8
_U+30EC_U+30A4_U+30E4_U+30FC 1
100
AcDbBlockReference
  2
block 10
 10
0.0
 20
0.0
 30
0.0
  0
POLYLINE
  5
F2
330
5B
100
AcDbEntity
  8
_U+30EC_U+30A4_U+30E4_U+30FC 1
 62
   179
420
  2234388
370
     9
100
AcDb2dPolyline
 66
     1
 10
0.0
 20
0.0
 30
0.0
  0
VERTEX
  5
F3
330
F2
100
AcDbEntity
  8
_U+30EC_U+30A4_U+30E4_U+30FC 1
 62
   179
420
  2234388
370
     9
100
AcDbVertex
100
AcDb2dVertex
 10
87.35193832702195
 20
-139.4533377429148
 30
0.0
  0
VERTEX
  5
F4
330
F2
100
AcDbEntity
  8
_U+30EC_U+30A4_U+30E4_U+30FC 1
 62
   179
420
  2234388
370
     9
100
AcDbVertex
100
AcDb2dVertex
 10
95.35198562292373
 20
-139.4533377429148
 30
0.0
  0
SEQEND
  5
F5
330
F2
100
AcDbEntity
  8
_U+30EC_U+30A4_U+30E4_U+30FC 1
 62
   179
420
  2234388
370
     9
  0
POLYLINE
  5
F6
330
5B
100
AcDbEntity
  8
_U+30EC_U+30A4_U+30E4_U+30FC 1
 62
   179
420
  2234388
370
     9
100
AcDb2dPolyline
 66
     1
 10
0.0
 20
0.0
 30
0.0
  0
VERTEX
  5
F7
330
F6
100
AcDbEntity
  8
_U+30EC_U+30A4_U+30E4_U+30FC 1
 62
   179
420
  2234388
370
     9
100
AcDbVertex
100
AcDb2dVertex
 10
87.35193832702195
 20
-138.7229819097636
 30
0.0
  0
VERTEX
  5
F8
330
F6
100
AcDbEntity
  8
_U+30EC_U+30A4_U+30E4_U+30FC 1
 62
   179
420
  2234388
370
     9
100
AcDbVertex
100
AcDb2dVertex
 10
87.35193832702195
 20
-139.952871076123
 30
0.0
  0
SEQEND
  5
F9
330
F6
100
AcDbEntity
  8
_U+30EC_U+30A4_U+30E4_U+30FC 1
 62
   179
420
  2234388
370
     9
  0
POLYLINE
  5
FA
330
5B
100
AcDbEntity
  8
_U+30EC_U+30A4_U+30E4_U+30FC 1
 62
   179
420
  2234388
370
     9
100
AcDb2dPolyline
 66
     1
 10
0.0
 20
0.0
 30
0.0
  0
VERTEX
  5
FB
330
FA
100
AcDbEntity
  8
_U+30EC_U+30A4_U+30E4_U+30FC 1
 62
   179
420
  2234388
370
     9
100
AcDbVertex
100
AcDb2dVertex
 10
95.35198562292373
 20
-138.7229819097636
 30
0.0
  0
VERTEX
  5
FC
330
FA
100
AcDbEntity
  8
_U+30EC_U+30A4_U+30E4_U+30FC 1
 62
   179
420
  2234388
370
     9
100
AcDbVertex
100
AcDb2dVertex
 10
95.35198562292373
 20
-139.952871076123
 30
0.0
  0
SEQEND
  5
FD
330
FA
100
AcDbEntity
  8
_U+30EC_U+30A4_U+30E4_U+30FC 1
 62
   179
420
  2234388
370
     9
  0
INSERT
  5
FF
330
5B
100
AcDbEntity
  8
_U+30EC_U+30A4_U+30E4_U+30FC 1
100
AcDbBlockReference
  2
block 11
 10
0.0
 20
0.0
 30
0.0
  0
INSERT
  5
108
330
5B
100
AcDbEntity
  8
_U+30EC_U+30A4_U+30E4_U+30FC 1
100
AcDbBlockReference
  2
block 12
 10
0.0
 20
0.0
 30
0.0
  0
INSERT
  5
10D
330
5B
100
AcDbEntity
  8
_U+30EC_U+30A4_U+30E4_U+30FC 1
100
AcDbBlockReference
  2
block 13
 10
0.0
 20
0.0
 30
0.0
  0
INSERT
  5
112
330
5B
100
AcDbEntity
  8
_U+30EC_U+30A4_U+30E4_U+30FC 1
100
AcDbBlockReference
  2
block 14
 10
0.0
 20
0.0
 30
0.0
  0
POLYLINE
  5
116
330
5B
100
AcDbEntity
  8
_U+30EC_U+30A4_U+30E4_U+30FC 1
 62
   179
420
  2234388
370
     9
100
AcDb2dPolyline
 66
     1
 10
0.0
 20
0.0
 30
0.0
  0
VERTEX
  5
117
330
116
100
AcDbEntity
  8
_U+30EC_U+30A4_U+30E4_U+30FC 1
 62
   179
420
  2234388
370
     9
100
AcDbVertex
100
AcDb2dVertex
 10
83.95267758041098
 20
-119.9532285811229
 30
0.0
  0
VERTEX
  5
118
330
116
100
AcDbEntity
  8
_U+30EC_U+30A4_U+30E4_U+30FC 1
 62
   179
420
  2234388
370
     9
100
AcDbVertex
100
AcDb2dVertex
 10
83.95267758041098
 20
-137.4531230211923
 30
0.0
  0
SEQEND
  5
119
330
116
100
AcDbEntity
  8
_U+30EC_U+30A4_U+30E4_U+30FC 1
 62
   179
420
  2234388
370
     9
  0
POLYLINE
  5
11A
330
5B
100
AcDbEntity
  8
_U+30EC_U+30A4_U+30E4_U+30FC 1
 62
   179
420
  2234388
370
     9
100
AcDb2dPolyline
 66
     1
 10
0.0
 20
0.0
 30
0.0
  0
VERTEX
  5
11B
330
11A
100
AcDbEntity
  8
_U+30EC_U+30A4_U+30E4_U+30FC 1
 62
   179
420
  2234388
370
     9
100
AcDbVertex
100
AcDb2dVertex
 10
84.68268061734261
 20
-119.9532285811229
 30
0.0
  0
VERTEX
  5
11C
330
11A
100
AcDbEntity
  8
_U+30EC_U+30A4_U+30E4_U+30FC 1
 62
   179
420
  2234388
370
     9
100
AcDbVertex
100
AcDb2dVertex
 10
83.45243870428425
 20
-119.9532285811229
 30
0.0
  0
SEQEND
  5
11D
330
11A
100
AcDbEntity
  8
_U+30EC_U+30A4_U+30E4_U+30FC 1
 62
   179
420
  2234388
370
     9
  0
POLYLINE
  5
11E
330
5B
100
AcDbEntity
  8
_U+30EC_U+30A4_U+30E4_U+30FC 1
 62
   179
420
  2234388
370
     9
100
AcDb2dPolyline
 66
     1
 10
0.0
 20
0.0
 30
0.0
  0
VERTEX
  5
11F
330
11E
100
AcDbEntity
  8
_U+30EC_U+30A4_U+30E4_U+30FC 1
 62
   179
420
  2234388
370
     9
100
AcDbVertex
100
AcDb2dVertex
 10
85.94548608962474
 20
-137.4531230211923
 30
0.0
  0
VERTEX
  5
120
330
11E
100
AcDbEntity
  8
_U+30EC_U+30A4_U+30E4_U+30FC 1
 62
   179
420
  2234388
370
     9
100
AcDbVertex
100
AcDb2dVertex
 10
83.45243870428425
 20
-137.4531230211923
 30
0.0
  0
SEQEND
  5
121
330
11E
100
AcDbEntity
  8
_U+30EC_U+30A4_U+30E4_U+30FC 1
 62
   179
420
  2234388
370
     9
  0
INSERT
  5
123
330
5B
100
AcDbEntity
  8
_U+30EC_U+30A4_U+30E4_U+30FC 1
100
AcDbBlockReference
  2
block 15
 10
0.0
 20
0.0
 30
0.0
  0
INSERT
  5
12B
330
5B
100
AcDbEntity
  8
_U+30EC_U+30A4_U+30E4_U+30FC 1
100
AcDbBlockReference
  2
block 16
 10
0.0
 20
0.0
 30
0.0
  0
INSERT
  5
130
330
5B
100
AcDbEntity
  8
_U+30EC_U+30A4_U+30E4_U+30FC 1
100
AcDbBlockReference
  2
block 17
 10
0.0
 20
0.0
 30
0.0
  0
INSERT
  5
135
330
5B
100
AcDbEntity
  8
_U+30EC_U+30A4_U+30E4_U+30FC 1
100
AcDbBlockReference
  2
block 18
 10
0.0
 20
0.0
 30
0.0
  0
POLYLINE
  5
139
330
5B
100
AcDbEntity
  8
_U+30EC_U+30A4_U+30E4_U+30FC 1
 62
   179
420
  2234388
370
     9
100
AcDb2dPolyline
 66
     1
 10
0.0
 20
0.0
 30
0.0
  0
VERTEX
  5
13A
330
139
100
AcDbEntity
  8
_U+30EC_U+30A4_U+30E4_U+30FC 1
 62
   179
420
  2234388
370
     9
100
AcDbVertex
100
AcDb2dVertex
 10
97.35220275344
 20
-134.9533396884842
 30
0.0
  0
VERTEX
  5
13B
330
139
100
AcDbEntity
  8
_U+30EC_U+30A4_U+30E4_U+30FC 1
 62
   179
420
  2234388
370
     9
100
AcDbVertex
100
AcDb2dVertex
 10
97.35220275344
 20
-137.4531230211923
 30
0.0
  0
SEQEND
  5
13C
330
139
100
AcDbEntity
  8
_U+30EC_U+30A4_U+30E4_U+30FC 1
 62
   179
420
  2234388
370
     9
  0
POLYLINE
  5
13D
330
5B
100
AcDbEntity
  8
_U+30EC_U+30A4_U+30E4_U+30FC 1
 62
   179
420
  2234388
370
     9
100
AcDb2dPolyline
 66
     1
 10
0.0
 20
0.0
 30
0.0
  0
VERTEX
  5
13E
330
13D
100
AcDbEntity
  8
_U+30EC_U+30A4_U+30E4_U+30FC 1
 62
   179
420
  2234388
370
     9
100
AcDbVertex
100
AcDb2dVertex
 10
96.62184447941583
 20
-134.9533396884842
 30
0.0
  0
VERTEX
  5
13F
330
13D
100
AcDbEntity
  8
_U+30EC_U+30A4_U+30E4_U+30FC 1
 62
   179
420
  2234388
370
     9
100
AcDbVertex
100
AcDb2dVertex
 10
97.85173608664819
 20
-134.9533396884842
 30
0.0
  0
SEQEND
  5
140
330
13D
100
AcDbEntity
  8
_U+30EC_U+30A4_U+30E4_U+30FC 1
 62
   179
420
  2234388
370
     9
  0
POLYLINE
  5
141
330
5B
100
AcDbEntity
  8
_U+30EC_U+30A4_U+30E4_U+30FC 1
 62
   179
420
  2234388
370
     9
100
AcDb2dPolyline
 66
     1
 10
0.0
 20
0.0
 30
0.0
  0
VERTEX
  5
142
330
141
100
AcDbEntity
  8
_U+30EC_U+30A4_U+30E4_U+30FC 1
 62
   179
420
  2234388
370
     9
100
AcDbVertex
100
AcDb2dVertex
 10
96.62184447941583
 20
-137.4531230211923
 30
0.0
  0
VERTEX
  5
143
330
141
100
AcDbEntity
  8
_U+30EC_U+30A4_U+30E4_U+30FC 1
 62
   179
420
  2234388
370
     9
100
AcDbVertex
100
AcDb2dVertex
 10
97.85173608664819
 20
-137.4531230211923
 30
0.0
  0
SEQEND
  5
144
330
141
100
AcDbEntity
  8
_U+30EC_U+30A4_U+30E4_U+30FC 1
 62
   179
420
  2234388
370
     9
  0
INSERT
  5
146
330
5B
100
AcDbEntity
  8
_U+30EC_U+30A4_U+30E4_U+30FC 1
100
AcDbBlockReference
  2
block 19
 10
0.0
 20
0.0
 30
0.0
  0
INSERT
  5
14C
330
5B
100
AcDbEntity
  8
_U+30EC_U+30A4_U+30E4_U+30FC 1
100
AcDbBlockReference
  2
block 20
 10
0.0
 20
0.0
 30
0.0
  0
INSERT
  5
15C
330
5B
100
AcDbEntity
  8
_U+30EC_U+30A4_U+30E4_U+30FC 1
100
AcDbBlockReference
  2
block 21
 10
0.0
 20
0.0
 30
0.0
  0
INSERT
  5
161
330
5B
100
AcDbEntity
  8
_U+30EC_U+30A4_U+30E4_U+30FC 1
100
AcDbBlockReference
  2
block 22
 10
0.0
 20
0.0
 30
0.0
  0
INSERT
  5
166
330
5B
100
AcDbEntity
  8
_U+30EC_U+30A4_U+30E4_U+30FC 1
100
AcDbBlockReference
  2
block 23
 10
0.0
 20
0.0
 30
0.0
  0
POLYLINE
  5
16A
330
5B
100
AcDbEntity
  8
_U+30EC_U+30A4_U+30E4_U+30FC 1
 62
   179
420
  2234388
370
     9
100
AcDb2dPolyline
 66
     1
 10
0.0
 20
0.0
 30
0.0
  0
VERTEX
  5
16B
330
16A
100
AcDbEntity
  8
_U+30EC_U+30A4_U+30E4_U+30FC 1
 62
   179
420
  2234388
370
     9
100
AcDbVertex
100
AcDb2dVertex
 10
86.5240747370314
 20
-133.0682010778439
 30
0.0
  0
VERTEX
  5
16C
330
16A
100
AcDbEntity
  8
_U+30EC_U+30A4_U+30E4_U+30FC 1
 62
   179
420
  2234388
370
     9
100
AcDbVertex
100
AcDb2dVertex
 10
86.5240747370314
 20
-137.4531230211923
 30
0.0
  0
SEQEND
  5
16D
330
16A
100
AcDbEntity
  8
_U+30EC_U+30A4_U+30E4_U+30FC 1
 62
   179
420
  2234388
370
     9
  0
POLYLINE
  5
16E
330
5B
100
AcDbEntity
  8
_U+30EC_U+30A4_U+30E4_U+30FC 1
 62
   179
420
  2234388
370
     9
100
AcDb2dPolyline
 66
     1
 10
0.0
 20
0.0
 30
0.0
  0
VERTEX
  5
16F
330
16E
100
AcDbEntity
  8
_U+30EC_U+30A4_U+30E4_U+30FC 1
 62
   179
420
  2234388
370
     9
100
AcDbVertex
100
AcDb2dVertex
 10
85.79407170009976
 20
-136.7530707991453
 30
0.0
  0
VERTEX
  5
170
330
16E
100
AcDbEntity
  8
_U+30EC_U+30A4_U+30E4_U+30FC 1
 62
   179
420
  2234388
370
     9
100
AcDbVertex
100
AcDb2dVertex
 10
87.02396083538935
 20
-136.7530707991453
 30
0.0
  0
SEQEND
  5
171
330
16E
100
AcDbEntity
  8
_U+30EC_U+30A4_U+30E4_U+30FC 1
 62
   179
420
  2234388
370
     9
  0
POLYLINE
  5
172
330
5B
100
AcDbEntity
  8
_U+30EC_U+30A4_U+30E4_U+30FC 1
 62
   179
420
  2234388
370
     9
100
AcDb2dPolyline
 66
     1
 10
0.0
 20
0.0
 30
0.0
  0
VERTEX
  5
173
330
172
100
AcDbEntity
  8
_U+30EC_U+30A4_U+30E4_U+30FC 1
 62
   179
420
  2234388
370
     9
100
AcDbVertex
100
AcDb2dVertex
 10
85.79407170009976
 20
-137.4531230211923
 30
0.0
  0
VERTEX
  5
174
330
172
100
AcDbEntity
  8
_U+30EC_U+30A4_U+30E4_U+30FC 1
 62
   179
420
  2234388
370
     9
100
AcDbVertex
100
AcDb2dVertex
 10
87.02396083538935
 20
-137.4531230211923
 30
0.0
  0
SEQEND
  5
175
330
172
100
AcDbEntity
  8
_U+30EC_U+30A4_U+30E4_U+30FC 1
 62
   179
420
  2234388
370
     9
  0
ENDBLK
  5
5E
330
5B
100
AcDbEntity
  8
0
100
AcDbBlockEnd
  0
BLOCK
  5
A1
330
9F
100
AcDbEntity
  8
0
100
AcDbBlockBegin
  2
block 3
 70
     0
 10
0.0
 20
0.0
 30
0.0
  3
block 3
  1

  0
SPLINE
  5
A3
330
9F
100
AcDbEntity
  8
_U+30EC_U+30A4_U+30E4_U+30FC 1
370
     0
100
AcDbSpline
210
0.0
220
0.0
230
1.0
 70
    11
 71
     3
 72
    26
 73
    22
 74
     0
 42
0.0000000001
 43
0.0000000001
 12
1.0
 22
0.0
 32
0.0
 13
1.0
 23
0.0
 33
0.0
 40
0.0
 40
0.0
 40
0.0
 40
0.0
 40
1.0
 40
1.0
 40
1.0
 40
2.0
 40
2.0
 40
2.0
 40
3.0
 40
3.0
 40
3.0
 40
4.0
 40
4.0
 40
4.0
 40
5.0
 40
5.0
 40
5.0
 40
6.0
 40
6.0
 40
6.0
 40
7.0
 40
7.0
 40
7.0
 40
7.0
 10
86.87721216361057
 20
-116.9151719542782
 30
0.0
 10
86.87721216361057
 20
-116.9151719542782
 30
0.0
 10
86.87721216361057
 20
-115.8108465964813
 30
0.0
 10
86.87721216361057
 20
-115.8108465964813
 30
0.0
 10
86.87721216361057
 20
-115.8108465964813
 30
0.0
 10
86.54717201612362
 20
-115.8108465964813
 30
0.0
 10
86.54717201612362
 20
-115.8108465964813
 30
0.0
 10
86.54717201612362
 20
-115.8108465964813
 30
0.0
 10
86.54717201612362
 20
-115.6628797453898
 30
0.0
 10
86.54717201612362
 20
-115.6628797453898
 30
0.0
 10
86.87927922090171
 20
-115.6480658348033
 30
0.0
 10
86.92578800995258
 20
-115.485112818351
 30
0.0
 10
86.95541583112573
 20
-115.3709079030149
 30
0.0
 10
86.95541583112573
 20
-115.3709079030149
 30
0.0
 10
87.10148787970033
 20
-115.3709079030149
 30
0.0
 10
87.10148787970033
 20
-115.3709079030149
 30
0.0
 10
87.10148787970033
 20
-115.3709079030149
 30
0.0
 10
87.10148787970033
 20
-116.9151719542782
 30
0.0
 10
87.10148787970033
 20
-116.9151719542782
 30
0.0
 10
87.10148787970033
 20
-116.9151719542782
 30
0.0
 10
86.87721216361057
 20
-116.9151719542782
 30
0.0
 10
86.87721216361057
 20
-116.9151719542782
 30
0.0
  0
HATCH
  5
A4
330
9F
100
AcDbEntity
  8
_U+30EC_U+30A4_U+30E4_U+30FC 1
 62
   179
420
  2234388
100
AcDbHatch
 10
0.0
 20
0.0
 30
0.0
210
0.0
220
0.0
230
1.0
  2
SOLID
 70
     1
 71
     0
 91
        1
 92
        1
 93
        1
 72
     4
 94
        3
 73
     0
 74
     1
 95
       26
 96
       22
 40
0.0
 40
0.0
 40
0.0
 40
0.0
 40
1.0
 40
1.0
 40
1.0
 40
2.0
 40
2.0
 40
2.0
 40
3.0
 40
3.0
 40
3.0
 40
4.0
 40
4.0
 40
4.0
 40
5.0
 40
5.0
 40
5.0
 40
6.0
 40
6.0
 40
6.0
 40
7.0
 40
7.0
 40
7.0
 40
7.0
 10
86.87721216361057
 20
-116.9151719542782
 10
86.87721216361057
 20
-116.9151719542782
 10
86.87721216361057
 20
-115.8108465964813
 10
86.87721216361057
 20
-115.8108465964813
 10
86.87721216361057
 20
-115.8108465964813
 10
86.54717201612362
 20
-115.8108465964813
 10
86.54717201612362
 20
-115.8108465964813
 10
86.54717201612362
 20
-115.8108465964813
 10
86.54717201612362
 20
-115.6628797453898
 10
86.54717201612362
 20
-115.6628797453898
 10
86.87927922090171
 20
-115.6480658348033
 10
86.92578800995258
 20
-115.485112818351
 10
86.95541583112573
 20
-115.3709079030149
 10
86.95541583112573
 20
-115.3709079030149
 10
87.10148787970033
 20
-115.3709079030149
 10
87.10148787970033
 20
-115.3709079030149
 10
87.10148787970033
 20
-115.3709079030149
 10
87.10148787970033
 20
-116.9151719542782
 10
87.10148787970033
 20
-116.9151719542782
 10
87.10148787970033
 20
-116.9151719542782
 10
86.87721216361057
 20
-116.9151719542782
 10
86.87721216361057
 20
-116.9151719542782
 97
        0
 97
        0
 75
     2
 76
     1
 98
        0
  0
POLYLINE
  5
A5
330
9F
100
AcDbEntity
  8
_U+30EC_U+30A4_U+30E4_U+30FC 1
370
     0
100
AcDb2dPolyline
 66
     1
 10
0.0
 20
0.0
 30
0.0
  0
VERTEX
  5
A6
330
A5
100
AcDbEntity
  8
_U+30EC_U+30A4_U+30E4_U+30FC 1
370
     0
100
AcDbVertex
100
AcDb2dVertex
 10
87.66269393424753
 20
-116.9151719542782
 30
0.0
  0
VERTEX
  5
A7
330
A5
100
AcDbEntity
  8
_U+30EC_U+30A4_U+30E4_U+30FC 1
370
     0
100
AcDbVertex
100
AcDb2dVertex
 10
87.66269393424753
 20
-116.6635077290806
 30
0.0
  0
VERTEX
  5
A8
330
A5
100
AcDbEntity
  8
_U+30EC_U+30A4_U+30E4_U+30FC 1
370
     0
100
AcDbVertex
100
AcDb2dVertex
 10
87.91435815944503
 20
-116.6635077290806
 30
0.0
  0
VERTEX
  5
A9
330
A5
100
AcDbEntity
  8
_U+30EC_U+30A4_U+30E4_U+30FC 1
370
     0
100
AcDbVertex
100
AcDb2dVertex
 10
87.91435815944503
 20
-116.9151719542782
 30
0.0
  0
VERTEX
  5
AA
330
A5
100
AcDbEntity
  8
_U+30EC_U+30A4_U+30E4_U+30FC 1
370
     0
100
AcDbVertex
100
AcDb2dVertex
 10
87.66269393424753
 20
-116.9151719542782
 30
0.0
  0
SEQEND
  5
AB
330
A5
100
AcDbEntity
  8
_U+30EC_U+30A4_U+30E4_U+30FC 1
370
     0
  0
HATCH
  5
AC
330
9F
100
AcDbEntity
  8
_U+30EC_U+30A4_U+30E4_U+30FC 1
 62
   179
420
  2234388
100
AcDbHatch
 10
0.0
 20
0.0
 30
0.0
210
0.0
220
0.0
230
1.0
  2
SOLID
 70
     1
 71
     0
 91
        1
 92
        1
 93
        4
 72
     1
 10
87.66269393424753
 20
-116.9151719542782
 11
87.66269393424753
 21
-116.6635077290806
 72
     1
 10
87.66269393424753
 20
-116.6635077290806
 11
87.91435815944503
 21
-116.6635077290806
 72
     1
 10
87.91435815944503
 20
-116.6635077290806
 11
87.91435815944503
 21
-116.9151719542782
 72
     1
 10
87.91435815944503
 20
-116.9151719542782
 11
87.66269393424753
 21
-116.9151719542782
 97
        0
 75
     2
 76
     1
 98
        0
  0
POLYLINE
  5
AD
330
9F
100
AcDbEntity
  8
_U+30EC_U+30A4_U+30E4_U+30FC 1
370
     0
100
AcDb2dPolyline
 66
     1
 10
0.0
 20
0.0
 30
0.0
  0
VERTEX
  5
AE
330
AD
100
AcDbEntity
  8
_U+30EC_U+30A4_U+30E4_U+30FC 1
370
     0
100
AcDbVertex
100
AcDb2dVertex
 10
88.98285452419526
 20
-116.5682508389135
 30
0.0
  0
VERTEX
  5
AF
330
AD
100
AcDbEntity
  8
_U+30EC_U+30A4_U+30E4_U+30FC 1
370
     0
100
AcDbVertex
100
AcDb2dVertex
 10
88.98285452419526
 20
-116.9151719542782
 30
0.0
  0
VERTEX
  5
B0
330
AD
100
AcDbEntity
  8
_U+30EC_U+30A4_U+30E4_U+30FC 1
370
     0
100
AcDbVertex
100
AcDb2dVertex
 10
88.76495223475321
 20
-116.9151719542782
 30
0.0
  0
VERTEX
  5
B1
330
AD
100
AcDbEntity
  8
_U+30EC_U+30A4_U+30E4_U+30FC 1
370
     0
100
AcDbVertex
100
AcDb2dVertex
 10
88.76495223475321
 20
-116.5682508389135
 30
0.0
  0
VERTEX
  5
B2
330
AD
100
AcDbEntity
  8
_U+30EC_U+30A4_U+30E4_U+30FC 1
370
     0
100
AcDbVertex
100
AcDb2dVertex
 10
88.1091783091359
 20
-116.5682508389135
 30
0.0
  0
VERTEX
  5
B3
330
AD
100
AcDbEntity
  8
_U+30EC_U+30A4_U+30E4_U+30FC 1
370
     0
100
AcDbVertex
100
AcDb2dVertex
 10
88.1091783091359
 20
-116.3439751228237
 30
0.0
  0
VERTEX
  5
B4
330
AD
100
AcDbEntity
  8
_U+30EC_U+30A4_U+30E4_U+30FC 1
370
     0
100
AcDbVertex
100
AcDb2dVertex
 10
88.78820662927865
 20
-115.3709079030149
 30
0.0
  0
VERTEX
  5
B5
330
AD
100
AcDbEntity
  8
_U+30EC_U+30A4_U+30E4_U+30FC 1
370
     0
100
AcDbVertex
100
AcDb2dVertex
 10
88.98285452419526
 20
-115.3709079030149
 30
0.0
  0
VERTEX
  5
B6
330
AD
100
AcDbEntity
  8
_U+30EC_U+30A4_U+30E4_U+30FC 1
370
     0
100
AcDbVertex
100
AcDb2dVertex
 10
88.98285452419526
 20
-116.3692965746403
 30
0.0
  0
VERTEX
  5
B7
330
AD
100
AcDbEntity
  8
_U+30EC_U+30A4_U+30E4_U+30FC 1
370
     0
100
AcDbVertex
100
AcDb2dVertex
 10
89.1902492724073
 20
-116.3692965746403
 30
0.0
  0
VERTEX
  5
B8
330
AD
100
AcDbEntity
  8
_U+30EC_U+30A4_U+30E4_U+30FC 1
370
     0
100
AcDbVertex
100
AcDb2dVertex
 10
89.1902492724073
 20
-116.5682508389135
 30
0.0
  0
VERTEX
  5
B9
330
AD
100
AcDbEntity
  8
_U+30EC_U+30A4_U+30E4_U+30FC 1
370
     0
100
AcDbVertex
100
AcDb2dVertex
 10
88.98285452419526
 20
-116.5682508389135
 30
0.0
  0
SEQEND
  5
BA
330
AD
100
AcDbEntity
  8
_U+30EC_U+30A4_U+30E4_U+30FC 1
370
     0
  0
POLYLINE
  5
BB
330
9F
100
AcDbEntity
  8
_U+30EC_U+30A4_U+30E4_U+30FC 1
370
     0
100
AcDb2dPolyline
 66
     1
 10
0.0
 20
0.0
 30
0.0
  0
VERTEX
  5
BC
330
BB
100
AcDbEntity
  8
_U+30EC_U+30A4_U+30E4_U+30FC 1
370
     0
100
AcDbVertex
100
AcDb2dVertex
 10
88.76495223475321
 20
-115.713522649023
 30
0.0
  0
VERTEX
  5
BD
330
BB
100
AcDbEntity
  8
_U+30EC_U+30A4_U+30E4_U+30FC 1
370
     0
100
AcDbVertex
100
AcDb2dVertex
 10
88.30813257340908
 20
-116.3692965746403
 30
0.0
  0
VERTEX
  5
BE
330
BB
100
AcDbEntity
  8
_U+30EC_U+30A4_U+30E4_U+30FC 1
370
     0
100
AcDbVertex
100
AcDb2dVertex
 10
88.76495223475321
 20
-116.3692965746403
 30
0.0
  0
VERTEX
  5
BF
330
BB
100
AcDbEntity
  8
_U+30EC_U+30A4_U+30E4_U+30FC 1
370
     0
100
AcDbVertex
100
AcDb2dVertex
 10
88.76495223475321
 20
-115.713522649023
 30
0.0
  0
SEQEND
  5
C0
330
BB
100
AcDbEntity
  8
_U+30EC_U+30A4_U+30E4_U+30FC 1
370
     0
  0
HATCH
  5
C1
330
9F
100
AcDbEntity
  8
_U+30EC_U+30A4_U+30E4_U+30FC 1
 62
   179
420
  2234388
100
AcDbHatch
 10
0.0
 20
0.0
 30
0.0
210
0.0
220
0.0
230
1.0
  2
SOLID
 70
     1
 71
     0
 91
        2
 92
        1
 93
       11
 72
     1
 10
88.98285452419526
 20
-116.5682508389135
 11
88.98285452419526
 21
-116.9151719542782
 72
     1
 10
88.98285452419526
 20
-116.9151719542782
 11
88.76495223475321
 21
-116.9151719542782
 72
     1
 10
88.76495223475321
 20
-116.9151719542782
 11
88.76495223475321
 21
-116.5682508389135
 72
     1
 10
88.76495223475321
 20
-116.5682508389135
 11
88.1091783091359
 21
-116.5682508389135
 72
     1
 10
88.1091783091359
 20
-116.5682508389135
 11
88.1091783091359
 21
-116.3439751228237
 72
     1
 10
88.1091783091359
 20
-116.3439751228237
 11
88.78820662927865
 21
-115.3709079030149
 72
     1
 10
88.78820662927865
 20
-115.3709079030149
 11
88.98285452419526
 21
-115.3709079030149
 72
     1
 10
88.98285452419526
 20
-115.3709079030149
 11
88.98285452419526
 21
-116.3692965746403
 72
     1
 10
88.98285452419526
 20
-116.3692965746403
 11
89.1902492724073
 21
-116.3692965746403
 72
     1
 10
89.1902492724073
 20
-116.3692965746403
 11
89.1902492724073
 21
-116.5682508389135
 72
     1
 10
89.1902492724073
 20
-116.5682508389135
 11
88.98285452419526
 21
-116.5682508389135
 97
        0
 92
        1
 93
        3
 72
     1
 10
88.76495223475321
 20
-115.713522649023
 11
88.30813257340908
 21
-116.3692965746403
 72
     1
 10
88.30813257340908
 20
-116.3692965746403
 11
88.76495223475321
 21
-116.3692965746403
 72
     1
 10
88.76495223475321
 20
-116.3692965746403
 11
88.76495223475321
 21
-115.713522649023
 97
        0
 75
     2
 76
     1
 98
        0
  0
ENDBLK
  5
A2
330
9F
100
AcDbEntity
  8
0
100
AcDbBlockEnd
  0
BLOCK
  5
C4
330
C2
100
AcDbEntity
  8
0
100
AcDbBlockBegin
  2
block 4
 70
     0
 10
0.0
 20
0.0
 30
0.0
  3
block 4
  1

  0
SPLINE
  5
C6
330
C2
100
AcDbEntity
  8
_U+30EC_U+30A4_U+30E4_U+30FC 1
 62
   179
420
  2234388
370
    25
100
AcDbSpline
210
0.0
220
0.0
230
1.0
 70
    11
 71
     3
 72
    17
 73
    13
 74
     0
 42
0.0000000001
 43
0.0000000001
 12
1.0
 22
0.0
 32
0.0
 13
1.0
 23
0.0
 33
0.0
 40
0.0
 40
0.0
 40
0.0
 40
0.0
 40
1.0
 40
1.0
 40
1.0
 40
2.0
 40
2.0
 40
2.0
 40
3.0
 40
3.0
 40
3.0
 40
4.0
 40
4.0
 40
4.0
 40
4.0
 10
87.36950665990707
 20
-119.9532285811229
 30
0.0
 10
87.36950665990707
 20
-119.9628594144538
 30
0.0
 10
87.36160443788646
 20
-119.9707969144518
 30
0.0
 10
87.35193832702195
 20
-119.9707969144518
 30
0.0
 10
87.34230749393431
 20
-119.9707969144518
 30
0.0
 10
87.3343722003886
 20
-119.9628594144538
 30
0.0
 10
87.3343722003886
 20
-119.9532285811229
 30
0.0
 10
87.3343722003886
 20
-119.9432449700143
 30
0.0
 10
87.34230749393431
 20
-119.9353074700163
 30
0.0
 10
87.35193832702195
 20
-119.9353074700163
 30
0.0
 10
87.36160443788646
 20
-119.9353074700163
 30
0.0
 10
87.36950665990707
 20
-119.9432449700143
 30
0.0
 10
87.36950665990707
 20
-119.9532285811229
 30
0.0
  0
ENDBLK
  5
C5
330
C2
100
AcDbEntity
  8
0
100
AcDbBlockEnd
  0
BLOCK
  5
C9
330
C7
100
AcDbEntity
  8
0
100
AcDbBlockBegin
  2
block 5
 70
     0
 10
0.0
 20
0.0
 30
0.0
  3
block 5
  1

  0
SPLINE
  5
CB
330
C7
100
AcDbEntity
  8
_U+30EC_U+30A4_U+30E4_U+30FC 1
 62
   179
420
  2234388
370
    25
100
AcDbSpline
210
0.0
220
0.0
230
1.0
 70
    11
 71
     3
 72
    17
 73
    13
 74
     0
 42
0.0000000001
 43
0.0000000001
 12
1.0
 22
0.0
 32
0.0
 13
1.0
 23
0.0
 33
0.0
 40
0.0
 40
0.0
 40
0.0
 40
0.0
 40
1.0
 40
1.0
 40
1.0
 40
2.0
 40
2.0
 40
2.0
 40
3.0
 40
3.0
 40
3.0
 40
4.0
 40
4.0
 40
4.0
 40
4.0
 10
88.06956108909363
 20
-119.9532285811229
 30
0.0
 10
88.06956108909363
 20
-119.9628594144538
 30
0.0
 10
88.06162136447197
 20
-119.9707969144518
 30
0.0
 10
88.05199053138435
 20
-119.9707969144518
 30
0.0
 10
88.04232442051985
 20
-119.9707969144518
 30
0.0
 10
88.03442219849923
 20
-119.9628594144538
 30
0.0
 10
88.03442219849923
 20
-119.9532285811229
 30
0.0
 10
88.03442219849923
 20
-119.9432449700143
 30
0.0
 10
88.04232442051985
 20
-119.9353074700163
 30
0.0
 10
88.05199053138435
 20
-119.9353074700163
 30
0.0
 10
88.06162136447197
 20
-119.9353074700163
 30
0.0
 10
88.06956108909363
 20
-119.9432449700143
 30
0.0
 10
88.06956108909363
 20
-119.9532285811229
 30
0.0
  0
ENDBLK
  5
CA
330
C7
100
AcDbEntity
  8
0
100
AcDbBlockEnd
  0
BLOCK
  5
CE
330
CC
100
AcDbEntity
  8
0
100
AcDbBlockBegin
  2
block 6
 70
     0
 10
0.0
 20
0.0
 30
0.0
  3
block 6
  1

  0
SPLINE
  5
D0
330
CC
100
AcDbEntity
  8
_U+30EC_U+30A4_U+30E4_U+30FC 1
 62
   179
420
  2234388
370
     9
100
AcDbSpline
210
0.0
220
0.0
230
1.0
 70
    11
 71
     3
 72
    17
 73
    13
 74
     0
 42
0.0000000001
 43
0.0000000001
 12
1.0
 22
0.0
 32
0.0
 13
1.0
 23
0.0
 33
0.0
 40
0.0
 40
0.0
 40
0.0
 40
0.0
 40
1.0
 40
1.0
 40
1.0
 40
2.0
 40
2.0
 40
2.0
 40
3.0
 40
3.0
 40
3.0
 40
4.0
 40
4.0
 40
4.0
 40
4.0
 10
88.06956108909363
 20
-117.9530138594005
 30
0.0
 10
88.06956108909363
 20
-117.9629974705094
 30
0.0
 10
88.06162136447197
 20
-117.9705821927297
 30
0.0
 10
88.05199053138435
 20
-117.9705821927297
 30
0.0
 10
88.04232442051985
 20
-117.9705821927297
 30
0.0
 10
88.03442219849923
 20
-117.9629974705094
 30
0.0
 10
88.03442219849923
 20
-117.9530138594005
 30
0.0
 10
88.03442219849923
 20
-117.9433477482918
 30
0.0
 10
88.04232442051985
 20
-117.9354455260716
 30
0.0
 10
88.05199053138435
 20
-117.9354455260716
 30
0.0
 10
88.06162136447197
 20
-117.9354455260716
 30
0.0
 10
88.06956108909363
 20
-117.9433477482918
 30
0.0
 10
88.06956108909363
 20
-117.9530138594005
 30
0.0
  0
ENDBLK
  5
CF
330
CC
100
AcDbEntity
  8
0
100
AcDbBlockEnd
  0
BLOCK
  5
DF
330
DD
100
AcDbEntity
  8
0
100
AcDbBlockBegin
  2
block 7
 70
     0
 10
0.0
 20
0.0
 30
0.0
  3
block 7
  1

  0
SPLINE
  5
E1
330
DD
100
AcDbEntity
  8
_U+30EC_U+30A4_U+30E4_U+30FC 1
370
     0
100
AcDbSpline
210
0.0
220
0.0
230
1.0
 70
    11
 71
     3
 72
    53
 73
    49
 74
     0
 42
0.0000000001
 43
0.0000000001
 12
1.0
 22
0.0
 32
0.0
 13
1.0
 23
0.0
 33
0.0
 40
0.0
 40
0.0
 40
0.0
 40
0.0
 40
1.0
 40
1.0
 40
1.0
 40
2.0
 40
2.0
 40
2.0
 40
3.0
 40
3.0
 40
3.0
 40
4.0
 40
4.0
 40
4.0
 40
5.0
 40
5.0
 40
5.0
 40
6.0
 40
6.0
 40
6.0
 40
7.0
 40
7.0
 40
7.0
 40
8.0
 40
8.0
 40
8.0
 40
9.0
 40
9.0
 40
9.0
 40
10.0
 40
10.0
 40
10.0
 40
11.0
 40
11.0
 40
11.0
 40
12.0
 40
12.0
 40
12.0
 40
13.0
 40
13.0
 40
13.0
 40
14.0
 40
14.0
 40
14.0
 40
15.0
 40
15.0
 40
15.0
 40
16.0
 40
16.0
 40
16.0
 40
16.0
 10
94.09038083585241
 20
-132.3374864035476
 30
0.0
 10
94.01183265878872
 20
-132.3374864035476
 30
0.0
 10
93.91054685152237
 20
-132.3206054356698
 30
0.0
 10
93.80857202515897
 20
-132.2572156787413
 30
0.0
 10
93.6352837222509
 20
-132.1469726232133
 30
0.0
 10
93.61426863979088
 20
-132.0160589947738
 30
0.0
 10
93.59497610507348
 20
-131.9078829965369
 30
0.0
 10
93.59497610507348
 20
-131.9078829965369
 30
0.0
 10
93.81718476387209
 20
-131.9078829965369
 30
0.0
 10
93.81718476387209
 20
-131.9078829965369
 30
0.0
 10
93.8723062916361
 20
-132.1070095155844
 30
0.0
 10
93.99943031504182
 20
-132.1366373367575
 30
0.0
 10
94.09244789314356
 20
-132.1366373367575
 30
0.0
 10
94.23197426029618
 20
-132.1366373367575
 30
0.0
 10
94.38424748074422
 20
-132.0370740772338
 30
0.0
 10
94.38424748074422
 20
-131.8045301319794
 30
0.0
 10
94.38424748074422
 20
-131.5482150278768
 30
0.0
 10
94.20441349641418
 20
-131.4786240990748
 30
0.0
 10
94.08383515443043
 20
-131.4786240990748
 30
0.0
 10
94.05214027596614
 20
-131.4786240990748
 30
0.0
 10
93.91054685152237
 20
-131.4786240990748
 30
0.0
 10
93.82166338800292
 20
-131.6074706702231
 30
0.0
 10
93.82166338800292
 20
-131.6074706702231
 30
0.0
 10
93.64596351825519
 20
-131.5885226450543
 30
0.0
 10
93.64596351825519
 20
-131.5885226450543
 30
0.0
 10
93.64596351825519
 20
-131.5885226450543
 30
0.0
 10
93.76654186023893
 20
-130.7424071938769
 30
0.0
 10
93.76654186023893
 20
-130.7424071938769
 30
0.0
 10
93.76654186023893
 20
-130.7424071938769
 30
0.0
 10
94.54513343990538
 20
-130.7424071938769
 30
0.0
 10
94.54513343990538
 20
-130.7424071938769
 30
0.0
 10
94.54513343990538
 20
-130.7424071938769
 30
0.0
 10
94.54513343990538
 20
-130.9370550887935
 30
0.0
 10
94.54513343990538
 20
-130.9370550887935
 30
0.0
 10
94.54513343990538
 20
-130.9370550887935
 30
0.0
 10
93.92915036714271
 20
-130.9370550887935
 30
0.0
 10
93.92915036714271
 20
-130.9370550887935
 30
0.0
 10
93.92915036714271
 20
-130.9370550887935
 30
0.0
 10
93.86369355292297
 20
-131.3601128143822
 30
0.0
 10
93.86369355292297
 20
-131.3601128143822
 30
0.0
 10
93.92501625256041
 20
-131.3263508786268
 30
0.0
 10
94.00769854420642
 20
-131.2860432614493
 30
0.0
 10
94.12620982889901
 20
-131.2860432614493
 30
0.0
 10
94.3797688566134
 20
-131.2860432614493
 30
0.0
 10
94.61679142599858
 20
-131.4724229272013
 30
0.0
 10
94.61679142599858
 20
-131.785237597262
 30
0.0
 10
94.61679142599858
 20
-132.1028754010021
 30
0.0
 10
94.39286021945735
 20
-132.3374864035476
 30
0.0
 10
94.09038083585241
 20
-132.3374864035476
 30
0.0
  0
HATCH
  5
E2
330
DD
100
AcDbEntity
  8
_U+30EC_U+30A4_U+30E4_U+30FC 1
 62
   179
420
  2234388
100
AcDbHatch
 10
0.0
 20
0.0
 30
0.0
210
0.0
220
0.0
230
1.0
  2
SOLID
 70
     1
 71
     0
 91
        1
 92
        1
 93
        1
 72
     4
 94
        3
 73
     0
 74
     1
 95
       53
 96
       49
 40
0.0
 40
0.0
 40
0.0
 40
0.0
 40
1.0
 40
1.0
 40
1.0
 40
2.0
 40
2.0
 40
2.0
 40
3.0
 40
3.0
 40
3.0
 40
4.0
 40
4.0
 40
4.0
 40
5.0
 40
5.0
 40
5.0
 40
6.0
 40
6.0
 40
6.0
 40
7.0
 40
7.0
 40
7.0
 40
8.0
 40
8.0
 40
8.0
 40
9.0
 40
9.0
 40
9.0
 40
10.0
 40
10.0
 40
10.0
 40
11.0
 40
11.0
 40
11.0
 40
12.0
 40
12.0
 40
12.0
 40
13.0
 40
13.0
 40
13.0
 40
14.0
 40
14.0
 40
14.0
 40
15.0
 40
15.0
 40
15.0
 40
16.0
 40
16.0
 40
16.0
 40
16.0
 10
94.09038083585241
 20
-132.3374864035476
 10
94.01183265878872
 20
-132.3374864035476
 10
93.91054685152237
 20
-132.3206054356698
 10
93.80857202515897
 20
-132.2572156787413
 10
93.6352837222509
 20
-132.1469726232133
 10
93.61426863979088
 20
-132.0160589947738
 10
93.59497610507348
 20
-131.9078829965369
 10
93.59497610507348
 20
-131.9078829965369
 10
93.81718476387209
 20
-131.9078829965369
 10
93.81718476387209
 20
-131.9078829965369
 10
93.8723062916361
 20
-132.1070095155844
 10
93.99943031504182
 20
-132.1366373367575
 10
94.09244789314356
 20
-132.1366373367575
 10
94.23197426029618
 20
-132.1366373367575
 10
94.38424748074422
 20
-132.0370740772338
 10
94.38424748074422
 20
-131.8045301319794
 10
94.38424748074422
 20
-131.5482150278768
 10
94.20441349641418
 20
-131.4786240990748
 10
94.08383515443043
 20
-131.4786240990748
 10
94.05214027596614
 20
-131.4786240990748
 10
93.91054685152237
 20
-131.4786240990748
 10
93.82166338800292
 20
-131.6074706702231
 10
93.82166338800292
 20
-131.6074706702231
 10
93.64596351825519
 20
-131.5885226450543
 10
93.64596351825519
 20
-131.5885226450543
 10
93.64596351825519
 20
-131.5885226450543
 10
93.76654186023893
 20
-130.7424071938769
 10
93.76654186023893
 20
-130.7424071938769
 10
93.76654186023893
 20
-130.7424071938769
 10
94.54513343990538
 20
-130.7424071938769
 10
94.54513343990538
 20
-130.7424071938769
 10
94.54513343990538
 20
-130.7424071938769
 10
94.54513343990538
 20
-130.9370550887935
 10
94.54513343990538
 20
-130.9370550887935
 10
94.54513343990538
 20
-130.9370550887935
 10
93.92915036714271
 20
-130.9370550887935
 10
93.92915036714271
 20
-130.9370550887935
 10
93.92915036714271
 20
-130.9370550887935
 10
93.86369355292297
 20
-131.3601128143822
 10
93.86369355292297
 20
-131.3601128143822
 10
93.92501625256041
 20
-131.3263508786268
 10
94.00769854420642
 20
-131.2860432614493
 10
94.12620982889901
 20
-131.2860432614493
 10
94.3797688566134
 20
-131.2860432614493
 10
94.61679142599858
 20
-131.4724229272013
 10
94.61679142599858
 20
-131.785237597262
 10
94.61679142599858
 20
-132.1028754010021
 10
94.39286021945735
 20
-132.3374864035476
 10
94.09038083585241
 20
-132.3374864035476
 97
        0
 97
        0
 75
     2
 76
     1
 98
        0
  0
ENDBLK
  5
E0
330
DD
100
AcDbEntity
  8
0
100
AcDbBlockEnd
  0
BLOCK
  5
E5
330
E3
100
AcDbEntity
  8
0
100
AcDbBlockBegin
  2
block 8
 70
     0
 10
0.0
 20
0.0
 30
0.0
  3
block 8
  1

  0
SPLINE
  5
E7
330
E3
100
AcDbEntity
  8
_U+30EC_U+30A4_U+30E4_U+30FC 1
 62
   179
420
  2234388
370
    25
100
AcDbSpline
210
0.0
220
0.0
230
1.0
 70
    11
 71
     3
 72
    17
 73
    13
 74
     0
 42
0.0000000001
 43
0.0000000001
 12
1.0
 22
0.0
 32
0.0
 13
1.0
 23
0.0
 33
0.0
 40
0.0
 40
0.0
 40
0.0
 40
0.0
 40
1.0
 40
1.0
 40
1.0
 40
2.0
 40
2.0
 40
2.0
 40
3.0
 40
3.0
 40
3.0
 40
4.0
 40
4.0
 40
4.0
 40
4.0
 10
92.86945553233834
 20
-134.9533396884842
 30
0.0
 10
92.86945553233834
 20
-134.9630057995925
 30
0.0
 10
92.8618684642297
 20
-134.9705905218131
 30
0.0
 10
92.85220235336519
 20
-134.9705905218131
 30
0.0
 10
92.84257152027756
 20
-134.9705905218131
 30
0.0
 10
92.83428124271128
 20
-134.9630057995925
 30
0.0
 10
92.83428124271128
 20
-134.9533396884842
 30
0.0
 10
92.83428124271128
 20
-134.9430032995978
 30
0.0
 10
92.84257152027756
 20
-134.9354185773772
 30
0.0
 10
92.85220235336519
 20
-134.9354185773772
 30
0.0
 10
92.8618684642297
 20
-134.9354185773772
 30
0.0
 10
92.86945553233834
 20
-134.9430032995978
 30
0.0
 10
92.86945553233834
 20
-134.9533396884842
 30
0.0
  0
ENDBLK
  5
E6
330
E3
100
AcDbEntity
  8
0
100
AcDbBlockEnd
  0
BLOCK
  5
EA
330
E8
100
AcDbEntity
  8
0
100
AcDbBlockBegin
  2
block 9
 70
     0
 10
0.0
 20
0.0
 30
0.0
  3
block 9
  1

  0
SPLINE
  5
EC
330
E8
100
AcDbEntity
  8
_U+30EC_U+30A4_U+30E4_U+30FC 1
 62
   179
420
  2234388
370
    25
100
AcDbSpline
210
0.0
220
0.0
230
1.0
 70
    11
 71
     3
 72
    17
 73
    13
 74
     0
 42
0.0000000001
 43
0.0000000001
 12
1.0
 22
0.0
 32
0.0
 13
1.0
 23
0.0
 33
0.0
 40
0.0
 40
0.0
 40
0.0
 40
0.0
 40
1.0
 40
1.0
 40
1.0
 40
2.0
 40
2.0
 40
2.0
 40
3.0
 40
3.0
 40
3.0
 40
4.0
 40
4.0
 40
4.0
 40
4.0
 10
95.36987145580076
 20
-134.9533396884842
 30
0.0
 10
95.36987145580076
 20
-134.9630057995925
 30
0.0
 10
95.36161645601136
 20
-134.9705905218131
 30
0.0
 10
95.35198562292373
 20
-134.9705905218131
 30
0.0
 10
95.34231951205923
 20
-134.9705905218131
 30
0.0
 10
95.33406451226983
 20
-134.9630057995925
 30
0.0
 10
95.33406451226983
 20
-134.9533396884842
 30
0.0
 10
95.33406451226983
 20
-134.9430032995978
 30
0.0
 10
95.34231951205923
 20
-134.9354185773772
 30
0.0
 10
95.35198562292373
 20
-134.9354185773772
 30
0.0
 10
95.36161645601136
 20
-134.9354185773772
 30
0.0
 10
95.36987145580076
 20
-134.9430032995978
 30
0.0
 10
95.36987145580076
 20
-134.9533396884842
 30
0.0
  0
ENDBLK
  5
EB
330
E8
100
AcDbEntity
  8
0
100
AcDbBlockEnd
  0
BLOCK
  5
EF
330
ED
100
AcDbEntity
  8
0
100
AcDbBlockBegin
  2
block 10
 70
     0
 10
0.0
 20
0.0
 30
0.0
  3
block 10
  1

  0
SPLINE
  5
F1
330
ED
100
AcDbEntity
  8
_U+30EC_U+30A4_U+30E4_U+30FC 1
 62
   179
420
  2234388
370
     9
100
AcDbSpline
210
0.0
220
0.0
230
1.0
 70
    11
 71
     3
 72
    17
 73
    13
 74
     0
 42
0.0000000001
 43
0.0000000001
 12
1.0
 22
0.0
 32
0.0
 13
1.0
 23
0.0
 33
0.0
 40
0.0
 40
0.0
 40
0.0
 40
0.0
 40
1.0
 40
1.0
 40
1.0
 40
2.0
 40
2.0
 40
2.0
 40
3.0
 40
3.0
 40
3.0
 40
4.0
 40
4.0
 40
4.0
 40
4.0
 10
95.36987145580076
 20
-132.9531249667617
 30
0.0
 10
95.36987145580076
 20
-132.9627558000926
 30
0.0
 10
95.36161645601136
 20
-132.9710460778687
 30
0.0
 10
95.35198562292373
 20
-132.9710460778687
 30
0.0
 10
95.34231951205923
 20
-132.9710460778687
 30
0.0
 10
95.33406451226983
 20
-132.9627558000926
 30
0.0
 10
95.33406451226983
 20
-132.9531249667617
 30
0.0
 10
95.33406451226983
 20
-132.9434941334309
 30
0.0
 10
95.34231951205923
 20
-132.9352038556548
 30
0.0
 10
95.35198562292373
 20
-132.9352038556548
 30
0.0
 10
95.36161645601136
 20
-132.9352038556548
 30
0.0
 10
95.36987145580076
 20
-132.9434941334309
 30
0.0
 10
95.36987145580076
 20
-132.9531249667617
 30
0.0
  0
ENDBLK
  5
F0
330
ED
100
AcDbEntity
  8
0
100
AcDbBlockEnd
  0
BLOCK
  5
100
330
FE
100
AcDbEntity
  8
0
100
AcDbBlockBegin
  2
block 11
 70
     0
 10
0.0
 20
0.0
 30
0.0
  3
block 11
  1

  0
SPLINE
  5
102
330
FE
100
AcDbEntity
  8
_U+30EC_U+30A4_U+30E4_U+30FC 1
370
     0
100
AcDbSpline
210
0.0
220
0.0
230
1.0
 70
    11
 71
     3
 72
    26
 73
    22
 74
     0
 42
0.0000000001
 43
0.0000000001
 12
1.0
 22
0.0
 32
0.0
 13
1.0
 23
0.0
 33
0.0
 40
0.0
 40
0.0
 40
0.0
 40
0.0
 40
1.0
 40
1.0
 40
1.0
 40
2.0
 40
2.0
 40
2.0
 40
3.0
 40
3.0
 40
3.0
 40
4.0
 40
4.0
 40
4.0
 40
5.0
 40
5.0
 40
5.0
 40
6.0
 40
6.0
 40
6.0
 40
7.0
 40
7.0
 40
7.0
 40
7.0
 10
90.88075762701939
 20
-141.5358913491646
 30
0.0
 10
90.88075762701939
 20
-141.5358913491646
 30
0.0
 10
90.88075762701939
 20
-140.4317382461421
 30
0.0
 10
90.88075762701939
 20
-140.4317382461421
 30
0.0
 10
90.88075762701939
 20
-140.4317382461421
 30
0.0
 10
90.55071747953247
 20
-140.4317382461421
 30
0.0
 10
90.55071747953247
 20
-140.4317382461421
 30
0.0
 10
90.55071747953247
 20
-140.4317382461421
 30
0.0
 10
90.55071747953247
 20
-140.2835991402763
 30
0.0
 10
90.55071747953247
 20
-140.2835991402763
 30
0.0
 10
90.88282468431055
 20
-140.2687852296897
 30
0.0
 10
90.92933347336142
 20
-140.1058322132374
 30
0.0
 10
90.95896129453457
 20
-139.9914550431271
 30
0.0
 10
90.95896129453457
 20
-139.9914550431271
 30
0.0
 10
91.10503334310916
 20
-139.9914550431271
 30
0.0
 10
91.10503334310916
 20
-139.9914550431271
 30
0.0
 10
91.10503334310916
 20
-139.9914550431271
 30
0.0
 10
91.10503334310916
 20
-141.5358913491646
 30
0.0
 10
91.10503334310916
 20
-141.5358913491646
 30
0.0
 10
91.10503334310916
 20
-141.5358913491646
 30
0.0
 10
90.88075762701939
 20
-141.5358913491646
 30
0.0
 10
90.88075762701939
 20
-141.5358913491646
 30
0.0
  0
HATCH
  5
103
330
FE
100
AcDbEntity
  8
_U+30EC_U+30A4_U+30E4_U+30FC 1
 62
   179
420
  2234388
100
AcDbHatch
 10
0.0
 20
0.0
 30
0.0
210
0.0
220
0.0
230
1.0
  2
SOLID
 70
     1
 71
     0
 91
        1
 92
        1
 93
        1
 72
     4
 94
        3
 73
     0
 74
     1
 95
       26
 96
       22
 40
0.0
 40
0.0
 40
0.0
 40
0.0
 40
1.0
 40
1.0
 40
1.0
 40
2.0
 40
2.0
 40
2.0
 40
3.0
 40
3.0
 40
3.0
 40
4.0
 40
4.0
 40
4.0
 40
5.0
 40
5.0
 40
5.0
 40
6.0
 40
6.0
 40
6.0
 40
7.0
 40
7.0
 40
7.0
 40
7.0
 10
90.88075762701939
 20
-141.5358913491646
 10
90.88075762701939
 20
-141.5358913491646
 10
90.88075762701939
 20
-140.4317382461421
 10
90.88075762701939
 20
-140.4317382461421
 10
90.88075762701939
 20
-140.4317382461421
 10
90.55071747953247
 20
-140.4317382461421
 10
90.55071747953247
 20
-140.4317382461421
 10
90.55071747953247
 20
-140.4317382461421
 10
90.55071747953247
 20
-140.2835991402763
 10
90.55071747953247
 20
-140.2835991402763
 10
90.88282468431055
 20
-140.2687852296897
 10
90.92933347336142
 20
-140.1058322132374
 10
90.95896129453457
 20
-139.9914550431271
 10
90.95896129453457
 20
-139.9914550431271
 10
91.10503334310916
 20
-139.9914550431271
 10
91.10503334310916
 20
-139.9914550431271
 10
91.10503334310916
 20
-139.9914550431271
 10
91.10503334310916
 20
-141.5358913491646
 10
91.10503334310916
 20
-141.5358913491646
 10
91.10503334310916
 20
-141.5358913491646
 10
90.88075762701939
 20
-141.5358913491646
 10
90.88075762701939
 20
-141.5358913491646
 97
        0
 97
        0
 75
     2
 76
     1
 98
        0
  0
SPLINE
  5
104
330
FE
100
AcDbEntity
  8
_U+30EC_U+30A4_U+30E4_U+30FC 1
370
     0
100
AcDbSpline
210
0.0
220
0.0
230
1.0
 70
    11
 71
     3
 72
    32
 73
    28
 74
     0
 42
0.0000000001
 43
0.0000000001
 12
1.0
 22
0.0
 32
0.0
 13
1.0
 23
0.0
 33
0.0
 40
0.0
 40
0.0
 40
0.0
 40
0.0
 40
1.0
 40
1.0
 40
1.0
 40
2.0
 40
2.0
 40
2.0
 40
3.0
 40
3.0
 40
3.0
 40
4.0
 40
4.0
 40
4.0
 40
5.0
 40
5.0
 40
5.0
 40
6.0
 40
6.0
 40
6.0
 40
7.0
 40
7.0
 40
7.0
 40
8.0
 40
8.0
 40
8.0
 40
9.0
 40
9.0
 40
9.0
 40
9.0
 10
92.11048446047933
 20
-141.5865342527978
 30
0.0
 10
91.59406464724037
 20
-141.5865342527978
 30
0.0
 10
91.58579641807577
 20
-141.0325628987696
 30
0.0
 10
91.58579641807577
 20
-140.8189669786842
 30
0.0
 10
91.58579641807577
 20
-140.5881455811724
 30
0.0
 10
91.60508895279318
 20
-139.940812139494
 30
0.0
 10
92.1487250203656
 20
-139.940812139494
 30
0.0
 10
92.32201332327367
 20
-139.940812139494
 30
0.0
 10
92.56730412182345
 20
-140.0107475778445
 30
0.0
 10
92.60554468170973
 20
-140.3428547826226
 30
0.0
 10
92.60554468170973
 20
-140.3428547826226
 30
0.0
 10
92.39194876162423
 20
-140.3428547826226
 30
0.0
 10
92.39194876162423
 20
-140.3428547826226
 30
0.0
 10
92.38126896561997
 20
-140.2856661975675
 30
0.0
 10
92.34957408715566
 20
-140.1375270917017
 30
0.0
 10
92.14665796307445
 20
-140.1375270917017
 30
0.0
 10
91.85451386592527
 20
-140.1375270917017
 30
0.0
 10
91.81420624874784
 20
-140.4655001818975
 30
0.0
 10
91.80145939545241
 20
-140.6708278728184
 30
0.0
 10
91.89447697355416
 20
-140.5922796957547
 30
0.0
 10
91.96234535461359
 20
-140.5330240534084
 30
0.0
 10
92.14424639623478
 20
-140.5330240534084
 30
0.0
 10
92.32408038056482
 20
-140.5330240534084
 30
0.0
 10
92.62655976416976
 20
-140.6412000516453
 30
0.0
 10
92.62655976416976
 20
-141.0470322998077
 30
0.0
 10
92.62655976416976
 20
-141.3667371608389
 30
0.0
 10
92.42777775467084
 20
-141.5865342527978
 30
0.0
 10
92.11048446047933
 20
-141.5865342527978
 30
0.0
  0
SPLINE
  5
105
330
FE
100
AcDbEntity
  8
_U+30EC_U+30A4_U+30E4_U+30FC 1
370
     0
100
AcDbSpline
210
0.0
220
0.0
230
1.0
 70
    11
 71
     3
 72
    17
 73
    13
 74
     0
 42
0.0000000001
 43
0.0000000001
 12
1.0
 22
0.0
 32
0.0
 13
1.0
 23
0.0
 33
0.0
 40
0.0
 40
0.0
 40
0.0
 40
0.0
 40
1.0
 40
1.0
 40
1.0
 40
2.0
 40
2.0
 40
2.0
 40
3.0
 40
3.0
 40
3.0
 40
4.0
 40
4.0
 40
4.0
 40
4.0
 10
92.12736542835705
 20
-140.7280164578736
 30
0.0
 10
91.86484915238101
 20
-140.7280164578736
 30
0.0
 10
91.82695310204326
 20
-140.9395453206679
 30
0.0
 10
91.82695310204326
 20
-141.0556450385208
 30
0.0
 10
91.82695310204326
 20
-141.2313449082686
 30
0.0
 10
91.92203773743616
 20
-141.3942979247209
 30
0.0
 10
92.1060058363485
 20
-141.3942979247209
 30
0.0
 10
92.22658417833225
 20
-141.3942979247209
 30
0.0
 10
92.40228404807999
 20
-141.3350422823746
 30
0.0
 10
92.40228404807999
 20
-141.0490993570988
 30
0.0
 10
92.40228404807999
 20
-140.8251681505576
 30
0.0
 10
92.26275768092736
 20
-140.7280164578736
 30
0.0
 10
92.12736542835705
 20
-140.7280164578736
 30
0.0
  0
HATCH
  5
106
330
FE
100
AcDbEntity
  8
_U+30EC_U+30A4_U+30E4_U+30FC 1
 62
   179
420
  2234388
100
AcDbHatch
 10
0.0
 20
0.0
 30
0.0
210
0.0
220
0.0
230
1.0
  2
SOLID
 70
     1
 71
     0
 91
        2
 92
        1
 93
        1
 72
     4
 94
        3
 73
     0
 74
     1
 95
       32
 96
       28
 40
0.0
 40
0.0
 40
0.0
 40
0.0
 40
1.0
 40
1.0
 40
1.0
 40
2.0
 40
2.0
 40
2.0
 40
3.0
 40
3.0
 40
3.0
 40
4.0
 40
4.0
 40
4.0
 40
5.0
 40
5.0
 40
5.0
 40
6.0
 40
6.0
 40
6.0
 40
7.0
 40
7.0
 40
7.0
 40
8.0
 40
8.0
 40
8.0
 40
9.0
 40
9.0
 40
9.0
 40
9.0
 10
92.11048446047933
 20
-141.5865342527978
 10
91.59406464724037
 20
-141.5865342527978
 10
91.58579641807577
 20
-141.0325628987696
 10
91.58579641807577
 20
-140.8189669786842
 10
91.58579641807577
 20
-140.5881455811724
 10
91.60508895279318
 20
-139.940812139494
 10
92.1487250203656
 20
-139.940812139494
 10
92.32201332327367
 20
-139.940812139494
 10
92.56730412182345
 20
-140.0107475778445
 10
92.60554468170973
 20
-140.3428547826226
 10
92.60554468170973
 20
-140.3428547826226
 10
92.39194876162423
 20
-140.3428547826226
 10
92.39194876162423
 20
-140.3428547826226
 10
92.38126896561997
 20
-140.2856661975675
 10
92.34957408715566
 20
-140.1375270917017
 10
92.14665796307445
 20
-140.1375270917017
 10
91.85451386592527
 20
-140.1375270917017
 10
91.81420624874784
 20
-140.4655001818975
 10
91.80145939545241
 20
-140.6708278728184
 10
91.89447697355416
 20
-140.5922796957547
 10
91.96234535461359
 20
-140.5330240534084
 10
92.14424639623478
 20
-140.5330240534084
 10
92.32408038056482
 20
-140.5330240534084
 10
92.62655976416976
 20
-140.6412000516453
 10
92.62655976416976
 20
-141.0470322998077
 10
92.62655976416976
 20
-141.3667371608389
 10
92.42777775467084
 20
-141.5865342527978
 10
92.11048446047933
 20
-141.5865342527978
 97
        0
 97
        0
 92
        1
 93
        1
 72
     4
 94
        3
 73
     0
 74
     1
 95
       17
 96
       13
 40
0.0
 40
0.0
 40
0.0
 40
0.0
 40
1.0
 40
1.0
 40
1.0
 40
2.0
 40
2.0
 40
2.0
 40
3.0
 40
3.0
 40
3.0
 40
4.0
 40
4.0
 40
4.0
 40
4.0
 10
92.12736542835705
 20
-140.7280164578736
 10
91.86484915238101
 20
-140.7280164578736
 10
91.82695310204326
 20
-140.9395453206679
 10
91.82695310204326
 20
-141.0556450385208
 10
91.82695310204326
 20
-141.2313449082686
 10
91.92203773743616
 20
-141.3942979247209
 10
92.1060058363485
 20
-141.3942979247209
 10
92.22658417833225
 20
-141.3942979247209
 10
92.40228404807999
 20
-141.3350422823746
 10
92.40228404807999
 20
-141.0490993570988
 10
92.40228404807999
 20
-140.8251681505576
 10
92.26275768092736
 20
-140.7280164578736
 10
92.12736542835705
 20
-140.7280164578736
 97
        0
 97
        0
 75
     2
 76
     1
 98
        0
  0
ENDBLK
  5
101
330
FE
100
AcDbEntity
  8
0
100
AcDbBlockEnd
  0
BLOCK
  5
109
330
107
100
AcDbEntity
  8
0
100
AcDbBlockBegin
  2
block 12
 70
     0
 10
0.0
 20
0.0
 30
0.0
  3
block 12
  1

  0
SPLINE
  5
10B
330
107
100
AcDbEntity
  8
_U+30EC_U+30A4_U+30E4_U+30FC 1
 62
   179
420
  2234388
370
    25
100
AcDbSpline
210
0.0
220
0.0
230
1.0
 70
    11
 71
     3
 72
    17
 73
    13
 74
     0
 42
0.0000000001
 43
0.0000000001
 12
1.0
 22
0.0
 32
0.0
 13
1.0
 23
0.0
 33
0.0
 40
0.0
 40
0.0
 40
0.0
 40
0.0
 40
1.0
 40
1.0
 40
1.0
 40
2.0
 40
2.0
 40
2.0
 40
3.0
 40
3.0
 40
3.0
 40
4.0
 40
4.0
 40
4.0
 40
4.0
 10
87.36950665990707
 20
-137.4531230211923
 30
0.0
 10
87.36950665990707
 20
-137.4627538545232
 30
0.0
 10
87.36160443788646
 20
-137.4710088545211
 30
0.0
 10
87.35193832702195
 20
-137.4710088545211
 30
0.0
 10
87.34230749393431
 20
-137.4710088545211
 30
0.0
 10
87.3343722003886
 20
-137.4627538545232
 30
0.0
 10
87.3343722003886
 20
-137.4531230211923
 30
0.0
 10
87.3343722003886
 20
-137.4434569100833
 30
0.0
 10
87.34230749393431
 20
-137.4352019100854
 30
0.0
 10
87.35193832702195
 20
-137.4352019100854
 30
0.0
 10
87.36160443788646
 20
-137.4352019100854
 30
0.0
 10
87.36950665990707
 20
-137.4434569100833
 30
0.0
 10
87.36950665990707
 20
-137.4531230211923
 30
0.0
  0
ENDBLK
  5
10A
330
107
100
AcDbEntity
  8
0
100
AcDbBlockEnd
  0
BLOCK
  5
10E
330
10C
100
AcDbEntity
  8
0
100
AcDbBlockBegin
  2
block 13
 70
     0
 10
0.0
 20
0.0
 30
0.0
  3
block 13
  1

  0
SPLINE
  5
110
330
10C
100
AcDbEntity
  8
_U+30EC_U+30A4_U+30E4_U+30FC 1
 62
   179
420
  2234388
370
    25
100
AcDbSpline
210
0.0
220
0.0
230
1.0
 70
    11
 71
     3
 72
    17
 73
    13
 74
     0
 42
0.0000000001
 43
0.0000000001
 12
1.0
 22
0.0
 32
0.0
 13
1.0
 23
0.0
 33
0.0
 40
0.0
 40
0.0
 40
0.0
 40
0.0
 40
1.0
 40
1.0
 40
1.0
 40
2.0
 40
2.0
 40
2.0
 40
3.0
 40
3.0
 40
3.0
 40
4.0
 40
4.0
 40
4.0
 40
4.0
 10
95.36987145580076
 20
-137.4531230211923
 30
0.0
 10
95.36987145580076
 20
-137.4627538545232
 30
0.0
 10
95.36161645601136
 20
-137.4710088545211
 30
0.0
 10
95.35198562292373
 20
-137.4710088545211
 30
0.0
 10
95.34231951205923
 20
-137.4710088545211
 30
0.0
 10
95.33406451226983
 20
-137.4627538545232
 30
0.0
 10
95.33406451226983
 20
-137.4531230211923
 30
0.0
 10
95.33406451226983
 20
-137.4434569100833
 30
0.0
 10
95.34231951205923
 20
-137.4352019100854
 30
0.0
 10
95.35198562292373
 20
-137.4352019100854
 30
0.0
 10
95.36161645601136
 20
-137.4352019100854
 30
0.0
 10
95.36987145580076
 20
-137.4434569100833
 30
0.0
 10
95.36987145580076
 20
-137.4531230211923
 30
0.0
  0
ENDBLK
  5
10F
330
10C
100
AcDbEntity
  8
0
100
AcDbBlockEnd
  0
BLOCK
  5
113
330
111
100
AcDbEntity
  8
0
100
AcDbBlockBegin
  2
block 14
 70
     0
 10
0.0
 20
0.0
 30
0.0
  3
block 14
  1

  0
SPLINE
  5
115
330
111
100
AcDbEntity
  8
_U+30EC_U+30A4_U+30E4_U+30FC 1
 62
   179
420
  2234388
370
     9
100
AcDbSpline
210
0.0
220
0.0
230
1.0
 70
    11
 71
     3
 72
    17
 73
    13
 74
     0
 42
0.0000000001
 43
0.0000000001
 12
1.0
 22
0.0
 32
0.0
 13
1.0
 23
0.0
 33
0.0
 40
0.0
 40
0.0
 40
0.0
 40
0.0
 40
1.0
 40
1.0
 40
1.0
 40
2.0
 40
2.0
 40
2.0
 40
3.0
 40
3.0
 40
3.0
 40
4.0
 40
4.0
 40
4.0
 40
4.0
 10
95.36987145580076
 20
-139.4533377429148
 30
0.0
 10
95.36987145580076
 20
-139.4629685762456
 30
0.0
 10
95.36161645601136
 20
-139.4705532984655
 30
0.0
 10
95.35198562292373
 20
-139.4705532984655
 30
0.0
 10
95.34231951205923
 20
-139.4705532984655
 30
0.0
 10
95.33406451226983
 20
-139.4629685762456
 30
0.0
 10
95.33406451226983
 20
-139.4533377429148
 30
0.0
 10
95.33406451226983
 20
-139.4436716318058
 30
0.0
 10
95.34231951205923
 20
-139.4354166318078
 30
0.0
 10
95.35198562292373
 20
-139.4354166318078
 30
0.0
 10
95.36161645601136
 20
-139.4354166318078
 30
0.0
 10
95.36987145580076
 20
-139.4436716318058
 30
0.0
 10
95.36987145580076
 20
-139.4533377429148
 30
0.0
  0
ENDBLK
  5
114
330
111
100
AcDbEntity
  8
0
100
AcDbBlockEnd
  0
BLOCK
  5
124
330
122
100
AcDbEntity
  8
0
100
AcDbBlockBegin
  2
block 15
 70
     0
 10
0.0
 20
0.0
 30
0.0
  3
block 15
  1

  0
SPLINE
  5
126
330
122
100
AcDbEntity
  8
_U+30EC_U+30A4_U+30E4_U+30FC 1
370
     0
100
AcDbSpline
210
0.0
220
0.0
230
1.0
 70
    11
 71
     3
 72
    62
 73
    58
 74
     0
 42
0.0000000001
 43
0.0000000001
 12
1.0
 22
0.0
 32
0.0
 13
1.0
 23
0.0
 33
0.0
 40
0.0
 40
0.0
 40
0.0
 40
0.0
 40
1.0
 40
1.0
 40
1.0
 40
2.0
 40
2.0
 40
2.0
 40
3.0
 40
3.0
 40
3.0
 40
4.0
 40
4.0
 40
4.0
 40
5.0
 40
5.0
 40
5.0
 40
6.0
 40
6.0
 40
6.0
 40
7.0
 40
7.0
 40
7.0
 40
8.0
 40
8.0
 40
8.0
 40
9.0
 40
9.0
 40
9.0
 40
10.0
 40
10.0
 40
10.0
 40
11.0
 40
11.0
 40
11.0
 40
12.0
 40
12.0
 40
12.0
 40
13.0
 40
13.0
 40
13.0
 40
14.0
 40
14.0
 40
14.0
 40
15.0
 40
15.0
 40
15.0
 40
16.0
 40
16.0
 40
16.0
 40
17.0
 40
17.0
 40
17.0
 40
18.0
 40
18.0
 40
18.0
 40
19.0
 40
19.0
 40
19.0
 40
19.0
 10
83.38664141795543
 20
-129.3002902237513
 30
0.0
 10
83.38664141795543
 20
-129.3957193686927
 30
0.0
 10
83.36545408072114
 20
-129.6134494033605
 30
0.0
 10
83.17924666974339
 20
-129.7381618599266
 30
0.0
 10
83.0671088116985
 20
-129.8122314128595
 30
0.0
 10
82.96771780694904
 20
-129.8167100369903
 30
0.0
 10
82.88314071278616
 20
-129.8208441515726
 30
0.0
 10
82.88314071278616
 20
-129.8208441515726
 30
0.0
 10
82.88314071278616
 20
-129.6007025500651
 30
0.0
 10
82.88314071278616
 20
-129.6007025500651
 30
0.0
 10
82.95721026571904
 20
-129.598635492774
 30
0.0
 10
83.19199352303882
 20
-129.5879556967697
 30
0.0
 10
83.19199352303882
 20
-129.3044243383336
 30
0.0
 10
83.19199352303882
 20
-129.1669650284722
 30
0.0
 10
83.1222303394625
 20
-129.0146918080241
 30
0.0
 10
82.89364825401617
 20
-129.0146918080241
 30
0.0
 10
82.777376281389
 20
-129.0146918080241
 30
0.0
 10
82.72862818027271
 20
-129.0525878583618
 30
0.0
 10
82.69693330180841
 20
-129.0842827368262
 30
0.0
 10
82.62286374887553
 20
-129.1586967993076
 30
0.0
 10
82.61028915035438
 20
-129.275141026709
 30
0.0
 10
82.61028915035438
 20
-129.3299180449245
 30
0.0
 10
82.61028915035438
 20
-129.3488660700934
 30
0.0
 10
82.61235620764553
 20
-129.3846950631399
 30
0.0
 10
82.61649032222783
 20
-129.4122558270219
 30
0.0
 10
82.61649032222783
 20
-129.4122558270219
 30
0.0
 10
82.42201468208548
 20
-129.4122558270219
 30
0.0
 10
82.42201468208548
 20
-129.4122558270219
 30
0.0
 10
82.42821585395892
 20
-129.3743597766842
 30
0.0
 10
82.43045516602433
 20
-129.3319851022156
 30
0.0
 10
82.43045516602433
 20
-129.3254394207937
 30
0.0
 10
82.43045516602433
 20
-129.2599826065739
 30
0.0
 10
82.40926782879005
 20
-129.061200597075
 30
0.0
 10
82.17224525940486
 20
-129.061200597075
 30
0.0
 10
81.99465058714023
 20
-129.061200597075
 30
0.0
 10
81.93952905937623
 20
-129.192458735063
 30
0.0
 10
81.93952905937623
 20
-129.3023572810425
 30
0.0
 10
81.93952905937623
 20
-129.5665961047611
 30
0.0
 10
82.17224525940486
 20
-129.5752088434743
 30
0.0
 10
82.24424775504659
 20
-129.5796874676051
 30
0.0
 10
82.24424775504659
 20
-129.5796874676051
 30
0.0
 10
82.24424775504659
 20
-129.7826035916863
 30
0.0
 10
82.24424775504659
 20
-129.7826035916863
 30
0.0
 10
82.11936304370627
 20
-129.7739908529732
 30
0.0
 10
81.74281410716847
 20
-129.7464300890912
 30
0.0
 10
81.74281410716847
 20
-129.289610427747
 30
0.0
 10
81.74281410716847
 20
-129.0656792212058
 30
0.0
 10
81.86976587579993
 20
-128.8245225372383
 30
0.0
 10
82.16587183275715
 20
-128.8245225372383
 30
0.0
 10
82.3520792437349
 20
-128.8245225372383
 30
0.0
 10
82.43458928060663
 20
-128.9196071726312
 30
0.0
 10
82.49591198024409
 20
-129.0188259226064
 30
0.0
 10
82.52347274412608
 20
-128.957503222969
 30
0.0
 10
82.60391572370666
 20
-128.7756021813478
 30
0.0
 10
82.88107365549502
 20
-128.7756021813478
 30
0.0
 10
83.21955428692081
 20
-128.7756021813478
 30
0.0
 10
83.38664141795543
 20
-129.0229600371887
 30
0.0
 10
83.38664141795543
 20
-129.3002902237513
 30
0.0
  0
HATCH
  5
127
330
122
100
AcDbEntity
  8
_U+30EC_U+30A4_U+30E4_U+30FC 1
 62
   179
420
  2234388
100
AcDbHatch
 10
0.0
 20
0.0
 30
0.0
210
0.0
220
0.0
230
1.0
  2
SOLID
 70
     1
 71
     0
 91
        1
 92
        1
 93
        1
 72
     4
 94
        3
 73
     0
 74
     1
 95
       62
 96
       58
 40
0.0
 40
0.0
 40
0.0
 40
0.0
 40
1.0
 40
1.0
 40
1.0
 40
2.0
 40
2.0
 40
2.0
 40
3.0
 40
3.0
 40
3.0
 40
4.0
 40
4.0
 40
4.0
 40
5.0
 40
5.0
 40
5.0
 40
6.0
 40
6.0
 40
6.0
 40
7.0
 40
7.0
 40
7.0
 40
8.0
 40
8.0
 40
8.0
 40
9.0
 40
9.0
 40
9.0
 40
10.0
 40
10.0
 40
10.0
 40
11.0
 40
11.0
 40
11.0
 40
12.0
 40
12.0
 40
12.0
 40
13.0
 40
13.0
 40
13.0
 40
14.0
 40
14.0
 40
14.0
 40
15.0
 40
15.0
 40
15.0
 40
16.0
 40
16.0
 40
16.0
 40
17.0
 40
17.0
 40
17.0
 40
18.0
 40
18.0
 40
18.0
 40
19.0
 40
19.0
 40
19.0
 40
19.0
 10
83.38664141795543
 20
-129.3002902237513
 10
83.38664141795543
 20
-129.3957193686927
 10
83.36545408072114
 20
-129.6134494033605
 10
83.17924666974339
 20
-129.7381618599266
 10
83.0671088116985
 20
-129.8122314128595
 10
82.96771780694904
 20
-129.8167100369903
 10
82.88314071278616
 20
-129.8208441515726
 10
82.88314071278616
 20
-129.8208441515726
 10
82.88314071278616
 20
-129.6007025500651
 10
82.88314071278616
 20
-129.6007025500651
 10
82.95721026571904
 20
-129.598635492774
 10
83.19199352303882
 20
-129.5879556967697
 10
83.19199352303882
 20
-129.3044243383336
 10
83.19199352303882
 20
-129.1669650284722
 10
83.1222303394625
 20
-129.0146918080241
 10
82.89364825401617
 20
-129.0146918080241
 10
82.777376281389
 20
-129.0146918080241
 10
82.72862818027271
 20
-129.0525878583618
 10
82.69693330180841
 20
-129.0842827368262
 10
82.62286374887553
 20
-129.1586967993076
 10
82.61028915035438
 20
-129.275141026709
 10
82.61028915035438
 20
-129.3299180449245
 10
82.61028915035438
 20
-129.3488660700934
 10
82.61235620764553
 20
-129.3846950631399
 10
82.61649032222783
 20
-129.4122558270219
 10
82.61649032222783
 20
-129.4122558270219
 10
82.42201468208548
 20
-129.4122558270219
 10
82.42201468208548
 20
-129.4122558270219
 10
82.42821585395892
 20
-129.3743597766842
 10
82.43045516602433
 20
-129.3319851022156
 10
82.43045516602433
 20
-129.3254394207937
 10
82.43045516602433
 20
-129.2599826065739
 10
82.40926782879005
 20
-129.061200597075
 10
82.17224525940486
 20
-129.061200597075
 10
81.99465058714023
 20
-129.061200597075
 10
81.93952905937623
 20
-129.192458735063
 10
81.93952905937623
 20
-129.3023572810425
 10
81.93952905937623
 20
-129.5665961047611
 10
82.17224525940486
 20
-129.5752088434743
 10
82.24424775504659
 20
-129.5796874676051
 10
82.24424775504659
 20
-129.5796874676051
 10
82.24424775504659
 20
-129.7826035916863
 10
82.24424775504659
 20
-129.7826035916863
 10
82.11936304370627
 20
-129.7739908529732
 10
81.74281410716847
 20
-129.7464300890912
 10
81.74281410716847
 20
-129.289610427747
 10
81.74281410716847
 20
-129.0656792212058
 10
81.86976587579993
 20
-128.8245225372383
 10
82.16587183275715
 20
-128.8245225372383
 10
82.3520792437349
 20
-128.8245225372383
 10
82.43458928060663
 20
-128.9196071726312
 10
82.49591198024409
 20
-129.0188259226064
 10
82.52347274412608
 20
-128.957503222969
 10
82.60391572370666
 20
-128.7756021813478
 10
82.88107365549502
 20
-128.7756021813478
 10
83.21955428692081
 20
-128.7756021813478
 10
83.38664141795543
 20
-129.0229600371887
 10
83.38664141795543
 20
-129.3002902237513
 97
        0
 97
        0
 75
     2
 76
     1
 98
        0
  0
SPLINE
  5
128
330
122
100
AcDbEntity
  8
_U+30EC_U+30A4_U+30E4_U+30FC 1
370
     0
100
AcDbSpline
210
0.0
220
0.0
230
1.0
 70
    11
 71
     3
 72
    53
 73
    49
 74
     0
 42
0.0000000001
 43
0.0000000001
 12
1.0
 22
0.0
 32
0.0
 13
1.0
 23
0.0
 33
0.0
 40
0.0
 40
0.0
 40
0.0
 40
0.0
 40
1.0
 40
1.0
 40
1.0
 40
2.0
 40
2.0
 40
2.0
 40
3.0
 40
3.0
 40
3.0
 40
4.0
 40
4.0
 40
4.0
 40
5.0
 40
5.0
 40
5.0
 40
6.0
 40
6.0
 40
6.0
 40
7.0
 40
7.0
 40
7.0
 40
8.0
 40
8.0
 40
8.0
 40
9.0
 40
9.0
 40
9.0
 40
10.0
 40
10.0
 40
10.0
 40
11.0
 40
11.0
 40
11.0
 40
12.0
 40
12.0
 40
12.0
 40
13.0
 40
13.0
 40
13.0
 40
14.0
 40
14.0
 40
14.0
 40
15.0
 40
15.0
 40
15.0
 40
16.0
 40
16.0
 40
16.0
 40
16.0
 10
83.38664141795543
 20
-128.13395314722
 30
0.0
 10
83.38664141795543
 20
-128.2123290695094
 30
0.0
 10
83.3697604500777
 20
-128.31378713155
 30
0.0
 10
83.30619843837485
 20
-128.4154174483649
 30
0.0
 10
83.19612763762112
 20
-128.5888780060472
 30
0.0
 10
83.06504175440736
 20
-128.6100653432815
 30
0.0
 10
82.95721026571904
 20
-128.6290133684504
 30
0.0
 10
82.95721026571904
 20
-128.6290133684504
 30
0.0
 10
82.95721026571904
 20
-128.406976964426
 30
0.0
 10
82.95721026571904
 20
-128.406976964426
 30
0.0
 10
83.15599227521795
 20
-128.351855436662
 30
0.0
 10
83.1856200963911
 20
-128.2249036680306
 30
0.0
 10
83.1856200963911
 20
-128.1318860899288
 30
0.0
 10
83.1856200963911
 20
-127.992187468002
 30
0.0
 10
83.08622909164164
 20
-127.8399142475539
 30
0.0
 10
82.85351289161301
 20
-127.8399142475539
 30
0.0
 10
82.59754229705895
 20
-127.8399142475539
 30
0.0
 10
82.52777911348264
 20
-128.019748231884
 30
0.0
 10
82.52777911348264
 20
-128.1403265738677
 30
0.0
 10
82.52777911348264
 20
-128.172021452332
 30
0.0
 10
82.52777911348264
 20
-128.31378713155
 30
0.0
 10
82.65679793940525
 20
-128.4026705950695
 30
0.0
 10
82.65679793940525
 20
-128.4026705950695
 30
0.0
 10
82.63767765946211
 20
-128.578198210043
 30
0.0
 10
82.63767765946211
 20
-128.578198210043
 30
0.0
 10
82.63767765946211
 20
-128.578198210043
 30
0.0
 10
81.79156220828476
 20
-128.4576198680592
 30
0.0
 10
81.79156220828476
 20
-128.4576198680592
 30
0.0
 10
81.79156220828476
 20
-128.4576198680592
 30
0.0
 10
81.79156220828476
 20
-127.679200543167
 30
0.0
 10
81.79156220828476
 20
-127.679200543167
 30
0.0
 10
81.79156220828476
 20
-127.679200543167
 30
0.0
 10
81.98621010320137
 20
-127.679200543167
 30
0.0
 10
81.98621010320137
 20
-127.679200543167
 30
0.0
 10
81.98621010320137
 20
-127.679200543167
 30
0.0
 10
81.98621010320137
 20
-128.2948391063811
 30
0.0
 10
81.98621010320137
 20
-128.2948391063811
 30
0.0
 10
81.98621010320137
 20
-128.2948391063811
 30
0.0
 10
82.40926782879005
 20
-128.3602959206009
 30
0.0
 10
82.40926782879005
 20
-128.3602959206009
 30
0.0
 10
82.37533363826034
 20
-128.2989732209635
 30
0.0
 10
82.33519827585718
 20
-128.2164631840917
 30
0.0
 10
82.33519827585718
 20
-128.0981241541734
 30
0.0
 10
82.33519827585718
 20
-127.8442206169105
 30
0.0
 10
82.52140568683492
 20
-127.6071980475253
 30
0.0
 10
82.83439261166988
 20
-127.6071980475253
 30
0.0
 10
83.15185816063565
 20
-127.6071980475253
 30
0.0
 10
83.38664141795543
 20
-127.8314737636151
 30
0.0
 10
83.38664141795543
 20
-128.13395314722
 30
0.0
  0
HATCH
  5
129
330
122
100
AcDbEntity
  8
_U+30EC_U+30A4_U+30E4_U+30FC 1
 62
   179
420
  2234388
100
AcDbHatch
 10
0.0
 20
0.0
 30
0.0
210
0.0
220
0.0
230
1.0
  2
SOLID
 70
     1
 71
     0
 91
        1
 92
        1
 93
        1
 72
     4
 94
        3
 73
     0
 74
     1
 95
       53
 96
       49
 40
0.0
 40
0.0
 40
0.0
 40
0.0
 40
1.0
 40
1.0
 40
1.0
 40
2.0
 40
2.0
 40
2.0
 40
3.0
 40
3.0
 40
3.0
 40
4.0
 40
4.0
 40
4.0
 40
5.0
 40
5.0
 40
5.0
 40
6.0
 40
6.0
 40
6.0
 40
7.0
 40
7.0
 40
7.0
 40
8.0
 40
8.0
 40
8.0
 40
9.0
 40
9.0
 40
9.0
 40
10.0
 40
10.0
 40
10.0
 40
11.0
 40
11.0
 40
11.0
 40
12.0
 40
12.0
 40
12.0
 40
13.0
 40
13.0
 40
13.0
 40
14.0
 40
14.0
 40
14.0
 40
15.0
 40
15.0
 40
15.0
 40
16.0
 40
16.0
 40
16.0
 40
16.0
 10
83.38664141795543
 20
-128.13395314722
 10
83.38664141795543
 20
-128.2123290695094
 10
83.3697604500777
 20
-128.31378713155
 10
83.30619843837485
 20
-128.4154174483649
 10
83.19612763762112
 20
-128.5888780060472
 10
83.06504175440736
 20
-128.6100653432815
 10
82.95721026571904
 20
-128.6290133684504
 10
82.95721026571904
 20
-128.6290133684504
 10
82.95721026571904
 20
-128.406976964426
 10
82.95721026571904
 20
-128.406976964426
 10
83.15599227521795
 20
-128.351855436662
 10
83.1856200963911
 20
-128.2249036680306
 10
83.1856200963911
 20
-128.1318860899288
 10
83.1856200963911
 20
-127.992187468002
 10
83.08622909164164
 20
-127.8399142475539
 10
82.85351289161301
 20
-127.8399142475539
 10
82.59754229705895
 20
-127.8399142475539
 10
82.52777911348264
 20
-128.019748231884
 10
82.52777911348264
 20
-128.1403265738677
 10
82.52777911348264
 20
-128.172021452332
 10
82.52777911348264
 20
-128.31378713155
 10
82.65679793940525
 20
-128.4026705950695
 10
82.65679793940525
 20
-128.4026705950695
 10
82.63767765946211
 20
-128.578198210043
 10
82.63767765946211
 20
-128.578198210043
 10
82.63767765946211
 20
-128.578198210043
 10
81.79156220828476
 20
-128.4576198680592
 10
81.79156220828476
 20
-128.4576198680592
 10
81.79156220828476
 20
-128.4576198680592
 10
81.79156220828476
 20
-127.679200543167
 10
81.79156220828476
 20
-127.679200543167
 10
81.79156220828476
 20
-127.679200543167
 10
81.98621010320137
 20
-127.679200543167
 10
81.98621010320137
 20
-127.679200543167
 10
81.98621010320137
 20
-127.679200543167
 10
81.98621010320137
 20
-128.2948391063811
 10
81.98621010320137
 20
-128.2948391063811
 10
81.98621010320137
 20
-128.2948391063811
 10
82.40926782879005
 20
-128.3602959206009
 10
82.40926782879005
 20
-128.3602959206009
 10
82.37533363826034
 20
-128.2989732209635
 10
82.33519827585718
 20
-128.2164631840917
 10
82.33519827585718
 20
-128.0981241541734
 10
82.33519827585718
 20
-127.8442206169105
 10
82.52140568683492
 20
-127.6071980475253
 10
82.83439261166988
 20
-127.6071980475253
 10
83.15185816063565
 20
-127.6071980475253
 10
83.38664141795543
 20
-127.8314737636151
 10
83.38664141795543
 20
-128.13395314722
 97
        0
 97
        0
 75
     2
 76
     1
 98
        0
  0
ENDBLK
  5
125
330
122
100
AcDbEntity
  8
0
100
AcDbBlockEnd
  0
BLOCK
  5
12C
330
12A
100
AcDbEntity
  8
0
100
AcDbBlockBegin
  2
block 16
 70
     0
 10
0.0
 20
0.0
 30
0.0
  3
block 16
  1

  0
SPLINE
  5
12E
330
12A
100
AcDbEntity
  8
_U+30EC_U+30A4_U+30E4_U+30FC 1
 62
   179
420
  2234388
370
    25
100
AcDbSpline
210
0.0
220
0.0
230
1.0
 70
    11
 71
     3
 72
    17
 73
    13
 74
     0
 42
0.0000000001
 43
0.0000000001
 12
1.0
 22
0.0
 32
0.0
 13
1.0
 23
0.0
 33
0.0
 40
0.0
 40
0.0
 40
0.0
 40
0.0
 40
1.0
 40
1.0
 40
1.0
 40
2.0
 40
2.0
 40
2.0
 40
3.0
 40
3.0
 40
3.0
 40
4.0
 40
4.0
 40
4.0
 40
4.0
 10
87.36950665990707
 20
-119.9532285811229
 30
0.0
 10
87.36950665990707
 20
-119.9628594144538
 30
0.0
 10
87.36160443788646
 20
-119.9707969144518
 30
0.0
 10
87.35193832702195
 20
-119.9707969144518
 30
0.0
 10
87.34230749393431
 20
-119.9707969144518
 30
0.0
 10
87.3343722003886
 20
-119.9628594144538
 30
0.0
 10
87.3343722003886
 20
-119.9532285811229
 30
0.0
 10
87.3343722003886
 20
-119.9432449700143
 30
0.0
 10
87.34230749393431
 20
-119.9353074700163
 30
0.0
 10
87.35193832702195
 20
-119.9353074700163
 30
0.0
 10
87.36160443788646
 20
-119.9353074700163
 30
0.0
 10
87.36950665990707
 20
-119.9432449700143
 30
0.0
 10
87.36950665990707
 20
-119.9532285811229
 30
0.0
  0
ENDBLK
  5
12D
330
12A
100
AcDbEntity
  8
0
100
AcDbBlockEnd
  0
BLOCK
  5
131
330
12F
100
AcDbEntity
  8
0
100
AcDbBlockBegin
  2
block 17
 70
     0
 10
0.0
 20
0.0
 30
0.0
  3
block 17
  1

  0
SPLINE
  5
133
330
12F
100
AcDbEntity
  8
_U+30EC_U+30A4_U+30E4_U+30FC 1
 62
   179
420
  2234388
370
    25
100
AcDbSpline
210
0.0
220
0.0
230
1.0
 70
    11
 71
     3
 72
    17
 73
    13
 74
     0
 42
0.0000000001
 43
0.0000000001
 12
1.0
 22
0.0
 32
0.0
 13
1.0
 23
0.0
 33
0.0
 40
0.0
 40
0.0
 40
0.0
 40
0.0
 40
1.0
 40
1.0
 40
1.0
 40
2.0
 40
2.0
 40
2.0
 40
3.0
 40
3.0
 40
3.0
 40
4.0
 40
4.0
 40
4.0
 40
4.0
 10
87.36950665990707
 20
-137.4531230211923
 30
0.0
 10
87.36950665990707
 20
-137.4627538545232
 30
0.0
 10
87.36160443788646
 20
-137.4710088545211
 30
0.0
 10
87.35193832702195
 20
-137.4710088545211
 30
0.0
 10
87.34230749393431
 20
-137.4710088545211
 30
0.0
 10
87.3343722003886
 20
-137.4627538545232
 30
0.0
 10
87.3343722003886
 20
-137.4531230211923
 30
0.0
 10
87.3343722003886
 20
-137.4434569100833
 30
0.0
 10
87.34230749393431
 20
-137.4352019100854
 30
0.0
 10
87.35193832702195
 20
-137.4352019100854
 30
0.0
 10
87.36160443788646
 20
-137.4352019100854
 30
0.0
 10
87.36950665990707
 20
-137.4434569100833
 30
0.0
 10
87.36950665990707
 20
-137.4531230211923
 30
0.0
  0
ENDBLK
  5
132
330
12F
100
AcDbEntity
  8
0
100
AcDbBlockEnd
  0
BLOCK
  5
136
330
134
100
AcDbEntity
  8
0
100
AcDbBlockBegin
  2
block 18
 70
     0
 10
0.0
 20
0.0
 30
0.0
  3
block 18
  1

  0
SPLINE
  5
138
330
134
100
AcDbEntity
  8
_U+30EC_U+30A4_U+30E4_U+30FC 1
 62
   179
420
  2234388
370
     9
100
AcDbSpline
210
0.0
220
0.0
230
1.0
 70
    11
 71
     3
 72
    17
 73
    13
 74
     0
 42
0.0000000001
 43
0.0000000001
 12
1.0
 22
0.0
 32
0.0
 13
1.0
 23
0.0
 33
0.0
 40
0.0
 40
0.0
 40
0.0
 40
0.0
 40
1.0
 40
1.0
 40
1.0
 40
2.0
 40
2.0
 40
2.0
 40
3.0
 40
3.0
 40
3.0
 40
4.0
 40
4.0
 40
4.0
 40
4.0
 10
83.97024591329611
 20
-137.4531230211923
 30
0.0
 10
83.97024591329611
 20
-137.4627538545232
 30
0.0
 10
83.9623084134986
 20
-137.4710088545211
 30
0.0
 10
83.95267758041098
 20
-137.4710088545211
 30
0.0
 10
83.94269396955457
 20
-137.4710088545211
 30
0.0
 10
83.93510924752586
 20
-137.4627538545232
 30
0.0
 10
83.93510924752586
 20
-137.4531230211923
 30
0.0
 10
83.93510924752586
 20
-137.4434569100833
 30
0.0
 10
83.94269396955457
 20
-137.4352019100854
 30
0.0
 10
83.95267758041098
 20
-137.4352019100854
 30
0.0
 10
83.9623084134986
 20
-137.4352019100854
 30
0.0
 10
83.97024591329611
 20
-137.4434569100833
 30
0.0
 10
83.97024591329611
 20
-137.4531230211923
 30
0.0
  0
ENDBLK
  5
137
330
134
100
AcDbEntity
  8
0
100
AcDbBlockEnd
  0
BLOCK
  5
147
330
145
100
AcDbEntity
  8
0
100
AcDbBlockBegin
  2
block 19
 70
     0
 10
0.0
 20
0.0
 30
0.0
  3
block 19
  1

  0
SPLINE
  5
149
330
145
100
AcDbEntity
  8
_U+30EC_U+30A4_U+30E4_U+30FC 1
370
     0
100
AcDbSpline
210
0.0
220
0.0
230
1.0
 70
    11
 71
     3
 72
    53
 73
    49
 74
     0
 42
0.0000000001
 43
0.0000000001
 12
1.0
 22
0.0
 32
0.0
 13
1.0
 23
0.0
 33
0.0
 40
0.0
 40
0.0
 40
0.0
 40
0.0
 40
1.0
 40
1.0
 40
1.0
 40
2.0
 40
2.0
 40
2.0
 40
3.0
 40
3.0
 40
3.0
 40
4.0
 40
4.0
 40
4.0
 40
5.0
 40
5.0
 40
5.0
 40
6.0
 40
6.0
 40
6.0
 40
7.0
 40
7.0
 40
7.0
 40
8.0
 40
8.0
 40
8.0
 40
9.0
 40
9.0
 40
9.0
 40
10.0
 40
10.0
 40
10.0
 40
11.0
 40
11.0
 40
11.0
 40
12.0
 40
12.0
 40
12.0
 40
13.0
 40
13.0
 40
13.0
 40
14.0
 40
14.0
 40
14.0
 40
15.0
 40
15.0
 40
15.0
 40
16.0
 40
16.0
 40
16.0
 40
16.0
 10
99.70175236222734
 20
-136.487103915531
 30
0.0
 10
99.70175236222734
 20
-136.5653075830462
 30
0.0
 10
99.68487139434961
 20
-136.666937899861
 30
0.0
 10
99.6211371278725
 20
-136.7682237071274
 30
0.0
 10
99.51123858189302
 20
-136.941856519584
 30
0.0
 10
99.37998044390501
 20
-136.9632161115925
 30
0.0
 10
99.27249346476522
 20
-136.9818196272129
 30
0.0
 10
99.27249346476522
 20
-136.9818196272129
 30
0.0
 10
99.27249346476522
 20
-136.7599554779628
 30
0.0
 10
99.27249346476522
 20
-136.7599554779628
 30
0.0
 10
99.4709309647156
 20
-136.7048339501988
 30
0.0
 10
99.50055878588876
 20
-136.5780544363416
 30
0.0
 10
99.50055878588876
 20
-136.4850368582399
 30
0.0
 10
99.50055878588876
 20
-136.3451659815387
 30
0.0
 10
99.40134003591356
 20
-136.1928927610907
 30
0.0
 10
99.16845158111067
 20
-136.1928927610907
 30
0.0
 10
98.91282549610513
 20
-136.1928927610907
 30
0.0
 10
98.84289005775456
 20
-136.3727267454207
 30
0.0
 10
98.84289005775456
 20
-136.4933050874045
 30
0.0
 10
98.84289005775456
 20
-136.5249999658687
 30
0.0
 10
98.84289005775456
 20
-136.666937899861
 30
0.0
 10
98.97208113845143
 20
-136.7558213633805
 30
0.0
 10
98.97208113845143
 20
-136.7558213633805
 30
0.0
 10
98.95278860373404
 20
-136.9311767235797
 30
0.0
 10
98.95278860373404
 20
-136.9311767235797
 30
0.0
 10
98.95278860373404
 20
-136.9311767235797
 30
0.0
 10
98.10667315255667
 20
-136.810598381596
 30
0.0
 10
98.10667315255667
 20
-136.810598381596
 30
0.0
 10
98.10667315255667
 20
-136.810598381596
 30
0.0
 10
98.10667315255667
 20
-136.032351311478
 30
0.0
 10
98.10667315255667
 20
-136.032351311478
 30
0.0
 10
98.10667315255667
 20
-136.032351311478
 30
0.0
 10
98.30132104747328
 20
-136.032351311478
 30
0.0
 10
98.30132104747328
 20
-136.032351311478
 30
0.0
 10
98.30132104747328
 20
-136.032351311478
 30
0.0
 10
98.30132104747328
 20
-136.6476453651437
 30
0.0
 10
98.30132104747328
 20
-136.6476453651437
 30
0.0
 10
98.30132104747328
 20
-136.6476453651437
 30
0.0
 10
98.72437877306197
 20
-136.7131021793634
 30
0.0
 10
98.72437877306197
 20
-136.7131021793634
 30
0.0
 10
98.690272327758
 20
-136.6517794797259
 30
0.0
 10
98.65030922012909
 20
-136.5694416976285
 30
0.0
 10
98.65030922012909
 20
-136.4512749224844
 30
0.0
 10
98.65030922012909
 20
-136.197026875673
 30
0.0
 10
98.83634437633259
 20
-135.9600043062878
 30
0.0
 10
99.14950355594179
 20
-135.9600043062878
 30
0.0
 10
99.4667968501333
 20
-135.9600043062878
 30
0.0
 10
99.70175236222734
 20
-136.1846245319261
 30
0.0
 10
99.70175236222734
 20
-136.487103915531
 30
0.0
  0
HATCH
  5
14A
330
145
100
AcDbEntity
  8
_U+30EC_U+30A4_U+30E4_U+30FC 1
 62
   179
420
  2234388
100
AcDbHatch
 10
0.0
 20
0.0
 30
0.0
210
0.0
220
0.0
230
1.0
  2
SOLID
 70
     1
 71
     0
 91
        1
 92
        1
 93
        1
 72
     4
 94
        3
 73
     0
 74
     1
 95
       53
 96
       49
 40
0.0
 40
0.0
 40
0.0
 40
0.0
 40
1.0
 40
1.0
 40
1.0
 40
2.0
 40
2.0
 40
2.0
 40
3.0
 40
3.0
 40
3.0
 40
4.0
 40
4.0
 40
4.0
 40
5.0
 40
5.0
 40
5.0
 40
6.0
 40
6.0
 40
6.0
 40
7.0
 40
7.0
 40
7.0
 40
8.0
 40
8.0
 40
8.0
 40
9.0
 40
9.0
 40
9.0
 40
10.0
 40
10.0
 40
10.0
 40
11.0
 40
11.0
 40
11.0
 40
12.0
 40
12.0
 40
12.0
 40
13.0
 40
13.0
 40
13.0
 40
14.0
 40
14.0
 40
14.0
 40
15.0
 40
15.0
 40
15.0
 40
16.0
 40
16.0
 40
16.0
 40
16.0
 10
99.70175236222734
 20
-136.487103915531
 10
99.70175236222734
 20
-136.5653075830462
 10
99.68487139434961
 20
-136.666937899861
 10
99.6211371278725
 20
-136.7682237071274
 10
99.51123858189302
 20
-136.941856519584
 10
99.37998044390501
 20
-136.9632161115925
 10
99.27249346476522
 20
-136.9818196272129
 10
99.27249346476522
 20
-136.9818196272129
 10
99.27249346476522
 20
-136.7599554779628
 10
99.27249346476522
 20
-136.7599554779628
 10
99.4709309647156
 20
-136.7048339501988
 10
99.50055878588876
 20
-136.5780544363416
 10
99.50055878588876
 20
-136.4850368582399
 10
99.50055878588876
 20
-136.3451659815387
 10
99.40134003591356
 20
-136.1928927610907
 10
99.16845158111067
 20
-136.1928927610907
 10
98.91282549610513
 20
-136.1928927610907
 10
98.84289005775456
 20
-136.3727267454207
 10
98.84289005775456
 20
-136.4933050874045
 10
98.84289005775456
 20
-136.5249999658687
 10
98.84289005775456
 20
-136.666937899861
 10
98.97208113845143
 20
-136.7558213633805
 10
98.97208113845143
 20
-136.7558213633805
 10
98.95278860373404
 20
-136.9311767235797
 10
98.95278860373404
 20
-136.9311767235797
 10
98.95278860373404
 20
-136.9311767235797
 10
98.10667315255667
 20
-136.810598381596
 10
98.10667315255667
 20
-136.810598381596
 10
98.10667315255667
 20
-136.810598381596
 10
98.10667315255667
 20
-136.032351311478
 10
98.10667315255667
 20
-136.032351311478
 10
98.10667315255667
 20
-136.032351311478
 10
98.30132104747328
 20
-136.032351311478
 10
98.30132104747328
 20
-136.032351311478
 10
98.30132104747328
 20
-136.032351311478
 10
98.30132104747328
 20
-136.6476453651437
 10
98.30132104747328
 20
-136.6476453651437
 10
98.30132104747328
 20
-136.6476453651437
 10
98.72437877306197
 20
-136.7131021793634
 10
98.72437877306197
 20
-136.7131021793634
 10
98.690272327758
 20
-136.6517794797259
 10
98.65030922012909
 20
-136.5694416976285
 10
98.65030922012909
 20
-136.4512749224844
 10
98.65030922012909
 20
-136.197026875673
 10
98.83634437633259
 20
-135.9600043062878
 10
99.14950355594179
 20
-135.9600043062878
 10
99.4667968501333
 20
-135.9600043062878
 10
99.70175236222734
 20
-136.1846245319261
 10
99.70175236222734
 20
-136.487103915531
 97
        0
 97
        0
 75
     2
 76
     1
 98
        0
  0
ENDBLK
  5
148
330
145
100
AcDbEntity
  8
0
100
AcDbBlockEnd
  0
BLOCK
  5
14D
330
14B
100
AcDbEntity
  8
0
100
AcDbBlockBegin
  2
block 20
 70
     0
 10
0.0
 20
0.0
 30
0.0
  3
block 20
  1

  0
SPLINE
  5
14F
330
14B
100
AcDbEntity
  8
_U+30EC_U+30A4_U+30E4_U+30FC 1
370
     0
100
AcDbSpline
210
0.0
220
0.0
230
1.0
 70
    11
 71
     3
 72
    26
 73
    22
 74
     0
 42
0.0000000001
 43
0.0000000001
 12
1.0
 22
0.0
 32
0.0
 13
1.0
 23
0.0
 33
0.0
 40
0.0
 40
0.0
 40
0.0
 40
0.0
 40
1.0
 40
1.0
 40
1.0
 40
2.0
 40
2.0
 40
2.0
 40
3.0
 40
3.0
 40
3.0
 40
4.0
 40
4.0
 40
4.0
 40
5.0
 40
5.0
 40
5.0
 40
6.0
 40
6.0
 40
6.0
 40
7.0
 40
7.0
 40
7.0
 40
7.0
 10
86.179924837396
 20
-135.8793890719329
 30
0.0
 10
86.179924837396
 20
-135.8793890719329
 30
0.0
 10
85.07559947959916
 20
-135.8793890719329
 30
0.0
 10
85.07559947959916
 20
-135.8793890719329
 30
0.0
 10
85.07559947959916
 20
-135.8793890719329
 30
0.0
 10
85.07559947959916
 20
-136.2094292194199
 30
0.0
 10
85.07559947959916
 20
-136.2094292194199
 30
0.0
 10
85.07559947959916
 20
-136.2094292194199
 30
0.0
 10
84.92763262850768
 20
-136.2094292194199
 30
0.0
 10
84.92763262850768
 20
-136.2094292194199
 30
0.0
 10
84.9128187179211
 20
-135.8773220146418
 30
0.0
 10
84.74986570146879
 20
-135.8308132255909
 30
0.0
 10
84.63566078613276
 20
-135.8011854044178
 30
0.0
 10
84.63566078613276
 20
-135.8011854044178
 30
0.0
 10
84.63566078613276
 20
-135.6551133558432
 30
0.0
 10
84.63566078613276
 20
-135.6551133558432
 30
0.0
 10
84.63566078613276
 20
-135.6551133558432
 30
0.0
 10
86.179924837396
 20
-135.6551133558432
 30
0.0
 10
86.179924837396
 20
-135.6551133558432
 30
0.0
 10
86.179924837396
 20
-135.6551133558432
 30
0.0
 10
86.179924837396
 20
-135.8793890719329
 30
0.0
 10
86.179924837396
 20
-135.8793890719329
 30
0.0
  0
HATCH
  5
150
330
14B
100
AcDbEntity
  8
_U+30EC_U+30A4_U+30E4_U+30FC 1
 62
   179
420
  2234388
100
AcDbHatch
 10
0.0
 20
0.0
 30
0.0
210
0.0
220
0.0
230
1.0
  2
SOLID
 70
     1
 71
     0
 91
        1
 92
        1
 93
        1
 72
     4
 94
        3
 73
     0
 74
     1
 95
       26
 96
       22
 40
0.0
 40
0.0
 40
0.0
 40
0.0
 40
1.0
 40
1.0
 40
1.0
 40
2.0
 40
2.0
 40
2.0
 40
3.0
 40
3.0
 40
3.0
 40
4.0
 40
4.0
 40
4.0
 40
5.0
 40
5.0
 40
5.0
 40
6.0
 40
6.0
 40
6.0
 40
7.0
 40
7.0
 40
7.0
 40
7.0
 10
86.179924837396
 20
-135.8793890719329
 10
86.179924837396
 20
-135.8793890719329
 10
85.07559947959916
 20
-135.8793890719329
 10
85.07559947959916
 20
-135.8793890719329
 10
85.07559947959916
 20
-135.8793890719329
 10
85.07559947959916
 20
-136.2094292194199
 10
85.07559947959916
 20
-136.2094292194199
 10
85.07559947959916
 20
-136.2094292194199
 10
84.92763262850768
 20
-136.2094292194199
 10
84.92763262850768
 20
-136.2094292194199
 10
84.9128187179211
 20
-135.8773220146418
 10
84.74986570146879
 20
-135.8308132255909
 10
84.63566078613276
 20
-135.8011854044178
 10
84.63566078613276
 20
-135.8011854044178
 10
84.63566078613276
 20
-135.6551133558432
 10
84.63566078613276
 20
-135.6551133558432
 10
84.63566078613276
 20
-135.6551133558432
 10
86.179924837396
 20
-135.6551133558432
 10
86.179924837396
 20
-135.6551133558432
 10
86.179924837396
 20
-135.6551133558432
 10
86.179924837396
 20
-135.8793890719329
 10
86.179924837396
 20
-135.8793890719329
 97
        0
 97
        0
 75
     2
 76
     1
 98
        0
  0
POLYLINE
  5
151
330
14B
100
AcDbEntity
  8
_U+30EC_U+30A4_U+30E4_U+30FC 1
370
     0
100
AcDb2dPolyline
 66
     1
 10
0.0
 20
0.0
 30
0.0
  0
VERTEX
  5
152
330
151
100
AcDbEntity
  8
_U+30EC_U+30A4_U+30E4_U+30FC 1
370
     0
100
AcDbVertex
100
AcDb2dVertex
 10
86.179924837396
 20
-135.093907301296
 30
0.0
  0
VERTEX
  5
153
330
151
100
AcDbEntity
  8
_U+30EC_U+30A4_U+30E4_U+30FC 1
370
     0
100
AcDbVertex
100
AcDb2dVertex
 10
85.9282606121985
 20
-135.093907301296
 30
0.0
  0
VERTEX
  5
154
330
151
100
AcDbEntity
  8
_U+30EC_U+30A4_U+30E4_U+30FC 1
370
     0
100
AcDbVertex
100
AcDb2dVertex
 10
85.9282606121985
 20
-134.8424153308727
 30
0.0
  0
VERTEX
  5
155
330
151
100
AcDbEntity
  8
_U+30EC_U+30A4_U+30E4_U+30FC 1
370
     0
100
AcDbVertex
100
AcDb2dVertex
 10
86.179924837396
 20
-134.8424153308727
 30
0.0
  0
VERTEX
  5
156
330
151
100
AcDbEntity
  8
_U+30EC_U+30A4_U+30E4_U+30FC 1
370
     0
100
AcDbVertex
100
AcDb2dVertex
 10
86.179924837396
 20
-135.093907301296
 30
0.0
  0
SEQEND
  5
157
330
151
100
AcDbEntity
  8
_U+30EC_U+30A4_U+30E4_U+30FC 1
370
     0
  0
HATCH
  5
158
330
14B
100
AcDbEntity
  8
_U+30EC_U+30A4_U+30E4_U+30FC 1
 62
   179
420
  2234388
100
AcDbHatch
 10
0.0
 20
0.0
 30
0.0
210
0.0
220
0.0
230
1.0
  2
SOLID
 70
     1
 71
     0
 91
        1
 92
        1
 93
        4
 72
     1
 10
86.179924837396
 20
-135.093907301296
 11
85.9282606121985
 21
-135.093907301296
 72
     1
 10
85.9282606121985
 20
-135.093907301296
 11
85.9282606121985
 21
-134.8424153308727
 72
     1
 10
85.9282606121985
 20
-134.8424153308727
 11
86.179924837396
 21
-134.8424153308727
 72
     1
 10
86.179924837396
 20
-134.8424153308727
 11
86.179924837396
 21
-135.093907301296
 97
        0
 75
     2
 76
     1
 98
        0
  0
SPLINE
  5
159
330
14B
100
AcDbEntity
  8
_U+30EC_U+30A4_U+30E4_U+30FC 1
370
     0
100
AcDbSpline
210
0.0
220
0.0
230
1.0
 70
    11
 71
     3
 72
    44
 73
    40
 74
     0
 42
0.0000000001
 43
0.0000000001
 12
1.0
 22
0.0
 32
0.0
 13
1.0
 23
0.0
 33
0.0
 40
0.0
 40
0.0
 40
0.0
 40
0.0
 40
1.0
 40
1.0
 40
1.0
 40
2.0
 40
2.0
 40
2.0
 40
3.0
 40
3.0
 40
3.0
 40
4.0
 40
4.0
 40
4.0
 40
5.0
 40
5.0
 40
5.0
 40
6.0
 40
6.0
 40
6.0
 40
7.0
 40
7.0
 40
7.0
 40
8.0
 40
8.0
 40
8.0
 40
9.0
 40
9.0
 40
9.0
 40
10.0
 40
10.0
 40
10.0
 40
11.0
 40
11.0
 40
11.0
 40
12.0
 40
12.0
 40
12.0
 40
13.0
 40
13.0
 40
13.0
 40
13.0
 10
85.59822046471156
 20
-134.0128363380246
 30
0.0
 10
85.75686711180731
 20
-134.2305663726924
 30
0.0
 10
85.8309366647402
 20
-134.3235839507941
 30
0.0
 10
85.97476940124936
 20
-134.3725043066846
 30
0.0
 10
85.97476940124936
 20
-134.3725043066846
 30
0.0
 10
85.97476940124936
 20
-133.5939127270182
 30
0.0
 10
85.97476940124936
 20
-133.5939127270182
 30
0.0
 10
85.97476940124936
 20
-133.5939127270182
 30
0.0
 10
86.179924837396
 20
-133.5939127270182
 30
0.0
 10
86.179924837396
 20
-133.5939127270182
 30
0.0
 10
86.179924837396
 20
-133.5939127270182
 30
0.0
 10
86.179924837396
 20
-134.6219292198167
 30
0.0
 10
86.179924837396
 20
-134.6219292198167
 30
0.0
 10
85.82232392602707
 20
-134.5902343413524
 30
0.0
 10
85.74412025851188
 20
-134.5247775271327
 30
0.0
 10
85.44577498948925
 20
-134.1396158518818
 30
0.0
 10
85.24699297999034
 20
-133.8836452573277
 30
0.0
 10
85.17929685370518
 20
-133.818188443108
 30
0.0
 10
85.04183754384371
 20
-133.818188443108
 30
0.0
 10
84.92332625915111
 20
-133.818188443108
 30
0.0
 10
84.79224037593735
 20
-133.8901909387497
 30
0.0
 10
84.79224037593735
 20
-134.0865613814089
 30
0.0
 10
84.79224037593735
 20
-134.3470106000938
 30
0.0
 10
85.02271726390057
 20
-134.3552788292584
 30
0.0
 10
85.13916149130202
 20
-134.3597574533892
 30
0.0
 10
85.13916149130202
 20
-134.3597574533892
 30
0.0
 10
85.13916149130202
 20
-134.584033169479
 30
0.0
 10
85.13916149130202
 20
-134.584033169479
 30
0.0
 10
85.01220972267056
 20
-134.5754204307659
 30
0.0
 10
84.90007186462569
 20
-134.5647406347616
 30
0.0
 10
84.78156057993309
 20
-134.4844699099553
 30
0.0
 10
84.62084687554618
 20
-134.3745713639758
 30
0.0
 10
84.58691268501647
 20
-134.1885362077723
 30
0.0
 10
84.58691268501647
 20
-134.0720919803709
 30
0.0
 10
84.58691268501647
 20
-133.7947617938082
 30
0.0
 10
84.77105303870307
 20
-133.5877115551448
 30
0.0
 10
85.04390460113486
 20
-133.5877115551448
 30
0.0
 10
85.27231443180692
 20
-133.5877115551448
 30
0.0
 10
85.37187769133064
 20
-133.7038112729977
 30
0.0
 10
85.59822046471156
 20
-134.0128363380246
 30
0.0
  0
HATCH
  5
15A
330
14B
100
AcDbEntity
  8
_U+30EC_U+30A4_U+30E4_U+30FC 1
 62
   179
420
  2234388
100
AcDbHatch
 10
0.0
 20
0.0
 30
0.0
210
0.0
220
0.0
230
1.0
  2
SOLID
 70
     1
 71
     0
 91
        1
 92
        1
 93
        1
 72
     4
 94
        3
 73
     0
 74
     1
 95
       44
 96
       40
 40
0.0
 40
0.0
 40
0.0
 40
0.0
 40
1.0
 40
1.0
 40
1.0
 40
2.0
 40
2.0
 40
2.0
 40
3.0
 40
3.0
 40
3.0
 40
4.0
 40
4.0
 40
4.0
 40
5.0
 40
5.0
 40
5.0
 40
6.0
 40
6.0
 40
6.0
 40
7.0
 40
7.0
 40
7.0
 40
8.0
 40
8.0
 40
8.0
 40
9.0
 40
9.0
 40
9.0
 40
10.0
 40
10.0
 40
10.0
 40
11.0
 40
11.0
 40
11.0
 40
12.0
 40
12.0
 40
12.0
 40
13.0
 40
13.0
 40
13.0
 40
13.0
 10
85.59822046471156
 20
-134.0128363380246
 10
85.75686711180731
 20
-134.2305663726924
 10
85.8309366647402
 20
-134.3235839507941
 10
85.97476940124936
 20
-134.3725043066846
 10
85.97476940124936
 20
-134.3725043066846
 10
85.97476940124936
 20
-133.5939127270182
 10
85.97476940124936
 20
-133.5939127270182
 10
85.97476940124936
 20
-133.5939127270182
 10
86.179924837396
 20
-133.5939127270182
 10
86.179924837396
 20
-133.5939127270182
 10
86.179924837396
 20
-133.5939127270182
 10
86.179924837396
 20
-134.6219292198167
 10
86.179924837396
 20
-134.6219292198167
 10
85.82232392602707
 20
-134.5902343413524
 10
85.74412025851188
 20
-134.5247775271327
 10
85.44577498948925
 20
-134.1396158518818
 10
85.24699297999034
 20
-133.8836452573277
 10
85.17929685370518
 20
-133.818188443108
 10
85.04183754384371
 20
-133.818188443108
 10
84.92332625915111
 20
-133.818188443108
 10
84.79224037593735
 20
-133.8901909387497
 10
84.79224037593735
 20
-134.0865613814089
 10
84.79224037593735
 20
-134.3470106000938
 10
85.02271726390057
 20
-134.3552788292584
 10
85.13916149130202
 20
-134.3597574533892
 10
85.13916149130202
 20
-134.3597574533892
 10
85.13916149130202
 20
-134.584033169479
 10
85.13916149130202
 20
-134.584033169479
 10
85.01220972267056
 20
-134.5754204307659
 10
84.90007186462569
 20
-134.5647406347616
 10
84.78156057993309
 20
-134.4844699099553
 10
84.62084687554618
 20
-134.3745713639758
 10
84.58691268501647
 20
-134.1885362077723
 10
84.58691268501647
 20
-134.0720919803709
 10
84.58691268501647
 20
-133.7947617938082
 10
84.77105303870307
 20
-133.5877115551448
 10
85.04390460113486
 20
-133.5877115551448
 10
85.27231443180692
 20
-133.5877115551448
 10
85.37187769133064
 20
-133.7038112729977
 10
85.59822046471156
 20
-134.0128363380246
 97
        0
 97
        0
 75
     2
 76
     1
 98
        0
  0
ENDBLK
  5
14E
330
14B
100
AcDbEntity
  8
0
100
AcDbBlockEnd
  0
BLOCK
  5
15D
330
15B
100
AcDbEntity
  8
0
100
AcDbBlockBegin
  2
block 21
 70
     0
 10
0.0
 20
0.0
 30
0.0
  3
block 21
  1

  0
SPLINE
  5
15F
330
15B
100
AcDbEntity
  8
_U+30EC_U+30A4_U+30E4_U+30FC 1
 62
   179
420
  2234388
370
    25
100
AcDbSpline
210
0.0
220
0.0
230
1.0
 70
    11
 71
     3
 72
    17
 73
    13
 74
     0
 42
0.0000000001
 43
0.0000000001
 12
1.0
 22
0.0
 32
0.0
 13
1.0
 23
0.0
 33
0.0
 40
0.0
 40
0.0
 40
0.0
 40
0.0
 40
1.0
 40
1.0
 40
1.0
 40
2.0
 40
2.0
 40
2.0
 40
3.0
 40
3.0
 40
3.0
 40
4.0
 40
4.0
 40
4.0
 40
4.0
 10
95.36987145580076
 20
-134.9533396884842
 30
0.0
 10
95.36987145580076
 20
-134.9630057995925
 30
0.0
 10
95.36161645601136
 20
-134.9705905218131
 30
0.0
 10
95.35198562292373
 20
-134.9705905218131
 30
0.0
 10
95.34231951205923
 20
-134.9705905218131
 30
0.0
 10
95.33406451226983
 20
-134.9630057995925
 30
0.0
 10
95.33406451226983
 20
-134.9533396884842
 30
0.0
 10
95.33406451226983
 20
-134.9430032995978
 30
0.0
 10
95.34231951205923
 20
-134.9354185773772
 30
0.0
 10
95.35198562292373
 20
-134.9354185773772
 30
0.0
 10
95.36161645601136
 20
-134.9354185773772
 30
0.0
 10
95.36987145580076
 20
-134.9430032995978
 30
0.0
 10
95.36987145580076
 20
-134.9533396884842
 30
0.0
  0
ENDBLK
  5
15E
330
15B
100
AcDbEntity
  8
0
100
AcDbBlockEnd
  0
BLOCK
  5
162
330
160
100
AcDbEntity
  8
0
100
AcDbBlockBegin
  2
block 22
 70
     0
 10
0.0
 20
0.0
 30
0.0
  3
block 22
  1

  0
SPLINE
  5
164
330
160
100
AcDbEntity
  8
_U+30EC_U+30A4_U+30E4_U+30FC 1
 62
   179
420
  2234388
370
    25
100
AcDbSpline
210
0.0
220
0.0
230
1.0
 70
    11
 71
     3
 72
    17
 73
    13
 74
     0
 42
0.0000000001
 43
0.0000000001
 12
1.0
 22
0.0
 32
0.0
 13
1.0
 23
0.0
 33
0.0
 40
0.0
 40
0.0
 40
0.0
 40
0.0
 40
1.0
 40
1.0
 40
1.0
 40
2.0
 40
2.0
 40
2.0
 40
3.0
 40
3.0
 40
3.0
 40
4.0
 40
4.0
 40
4.0
 40
4.0
 10
95.36987145580076
 20
-137.4531230211923
 30
0.0
 10
95.36987145580076
 20
-137.4627538545232
 30
0.0
 10
95.36161645601136
 20
-137.4710088545211
 30
0.0
 10
95.35198562292373
 20
-137.4710088545211
 30
0.0
 10
95.34231951205923
 20
-137.4710088545211
 30
0.0
 10
95.33406451226983
 20
-137.4627538545232
 30
0.0
 10
95.33406451226983
 20
-137.4531230211923
 30
0.0
 10
95.33406451226983
 20
-137.4434569100833
 30
0.0
 10
95.34231951205923
 20
-137.4352019100854
 30
0.0
 10
95.35198562292373
 20
-137.4352019100854
 30
0.0
 10
95.36161645601136
 20
-137.4352019100854
 30
0.0
 10
95.36987145580076
 20
-137.4434569100833
 30
0.0
 10
95.36987145580076
 20
-137.4531230211923
 30
0.0
  0
ENDBLK
  5
163
330
160
100
AcDbEntity
  8
0
100
AcDbBlockEnd
  0
BLOCK
  5
167
330
165
100
AcDbEntity
  8
0
100
AcDbBlockBegin
  2
block 23
 70
     0
 10
0.0
 20
0.0
 30
0.0
  3
block 23
  1

  0
SPLINE
  5
169
330
165
100
AcDbEntity
  8
_U+30EC_U+30A4_U+30E4_U+30FC 1
 62
   179
420
  2234388
370
     9
100
AcDbSpline
210
0.0
220
0.0
230
1.0
 70
    11
 71
     3
 72
    17
 73
    13
 74
     0
 42
0.0000000001
 43
0.0000000001
 12
1.0
 22
0.0
 32
0.0
 13
1.0
 23
0.0
 33
0.0
 40
0.0
 40
0.0
 40
0.0
 40
0.0
 40
1.0
 40
1.0
 40
1.0
 40
2.0
 40
2.0
 40
2.0
 40
3.0
 40
3.0
 40
3.0
 40
4.0
 40
4.0
 40
4.0
 40
4.0
 10
97.36941584923258
 20
-137.4531230211923
 30
0.0
 10
97.36941584923258
 20
-137.4627538545232
 30
0.0
 10
97.36183112720386
 20
-137.4710088545211
 30
0.0
 10
97.35220275344
 20
-137.4710088545211
 30
0.0
 10
97.34253418325173
 20
-137.4710088545211
 30
0.0
 10
97.33427918346233
 20
-137.4627538545232
 30
0.0
 10
97.33427918346233
 20
-137.4531230211923
 30
0.0
 10
97.33427918346233
 20
-137.4434569100833
 30
0.0
 10
97.34253418325173
 20
-137.4352019100854
 30
0.0
 10
97.35220275344
 20
-137.4352019100854
 30
0.0
 10
97.36183112720386
 20
-137.4352019100854
 30
0.0
 10
97.36941584923258
 20
-137.4434569100833
 30
0.0
 10
97.36941584923258
 20
-137.4531230211923
 30
0.0
  0
ENDBLK
  5
168
330
165
100
AcDbEntity
  8
0
100
AcDbBlockEnd
  0
ENDSEC
  0
SECTION
  2
ENTITIES
  0
SPLINE
  5
41
330
1F
100
AcDbEntity
  8
_U+30EC_U+30A4_U+30E4_U+30FC 1
370
     0
100
AcDbSpline
210
0.0
220
0.0
230
1.0
 70
    11
 71
     3
 72
    53
 73
    49
 74
     0
 42
0.0000000001
 43
0.0000000001
 12
1.0
 22
0.0
 32
0.0
 13
1.0
 23
0.0
 33
0.0
 40
0.0
 40
0.0
 40
0.0
 40
0.0
 40
1.0
 40
1.0
 40
1.0
 40
2.0
 40
2.0
 40
2.0
 40
3.0
 40
3.0
 40
3.0
 40
4.0
 40
4.0
 40
4.0
 40
5.0
 40
5.0
 40
5.0
 40
6.0
 40
6.0
 40
6.0
 40
7.0
 40
7.0
 40
7.0
 40
8.0
 40
8.0
 40
8.0
 40
9.0
 40
9.0
 40
9.0
 40
10.0
 40
10.0
 40
10.0
 40
11.0
 40
11.0
 40
11.0
 40
12.0
 40
12.0
 40
12.0
 40
13.0
 40
13.0
 40
13.0
 40
14.0
 40
14.0
 40
14.0
 40
15.0
 40
15.0
 40
15.0
 40
16.0
 40
16.0
 40
16.0
 40
16.0
 10
95.33406451226983
 20
-134.9533396884842
 30
0.0
 10
95.33406451226983
 20
-134.9533396884842
 30
0.0
 10
92.86945553233834
 20
-134.9533396884842
 30
0.0
 10
92.86945553233834
 20
-134.9533396884842
 30
0.0
 10
92.86945553233834
 20
-134.9630057995925
 30
0.0
 10
92.8618684642297
 20
-134.9705905218131
 30
0.0
 10
92.85220235336519
 20
-134.9705905218131
 30
0.0
 10
92.85220235336519
 20
-134.9705905218131
 30
0.0
 10
92.85220235336519
 20
-135.6533919105312
 30
0.0
 10
92.85220235336519
 20
-135.6533919105312
 30
0.0
 10
92.85220235336519
 20
-135.6533919105312
 30
0.0
 10
94.65193341856134
 20
-135.6533919105312
 30
0.0
 10
94.65193341856134
 20
-135.6533919105312
 30
0.0
 10
94.65193341856134
 20
-135.6533919105312
 30
0.0
 10
94.65193341856134
 20
-136.7530707991453
 30
0.0
 10
94.65193341856134
 20
-136.7530707991453
 30
0.0
 10
94.65193341856134
 20
-136.7530707991453
 30
0.0
 10
88.05199053138435
 20
-136.7530707991453
 30
0.0
 10
88.05199053138435
 20
-136.7530707991453
 30
0.0
 10
88.05199053138435
 20
-136.7530707991453
 30
0.0
 10
88.05199053138435
 20
-119.9707969144518
 30
0.0
 10
88.05199053138435
 20
-119.9707969144518
 30
0.0
 10
88.04232442051985
 20
-119.9707969144518
 30
0.0
 10
88.03442219849923
 20
-119.9628594144538
 30
0.0
 10
88.03442219849923
 20
-119.9532285811229
 30
0.0
 10
88.03442219849923
 20
-119.9532285811229
 30
0.0
 10
87.36950665990707
 20
-119.9532285811229
 30
0.0
 10
87.36950665990707
 20
-119.9532285811229
 30
0.0
 10
87.36950665990707
 20
-119.9628594144538
 30
0.0
 10
87.36160443788646
 20
-119.9707969144518
 30
0.0
 10
87.35193832702195
 20
-119.9707969144518
 30
0.0
 10
87.35193832702195
 20
-119.9707969144518
 30
0.0
 10
87.35193832702195
 20
-137.4352019100854
 30
0.0
 10
87.35193832702195
 20
-137.4352019100854
 30
0.0
 10
87.36160443788646
 20
-137.4352019100854
 30
0.0
 10
87.36950665990707
 20
-137.4434569100833
 30
0.0
 10
87.36950665990707
 20
-137.4531230211923
 30
0.0
 10
87.36950665990707
 20
-137.4531230211923
 30
0.0
 10
95.33406451226983
 20
-137.4531230211923
 30
0.0
 10
95.33406451226983
 20
-137.4531230211923
 30
0.0
 10
95.33406451226983
 20
-137.4434569100833
 30
0.0
 10
95.34231951205923
 20
-137.4352019100854
 30
0.0
 10
95.35198562292373
 20
-137.4352019100854
 30
0.0
 10
95.35198562292373
 20
-137.4352019100854
 30
0.0
 10
95.35198562292373
 20
-134.9705905218131
 30
0.0
 10
95.35198562292373
 20
-134.9705905218131
 30
0.0
 10
95.34231951205923
 20
-134.9705905218131
 30
0.0
 10
95.33406451226983
 20
-134.9630057995925
 30
0.0
 10
95.33406451226983
 20
-134.9533396884842
 30
0.0
  0
HATCH
  5
42
330
1F
100
AcDbEntity
  8
_U+30EC_U+30A4_U+30E4_U+30FC 1
 62
   253
420
 11711154
100
AcDbHatch
 10
0.0
 20
0.0
 30
0.0
210
0.0
220
0.0
230
1.0
  2
SOLID
 70
     1
 71
     0
 91
        1
 92
        1
 93
        1
 72
     4
 94
        3
 73
     0
 74
     1
 95
       53
 96
       49
 40
0.0
 40
0.0
 40
0.0
 40
0.0
 40
1.0
 40
1.0
 40
1.0
 40
2.0
 40
2.0
 40
2.0
 40
3.0
 40
3.0
 40
3.0
 40
4.0
 40
4.0
 40
4.0
 40
5.0
 40
5.0
 40
5.0
 40
6.0
 40
6.0
 40
6.0
 40
7.0
 40
7.0
 40
7.0
 40
8.0
 40
8.0
 40
8.0
 40
9.0
 40
9.0
 40
9.0
 40
10.0
 40
10.0
 40
10.0
 40
11.0
 40
11.0
 40
11.0
 40
12.0
 40
12.0
 40
12.0
 40
13.0
 40
13.0
 40
13.0
 40
14.0
 40
14.0
 40
14.0
 40
15.0
 40
15.0
 40
15.0
 40
16.0
 40
16.0
 40
16.0
 40
16.0
 10
95.33406451226983
 20
-134.9533396884842
 10
95.33406451226983
 20
-134.9533396884842
 10
92.86945553233834
 20
-134.9533396884842
 10
92.86945553233834
 20
-134.9533396884842
 10
92.86945553233834
 20
-134.9630057995925
 10
92.8618684642297
 20
-134.9705905218131
 10
92.85220235336519
 20
-134.9705905218131
 10
92.85220235336519
 20
-134.9705905218131
 10
92.85220235336519
 20
-135.6533919105312
 10
92.85220235336519
 20
-135.6533919105312
 10
92.85220235336519
 20
-135.6533919105312
 10
94.65193341856134
 20
-135.6533919105312
 10
94.65193341856134
 20
-135.6533919105312
 10
94.65193341856134
 20
-135.6533919105312
 10
94.65193341856134
 20
-136.7530707991453
 10
94.65193341856134
 20
-136.7530707991453
 10
94.65193341856134
 20
-136.7530707991453
 10
88.05199053138435
 20
-136.7530707991453
 10
88.05199053138435
 20
-136.7530707991453
 10
88.05199053138435
 20
-136.7530707991453
 10
88.05199053138435
 20
-119.9707969144518
 10
88.05199053138435
 20
-119.9707969144518
 10
88.04232442051985
 20
-119.9707969144518
 10
88.03442219849923
 20
-119.9628594144538
 10
88.03442219849923
 20
-119.9532285811229
 10
88.03442219849923
 20
-119.9532285811229
 10
87.36950665990707
 20
-119.9532285811229
 10
87.36950665990707
 20
-119.9532285811229
 10
87.36950665990707
 20
-119.9628594144538
 10
87.36160443788646
 20
-119.9707969144518
 10
87.35193832702195
 20
-119.9707969144518
 10
87.35193832702195
 20
-119.9707969144518
 10
87.35193832702195
 20
-137.4352019100854
 10
87.35193832702195
 20
-137.4352019100854
 10
87.36160443788646
 20
-137.4352019100854
 10
87.36950665990707
 20
-137.4434569100833
 10
87.36950665990707
 20
-137.4531230211923
 10
87.36950665990707
 20
-137.4531230211923
 10
95.33406451226983
 20
-137.4531230211923
 10
95.33406451226983
 20
-137.4531230211923
 10
95.33406451226983
 20
-137.4434569100833
 10
95.34231951205923
 20
-137.4352019100854
 10
95.35198562292373
 20
-137.4352019100854
 10
95.35198562292373
 20
-137.4352019100854
 10
95.35198562292373
 20
-134.9705905218131
 10
95.35198562292373
 20
-134.9705905218131
 10
95.34231951205923
 20
-134.9705905218131
 10
95.33406451226983
 20
-134.9630057995925
 10
95.33406451226983
 20
-134.9533396884842
 97
        0
 97
        0
 75
     2
 76
     1
 98
        0
  0
SPLINE
  5
43
330
1F
100
AcDbEntity
  8
_U+30EC_U+30A4_U+30E4_U+30FC 1
370
     0
100
AcDbSpline
210
0.0
220
0.0
230
1.0
 70
    11
 71
     3
 72
    14
 73
    10
 74
     0
 42
0.0000000001
 43
0.0000000001
 12
1.0
 22
0.0
 32
0.0
 13
1.0
 23
0.0
 33
0.0
 40
0.0
 40
0.0
 40
0.0
 40
0.0
 40
1.0
 40
1.0
 40
1.0
 40
2.0
 40
2.0
 40
2.0
 40
3.0
 40
3.0
 40
3.0
 40
3.0
 10
88.05199053138435
 20
-119.9532285811229
 30
0.0
 10
88.05199053138435
 20
-119.9532285811229
 30
0.0
 10
88.03442219849923
 20
-119.9532285811229
 30
0.0
 10
88.03442219849923
 20
-119.9532285811229
 30
0.0
 10
88.03442219849923
 20
-119.9628594144538
 30
0.0
 10
88.04232442051985
 20
-119.9707969144518
 30
0.0
 10
88.05199053138435
 20
-119.9707969144518
 30
0.0
 10
88.05199053138435
 20
-119.9707969144518
 30
0.0
 10
88.05199053138435
 20
-119.9532285811229
 30
0.0
 10
88.05199053138435
 20
-119.9532285811229
 30
0.0
  0
HATCH
  5
44
330
1F
100
AcDbEntity
  8
_U+30EC_U+30A4_U+30E4_U+30FC 1
 62
   253
420
 11711154
100
AcDbHatch
 10
0.0
 20
0.0
 30
0.0
210
0.0
220
0.0
230
1.0
  2
SOLID
 70
     1
 71
     0
 91
        1
 92
        1
 93
        1
 72
     4
 94
        3
 73
     0
 74
     1
 95
       14
 96
       10
 40
0.0
 40
0.0
 40
0.0
 40
0.0
 40
1.0
 40
1.0
 40
1.0
 40
2.0
 40
2.0
 40
2.0
 40
3.0
 40
3.0
 40
3.0
 40
3.0
 10
88.05199053138435
 20
-119.9532285811229
 10
88.05199053138435
 20
-119.9532285811229
 10
88.03442219849923
 20
-119.9532285811229
 10
88.03442219849923
 20
-119.9532285811229
 10
88.03442219849923
 20
-119.9628594144538
 10
88.04232442051985
 20
-119.9707969144518
 10
88.05199053138435
 20
-119.9707969144518
 10
88.05199053138435
 20
-119.9707969144518
 10
88.05199053138435
 20
-119.9532285811229
 10
88.05199053138435
 20
-119.9532285811229
 97
        0
 97
        0
 75
     2
 76
     1
 98
        0
  0
SPLINE
  5
45
330
1F
100
AcDbEntity
  8
_U+30EC_U+30A4_U+30E4_U+30FC 1
370
     0
100
AcDbSpline
210
0.0
220
0.0
230
1.0
 70
    11
 71
     3
 72
    20
 73
    16
 74
     0
 42
0.0000000001
 43
0.0000000001
 12
1.0
 22
0.0
 32
0.0
 13
1.0
 23
0.0
 33
0.0
 40
0.0
 40
0.0
 40
0.0
 40
0.0
 40
1.0
 40
1.0
 40
1.0
 40
2.0
 40
2.0
 40
2.0
 40
3.0
 40
3.0
 40
3.0
 40
4.0
 40
4.0
 40
4.0
 40
5.0
 40
5.0
 40
5.0
 40
5.0
 10
88.05199053138435
 20
-119.9707969144518
 30
0.0
 10
88.06162136447197
 20
-119.9707969144518
 30
0.0
 10
88.06956108909363
 20
-119.9628594144538
 30
0.0
 10
88.06956108909363
 20
-119.9532285811229
 30
0.0
 10
88.06956108909363
 20
-119.9432449700143
 30
0.0
 10
88.06162136447197
 20
-119.9353074700163
 30
0.0
 10
88.05199053138435
 20
-119.9353074700163
 30
0.0
 10
88.04232442051985
 20
-119.9353074700163
 30
0.0
 10
88.03442219849923
 20
-119.9432449700143
 30
0.0
 10
88.03442219849923
 20
-119.9532285811229
 30
0.0
 10
88.03442219849923
 20
-119.9532285811229
 30
0.0
 10
88.05199053138435
 20
-119.9532285811229
 30
0.0
 10
88.05199053138435
 20
-119.9532285811229
 30
0.0
 10
88.05199053138435
 20
-119.9532285811229
 30
0.0
 10
88.05199053138435
 20
-119.9707969144518
 30
0.0
 10
88.05199053138435
 20
-119.9707969144518
 30
0.0
  0
HATCH
  5
46
330
1F
100
AcDbEntity
  8
_U+30EC_U+30A4_U+30E4_U+30FC 1
 62
   253
420
 11711154
100
AcDbHatch
 10
0.0
 20
0.0
 30
0.0
210
0.0
220
0.0
230
1.0
  2
SOLID
 70
     1
 71
     0
 91
        1
 92
        1
 93
        1
 72
     4
 94
        3
 73
     0
 74
     1
 95
       20
 96
       16
 40
0.0
 40
0.0
 40
0.0
 40
0.0
 40
1.0
 40
1.0
 40
1.0
 40
2.0
 40
2.0
 40
2.0
 40
3.0
 40
3.0
 40
3.0
 40
4.0
 40
4.0
 40
4.0
 40
5.0
 40
5.0
 40
5.0
 40
5.0
 10
88.05199053138435
 20
-119.9707969144518
 10
88.06162136447197
 20
-119.9707969144518
 10
88.06956108909363
 20
-119.9628594144538
 10
88.06956108909363
 20
-119.9532285811229
 10
88.06956108909363
 20
-119.9432449700143
 10
88.06162136447197
 20
-119.9353074700163
 10
88.05199053138435
 20
-119.9353074700163
 10
88.04232442051985
 20
-119.9353074700163
 10
88.03442219849923
 20
-119.9432449700143
 10
88.03442219849923
 20
-119.9532285811229
 10
88.03442219849923
 20
-119.9532285811229
 10
88.05199053138435
 20
-119.9532285811229
 10
88.05199053138435
 20
-119.9532285811229
 10
88.05199053138435
 20
-119.9532285811229
 10
88.05199053138435
 20
-119.9707969144518
 10
88.05199053138435
 20
-119.9707969144518
 97
        0
 97
        0
 75
     2
 76
     1
 98
        0
  0
SPLINE
  5
47
330
1F
100
AcDbEntity
  8
_U+30EC_U+30A4_U+30E4_U+30FC 1
370
     0
100
AcDbSpline
210
0.0
220
0.0
230
1.0
 70
    11
 71
     3
 72
    20
 73
    16
 74
     0
 42
0.0000000001
 43
0.0000000001
 12
1.0
 22
0.0
 32
0.0
 13
1.0
 23
0.0
 33
0.0
 40
0.0
 40
0.0
 40
0.0
 40
0.0
 40
1.0
 40
1.0
 40
1.0
 40
2.0
 40
2.0
 40
2.0
 40
3.0
 40
3.0
 40
3.0
 40
4.0
 40
4.0
 40
4.0
 40
5.0
 40
5.0
 40
5.0
 40
5.0
 10
92.86945553233834
 20
-134.9533396884842
 30
0.0
 10
92.86945553233834
 20
-134.9430032995978
 30
0.0
 10
92.8618684642297
 20
-134.9354185773772
 30
0.0
 10
92.85220235336519
 20
-134.9354185773772
 30
0.0
 10
92.84257152027756
 20
-134.9354185773772
 30
0.0
 10
92.83428124271128
 20
-134.9430032995978
 30
0.0
 10
92.83428124271128
 20
-134.9533396884842
 30
0.0
 10
92.83428124271128
 20
-134.9630057995925
 30
0.0
 10
92.84257152027756
 20
-134.9705905218131
 30
0.0
 10
92.85220235336519
 20
-134.9705905218131
 30
0.0
 10
92.85220235336519
 20
-134.9705905218131
 30
0.0
 10
92.85220235336519
 20
-134.9533396884842
 30
0.0
 10
92.85220235336519
 20
-134.9533396884842
 30
0.0
 10
92.85220235336519
 20
-134.9533396884842
 30
0.0
 10
92.86945553233834
 20
-134.9533396884842
 30
0.0
 10
92.86945553233834
 20
-134.9533396884842
 30
0.0
  0
HATCH
  5
48
330
1F
100
AcDbEntity
  8
_U+30EC_U+30A4_U+30E4_U+30FC 1
 62
   253
420
 11711154
100
AcDbHatch
 10
0.0
 20
0.0
 30
0.0
210
0.0
220
0.0
230
1.0
  2
SOLID
 70
     1
 71
     0
 91
        1
 92
        1
 93
        1
 72
     4
 94
        3
 73
     0
 74
     1
 95
       20
 96
       16
 40
0.0
 40
0.0
 40
0.0
 40
0.0
 40
1.0
 40
1.0
 40
1.0
 40
2.0
 40
2.0
 40
2.0
 40
3.0
 40
3.0
 40
3.0
 40
4.0
 40
4.0
 40
4.0
 40
5.0
 40
5.0
 40
5.0
 40
5.0
 10
92.86945553233834
 20
-134.9533396884842
 10
92.86945553233834
 20
-134.9430032995978
 10
92.8618684642297
 20
-134.9354185773772
 10
92.85220235336519
 20
-134.9354185773772
 10
92.84257152027756
 20
-134.9354185773772
 10
92.83428124271128
 20
-134.9430032995978
 10
92.83428124271128
 20
-134.9533396884842
 10
92.83428124271128
 20
-134.9630057995925
 10
92.84257152027756
 20
-134.9705905218131
 10
92.85220235336519
 20
-134.9705905218131
 10
92.85220235336519
 20
-134.9705905218131
 10
92.85220235336519
 20
-134.9533396884842
 10
92.85220235336519
 20
-134.9533396884842
 10
92.85220235336519
 20
-134.9533396884842
 10
92.86945553233834
 20
-134.9533396884842
 10
92.86945553233834
 20
-134.9533396884842
 97
        0
 97
        0
 75
     2
 76
     1
 98
        0
  0
SPLINE
  5
49
330
1F
100
AcDbEntity
  8
_U+30EC_U+30A4_U+30E4_U+30FC 1
370
     0
100
AcDbSpline
210
0.0
220
0.0
230
1.0
 70
    11
 71
     3
 72
    14
 73
    10
 74
     0
 42
0.0000000001
 43
0.0000000001
 12
1.0
 22
0.0
 32
0.0
 13
1.0
 23
0.0
 33
0.0
 40
0.0
 40
0.0
 40
0.0
 40
0.0
 40
1.0
 40
1.0
 40
1.0
 40
2.0
 40
2.0
 40
2.0
 40
3.0
 40
3.0
 40
3.0
 40
3.0
 10
92.85220235336519
 20
-134.9533396884842
 30
0.0
 10
92.85220235336519
 20
-134.9533396884842
 30
0.0
 10
92.85220235336519
 20
-134.9705905218131
 30
0.0
 10
92.85220235336519
 20
-134.9705905218131
 30
0.0
 10
92.8618684642297
 20
-134.9705905218131
 30
0.0
 10
92.86945553233834
 20
-134.9630057995925
 30
0.0
 10
92.86945553233834
 20
-134.9533396884842
 30
0.0
 10
92.86945553233834
 20
-134.9533396884842
 30
0.0
 10
92.85220235336519
 20
-134.9533396884842
 30
0.0
 10
92.85220235336519
 20
-134.9533396884842
 30
0.0
  0
HATCH
  5
4A
330
1F
100
AcDbEntity
  8
_U+30EC_U+30A4_U+30E4_U+30FC 1
 62
   253
420
 11711154
100
AcDbHatch
 10
0.0
 20
0.0
 30
0.0
210
0.0
220
0.0
230
1.0
  2
SOLID
 70
     1
 71
     0
 91
        1
 92
        1
 93
        1
 72
     4
 94
        3
 73
     0
 74
     1
 95
       14
 96
       10
 40
0.0
 40
0.0
 40
0.0
 40
0.0
 40
1.0
 40
1.0
 40
1.0
 40
2.0
 40
2.0
 40
2.0
 40
3.0
 40
3.0
 40
3.0
 40
3.0
 10
92.85220235336519
 20
-134.9533396884842
 10
92.85220235336519
 20
-134.9533396884842
 10
92.85220235336519
 20
-134.9705905218131
 10
92.85220235336519
 20
-134.9705905218131
 10
92.8618684642297
 20
-134.9705905218131
 10
92.86945553233834
 20
-134.9630057995925
 10
92.86945553233834
 20
-134.9533396884842
 10
92.86945553233834
 20
-134.9533396884842
 10
92.85220235336519
 20
-134.9533396884842
 10
92.85220235336519
 20
-134.9533396884842
 97
        0
 97
        0
 75
     2
 76
     1
 98
        0
  0
SPLINE
  5
4B
330
1F
100
AcDbEntity
  8
_U+30EC_U+30A4_U+30E4_U+30FC 1
370
     0
100
AcDbSpline
210
0.0
220
0.0
230
1.0
 70
    11
 71
     3
 72
    20
 73
    16
 74
     0
 42
0.0000000001
 43
0.0000000001
 12
1.0
 22
0.0
 32
0.0
 13
1.0
 23
0.0
 33
0.0
 40
0.0
 40
0.0
 40
0.0
 40
0.0
 40
1.0
 40
1.0
 40
1.0
 40
2.0
 40
2.0
 40
2.0
 40
3.0
 40
3.0
 40
3.0
 40
4.0
 40
4.0
 40
4.0
 40
5.0
 40
5.0
 40
5.0
 40
5.0
 10
87.36950665990707
 20
-119.9532285811229
 30
0.0
 10
87.36950665990707
 20
-119.9432449700143
 30
0.0
 10
87.36160443788646
 20
-119.9353074700163
 30
0.0
 10
87.35193832702195
 20
-119.9353074700163
 30
0.0
 10
87.34230749393431
 20
-119.9353074700163
 30
0.0
 10
87.3343722003886
 20
-119.9432449700143
 30
0.0
 10
87.3343722003886
 20
-119.9532285811229
 30
0.0
 10
87.3343722003886
 20
-119.9628594144538
 30
0.0
 10
87.34230749393431
 20
-119.9707969144518
 30
0.0
 10
87.35193832702195
 20
-119.9707969144518
 30
0.0
 10
87.35193832702195
 20
-119.9707969144518
 30
0.0
 10
87.35193832702195
 20
-119.9532285811229
 30
0.0
 10
87.35193832702195
 20
-119.9532285811229
 30
0.0
 10
87.35193832702195
 20
-119.9532285811229
 30
0.0
 10
87.36950665990707
 20
-119.9532285811229
 30
0.0
 10
87.36950665990707
 20
-119.9532285811229
 30
0.0
  0
HATCH
  5
4C
330
1F
100
AcDbEntity
  8
_U+30EC_U+30A4_U+30E4_U+30FC 1
 62
   253
420
 11711154
100
AcDbHatch
 10
0.0
 20
0.0
 30
0.0
210
0.0
220
0.0
230
1.0
  2
SOLID
 70
     1
 71
     0
 91
        1
 92
        1
 93
        1
 72
     4
 94
        3
 73
     0
 74
     1
 95
       20
 96
       16
 40
0.0
 40
0.0
 40
0.0
 40
0.0
 40
1.0
 40
1.0
 40
1.0
 40
2.0
 40
2.0
 40
2.0
 40
3.0
 40
3.0
 40
3.0
 40
4.0
 40
4.0
 40
4.0
 40
5.0
 40
5.0
 40
5.0
 40
5.0
 10
87.36950665990707
 20
-119.9532285811229
 10
87.36950665990707
 20
-119.9432449700143
 10
87.36160443788646
 20
-119.9353074700163
 10
87.35193832702195
 20
-119.9353074700163
 10
87.34230749393431
 20
-119.9353074700163
 10
87.3343722003886
 20
-119.9432449700143
 10
87.3343722003886
 20
-119.9532285811229
 10
87.3343722003886
 20
-119.9628594144538
 10
87.34230749393431
 20
-119.9707969144518
 10
87.35193832702195
 20
-119.9707969144518
 10
87.35193832702195
 20
-119.9707969144518
 10
87.35193832702195
 20
-119.9532285811229
 10
87.35193832702195
 20
-119.9532285811229
 10
87.35193832702195
 20
-119.9532285811229
 10
87.36950665990707
 20
-119.9532285811229
 10
87.36950665990707
 20
-119.9532285811229
 97
        0
 97
        0
 75
     2
 76
     1
 98
        0
  0
SPLINE
  5
4D
330
1F
100
AcDbEntity
  8
_U+30EC_U+30A4_U+30E4_U+30FC 1
370
     0
100
AcDbSpline
210
0.0
220
0.0
230
1.0
 70
    11
 71
     3
 72
    14
 73
    10
 74
     0
 42
0.0000000001
 43
0.0000000001
 12
1.0
 22
0.0
 32
0.0
 13
1.0
 23
0.0
 33
0.0
 40
0.0
 40
0.0
 40
0.0
 40
0.0
 40
1.0
 40
1.0
 40
1.0
 40
2.0
 40
2.0
 40
2.0
 40
3.0
 40
3.0
 40
3.0
 40
3.0
 10
87.35193832702195
 20
-119.9532285811229
 30
0.0
 10
87.35193832702195
 20
-119.9532285811229
 30
0.0
 10
87.35193832702195
 20
-119.9707969144518
 30
0.0
 10
87.35193832702195
 20
-119.9707969144518
 30
0.0
 10
87.36160443788646
 20
-119.9707969144518
 30
0.0
 10
87.36950665990707
 20
-119.9628594144538
 30
0.0
 10
87.36950665990707
 20
-119.9532285811229
 30
0.0
 10
87.36950665990707
 20
-119.9532285811229
 30
0.0
 10
87.35193832702195
 20
-119.9532285811229
 30
0.0
 10
87.35193832702195
 20
-119.9532285811229
 30
0.0
  0
HATCH
  5
4E
330
1F
100
AcDbEntity
  8
_U+30EC_U+30A4_U+30E4_U+30FC 1
 62
   253
420
 11711154
100
AcDbHatch
 10
0.0
 20
0.0
 30
0.0
210
0.0
220
0.0
230
1.0
  2
SOLID
 70
     1
 71
     0
 91
        1
 92
        1
 93
        1
 72
     4
 94
        3
 73
     0
 74
     1
 95
       14
 96
       10
 40
0.0
 40
0.0
 40
0.0
 40
0.0
 40
1.0
 40
1.0
 40
1.0
 40
2.0
 40
2.0
 40
2.0
 40
3.0
 40
3.0
 40
3.0
 40
3.0
 10
87.35193832702195
 20
-119.9532285811229
 10
87.35193832702195
 20
-119.9532285811229
 10
87.35193832702195
 20
-119.9707969144518
 10
87.35193832702195
 20
-119.9707969144518
 10
87.36160443788646
 20
-119.9707969144518
 10
87.36950665990707
 20
-119.9628594144538
 10
87.36950665990707
 20
-119.9532285811229
 10
87.36950665990707
 20
-119.9532285811229
 10
87.35193832702195
 20
-119.9532285811229
 10
87.35193832702195
 20
-119.9532285811229
 97
        0
 97
        0
 75
     2
 76
     1
 98
        0
  0
SPLINE
  5
4F
330
1F
100
AcDbEntity
  8
_U+30EC_U+30A4_U+30E4_U+30FC 1
370
     0
100
AcDbSpline
210
0.0
220
0.0
230
1.0
 70
    11
 71
     3
 72
    20
 73
    16
 74
     0
 42
0.0000000001
 43
0.0000000001
 12
1.0
 22
0.0
 32
0.0
 13
1.0
 23
0.0
 33
0.0
 40
0.0
 40
0.0
 40
0.0
 40
0.0
 40
1.0
 40
1.0
 40
1.0
 40
2.0
 40
2.0
 40
2.0
 40
3.0
 40
3.0
 40
3.0
 40
4.0
 40
4.0
 40
4.0
 40
5.0
 40
5.0
 40
5.0
 40
5.0
 10
87.35193832702195
 20
-137.4352019100854
 30
0.0
 10
87.34230749393431
 20
-137.4352019100854
 30
0.0
 10
87.3343722003886
 20
-137.4434569100833
 30
0.0
 10
87.3343722003886
 20
-137.4531230211923
 30
0.0
 10
87.3343722003886
 20
-137.4627538545232
 30
0.0
 10
87.34230749393431
 20
-137.4710088545211
 30
0.0
 10
87.35193832702195
 20
-137.4710088545211
 30
0.0
 10
87.36160443788646
 20
-137.4710088545211
 30
0.0
 10
87.36950665990707
 20
-137.4627538545232
 30
0.0
 10
87.36950665990707
 20
-137.4531230211923
 30
0.0
 10
87.36950665990707
 20
-137.4531230211923
 30
0.0
 10
87.35193832702195
 20
-137.4531230211923
 30
0.0
 10
87.35193832702195
 20
-137.4531230211923
 30
0.0
 10
87.35193832702195
 20
-137.4531230211923
 30
0.0
 10
87.35193832702195
 20
-137.4352019100854
 30
0.0
 10
87.35193832702195
 20
-137.4352019100854
 30
0.0
  0
HATCH
  5
50
330
1F
100
AcDbEntity
  8
_U+30EC_U+30A4_U+30E4_U+30FC 1
 62
   253
420
 11711154
100
AcDbHatch
 10
0.0
 20
0.0
 30
0.0
210
0.0
220
0.0
230
1.0
  2
SOLID
 70
     1
 71
     0
 91
        1
 92
        1
 93
        1
 72
     4
 94
        3
 73
     0
 74
     1
 95
       20
 96
       16
 40
0.0
 40
0.0
 40
0.0
 40
0.0
 40
1.0
 40
1.0
 40
1.0
 40
2.0
 40
2.0
 40
2.0
 40
3.0
 40
3.0
 40
3.0
 40
4.0
 40
4.0
 40
4.0
 40
5.0
 40
5.0
 40
5.0
 40
5.0
 10
87.35193832702195
 20
-137.4352019100854
 10
87.34230749393431
 20
-137.4352019100854
 10
87.3343722003886
 20
-137.4434569100833
 10
87.3343722003886
 20
-137.4531230211923
 10
87.3343722003886
 20
-137.4627538545232
 10
87.34230749393431
 20
-137.4710088545211
 10
87.35193832702195
 20
-137.4710088545211
 10
87.36160443788646
 20
-137.4710088545211
 10
87.36950665990707
 20
-137.4627538545232
 10
87.36950665990707
 20
-137.4531230211923
 10
87.36950665990707
 20
-137.4531230211923
 10
87.35193832702195
 20
-137.4531230211923
 10
87.35193832702195
 20
-137.4531230211923
 10
87.35193832702195
 20
-137.4531230211923
 10
87.35193832702195
 20
-137.4352019100854
 10
87.35193832702195
 20
-137.4352019100854
 97
        0
 97
        0
 75
     2
 76
     1
 98
        0
  0
SPLINE
  5
51
330
1F
100
AcDbEntity
  8
_U+30EC_U+30A4_U+30E4_U+30FC 1
370
     0
100
AcDbSpline
210
0.0
220
0.0
230
1.0
 70
    11
 71
     3
 72
    14
 73
    10
 74
     0
 42
0.0000000001
 43
0.0000000001
 12
1.0
 22
0.0
 32
0.0
 13
1.0
 23
0.0
 33
0.0
 40
0.0
 40
0.0
 40
0.0
 40
0.0
 40
1.0
 40
1.0
 40
1.0
 40
2.0
 40
2.0
 40
2.0
 40
3.0
 40
3.0
 40
3.0
 40
3.0
 10
87.35193832702195
 20
-137.4531230211923
 30
0.0
 10
87.35193832702195
 20
-137.4531230211923
 30
0.0
 10
87.36950665990707
 20
-137.4531230211923
 30
0.0
 10
87.36950665990707
 20
-137.4531230211923
 30
0.0
 10
87.36950665990707
 20
-137.4434569100833
 30
0.0
 10
87.36160443788646
 20
-137.4352019100854
 30
0.0
 10
87.35193832702195
 20
-137.4352019100854
 30
0.0
 10
87.35193832702195
 20
-137.4352019100854
 30
0.0
 10
87.35193832702195
 20
-137.4531230211923
 30
0.0
 10
87.35193832702195
 20
-137.4531230211923
 30
0.0
  0
HATCH
  5
52
330
1F
100
AcDbEntity
  8
_U+30EC_U+30A4_U+30E4_U+30FC 1
 62
   253
420
 11711154
100
AcDbHatch
 10
0.0
 20
0.0
 30
0.0
210
0.0
220
0.0
230
1.0
  2
SOLID
 70
     1
 71
     0
 91
        1
 92
        1
 93
        1
 72
     4
 94
        3
 73
     0
 74
     1
 95
       14
 96
       10
 40
0.0
 40
0.0
 40
0.0
 40
0.0
 40
1.0
 40
1.0
 40
1.0
 40
2.0
 40
2.0
 40
2.0
 40
3.0
 40
3.0
 40
3.0
 40
3.0
 10
87.35193832702195
 20
-137.4531230211923
 10
87.35193832702195
 20
-137.4531230211923
 10
87.36950665990707
 20
-137.4531230211923
 10
87.36950665990707
 20
-137.4531230211923
 10
87.36950665990707
 20
-137.4434569100833
 10
87.36160443788646
 20
-137.4352019100854
 10
87.35193832702195
 20
-137.4352019100854
 10
87.35193832702195
 20
-137.4352019100854
 10
87.35193832702195
 20
-137.4531230211923
 10
87.35193832702195
 20
-137.4531230211923
 97
        0
 97
        0
 75
     2
 76
     1
 98
        0
  0
SPLINE
  5
53
330
1F
100
AcDbEntity
  8
_U+30EC_U+30A4_U+30E4_U+30FC 1
370
     0
100
AcDbSpline
210
0.0
220
0.0
230
1.0
 70
    11
 71
     3
 72
    14
 73
    10
 74
     0
 42
0.0000000001
 43
0.0000000001
 12
1.0
 22
0.0
 32
0.0
 13
1.0
 23
0.0
 33
0.0
 40
0.0
 40
0.0
 40
0.0
 40
0.0
 40
1.0
 40
1.0
 40
1.0
 40
2.0
 40
2.0
 40
2.0
 40
3.0
 40
3.0
 40
3.0
 40
3.0
 10
95.35198562292373
 20
-134.9533396884842
 30
0.0
 10
95.35198562292373
 20
-134.9533396884842
 30
0.0
 10
95.33406451226983
 20
-134.9533396884842
 30
0.0
 10
95.33406451226983
 20
-134.9533396884842
 30
0.0
 10
95.33406451226983
 20
-134.9630057995925
 30
0.0
 10
95.34231951205923
 20
-134.9705905218131
 30
0.0
 10
95.35198562292373
 20
-134.9705905218131
 30
0.0
 10
95.35198562292373
 20
-134.9705905218131
 30
0.0
 10
95.35198562292373
 20
-134.9533396884842
 30
0.0
 10
95.35198562292373
 20
-134.9533396884842
 30
0.0
  0
HATCH
  5
54
330
1F
100
AcDbEntity
  8
_U+30EC_U+30A4_U+30E4_U+30FC 1
 62
   253
420
 11711154
100
AcDbHatch
 10
0.0
 20
0.0
 30
0.0
210
0.0
220
0.0
230
1.0
  2
SOLID
 70
     1
 71
     0
 91
        1
 92
        1
 93
        1
 72
     4
 94
        3
 73
     0
 74
     1
 95
       14
 96
       10
 40
0.0
 40
0.0
 40
0.0
 40
0.0
 40
1.0
 40
1.0
 40
1.0
 40
2.0
 40
2.0
 40
2.0
 40
3.0
 40
3.0
 40
3.0
 40
3.0
 10
95.35198562292373
 20
-134.9533396884842
 10
95.35198562292373
 20
-134.9533396884842
 10
95.33406451226983
 20
-134.9533396884842
 10
95.33406451226983
 20
-134.9533396884842
 10
95.33406451226983
 20
-134.9630057995925
 10
95.34231951205923
 20
-134.9705905218131
 10
95.35198562292373
 20
-134.9705905218131
 10
95.35198562292373
 20
-134.9705905218131
 10
95.35198562292373
 20
-134.9533396884842
 10
95.35198562292373
 20
-134.9533396884842
 97
        0
 97
        0
 75
     2
 76
     1
 98
        0
  0
SPLINE
  5
55
330
1F
100
AcDbEntity
  8
_U+30EC_U+30A4_U+30E4_U+30FC 1
370
     0
100
AcDbSpline
210
0.0
220
0.0
230
1.0
 70
    11
 71
     3
 72
    20
 73
    16
 74
     0
 42
0.0000000001
 43
0.0000000001
 12
1.0
 22
0.0
 32
0.0
 13
1.0
 23
0.0
 33
0.0
 40
0.0
 40
0.0
 40
0.0
 40
0.0
 40
1.0
 40
1.0
 40
1.0
 40
2.0
 40
2.0
 40
2.0
 40
3.0
 40
3.0
 40
3.0
 40
4.0
 40
4.0
 40
4.0
 40
5.0
 40
5.0
 40
5.0
 40
5.0
 10
95.35198562292373
 20
-134.9705905218131
 30
0.0
 10
95.36161645601136
 20
-134.9705905218131
 30
0.0
 10
95.36987145580076
 20
-134.9630057995925
 30
0.0
 10
95.36987145580076
 20
-134.9533396884842
 30
0.0
 10
95.36987145580076
 20
-134.9430032995978
 30
0.0
 10
95.36161645601136
 20
-134.9354185773772
 30
0.0
 10
95.35198562292373
 20
-134.9354185773772
 30
0.0
 10
95.34231951205923
 20
-134.9354185773772
 30
0.0
 10
95.33406451226983
 20
-134.9430032995978
 30
0.0
 10
95.33406451226983
 20
-134.9533396884842
 30
0.0
 10
95.33406451226983
 20
-134.9533396884842
 30
0.0
 10
95.35198562292373
 20
-134.9533396884842
 30
0.0
 10
95.35198562292373
 20
-134.9533396884842
 30
0.0
 10
95.35198562292373
 20
-134.9533396884842
 30
0.0
 10
95.35198562292373
 20
-134.9705905218131
 30
0.0
 10
95.35198562292373
 20
-134.9705905218131
 30
0.0
  0
HATCH
  5
56
330
1F
100
AcDbEntity
  8
_U+30EC_U+30A4_U+30E4_U+30FC 1
 62
   253
420
 11711154
100
AcDbHatch
 10
0.0
 20
0.0
 30
0.0
210
0.0
220
0.0
230
1.0
  2
SOLID
 70
     1
 71
     0
 91
        1
 92
        1
 93
        1
 72
     4
 94
        3
 73
     0
 74
     1
 95
       20
 96
       16
 40
0.0
 40
0.0
 40
0.0
 40
0.0
 40
1.0
 40
1.0
 40
1.0
 40
2.0
 40
2.0
 40
2.0
 40
3.0
 40
3.0
 40
3.0
 40
4.0
 40
4.0
 40
4.0
 40
5.0
 40
5.0
 40
5.0
 40
5.0
 10
95.35198562292373
 20
-134.9705905218131
 10
95.36161645601136
 20
-134.9705905218131
 10
95.36987145580076
 20
-134.9630057995925
 10
95.36987145580076
 20
-134.9533396884842
 10
95.36987145580076
 20
-134.9430032995978
 10
95.36161645601136
 20
-134.9354185773772
 10
95.35198562292373
 20
-134.9354185773772
 10
95.34231951205923
 20
-134.9354185773772
 10
95.33406451226983
 20
-134.9430032995978
 10
95.33406451226983
 20
-134.9533396884842
 10
95.33406451226983
 20
-134.9533396884842
 10
95.35198562292373
 20
-134.9533396884842
 10
95.35198562292373
 20
-134.9533396884842
 10
95.35198562292373
 20
-134.9533396884842
 10
95.35198562292373
 20
-134.9705905218131
 10
95.35198562292373
 20
-134.9705905218131
 97
        0
 97
        0
 75
     2
 76
     1
 98
        0
  0
SPLINE
  5
57
330
1F
100
AcDbEntity
  8
_U+30EC_U+30A4_U+30E4_U+30FC 1
370
     0
100
AcDbSpline
210
0.0
220
0.0
230
1.0
 70
    11
 71
     3
 72
    20
 73
    16
 74
     0
 42
0.0000000001
 43
0.0000000001
 12
1.0
 22
0.0
 32
0.0
 13
1.0
 23
0.0
 33
0.0
 40
0.0
 40
0.0
 40
0.0
 40
0.0
 40
1.0
 40
1.0
 40
1.0
 40
2.0
 40
2.0
 40
2.0
 40
3.0
 40
3.0
 40
3.0
 40
4.0
 40
4.0
 40
4.0
 40
5.0
 40
5.0
 40
5.0
 40
5.0
 10
95.33406451226983
 20
-137.4531230211923
 30
0.0
 10
95.33406451226983
 20
-137.4627538545232
 30
0.0
 10
95.34231951205923
 20
-137.4710088545211
 30
0.0
 10
95.35198562292373
 20
-137.4710088545211
 30
0.0
 10
95.36161645601136
 20
-137.4710088545211
 30
0.0
 10
95.36987145580076
 20
-137.4627538545232
 30
0.0
 10
95.36987145580076
 20
-137.4531230211923
 30
0.0
 10
95.36987145580076
 20
-137.4434569100833
 30
0.0
 10
95.36161645601136
 20
-137.4352019100854
 30
0.0
 10
95.35198562292373
 20
-137.4352019100854
 30
0.0
 10
95.35198562292373
 20
-137.4352019100854
 30
0.0
 10
95.35198562292373
 20
-137.4531230211923
 30
0.0
 10
95.35198562292373
 20
-137.4531230211923
 30
0.0
 10
95.35198562292373
 20
-137.4531230211923
 30
0.0
 10
95.33406451226983
 20
-137.4531230211923
 30
0.0
 10
95.33406451226983
 20
-137.4531230211923
 30
0.0
  0
HATCH
  5
58
330
1F
100
AcDbEntity
  8
_U+30EC_U+30A4_U+30E4_U+30FC 1
 62
   253
420
 11711154
100
AcDbHatch
 10
0.0
 20
0.0
 30
0.0
210
0.0
220
0.0
230
1.0
  2
SOLID
 70
     1
 71
     0
 91
        1
 92
        1
 93
        1
 72
     4
 94
        3
 73
     0
 74
     1
 95
       20
 96
       16
 40
0.0
 40
0.0
 40
0.0
 40
0.0
 40
1.0
 40
1.0
 40
1.0
 40
2.0
 40
2.0
 40
2.0
 40
3.0
 40
3.0
 40
3.0
 40
4.0
 40
4.0
 40
4.0
 40
5.0
 40
5.0
 40
5.0
 40
5.0
 10
95.33406451226983
 20
-137.4531230211923
 10
95.33406451226983
 20
-137.4627538545232
 10
95.34231951205923
 20
-137.4710088545211
 10
95.35198562292373
 20
-137.4710088545211
 10
95.36161645601136
 20
-137.4710088545211
 10
95.36987145580076
 20
-137.4627538545232
 10
95.36987145580076
 20
-137.4531230211923
 10
95.36987145580076
 20
-137.4434569100833
 10
95.36161645601136
 20
-137.4352019100854
 10
95.35198562292373
 20
-137.4352019100854
 10
95.35198562292373
 20
-137.4352019100854
 10
95.35198562292373
 20
-137.4531230211923
 10
95.35198562292373
 20
-137.4531230211923
 10
95.35198562292373
 20
-137.4531230211923
 10
95.33406451226983
 20
-137.4531230211923
 10
95.33406451226983
 20
-137.4531230211923
 97
        0
 97
        0
 75
     2
 76
     1
 98
        0
  0
SPLINE
  5
59
330
1F
100
AcDbEntity
  8
_U+30EC_U+30A4_U+30E4_U+30FC 1
370
     0
100
AcDbSpline
210
0.0
220
0.0
230
1.0
 70
    11
 71
     3
 72
    14
 73
    10
 74
     0
 42
0.0000000001
 43
0.0000000001
 12
1.0
 22
0.0
 32
0.0
 13
1.0
 23
0.0
 33
0.0
 40
0.0
 40
0.0
 40
0.0
 40
0.0
 40
1.0
 40
1.0
 40
1.0
 40
2.0
 40
2.0
 40
2.0
 40
3.0
 40
3.0
 40
3.0
 40
3.0
 10
95.35198562292373
 20
-137.4531230211923
 30
0.0
 10
95.35198562292373
 20
-137.4531230211923
 30
0.0
 10
95.35198562292373
 20
-137.4352019100854
 30
0.0
 10
95.35198562292373
 20
-137.4352019100854
 30
0.0
 10
95.34231951205923
 20
-137.4352019100854
 30
0.0
 10
95.33406451226983
 20
-137.4434569100833
 30
0.0
 10
95.33406451226983
 20
-137.4531230211923
 30
0.0
 10
95.33406451226983
 20
-137.4531230211923
 30
0.0
 10
95.35198562292373
 20
-137.4531230211923
 30
0.0
 10
95.35198562292373
 20
-137.4531230211923
 30
0.0
  0
HATCH
  5
5A
330
1F
100
AcDbEntity
  8
_U+30EC_U+30A4_U+30E4_U+30FC 1
 62
   253
420
 11711154
100
AcDbHatch
 10
0.0
 20
0.0
 30
0.0
210
0.0
220
0.0
230
1.0
  2
SOLID
 70
     1
 71
     0
 91
        1
 92
        1
 93
        1
 72
     4
 94
        3
 73
     0
 74
     1
 95
       14
 96
       10
 40
0.0
 40
0.0
 40
0.0
 40
0.0
 40
1.0
 40
1.0
 40
1.0
 40
2.0
 40
2.0
 40
2.0
 40
3.0
 40
3.0
 40
3.0
 40
3.0
 10
95.35198562292373
 20
-137.4531230211923
 10
95.35198562292373
 20
-137.4531230211923
 10
95.35198562292373
 20
-137.4352019100854
 10
95.35198562292373
 20
-137.4352019100854
 10
95.34231951205923
 20
-137.4352019100854
 10
95.33406451226983
 20
-137.4434569100833
 10
95.33406451226983
 20
-137.4531230211923
 10
95.33406451226983
 20
-137.4531230211923
 10
95.35198562292373
 20
-137.4531230211923
 10
95.35198562292373
 20
-137.4531230211923
 97
        0
 97
        0
 75
     2
 76
     1
 98
        0
  0
INSERT
  5
5C
330
1F
100
AcDbEntity
  8
_U+30EC_U+30A4_U+30E4_U+30FC 1
100
AcDbBlockReference
  2
block 2
 10
0.0
 20
0.0
 30
0.0
  0
SPLINE
  5
176
330
1F
100
AcDbEntity
  8
_U+30EC_U+30A4_U+30E4_U+30FC 1
 62
   179
420
  2234388
370
     9
100
AcDbSpline
210
0.0
220
0.0
230
1.0
 70
    11
 71
     3
 72
    17
 73
    13
 74
     0
 42
0.0000000001
 43
0.0000000001
 12
1.0
 22
0.0
 32
0.0
 13
1.0
 23
0.0
 33
0.0
 40
0.0
 40
0.0
 40
0.0
 40
0.0
 40
1.0
 40
1.0
 40
1.0
 40
2.0
 40
2.0
 40
2.0
 40
3.0
 40
3.0
 40
3.0
 40
4.0
 40
4.0
 40
4.0
 40
4.0
 10
86.57353418021403
 20
-137.4531230211923
 30
0.0
 10
86.57353418021403
 20
-137.425535798977
 30
0.0
 10
86.55113279189665
 20
-137.4028169100941
 30
0.0
 10
86.5235808481551
 20
-137.4028169100941
 30
0.0
 10
86.49599362663669
 20
-137.4028169100941
 30
0.0
 10
86.47362751609619
 20
-137.425535798977
 30
0.0
 10
86.47362751609619
 20
-137.4531230211923
 30
0.0
 10
86.47362751609619
 20
-137.4806749656301
 30
0.0
 10
86.49599362663669
 20
-137.5027235767357
 30
0.0
 10
86.5235808481551
 20
-137.5027235767357
 30
0.0
 10
86.55113279189665
 20
-137.5027235767357
 30
0.0
 10
86.57353418021403
 20
-137.4806749656301
 30
0.0
 10
86.57353418021403
 20
-137.4531230211923
 30
0.0
  0
SPLINE
  5
177
330
1F
100
AcDbEntity
  8
_U+30EC_U+30A4_U+30E4_U+30FC 1
 62
   179
420
  2234388
370
     9
100
AcDbSpline
210
0.0
220
0.0
230
1.0
 70
    11
 71
     3
 72
    17
 73
    13
 74
     0
 42
0.0000000001
 43
0.0000000001
 12
1.0
 22
0.0
 32
0.0
 13
1.0
 23
0.0
 33
0.0
 40
0.0
 40
0.0
 40
0.0
 40
0.0
 40
1.0
 40
1.0
 40
1.0
 40
2.0
 40
2.0
 40
2.0
 40
3.0
 40
3.0
 40
3.0
 40
4.0
 40
4.0
 40
4.0
 40
4.0
 10
86.57402806909032
 20
-136.7530707991453
 30
0.0
 10
86.57402806909032
 20
-136.7255188547076
 30
0.0
 10
86.55166195854981
 20
-136.7034702436019
 30
0.0
 10
86.5240747370314
 20
-136.7034702436019
 30
0.0
 10
86.49652497837583
 20
-136.7034702436019
 30
0.0
 10
86.47412140497248
 20
-136.7255188547076
 30
0.0
 10
86.47412140497248
 20
-136.7530707991453
 30
0.0
 10
86.47412140497248
 20
-136.7806227435825
 30
0.0
 10
86.49652497837583
 20
-136.8033769102436
 30
0.0
 10
86.5240747370314
 20
-136.8033769102436
 30
0.0
 10
86.55166195854981
 20
-136.8033769102436
 30
0.0
 10
86.57402806909032
 20
-136.7806227435825
 30
0.0
 10
86.57402806909032
 20
-136.7530707991453
 30
0.0
  0
ENDSEC
  0
SECTION
  2
OBJECTS
  0
DICTIONARY
  5
C
330
0
100
AcDbDictionary
281
     1
  3
ACAD_GROUP
350
D
  3
ACAD_LAYOUT
350
1A
  3
ACAD_MATERIAL
350
3B
  3
ACAD_MLEADERSTYLE
350
179
  3
ACAD_MLINESTYLE
350
17
  3
ACAD_PLOTSETTINGS
350
19
  3
ACAD_PLOTSTYLENAME
350
E
  3
ACAD_TABLESTYLE
350
178
  3
ACAD_VISUALSTYLE
350
2A
  0
SUN
  5
3F
330
29
100
AcDbSun
 90
        1
290
     0
 63
     7
421
 16777215
 40
1.0
291
     1
 91
  2455826
 92
 54000000
292
     0
 70
     2
 71
   256
280
     1
  0
DICTIONARY
  5
D
102
{ACAD_REACTORS
330
C
102
}
330
C
100
AcDbDictionary
281
     1
  0
DICTIONARY
  5
1A
102
{ACAD_REACTORS
330
C
102
}
330
C
100
AcDbDictionary
281
     1
  3
Layout1
350
1E
  3
Layout2
350
26
  3
Model
350
22
  0
DICTIONARY
  5
3B
102
{ACAD_REACTORS
330
C
102
}
330
C
100
AcDbDictionary
281
     1
  3
ByBlock
350
3D
  3
ByLayer
350
3C
  3
Global
350
3E
  0
DICTIONARY
  5
179
102
{ACAD_REACTORS
330
C
102
}
330
C
100
AcDbDictionary
281
     1
  0
DICTIONARY
  5
17
102
{ACAD_REACTORS
330
C
102
}
330
C
100
AcDbDictionary
281
     1
  3
Standard
350
18
  0
DICTIONARY
  5
19
102
{ACAD_REACTORS
330
C
102
}
330
C
100
AcDbDictionary
281
     1
  0
ACDBDICTIONARYWDFLT
  5
E
102
{ACAD_REACTORS
330
C
102
}
330
C
100
AcDbDictionary
281
     1
  3
Normal
350
F
100
AcDbDictionaryWithDefault
340
F
  0
DICTIONARY
  5
178
102
{ACAD_REACTORS
330
C
102
}
330
C
100
AcDbDictionary
281
     1
  0
DICTIONARY
  5
2A
102
{ACAD_REACTORS
330
C
102
}
330
C
100
AcDbDictionary
281
     1
  3
2dWireframe
350
2F
  3
3D Hidden
350
31
  3
3dWireframe
350
30
  3
Basic
350
32
  3
Brighten
350
36
  3
ColorChange
350
3A
  3
Conceptual
350
34
  3
Dim
350
35
  3
Facepattern
350
39
  3
Flat
350
2B
  3
FlatWithEdges
350
2C
  3
Gouraud
350
2D
  3
GouraudWithEdges
350
2E
  3
Linepattern
350
38
  3
Realistic
350
33
  3
Thicken
350
37
  0
LAYOUT
  5
1E
102
{ACAD_REACTORS
330
1A
102
}
330
1A
100
AcDbPlotSettings
  1

  2
none_device
  4

  6

 40
0.0
 41
0.0
 42
0.0
 43
0.0
 44
0.0
 45
0.0
 46
0.0
 47
0.0
 48
0.0
 49
0.0
140
0.0
141
0.0
142
1.0
143
1.0
 70
   688
 72
     0
 73
     0
 74
     5
  7

 75
    16
 76
     0
 77
     2
 78
   300
147
1.0
148
0.0
149
0.0
100
AcDbLayout
  1
Layout1
 70
     1
 71
     1
 10
0.0
 20
0.0
 11
12.0
 21
9.0
 12
0.0
 22
0.0
 32
0.0
 14
1.000000000000000E+20
 24
1.000000000000000E+20
 34
1.000000000000000E+20
 15
-1.000000000000000E+20
 25
-1.000000000000000E+20
 35
-1.000000000000000E+20
146
0.0
 13
0.0
 23
0.0
 33
0.0
 16
1.0
 26
0.0
 36
0.0
 17
0.0
 27
1.0
 37
0.0
 76
     0
330
1B
  0
LAYOUT
  5
26
102
{ACAD_REACTORS
330
1A
102
}
330
1A
100
AcDbPlotSettings
  1

  2
none_device
  4

  6

 40
0.0
 41
0.0
 42
0.0
 43
0.0
 44
0.0
 45
0.0
 46
0.0
 47
0.0
 48
0.0
 49
0.0
140
0.0
141
0.0
142
1.0
143
1.0
 70
   688
 72
     0
 73
     0
 74
     5
  7

 75
    16
 76
     0
 77
     2
 78
   300
147
1.0
148
0.0
149
0.0
100
AcDbLayout
  1
Layout2
 70
     1
 71
     2
 10
0.0
 20
0.0
 11
0.0
 21
0.0
 12
0.0
 22
0.0
 32
0.0
 14
0.0
 24
0.0
 34
0.0
 15
0.0
 25
0.0
 35
0.0
146
0.0
 13
0.0
 23
0.0
 33
0.0
 16
1.0
 26
0.0
 36
0.0
 17
0.0
 27
1.0
 37
0.0
 76
     0
330
23
  0
LAYOUT
  5
22
102
{ACAD_REACTORS
330
1A
102
}
330
1A
100
AcDbPlotSettings
  1

  2
none_device
  4

  6

 40
0.0
 41
0.0
 42
0.0
 43
0.0
 44
0.0
 45
0.0
 46
0.0
 47
0.0
 48
0.0
 49
0.0
140
0.0
141
0.0
142
1.0
143
1.0
 70
  1712
 72
     0
 73
     0
 74
     0
  7

 75
     0
 76
     0
 77
     2
 78
   300
147
1.0
148
0.0
149
0.0
100
AcDbLayout
  1
Model
 70
     1
 71
     0
 10
0.0
 20
0.0
 11
12.0
 21
9.0
 12
0.0
 22
0.0
 32
0.0
 14
1.000000000000000E+20
 24
1.000000000000000E+20
 34
1.000000000000000E+20
 15
-1.000000000000000E+20
 25
-1.000000000000000E+20
 35
-1.000000000000000E+20
146
0.0
 13
0.0
 23
0.0
 33
0.0
 16
1.0
 26
0.0
 36
0.0
 17
0.0
 27
1.0
 37
0.0
 76
     0
330
1F
331
29
  0
MATERIAL
  5
3D
102
{ACAD_REACTORS
330
3B
102
}
330
3B
100
AcDbMaterial
  1
ByBlock
 72
     1
 94
      127
  0
MATERIAL
  5
3C
102
{ACAD_REACTORS
330
3B
102
}
330
3B
100
AcDbMaterial
  1
ByLayer
 72
     1
 94
      127
  0
MATERIAL
  5
3E
102
{ACAD_REACTORS
330
3B
102
}
330
3B
100
AcDbMaterial
  1
Global
 72
     1
 94
      127
  0
MLINESTYLE
  5
18
102
{ACAD_REACTORS
330
17
102
}
330
17
100
AcDbMlineStyle
  2
Standard
 70
     0
  3

 62
   256
 51
90.0
 52
90.0
 71
     2
 49
0.5
 62
   256
  6
BYLAYER
 49
-0.5
 62
   256
  6
BYLAYER
  0
ACDBPLACEHOLDER
  5
F
102
{ACAD_REACTORS
330
E
102
}
330
E
  0
VISUALSTYLE
  5
2F
102
{ACAD_REACTORS
330
2A
102
}
330
2A
100
AcDbVisualStyle
  2
2dWireframe
 70
     4
177
     2
291
     0
 71
     0
176
     1
 72
     2
176
     1
 73
     0
176
     1
 90
        0
176
     1
 40
-0.6
176
     1
 41
-30.0
176
     1
 62
     5
 63
     7
421
 16777215
176
     1
 74
     1
176
     1
 91
        4
176
     1
 64
     7
176
     1
 65
   257
176
     1
 75
     1
176
     1
175
     1
176
     1
 42
1.0
176
     1
 92
        0
176
     1
 66
   257
176
     1
 43
1.0
176
     1
 76
     1
176
     1
 77
     6
176
     1
 78
     2
176
     1
 67
     7
176
     1
 79
     5
176
     1
170
     0
176
     1
171
     0
176
     1
290
     0
176
     1
 93
        1
176
     1
 44
0.0
176
     1
173
     0
176
     1
  0
VISUALSTYLE
  5
31
102
{ACAD_REACTORS
330
2A
102
}
330
2A
100
AcDbVisualStyle
  2
3D Hidden
 70
     6
177
     2
291
     0
 71
     1
176
     1
 72
     2
176
     1
 73
     2
176
     1
 90
        0
176
     1
 40
-0.6
176
     1
 41
-30.0
176
     1
 62
     5
 63
     7
421
 16777215
176
     1
 74
     2
176
     1
 91
        2
176
     1
 64
     7
176
     1
 65
   257
176
     1
 75
     2
176
     1
175
     1
176
     1
 42
40.0
176
     1
 92
        0
176
     1
 66
   257
176
     1
 43
1.0
176
     1
 76
     1
176
     1
 77
     6
176
     1
 78
     2
176
     1
 67
     7
176
     1
 79
     3
176
     1
170
     0
176
     1
171
     0
176
     1
290
     0
176
     1
 93
        1
176
     1
 44
0.0
176
     1
173
     0
176
     1
  0
VISUALSTYLE
  5
30
102
{ACAD_REACTORS
330
2A
102
}
330
2A
100
AcDbVisualStyle
  2
3dWireframe
 70
     5
177
     2
291
     0
 71
     0
176
     1
 72
     2
176
     1
 73
     0
176
     1
 90
        0
176
     1
 40
-0.6
176
     1
 41
-30.0
176
     1
 62
     5
 63
     7
421
 16777215
176
     1
 74
     1
176
     1
 91
        4
176
     1
 64
     7
176
     1
 65
   257
176
     1
 75
     1
176
     1
175
     1
176
     1
 42
1.0
176
     1
 92
        0
176
     1
 66
   257
176
     1
 43
1.0
176
     1
 76
     1
176
     1
 77
     6
176
     1
 78
     2
176
     1
 67
     7
176
     1
 79
     5
176
     1
170
     0
176
     1
171
     0
176
     1
290
     0
176
     1
 93
        1
176
     1
 44
0.0
176
     1
173
     0
176
     1
  0
VISUALSTYLE
  5
32
102
{ACAD_REACTORS
330
2A
102
}
330
2A
100
AcDbVisualStyle
  2
Basic
 70
     7
177
     2
291
     1
 71
     1
176
     1
 72
     0
176
     1
 73
     1
176
     1
 90
        0
176
     1
 40
-0.6
176
     1
 41
-30.0
176
     1
 62
     5
 63
     7
421
 16777215
176
     1
 74
     0
176
     1
 91
        4
176
     1
 64
     7
176
     1
 65
   257
176
     1
 75
     1
176
     1
175
     1
176
     1
 42
1.0
176
     1
 92
        8
176
     1
 66
     7
176
     1
 43
1.0
176
     1
 76
     1
176
     1
 77
     6
176
     1
 78
     2
176
     1
 67
     7
176
     1
 79
     5
176
     1
170
     0
176
     1
171
     0
176
     1
290
     0
176
     1
 93
        1
176
     1
 44
0.0
176
     1
173
     0
176
     1
  0
VISUALSTYLE
  5
36
102
{ACAD_REACTORS
330
2A
102
}
330
2A
100
AcDbVisualStyle
  2
Brighten
 70
    12
177
     2
291
     1
 71
     2
176
     1
 72
     2
176
     1
 73
     0
176
     1
 90
        0
176
     1
 40
-0.6
176
     1
 41
-30.0
176
     1
 62
     5
 63
     7
421
 16777215
176
     1
 74
     1
176
     1
 91
        4
176
     1
 64
     7
176
     1
 65
   257
176
     1
 75
     1
176
     1
175
     1
176
     1
 42
1.0
176
     1
 92
        8
176
     1
 66
     7
176
     1
 43
1.0
176
     1
 76
     1
176
     1
 77
     6
176
     1
 78
     2
176
     1
 67
     7
176
     1
 79
     5
176
     1
170
     0
176
     1
171
     0
176
     1
290
     0
176
     1
 93
        1
176
     1
 44
50.0
176
     1
173
     0
176
     1
  0
VISUALSTYLE
  5
3A
102
{ACAD_REACTORS
330
2A
102
}
330
2A
100
AcDbVisualStyle
  2
ColorChange
 70
    16
177
     2
291
     1
 71
     2
176
     1
 72
     2
176
     1
 73
     3
176
     1
 90
        0
176
     1
 40
-0.6
176
     1
 41
-30.0
176
     1
 62
     5
 63
     8
421
  8421504
176
     1
 74
     1
176
     1
 91
        4
176
     1
 64
     7
176
     1
 65
   257
176
     1
 75
     1
176
     1
175
     1
176
     1
 42
1.0
176
     1
 92
        8
176
     1
 66
     8
424
  8421504
176
     1
 43
1.0
176
     1
 76
     1
176
     1
 77
     6
176
     1
 78
     2
176
     1
 67
     7
176
     1
 79
     5
176
     1
170
     0
176
     1
171
     0
176
     1
290
     0
176
     1
 93
        1
176
     1
 44
0.0
176
     1
173
     0
176
     1
  0
VISUALSTYLE
  5
34
102
{ACAD_REACTORS
330
2A
102
}
330
2A
100
AcDbVisualStyle
  2
Conceptual
 70
     9
177
     2
291
     0
 71
     3
176
     1
 72
     2
176
     1
 73
     0
176
     1
 90
        0
176
     1
 40
-0.6
176
     1
 41
-30.0
176
     1
 62
     5
 63
     7
421
 16777215
176
     1
 74
     2
176
     1
 91
        2
176
     1
 64
     7
176
     1
 65
   257
176
     1
 75
     1
176
     1
175
     1
176
     1
 42
40.0
176
     1
 92
        8
176
     1
 66
     7
176
     1
 43
1.0
176
     1
 76
     1
176
     1
 77
     6
176
     1
 78
     2
176
     1
 67
     7
176
     1
 79
     3
176
     1
170
     0
176
     1
171
     0
176
     1
290
     0
176
     1
 93
        1
176
     1
 44
0.0
176
     1
173
     0
176
     1
  0
VISUALSTYLE
  5
35
102
{ACAD_REACTORS
330
2A
102
}
330
2A
100
AcDbVisualStyle
  2
Dim
 70
    11
177
     2
291
     1
 71
     2
176
     1
 72
     2
176
     1
 73
     0
176
     1
 90
        0
176
     1
 40
-0.6
176
     1
 41
-30.0
176
     1
 62
     5
 63
     7
421
 16777215
176
     1
 74
     1
176
     1
 91
        4
176
     1
 64
     7
176
     1
 65
   257
176
     1
 75
     1
176
     1
175
     1
176
     1
 42
1.0
176
     1
 92
        8
176
     1
 66
     7
176
     1
 43
1.0
176
     1
 76
     1
176
     1
 77
     6
176
     1
 78
     2
176
     1
 67
     7
176
     1
 79
     5
176
     1
170
     0
176
     1
171
     0
176
     1
290
     0
176
     1
 93
        1
176
     1
 44
-50.0
176
     1
173
     0
176
     1
  0
VISUALSTYLE
  5
39
102
{ACAD_REACTORS
330
2A
102
}
330
2A
100
AcDbVisualStyle
  2
Facepattern
 70
    15
177
     2
291
     1
 71
     2
176
     1
 72
     2
176
     1
 73
     0
176
     1
 90
        0
176
     1
 40
-0.6
176
     1
 41
-30.0
176
     1
 62
     5
 63
     7
421
 16777215
176
     1
 74
     1
176
     1
 91
        4
176
     1
 64
     7
176
     1
 65
   257
176
     1
 75
     1
176
     1
175
     1
176
     1
 42
1.0
176
     1
 92
        8
176
     1
 66
     7
176
     1
 43
1.0
176
     1
 76
     1
176
     1
 77
     6
176
     1
 78
     2
176
     1
 67
     7
176
     1
 79
     5
176
     1
170
     0
176
     1
171
     0
176
     1
290
     0
176
     1
 93
        1
176
     1
 44
0.0
176
     1
173
     0
176
     1
  0
VISUALSTYLE
  5
2B
102
{ACAD_REACTORS
330
2A
102
}
330
2A
100
AcDbVisualStyle
  2
Flat
 70
     0
177
     2
291
     1
 71
     2
176
     1
 72
     1
176
     1
 73
     1
176
     1
 90
        2
176
     1
 40
-0.6
176
     1
 41
30.0
176
     1
 62
     5
 63
     7
421
 16777215
176
     1
 74
     0
176
     1
 91
        4
176
     1
 64
     7
176
     1
 65
   257
176
     1
 75
     1
176
     1
175
     1
176
     1
 42
1.0
176
     1
 92
        8
176
     1
 66
     7
176
     1
 43
1.0
176
     1
 76
     1
176
     1
 77
     6
176
     1
 78
     2
176
     1
 67
     7
176
     1
 79
     5
176
     1
170
     0
176
     1
171
     0
176
     1
290
     0
176
     1
 93
       13
176
     1
 44
0.0
176
     1
173
     0
176
     1
  0
VISUALSTYLE
  5
2C
102
{ACAD_REACTORS
330
2A
102
}
330
2A
100
AcDbVisualStyle
  2
FlatWithEdges
 70
     1
177
     2
291
     1
 71
     2
176
     1
 72
     1
176
     1
 73
     1
176
     1
 90
        2
176
     1
 40
-0.6
176
     1
 41
30.0
176
     1
 62
     5
 63
     7
421
 16777215
176
     1
 74
     1
176
     1
 91
        4
176
     1
 64
     7
176
     1
 65
   257
176
     1
 75
     1
176
     1
175
     1
176
     1
 42
1.0
176
     1
 92
        0
176
     1
 66
   257
176
     1
 43
1.0
176
     1
 76
     1
176
     1
 77
     6
176
     1
 78
     2
176
     1
 67
     7
176
     1
 79
     5
176
     1
170
     0
176
     1
171
     0
176
     1
290
     0
176
     1
 93
       13
176
     1
 44
0.0
176
     1
173
     0
176
     1
  0
VISUALSTYLE
  5
2D
102
{ACAD_REACTORS
330
2A
102
}
330
2A
100
AcDbVisualStyle
  2
Gouraud
 70
     2
177
     2
291
     1
 71
     2
176
     1
 72
     2
176
     1
 73
     1
176
     1
 90
        2
176
     1
 40
-0.6
176
     1
 41
30.0
176
     1
 62
     5
 63
     7
421
 16777215
176
     1
 74
     0
176
     1
 91
        4
176
     1
 64
     7
176
     1
 65
   257
176
     1
 75
     1
176
     1
175
     1
176
     1
 42
1.0
176
     1
 92
        0
176
     1
 66
     7
176
     1
 43
1.0
176
     1
 76
     1
176
     1
 77
     6
176
     1
 78
     2
176
     1
 67
     7
176
     1
 79
     5
176
     1
170
     0
176
     1
171
     0
176
     1
290
     0
176
     1
 93
       13
176
     1
 44
0.0
176
     1
173
     0
176
     1
  0
VISUALSTYLE
  5
2E
102
{ACAD_REACTORS
330
2A
102
}
330
2A
100
AcDbVisualStyle
  2
GouraudWithEdges
 70
     3
177
     2
291
     1
 71
     2
176
     1
 72
     2
176
     1
 73
     1
176
     1
 90
        2
176
     1
 40
-0.6
176
     1
 41
30.0
176
     1
 62
     5
 63
     7
421
 16777215
176
     1
 74
     1
176
     1
 91
        4
176
     1
 64
     7
176
     1
 65
   257
176
     1
 75
     1
176
     1
175
     1
176
     1
 42
1.0
176
     1
 92
        0
176
     1
 66
   257
176
     1
 43
1.0
176
     1
 76
     1
176
     1
 77
     6
176
     1
 78
     2
176
     1
 67
     7
176
     1
 79
     5
176
     1
170
     0
176
     1
171
     0
176
     1
290
     0
176
     1
 93
       13
176
     1
 44
0.0
176
     1
173
     0
176
     1
  0
VISUALSTYLE
  5
38
102
{ACAD_REACTORS
330
2A
102
}
330
2A
100
AcDbVisualStyle
  2
Linepattern
 70
    14
177
     2
291
     1
 71
     2
176
     1
 72
     2
176
     1
 73
     0
176
     1
 90
        0
176
     1
 40
-0.6
176
     1
 41
-30.0
176
     1
 62
     5
 63
     7
421
 16777215
176
     1
 74
     1
176
     1
 91
        4
176
     1
 64
     7
176
     1
 65
   257
176
     1
 75
     7
176
     1
175
     7
176
     1
 42
1.0
176
     1
 92
        8
176
     1
 66
     7
176
     1
 43
1.0
176
     1
 76
     1
176
     1
 77
     6
176
     1
 78
     2
176
     1
 67
     7
176
     1
 79
     5
176
     1
170
     0
176
     1
171
     0
176
     1
290
     0
176
     1
 93
        1
176
     1
 44
0.0
176
     1
173
     0
176
     1
  0
VISUALSTYLE
  5
33
102
{ACAD_REACTORS
330
2A
102
}
330
2A
100
AcDbVisualStyle
  2
Realistic
 70
     8
177
     2
291
     0
 71
     2
176
     1
 72
     2
176
     1
 73
     0
176
     1
 90
        0
176
     1
 40
-0.6
176
     1
 41
-30.0
176
     1
 62
     5
 63
     7
421
 16777215
176
     1
 74
     1
176
     1
 91
        0
176
     1
 64
     7
176
     1
 65
   257
176
     1
 75
     1
176
     1
175
     1
176
     1
 42
1.0
176
     1
 92
        8
176
     1
 66
     8
424
  7895160
176
     1
 43
1.0
176
     1
 76
     1
176
     1
 77
     6
176
     1
 78
     2
176
     1
 67
     7
176
     1
 79
     5
176
     1
170
     0
176
     1
171
     0
176
     1
290
     0
176
     1
 93
       13
176
     1
 44
0.0
176
     1
173
     0
176
     1
  0
VISUALSTYLE
  5
37
102
{ACAD_REACTORS
330
2A
102
}
330
2A
100
AcDbVisualStyle
  2
Thicken
 70
    13
177
     2
291
     1
 71
     2
176
     1
 72
     2
176
     1
 73
     0
176
     1
 90
        0
176
     1
 40
-0.6
176
     1
 41
-30.0
176
     1
 62
     5
 63
     7
421
 16777215
176
     1
 74
     1
176
     1
 91
        4
176
     1
 64
     7
176
     1
 65
   257
176
     1
 75
     1
176
     1
175
     1
176
     1
 42
1.0
176
     1
 92
       12
176
     1
 66
     7
176
     1
 43
1.0
176
     1
 76
     1
176
     1
 77
     6
176
     1
 78
     2
176
     1
 67
     7
176
     1
 79
     5
176
     1
170
     0
176
     1
171
     0
176
     1
290
     0
176
     1
 93
        1
176
     1
 44
0.0
176
     1
173
     0
176
     1
  0
ENDSEC
  0
EOF
