  0
SECTION
  2
HEADER
  9
$ACADVER
  1
AC1024
  9
$ACADMAINTVER
 70
     6
  9
$DWGCODEPAGE
  3
UNDEFINED
  9
$INSBASE
 10
0.0
 20
0.0
 30
0.0
  9
$EXTMIN
 10
1.000000000000000E+20
 20
1.000000000000000E+20
 30
1.000000000000000E+20
  9
$EXTMAX
 10
-1.000000000000000E+20
 20
-1.000000000000000E+20
 30
-1.000000000000000E+20
  9
$LIMMIN
 10
0.0
 20
0.0
  9
$LIMMAX
 10
12.0
 20
9.0
  9
$ORTHOMODE
 70
     0
  9
$REGENMODE
 70
     1
  9
$FILLMODE
 70
     1
  9
$QTEXTMODE
 70
     0
  9
$MIRRTEXT
 70
     1
  9
$LTSCALE
 40
1.0
  9
$ATTMODE
 70
     1
  9
$TEXTSIZE
 40
0.2
  9
$TRACEWID
 40
0.05
  9
$TEXTSTYLE
  7
Standard
  9
$CLAYER
  8
0
  9
$CELTYPE
  6
ByLayer
  9
$CECOLOR
 62
   256
  9
$CELTSCALE
 40
1.0
  9
$DISPSILH
 70
     0
  9
$DIMSCALE
 40
1.0
  9
$DIMASZ
 40
0.18
  9
$DIMEXO
 40
0.0625
  9
$DIMDLI
 40
0.38
  9
$DIMRND
 40
0.0
  9
$DIMDLE
 40
0.0
  9
$DIMEXE
 40
0.18
  9
$DIMTP
 40
0.0
  9
$DIMTM
 40
0.0
  9
$DIMTXT
 40
0.18
  9
$DIMCEN
 40
0.09
  9
$DIMTSZ
 40
0.0
  9
$DIMTOL
 70
     0
  9
$DIMLIM
 70
     0
  9
$DIMTIH
 70
     1
  9
$DIMTOH
 70
     1
  9
$DIMSE1
 70
     0
  9
$DIMSE2
 70
     0
  9
$DIMTAD
 70
     0
  9
$DIMZIN
 70
     0
  9
$DIMBLK
  1

  9
$DIMASO
 70
     1
  9
$DIMSHO
 70
     1
  9
$DIMPOST
  1

  9
$DIMAPOST
  1

  9
$DIMALT
 70
     0
  9
$DIMALTD
 70
     2
  9
$DIMALTF
 40
25.4
  9
$DIMLFAC
 40
1.0
  9
$DIMTOFL
 70
     0
  9
$DIMTVP
 40
0.0
  9
$DIMTIX
 70
     0
  9
$DIMSOXD
 70
     0
  9
$DIMSAH
 70
     0
  9
$DIMBLK1
  1

  9
$DIMBLK2
  1

  9
$DIMSTYLE
  2
Standard
  9
$DIMCLRD
 70
     0
  9
$DIMCLRE
 70
     0
  9
$DIMCLRT
 70
     0
  9
$DIMTFAC
 40
1.0
  9
$DIMGAP
 40
0.09
  9
$DIMJUST
 70
     0
  9
$DIMSD1
 70
     0
  9
$DIMSD2
 70
     0
  9
$DIMTOLJ
 70
     1
  9
$DIMTZIN
 70
     0
  9
$DIMALTZ
 70
     0
  9
$DIMALTTZ
 70
     0
  9
$DIMUPT
 70
     0
  9
$DIMDEC
 70
     4
  9
$DIMTDEC
 70
     4
  9
$DIMALTU
 70
     2
  9
$DIMALTTD
 70
     2
  9
$DIMTXSTY
  7
Standard
  9
$DIMAUNIT
 70
     0
  9
$DIMADEC
 70
     0
  9
$DIMALTRND
 40
0.0
  9
$DIMAZIN
 70
     0
  9
$DIMDSEP
 70
    46
  9
$DIMATFIT
 70
     3
  9
$DIMFRAC
 70
     0
  9
$DIMLDRBLK
  1

  9
$DIMLUNIT
 70
     2
  9
$DIMLWD
 70
    -2
  9
$DIMLWE
 70
    -2
  9
$DIMTMOVE
 70
     0
  9
$DIMFXL
 40
1.0
  9
$DIMFXLON
 70
     0
  9
$DIMJOGANG
 40
0.7853981633974483
  9
$DIMTFILL
 70
     0
  9
$DIMTFILLCLR
 70
     0
  9
$DIMARCSYM
 70
     0
  9
$DIMLTYPE
  6

  9
$DIMLTEX1
  6

  9
$DIMLTEX2
  6

  9
$DIMTXTDIRECTION
 70
     0
  9
$LUNITS
 70
     2
  9
$LUPREC
 70
     4
  9
$SKETCHINC
 40
0.1
  9
$FILLETRAD
 40
0.5
  9
$AUNITS
 70
     0
  9
$AUPREC
 70
     0
  9
$MENU
  1
.
  9
$ELEVATION
 40
0.0
  9
$PELEVATION
 40
0.0
  9
$THICKNESS
 40
0.0
  9
$LIMCHECK
 70
     0
  9
$CHAMFERA
 40
0.5
  9
$CHAMFERB
 40
0.5
  9
$CHAMFERC
 40
1.0
  9
$CHAMFERD
 40
0.0
  9
$SKPOLY
 70
     0
  9
$TDCREATE
 40
2457917.646296285
  9
$TDUCREATE
 40
2457917.271296296
  9
$TDUPDATE
 40
2457917.646296285
  9
$TDUUPDATE
 40
2457917.271296296
  9
$TDINDWG
 40
0.0000000116
  9
$TDUSRTIMER
 40
0.0000000116
  9
$USRTIMER
 70
     1
  9
$ANGBASE
 50
0.0
  9
$ANGDIR
 70
     0
  9
$PDMODE
 70
     0
  9
$PDSIZE
 40
0.0
  9
$PLINEWID
 40
0.0
  9
$SPLFRAME
 70
     0
  9
$SPLINETYPE
 70
     6
  9
$SPLINESEGS
 70
     8
  9
$HANDSEED
  5
C3
  9
$SURFTAB1
 70
     6
  9
$SURFTAB2
 70
     6
  9
$SURFTYPE
 70
     6
  9
$SURFU
 70
     6
  9
$SURFV
 70
     6
  9
$UCSBASE
  2

  9
$UCSNAME
  2

  9
$UCSORG
 10
0.0
 20
0.0
 30
0.0
  9
$UCSXDIR
 10
1.0
 20
0.0
 30
0.0
  9
$UCSYDIR
 10
0.0
 20
1.0
 30
0.0
  9
$UCSORTHOREF
  2

  9
$UCSORTHOVIEW
 70
     0
  9
$UCSORGTOP
 10
0.0
 20
0.0
 30
0.0
  9
$UCSORGBOTTOM
 10
0.0
 20
0.0
 30
0.0
  9
$UCSORGLEFT
 10
0.0
 20
0.0
 30
0.0
  9
$UCSORGRIGHT
 10
0.0
 20
0.0
 30
0.0
  9
$UCSORGFRONT
 10
0.0
 20
0.0
 30
0.0
  9
$UCSORGBACK
 10
0.0
 20
0.0
 30
0.0
  9
$PUCSBASE
  2

  9
$PUCSNAME
  2

  9
$PUCSORG
 10
0.0
 20
0.0
 30
0.0
  9
$PUCSXDIR
 10
1.0
 20
0.0
 30
0.0
  9
$PUCSYDIR
 10
0.0
 20
1.0
 30
0.0
  9
$PUCSORTHOREF
  2

  9
$PUCSORTHOVIEW
 70
     0
  9
$PUCSORGTOP
 10
0.0
 20
0.0
 30
0.0
  9
$PUCSORGBOTTOM
 10
0.0
 20
0.0
 30
0.0
  9
$PUCSORGLEFT
 10
0.0
 20
0.0
 30
0.0
  9
$PUCSORGRIGHT
 10
0.0
 20
0.0
 30
0.0
  9
$PUCSORGFRONT
 10
0.0
 20
0.0
 30
0.0
  9
$PUCSORGBACK
 10
0.0
 20
0.0
 30
0.0
  9
$USERI1
 70
     0
  9
$USERI2
 70
     0
  9
$USERI3
 70
     0
  9
$USERI4
 70
     0
  9
$USERI5
 70
     0
  9
$USERR1
 40
0.0
  9
$USERR2
 40
0.0
  9
$USERR3
 40
0.0
  9
$USERR4
 40
0.0
  9
$USERR5
 40
0.0
  9
$WORLDVIEW
 70
     1
  9
$SHADEDGE
 70
     3
  9
$SHADEDIF
 70
    70
  9
$TILEMODE
 70
     1
  9
$MAXACTVP
 70
    64
  9
$PINSBASE
 10
0.0
 20
0.0
 30
0.0
  9
$PLIMCHECK
 70
     0
  9
$PEXTMIN
 10
1.000000000000000E+20
 20
1.000000000000000E+20
 30
1.000000000000000E+20
  9
$PEXTMAX
 10
-1.000000000000000E+20
 20
-1.000000000000000E+20
 30
-1.000000000000000E+20
  9
$PLIMMIN
 10
0.0
 20
0.0
  9
$PLIMMAX
 10
12.0
 20
9.0
  9
$UNITMODE
 70
     0
  9
$VISRETAIN
 70
     1
  9
$PLINEGEN
 70
     0
  9
$PSLTSCALE
 70
     1
  9
$TREEDEPTH
 70
  3020
  9
$CMLSTYLE
  2
Standard
  9
$CMLJUST
 70
     0
  9
$CMLSCALE
 40
1.0
  9
$PROXYGRAPHICS
 70
     1
  9
$MEASUREMENT
 70
     0
  9
$CELWEIGHT
370
    -1
  9
$ENDCAPS
280
     0
  9
$JOINSTYLE
280
     0
  9
$LWDISPLAY
290
     1
  9
$INSUNITS
 70
     1
  9
$HYPERLINKBASE
  1

  9
$STYLESHEET
  1

  9
$XEDIT
290
     1
  9
$CEPSNTYPE
380
     0
  9
$PSTYLEMODE
290
     1
  9
$FINGERPRINTGUID
  2
{7919ADA1-6FEE-8393-5487-8096216CC958}
  9
$VERSIONGUID
  2
{FAEB1C32-E019-11D5-929B-00C0DF256EC4}
  9
$EXTNAMES
290
     1
  9
$PSVPSCALE
 40
0.0
  9
$OLESTARTUP
290
     0
  9
$SORTENTS
280
   127
  9
$INDEXCTL
280
     0
  9
$HIDETEXT
280
     1
  9
$XCLIPFRAME
280
     2
  9
$HALOGAP
280
     0
  9
$OBSCOLOR
 70
   257
  9
$OBSLTYPE
280
     0
  9
$INTERSECTIONDISPLAY
280
     0
  9
$INTERSECTIONCOLOR
 70
   257
  9
$DIMASSOC
280
     2
  9
$PROJECTNAME
  1

  9
$CAMERADISPLAY
290
     0
  9
$LENSLENGTH
 40
50.0
  9
$CAMERAHEIGHT
 40
0.0
  9
$STEPSPERSEC
 40
2.0
  9
$STEPSIZE
 40
6.0
  9
$3DDWFPREC
 40
2.0
  9
$PSOLWIDTH
 40
0.25
  9
$PSOLHEIGHT
 40
4.0
  9
$LOFTANG1
 40
1.570796326794897
  9
$LOFTANG2
 40
1.570796326794897
  9
$LOFTMAG1
 40
0.0
  9
$LOFTMAG2
 40
0.0
  9
$LOFTPARAM
 70
     7
  9
$LOFTNORMALS
280
     1
  9
$LATITUDE
 40
37.795
  9
$LONGITUDE
 40
-122.394
  9
$NORTHDIRECTION
 40
0.0
  9
$TIMEZONE
 70
 -8000
  9
$LIGHTGLYPHDISPLAY
280
     1
  9
$TILEMODELIGHTSYNCH
280
     1
  9
$CMATERIAL
347
3C
  9
$SOLIDHIST
280
     1
  9
$SHOWHIST
280
     1
  9
$DWFFRAME
280
     2
  9
$DGNFRAME
280
     2
  9
$REALWORLDSCALE
290
     1
  9
$INTERFERECOLOR
 62
   256
  9
$CSHADOW
280
     0
  9
$SHADOWPLANELOCATION
 40
0.0
  0
ENDSEC
  0
SECTION
  2
CLASSES
  0
CLASS
  1
ACDBDICTIONARYWDFLT
  2
AcDbDictionaryWithDefault
  3
ObjectDBX Classes
 90
        0
 91
        4
280
     0
281
     0
  0
CLASS
  1
VISUALSTYLE
  2
AcDbVisualStyle
  3
ObjectDBX Classes
 90
     4095
 91
        4
280
     0
281
     0
  0
CLASS
  1
MATERIAL
  2
AcDbMaterial
  3
ObjectDBX Classes
 90
     1153
 91
        4
280
     0
281
     0
  0
CLASS
  1
SUN
  2
AcDbSun
  3
SCENEOE
 90
     1024
 91
        4
280
     0
281
     0
  0
ENDSEC
  0
SECTION
  2
TABLES
  0
TABLE
  2
VPORT
  5
8
330
0
100
AcDbSymbolTable
 70
     1
  0
VPORT
  5
29
330
8
100
AcDbSymbolTableRecord
100
AcDbViewportTableRecord
  2
*Active
 70
     0
 10
0.0
 20
0.0
 11
1.0
 21
1.0
 12
0.0
 22
0.0
 13
0.0
 23
0.0
 14
0.5
 24
0.5
 15
0.5
 25
0.5
 16
0.0
 26
0.0
 36
1.0
 17
91.00082462281999
 27
-128.4993055234307
 37
0.0
 40
256.9986110468615
 41
0.7081814508812795
 42
50.0
 43
0.0
 44
0.0
 50
0.0
 51
0.0
 71
     0
 72
   100
 73
     1
 74
     3
 75
     0
 76
     0
 77
     0
 78
     0
281
     0
 65
     1
110
0.0
120
0.0
130
0.0
111
1.0
121
0.0
131
0.0
112
0.0
122
1.0
132
0.0
 79
     0
146
0.0
 60
     3
 61
     5
292
     1
282
     1
141
0.0
142
0.0
 63
   250
361
3F
  0
ENDTAB
  0
TABLE
  2
LTYPE
  5
5
330
0
100
AcDbSymbolTable
 70
     1
  0
LTYPE
  5
14
330
5
100
AcDbSymbolTableRecord
100
AcDbLinetypeTableRecord
  2
ByBlock
 70
     0
  3

 72
    65
 73
     0
 40
0.0
  0
LTYPE
  5
15
330
5
100
AcDbSymbolTableRecord
100
AcDbLinetypeTableRecord
  2
ByLayer
 70
     0
  3

 72
    65
 73
     0
 40
0.0
  0
LTYPE
  5
16
330
5
100
AcDbSymbolTableRecord
100
AcDbLinetypeTableRecord
  2
Continuous
 70
     0
  3
Solid line
 72
    65
 73
     0
 40
0.0
  0
ENDTAB
  0
TABLE
  2
LAYER
  5
2
330
0
100
AcDbSymbolTable
 70
     2
  0
LAYER
  5
10
330
2
100
AcDbSymbolTableRecord
100
AcDbLayerTableRecord
  2
0
 70
     0
 62
     7
  6
Continuous
370
    -3
390
F
347
3E
  0
LAYER
  5
40
330
2
100
AcDbSymbolTableRecord
100
AcDbLayerTableRecord
  2
_U+30EC_U+30A4_U+30E4_U+30FC 1
 70
     0
 62
     7
  6
Continuous
370
    -3
390
F
347
3E
  0
ENDTAB
  0
TABLE
  2
STYLE
  5
3
330
0
100
AcDbSymbolTable
 70
     1
  0
STYLE
  5
11
330
3
100
AcDbSymbolTableRecord
100
AcDbTextStyleTableRecord
  2
Standard
 70
     0
 40
0.0
 41
1.0
 50
0.0
 71
     0
 42
0.2
  3
txt
  4

  0
ENDTAB
  0
TABLE
  2
VIEW
  5
6
330
0
100
AcDbSymbolTable
 70
     0
  0
ENDTAB
  0
TABLE
  2
UCS
  5
7
330
0
100
AcDbSymbolTable
 70
     0
  0
ENDTAB
  0
TABLE
  2
APPID
  5
9
330
0
100
AcDbSymbolTable
 70
     1
  0
APPID
  5
12
330
9
100
AcDbSymbolTableRecord
100
AcDbRegAppTableRecord
  2
ACAD
 70
     0
  0
ENDTAB
  0
TABLE
  2
DIMSTYLE
  5
A
330
0
100
AcDbSymbolTable
 70
     1
100
AcDbDimStyleTable
  0
DIMSTYLE
105
27
330
A
100
AcDbSymbolTableRecord
100
AcDbDimStyleTableRecord
  2
Standard
 70
     0
178
     0
340
11
  0
ENDTAB
  0
TABLE
  2
BLOCK_RECORD
  5
1
330
0
100
AcDbSymbolTable
 70
     6
  0
BLOCK_RECORD
  5
1F
330
1
100
AcDbSymbolTableRecord
100
AcDbBlockTableRecord
  2
*Model_Space
340
22
 70
     0
280
     1
281
     0
  0
BLOCK_RECORD
  5
1B
330
1
100
AcDbSymbolTableRecord
100
AcDbBlockTableRecord
  2
*Paper_Space
340
1E
 70
     0
280
     1
281
     0
  0
BLOCK_RECORD
  5
23
330
1
100
AcDbSymbolTableRecord
100
AcDbBlockTableRecord
  2
*Paper_Space0
340
26
 70
     0
280
     1
281
     0
  0
BLOCK_RECORD
  5
41
330
1
100
AcDbSymbolTableRecord
100
AcDbBlockTableRecord
  2
block 2
340
0
102
{BLKREFS
331
42
102
}
 70
     0
280
     1
281
     0
  0
BLOCK_RECORD
  5
93
330
1
100
AcDbSymbolTableRecord
100
AcDbBlockTableRecord
  2
block 3
340
0
102
{BLKREFS
331
94
102
}
 70
     0
280
     1
281
     0
  0
BLOCK_RECORD
  5
9C
330
1
100
AcDbSymbolTableRecord
100
AcDbBlockTableRecord
  2
block 4
340
0
102
{BLKREFS
331
9D
102
}
 70
     0
280
     1
281
     0
  0
BLOCK_RECORD
  5
A5
330
1
100
AcDbSymbolTableRecord
100
AcDbBlockTableRecord
  2
block 5
340
0
102
{BLKREFS
331
A6
102
}
 70
     0
280
     1
281
     0
  0
BLOCK_RECORD
  5
AD
330
1
100
AcDbSymbolTableRecord
100
AcDbBlockTableRecord
  2
block 6
340
0
102
{BLKREFS
331
AE
102
}
 70
     0
280
     1
281
     0
  0
ENDTAB
  0
ENDSEC
  0
SECTION
  2
BLOCKS
  0
BLOCK
  5
20
330
1F
100
AcDbEntity
  8
0
100
AcDbBlockBegin
  2
*Model_Space
 70
     0
 10
0.0
 20
0.0
 30
0.0
  3
*Model_Space
  1

  0
ENDBLK
  5
21
330
1F
100
AcDbEntity
  8
0
100
AcDbBlockEnd
  0
BLOCK
  5
1C
330
1B
100
AcDbEntity
 67
     1
  8
0
100
AcDbBlockBegin
  2
*Paper_Space
 70
     0
 10
0.0
 20
0.0
 30
0.0
  3
*Paper_Space
  1

  0
ENDBLK
  5
1D
330
1B
100
AcDbEntity
 67
     1
  8
0
100
AcDbBlockEnd
  0
BLOCK
  5
24
330
23
100
AcDbEntity
  8
0
100
AcDbBlockBegin
  2
*Paper_Space0
 70
     0
 10
0.0
 20
0.0
 30
0.0
  3
*Paper_Space0
  1

  0
ENDBLK
  5
25
330
23
100
AcDbEntity
  8
0
100
AcDbBlockEnd
  0
BLOCK
  5
43
330
41
100
AcDbEntity
  8
0
100
AcDbBlockBegin
  2
block 2
 70
     0
 10
0.0
 20
0.0
 30
0.0
  3
block 2
  1

  0
SPLINE
  5
45
330
41
100
AcDbEntity
  8
_U+30EC_U+30A4_U+30E4_U+30FC 1
370
     0
100
AcDbSpline
210
0.0
220
0.0
230
1.0
 70
    11
 71
     3
 72
    44
 73
    40
 74
     0
 42
0.0000000001
 43
0.0000000001
 12
1.0
 22
0.0
 32
0.0
 13
1.0
 23
0.0
 33
0.0
 40
0.0
 40
0.0
 40
0.0
 40
0.0
 40
1.0
 40
1.0
 40
1.0
 40
2.0
 40
2.0
 40
2.0
 40
3.0
 40
3.0
 40
3.0
 40
4.0
 40
4.0
 40
4.0
 40
5.0
 40
5.0
 40
5.0
 40
6.0
 40
6.0
 40
6.0
 40
7.0
 40
7.0
 40
7.0
 40
8.0
 40
8.0
 40
8.0
 40
9.0
 40
9.0
 40
9.0
 40
10.0
 40
10.0
 40
10.0
 40
11.0
 40
11.0
 40
11.0
 40
12.0
 40
12.0
 40
12.0
 40
13.0
 40
13.0
 40
13.0
 40
13.0
 10
93.68246483218343
 20
-146.0982246856973
 30
0.0
 10
93.68246483218343
 20
-146.0982246856973
 30
0.0
 10
94.0352426009611
 20
-146.392088574513
 30
0.0
 10
94.0352426009611
 20
-146.392088574513
 30
0.0
 10
94.0352426009611
 20
-146.392088574513
 30
0.0
 10
97.15132863257423
 20
-144.4518107972203
 30
0.0
 10
97.15132863257423
 20
-144.4518107972203
 30
0.0
 10
97.15132863257423
 20
-144.4518107972203
 30
0.0
 10
97.2102425199601
 20
-126.5190580239258
 30
0.0
 10
97.2102425199601
 20
-126.5190580239258
 30
0.0
 10
97.2102425199601
 20
-126.5190580239258
 30
0.0
 10
98.2685758262931
 20
-122.5210274693699
 30
0.0
 10
98.2685758262931
 20
-122.5210274693699
 30
0.0
 10
98.2685758262931
 20
-122.5210274693699
 30
0.0
 10
98.20966193890723
 20
-119.5809774701046
 30
0.0
 10
98.20966193890723
 20
-119.5809774701046
 30
0.0
 10
98.20966193890723
 20
-119.5809774701046
 30
0.0
 10
98.15110082929014
 20
-118.5229969148136
 30
0.0
 10
97.56302028873776
 20
-118.2876941370949
 30
0.0
 10
97.56302028873776
 20
-118.2876941370949
 30
0.0
 10
91.97748987568096
 20
-114.7599163601991
 30
0.0
 10
91.97748987568096
 20
-114.7599163601991
 30
0.0
 10
91.97748987568096
 20
-114.7599163601991
 30
0.0
 10
87.27355110679954
 20
-117.2293608040261
 30
0.0
 10
87.27355110679954
 20
-117.2293608040261
 30
0.0
 10
87.27355110679954
 20
-117.2293608040261
 30
0.0
 10
87.27355110679954
 20
-118.1113052482501
 30
0.0
 10
87.27355110679954
 20
-118.1113052482501
 30
0.0
 10
87.27355110679954
 20
-118.1113052482501
 30
0.0
 10
92.74160652285339
 20
-121.6390830251459
 30
0.0
 10
92.74160652285339
 20
-121.6390830251459
 30
0.0
 10
92.74160652285339
 20
-121.6390830251459
 30
0.0
 10
92.74160652285339
 20
-125.3432496908866
 30
0.0
 10
92.74160652285339
 20
-125.3432496908866
 30
0.0
 10
92.74160652285339
 20
-125.3432496908866
 30
0.0
 10
93.7413787195693
 20
-127.5773913569946
 30
0.0
 10
93.7413787195693
 20
-127.5773913569946
 30
0.0
 10
93.7413787195693
 20
-127.5773913569946
 30
0.0
 10
93.68246483218343
 20
-146.0982246856973
 30
0.0
 10
93.68246483218343
 20
-146.0982246856973
 30
0.0
  0
SPLINE
  5
46
330
41
100
AcDbEntity
  8
_U+30EC_U+30A4_U+30E4_U+30FC 1
 62
   179
420
  2234388
370
     9
100
AcDbSpline
210
0.0
220
0.0
230
1.0
 70
    11
 71
     3
 72
    44
 73
    40
 74
     0
 42
0.0000000001
 43
0.0000000001
 12
1.0
 22
0.0
 32
0.0
 13
1.0
 23
0.0
 33
0.0
 40
0.0
 40
0.0
 40
0.0
 40
0.0
 40
1.0
 40
1.0
 40
1.0
 40
2.0
 40
2.0
 40
2.0
 40
3.0
 40
3.0
 40
3.0
 40
4.0
 40
4.0
 40
4.0
 40
5.0
 40
5.0
 40
5.0
 40
6.0
 40
6.0
 40
6.0
 40
7.0
 40
7.0
 40
7.0
 40
8.0
 40
8.0
 40
8.0
 40
9.0
 40
9.0
 40
9.0
 40
10.0
 40
10.0
 40
10.0
 40
11.0
 40
11.0
 40
11.0
 40
12.0
 40
12.0
 40
12.0
 40
13.0
 40
13.0
 40
13.0
 40
13.0
 10
87.25908721827966
 20
-117.3468358039966
 30
0.0
 10
87.25908721827966
 20
-117.3468358039966
 30
0.0
 10
87.25908721827966
 20
-118.0523913593758
 30
0.0
 10
87.25908721827966
 20
-118.0523913593758
 30
0.0
 10
87.25908721827966
 20
-118.0523913593758
 30
0.0
 10
92.77123985543071
 20
-121.668363580694
 30
0.0
 10
92.77123985543071
 20
-121.668363580694
 30
0.0
 10
92.77123985543071
 20
-121.668363580694
 30
0.0
 10
92.81533707652792
 20
-125.2843358020123
 30
0.0
 10
92.81533707652792
 20
-125.2843358020123
 30
0.0
 10
92.81533707652792
 20
-125.2843358020123
 30
0.0
 10
93.7413787195693
 20
-127.7096830236281
 30
0.0
 10
93.7413787195693
 20
-127.7096830236281
 30
0.0
 10
93.7413787195693
 20
-127.7096830236281
 30
0.0
 10
93.6972814984721
 20
-146.230516352331
 30
0.0
 10
93.6972814984721
 20
-146.230516352331
 30
0.0
 10
93.6972814984721
 20
-146.230516352331
 30
0.0
 10
94.09415648834697
 20
-146.4069052411757
 30
0.0
 10
94.09415648834697
 20
-146.4069052411757
 30
0.0
 10
94.09415648834697
 20
-146.4069052411757
 30
0.0
 10
97.09276752295713
 20
-144.4225302416718
 30
0.0
 10
97.09276752295713
 20
-144.4225302416718
 30
0.0
 10
97.09276752295713
 20
-144.4225302416718
 30
0.0
 10
97.22505918624876
 20
-126.5190580239258
 30
0.0
 10
97.22505918624876
 20
-126.5190580239258
 30
0.0
 10
97.22505918624876
 20
-126.5190580239258
 30
0.0
 10
98.28339249258177
 20
-122.5944052471292
 30
0.0
 10
98.28339249258177
 20
-122.5944052471292
 30
0.0
 10
98.28339249258177
 20
-122.5944052471292
 30
0.0
 10
98.23929527148455
 20
-119.6839885811901
 30
0.0
 10
98.23929527148455
 20
-119.6839885811901
 30
0.0
 10
98.23929527148455
 20
-119.6839885811901
 30
0.0
 10
98.32748971367897
 20
-118.9343358035998
 30
0.0
 10
97.62193417612363
 20
-118.2728774704318
 30
0.0
 10
97.62193417612363
 20
-118.2728774704318
 30
0.0
 10
92.02158709677818
 20
-114.7891969157472
 30
0.0
 10
92.02158709677818
 20
-114.7891969157472
 30
0.0
 10
92.02158709677818
 20
-114.7891969157472
 30
0.0
 10
87.25908721827966
 20
-117.3468358039966
 30
0.0
 10
87.25908721827966
 20
-117.3468358039966
 30
0.0
  0
POLYLINE
  5
47
330
41
100
AcDbEntity
  8
_U+30EC_U+30A4_U+30E4_U+30FC 1
 62
   179
420
  2234388
370
     9
100
AcDb2dPolyline
 66
     1
 10
0.0
 20
0.0
 30
0.0
  0
VERTEX
  5
48
330
47
100
AcDbEntity
  8
_U+30EC_U+30A4_U+30E4_U+30FC 1
 62
   179
420
  2234388
370
     9
100
AcDbVertex
100
AcDb2dVertex
 10
93.52089261408325
 20
-121.0950996919485
 30
0.0
  0
VERTEX
  5
49
330
47
100
AcDbEntity
  8
_U+30EC_U+30A4_U+30E4_U+30FC 1
 62
   179
420
  2234388
370
     9
100
AcDbVertex
100
AcDb2dVertex
 10
97.53373973392922
 20
-119.0225302480222
 30
0.0
  0
SEQEND
  5
4A
330
47
100
AcDbEntity
  8
_U+30EC_U+30A4_U+30E4_U+30FC 1
 62
   179
420
  2234388
370
     9
  0
SPLINE
  5
4B
330
41
100
AcDbEntity
  8
_U+30EC_U+30A4_U+30E4_U+30FC 1
 62
   179
420
  2234388
370
     9
100
AcDbSpline
210
0.0
220
0.0
230
1.0
 70
     8
 71
     3
 72
    20
 73
    16
 74
     0
 42
0.0000000001
 43
0.0000000001
 12
1.0
 22
0.0
 32
0.0
 13
1.0
 23
0.0
 33
0.0
 40
0.0
 40
0.0
 40
0.0
 40
0.0
 40
1.0
 40
1.0
 40
1.0
 40
2.0
 40
2.0
 40
2.0
 40
3.0
 40
3.0
 40
3.0
 40
4.0
 40
4.0
 40
4.0
 40
5.0
 40
5.0
 40
5.0
 40
5.0
 10
87.25908721827966
 20
-117.3468358039966
 30
0.0
 10
87.25908721827966
 20
-117.3468358039966
 30
0.0
 10
92.55075374994468
 20
-120.8746135808925
 30
0.0
 10
92.55075374994468
 20
-120.8746135808925
 30
0.0
 10
92.55075374994468
 20
-120.8746135808925
 30
0.0
 10
93.34450372969442
 20
-121.2714885807932
 30
0.0
 10
93.34450372969442
 20
-122.1975302472284
 30
0.0
 10
93.34450372969442
 20
-122.1975302472284
 30
0.0
 10
93.2122120664028
 20
-125.1520441353787
 30
0.0
 10
93.2122120664028
 20
-125.1520441353787
 30
0.0
 10
93.2122120664028
 20
-125.1520441353787
 30
0.0
 10
94.00596204615255
 20
-127.4891969125722
 30
0.0
 10
94.00596204615255
 20
-127.4891969125722
 30
0.0
 10
94.00596204615255
 20
-127.4891969125722
 30
0.0
 10
94.00596204615255
 20
-146.4069052411757
 30
0.0
 10
94.00596204615255
 20
-146.4069052411757
 30
0.0
  0
SPLINE
  5
4C
330
41
100
AcDbEntity
  8
_U+30EC_U+30A4_U+30E4_U+30FC 1
 62
   179
420
  2234388
370
     9
100
AcDbSpline
210
0.0
220
0.0
230
1.0
 70
    11
 71
     3
 72
    17
 73
    13
 74
     0
 42
0.0000000001
 43
0.0000000001
 12
1.0
 22
0.0
 32
0.0
 13
1.0
 23
0.0
 33
0.0
 40
0.0
 40
0.0
 40
0.0
 40
0.0
 40
1.0
 40
1.0
 40
1.0
 40
2.0
 40
2.0
 40
2.0
 40
3.0
 40
3.0
 40
3.0
 40
4.0
 40
4.0
 40
4.0
 40
4.0
 10
94.49103147822184
 20
-118.0303427482702
 30
0.0
 10
94.49103147822184
 20
-118.5540060814727
 30
0.0
 10
93.7310423309441
 20
-118.978433025811
 30
0.0
 10
92.79328846597932
 20
-118.978433025811
 30
0.0
 10
91.85553460101453
 20
-118.978433025811
 30
0.0
 10
91.09554545373679
 20
-118.5540060814727
 30
0.0
 10
91.09554545373679
 20
-118.0303427482702
 30
0.0
 10
91.09554545373679
 20
-117.5066794150677
 30
0.0
 10
91.85553460101453
 20
-117.0822524707294
 30
0.0
 10
92.79328846597932
 20
-117.0822524707294
 30
0.0
 10
93.7310423309441
 20
-117.0822524707294
 30
0.0
 10
94.49103147822184
 20
-117.5066794150677
 30
0.0
 10
94.49103147822184
 20
-118.0303427482702
 30
0.0
  0
HATCH
  5
4D
330
41
100
AcDbEntity
  8
_U+30EC_U+30A4_U+30E4_U+30FC 1
 62
     7
420
 16711422
100
AcDbHatch
 10
0.0
 20
0.0
 30
0.0
210
0.0
220
0.0
230
1.0
  2
SOLID
 70
     1
 71
     0
 91
        1
 92
        1
 93
        1
 72
     4
 94
        3
 73
     0
 74
     1
 95
       17
 96
       13
 40
0.0
 40
0.0
 40
0.0
 40
0.0
 40
1.0
 40
1.0
 40
1.0
 40
2.0
 40
2.0
 40
2.0
 40
3.0
 40
3.0
 40
3.0
 40
4.0
 40
4.0
 40
4.0
 40
4.0
 10
94.49103147822184
 20
-118.0303427482702
 10
94.49103147822184
 20
-118.5540060814727
 10
93.7310423309441
 20
-118.978433025811
 10
92.79328846597932
 20
-118.978433025811
 10
91.85553460101453
 20
-118.978433025811
 10
91.09554545373679
 20
-118.5540060814727
 10
91.09554545373679
 20
-118.0303427482702
 10
91.09554545373679
 20
-117.5066794150677
 10
91.85553460101453
 20
-117.0822524707294
 10
92.79328846597932
 20
-117.0822524707294
 10
93.7310423309441
 20
-117.0822524707294
 10
94.49103147822184
 20
-117.5066794150677
 10
94.49103147822184
 20
-118.0303427482702
 97
        0
 97
        0
 75
     2
 76
     1
 98
        0
  0
SPLINE
  5
4E
330
41
100
AcDbEntity
  8
_U+30EC_U+30A4_U+30E4_U+30FC 1
 62
   179
420
  2234388
370
     9
100
AcDbSpline
210
0.0
220
0.0
230
1.0
 70
     8
 71
     3
 72
     8
 73
     4
 74
     0
 42
0.0000000001
 43
0.0000000001
 12
1.0
 22
0.0
 32
0.0
 13
1.0
 23
0.0
 33
0.0
 40
0.0
 40
0.0
 40
0.0
 40
0.0
 40
1.0
 40
1.0
 40
1.0
 40
1.0
 10
91.22783711702841
 20
-118.1405858037982
 30
0.0
 10
91.22783711702841
 20
-118.1405858037982
 30
0.0
 10
92.77123985543071
 20
-116.5089885819839
 30
0.0
 10
94.49103147822184
 20
-118.316974692643
 30
0.0
  0
POLYLINE
  5
4F
330
41
100
AcDbEntity
  8
_U+30EC_U+30A4_U+30E4_U+30FC 1
 62
   179
420
  2234388
370
     9
100
AcDb2dPolyline
 66
     1
 10
0.0
 20
0.0
 30
0.0
  0
VERTEX
  5
50
330
4F
100
AcDbEntity
  8
_U+30EC_U+30A4_U+30E4_U+30FC 1
 62
   179
420
  2234388
370
     9
100
AcDbVertex
100
AcDb2dVertex
 10
91.31603155922284
 20
-119.0225302480222
 30
0.0
  0
VERTEX
  5
51
330
4F
100
AcDbEntity
  8
_U+30EC_U+30A4_U+30E4_U+30FC 1
 62
   179
420
  2234388
370
     9
100
AcDbVertex
100
AcDb2dVertex
 10
90.43408713727867
 20
-119.0666274702334
 30
0.0
  0
VERTEX
  5
52
330
4F
100
AcDbEntity
  8
_U+30EC_U+30A4_U+30E4_U+30FC 1
 62
   179
420
  2234388
370
     9
100
AcDbVertex
100
AcDb2dVertex
 10
90.91915656934796
 20
-119.2871135812893
 30
0.0
  0
VERTEX
  5
53
330
4F
100
AcDbEntity
  8
_U+30EC_U+30A4_U+30E4_U+30FC 1
 62
   179
420
  2234388
370
     9
100
AcDbVertex
100
AcDb2dVertex
 10
91.05144823263959
 20
-119.8162802478237
 30
0.0
  0
VERTEX
  5
54
330
4F
100
AcDbEntity
  8
_U+30EC_U+30A4_U+30E4_U+30FC 1
 62
   179
420
  2234388
370
     9
100
AcDbVertex
100
AcDb2dVertex
 10
91.31603155922284
 20
-119.0225302480222
 30
0.0
  0
SEQEND
  5
56
330
4F
100
AcDbEntity
  8
_U+30EC_U+30A4_U+30E4_U+30FC 1
 62
   179
420
  2234388
370
     9
  0
HATCH
  5
55
330
41
100
AcDbEntity
  8
_U+30EC_U+30A4_U+30E4_U+30FC 1
 62
   179
420
  2234388
100
AcDbHatch
 10
0.0
 20
0.0
 30
0.0
210
0.0
220
0.0
230
1.0
  2
SOLID
 70
     1
 71
     0
 91
        1
 92
        1
 93
        4
 72
     1
 10
91.31603155922284
 20
-119.0225302480222
 11
90.43408713727867
 21
-119.0666274702334
 72
     1
 10
90.43408713727867
 20
-119.0666274702334
 11
90.91915656934796
 21
-119.2871135812893
 72
     1
 10
90.91915656934796
 20
-119.2871135812893
 11
91.05144823263959
 21
-119.8162802478237
 72
     1
 10
91.05144823263959
 20
-119.8162802478237
 11
91.31603155922284
 21
-119.0225302480222
 97
        0
 75
     2
 76
     1
 98
        0
  0
POLYLINE
  5
57
330
41
100
AcDbEntity
  8
_U+30EC_U+30A4_U+30E4_U+30FC 1
 62
   179
420
  2234388
370
     9
100
AcDb2dPolyline
 66
     1
 10
0.0
 20
0.0
 30
0.0
  0
VERTEX
  5
58
330
57
100
AcDbEntity
  8
_U+30EC_U+30A4_U+30E4_U+30FC 1
 62
   179
420
  2234388
370
     9
100
AcDbVertex
100
AcDb2dVertex
 10
82.49658733978116
 20
-123.1235719136636
 30
0.0
  0
VERTEX
  5
59
330
57
100
AcDbEntity
  8
_U+30EC_U+30A4_U+30E4_U+30FC 1
 62
   179
420
  2234388
370
     9
100
AcDbVertex
100
AcDb2dVertex
 10
86.64172612291875
 20
-123.1235719136636
 30
0.0
  0
VERTEX
  5
5A
330
57
100
AcDbEntity
  8
_U+30EC_U+30A4_U+30E4_U+30FC 1
 62
   179
420
  2234388
370
     9
100
AcDbVertex
100
AcDb2dVertex
 10
91.05144823263959
 20
-119.2871135812893
 30
0.0
  0
SEQEND
  5
5B
330
57
100
AcDbEntity
  8
_U+30EC_U+30A4_U+30E4_U+30FC 1
 62
   179
420
  2234388
370
     9
  0
POLYLINE
  5
5C
330
41
100
AcDbEntity
  8
_U+30EC_U+30A4_U+30E4_U+30FC 1
 62
   179
420
  2234388
370
     9
100
AcDb2dPolyline
 66
     1
 10
0.0
 20
0.0
 30
0.0
  0
VERTEX
  5
5D
330
5C
100
AcDbEntity
  8
_U+30EC_U+30A4_U+30E4_U+30FC 1
 62
   179
420
  2234388
370
     9
100
AcDbVertex
100
AcDb2dVertex
 10
84.08408729928067
 20
-120.4336413587805
 30
0.0
  0
VERTEX
  5
5E
330
5C
100
AcDbEntity
  8
_U+30EC_U+30A4_U+30E4_U+30FC 1
 62
   179
420
  2234388
370
     9
100
AcDbVertex
100
AcDb2dVertex
 10
84.17228174147508
 20
-115.1419746934367
 30
0.0
  0
VERTEX
  5
5F
330
5C
100
AcDbEntity
  8
_U+30EC_U+30A4_U+30E4_U+30FC 1
 62
   179
420
  2234388
370
     9
100
AcDbVertex
100
AcDb2dVertex
 10
85.45110115329412
 20
-114.2600302492128
 30
0.0
  0
SEQEND
  5
60
330
5C
100
AcDbEntity
  8
_U+30EC_U+30A4_U+30E4_U+30FC 1
 62
   179
420
  2234388
370
     9
  0
POLYLINE
  5
61
330
41
100
AcDbEntity
  8
_U+30EC_U+30A4_U+30E4_U+30FC 1
 62
   179
420
  2234388
370
     9
100
AcDb2dPolyline
 66
     1
 10
0.0
 20
0.0
 30
0.0
  0
VERTEX
  5
62
330
61
100
AcDbEntity
  8
_U+30EC_U+30A4_U+30E4_U+30FC 1
 62
   179
420
  2234388
370
     9
100
AcDbVertex
100
AcDb2dVertex
 10
83.15804565623928
 20
-114.304127471424
 30
0.0
  0
VERTEX
  5
63
330
61
100
AcDbEntity
  8
_U+30EC_U+30A4_U+30E4_U+30FC 1
 62
   179
420
  2234388
370
     9
100
AcDbVertex
100
AcDb2dVertex
 10
85.93617058536341
 20
-116.2444052487167
 30
0.0
  0
SEQEND
  5
64
330
61
100
AcDbEntity
  8
_U+30EC_U+30A4_U+30E4_U+30FC 1
 62
   179
420
  2234388
370
     9
  0
POLYLINE
  5
65
330
41
100
AcDbEntity
  8
_U+30EC_U+30A4_U+30E4_U+30FC 1
 62
   179
420
  2234388
370
     9
100
AcDb2dPolyline
 66
     1
 10
0.0
 20
0.0
 30
0.0
  0
VERTEX
  5
66
330
65
100
AcDbEntity
  8
_U+30EC_U+30A4_U+30E4_U+30FC 1
 62
   179
420
  2234388
370
     9
100
AcDbVertex
100
AcDb2dVertex
 10
88.0087399769322
 20
-112.8048219162433
 30
0.0
  0
VERTEX
  5
67
330
65
100
AcDbEntity
  8
_U+30EC_U+30A4_U+30E4_U+30FC 1
 62
   179
420
  2234388
370
     9
100
AcDbVertex
100
AcDb2dVertex
 10
89.15526772545962
 20
-112.1433635830753
 30
0.0
  0
SEQEND
  5
68
330
65
100
AcDbEntity
  8
_U+30EC_U+30A4_U+30E4_U+30FC 1
 62
   179
420
  2234388
370
     9
  0
POLYLINE
  5
69
330
41
100
AcDbEntity
  8
_U+30EC_U+30A4_U+30E4_U+30FC 1
 62
   179
420
  2234388
370
     9
100
AcDb2dPolyline
 66
     1
 10
0.0
 20
0.0
 30
0.0
  0
VERTEX
  5
6A
330
69
100
AcDbEntity
  8
_U+30EC_U+30A4_U+30E4_U+30FC 1
 62
   179
420
  2234388
370
     9
100
AcDbVertex
100
AcDb2dVertex
 10
88.36151774570988
 20
-111.6582941387521
 30
0.0
  0
VERTEX
  5
6B
330
69
100
AcDbEntity
  8
_U+30EC_U+30A4_U+30E4_U+30FC 1
 62
   179
420
  2234388
370
     9
100
AcDbVertex
100
AcDb2dVertex
 10
90.83096212715354
 20
-113.3339885827776
 30
0.0
  0
SEQEND
  5
6C
330
69
100
AcDbEntity
  8
_U+30EC_U+30A4_U+30E4_U+30FC 1
 62
   179
420
  2234388
370
     9
  0
POLYLINE
  5
6D
330
41
100
AcDbEntity
  8
_U+30EC_U+30A4_U+30E4_U+30FC 1
 62
   179
420
  2234388
370
     9
100
AcDb2dPolyline
 66
     1
 10
0.0
 20
0.0
 30
0.0
  0
VERTEX
  5
6E
330
6D
100
AcDbEntity
  8
_U+30EC_U+30A4_U+30E4_U+30FC 1
 62
   179
420
  2234388
370
     9
100
AcDbVertex
100
AcDb2dVertex
 10
92.94762873981955
 20
-113.9954469159456
 30
0.0
  0
VERTEX
  5
6F
330
6D
100
AcDbEntity
  8
_U+30EC_U+30A4_U+30E4_U+30FC 1
 62
   179
420
  2234388
370
     9
100
AcDbVertex
100
AcDb2dVertex
 10
95.76985089004089
 20
-112.4079469163425
 30
0.0
  0
SEQEND
  5
70
330
6D
100
AcDbEntity
  8
_U+30EC_U+30A4_U+30E4_U+30FC 1
 62
   179
420
  2234388
370
     9
  0
POLYLINE
  5
71
330
41
100
AcDbEntity
  8
_U+30EC_U+30A4_U+30E4_U+30FC 1
 62
   179
420
  2234388
370
     9
100
AcDb2dPolyline
 66
     1
 10
0.0
 20
0.0
 30
0.0
  0
VERTEX
  5
72
330
71
100
AcDbEntity
  8
_U+30EC_U+30A4_U+30E4_U+30FC 1
 62
   179
420
  2234388
370
     9
100
AcDbVertex
100
AcDb2dVertex
 10
95.02019813138834
 20
-112.8489191384544
 30
0.0
  0
VERTEX
  5
73
330
71
100
AcDbEntity
  8
_U+30EC_U+30A4_U+30E4_U+30FC 1
 62
   179
420
  2234388
370
     9
100
AcDbVertex
100
AcDb2dVertex
 10
96.69589253308226
 20
-113.7749608048896
 30
0.0
  0
SEQEND
  5
74
330
71
100
AcDbEntity
  8
_U+30EC_U+30A4_U+30E4_U+30FC 1
 62
   179
420
  2234388
370
     9
  0
POLYLINE
  5
75
330
41
100
AcDbEntity
  8
_U+30EC_U+30A4_U+30E4_U+30FC 1
 62
   179
420
  2234388
370
     9
100
AcDb2dPolyline
 66
     1
 10
0.0
 20
0.0
 30
0.0
  0
VERTEX
  5
76
330
75
100
AcDbEntity
  8
_U+30EC_U+30A4_U+30E4_U+30FC 1
 62
   179
420
  2234388
370
     9
100
AcDbVertex
100
AcDb2dVertex
 10
99.0330452512343
 20
-117.3027385817854
 30
0.0
  0
VERTEX
  5
77
330
75
100
AcDbEntity
  8
_U+30EC_U+30A4_U+30E4_U+30FC 1
 62
   179
420
  2234388
370
     9
100
AcDbVertex
100
AcDb2dVertex
 10
101.502489632678
 20
-115.8916274710271
 30
0.0
  0
SEQEND
  5
78
330
75
100
AcDbEntity
  8
_U+30EC_U+30A4_U+30E4_U+30FC 1
 62
   179
420
  2234388
370
     9
  0
POLYLINE
  5
79
330
41
100
AcDbEntity
  8
_U+30EC_U+30A4_U+30E4_U+30FC 1
 62
   179
420
  2234388
370
     9
100
AcDb2dPolyline
 66
     1
 10
0.0
 20
0.0
 30
0.0
  0
VERTEX
  5
7A
330
79
100
AcDbEntity
  8
_U+30EC_U+30A4_U+30E4_U+30FC 1
 62
   179
420
  2234388
370
     9
100
AcDbVertex
100
AcDb2dVertex
 10
99.25353135672034
 20
-115.3183635822815
 30
0.0
  0
VERTEX
  5
7B
330
79
100
AcDbEntity
  8
_U+30EC_U+30A4_U+30E4_U+30FC 1
 62
   179
420
  2234388
370
     9
100
AcDbVertex
100
AcDb2dVertex
 10
100.7969340951226
 20
-116.3325996931391
 30
0.0
  0
SEQEND
  5
7C
330
79
100
AcDbEntity
  8
_U+30EC_U+30A4_U+30E4_U+30FC 1
 62
   179
420
  2234388
370
     9
  0
POLYLINE
  5
7D
330
41
100
AcDbEntity
  8
_U+30EC_U+30A4_U+30E4_U+30FC 1
 62
   179
420
  2234388
370
     9
100
AcDb2dPolyline
 66
     1
 10
0.0
 20
0.0
 30
0.0
  0
VERTEX
  5
7E
330
7D
100
AcDbEntity
  8
_U+30EC_U+30A4_U+30E4_U+30FC 1
 62
   179
420
  2234388
370
     9
100
AcDbVertex
100
AcDb2dVertex
 10
84.12818452037787
 20
-123.7409330246203
 30
0.0
  0
VERTEX
  5
7F
330
7D
100
AcDbEntity
  8
_U+30EC_U+30A4_U+30E4_U+30FC 1
 62
   179
420
  2234388
370
     9
100
AcDbVertex
100
AcDb2dVertex
 10
84.08408729928067
 20
-126.3867663572922
 30
0.0
  0
SEQEND
  5
80
330
7D
100
AcDbEntity
  8
_U+30EC_U+30A4_U+30E4_U+30FC 1
 62
   179
420
  2234388
370
     9
  0
POLYLINE
  5
81
330
41
100
AcDbEntity
  8
_U+30EC_U+30A4_U+30E4_U+30FC 1
 62
   179
420
  2234388
370
     9
100
AcDb2dPolyline
 66
     1
 10
0.0
 20
0.0
 30
0.0
  0
VERTEX
  5
82
330
81
100
AcDbEntity
  8
_U+30EC_U+30A4_U+30E4_U+30FC 1
 62
   179
420
  2234388
370
     9
100
AcDbVertex
100
AcDb2dVertex
 10
84.03999007818345
 20
-130.4878080229333
 30
0.0
  0
VERTEX
  5
83
330
81
100
AcDbEntity
  8
_U+30EC_U+30A4_U+30E4_U+30FC 1
 62
   179
420
  2234388
370
     9
100
AcDbVertex
100
AcDb2dVertex
 10
83.99589285708625
 20
-140.8065580203536
 30
0.0
  0
SEQEND
  5
84
330
81
100
AcDbEntity
  8
_U+30EC_U+30A4_U+30E4_U+30FC 1
 62
   179
420
  2234388
370
     9
  0
POLYLINE
  5
85
330
41
100
AcDbEntity
  8
_U+30EC_U+30A4_U+30E4_U+30FC 1
 62
   179
420
  2234388
370
     9
100
AcDb2dPolyline
 66
     1
 10
0.0
 20
0.0
 30
0.0
  0
VERTEX
  5
86
330
85
100
AcDbEntity
  8
_U+30EC_U+30A4_U+30E4_U+30FC 1
 62
   179
420
  2234388
370
     9
100
AcDbVertex
100
AcDb2dVertex
 10
83.2021428773365
 20
-140.3214885760304
 30
0.0
  0
VERTEX
  5
87
330
85
100
AcDbEntity
  8
_U+30EC_U+30A4_U+30E4_U+30FC 1
 62
   179
420
  2234388
370
     9
100
AcDbVertex
100
AcDb2dVertex
 10
92.81533707652792
 20
-145.789544130219
 30
0.0
  0
SEQEND
  5
88
330
85
100
AcDbEntity
  8
_U+30EC_U+30A4_U+30E4_U+30FC 1
 62
   179
420
  2234388
370
     9
  0
SPLINE
  5
89
330
41
100
AcDbEntity
  8
_U+30EC_U+30A4_U+30E4_U+30FC 1
370
     0
100
AcDbSpline
210
0.0
220
0.0
230
1.0
 70
    11
 71
     3
 72
    17
 73
    13
 74
     0
 42
0.0000000001
 43
0.0000000001
 12
1.0
 22
0.0
 32
0.0
 13
1.0
 23
0.0
 33
0.0
 40
0.0
 40
0.0
 40
0.0
 40
0.0
 40
1.0
 40
1.0
 40
1.0
 40
2.0
 40
2.0
 40
2.0
 40
3.0
 40
3.0
 40
3.0
 40
4.0
 40
4.0
 40
4.0
 40
4.0
 10
101.0084596452817
 20
-116.3942652486791
 30
0.0
 10
101.0084596452817
 20
-116.5258866375351
 30
0.0
 10
100.9020265924415
 20
-116.6323196930643
 30
0.0
 10
100.7704052069106
 20
-116.6323196930643
 30
0.0
 10
100.6388190991565
 20
-116.6323196930643
 30
0.0
 10
100.5323507685394
 20
-116.5258866375351
 30
0.0
 10
100.5323507685394
 20
-116.3942652486791
 30
0.0
 10
100.5323507685394
 20
-116.2626791376011
 30
0.0
 10
100.6388190991565
 20
-116.1562108042943
 30
0.0
 10
100.7704052069106
 20
-116.1562108042943
 30
0.0
 10
100.9020265924415
 20
-116.1562108042943
 30
0.0
 10
101.0084596452817
 20
-116.2626791376011
 30
0.0
 10
101.0084596452817
 20
-116.3942652486791
 30
0.0
  0
HATCH
  5
8A
330
41
100
AcDbEntity
  8
_U+30EC_U+30A4_U+30E4_U+30FC 1
 62
   179
420
  2234388
100
AcDbHatch
 10
0.0
 20
0.0
 30
0.0
210
0.0
220
0.0
230
1.0
  2
SOLID
 70
     1
 71
     0
 91
        1
 92
        1
 93
        1
 72
     4
 94
        3
 73
     0
 74
     1
 95
       17
 96
       13
 40
0.0
 40
0.0
 40
0.0
 40
0.0
 40
1.0
 40
1.0
 40
1.0
 40
2.0
 40
2.0
 40
2.0
 40
3.0
 40
3.0
 40
3.0
 40
4.0
 40
4.0
 40
4.0
 40
4.0
 10
101.0084596452817
 20
-116.3942652486791
 10
101.0084596452817
 20
-116.5258866375351
 10
100.9020265924415
 20
-116.6323196930643
 10
100.7704052069106
 20
-116.6323196930643
 10
100.6388190991565
 20
-116.6323196930643
 10
100.5323507685394
 20
-116.5258866375351
 10
100.5323507685394
 20
-116.3942652486791
 10
100.5323507685394
 20
-116.2626791376011
 10
100.6388190991565
 20
-116.1562108042943
 10
100.7704052069106
 20
-116.1562108042943
 10
100.9020265924415
 20
-116.1562108042943
 10
101.0084596452817
 20
-116.2626791376011
 10
101.0084596452817
 20
-116.3942652486791
 97
        0
 97
        0
 75
     2
 76
     1
 98
        0
  0
SPLINE
  5
8B
330
41
100
AcDbEntity
  8
_U+30EC_U+30A4_U+30E4_U+30FC 1
370
     0
100
AcDbSpline
210
0.0
220
0.0
230
1.0
 70
    11
 71
     3
 72
    17
 73
    13
 74
     0
 42
0.0000000001
 43
0.0000000001
 12
1.0
 22
0.0
 32
0.0
 13
1.0
 23
0.0
 33
0.0
 40
0.0
 40
0.0
 40
0.0
 40
0.0
 40
1.0
 40
1.0
 40
1.0
 40
2.0
 40
2.0
 40
2.0
 40
3.0
 40
3.0
 40
3.0
 40
4.0
 40
4.0
 40
4.0
 40
4.0
 10
89.2785988334243
 20
-112.1168346941929
 30
0.0
 10
89.2785988334243
 20
-112.2484560830489
 30
0.0
 10
89.17216578058408
 20
-112.3548891385781
 30
0.0
 10
89.04054439505313
 20
-112.3548891385781
 30
0.0
 10
88.90895828729906
 20
-112.3548891385781
 30
0.0
 10
88.80248995668195
 20
-112.2484560830489
 30
0.0
 10
88.80248995668195
 20
-112.1168346941929
 30
0.0
 10
88.80248995668195
 20
-111.9852485831149
 30
0.0
 10
88.90895828729906
 20
-111.8787802498081
 30
0.0
 10
89.04054439505313
 20
-111.8787802498081
 30
0.0
 10
89.17216578058408
 20
-111.8787802498081
 30
0.0
 10
89.2785988334243
 20
-111.9852485831149
 30
0.0
 10
89.2785988334243
 20
-112.1168346941929
 30
0.0
  0
HATCH
  5
8C
330
41
100
AcDbEntity
  8
_U+30EC_U+30A4_U+30E4_U+30FC 1
 62
   179
420
  2234388
100
AcDbHatch
 10
0.0
 20
0.0
 30
0.0
210
0.0
220
0.0
230
1.0
  2
SOLID
 70
     1
 71
     0
 91
        1
 92
        1
 93
        1
 72
     4
 94
        3
 73
     0
 74
     1
 95
       17
 96
       13
 40
0.0
 40
0.0
 40
0.0
 40
0.0
 40
1.0
 40
1.0
 40
1.0
 40
2.0
 40
2.0
 40
2.0
 40
3.0
 40
3.0
 40
3.0
 40
4.0
 40
4.0
 40
4.0
 40
4.0
 10
89.2785988334243
 20
-112.1168346941929
 10
89.2785988334243
 20
-112.2484560830489
 10
89.17216578058408
 20
-112.3548891385781
 10
89.04054439505313
 20
-112.3548891385781
 10
88.90895828729906
 20
-112.3548891385781
 10
88.80248995668195
 20
-112.2484560830489
 10
88.80248995668195
 20
-112.1168346941929
 10
88.80248995668195
 20
-111.9852485831149
 10
88.90895828729906
 20
-111.8787802498081
 10
89.04054439505313
 20
-111.8787802498081
 10
89.17216578058408
 20
-111.8787802498081
 10
89.2785988334243
 20
-111.9852485831149
 10
89.2785988334243
 20
-112.1168346941929
 97
        0
 97
        0
 75
     2
 76
     1
 98
        0
  0
SPLINE
  5
8D
330
41
100
AcDbEntity
  8
_U+30EC_U+30A4_U+30E4_U+30FC 1
370
     0
100
AcDbSpline
210
0.0
220
0.0
230
1.0
 70
    11
 71
     3
 72
    17
 73
    13
 74
     0
 42
0.0000000001
 43
0.0000000001
 12
1.0
 22
0.0
 32
0.0
 13
1.0
 23
0.0
 33
0.0
 40
0.0
 40
0.0
 40
0.0
 40
0.0
 40
1.0
 40
1.0
 40
1.0
 40
2.0
 40
2.0
 40
2.0
 40
3.0
 40
3.0
 40
3.0
 40
4.0
 40
4.0
 40
4.0
 40
4.0
 10
84.42790451273137
 20
-115.1154458045544
 30
0.0
 10
84.42790451273137
 20
-115.2470671934103
 30
0.0
 10
84.32147145989116
 20
-115.3535002489396
 30
0.0
 10
84.18985007436021
 20
-115.3535002489396
 30
0.0
 10
84.05826396660613
 20
-115.3535002489396
 30
0.0
 10
83.95179563598904
 20
-115.2470671934103
 30
0.0
 10
83.95179563598904
 20
-115.1154458045544
 30
0.0
 10
83.95179563598904
 20
-114.9838596934763
 30
0.0
 10
84.05826396660613
 20
-114.8773913601696
 30
0.0
 10
84.18985007436021
 20
-114.8773913601696
 30
0.0
 10
84.32147145989116
 20
-114.8773913601696
 30
0.0
 10
84.42790451273137
 20
-114.9838596934763
 30
0.0
 10
84.42790451273137
 20
-115.1154458045544
 30
0.0
  0
HATCH
  5
8E
330
41
100
AcDbEntity
  8
_U+30EC_U+30A4_U+30E4_U+30FC 1
 62
   179
420
  2234388
100
AcDbHatch
 10
0.0
 20
0.0
 30
0.0
210
0.0
220
0.0
230
1.0
  2
SOLID
 70
     1
 71
     0
 91
        1
 92
        1
 93
        1
 72
     4
 94
        3
 73
     0
 74
     1
 95
       17
 96
       13
 40
0.0
 40
0.0
 40
0.0
 40
0.0
 40
1.0
 40
1.0
 40
1.0
 40
2.0
 40
2.0
 40
2.0
 40
3.0
 40
3.0
 40
3.0
 40
4.0
 40
4.0
 40
4.0
 40
4.0
 10
84.42790451273137
 20
-115.1154458045544
 10
84.42790451273137
 20
-115.2470671934103
 10
84.32147145989116
 20
-115.3535002489396
 10
84.18985007436021
 20
-115.3535002489396
 10
84.05826396660613
 20
-115.3535002489396
 10
83.95179563598904
 20
-115.2470671934103
 10
83.95179563598904
 20
-115.1154458045544
 10
83.95179563598904
 20
-114.9838596934763
 10
84.05826396660613
 20
-114.8773913601696
 10
84.18985007436021
 20
-114.8773913601696
 10
84.32147145989116
 20
-114.8773913601696
 10
84.42790451273137
 20
-114.9838596934763
 10
84.42790451273137
 20
-115.1154458045544
 97
        0
 97
        0
 75
     2
 76
     1
 98
        0
  0
SPLINE
  5
8F
330
41
100
AcDbEntity
  8
_U+30EC_U+30A4_U+30E4_U+30FC 1
370
     0
100
AcDbSpline
210
0.0
220
0.0
230
1.0
 70
    11
 71
     3
 72
    17
 73
    13
 74
     0
 42
0.0000000001
 43
0.0000000001
 12
1.0
 22
0.0
 32
0.0
 13
1.0
 23
0.0
 33
0.0
 40
0.0
 40
0.0
 40
0.0
 40
0.0
 40
1.0
 40
1.0
 40
1.0
 40
2.0
 40
2.0
 40
2.0
 40
3.0
 40
3.0
 40
3.0
 40
4.0
 40
4.0
 40
4.0
 40
4.0
 10
84.20741840724533
 20
-140.8241263536828
 30
0.0
 10
84.20741840724533
 20
-140.955747742539
 30
0.0
 10
84.10098535440511
 20
-141.062180798068
 30
0.0
 10
83.96936396887416
 20
-141.062180798068
 30
0.0
 10
83.83777786112009
 20
-141.062180798068
 30
0.0
 10
83.731309530503
 20
-140.955747742539
 30
0.0
 10
83.731309530503
 20
-140.8241263536828
 30
0.0
 10
83.731309530503
 20
-140.6925402426047
 30
0.0
 10
83.83777786112009
 20
-140.5860719092976
 30
0.0
 10
83.96936396887416
 20
-140.5860719092976
 30
0.0
 10
84.10098535440511
 20
-140.5860719092976
 30
0.0
 10
84.20741840724533
 20
-140.6925402426047
 30
0.0
 10
84.20741840724533
 20
-140.8241263536828
 30
0.0
  0
HATCH
  5
90
330
41
100
AcDbEntity
  8
_U+30EC_U+30A4_U+30E4_U+30FC 1
 62
   179
420
  2234388
100
AcDbHatch
 10
0.0
 20
0.0
 30
0.0
210
0.0
220
0.0
230
1.0
  2
SOLID
 70
     1
 71
     0
 91
        1
 92
        1
 93
        1
 72
     4
 94
        3
 73
     0
 74
     1
 95
       17
 96
       13
 40
0.0
 40
0.0
 40
0.0
 40
0.0
 40
1.0
 40
1.0
 40
1.0
 40
2.0
 40
2.0
 40
2.0
 40
3.0
 40
3.0
 40
3.0
 40
4.0
 40
4.0
 40
4.0
 40
4.0
 10
84.20741840724533
 20
-140.8241263536828
 10
84.20741840724533
 20
-140.955747742539
 10
84.10098535440511
 20
-141.062180798068
 10
83.96936396887416
 20
-141.062180798068
 10
83.83777786112009
 20
-141.062180798068
 10
83.731309530503
 20
-140.955747742539
 10
83.731309530503
 20
-140.8241263536828
 10
83.731309530503
 20
-140.6925402426047
 10
83.83777786112009
 20
-140.5860719092976
 10
83.96936396887416
 20
-140.5860719092976
 10
84.10098535440511
 20
-140.5860719092976
 10
84.20741840724533
 20
-140.6925402426047
 10
84.20741840724533
 20
-140.8241263536828
 97
        0
 97
        0
 75
     2
 76
     1
 98
        0
  0
SPLINE
  5
91
330
41
100
AcDbEntity
  8
_U+30EC_U+30A4_U+30E4_U+30FC 1
370
     0
100
AcDbSpline
210
0.0
220
0.0
230
1.0
 70
    11
 71
     3
 72
    17
 73
    13
 74
     0
 42
0.0000000001
 43
0.0000000001
 12
1.0
 22
0.0
 32
0.0
 13
1.0
 23
0.0
 33
0.0
 40
0.0
 40
0.0
 40
0.0
 40
0.0
 40
1.0
 40
1.0
 40
1.0
 40
2.0
 40
2.0
 40
2.0
 40
3.0
 40
3.0
 40
3.0
 40
4.0
 40
4.0
 40
4.0
 40
4.0
 10
95.24343590347085
 20
-112.8664874717833
 30
0.0
 10
95.24343590347085
 20
-112.9981088606392
 30
0.0
 10
95.13700285063062
 20
-113.1045419161685
 30
0.0
 10
95.00538146509967
 20
-113.1045419161685
 30
0.0
 10
94.87379535734561
 20
-113.1045419161685
 30
0.0
 10
94.76732702672851
 20
-112.9981088606392
 30
0.0
 10
94.76732702672851
 20
-112.8664874717833
 30
0.0
 10
94.76732702672851
 20
-112.7349013607052
 30
0.0
 10
94.87379535734561
 20
-112.6284330273985
 30
0.0
 10
95.00538146509967
 20
-112.6284330273985
 30
0.0
 10
95.13700285063062
 20
-112.6284330273985
 30
0.0
 10
95.24343590347085
 20
-112.7349013607052
 30
0.0
 10
95.24343590347085
 20
-112.8664874717833
 30
0.0
  0
HATCH
  5
92
330
41
100
AcDbEntity
  8
_U+30EC_U+30A4_U+30E4_U+30FC 1
 62
   179
420
  2234388
100
AcDbHatch
 10
0.0
 20
0.0
 30
0.0
210
0.0
220
0.0
230
1.0
  2
SOLID
 70
     1
 71
     0
 91
        1
 92
        1
 93
        1
 72
     4
 94
        3
 73
     0
 74
     1
 95
       17
 96
       13
 40
0.0
 40
0.0
 40
0.0
 40
0.0
 40
1.0
 40
1.0
 40
1.0
 40
2.0
 40
2.0
 40
2.0
 40
3.0
 40
3.0
 40
3.0
 40
4.0
 40
4.0
 40
4.0
 40
4.0
 10
95.24343590347085
 20
-112.8664874717833
 10
95.24343590347085
 20
-112.9981088606392
 10
95.13700285063062
 20
-113.1045419161685
 10
95.00538146509967
 20
-113.1045419161685
 10
94.87379535734561
 20
-113.1045419161685
 10
94.76732702672851
 20
-112.9981088606392
 10
94.76732702672851
 20
-112.8664874717833
 10
94.76732702672851
 20
-112.7349013607052
 10
94.87379535734561
 20
-112.6284330273985
 10
95.00538146509967
 20
-112.6284330273985
 10
95.13700285063062
 20
-112.6284330273985
 10
95.24343590347085
 20
-112.7349013607052
 10
95.24343590347085
 20
-112.8664874717833
 97
        0
 97
        0
 75
     2
 76
     1
 98
        0
  0
INSERT
  5
94
330
41
100
AcDbEntity
  8
_U+30EC_U+30A4_U+30E4_U+30FC 1
100
AcDbBlockReference
  2
block 3
 10
0.0
 20
0.0
 30
0.0
  0
INSERT
  5
9D
330
41
100
AcDbEntity
  8
_U+30EC_U+30A4_U+30E4_U+30FC 1
100
AcDbBlockReference
  2
block 4
 10
0.0
 20
0.0
 30
0.0
  0
INSERT
  5
A6
330
41
100
AcDbEntity
  8
_U+30EC_U+30A4_U+30E4_U+30FC 1
100
AcDbBlockReference
  2
block 5
 10
0.0
 20
0.0
 30
0.0
  0
INSERT
  5
AE
330
41
100
AcDbEntity
  8
_U+30EC_U+30A4_U+30E4_U+30FC 1
100
AcDbBlockReference
  2
block 6
 10
0.0
 20
0.0
 30
0.0
  0
ENDBLK
  5
44
330
41
100
AcDbEntity
  8
0
100
AcDbBlockEnd
  0
BLOCK
  5
95
330
93
100
AcDbEntity
  8
0
100
AcDbBlockBegin
  2
block 3
 70
     0
 10
0.0
 20
0.0
 30
0.0
  3
block 3
  1

  0
SPLINE
  5
97
330
93
100
AcDbEntity
  8
_U+30EC_U+30A4_U+30E4_U+30FC 1
370
     0
100
AcDbSpline
210
0.0
220
0.0
230
1.0
 70
    11
 71
     3
 72
    26
 73
    22
 74
     0
 42
0.0000000001
 43
0.0000000001
 12
1.0
 22
0.0
 32
0.0
 13
1.0
 23
0.0
 33
0.0
 40
0.0
 40
0.0
 40
0.0
 40
0.0
 40
1.0
 40
1.0
 40
1.0
 40
2.0
 40
2.0
 40
2.0
 40
3.0
 40
3.0
 40
3.0
 40
4.0
 40
4.0
 40
4.0
 40
5.0
 40
5.0
 40
5.0
 40
6.0
 40
6.0
 40
6.0
 40
7.0
 40
7.0
 40
7.0
 40
7.0
 10
83.43676755726581
 20
-129.1208007489698
 30
0.0
 10
83.43676755726581
 20
-129.1208007489698
 30
0.0
 10
83.19991724265489
 20
-129.1208007489698
 30
0.0
 10
83.19991724265489
 20
-129.1208007489698
 30
0.0
 10
83.22523869447147
 20
-128.8117756839429
 30
0.0
 10
83.41781953209694
 20
-128.2936333229613
 30
0.0
 10
83.8239962898079
 20
-127.7880655605009
 30
0.0
 10
83.8239962898079
 20
-127.7880655605009
 30
0.0
 10
82.98614906779514
 20
-127.7880655605009
 30
0.0
 10
82.98614906779514
 20
-127.7880655605009
 30
0.0
 10
82.98614906779514
 20
-127.7880655605009
 30
0.0
 10
82.98614906779514
 20
-127.5765366977066
 30
0.0
 10
82.98614906779514
 20
-127.5765366977066
 30
0.0
 10
82.98614906779514
 20
-127.5765366977066
 30
0.0
 10
84.06084660441881
 20
-127.5765366977066
 30
0.0
 10
84.06084660441881
 20
-127.5765366977066
 30
0.0
 10
84.06084660441881
 20
-127.5765366977066
 30
0.0
 10
84.06084660441881
 20
-127.7880655605009
 30
0.0
 10
84.06084660441881
 20
-127.7880655605009
 30
0.0
 10
83.7371798835796
 20
-128.0777980908104
 30
0.0
 10
83.47070174779552
 20
-128.6701822594991
 30
0.0
 10
83.43676755726581
 20
-129.1208007489698
 30
0.0
  0
HATCH
  5
98
330
93
100
AcDbEntity
  8
_U+30EC_U+30A4_U+30E4_U+30FC 1
 62
   179
420
  2234388
100
AcDbHatch
 10
0.0
 20
0.0
 30
0.0
210
0.0
220
0.0
230
1.0
  2
SOLID
 70
     1
 71
     0
 91
        1
 92
        1
 93
        1
 72
     4
 94
        3
 73
     0
 74
     1
 95
       26
 96
       22
 40
0.0
 40
0.0
 40
0.0
 40
0.0
 40
1.0
 40
1.0
 40
1.0
 40
2.0
 40
2.0
 40
2.0
 40
3.0
 40
3.0
 40
3.0
 40
4.0
 40
4.0
 40
4.0
 40
5.0
 40
5.0
 40
5.0
 40
6.0
 40
6.0
 40
6.0
 40
7.0
 40
7.0
 40
7.0
 40
7.0
 10
83.43676755726581
 20
-129.1208007489698
 10
83.43676755726581
 20
-129.1208007489698
 10
83.19991724265489
 20
-129.1208007489698
 10
83.19991724265489
 20
-129.1208007489698
 10
83.22523869447147
 20
-128.8117756839429
 10
83.41781953209694
 20
-128.2936333229613
 10
83.8239962898079
 20
-127.7880655605009
 10
83.8239962898079
 20
-127.7880655605009
 10
82.98614906779514
 20
-127.7880655605009
 10
82.98614906779514
 20
-127.7880655605009
 10
82.98614906779514
 20
-127.7880655605009
 10
82.98614906779514
 20
-127.5765366977066
 10
82.98614906779514
 20
-127.5765366977066
 10
82.98614906779514
 20
-127.5765366977066
 10
84.06084660441881
 20
-127.5765366977066
 10
84.06084660441881
 20
-127.5765366977066
 10
84.06084660441881
 20
-127.5765366977066
 10
84.06084660441881
 20
-127.7880655605009
 10
84.06084660441881
 20
-127.7880655605009
 10
83.7371798835796
 20
-128.0777980908104
 10
83.47070174779552
 20
-128.6701822594991
 10
83.43676755726581
 20
-129.1208007489698
 97
        0
 97
        0
 75
     2
 76
     1
 98
        0
  0
SPLINE
  5
99
330
93
100
AcDbEntity
  8
_U+30EC_U+30A4_U+30E4_U+30FC 1
370
     0
100
AcDbSpline
210
0.0
220
0.0
230
1.0
 70
    11
 71
     3
 72
    29
 73
    25
 74
     0
 42
0.0000000001
 43
0.0000000001
 12
1.0
 22
0.0
 32
0.0
 13
1.0
 23
0.0
 33
0.0
 40
0.0
 40
0.0
 40
0.0
 40
0.0
 40
1.0
 40
1.0
 40
1.0
 40
2.0
 40
2.0
 40
2.0
 40
3.0
 40
3.0
 40
3.0
 40
4.0
 40
4.0
 40
4.0
 40
5.0
 40
5.0
 40
5.0
 40
6.0
 40
6.0
 40
6.0
 40
7.0
 40
7.0
 40
7.0
 40
8.0
 40
8.0
 40
8.0
 40
8.0
 10
85.10023191231869
 20
-128.9430338219309
 30
0.0
 10
84.99240042363037
 20
-129.1524956274341
 30
0.0
 10
84.81893986594805
 20
-129.171443652603
 30
0.0
 10
84.70249563854661
 20
-129.171443652603
 30
0.0
 10
84.5417819341597
 20
-129.171443652603
 30
0.0
 10
84.40001625494166
 20
-129.1249348635521
 30
0.0
 10
84.30475936477451
 20
-128.9430338219309
 30
0.0
 10
84.20123424544275
 20
-128.7483859270143
 30
0.0
 10
84.18211396549961
 20
-128.5115356124034
 30
0.0
 10
84.18211396549961
 20
-128.3485825959511
 30
0.0
 10
84.18211396549961
 20
-128.2047498594419
 30
0.0
 10
84.19899493337734
 20
-127.9530856342444
 30
0.0
 10
84.30475936477451
 20
-127.7541313699712
 30
0.0
 10
84.41276310823709
 20
-127.5510429911157
 30
0.0
 10
84.573476812624
 20
-127.5277885965903
 30
0.0
 10
84.70249563854661
 20
-127.5277885965903
 30
0.0
 10
84.86114228564236
 20
-127.5277885965903
 30
0.0
 10
85.0051472769258
 20
-127.57223032835
 30
0.0
 10
85.10023191231869
 20
-127.7541313699712
 30
0.0
 10
85.19962291706815
 20
-127.9467122075967
 30
0.0
 10
85.22304956636785
 20
-128.1751220382687
 30
0.0
 10
85.22304956636785
 20
-128.3485825959511
 30
0.0
 10
85.22304956636785
 20
-128.5199760963422
 30
0.0
 10
85.20186222913357
 20
-128.7506252390797
 30
0.0
 10
85.10023191231869
 20
-128.9430338219309
 30
0.0
  0
SPLINE
  5
9A
330
93
100
AcDbEntity
  8
_U+30EC_U+30A4_U+30E4_U+30FC 1
370
     0
100
AcDbSpline
210
0.0
220
0.0
230
1.0
 70
    11
 71
     3
 72
    17
 73
    13
 74
     0
 42
0.0000000001
 43
0.0000000001
 12
1.0
 22
0.0
 32
0.0
 13
1.0
 23
0.0
 33
0.0
 40
0.0
 40
0.0
 40
0.0
 40
0.0
 40
1.0
 40
1.0
 40
1.0
 40
2.0
 40
2.0
 40
2.0
 40
3.0
 40
3.0
 40
3.0
 40
4.0
 40
4.0
 40
4.0
 40
4.0
 10
84.70249563854661
 20
-127.7203694342157
 30
0.0
 10
84.45289847064025
 20
-127.7203694342157
 30
0.0
 10
84.40638968158937
 20
-128.0039007926518
 30
0.0
 10
84.40638968158937
 20
-128.3485825959511
 30
0.0
 10
84.40638968158937
 20
-128.668115202208
 30
0.0
 10
84.44239092941024
 20
-128.9767957576864
 30
0.0
 10
84.70249563854661
 20
-128.9767957576864
 30
0.0
 10
84.95002574916181
 20
-128.9767957576864
 30
0.0
 10
84.99877385027808
 20
-128.6955037113157
 30
0.0
 10
84.99877385027808
 20
-128.3485825959511
 30
0.0
 10
84.99877385027808
 20
-128.0292222444684
 30
0.0
 10
84.96070554516608
 20
-127.7203694342157
 30
0.0
 10
84.70249563854661
 20
-127.7203694342157
 30
0.0
  0
HATCH
  5
9B
330
93
100
AcDbEntity
  8
_U+30EC_U+30A4_U+30E4_U+30FC 1
 62
   179
420
  2234388
100
AcDbHatch
 10
0.0
 20
0.0
 30
0.0
210
0.0
220
0.0
230
1.0
  2
SOLID
 70
     1
 71
     0
 91
        2
 92
        1
 93
        1
 72
     4
 94
        3
 73
     0
 74
     1
 95
       29
 96
       25
 40
0.0
 40
0.0
 40
0.0
 40
0.0
 40
1.0
 40
1.0
 40
1.0
 40
2.0
 40
2.0
 40
2.0
 40
3.0
 40
3.0
 40
3.0
 40
4.0
 40
4.0
 40
4.0
 40
5.0
 40
5.0
 40
5.0
 40
6.0
 40
6.0
 40
6.0
 40
7.0
 40
7.0
 40
7.0
 40
8.0
 40
8.0
 40
8.0
 40
8.0
 10
85.10023191231869
 20
-128.9430338219309
 10
84.99240042363037
 20
-129.1524956274341
 10
84.81893986594805
 20
-129.171443652603
 10
84.70249563854661
 20
-129.171443652603
 10
84.5417819341597
 20
-129.171443652603
 10
84.40001625494166
 20
-129.1249348635521
 10
84.30475936477451
 20
-128.9430338219309
 10
84.20123424544275
 20
-128.7483859270143
 10
84.18211396549961
 20
-128.5115356124034
 10
84.18211396549961
 20
-128.3485825959511
 10
84.18211396549961
 20
-128.2047498594419
 10
84.19899493337734
 20
-127.9530856342444
 10
84.30475936477451
 20
-127.7541313699712
 10
84.41276310823709
 20
-127.5510429911157
 10
84.573476812624
 20
-127.5277885965903
 10
84.70249563854661
 20
-127.5277885965903
 10
84.86114228564236
 20
-127.5277885965903
 10
85.0051472769258
 20
-127.57223032835
 10
85.10023191231869
 20
-127.7541313699712
 10
85.19962291706815
 20
-127.9467122075967
 10
85.22304956636785
 20
-128.1751220382687
 10
85.22304956636785
 20
-128.3485825959511
 10
85.22304956636785
 20
-128.5199760963422
 10
85.20186222913357
 20
-128.7506252390797
 10
85.10023191231869
 20
-128.9430338219309
 97
        0
 97
        0
 92
        1
 93
        1
 72
     4
 94
        3
 73
     0
 74
     1
 95
       17
 96
       13
 40
0.0
 40
0.0
 40
0.0
 40
0.0
 40
1.0
 40
1.0
 40
1.0
 40
2.0
 40
2.0
 40
2.0
 40
3.0
 40
3.0
 40
3.0
 40
4.0
 40
4.0
 40
4.0
 40
4.0
 10
84.70249563854661
 20
-127.7203694342157
 10
84.45289847064025
 20
-127.7203694342157
 10
84.40638968158937
 20
-128.0039007926518
 10
84.40638968158937
 20
-128.3485825959511
 10
84.40638968158937
 20
-128.668115202208
 10
84.44239092941024
 20
-128.9767957576864
 10
84.70249563854661
 20
-128.9767957576864
 10
84.95002574916181
 20
-128.9767957576864
 10
84.99877385027808
 20
-128.6955037113157
 10
84.99877385027808
 20
-128.3485825959511
 10
84.99877385027808
 20
-128.0292222444684
 10
84.96070554516608
 20
-127.7203694342157
 10
84.70249563854661
 20
-127.7203694342157
 97
        0
 97
        0
 75
     2
 76
     1
 98
        0
  0
ENDBLK
  5
96
330
93
100
AcDbEntity
  8
0
100
AcDbBlockEnd
  0
BLOCK
  5
9E
330
9C
100
AcDbEntity
  8
0
100
AcDbBlockBegin
  2
block 4
 70
     0
 10
0.0
 20
0.0
 30
0.0
  3
block 4
  1

  0
SPLINE
  5
A0
330
9C
100
AcDbEntity
  8
_U+30EC_U+30A4_U+30E4_U+30FC 1
370
     0
100
AcDbSpline
210
0.0
220
0.0
230
1.0
 70
    11
 71
     3
 72
    44
 73
    40
 74
     0
 42
0.0000000001
 43
0.0000000001
 12
1.0
 22
0.0
 32
0.0
 13
1.0
 23
0.0
 33
0.0
 40
0.0
 40
0.0
 40
0.0
 40
0.0
 40
1.0
 40
1.0
 40
1.0
 40
2.0
 40
2.0
 40
2.0
 40
3.0
 40
3.0
 40
3.0
 40
4.0
 40
4.0
 40
4.0
 40
5.0
 40
5.0
 40
5.0
 40
6.0
 40
6.0
 40
6.0
 40
7.0
 40
7.0
 40
7.0
 40
8.0
 40
8.0
 40
8.0
 40
9.0
 40
9.0
 40
9.0
 40
10.0
 40
10.0
 40
10.0
 40
11.0
 40
11.0
 40
11.0
 40
12.0
 40
12.0
 40
12.0
 40
13.0
 40
13.0
 40
13.0
 40
13.0
 10
97.69911835665161
 20
-114.324287894596
 30
0.0
 10
97.43074541835065
 20
-114.2974161498111
 30
0.0
 10
97.31223413365805
 20
-114.2906982136148
 30
0.0
 10
97.17994246702446
 20
-114.3654567856448
 30
0.0
 10
97.17994246702446
 20
-114.3654567856448
 30
0.0
 10
97.76044105628907
 20
-114.8842881657234
 30
0.0
 10
97.76044105628907
 20
-114.8842881657234
 30
0.0
 10
97.76044105628907
 20
-114.8842881657234
 30
0.0
 10
97.62367076552464
 20
-115.0372504052685
 30
0.0
 10
97.62367076552464
 20
-115.0372504052685
 30
0.0
 10
97.62367076552464
 20
-115.0372504052685
 30
0.0
 10
96.85713702005656
 20
-114.3521931680265
 30
0.0
 10
96.85713702005656
 20
-114.3521931680265
 30
0.0
 10
97.11896427693554
 20
-114.1067301147025
 30
0.0
 10
97.21990557465337
 20
-114.0920884588902
 30
0.0
 10
97.70600854762212
 20
-114.1261949041942
 30
0.0
 10
98.02915850413855
 20
-114.148415770074
 30
0.0
 10
98.12320961088587
 20
-114.1416978338778
 30
0.0
 10
98.21484915079351
 20
-114.0390339884173
 30
0.0
 10
98.29374183740573
 20
-113.9508395439949
 30
0.0
 10
98.32750377316118
 20
-113.8051120049689
 30
0.0
 10
98.18108721503806
 20
-113.6740261217551
 30
0.0
 10
97.98678382966997
 20
-113.5005655640728
 30
0.0
 10
97.82693139915439
 20
-113.6669636760104
 30
0.0
 10
97.74631616479954
 20
-113.7508517510762
 30
0.0
 10
97.74631616479954
 20
-113.7508517510762
 30
0.0
 10
97.57888452421639
 20
-113.6015068617906
 30
0.0
 10
97.57888452421639
 20
-113.6015068617906
 30
0.0
 10
97.66983504502699
 20
-113.5124511434969
 30
0.0
 10
97.75251733667298
 20
-113.4357977689501
 30
0.0
 10
97.89135468472855
 20
-113.4010023045491
 30
0.0
 10
98.08049042686878
 20
-113.3544935154982
 30
0.0
 10
98.242065405127
 20
-113.4531955011506
 30
0.0
 10
98.32853730180676
 20
-113.530882404343
 30
0.0
 10
98.53524303092175
 20
-113.7155395223524
 30
0.0
 10
98.56728241893457
 20
-113.9908026516238
 30
0.0
 10
98.38538137731338
 20
-114.1944077948021
 30
0.0
 10
98.23310815686534
 20
-114.3647677665477
 30
0.0
 10
98.08014591732025
 20
-114.3613226710625
 30
0.0
 10
97.69911835665161
 20
-114.324287894596
 30
0.0
  0
HATCH
  5
A1
330
9C
100
AcDbEntity
  8
_U+30EC_U+30A4_U+30E4_U+30FC 1
 62
   179
420
  2234388
100
AcDbHatch
 10
0.0
 20
0.0
 30
0.0
210
0.0
220
0.0
230
1.0
  2
SOLID
 70
     1
 71
     0
 91
        1
 92
        1
 93
        1
 72
     4
 94
        3
 73
     0
 74
     1
 95
       44
 96
       40
 40
0.0
 40
0.0
 40
0.0
 40
0.0
 40
1.0
 40
1.0
 40
1.0
 40
2.0
 40
2.0
 40
2.0
 40
3.0
 40
3.0
 40
3.0
 40
4.0
 40
4.0
 40
4.0
 40
5.0
 40
5.0
 40
5.0
 40
6.0
 40
6.0
 40
6.0
 40
7.0
 40
7.0
 40
7.0
 40
8.0
 40
8.0
 40
8.0
 40
9.0
 40
9.0
 40
9.0
 40
10.0
 40
10.0
 40
10.0
 40
11.0
 40
11.0
 40
11.0
 40
12.0
 40
12.0
 40
12.0
 40
13.0
 40
13.0
 40
13.0
 40
13.0
 10
97.69911835665161
 20
-114.324287894596
 10
97.43074541835065
 20
-114.2974161498111
 10
97.31223413365805
 20
-114.2906982136148
 10
97.17994246702446
 20
-114.3654567856448
 10
97.17994246702446
 20
-114.3654567856448
 10
97.76044105628907
 20
-114.8842881657234
 10
97.76044105628907
 20
-114.8842881657234
 10
97.76044105628907
 20
-114.8842881657234
 10
97.62367076552464
 20
-115.0372504052685
 10
97.62367076552464
 20
-115.0372504052685
 10
97.62367076552464
 20
-115.0372504052685
 10
96.85713702005656
 20
-114.3521931680265
 10
96.85713702005656
 20
-114.3521931680265
 10
97.11896427693554
 20
-114.1067301147025
 10
97.21990557465337
 20
-114.0920884588902
 10
97.70600854762212
 20
-114.1261949041942
 10
98.02915850413855
 20
-114.148415770074
 10
98.12320961088587
 20
-114.1416978338778
 10
98.21484915079351
 20
-114.0390339884173
 10
98.29374183740573
 20
-113.9508395439949
 10
98.32750377316118
 20
-113.8051120049689
 10
98.18108721503806
 20
-113.6740261217551
 10
97.98678382966997
 20
-113.5005655640728
 10
97.82693139915439
 20
-113.6669636760104
 10
97.74631616479954
 20
-113.7508517510762
 10
97.74631616479954
 20
-113.7508517510762
 10
97.57888452421639
 20
-113.6015068617906
 10
97.57888452421639
 20
-113.6015068617906
 10
97.66983504502699
 20
-113.5124511434969
 10
97.75251733667298
 20
-113.4357977689501
 10
97.89135468472855
 20
-113.4010023045491
 10
98.08049042686878
 20
-113.3544935154982
 10
98.242065405127
 20
-113.4531955011506
 10
98.32853730180676
 20
-113.530882404343
 10
98.53524303092175
 20
-113.7155395223524
 10
98.56728241893457
 20
-113.9908026516238
 10
98.38538137731338
 20
-114.1944077948021
 10
98.23310815686534
 20
-114.3647677665477
 10
98.08014591732025
 20
-114.3613226710625
 10
97.69911835665161
 20
-114.324287894596
 97
        0
 97
        0
 75
     2
 76
     1
 98
        0
  0
SPLINE
  5
A2
330
9C
100
AcDbEntity
  8
_U+30EC_U+30A4_U+30E4_U+30FC 1
370
     0
100
AcDbSpline
210
0.0
220
0.0
230
1.0
 70
    11
 71
     3
 72
    29
 73
    25
 74
     0
 42
0.0000000001
 43
0.0000000001
 12
1.0
 22
0.0
 32
0.0
 13
1.0
 23
0.0
 33
0.0
 40
0.0
 40
0.0
 40
0.0
 40
0.0
 40
1.0
 40
1.0
 40
1.0
 40
2.0
 40
2.0
 40
2.0
 40
3.0
 40
3.0
 40
3.0
 40
4.0
 40
4.0
 40
4.0
 40
5.0
 40
5.0
 40
5.0
 40
6.0
 40
6.0
 40
6.0
 40
7.0
 40
7.0
 40
7.0
 40
8.0
 40
8.0
 40
8.0
 40
8.0
 10
98.5345540118247
 20
-115.6127536060795
 30
0.0
 10
98.31475691986576
 20
-115.6969861906938
 30
0.0
 10
98.17247447632494
 20
-115.5957003834275
 30
0.0
 10
98.08565807009664
 20
-115.5181857350094
 30
0.0
 10
97.96576874720995
 20
-115.4110432654181
 30
0.0
 10
97.89135468472855
 20
-115.2818521847212
 30
0.0
 10
97.94130856926468
 20
-115.0827256656738
 30
0.0
 10
97.99367402064047
 20
-114.8686129812655
 30
0.0
 10
98.13767901192392
 20
-114.6791327295768
 30
0.0
 10
98.2461995197093
 20
-114.5576931137217
 30
0.0
 10
98.34197317419924
 20
-114.4503783893562
 30
0.0
 10
98.5221516680778
 20
-114.2739895005114
 30
0.0
 10
98.73368053087214
 20
-114.1961303425447
 30
0.0
 10
98.94934350824877
 20
-114.1167208916097
 30
0.0
 10
99.0847357608191
 20
-114.2064656290005
 30
0.0
 10
99.1811984344061
 20
-114.2924207613575
 30
0.0
 10
99.29936520955016
 20
-114.3981851927546
 30
0.0
 10
99.37687985796829
 20
-114.527031763903
 30
0.0
 10
99.32692597343217
 20
-114.7261582829504
 30
0.0
 10
99.27249346476522
 20
-114.9359645980021
 30
0.0
 10
99.13779023129194
 20
-115.1218274994313
 30
0.0
 10
99.02203502298755
 20
-115.2511908349025
 30
0.0
 10
98.90800236242578
 20
-115.3790038774053
 30
0.0
 10
98.73850366455149
 20
-115.5367892506297
 30
0.0
 10
98.5345540118247
 20
-115.6127536060795
 30
0.0
  0
SPLINE
  5
A3
330
9C
100
AcDbEntity
  8
_U+30EC_U+30A4_U+30E4_U+30FC 1
370
     0
100
AcDbSpline
210
0.0
220
0.0
230
1.0
 70
    11
 71
     3
 72
    17
 73
    13
 74
     0
 42
0.0000000001
 43
0.0000000001
 12
1.0
 22
0.0
 32
0.0
 13
1.0
 23
0.0
 33
0.0
 40
0.0
 40
0.0
 40
0.0
 40
0.0
 40
1.0
 40
1.0
 40
1.0
 40
2.0
 40
2.0
 40
2.0
 40
3.0
 40
3.0
 40
3.0
 40
4.0
 40
4.0
 40
4.0
 40
4.0
 10
99.05269637280628
 20
-114.4359089883181
 30
0.0
 10
98.86666121660278
 20
-114.2696831311548
 30
0.0
 10
98.64307451961007
 20
-114.4500338798076
 30
0.0
 10
98.4132866507439
 20
-114.7072102577815
 30
0.0
 10
98.20037974975547
 20
-114.9452663558123
 30
0.0
 10
98.021579294071
 20
-115.199686657398
 30
0.0
 10
98.21553816989056
 20
-115.3729749603061
 30
0.0
 10
98.40019528789996
 20
-115.5379950340495
 30
0.0
 10
98.62378198489267
 20
-115.3605726165592
 30
0.0
 10
98.85494789195293
 20
-115.1018459456169
 30
0.0
 10
99.06785479294138
 20
-114.8636175928119
 30
0.0
 10
99.24527721043174
 20
-114.6079915078063
 30
0.0
 10
99.05269637280628
 20
-114.4359089883181
 30
0.0
  0
HATCH
  5
A4
330
9C
100
AcDbEntity
  8
_U+30EC_U+30A4_U+30E4_U+30FC 1
 62
   179
420
  2234388
100
AcDbHatch
 10
0.0
 20
0.0
 30
0.0
210
0.0
220
0.0
230
1.0
  2
SOLID
 70
     1
 71
     0
 91
        2
 92
        1
 93
        1
 72
     4
 94
        3
 73
     0
 74
     1
 95
       29
 96
       25
 40
0.0
 40
0.0
 40
0.0
 40
0.0
 40
1.0
 40
1.0
 40
1.0
 40
2.0
 40
2.0
 40
2.0
 40
3.0
 40
3.0
 40
3.0
 40
4.0
 40
4.0
 40
4.0
 40
5.0
 40
5.0
 40
5.0
 40
6.0
 40
6.0
 40
6.0
 40
7.0
 40
7.0
 40
7.0
 40
8.0
 40
8.0
 40
8.0
 40
8.0
 10
98.5345540118247
 20
-115.6127536060795
 10
98.31475691986576
 20
-115.6969861906938
 10
98.17247447632494
 20
-115.5957003834275
 10
98.08565807009664
 20
-115.5181857350094
 10
97.96576874720995
 20
-115.4110432654181
 10
97.89135468472855
 20
-115.2818521847212
 10
97.94130856926468
 20
-115.0827256656738
 10
97.99367402064047
 20
-114.8686129812655
 10
98.13767901192392
 20
-114.6791327295768
 10
98.2461995197093
 20
-114.5576931137217
 10
98.34197317419924
 20
-114.4503783893562
 10
98.5221516680778
 20
-114.2739895005114
 10
98.73368053087214
 20
-114.1961303425447
 10
98.94934350824877
 20
-114.1167208916097
 10
99.0847357608191
 20
-114.2064656290005
 10
99.1811984344061
 20
-114.2924207613575
 10
99.29936520955016
 20
-114.3981851927546
 10
99.37687985796829
 20
-114.527031763903
 10
99.32692597343217
 20
-114.7261582829504
 10
99.27249346476522
 20
-114.9359645980021
 10
99.13779023129194
 20
-115.1218274994313
 10
99.02203502298755
 20
-115.2511908349025
 10
98.90800236242578
 20
-115.3790038774053
 10
98.73850366455149
 20
-115.5367892506297
 10
98.5345540118247
 20
-115.6127536060795
 97
        0
 97
        0
 92
        1
 93
        1
 72
     4
 94
        3
 73
     0
 74
     1
 95
       17
 96
       13
 40
0.0
 40
0.0
 40
0.0
 40
0.0
 40
1.0
 40
1.0
 40
1.0
 40
2.0
 40
2.0
 40
2.0
 40
3.0
 40
3.0
 40
3.0
 40
4.0
 40
4.0
 40
4.0
 40
4.0
 10
99.05269637280628
 20
-114.4359089883181
 10
98.86666121660278
 20
-114.2696831311548
 10
98.64307451961007
 20
-114.4500338798076
 10
98.4132866507439
 20
-114.7072102577815
 10
98.20037974975547
 20
-114.9452663558123
 10
98.021579294071
 20
-115.199686657398
 10
98.21553816989056
 20
-115.3729749603061
 10
98.40019528789996
 20
-115.5379950340495
 10
98.62378198489267
 20
-115.3605726165592
 10
98.85494789195293
 20
-115.1018459456169
 10
99.06785479294138
 20
-114.8636175928119
 10
99.24527721043174
 20
-114.6079915078063
 10
99.05269637280628
 20
-114.4359089883181
 97
        0
 97
        0
 75
     2
 76
     1
 98
        0
  0
ENDBLK
  5
9F
330
9C
100
AcDbEntity
  8
0
100
AcDbBlockEnd
  0
BLOCK
  5
A7
330
A5
100
AcDbEntity
  8
0
100
AcDbBlockBegin
  2
block 5
 70
     0
 10
0.0
 20
0.0
 30
0.0
  3
block 5
  1

  0
SPLINE
  5
A9
330
A5
100
AcDbEntity
  8
_U+30EC_U+30A4_U+30E4_U+30FC 1
370
     0
100
AcDbSpline
210
0.0
220
0.0
230
1.0
 70
    11
 71
     3
 72
    26
 73
    22
 74
     0
 42
0.0000000001
 43
0.0000000001
 12
1.0
 22
0.0
 32
0.0
 13
1.0
 23
0.0
 33
0.0
 40
0.0
 40
0.0
 40
0.0
 40
0.0
 40
1.0
 40
1.0
 40
1.0
 40
2.0
 40
2.0
 40
2.0
 40
3.0
 40
3.0
 40
3.0
 40
4.0
 40
4.0
 40
4.0
 40
5.0
 40
5.0
 40
5.0
 40
6.0
 40
6.0
 40
6.0
 40
7.0
 40
7.0
 40
7.0
 40
7.0
 10
86.65775958120015
 20
-114.1301567640022
 30
0.0
 10
86.65775958120015
 20
-114.1301567640022
 30
0.0
 10
85.99750703145202
 20
-113.2449394790672
 30
0.0
 10
85.99750703145202
 20
-113.2449394790672
 30
0.0
 10
85.99750703145202
 20
-113.2449394790672
 30
0.0
 10
85.73292369818483
 20
-113.4423434503721
 30
0.0
 10
85.73292369818483
 20
-113.4423434503721
 30
0.0
 10
85.73292369818483
 20
-113.4423434503721
 30
0.0
 10
85.64438474421391
 20
-113.3236599109052
 30
0.0
 10
85.64438474421391
 20
-113.3236599109052
 30
0.0
 10
85.90173337696207
 20
-113.1131645767564
 30
0.0
 10
85.84161646074446
 20
-112.9548624392092
 30
0.0
 10
85.79700247421047
 20
-112.8454806575525
 30
0.0
 10
85.79700247421047
 20
-112.8454806575525
 30
0.0
 10
85.91413572070897
 20
-112.7583197417757
 30
0.0
 10
85.91413572070897
 20
-112.7583197417757
 30
0.0
 10
85.91413572070897
 20
-112.7583197417757
 30
0.0
 10
86.83759356553018
 20
-113.9959702948517
 30
0.0
 10
86.83759356553018
 20
-113.9959702948517
 30
0.0
 10
86.83759356553018
 20
-113.9959702948517
 30
0.0
 10
86.65775958120015
 20
-114.1301567640022
 30
0.0
 10
86.65775958120015
 20
-114.1301567640022
 30
0.0
  0
HATCH
  5
AA
330
A5
100
AcDbEntity
  8
_U+30EC_U+30A4_U+30E4_U+30FC 1
 62
   179
420
  2234388
100
AcDbHatch
 10
0.0
 20
0.0
 30
0.0
210
0.0
220
0.0
230
1.0
  2
SOLID
 70
     1
 71
     0
 91
        1
 92
        1
 93
        1
 72
     4
 94
        3
 73
     0
 74
     1
 95
       26
 96
       22
 40
0.0
 40
0.0
 40
0.0
 40
0.0
 40
1.0
 40
1.0
 40
1.0
 40
2.0
 40
2.0
 40
2.0
 40
3.0
 40
3.0
 40
3.0
 40
4.0
 40
4.0
 40
4.0
 40
5.0
 40
5.0
 40
5.0
 40
6.0
 40
6.0
 40
6.0
 40
7.0
 40
7.0
 40
7.0
 40
7.0
 10
86.65775958120015
 20
-114.1301567640022
 10
86.65775958120015
 20
-114.1301567640022
 10
85.99750703145202
 20
-113.2449394790672
 10
85.99750703145202
 20
-113.2449394790672
 10
85.99750703145202
 20
-113.2449394790672
 10
85.73292369818483
 20
-113.4423434503721
 10
85.73292369818483
 20
-113.4423434503721
 10
85.73292369818483
 20
-113.4423434503721
 10
85.64438474421391
 20
-113.3236599109052
 10
85.64438474421391
 20
-113.3236599109052
 10
85.90173337696207
 20
-113.1131645767564
 10
85.84161646074446
 20
-112.9548624392092
 10
85.79700247421047
 20
-112.8454806575525
 10
85.79700247421047
 20
-112.8454806575525
 10
85.91413572070897
 20
-112.7583197417757
 10
85.91413572070897
 20
-112.7583197417757
 10
85.91413572070897
 20
-112.7583197417757
 10
86.83759356553018
 20
-113.9959702948517
 10
86.83759356553018
 20
-113.9959702948517
 10
86.83759356553018
 20
-113.9959702948517
 10
86.65775958120015
 20
-114.1301567640022
 10
86.65775958120015
 20
-114.1301567640022
 97
        0
 97
        0
 75
     2
 76
     1
 98
        0
  0
SPLINE
  5
AB
330
A5
100
AcDbEntity
  8
_U+30EC_U+30A4_U+30E4_U+30FC 1
370
     0
100
AcDbSpline
210
0.0
220
0.0
230
1.0
 70
    11
 71
     3
 72
    53
 73
    49
 74
     0
 42
0.0000000001
 43
0.0000000001
 12
1.0
 22
0.0
 32
0.0
 13
1.0
 23
0.0
 33
0.0
 40
0.0
 40
0.0
 40
0.0
 40
0.0
 40
1.0
 40
1.0
 40
1.0
 40
2.0
 40
2.0
 40
2.0
 40
3.0
 40
3.0
 40
3.0
 40
4.0
 40
4.0
 40
4.0
 40
5.0
 40
5.0
 40
5.0
 40
6.0
 40
6.0
 40
6.0
 40
7.0
 40
7.0
 40
7.0
 40
8.0
 40
8.0
 40
8.0
 40
9.0
 40
9.0
 40
9.0
 40
10.0
 40
10.0
 40
10.0
 40
11.0
 40
11.0
 40
11.0
 40
12.0
 40
12.0
 40
12.0
 40
13.0
 40
13.0
 40
13.0
 40
14.0
 40
14.0
 40
14.0
 40
15.0
 40
15.0
 40
15.0
 40
16.0
 40
16.0
 40
16.0
 40
16.0
 10
87.65511472417998
 20
-113.4494058961168
 30
0.0
 10
87.59241398634843
 20
-113.496086939942
 30
0.0
 10
87.50094670121504
 20
-113.5432847480899
 30
0.0
 10
87.38157414265113
 20
-113.5531032702228
 30
0.0
 10
87.17676321605303
 20
-113.5687784546807
 30
0.0
 10
87.08133407111161
 20
-113.4762776409018
 30
0.0
 10
87.00158011062808
 20
-113.4011745593233
 30
0.0
 10
87.00158011062808
 20
-113.4011745593233
 30
0.0
 10
87.1796915472155
 20
-113.2683661283669
 30
0.0
 10
87.1796915472155
 20
-113.2683661283669
 30
0.0
 10
87.34264456366782
 20
-113.3948011326756
 30
0.0
 10
87.46201712223173
 20
-113.3426079360741
 30
0.0
 10
87.53677569426165
 20
-113.2869696439873
 30
0.0
 10
87.648569042758
 20
-113.20342607847
 30
0.0
 10
87.71126978058955
 20
-113.0327215971759
 30
0.0
 10
87.57208792298546
 20
-112.8461696766496
 30
0.0
 10
87.4189534286661
 20
-112.6410142405029
 30
0.0
 10
87.23309052723687
 20
-112.6926906727817
 30
0.0
 10
87.13645559887561
 20
-112.7646931684234
 30
0.0
 10
87.11096189228476
 20
-112.7836411935923
 30
0.0
 10
86.99744599604578
 20
-112.8683905425294
 30
0.0
 10
87.00347491314497
 20
-113.024970132334
 30
0.0
 10
87.00347491314497
 20
-113.024970132334
 30
0.0
 10
86.85120169269693
 20
-113.1147148697248
 30
0.0
 10
86.85120169269693
 20
-113.1147148697248
 30
0.0
 10
86.85120169269693
 20
-113.1147148697248
 30
0.0
 10
86.44192434904924
 20
-112.3643730730374
 30
0.0
 10
86.44192434904924
 20
-112.3643730730374
 30
0.0
 10
86.44192434904924
 20
-112.3643730730374
 30
0.0
 10
87.06583114142799
 20
-111.8989406729801
 30
0.0
 10
87.06583114142799
 20
-111.8989406729801
 30
0.0
 10
87.06583114142799
 20
-111.8989406729801
 30
0.0
 10
87.18227536882944
 20
-112.0548312436877
 30
0.0
 10
87.18227536882944
 20
-112.0548312436877
 30
0.0
 10
87.18227536882944
 20
-112.0548312436877
 30
0.0
 10
86.6887654405674
 20
-112.4229396962866
 30
0.0
 10
86.6887654405674
 20
-112.4229396962866
 30
0.0
 10
86.6887654405674
 20
-112.4229396962866
 30
0.0
 10
86.88926999780894
 20
-112.8013834353413
 30
0.0
 10
86.88926999780894
 20
-112.8013834353413
 30
0.0
 10
86.91820879988504
 20
-112.7374769140899
 30
0.0
 10
86.96023896480509
 20
-112.6560004058638
 30
0.0
 10
87.05532360019798
 20
-112.5852036936419
 30
0.0
 10
87.25875648860197
 20
-112.4332749827424
 30
0.0
 10
87.56003008878707
 20
-112.4408541928099
 30
0.0
 10
87.74727102841041
 20
-112.6918293989104
 30
0.0
 10
87.93692353487342
 20
-112.9460774457218
 30
0.0
 10
87.89764944634156
 20
-113.2683661283669
 30
0.0
 10
87.65511472417998
 20
-113.4494058961168
 30
0.0
  0
HATCH
  5
AC
330
A5
100
AcDbEntity
  8
_U+30EC_U+30A4_U+30E4_U+30FC 1
 62
   179
420
  2234388
100
AcDbHatch
 10
0.0
 20
0.0
 30
0.0
210
0.0
220
0.0
230
1.0
  2
SOLID
 70
     1
 71
     0
 91
        1
 92
        1
 93
        1
 72
     4
 94
        3
 73
     0
 74
     1
 95
       53
 96
       49
 40
0.0
 40
0.0
 40
0.0
 40
0.0
 40
1.0
 40
1.0
 40
1.0
 40
2.0
 40
2.0
 40
2.0
 40
3.0
 40
3.0
 40
3.0
 40
4.0
 40
4.0
 40
4.0
 40
5.0
 40
5.0
 40
5.0
 40
6.0
 40
6.0
 40
6.0
 40
7.0
 40
7.0
 40
7.0
 40
8.0
 40
8.0
 40
8.0
 40
9.0
 40
9.0
 40
9.0
 40
10.0
 40
10.0
 40
10.0
 40
11.0
 40
11.0
 40
11.0
 40
12.0
 40
12.0
 40
12.0
 40
13.0
 40
13.0
 40
13.0
 40
14.0
 40
14.0
 40
14.0
 40
15.0
 40
15.0
 40
15.0
 40
16.0
 40
16.0
 40
16.0
 40
16.0
 10
87.65511472417998
 20
-113.4494058961168
 10
87.59241398634843
 20
-113.496086939942
 10
87.50094670121504
 20
-113.5432847480899
 10
87.38157414265113
 20
-113.5531032702228
 10
87.17676321605303
 20
-113.5687784546807
 10
87.08133407111161
 20
-113.4762776409018
 10
87.00158011062808
 20
-113.4011745593233
 10
87.00158011062808
 20
-113.4011745593233
 10
87.1796915472155
 20
-113.2683661283669
 10
87.1796915472155
 20
-113.2683661283669
 10
87.34264456366782
 20
-113.3948011326756
 10
87.46201712223173
 20
-113.3426079360741
 10
87.53677569426165
 20
-113.2869696439873
 10
87.648569042758
 20
-113.20342607847
 10
87.71126978058955
 20
-113.0327215971759
 10
87.57208792298546
 20
-112.8461696766496
 10
87.4189534286661
 20
-112.6410142405029
 10
87.23309052723687
 20
-112.6926906727817
 10
87.13645559887561
 20
-112.7646931684234
 10
87.11096189228476
 20
-112.7836411935923
 10
86.99744599604578
 20
-112.8683905425294
 10
87.00347491314497
 20
-113.024970132334
 10
87.00347491314497
 20
-113.024970132334
 10
86.85120169269693
 20
-113.1147148697248
 10
86.85120169269693
 20
-113.1147148697248
 10
86.85120169269693
 20
-113.1147148697248
 10
86.44192434904924
 20
-112.3643730730374
 10
86.44192434904924
 20
-112.3643730730374
 10
86.44192434904924
 20
-112.3643730730374
 10
87.06583114142799
 20
-111.8989406729801
 10
87.06583114142799
 20
-111.8989406729801
 10
87.06583114142799
 20
-111.8989406729801
 10
87.18227536882944
 20
-112.0548312436877
 10
87.18227536882944
 20
-112.0548312436877
 10
87.18227536882944
 20
-112.0548312436877
 10
86.6887654405674
 20
-112.4229396962866
 10
86.6887654405674
 20
-112.4229396962866
 10
86.6887654405674
 20
-112.4229396962866
 10
86.88926999780894
 20
-112.8013834353413
 10
86.88926999780894
 20
-112.8013834353413
 10
86.91820879988504
 20
-112.7374769140899
 10
86.96023896480509
 20
-112.6560004058638
 10
87.05532360019798
 20
-112.5852036936419
 10
87.25875648860197
 20
-112.4332749827424
 10
87.56003008878707
 20
-112.4408541928099
 10
87.74727102841041
 20
-112.6918293989104
 10
87.93692353487342
 20
-112.9460774457218
 10
87.89764944634156
 20
-113.2683661283669
 10
87.65511472417998
 20
-113.4494058961168
 97
        0
 97
        0
 75
     2
 76
     1
 98
        0
  0
ENDBLK
  5
A8
330
A5
100
AcDbEntity
  8
0
100
AcDbBlockEnd
  0
BLOCK
  5
AF
330
AD
100
AcDbEntity
  8
0
100
AcDbBlockBegin
  2
block 6
 70
     0
 10
0.0
 20
0.0
 30
0.0
  3
block 6
  1

  0
SPLINE
  5
B1
330
AD
100
AcDbEntity
  8
_U+30EC_U+30A4_U+30E4_U+30FC 1
370
     0
100
AcDbSpline
210
0.0
220
0.0
230
1.0
 70
    11
 71
     3
 72
    35
 73
    31
 74
     0
 42
0.0000000001
 43
0.0000000001
 12
1.0
 22
0.0
 32
0.0
 13
1.0
 23
0.0
 33
0.0
 40
0.0
 40
0.0
 40
0.0
 40
0.0
 40
1.0
 40
1.0
 40
1.0
 40
2.0
 40
2.0
 40
2.0
 40
3.0
 40
3.0
 40
3.0
 40
4.0
 40
4.0
 40
4.0
 40
5.0
 40
5.0
 40
5.0
 40
6.0
 40
6.0
 40
6.0
 40
7.0
 40
7.0
 40
7.0
 40
8.0
 40
8.0
 40
8.0
 40
9.0
 40
9.0
 40
9.0
 40
10.0
 40
10.0
 40
10.0
 40
10.0
 10
81.73557940664944
 20
-120.9590250348644
 30
0.0
 10
81.73557940664944
 20
-120.9590250348644
 30
0.0
 10
81.68493650301627
 20
-121.2234361133573
 30
0.0
 10
81.68493650301627
 20
-121.2234361133573
 30
0.0
 10
81.82446287016889
 20
-121.2361829666528
 30
0.0
 10
82.15243596036467
 20
-121.3271334874634
 30
0.0
 10
82.15243596036467
 20
-121.7184963345877
 30
0.0
 10
82.15243596036467
 20
-122.1965033331662
 30
0.0
 10
81.74625920265372
 20
-122.3213880445065
 30
0.0
 10
81.47116832815652
 20
-122.3213880445065
 30
0.0
 10
81.47116832815652
 20
-122.3213880445065
 30
0.0
 10
81.40347220187135
 20
-122.6746825865188
 30
0.0
 10
81.40347220187135
 20
-122.6746825865188
 30
0.0
 10
81.40347220187135
 20
-122.6746825865188
 30
0.0
 10
81.19624970843358
 20
-122.6746825865188
 30
0.0
 10
81.19624970843358
 20
-122.6746825865188
 30
0.0
 10
81.19624970843358
 20
-122.6746825865188
 30
0.0
 10
81.26807994930104
 20
-122.3065741339199
 30
0.0
 10
81.26807994930104
 20
-122.3065741339199
 30
0.0
 10
81.16024846061272
 20
-122.2874538539768
 30
0.0
 10
80.8090209758915
 20
-122.2261311543393
 30
0.0
 10
80.8090209758915
 20
-121.8094468553983
 30
0.0
 10
80.8090209758915
 20
-121.3608954232188
 30
0.0
 10
81.16455482996928
 20
-121.2106892600619
 30
0.0
 10
81.47960881209538
 20
-121.2106892600619
 30
0.0
 10
81.47960881209538
 20
-121.2106892600619
 30
0.0
 10
81.52835691321167
 20
-120.9590250348644
 30
0.0
 10
81.52835691321167
 20
-120.9590250348644
 30
0.0
 10
81.52835691321167
 20
-120.9590250348644
 30
0.0
 10
81.73557940664944
 20
-120.9590250348644
 30
0.0
 10
81.73557940664944
 20
-120.9590250348644
 30
0.0
  0
SPLINE
  5
B2
330
AD
100
AcDbEntity
  8
_U+30EC_U+30A4_U+30E4_U+30FC 1
370
     0
100
AcDbSpline
210
0.0
220
0.0
230
1.0
 70
    11
 71
     3
 72
    14
 73
    10
 74
     0
 42
0.0000000001
 43
0.0000000001
 12
1.0
 22
0.0
 32
0.0
 13
1.0
 23
0.0
 33
0.0
 40
0.0
 40
0.0
 40
0.0
 40
0.0
 40
1.0
 40
1.0
 40
1.0
 40
2.0
 40
2.0
 40
2.0
 40
3.0
 40
3.0
 40
3.0
 40
3.0
 10
81.44584687633993
 20
-121.3841498177442
 30
0.0
 10
81.32526853435618
 20
-121.3925903016831
 30
0.0
 10
81.0312296346901
 20
-121.4158446962085
 30
0.0
 10
81.0312296346901
 20
-121.8135809699806
 30
0.0
 10
81.0312296346901
 20
-121.8771429816835
 30
0.0
 10
81.0312296346901
 20
-122.090738901769
 30
0.0
 10
81.2999470825396
 20
-122.1351806335287
 30
0.0
 10
81.2999470825396
 20
-122.1351806335287
 30
0.0
 10
81.44584687633993
 20
-121.3841498177442
 30
0.0
 10
81.44584687633993
 20
-121.3841498177442
 30
0.0
  0
SPLINE
  5
B3
330
AD
100
AcDbEntity
  8
_U+30EC_U+30A4_U+30E4_U+30FC 1
370
     0
100
AcDbSpline
210
0.0
220
0.0
230
1.0
 70
    11
 71
     3
 72
    14
 73
    10
 74
     0
 42
0.0000000001
 43
0.0000000001
 12
1.0
 22
0.0
 32
0.0
 13
1.0
 23
0.0
 33
0.0
 40
0.0
 40
0.0
 40
0.0
 40
0.0
 40
1.0
 40
1.0
 40
1.0
 40
2.0
 40
2.0
 40
2.0
 40
3.0
 40
3.0
 40
3.0
 40
3.0
 10
81.50716957597737
 20
-122.1436211174676
 30
0.0
 10
81.68907061759857
 20
-122.1394870028853
 30
0.0
 10
81.93246661363148
 20
-122.0590440233047
 30
0.0
 10
81.93246661363148
 20
-121.7036824240012
 30
0.0
 10
81.93246661363148
 20
-121.6104925911252
 30
0.0
 10
81.91971976033605
 20
-121.4222181228563
 30
0.0
 10
81.64893525519541
 20
-121.3948296137485
 30
0.0
 10
81.64893525519541
 20
-121.3948296137485
 30
0.0
 10
81.50716957597737
 20
-122.1436211174676
 30
0.0
 10
81.50716957597737
 20
-122.1436211174676
 30
0.0
  0
HATCH
  5
B4
330
AD
100
AcDbEntity
  8
_U+30EC_U+30A4_U+30E4_U+30FC 1
 62
   179
420
  2234388
100
AcDbHatch
 10
0.0
 20
0.0
 30
0.0
210
0.0
220
0.0
230
1.0
  2
SOLID
 70
     1
 71
     0
 91
        3
 92
        1
 93
        1
 72
     4
 94
        3
 73
     0
 74
     1
 95
       35
 96
       31
 40
0.0
 40
0.0
 40
0.0
 40
0.0
 40
1.0
 40
1.0
 40
1.0
 40
2.0
 40
2.0
 40
2.0
 40
3.0
 40
3.0
 40
3.0
 40
4.0
 40
4.0
 40
4.0
 40
5.0
 40
5.0
 40
5.0
 40
6.0
 40
6.0
 40
6.0
 40
7.0
 40
7.0
 40
7.0
 40
8.0
 40
8.0
 40
8.0
 40
9.0
 40
9.0
 40
9.0
 40
10.0
 40
10.0
 40
10.0
 40
10.0
 10
81.73557940664944
 20
-120.9590250348644
 10
81.73557940664944
 20
-120.9590250348644
 10
81.68493650301627
 20
-121.2234361133573
 10
81.68493650301627
 20
-121.2234361133573
 10
81.82446287016889
 20
-121.2361829666528
 10
82.15243596036467
 20
-121.3271334874634
 10
82.15243596036467
 20
-121.7184963345877
 10
82.15243596036467
 20
-122.1965033331662
 10
81.74625920265372
 20
-122.3213880445065
 10
81.47116832815652
 20
-122.3213880445065
 10
81.47116832815652
 20
-122.3213880445065
 10
81.40347220187135
 20
-122.6746825865188
 10
81.40347220187135
 20
-122.6746825865188
 10
81.40347220187135
 20
-122.6746825865188
 10
81.19624970843358
 20
-122.6746825865188
 10
81.19624970843358
 20
-122.6746825865188
 10
81.19624970843358
 20
-122.6746825865188
 10
81.26807994930104
 20
-122.3065741339199
 10
81.26807994930104
 20
-122.3065741339199
 10
81.16024846061272
 20
-122.2874538539768
 10
80.8090209758915
 20
-122.2261311543393
 10
80.8090209758915
 20
-121.8094468553983
 10
80.8090209758915
 20
-121.3608954232188
 10
81.16455482996928
 20
-121.2106892600619
 10
81.47960881209538
 20
-121.2106892600619
 10
81.47960881209538
 20
-121.2106892600619
 10
81.52835691321167
 20
-120.9590250348644
 10
81.52835691321167
 20
-120.9590250348644
 10
81.52835691321167
 20
-120.9590250348644
 10
81.73557940664944
 20
-120.9590250348644
 10
81.73557940664944
 20
-120.9590250348644
 97
        0
 97
        0
 92
        1
 93
        1
 72
     4
 94
        3
 73
     0
 74
     1
 95
       14
 96
       10
 40
0.0
 40
0.0
 40
0.0
 40
0.0
 40
1.0
 40
1.0
 40
1.0
 40
2.0
 40
2.0
 40
2.0
 40
3.0
 40
3.0
 40
3.0
 40
3.0
 10
81.44584687633993
 20
-121.3841498177442
 10
81.32526853435618
 20
-121.3925903016831
 10
81.0312296346901
 20
-121.4158446962085
 10
81.0312296346901
 20
-121.8135809699806
 10
81.0312296346901
 20
-121.8771429816835
 10
81.0312296346901
 20
-122.090738901769
 10
81.2999470825396
 20
-122.1351806335287
 10
81.2999470825396
 20
-122.1351806335287
 10
81.44584687633993
 20
-121.3841498177442
 10
81.44584687633993
 20
-121.3841498177442
 97
        0
 97
        0
 92
        1
 93
        1
 72
     4
 94
        3
 73
     0
 74
     1
 95
       14
 96
       10
 40
0.0
 40
0.0
 40
0.0
 40
0.0
 40
1.0
 40
1.0
 40
1.0
 40
2.0
 40
2.0
 40
2.0
 40
3.0
 40
3.0
 40
3.0
 40
3.0
 10
81.50716957597737
 20
-122.1436211174676
 10
81.68907061759857
 20
-122.1394870028853
 10
81.93246661363148
 20
-122.0590440233047
 10
81.93246661363148
 20
-121.7036824240012
 10
81.93246661363148
 20
-121.6104925911252
 10
81.91971976033605
 20
-121.4222181228563
 10
81.64893525519541
 20
-121.3948296137485
 10
81.64893525519541
 20
-121.3948296137485
 10
81.50716957597737
 20
-122.1436211174676
 10
81.50716957597737
 20
-122.1436211174676
 97
        0
 97
        0
 75
     2
 76
     1
 98
        0
  0
SPLINE
  5
B5
330
AD
100
AcDbEntity
  8
_U+30EC_U+30A4_U+30E4_U+30FC 1
370
     0
100
AcDbSpline
210
0.0
220
0.0
230
1.0
 70
    11
 71
     3
 72
    26
 73
    22
 74
     0
 42
0.0000000001
 43
0.0000000001
 12
1.0
 22
0.0
 32
0.0
 13
1.0
 23
0.0
 33
0.0
 40
0.0
 40
0.0
 40
0.0
 40
0.0
 40
1.0
 40
1.0
 40
1.0
 40
2.0
 40
2.0
 40
2.0
 40
3.0
 40
3.0
 40
3.0
 40
4.0
 40
4.0
 40
4.0
 40
5.0
 40
5.0
 40
5.0
 40
6.0
 40
6.0
 40
6.0
 40
7.0
 40
7.0
 40
7.0
 40
7.0
 10
82.77530922409784
 20
-122.3298285284453
 30
0.0
 10
82.77530922409784
 20
-122.3298285284453
 30
0.0
 10
82.53845890948692
 20
-122.3298285284453
 30
0.0
 10
82.53845890948692
 20
-122.3298285284453
 30
0.0
 10
82.5637803613035
 20
-122.0209757181927
 30
0.0
 10
82.75636119892897
 20
-121.5026611024368
 30
0.0
 10
83.16253795663992
 20
-120.9970933399764
 30
0.0
 10
83.16253795663992
 20
-120.9970933399764
 30
0.0
 10
82.32469073462717
 20
-120.9970933399764
 30
0.0
 10
82.32469073462717
 20
-120.9970933399764
 30
0.0
 10
82.32469073462717
 20
-120.9970933399764
 30
0.0
 10
82.32469073462717
 20
-120.7855644771821
 30
0.0
 10
82.32469073462717
 20
-120.7855644771821
 30
0.0
 10
82.32469073462717
 20
-120.7855644771821
 30
0.0
 10
83.39938827125086
 20
-120.7855644771821
 30
0.0
 10
83.39938827125086
 20
-120.7855644771821
 30
0.0
 10
83.39938827125086
 20
-120.7855644771821
 30
0.0
 10
83.39938827125086
 20
-120.9970933399764
 30
0.0
 10
83.39938827125086
 20
-120.9970933399764
 30
0.0
 10
83.07572155041163
 20
-121.2868258702859
 30
0.0
 10
82.80924341462756
 20
-121.8792100389746
 30
0.0
 10
82.77530922409784
 20
-122.3298285284453
 30
0.0
  0
HATCH
  5
B6
330
AD
100
AcDbEntity
  8
_U+30EC_U+30A4_U+30E4_U+30FC 1
 62
   179
420
  2234388
100
AcDbHatch
 10
0.0
 20
0.0
 30
0.0
210
0.0
220
0.0
230
1.0
  2
SOLID
 70
     1
 71
     0
 91
        1
 92
        1
 93
        1
 72
     4
 94
        3
 73
     0
 74
     1
 95
       26
 96
       22
 40
0.0
 40
0.0
 40
0.0
 40
0.0
 40
1.0
 40
1.0
 40
1.0
 40
2.0
 40
2.0
 40
2.0
 40
3.0
 40
3.0
 40
3.0
 40
4.0
 40
4.0
 40
4.0
 40
5.0
 40
5.0
 40
5.0
 40
6.0
 40
6.0
 40
6.0
 40
7.0
 40
7.0
 40
7.0
 40
7.0
 10
82.77530922409784
 20
-122.3298285284453
 10
82.77530922409784
 20
-122.3298285284453
 10
82.53845890948692
 20
-122.3298285284453
 10
82.53845890948692
 20
-122.3298285284453
 10
82.5637803613035
 20
-122.0209757181927
 10
82.75636119892897
 20
-121.5026611024368
 10
83.16253795663992
 20
-120.9970933399764
 10
83.16253795663992
 20
-120.9970933399764
 10
82.32469073462717
 20
-120.9970933399764
 10
82.32469073462717
 20
-120.9970933399764
 10
82.32469073462717
 20
-120.9970933399764
 10
82.32469073462717
 20
-120.7855644771821
 10
82.32469073462717
 20
-120.7855644771821
 10
82.32469073462717
 20
-120.7855644771821
 10
83.39938827125086
 20
-120.7855644771821
 10
83.39938827125086
 20
-120.7855644771821
 10
83.39938827125086
 20
-120.7855644771821
 10
83.39938827125086
 20
-120.9970933399764
 10
83.39938827125086
 20
-120.9970933399764
 10
83.07572155041163
 20
-121.2868258702859
 10
82.80924341462756
 20
-121.8792100389746
 10
82.77530922409784
 20
-122.3298285284453
 97
        0
 97
        0
 75
     2
 76
     1
 98
        0
  0
POLYLINE
  5
B7
330
AD
100
AcDbEntity
  8
_U+30EC_U+30A4_U+30E4_U+30FC 1
370
     0
100
AcDb2dPolyline
 66
     1
 10
0.0
 20
0.0
 30
0.0
  0
VERTEX
  5
B8
330
B7
100
AcDbEntity
  8
_U+30EC_U+30A4_U+30E4_U+30FC 1
370
     0
100
AcDbVertex
100
AcDb2dVertex
 10
83.60109861191224
 20
-122.3298285284453
 30
0.0
  0
VERTEX
  5
B9
330
B7
100
AcDbEntity
  8
_U+30EC_U+30A4_U+30E4_U+30FC 1
370
     0
100
AcDbVertex
100
AcDb2dVertex
 10
83.60109861191224
 20
-122.0781643032478
 30
0.0
  0
VERTEX
  5
BA
330
B7
100
AcDbEntity
  8
_U+30EC_U+30A4_U+30E4_U+30FC 1
370
     0
100
AcDbVertex
100
AcDb2dVertex
 10
83.85276283710974
 20
-122.0781643032478
 30
0.0
  0
VERTEX
  5
BB
330
B7
100
AcDbEntity
  8
_U+30EC_U+30A4_U+30E4_U+30FC 1
370
     0
100
AcDbVertex
100
AcDb2dVertex
 10
83.85276283710974
 20
-122.3298285284453
 30
0.0
  0
VERTEX
  5
BC
330
B7
100
AcDbEntity
  8
_U+30EC_U+30A4_U+30E4_U+30FC 1
370
     0
100
AcDbVertex
100
AcDb2dVertex
 10
83.60109861191224
 20
-122.3298285284453
 30
0.0
  0
SEQEND
  5
BD
330
B7
100
AcDbEntity
  8
_U+30EC_U+30A4_U+30E4_U+30FC 1
370
     0
  0
HATCH
  5
BE
330
AD
100
AcDbEntity
  8
_U+30EC_U+30A4_U+30E4_U+30FC 1
 62
   179
420
  2234388
100
AcDbHatch
 10
0.0
 20
0.0
 30
0.0
210
0.0
220
0.0
230
1.0
  2
SOLID
 70
     1
 71
     0
 91
        1
 92
        1
 93
        4
 72
     1
 10
83.60109861191224
 20
-122.3298285284453
 11
83.60109861191224
 21
-122.0781643032478
 72
     1
 10
83.60109861191224
 20
-122.0781643032478
 11
83.85276283710974
 21
-122.0781643032478
 72
     1
 10
83.85276283710974
 20
-122.0781643032478
 11
83.85276283710974
 21
-122.3298285284453
 72
     1
 10
83.85276283710974
 20
-122.3298285284453
 11
83.60109861191224
 21
-122.3298285284453
 97
        0
 75
     2
 76
     1
 98
        0
  0
SPLINE
  5
BF
330
AD
100
AcDbEntity
  8
_U+30EC_U+30A4_U+30E4_U+30FC 1
370
     0
100
AcDbSpline
210
0.0
220
0.0
230
1.0
 70
    11
 71
     3
 72
    53
 73
    49
 74
     0
 42
0.0000000001
 43
0.0000000001
 12
1.0
 22
0.0
 32
0.0
 13
1.0
 23
0.0
 33
0.0
 40
0.0
 40
0.0
 40
0.0
 40
0.0
 40
1.0
 40
1.0
 40
1.0
 40
2.0
 40
2.0
 40
2.0
 40
3.0
 40
3.0
 40
3.0
 40
4.0
 40
4.0
 40
4.0
 40
5.0
 40
5.0
 40
5.0
 40
6.0
 40
6.0
 40
6.0
 40
7.0
 40
7.0
 40
7.0
 40
8.0
 40
8.0
 40
8.0
 40
9.0
 40
9.0
 40
9.0
 40
10.0
 40
10.0
 40
10.0
 40
11.0
 40
11.0
 40
11.0
 40
12.0
 40
12.0
 40
12.0
 40
13.0
 40
13.0
 40
13.0
 40
14.0
 40
14.0
 40
14.0
 40
15.0
 40
15.0
 40
15.0
 40
16.0
 40
16.0
 40
16.0
 40
16.0
 10
84.570203971913
 20
-122.3806436868528
 30
0.0
 10
84.49200030439783
 20
-122.3806436868528
 30
0.0
 10
84.39036998758297
 20
-122.3635904642008
 30
0.0
 10
84.28891192554237
 20
-122.3002007072722
 30
0.0
 10
84.11545136786003
 20
-122.1901299065185
 30
0.0
 10
84.09426403062574
 20
-122.0590440233047
 30
0.0
 10
84.07514375068261
 20
-121.9512125346164
 30
0.0
 10
84.07514375068261
 20
-121.9512125346164
 30
0.0
 10
84.29735240948122
 20
-121.9512125346164
 30
0.0
 10
84.29735240948122
 20
-121.9512125346164
 30
0.0
 10
84.35230168247095
 20
-122.1499945441153
 30
0.0
 10
84.47925345110241
 20
-122.1796223652884
 30
0.0
 10
84.57227102920416
 20
-122.1796223652884
 30
0.0
 10
84.71196965113104
 20
-122.1796223652884
 30
0.0
 10
84.86424287157908
 20
-122.080231360539
 30
0.0
 10
84.86424287157908
 20
-121.8475151605104
 30
0.0
 10
84.86424287157908
 20
-121.5915445659563
 30
0.0
 10
84.68440888724903
 20
-121.52178138238
 30
0.0
 10
84.56383054526529
 20
-121.52178138238
 30
0.0
 10
84.532135666801
 20
-121.52178138238
 30
0.0
 10
84.39036998758297
 20
-121.52178138238
 30
0.0
 10
84.30148652406352
 20
-121.6508002083026
 30
0.0
 10
84.30148652406352
 20
-121.6508002083026
 30
0.0
 10
84.12595890909004
 20
-121.6316799283594
 30
0.0
 10
84.12595890909004
 20
-121.6316799283594
 30
0.0
 10
84.12595890909004
 20
-121.6316799283594
 30
0.0
 10
84.24653725107379
 20
-120.7855644771821
 30
0.0
 10
84.24653725107379
 20
-120.7855644771821
 30
0.0
 10
84.24653725107379
 20
-120.7855644771821
 30
0.0
 10
85.02512883074024
 20
-120.7855644771821
 30
0.0
 10
85.02512883074024
 20
-120.7855644771821
 30
0.0
 10
85.02512883074024
 20
-120.7855644771821
 30
0.0
 10
85.02512883074024
 20
-120.9802123720987
 30
0.0
 10
85.02512883074024
 20
-120.9802123720987
 30
0.0
 10
85.02512883074024
 20
-120.9802123720987
 30
0.0
 10
84.40949026752611
 20
-120.9802123720987
 30
0.0
 10
84.40949026752611
 20
-120.9802123720987
 30
0.0
 10
84.40949026752611
 20
-120.9802123720987
 30
0.0
 10
84.3438611985321
 20
-121.4032700976874
 30
0.0
 10
84.3438611985321
 20
-121.4032700976874
 30
0.0
 10
84.40518389816954
 20
-121.3693359071577
 30
0.0
 10
84.48769393504128
 20
-121.3292005447545
 30
0.0
 10
84.60620521973387
 20
-121.3292005447545
 30
0.0
 10
84.86010875699678
 20
-121.3292005447545
 30
0.0
 10
85.09695907160771
 20
-121.5154079557323
 30
0.0
 10
85.09695907160771
 20
-121.8283948805672
 30
0.0
 10
85.09695907160771
 20
-122.145860429533
 30
0.0
 10
84.87268335551795
 20
-122.3806436868528
 30
0.0
 10
84.570203971913
 20
-122.3806436868528
 30
0.0
  0
HATCH
  5
C0
330
AD
100
AcDbEntity
  8
_U+30EC_U+30A4_U+30E4_U+30FC 1
 62
   179
420
  2234388
100
AcDbHatch
 10
0.0
 20
0.0
 30
0.0
210
0.0
220
0.0
230
1.0
  2
SOLID
 70
     1
 71
     0
 91
        1
 92
        1
 93
        1
 72
     4
 94
        3
 73
     0
 74
     1
 95
       53
 96
       49
 40
0.0
 40
0.0
 40
0.0
 40
0.0
 40
1.0
 40
1.0
 40
1.0
 40
2.0
 40
2.0
 40
2.0
 40
3.0
 40
3.0
 40
3.0
 40
4.0
 40
4.0
 40
4.0
 40
5.0
 40
5.0
 40
5.0
 40
6.0
 40
6.0
 40
6.0
 40
7.0
 40
7.0
 40
7.0
 40
8.0
 40
8.0
 40
8.0
 40
9.0
 40
9.0
 40
9.0
 40
10.0
 40
10.0
 40
10.0
 40
11.0
 40
11.0
 40
11.0
 40
12.0
 40
12.0
 40
12.0
 40
13.0
 40
13.0
 40
13.0
 40
14.0
 40
14.0
 40
14.0
 40
15.0
 40
15.0
 40
15.0
 40
16.0
 40
16.0
 40
16.0
 40
16.0
 10
84.570203971913
 20
-122.3806436868528
 10
84.49200030439783
 20
-122.3806436868528
 10
84.39036998758297
 20
-122.3635904642008
 10
84.28891192554237
 20
-122.3002007072722
 10
84.11545136786003
 20
-122.1901299065185
 10
84.09426403062574
 20
-122.0590440233047
 10
84.07514375068261
 20
-121.9512125346164
 10
84.07514375068261
 20
-121.9512125346164
 10
84.29735240948122
 20
-121.9512125346164
 10
84.29735240948122
 20
-121.9512125346164
 10
84.35230168247095
 20
-122.1499945441153
 10
84.47925345110241
 20
-122.1796223652884
 10
84.57227102920416
 20
-122.1796223652884
 10
84.71196965113104
 20
-122.1796223652884
 10
84.86424287157908
 20
-122.080231360539
 10
84.86424287157908
 20
-121.8475151605104
 10
84.86424287157908
 20
-121.5915445659563
 10
84.68440888724903
 20
-121.52178138238
 10
84.56383054526529
 20
-121.52178138238
 10
84.532135666801
 20
-121.52178138238
 10
84.39036998758297
 20
-121.52178138238
 10
84.30148652406352
 20
-121.6508002083026
 10
84.30148652406352
 20
-121.6508002083026
 10
84.12595890909004
 20
-121.6316799283594
 10
84.12595890909004
 20
-121.6316799283594
 10
84.12595890909004
 20
-121.6316799283594
 10
84.24653725107379
 20
-120.7855644771821
 10
84.24653725107379
 20
-120.7855644771821
 10
84.24653725107379
 20
-120.7855644771821
 10
85.02512883074024
 20
-120.7855644771821
 10
85.02512883074024
 20
-120.7855644771821
 10
85.02512883074024
 20
-120.7855644771821
 10
85.02512883074024
 20
-120.9802123720987
 10
85.02512883074024
 20
-120.9802123720987
 10
85.02512883074024
 20
-120.9802123720987
 10
84.40949026752611
 20
-120.9802123720987
 10
84.40949026752611
 20
-120.9802123720987
 10
84.40949026752611
 20
-120.9802123720987
 10
84.3438611985321
 20
-121.4032700976874
 10
84.3438611985321
 20
-121.4032700976874
 10
84.40518389816954
 20
-121.3693359071577
 10
84.48769393504128
 20
-121.3292005447545
 10
84.60620521973387
 20
-121.3292005447545
 10
84.86010875699678
 20
-121.3292005447545
 10
85.09695907160771
 20
-121.5154079557323
 10
85.09695907160771
 20
-121.8283948805672
 10
85.09695907160771
 20
-122.145860429533
 10
84.87268335551795
 20
-122.3806436868528
 10
84.570203971913
 20
-122.3806436868528
 97
        0
 97
        0
 75
     2
 76
     1
 98
        0
  0
ENDBLK
  5
B0
330
AD
100
AcDbEntity
  8
0
100
AcDbBlockEnd
  0
ENDSEC
  0
SECTION
  2
ENTITIES
  0
INSERT
  5
42
330
1F
100
AcDbEntity
  8
_U+30EC_U+30A4_U+30E4_U+30FC 1
100
AcDbBlockReference
  2
block 2
 10
0.0
 20
0.0
 30
0.0
  0
ENDSEC
  0
SECTION
  2
OBJECTS
  0
DICTIONARY
  5
C
330
0
100
AcDbDictionary
281
     1
  3
ACAD_GROUP
350
D
  3
ACAD_LAYOUT
350
1A
  3
ACAD_MATERIAL
350
3B
  3
ACAD_MLEADERSTYLE
350
C2
  3
ACAD_MLINESTYLE
350
17
  3
ACAD_PLOTSETTINGS
350
19
  3
ACAD_PLOTSTYLENAME
350
E
  3
ACAD_TABLESTYLE
350
C1
  3
ACAD_VISUALSTYLE
350
2A
  0
SUN
  5
3F
330
29
100
AcDbSun
 90
        1
290
     0
 63
     7
421
 16777215
 40
1.0
291
     1
 91
  2455826
 92
 54000000
292
     0
 70
     2
 71
   256
280
     1
  0
DICTIONARY
  5
D
102
{ACAD_REACTORS
330
C
102
}
330
C
100
AcDbDictionary
281
     1
  0
DICTIONARY
  5
1A
102
{ACAD_REACTORS
330
C
102
}
330
C
100
AcDbDictionary
281
     1
  3
Layout1
350
1E
  3
Layout2
350
26
  3
Model
350
22
  0
DICTIONARY
  5
3B
102
{ACAD_REACTORS
330
C
102
}
330
C
100
AcDbDictionary
281
     1
  3
ByBlock
350
3D
  3
ByLayer
350
3C
  3
Global
350
3E
  0
DICTIONARY
  5
C2
102
{ACAD_REACTORS
330
C
102
}
330
C
100
AcDbDictionary
281
     1
  0
DICTIONARY
  5
17
102
{ACAD_REACTORS
330
C
102
}
330
C
100
AcDbDictionary
281
     1
  3
Standard
350
18
  0
DICTIONARY
  5
19
102
{ACAD_REACTORS
330
C
102
}
330
C
100
AcDbDictionary
281
     1
  0
ACDBDICTIONARYWDFLT
  5
E
102
{ACAD_REACTORS
330
C
102
}
330
C
100
AcDbDictionary
281
     1
  3
Normal
350
F
100
AcDbDictionaryWithDefault
340
F
  0
DICTIONARY
  5
C1
102
{ACAD_REACTORS
330
C
102
}
330
C
100
AcDbDictionary
281
     1
  0
DICTIONARY
  5
2A
102
{ACAD_REACTORS
330
C
102
}
330
C
100
AcDbDictionary
281
     1
  3
2dWireframe
350
2F
  3
3D Hidden
350
31
  3
3dWireframe
350
30
  3
Basic
350
32
  3
Brighten
350
36
  3
ColorChange
350
3A
  3
Conceptual
350
34
  3
Dim
350
35
  3
Facepattern
350
39
  3
Flat
350
2B
  3
FlatWithEdges
350
2C
  3
Gouraud
350
2D
  3
GouraudWithEdges
350
2E
  3
Linepattern
350
38
  3
Realistic
350
33
  3
Thicken
350
37
  0
LAYOUT
  5
1E
102
{ACAD_REACTORS
330
1A
102
}
330
1A
100
AcDbPlotSettings
  1

  2
none_device
  4

  6

 40
0.0
 41
0.0
 42
0.0
 43
0.0
 44
0.0
 45
0.0
 46
0.0
 47
0.0
 48
0.0
 49
0.0
140
0.0
141
0.0
142
1.0
143
1.0
 70
   688
 72
     0
 73
     0
 74
     5
  7

 75
    16
 76
     0
 77
     2
 78
   300
147
1.0
148
0.0
149
0.0
100
AcDbLayout
  1
Layout1
 70
     1
 71
     1
 10
0.0
 20
0.0
 11
12.0
 21
9.0
 12
0.0
 22
0.0
 32
0.0
 14
1.000000000000000E+20
 24
1.000000000000000E+20
 34
1.000000000000000E+20
 15
-1.000000000000000E+20
 25
-1.000000000000000E+20
 35
-1.000000000000000E+20
146
0.0
 13
0.0
 23
0.0
 33
0.0
 16
1.0
 26
0.0
 36
0.0
 17
0.0
 27
1.0
 37
0.0
 76
     0
330
1B
  0
LAYOUT
  5
26
102
{ACAD_REACTORS
330
1A
102
}
330
1A
100
AcDbPlotSettings
  1

  2
none_device
  4

  6

 40
0.0
 41
0.0
 42
0.0
 43
0.0
 44
0.0
 45
0.0
 46
0.0
 47
0.0
 48
0.0
 49
0.0
140
0.0
141
0.0
142
1.0
143
1.0
 70
   688
 72
     0
 73
     0
 74
     5
  7

 75
    16
 76
     0
 77
     2
 78
   300
147
1.0
148
0.0
149
0.0
100
AcDbLayout
  1
Layout2
 70
     1
 71
     2
 10
0.0
 20
0.0
 11
0.0
 21
0.0
 12
0.0
 22
0.0
 32
0.0
 14
0.0
 24
0.0
 34
0.0
 15
0.0
 25
0.0
 35
0.0
146
0.0
 13
0.0
 23
0.0
 33
0.0
 16
1.0
 26
0.0
 36
0.0
 17
0.0
 27
1.0
 37
0.0
 76
     0
330
23
  0
LAYOUT
  5
22
102
{ACAD_REACTORS
330
1A
102
}
330
1A
100
AcDbPlotSettings
  1

  2
none_device
  4

  6

 40
0.0
 41
0.0
 42
0.0
 43
0.0
 44
0.0
 45
0.0
 46
0.0
 47
0.0
 48
0.0
 49
0.0
140
0.0
141
0.0
142
1.0
143
1.0
 70
  1712
 72
     0
 73
     0
 74
     0
  7

 75
     0
 76
     0
 77
     2
 78
   300
147
1.0
148
0.0
149
0.0
100
AcDbLayout
  1
Model
 70
     1
 71
     0
 10
0.0
 20
0.0
 11
12.0
 21
9.0
 12
0.0
 22
0.0
 32
0.0
 14
1.000000000000000E+20
 24
1.000000000000000E+20
 34
1.000000000000000E+20
 15
-1.000000000000000E+20
 25
-1.000000000000000E+20
 35
-1.000000000000000E+20
146
0.0
 13
0.0
 23
0.0
 33
0.0
 16
1.0
 26
0.0
 36
0.0
 17
0.0
 27
1.0
 37
0.0
 76
     0
330
1F
331
29
  0
MATERIAL
  5
3D
102
{ACAD_REACTORS
330
3B
102
}
330
3B
100
AcDbMaterial
  1
ByBlock
 72
     1
 94
      127
  0
MATERIAL
  5
3C
102
{ACAD_REACTORS
330
3B
102
}
330
3B
100
AcDbMaterial
  1
ByLayer
 72
     1
 94
      127
  0
MATERIAL
  5
3E
102
{ACAD_REACTORS
330
3B
102
}
330
3B
100
AcDbMaterial
  1
Global
 72
     1
 94
      127
  0
MLINESTYLE
  5
18
102
{ACAD_REACTORS
330
17
102
}
330
17
100
AcDbMlineStyle
  2
Standard
 70
     0
  3

 62
   256
 51
90.0
 52
90.0
 71
     2
 49
0.5
 62
   256
  6
BYLAYER
 49
-0.5
 62
   256
  6
BYLAYER
  0
ACDBPLACEHOLDER
  5
F
102
{ACAD_REACTORS
330
E
102
}
330
E
  0
VISUALSTYLE
  5
2F
102
{ACAD_REACTORS
330
2A
102
}
330
2A
100
AcDbVisualStyle
  2
2dWireframe
 70
     4
177
     2
291
     0
 71
     0
176
     1
 72
     2
176
     1
 73
     0
176
     1
 90
        0
176
     1
 40
-0.6
176
     1
 41
-30.0
176
     1
 62
     5
 63
     7
421
 16777215
176
     1
 74
     1
176
     1
 91
        4
176
     1
 64
     7
176
     1
 65
   257
176
     1
 75
     1
176
     1
175
     1
176
     1
 42
1.0
176
     1
 92
        0
176
     1
 66
   257
176
     1
 43
1.0
176
     1
 76
     1
176
     1
 77
     6
176
     1
 78
     2
176
     1
 67
     7
176
     1
 79
     5
176
     1
170
     0
176
     1
171
     0
176
     1
290
     0
176
     1
 93
        1
176
     1
 44
0.0
176
     1
173
     0
176
     1
  0
VISUALSTYLE
  5
31
102
{ACAD_REACTORS
330
2A
102
}
330
2A
100
AcDbVisualStyle
  2
3D Hidden
 70
     6
177
     2
291
     0
 71
     1
176
     1
 72
     2
176
     1
 73
     2
176
     1
 90
        0
176
     1
 40
-0.6
176
     1
 41
-30.0
176
     1
 62
     5
 63
     7
421
 16777215
176
     1
 74
     2
176
     1
 91
        2
176
     1
 64
     7
176
     1
 65
   257
176
     1
 75
     2
176
     1
175
     1
176
     1
 42
40.0
176
     1
 92
        0
176
     1
 66
   257
176
     1
 43
1.0
176
     1
 76
     1
176
     1
 77
     6
176
     1
 78
     2
176
     1
 67
     7
176
     1
 79
     3
176
     1
170
     0
176
     1
171
     0
176
     1
290
     0
176
     1
 93
        1
176
     1
 44
0.0
176
     1
173
     0
176
     1
  0
VISUALSTYLE
  5
30
102
{ACAD_REACTORS
330
2A
102
}
330
2A
100
AcDbVisualStyle
  2
3dWireframe
 70
     5
177
     2
291
     0
 71
     0
176
     1
 72
     2
176
     1
 73
     0
176
     1
 90
        0
176
     1
 40
-0.6
176
     1
 41
-30.0
176
     1
 62
     5
 63
     7
421
 16777215
176
     1
 74
     1
176
     1
 91
        4
176
     1
 64
     7
176
     1
 65
   257
176
     1
 75
     1
176
     1
175
     1
176
     1
 42
1.0
176
     1
 92
        0
176
     1
 66
   257
176
     1
 43
1.0
176
     1
 76
     1
176
     1
 77
     6
176
     1
 78
     2
176
     1
 67
     7
176
     1
 79
     5
176
     1
170
     0
176
     1
171
     0
176
     1
290
     0
176
     1
 93
        1
176
     1
 44
0.0
176
     1
173
     0
176
     1
  0
VISUALSTYLE
  5
32
102
{ACAD_REACTORS
330
2A
102
}
330
2A
100
AcDbVisualStyle
  2
Basic
 70
     7
177
     2
291
     1
 71
     1
176
     1
 72
     0
176
     1
 73
     1
176
     1
 90
        0
176
     1
 40
-0.6
176
     1
 41
-30.0
176
     1
 62
     5
 63
     7
421
 16777215
176
     1
 74
     0
176
     1
 91
        4
176
     1
 64
     7
176
     1
 65
   257
176
     1
 75
     1
176
     1
175
     1
176
     1
 42
1.0
176
     1
 92
        8
176
     1
 66
     7
176
     1
 43
1.0
176
     1
 76
     1
176
     1
 77
     6
176
     1
 78
     2
176
     1
 67
     7
176
     1
 79
     5
176
     1
170
     0
176
     1
171
     0
176
     1
290
     0
176
     1
 93
        1
176
     1
 44
0.0
176
     1
173
     0
176
     1
  0
VISUALSTYLE
  5
36
102
{ACAD_REACTORS
330
2A
102
}
330
2A
100
AcDbVisualStyle
  2
Brighten
 70
    12
177
     2
291
     1
 71
     2
176
     1
 72
     2
176
     1
 73
     0
176
     1
 90
        0
176
     1
 40
-0.6
176
     1
 41
-30.0
176
     1
 62
     5
 63
     7
421
 16777215
176
     1
 74
     1
176
     1
 91
        4
176
     1
 64
     7
176
     1
 65
   257
176
     1
 75
     1
176
     1
175
     1
176
     1
 42
1.0
176
     1
 92
        8
176
     1
 66
     7
176
     1
 43
1.0
176
     1
 76
     1
176
     1
 77
     6
176
     1
 78
     2
176
     1
 67
     7
176
     1
 79
     5
176
     1
170
     0
176
     1
171
     0
176
     1
290
     0
176
     1
 93
        1
176
     1
 44
50.0
176
     1
173
     0
176
     1
  0
VISUALSTYLE
  5
3A
102
{ACAD_REACTORS
330
2A
102
}
330
2A
100
AcDbVisualStyle
  2
ColorChange
 70
    16
177
     2
291
     1
 71
     2
176
     1
 72
     2
176
     1
 73
     3
176
     1
 90
        0
176
     1
 40
-0.6
176
     1
 41
-30.0
176
     1
 62
     5
 63
     8
421
  8421504
176
     1
 74
     1
176
     1
 91
        4
176
     1
 64
     7
176
     1
 65
   257
176
     1
 75
     1
176
     1
175
     1
176
     1
 42
1.0
176
     1
 92
        8
176
     1
 66
     8
424
  8421504
176
     1
 43
1.0
176
     1
 76
     1
176
     1
 77
     6
176
     1
 78
     2
176
     1
 67
     7
176
     1
 79
     5
176
     1
170
     0
176
     1
171
     0
176
     1
290
     0
176
     1
 93
        1
176
     1
 44
0.0
176
     1
173
     0
176
     1
  0
VISUALSTYLE
  5
34
102
{ACAD_REACTORS
330
2A
102
}
330
2A
100
AcDbVisualStyle
  2
Conceptual
 70
     9
177
     2
291
     0
 71
     3
176
     1
 72
     2
176
     1
 73
     0
176
     1
 90
        0
176
     1
 40
-0.6
176
     1
 41
-30.0
176
     1
 62
     5
 63
     7
421
 16777215
176
     1
 74
     2
176
     1
 91
        2
176
     1
 64
     7
176
     1
 65
   257
176
     1
 75
     1
176
     1
175
     1
176
     1
 42
40.0
176
     1
 92
        8
176
     1
 66
     7
176
     1
 43
1.0
176
     1
 76
     1
176
     1
 77
     6
176
     1
 78
     2
176
     1
 67
     7
176
     1
 79
     3
176
     1
170
     0
176
     1
171
     0
176
     1
290
     0
176
     1
 93
        1
176
     1
 44
0.0
176
     1
173
     0
176
     1
  0
VISUALSTYLE
  5
35
102
{ACAD_REACTORS
330
2A
102
}
330
2A
100
AcDbVisualStyle
  2
Dim
 70
    11
177
     2
291
     1
 71
     2
176
     1
 72
     2
176
     1
 73
     0
176
     1
 90
        0
176
     1
 40
-0.6
176
     1
 41
-30.0
176
     1
 62
     5
 63
     7
421
 16777215
176
     1
 74
     1
176
     1
 91
        4
176
     1
 64
     7
176
     1
 65
   257
176
     1
 75
     1
176
     1
175
     1
176
     1
 42
1.0
176
     1
 92
        8
176
     1
 66
     7
176
     1
 43
1.0
176
     1
 76
     1
176
     1
 77
     6
176
     1
 78
     2
176
     1
 67
     7
176
     1
 79
     5
176
     1
170
     0
176
     1
171
     0
176
     1
290
     0
176
     1
 93
        1
176
     1
 44
-50.0
176
     1
173
     0
176
     1
  0
VISUALSTYLE
  5
39
102
{ACAD_REACTORS
330
2A
102
}
330
2A
100
AcDbVisualStyle
  2
Facepattern
 70
    15
177
     2
291
     1
 71
     2
176
     1
 72
     2
176
     1
 73
     0
176
     1
 90
        0
176
     1
 40
-0.6
176
     1
 41
-30.0
176
     1
 62
     5
 63
     7
421
 16777215
176
     1
 74
     1
176
     1
 91
        4
176
     1
 64
     7
176
     1
 65
   257
176
     1
 75
     1
176
     1
175
     1
176
     1
 42
1.0
176
     1
 92
        8
176
     1
 66
     7
176
     1
 43
1.0
176
     1
 76
     1
176
     1
 77
     6
176
     1
 78
     2
176
     1
 67
     7
176
     1
 79
     5
176
     1
170
     0
176
     1
171
     0
176
     1
290
     0
176
     1
 93
        1
176
     1
 44
0.0
176
     1
173
     0
176
     1
  0
VISUALSTYLE
  5
2B
102
{ACAD_REACTORS
330
2A
102
}
330
2A
100
AcDbVisualStyle
  2
Flat
 70
     0
177
     2
291
     1
 71
     2
176
     1
 72
     1
176
     1
 73
     1
176
     1
 90
        2
176
     1
 40
-0.6
176
     1
 41
30.0
176
     1
 62
     5
 63
     7
421
 16777215
176
     1
 74
     0
176
     1
 91
        4
176
     1
 64
     7
176
     1
 65
   257
176
     1
 75
     1
176
     1
175
     1
176
     1
 42
1.0
176
     1
 92
        8
176
     1
 66
     7
176
     1
 43
1.0
176
     1
 76
     1
176
     1
 77
     6
176
     1
 78
     2
176
     1
 67
     7
176
     1
 79
     5
176
     1
170
     0
176
     1
171
     0
176
     1
290
     0
176
     1
 93
       13
176
     1
 44
0.0
176
     1
173
     0
176
     1
  0
VISUALSTYLE
  5
2C
102
{ACAD_REACTORS
330
2A
102
}
330
2A
100
AcDbVisualStyle
  2
FlatWithEdges
 70
     1
177
     2
291
     1
 71
     2
176
     1
 72
     1
176
     1
 73
     1
176
     1
 90
        2
176
     1
 40
-0.6
176
     1
 41
30.0
176
     1
 62
     5
 63
     7
421
 16777215
176
     1
 74
     1
176
     1
 91
        4
176
     1
 64
     7
176
     1
 65
   257
176
     1
 75
     1
176
     1
175
     1
176
     1
 42
1.0
176
     1
 92
        0
176
     1
 66
   257
176
     1
 43
1.0
176
     1
 76
     1
176
     1
 77
     6
176
     1
 78
     2
176
     1
 67
     7
176
     1
 79
     5
176
     1
170
     0
176
     1
171
     0
176
     1
290
     0
176
     1
 93
       13
176
     1
 44
0.0
176
     1
173
     0
176
     1
  0
VISUALSTYLE
  5
2D
102
{ACAD_REACTORS
330
2A
102
}
330
2A
100
AcDbVisualStyle
  2
Gouraud
 70
     2
177
     2
291
     1
 71
     2
176
     1
 72
     2
176
     1
 73
     1
176
     1
 90
        2
176
     1
 40
-0.6
176
     1
 41
30.0
176
     1
 62
     5
 63
     7
421
 16777215
176
     1
 74
     0
176
     1
 91
        4
176
     1
 64
     7
176
     1
 65
   257
176
     1
 75
     1
176
     1
175
     1
176
     1
 42
1.0
176
     1
 92
        0
176
     1
 66
     7
176
     1
 43
1.0
176
     1
 76
     1
176
     1
 77
     6
176
     1
 78
     2
176
     1
 67
     7
176
     1
 79
     5
176
     1
170
     0
176
     1
171
     0
176
     1
290
     0
176
     1
 93
       13
176
     1
 44
0.0
176
     1
173
     0
176
     1
  0
VISUALSTYLE
  5
2E
102
{ACAD_REACTORS
330
2A
102
}
330
2A
100
AcDbVisualStyle
  2
GouraudWithEdges
 70
     3
177
     2
291
     1
 71
     2
176
     1
 72
     2
176
     1
 73
     1
176
     1
 90
        2
176
     1
 40
-0.6
176
     1
 41
30.0
176
     1
 62
     5
 63
     7
421
 16777215
176
     1
 74
     1
176
     1
 91
        4
176
     1
 64
     7
176
     1
 65
   257
176
     1
 75
     1
176
     1
175
     1
176
     1
 42
1.0
176
     1
 92
        0
176
     1
 66
   257
176
     1
 43
1.0
176
     1
 76
     1
176
     1
 77
     6
176
     1
 78
     2
176
     1
 67
     7
176
     1
 79
     5
176
     1
170
     0
176
     1
171
     0
176
     1
290
     0
176
     1
 93
       13
176
     1
 44
0.0
176
     1
173
     0
176
     1
  0
VISUALSTYLE
  5
38
102
{ACAD_REACTORS
330
2A
102
}
330
2A
100
AcDbVisualStyle
  2
Linepattern
 70
    14
177
     2
291
     1
 71
     2
176
     1
 72
     2
176
     1
 73
     0
176
     1
 90
        0
176
     1
 40
-0.6
176
     1
 41
-30.0
176
     1
 62
     5
 63
     7
421
 16777215
176
     1
 74
     1
176
     1
 91
        4
176
     1
 64
     7
176
     1
 65
   257
176
     1
 75
     7
176
     1
175
     7
176
     1
 42
1.0
176
     1
 92
        8
176
     1
 66
     7
176
     1
 43
1.0
176
     1
 76
     1
176
     1
 77
     6
176
     1
 78
     2
176
     1
 67
     7
176
     1
 79
     5
176
     1
170
     0
176
     1
171
     0
176
     1
290
     0
176
     1
 93
        1
176
     1
 44
0.0
176
     1
173
     0
176
     1
  0
VISUALSTYLE
  5
33
102
{ACAD_REACTORS
330
2A
102
}
330
2A
100
AcDbVisualStyle
  2
Realistic
 70
     8
177
     2
291
     0
 71
     2
176
     1
 72
     2
176
     1
 73
     0
176
     1
 90
        0
176
     1
 40
-0.6
176
     1
 41
-30.0
176
     1
 62
     5
 63
     7
421
 16777215
176
     1
 74
     1
176
     1
 91
        0
176
     1
 64
     7
176
     1
 65
   257
176
     1
 75
     1
176
     1
175
     1
176
     1
 42
1.0
176
     1
 92
        8
176
     1
 66
     8
424
  7895160
176
     1
 43
1.0
176
     1
 76
     1
176
     1
 77
     6
176
     1
 78
     2
176
     1
 67
     7
176
     1
 79
     5
176
     1
170
     0
176
     1
171
     0
176
     1
290
     0
176
     1
 93
       13
176
     1
 44
0.0
176
     1
173
     0
176
     1
  0
VISUALSTYLE
  5
37
102
{ACAD_REACTORS
330
2A
102
}
330
2A
100
AcDbVisualStyle
  2
Thicken
 70
    13
177
     2
291
     1
 71
     2
176
     1
 72
     2
176
     1
 73
     0
176
     1
 90
        0
176
     1
 40
-0.6
176
     1
 41
-30.0
176
     1
 62
     5
 63
     7
421
 16777215
176
     1
 74
     1
176
     1
 91
        4
176
     1
 64
     7
176
     1
 65
   257
176
     1
 75
     1
176
     1
175
     1
176
     1
 42
1.0
176
     1
 92
       12
176
     1
 66
     7
176
     1
 43
1.0
176
     1
 76
     1
176
     1
 77
     6
176
     1
 78
     2
176
     1
 67
     7
176
     1
 79
     5
176
     1
170
     0
176
     1
171
     0
176
     1
290
     0
176
     1
 93
        1
176
     1
 44
0.0
176
     1
173
     0
176
     1
  0
ENDSEC
  0
EOF
