  0
SECTION
  2
HEADER
  9
$ACADVER
  1
AC1024
  9
$ACADMAINTVER
 70
     6
  9
$DWGCODEPAGE
  3
UNDEFINED
  9
$INSBASE
 10
0.0
 20
0.0
 30
0.0
  9
$EXTMIN
 10
1.000000000000000E+20
 20
1.000000000000000E+20
 30
1.000000000000000E+20
  9
$EXTMAX
 10
-1.000000000000000E+20
 20
-1.000000000000000E+20
 30
-1.000000000000000E+20
  9
$LIMMIN
 10
0.0
 20
0.0
  9
$LIMMAX
 10
12.0
 20
9.0
  9
$ORTHOMODE
 70
     0
  9
$REGENMODE
 70
     1
  9
$FILLMODE
 70
     1
  9
$QTEXTMODE
 70
     0
  9
$MIRRTEXT
 70
     1
  9
$LTSCALE
 40
1.0
  9
$ATTMODE
 70
     1
  9
$TEXTSIZE
 40
0.2
  9
$TRACEWID
 40
0.05
  9
$TEXTSTYLE
  7
Standard
  9
$CLAYER
  8
0
  9
$CELTYPE
  6
ByLayer
  9
$CECOLOR
 62
   256
  9
$CELTSCALE
 40
1.0
  9
$DISPSILH
 70
     0
  9
$DIMSCALE
 40
1.0
  9
$DIMASZ
 40
0.18
  9
$DIMEXO
 40
0.0625
  9
$DIMDLI
 40
0.38
  9
$DIMRND
 40
0.0
  9
$DIMDLE
 40
0.0
  9
$DIMEXE
 40
0.18
  9
$DIMTP
 40
0.0
  9
$DIMTM
 40
0.0
  9
$DIMTXT
 40
0.18
  9
$DIMCEN
 40
0.09
  9
$DIMTSZ
 40
0.0
  9
$DIMTOL
 70
     0
  9
$DIMLIM
 70
     0
  9
$DIMTIH
 70
     1
  9
$DIMTOH
 70
     1
  9
$DIMSE1
 70
     0
  9
$DIMSE2
 70
     0
  9
$DIMTAD
 70
     0
  9
$DIMZIN
 70
     0
  9
$DIMBLK
  1

  9
$DIMASO
 70
     1
  9
$DIMSHO
 70
     1
  9
$DIMPOST
  1

  9
$DIMAPOST
  1

  9
$DIMALT
 70
     0
  9
$DIMALTD
 70
     2
  9
$DIMALTF
 40
25.4
  9
$DIMLFAC
 40
1.0
  9
$DIMTOFL
 70
     0
  9
$DIMTVP
 40
0.0
  9
$DIMTIX
 70
     0
  9
$DIMSOXD
 70
     0
  9
$DIMSAH
 70
     0
  9
$DIMBLK1
  1

  9
$DIMBLK2
  1

  9
$DIMSTYLE
  2
Standard
  9
$DIMCLRD
 70
     0
  9
$DIMCLRE
 70
     0
  9
$DIMCLRT
 70
     0
  9
$DIMTFAC
 40
1.0
  9
$DIMGAP
 40
0.09
  9
$DIMJUST
 70
     0
  9
$DIMSD1
 70
     0
  9
$DIMSD2
 70
     0
  9
$DIMTOLJ
 70
     1
  9
$DIMTZIN
 70
     0
  9
$DIMALTZ
 70
     0
  9
$DIMALTTZ
 70
     0
  9
$DIMUPT
 70
     0
  9
$DIMDEC
 70
     4
  9
$DIMTDEC
 70
     4
  9
$DIMALTU
 70
     2
  9
$DIMALTTD
 70
     2
  9
$DIMTXSTY
  7
Standard
  9
$DIMAUNIT
 70
     0
  9
$DIMADEC
 70
     0
  9
$DIMALTRND
 40
0.0
  9
$DIMAZIN
 70
     0
  9
$DIMDSEP
 70
    46
  9
$DIMATFIT
 70
     3
  9
$DIMFRAC
 70
     0
  9
$DIMLDRBLK
  1

  9
$DIMLUNIT
 70
     2
  9
$DIMLWD
 70
    -2
  9
$DIMLWE
 70
    -2
  9
$DIMTMOVE
 70
     0
  9
$DIMFXL
 40
1.0
  9
$DIMFXLON
 70
     0
  9
$DIMJOGANG
 40
0.7853981633974483
  9
$DIMTFILL
 70
     0
  9
$DIMTFILLCLR
 70
     0
  9
$DIMARCSYM
 70
     0
  9
$DIMLTYPE
  6

  9
$DIMLTEX1
  6

  9
$DIMLTEX2
  6

  9
$DIMTXTDIRECTION
 70
     0
  9
$LUNITS
 70
     2
  9
$LUPREC
 70
     4
  9
$SKETCHINC
 40
0.1
  9
$FILLETRAD
 40
0.5
  9
$AUNITS
 70
     0
  9
$AUPREC
 70
     0
  9
$MENU
  1
.
  9
$ELEVATION
 40
0.0
  9
$PELEVATION
 40
0.0
  9
$THICKNESS
 40
0.0
  9
$LIMCHECK
 70
     0
  9
$CHAMFERA
 40
0.5
  9
$CHAMFERB
 40
0.5
  9
$CHAMFERC
 40
1.0
  9
$CHAMFERD
 40
0.0
  9
$SKPOLY
 70
     0
  9
$TDCREATE
 40
2457917.646284722
  9
$TDUCREATE
 40
2457917.271284722
  9
$TDUPDATE
 40
2457917.646284722
  9
$TDUUPDATE
 40
2457917.271284722
  9
$TDINDWG
 40
0.0000000116
  9
$TDUSRTIMER
 40
0.0000000116
  9
$USRTIMER
 70
     1
  9
$ANGBASE
 50
0.0
  9
$ANGDIR
 70
     0
  9
$PDMODE
 70
     0
  9
$PDSIZE
 40
0.0
  9
$PLINEWID
 40
0.0
  9
$SPLFRAME
 70
     0
  9
$SPLINETYPE
 70
     6
  9
$SPLINESEGS
 70
     8
  9
$HANDSEED
  5
FE
  9
$SURFTAB1
 70
     6
  9
$SURFTAB2
 70
     6
  9
$SURFTYPE
 70
     6
  9
$SURFU
 70
     6
  9
$SURFV
 70
     6
  9
$UCSBASE
  2

  9
$UCSNAME
  2

  9
$UCSORG
 10
0.0
 20
0.0
 30
0.0
  9
$UCSXDIR
 10
1.0
 20
0.0
 30
0.0
  9
$UCSYDIR
 10
0.0
 20
1.0
 30
0.0
  9
$UCSORTHOREF
  2

  9
$UCSORTHOVIEW
 70
     0
  9
$UCSORGTOP
 10
0.0
 20
0.0
 30
0.0
  9
$UCSORGBOTTOM
 10
0.0
 20
0.0
 30
0.0
  9
$UCSORGLEFT
 10
0.0
 20
0.0
 30
0.0
  9
$UCSORGRIGHT
 10
0.0
 20
0.0
 30
0.0
  9
$UCSORGFRONT
 10
0.0
 20
0.0
 30
0.0
  9
$UCSORGBACK
 10
0.0
 20
0.0
 30
0.0
  9
$PUCSBASE
  2

  9
$PUCSNAME
  2

  9
$PUCSORG
 10
0.0
 20
0.0
 30
0.0
  9
$PUCSXDIR
 10
1.0
 20
0.0
 30
0.0
  9
$PUCSYDIR
 10
0.0
 20
1.0
 30
0.0
  9
$PUCSORTHOREF
  2

  9
$PUCSORTHOVIEW
 70
     0
  9
$PUCSORGTOP
 10
0.0
 20
0.0
 30
0.0
  9
$PUCSORGBOTTOM
 10
0.0
 20
0.0
 30
0.0
  9
$PUCSORGLEFT
 10
0.0
 20
0.0
 30
0.0
  9
$PUCSORGRIGHT
 10
0.0
 20
0.0
 30
0.0
  9
$PUCSORGFRONT
 10
0.0
 20
0.0
 30
0.0
  9
$PUCSORGBACK
 10
0.0
 20
0.0
 30
0.0
  9
$USERI1
 70
     0
  9
$USERI2
 70
     0
  9
$USERI3
 70
     0
  9
$USERI4
 70
     0
  9
$USERI5
 70
     0
  9
$USERR1
 40
0.0
  9
$USERR2
 40
0.0
  9
$USERR3
 40
0.0
  9
$USERR4
 40
0.0
  9
$USERR5
 40
0.0
  9
$WORLDVIEW
 70
     1
  9
$SHADEDGE
 70
     3
  9
$SHADEDIF
 70
    70
  9
$TILEMODE
 70
     1
  9
$MAXACTVP
 70
    64
  9
$PINSBASE
 10
0.0
 20
0.0
 30
0.0
  9
$PLIMCHECK
 70
     0
  9
$PEXTMIN
 10
1.000000000000000E+20
 20
1.000000000000000E+20
 30
1.000000000000000E+20
  9
$PEXTMAX
 10
-1.000000000000000E+20
 20
-1.000000000000000E+20
 30
-1.000000000000000E+20
  9
$PLIMMIN
 10
0.0
 20
0.0
  9
$PLIMMAX
 10
12.0
 20
9.0
  9
$UNITMODE
 70
     0
  9
$VISRETAIN
 70
     1
  9
$PLINEGEN
 70
     0
  9
$PSLTSCALE
 70
     1
  9
$TREEDEPTH
 70
  3020
  9
$CMLSTYLE
  2
Standard
  9
$CMLJUST
 70
     0
  9
$CMLSCALE
 40
1.0
  9
$PROXYGRAPHICS
 70
     1
  9
$MEASUREMENT
 70
     0
  9
$CELWEIGHT
370
    -1
  9
$ENDCAPS
280
     0
  9
$JOINSTYLE
280
     0
  9
$LWDISPLAY
290
     1
  9
$INSUNITS
 70
     1
  9
$HYPERLINKBASE
  1

  9
$STYLESHEET
  1

  9
$XEDIT
290
     1
  9
$CEPSNTYPE
380
     0
  9
$PSTYLEMODE
290
     1
  9
$FINGERPRINTGUID
  2
{E3F4467D-5E84-9551-CBED-BE8E60F94CB2}
  9
$VERSIONGUID
  2
{FAEB1C32-E019-11D5-929B-00C0DF256EC4}
  9
$EXTNAMES
290
     1
  9
$PSVPSCALE
 40
0.0
  9
$OLESTARTUP
290
     0
  9
$SORTENTS
280
   127
  9
$INDEXCTL
280
     0
  9
$HIDETEXT
280
     1
  9
$XCLIPFRAME
280
     2
  9
$HALOGAP
280
     0
  9
$OBSCOLOR
 70
   257
  9
$OBSLTYPE
280
     0
  9
$INTERSECTIONDISPLAY
280
     0
  9
$INTERSECTIONCOLOR
 70
   257
  9
$DIMASSOC
280
     2
  9
$PROJECTNAME
  1

  9
$CAMERADISPLAY
290
     0
  9
$LENSLENGTH
 40
50.0
  9
$CAMERAHEIGHT
 40
0.0
  9
$STEPSPERSEC
 40
2.0
  9
$STEPSIZE
 40
6.0
  9
$3DDWFPREC
 40
2.0
  9
$PSOLWIDTH
 40
0.25
  9
$PSOLHEIGHT
 40
4.0
  9
$LOFTANG1
 40
1.570796326794897
  9
$LOFTANG2
 40
1.570796326794897
  9
$LOFTMAG1
 40
0.0
  9
$LOFTMAG2
 40
0.0
  9
$LOFTPARAM
 70
     7
  9
$LOFTNORMALS
280
     1
  9
$LATITUDE
 40
37.795
  9
$LONGITUDE
 40
-122.394
  9
$NORTHDIRECTION
 40
0.0
  9
$TIMEZONE
 70
 -8000
  9
$LIGHTGLYPHDISPLAY
280
     1
  9
$TILEMODELIGHTSYNCH
280
     1
  9
$CMATERIAL
347
3C
  9
$SOLIDHIST
280
     1
  9
$SHOWHIST
280
     1
  9
$DWFFRAME
280
     2
  9
$DGNFRAME
280
     2
  9
$REALWORLDSCALE
290
     1
  9
$INTERFERECOLOR
 62
   256
  9
$CSHADOW
280
     0
  9
$SHADOWPLANELOCATION
 40
0.0
  0
ENDSEC
  0
SECTION
  2
CLASSES
  0
CLASS
  1
ACDBDICTIONARYWDFLT
  2
AcDbDictionaryWithDefault
  3
ObjectDBX Classes
 90
        0
 91
        4
280
     0
281
     0
  0
CLASS
  1
VISUALSTYLE
  2
AcDbVisualStyle
  3
ObjectDBX Classes
 90
     4095
 91
        4
280
     0
281
     0
  0
CLASS
  1
MATERIAL
  2
AcDbMaterial
  3
ObjectDBX Classes
 90
     1153
 91
        4
280
     0
281
     0
  0
CLASS
  1
SUN
  2
AcDbSun
  3
SCENEOE
 90
     1024
 91
        4
280
     0
281
     0
  0
ENDSEC
  0
SECTION
  2
TABLES
  0
TABLE
  2
VPORT
  5
8
330
0
100
AcDbSymbolTable
 70
     1
  0
VPORT
  5
29
330
8
100
AcDbSymbolTableRecord
100
AcDbViewportTableRecord
  2
*Active
 70
     0
 10
0.0
 20
0.0
 11
1.0
 21
1.0
 12
0.0
 22
0.0
 13
0.0
 23
0.0
 14
0.5
 24
0.5
 15
0.5
 25
0.5
 16
0.0
 26
0.0
 36
1.0
 17
91.00082462281999
 27
-128.4993055234307
 37
0.0
 40
256.9986110468615
 41
0.7081814508812795
 42
50.0
 43
0.0
 44
0.0
 50
0.0
 51
0.0
 71
     0
 72
   100
 73
     1
 74
     3
 75
     0
 76
     0
 77
     0
 78
     0
281
     0
 65
     1
110
0.0
120
0.0
130
0.0
111
1.0
121
0.0
131
0.0
112
0.0
122
1.0
132
0.0
 79
     0
146
0.0
 60
     3
 61
     5
292
     1
282
     1
141
0.0
142
0.0
 63
   250
361
3F
  0
ENDTAB
  0
TABLE
  2
LTYPE
  5
5
330
0
100
AcDbSymbolTable
 70
     1
  0
LTYPE
  5
14
330
5
100
AcDbSymbolTableRecord
100
AcDbLinetypeTableRecord
  2
ByBlock
 70
     0
  3

 72
    65
 73
     0
 40
0.0
  0
LTYPE
  5
15
330
5
100
AcDbSymbolTableRecord
100
AcDbLinetypeTableRecord
  2
ByLayer
 70
     0
  3

 72
    65
 73
     0
 40
0.0
  0
LTYPE
  5
16
330
5
100
AcDbSymbolTableRecord
100
AcDbLinetypeTableRecord
  2
Continuous
 70
     0
  3
Solid line
 72
    65
 73
     0
 40
0.0
  0
ENDTAB
  0
TABLE
  2
LAYER
  5
2
330
0
100
AcDbSymbolTable
 70
     2
  0
LAYER
  5
10
330
2
100
AcDbSymbolTableRecord
100
AcDbLayerTableRecord
  2
0
 70
     0
 62
     7
  6
Continuous
370
    -3
390
F
347
3E
  0
LAYER
  5
40
330
2
100
AcDbSymbolTableRecord
100
AcDbLayerTableRecord
  2
_U+30EC_U+30A4_U+30E4_U+30FC 1
 70
     0
 62
     7
  6
Continuous
370
    -3
390
F
347
3E
  0
ENDTAB
  0
TABLE
  2
STYLE
  5
3
330
0
100
AcDbSymbolTable
 70
     1
  0
STYLE
  5
11
330
3
100
AcDbSymbolTableRecord
100
AcDbTextStyleTableRecord
  2
Standard
 70
     0
 40
0.0
 41
1.0
 50
0.0
 71
     0
 42
0.2
  3
txt
  4

  0
ENDTAB
  0
TABLE
  2
VIEW
  5
6
330
0
100
AcDbSymbolTable
 70
     0
  0
ENDTAB
  0
TABLE
  2
UCS
  5
7
330
0
100
AcDbSymbolTable
 70
     0
  0
ENDTAB
  0
TABLE
  2
APPID
  5
9
330
0
100
AcDbSymbolTable
 70
     1
  0
APPID
  5
12
330
9
100
AcDbSymbolTableRecord
100
AcDbRegAppTableRecord
  2
ACAD
 70
     0
  0
ENDTAB
  0
TABLE
  2
DIMSTYLE
  5
A
330
0
100
AcDbSymbolTable
 70
     1
100
AcDbDimStyleTable
  0
DIMSTYLE
105
27
330
A
100
AcDbSymbolTableRecord
100
AcDbDimStyleTableRecord
  2
Standard
 70
     0
178
     0
340
11
  0
ENDTAB
  0
TABLE
  2
BLOCK_RECORD
  5
1
330
0
100
AcDbSymbolTable
 70
     6
  0
BLOCK_RECORD
  5
1F
330
1
100
AcDbSymbolTableRecord
100
AcDbBlockTableRecord
  2
*Model_Space
340
22
 70
     0
280
     1
281
     0
  0
BLOCK_RECORD
  5
1B
330
1
100
AcDbSymbolTableRecord
100
AcDbBlockTableRecord
  2
*Paper_Space
340
1E
 70
     0
280
     1
281
     0
  0
BLOCK_RECORD
  5
23
330
1
100
AcDbSymbolTableRecord
100
AcDbBlockTableRecord
  2
*Paper_Space0
340
26
 70
     0
280
     1
281
     0
  0
BLOCK_RECORD
  5
41
330
1
100
AcDbSymbolTableRecord
100
AcDbBlockTableRecord
  2
block 2
340
0
102
{BLKREFS
331
42
102
}
 70
     0
280
     1
281
     0
  0
BLOCK_RECORD
  5
CA
330
1
100
AcDbSymbolTableRecord
100
AcDbBlockTableRecord
  2
block 3
340
0
102
{BLKREFS
331
CB
102
}
 70
     0
280
     1
281
     0
  0
BLOCK_RECORD
  5
D4
330
1
100
AcDbSymbolTableRecord
100
AcDbBlockTableRecord
  2
block 4
340
0
102
{BLKREFS
331
D5
102
}
 70
     0
280
     1
281
     0
  0
BLOCK_RECORD
  5
DC
330
1
100
AcDbSymbolTableRecord
100
AcDbBlockTableRecord
  2
block 5
340
0
102
{BLKREFS
331
DD
102
}
 70
     0
280
     1
281
     0
  0
BLOCK_RECORD
  5
E5
330
1
100
AcDbSymbolTableRecord
100
AcDbBlockTableRecord
  2
block 6
340
0
102
{BLKREFS
331
E6
102
}
 70
     0
280
     1
281
     0
  0
ENDTAB
  0
ENDSEC
  0
SECTION
  2
BLOCKS
  0
BLOCK
  5
20
330
1F
100
AcDbEntity
  8
0
100
AcDbBlockBegin
  2
*Model_Space
 70
     0
 10
0.0
 20
0.0
 30
0.0
  3
*Model_Space
  1

  0
ENDBLK
  5
21
330
1F
100
AcDbEntity
  8
0
100
AcDbBlockEnd
  0
BLOCK
  5
1C
330
1B
100
AcDbEntity
 67
     1
  8
0
100
AcDbBlockBegin
  2
*Paper_Space
 70
     0
 10
0.0
 20
0.0
 30
0.0
  3
*Paper_Space
  1

  0
ENDBLK
  5
1D
330
1B
100
AcDbEntity
 67
     1
  8
0
100
AcDbBlockEnd
  0
BLOCK
  5
24
330
23
100
AcDbEntity
  8
0
100
AcDbBlockBegin
  2
*Paper_Space0
 70
     0
 10
0.0
 20
0.0
 30
0.0
  3
*Paper_Space0
  1

  0
ENDBLK
  5
25
330
23
100
AcDbEntity
  8
0
100
AcDbBlockEnd
  0
BLOCK
  5
43
330
41
100
AcDbEntity
  8
0
100
AcDbBlockBegin
  2
block 2
 70
     0
 10
0.0
 20
0.0
 30
0.0
  3
block 2
  1

  0
SPLINE
  5
45
330
41
100
AcDbEntity
  8
_U+30EC_U+30A4_U+30E4_U+30FC 1
370
     0
100
AcDbSpline
210
0.0
220
0.0
230
1.0
 70
    11
 71
     3
 72
    89
 73
    85
 74
     0
 42
0.0000000001
 43
0.0000000001
 12
1.0
 22
0.0
 32
0.0
 13
1.0
 23
0.0
 33
0.0
 40
0.0
 40
0.0
 40
0.0
 40
0.0
 40
1.0
 40
1.0
 40
1.0
 40
2.0
 40
2.0
 40
2.0
 40
3.0
 40
3.0
 40
3.0
 40
4.0
 40
4.0
 40
4.0
 40
5.0
 40
5.0
 40
5.0
 40
6.0
 40
6.0
 40
6.0
 40
7.0
 40
7.0
 40
7.0
 40
8.0
 40
8.0
 40
8.0
 40
9.0
 40
9.0
 40
9.0
 40
10.0
 40
10.0
 40
10.0
 40
11.0
 40
11.0
 40
11.0
 40
12.0
 40
12.0
 40
12.0
 40
13.0
 40
13.0
 40
13.0
 40
14.0
 40
14.0
 40
14.0
 40
15.0
 40
15.0
 40
15.0
 40
16.0
 40
16.0
 40
16.0
 40
17.0
 40
17.0
 40
17.0
 40
18.0
 40
18.0
 40
18.0
 40
19.0
 40
19.0
 40
19.0
 40
20.0
 40
20.0
 40
20.0
 40
21.0
 40
21.0
 40
21.0
 40
22.0
 40
22.0
 40
22.0
 40
23.0
 40
23.0
 40
23.0
 40
24.0
 40
24.0
 40
24.0
 40
25.0
 40
25.0
 40
25.0
 40
26.0
 40
26.0
 40
26.0
 40
27.0
 40
27.0
 40
27.0
 40
28.0
 40
28.0
 40
28.0
 40
28.0
 10
87.25996916270161
 20
-112.4520441385537
 30
0.0
 10
87.25996916270161
 20
-112.4520441385537
 30
0.0
 10
87.25996916270161
 20
-112.9222969162138
 30
0.0
 10
87.25996916270161
 20
-112.9222969162138
 30
0.0
 10
87.25996916270161
 20
-112.9222969162138
 30
0.0
 10
92.6103731928681
 20
-116.1562108042943
 30
0.0
 10
92.6103731928681
 20
-116.1562108042943
 30
0.0
 10
92.6103731928681
 20
-116.1562108042943
 30
0.0
 10
92.66893430248518
 20
-130.3847969118481
 30
0.0
 10
92.66893430248518
 20
-130.3847969118481
 30
0.0
 10
92.66893430248518
 20
-130.3847969118481
 30
0.0
 10
92.31615653370753
 20
-130.2669691341002
 30
0.0
 10
92.31615653370753
 20
-130.9139635783825
 30
0.0
 10
92.31615653370753
 20
-130.9139635783825
 30
0.0
 10
92.19903431447334
 20
-134.9123469107165
 30
0.0
 10
92.19903431447334
 20
-134.9123469107165
 30
0.0
 10
92.19903431447334
 20
-134.9123469107165
 30
0.0
 10
90.78774685047829
 20
-135.7942913549405
 30
0.0
 10
90.78774685047829
 20
-135.7942913549405
 30
0.0
 10
90.78774685047829
 20
-135.7942913549405
 30
0.0
 10
90.72918574086118
 20
-139.3806302429325
 30
0.0
 10
90.72918574086118
 20
-139.3806302429325
 30
0.0
 10
90.72918574086118
 20
-139.3806302429325
 30
0.0
 10
87.61274693147928
 20
-144.3195191305867
 30
0.0
 10
87.61274693147928
 20
-144.3195191305867
 30
0.0
 10
87.61274693147928
 20
-144.3195191305867
 30
0.0
 10
87.14281386710327
 20
-144.9079524637728
 30
0.0
 10
87.55418582186219
 20
-145.495680241404
 30
0.0
 10
87.55418582186219
 20
-145.495680241404
 30
0.0
 10
88.3183024690346
 20
-146.2597969078794
 30
0.0
 10
88.3183024690346
 20
-146.2597969078794
 30
0.0
 10
88.3183024690346
 20
-146.2597969078794
 30
0.0
 10
87.49527193447632
 20
-146.4950996855981
 30
0.0
 10
87.49527193447632
 20
-146.4950996855981
 30
0.0
 10
87.49527193447632
 20
-146.4950996855981
 30
0.0
 10
87.49527193447632
 20
-146.9653524632585
 30
0.0
 10
87.49527193447632
 20
-146.9653524632585
 30
0.0
 10
87.49527193447632
 20
-146.9653524632585
 30
0.0
 10
88.02475831132723
 20
-147.8472969074825
 30
0.0
 10
88.96529689697286
 20
-147.5534330186669
 30
0.0
 10
88.96529689697286
 20
-147.5534330186669
 30
0.0
 10
92.25759542409043
 20
-145.789544130219
 30
0.0
 10
92.25759542409043
 20
-145.789544130219
 30
0.0
 10
92.25759542409043
 20
-145.789544130219
 30
0.0
 10
92.25759542409043
 20
-147.0242663521325
 30
0.0
 10
92.25759542409043
 20
-147.0242663521325
 30
0.0
 10
92.25759542409043
 20
-147.0242663521325
 30
0.0
 10
91.37565100214627
 20
-147.4945191297929
 30
0.0
 10
91.37565100214627
 20
-147.4945191297929
 30
0.0
 10
91.37565100214627
 20
-147.4945191297929
 30
0.0
 10
90.78809962824705
 20
-148.0822469074241
 30
0.0
 10
91.2584935051352
 20
-149.2584080182408
 30
0.0
 10
91.2584935051352
 20
-149.2584080182408
 30
0.0
 10
91.43488238952403
 20
-149.6704524625821
 30
0.0
 10
92.6103731928681
 20
-149.9054024625238
 30
0.0
 10
92.6103731928681
 20
-149.9054024625238
 30
0.0
 10
97.3728730713666
 20
-147.3770441298221
 30
0.0
 10
97.3728730713666
 20
-147.3770441298221
 30
0.0
 10
97.3728730713666
 20
-147.3770441298221
 30
0.0
 10
97.3728730713666
 20
-146.8478774632877
 30
0.0
 10
97.3728730713666
 20
-146.8478774632877
 30
0.0
 10
97.3728730713666
 20
-146.8478774632877
 30
0.0
 10
96.37377115241138
 20
-146.2597969078794
 30
0.0
 10
96.37377115241138
 20
-146.2597969078794
 30
0.0
 10
96.37377115241138
 20
-146.2597969078794
 30
0.0
 10
97.25571557435553
 20
-145.789544130219
 30
0.0
 10
97.25571557435553
 20
-145.789544130219
 30
0.0
 10
97.25571557435553
 20
-145.789544130219
 30
0.0
 10
97.3728730713666
 20
-128.3270441345849
 30
0.0
 10
97.3728730713666
 20
-128.3270441345849
 30
0.0
 10
97.3728730713666
 20
-128.3270441345849
 30
0.0
 10
97.90203972453311
 20
-128.0917413568658
 30
0.0
 10
97.90203972453311
 20
-127.6214885792057
 30
0.0
 10
97.90203972453311
 20
-127.6214885792057
 30
0.0
 10
97.90203972453311
 20
-114.2159330270016
 30
0.0
 10
97.90203972453311
 20
-114.2159330270016
 30
0.0
 10
97.90203972453311
 20
-114.2159330270016
 30
0.0
 10
98.01986749930485
 20
-112.9808580273103
 30
0.0
 10
96.78514530858301
 20
-112.5106052496502
 30
0.0
 10
96.78514530858301
 20
-112.5106052496502
 30
0.0
 10
91.96404904269053
 20
-109.8647719169783
 30
0.0
 10
91.96404904269053
 20
-109.8647719169783
 30
0.0
 10
91.96404904269053
 20
-109.8647719169783
 30
0.0
 10
87.25996916270161
 20
-112.4520441385537
 30
0.0
 10
87.25996916270161
 20
-112.4520441385537
 30
0.0
  0
SPLINE
  5
46
330
41
100
AcDbEntity
  8
_U+30EC_U+30A4_U+30E4_U+30FC 1
 62
   179
420
  2234388
370
     9
100
AcDbSpline
210
0.0
220
0.0
230
1.0
 70
    11
 71
     3
 72
    65
 73
    61
 74
     0
 42
0.0000000001
 43
0.0000000001
 12
1.0
 22
0.0
 32
0.0
 13
1.0
 23
0.0
 33
0.0
 40
0.0
 40
0.0
 40
0.0
 40
0.0
 40
1.0
 40
1.0
 40
1.0
 40
2.0
 40
2.0
 40
2.0
 40
3.0
 40
3.0
 40
3.0
 40
4.0
 40
4.0
 40
4.0
 40
5.0
 40
5.0
 40
5.0
 40
6.0
 40
6.0
 40
6.0
 40
7.0
 40
7.0
 40
7.0
 40
8.0
 40
8.0
 40
8.0
 40
9.0
 40
9.0
 40
9.0
 40
10.0
 40
10.0
 40
10.0
 40
11.0
 40
11.0
 40
11.0
 40
12.0
 40
12.0
 40
12.0
 40
13.0
 40
13.0
 40
13.0
 40
14.0
 40
14.0
 40
14.0
 40
15.0
 40
15.0
 40
15.0
 40
16.0
 40
16.0
 40
16.0
 40
17.0
 40
17.0
 40
17.0
 40
18.0
 40
18.0
 40
18.0
 40
19.0
 40
19.0
 40
19.0
 40
20.0
 40
20.0
 40
20.0
 40
20.0
 10
96.25597865541651
 20
-146.2746135745421
 30
0.0
 10
96.25597865541651
 20
-146.2746135745421
 30
0.0
 10
97.31431196174951
 20
-146.8478774632877
 30
0.0
 10
97.31431196174951
 20
-146.8478774632877
 30
0.0
 10
97.31431196174951
 20
-146.8478774632877
 30
0.0
 10
97.35840918284671
 20
-147.3329469076109
 30
0.0
 10
97.35840918284671
 20
-147.3329469076109
 30
0.0
 10
97.35840918284671
 20
-147.3329469076109
 30
0.0
 10
92.68410374654263
 20
-149.9346830180716
 30
0.0
 10
92.68410374654263
 20
-149.9346830180716
 30
0.0
 10
92.68410374654263
 20
-149.9346830180716
 30
0.0
 10
91.44938155582079
 20
-149.5378080181708
 30
0.0
 10
91.44938155582079
 20
-149.5378080181708
 30
0.0
 10
91.14070100814034
 20
-149.2732246849036
 30
0.0
 10
91.09660378704312
 20
-148.7881552405804
 30
0.0
 10
91.09660378704312
 20
-148.7881552405804
 30
0.0
 10
91.09660378704312
 20
-148.7881552405804
 30
0.0
 10
91.09660378704312
 20
-147.9503080185677
 30
0.0
 10
91.09660378704312
 20
-147.9503080185677
 30
0.0
 10
91.18479822923754
 20
-147.1565580187661
 30
0.0
 10
91.80215932459846
 20
-147.8621135741453
 30
0.0
 10
91.80215932459846
 20
-147.8621135741453
 30
0.0
 10
92.15493709337613
 20
-148.0385024629901
 30
0.0
 10
92.28722875666776
 20
-147.2447524631885
 30
0.0
 10
92.28722875666776
 20
-147.2447524631885
 30
0.0
 10
92.28722875666776
 20
-147.2447524631885
 30
0.0
 10
92.28722875666776
 20
-130.7964885784117
 30
0.0
 10
92.28722875666776
 20
-130.7964885784117
 30
0.0
 10
92.28722875666776
 20
-130.3555163562997
 30
0.0
 10
92.72820096763984
 20
-130.3996135785109
 30
0.0
 10
92.72820096763984
 20
-130.3996135785109
 30
0.0
 10
92.72820096763984
 20
-130.3996135785109
 30
0.0
 10
92.72820096763984
 20
-116.1562108042943
 30
0.0
 10
92.72820096763984
 20
-116.1562108042943
 30
0.0
 10
92.72820096763984
 20
-116.1562108042943
 30
0.0
 10
87.25996916270161
 20
-112.981210805088
 30
0.0
 10
87.25996916270161
 20
-112.981210805088
 30
0.0
 10
87.25996916270161
 20
-112.981210805088
 30
0.0
 10
87.25996916270161
 20
-112.4079469163425
 30
0.0
 10
87.25996916270161
 20
-112.4079469163425
 30
0.0
 10
87.25996916270161
 20
-112.4079469163425
 30
0.0
 10
92.02264543008451
 20
-109.850308028093
 30
0.0
 10
92.02264543008451
 20
-109.850308028093
 30
0.0
 10
92.02264543008451
 20
-109.850308028093
 30
0.0
 10
97.2702147406523
 20
-112.760724694032
 30
0.0
 10
97.2702147406523
 20
-112.760724694032
 30
0.0
 10
97.2702147406523
 20
-112.760724694032
 30
0.0
 10
97.93167305711043
 20
-113.1135024717216
 30
0.0
 10
97.88757583601323
 20
-114.4805163602688
 30
0.0
 10
97.88757583601323
 20
-114.4805163602688
 30
0.0
 10
97.88757583601323
 20
-127.4891969125722
 30
0.0
 10
97.88757583601323
 20
-127.4891969125722
 30
0.0
 10
97.88757583601323
 20
-127.4891969125722
 30
0.0
 10
97.97577027820763
 20
-128.1506552457401
 30
0.0
 10
97.35840918284671
 20
-128.3711413567961
 30
0.0
 10
97.35840918284671
 20
-128.3711413567961
 30
0.0
 10
97.2702147406523
 20
-145.7454469080078
 30
0.0
 10
97.2702147406523
 20
-145.7454469080078
 30
0.0
 10
97.2702147406523
 20
-145.7454469080078
 30
0.0
 10
96.25597865541651
 20
-146.2746135745421
 30
0.0
 10
96.25597865541651
 20
-146.2746135745421
 30
0.0
  0
SPLINE
  5
47
330
41
100
AcDbEntity
  8
_U+30EC_U+30A4_U+30E4_U+30FC 1
 62
   179
420
  2234388
370
     9
100
AcDbSpline
210
0.0
220
0.0
230
1.0
 70
     8
 71
     3
 72
    35
 73
    31
 74
     0
 42
0.0000000001
 43
0.0000000001
 12
1.0
 22
0.0
 32
0.0
 13
1.0
 23
0.0
 33
0.0
 40
0.0
 40
0.0
 40
0.0
 40
0.0
 40
1.0
 40
1.0
 40
1.0
 40
2.0
 40
2.0
 40
2.0
 40
3.0
 40
3.0
 40
3.0
 40
4.0
 40
4.0
 40
4.0
 40
5.0
 40
5.0
 40
5.0
 40
6.0
 40
6.0
 40
6.0
 40
7.0
 40
7.0
 40
7.0
 40
8.0
 40
8.0
 40
8.0
 40
9.0
 40
9.0
 40
9.0
 40
10.0
 40
10.0
 40
10.0
 40
10.0
 10
87.25996916270161
 20
-112.4079469163425
 30
0.0
 10
87.25996916270161
 20
-112.4079469163425
 30
0.0
 10
92.28722875666776
 20
-115.3624608044927
 30
0.0
 10
92.28722875666776
 20
-115.3624608044927
 30
0.0
 10
92.28722875666776
 20
-115.3624608044927
 30
0.0
 10
93.12507595751471
 20
-115.5829469155487
 30
0.0
 10
93.12507595751471
 20
-116.6412802486175
 30
0.0
 10
93.12507595751471
 20
-116.6412802486175
 30
0.0
 10
93.12507595751471
 20
-130.0909330230325
 30
0.0
 10
93.12507595751471
 20
-130.0909330230325
 30
0.0
 10
93.12507595751471
 20
-130.0909330230325
 30
0.0
 10
93.25736762080633
 20
-130.9728774672565
 30
0.0
 10
92.72820096763984
 20
-130.9728774672565
 30
0.0
 10
92.72820096763984
 20
-130.9728774672565
 30
0.0
 10
92.72820096763984
 20
-147.7298219075117
 30
0.0
 10
92.72820096763984
 20
-147.7298219075117
 30
0.0
 10
92.72820096763984
 20
-147.7298219075117
 30
0.0
 10
92.59590930434821
 20
-148.6117663517356
 30
0.0
 10
92.15493709337613
 20
-148.3912802406797
 30
0.0
 10
92.15493709337613
 20
-148.3912802406797
 30
0.0
 10
91.44938155582079
 20
-147.9944052407789
 30
0.0
 10
91.44938155582079
 20
-148.5676691295244
 30
0.0
 10
91.44938155582079
 20
-148.5676691295244
 30
0.0
 10
91.49347877691801
 20
-149.14093301827
 30
0.0
 10
92.02264543008451
 20
-149.3173219071148
 30
0.0
 10
92.02264543008451
 20
-149.3173219071148
 30
0.0
 10
92.50771486215379
 20
-149.4937107959596
 30
0.0
 10
92.50771486215379
 20
-149.4937107959596
 30
0.0
 10
92.50771486215379
 20
-149.4937107959596
 30
0.0
 10
97.31431196174951
 20
-146.8478774632877
 30
0.0
 10
97.31431196174951
 20
-146.8478774632877
 30
0.0
  0
POLYLINE
  5
48
330
41
100
AcDbEntity
  8
_U+30EC_U+30A4_U+30E4_U+30FC 1
 62
   179
420
  2234388
370
     9
100
AcDb2dPolyline
 66
     1
 10
0.0
 20
0.0
 30
0.0
  0
VERTEX
  5
49
330
48
100
AcDbEntity
  8
_U+30EC_U+30A4_U+30E4_U+30FC 1
 62
   179
420
  2234388
370
     9
100
AcDbVertex
100
AcDb2dVertex
 10
92.70753053237856
 20
-149.393804129318
 30
0.0
  0
VERTEX
  5
4A
330
48
100
AcDbEntity
  8
_U+30EC_U+30A4_U+30E4_U+30FC 1
 62
   179
420
  2234388
370
     9
100
AcDbVertex
100
AcDb2dVertex
 10
92.68410374654263
 20
-149.9346830180716
 30
0.0
  0
SEQEND
  5
4B
330
48
100
AcDbEntity
  8
_U+30EC_U+30A4_U+30E4_U+30FC 1
 62
   179
420
  2234388
370
     9
  0
POLYLINE
  5
4C
330
41
100
AcDbEntity
  8
_U+30EC_U+30A4_U+30E4_U+30FC 1
 62
   179
420
  2234388
370
     9
100
AcDb2dPolyline
 66
     1
 10
0.0
 20
0.0
 30
0.0
  0
VERTEX
  5
4D
330
4C
100
AcDbEntity
  8
_U+30EC_U+30A4_U+30E4_U+30FC 1
 62
   179
420
  2234388
370
     9
100
AcDbVertex
100
AcDb2dVertex
 10
92.94868707312588
 20
-130.8846830228341
 30
0.0
  0
VERTEX
  5
4E
330
4C
100
AcDbEntity
  8
_U+30EC_U+30A4_U+30E4_U+30FC 1
 62
   179
420
  2234388
370
     9
100
AcDbVertex
100
AcDb2dVertex
 10
97.49070084613834
 20
-128.2829469123737
 30
0.0
  0
SEQEND
  5
4F
330
4C
100
AcDbEntity
  8
_U+30EC_U+30A4_U+30E4_U+30FC 1
 62
   179
420
  2234388
370
     9
  0
POLYLINE
  5
50
330
41
100
AcDbEntity
  8
_U+30EC_U+30A4_U+30E4_U+30FC 1
 62
   179
420
  2234388
370
     9
100
AcDb2dPolyline
 66
     1
 10
0.0
 20
0.0
 30
0.0
  0
VERTEX
  5
51
330
50
100
AcDbEntity
  8
_U+30EC_U+30A4_U+30E4_U+30FC 1
 62
   179
420
  2234388
370
     9
100
AcDbVertex
100
AcDb2dVertex
 10
92.41952041995938
 20
-148.3795680184604
 30
0.0
  0
VERTEX
  5
52
330
50
100
AcDbEntity
  8
_U+30EC_U+30A4_U+30E4_U+30FC 1
 62
   179
420
  2234388
370
     9
100
AcDbVertex
100
AcDb2dVertex
 10
96.25597865541651
 20
-146.2746135745421
 30
0.0
  0
SEQEND
  5
53
330
50
100
AcDbEntity
  8
_U+30EC_U+30A4_U+30E4_U+30FC 1
 62
   179
420
  2234388
370
     9
  0
POLYLINE
  5
54
330
41
100
AcDbEntity
  8
_U+30EC_U+30A4_U+30E4_U+30FC 1
 62
   179
420
  2234388
370
     9
100
AcDb2dPolyline
 66
     1
 10
0.0
 20
0.0
 30
0.0
  0
VERTEX
  5
55
330
54
100
AcDbEntity
  8
_U+30EC_U+30A4_U+30E4_U+30FC 1
 62
   179
420
  2234388
370
     9
100
AcDbVertex
100
AcDb2dVertex
 10
91.1840926737
 20
-147.6047621853209
 30
0.0
  0
VERTEX
  5
56
330
54
100
AcDbEntity
  8
_U+30EC_U+30A4_U+30E4_U+30FC 1
 62
   179
420
  2234388
370
     9
100
AcDbVertex
100
AcDb2dVertex
 10
92.24930514652415
 20
-147.0473380187939
 30
0.0
  0
SEQEND
  5
57
330
54
100
AcDbEntity
  8
_U+30EC_U+30A4_U+30E4_U+30FC 1
 62
   179
420
  2234388
370
     9
  0
POLYLINE
  5
58
330
41
100
AcDbEntity
  8
_U+30EC_U+30A4_U+30E4_U+30FC 1
 62
   179
420
  2234388
370
     9
100
AcDb2dPolyline
 66
     1
 10
0.0
 20
0.0
 30
0.0
  0
VERTEX
  5
59
330
58
100
AcDbEntity
  8
_U+30EC_U+30A4_U+30E4_U+30FC 1
 62
   179
420
  2234388
370
     9
100
AcDbVertex
100
AcDb2dVertex
 10
93.25736762080633
 20
-115.5388496933375
 30
0.0
  0
VERTEX
  5
5A
330
58
100
AcDbEntity
  8
_U+30EC_U+30A4_U+30E4_U+30FC 1
 62
   179
420
  2234388
370
     9
100
AcDbVertex
100
AcDb2dVertex
 10
97.09382585626346
 20
-113.201696916144
 30
0.0
  0
SEQEND
  5
5B
330
58
100
AcDbEntity
  8
_U+30EC_U+30A4_U+30E4_U+30FC 1
 62
   179
420
  2234388
370
     9
  0
POLYLINE
  5
5C
330
41
100
AcDbEntity
  8
_U+30EC_U+30A4_U+30E4_U+30FC 1
 62
   179
420
  2234388
370
     9
100
AcDb2dPolyline
 66
     1
 10
0.0
 20
0.0
 30
0.0
  0
VERTEX
  5
5D
330
5C
100
AcDbEntity
  8
_U+30EC_U+30A4_U+30E4_U+30FC 1
 62
   179
420
  2234388
370
     9
100
AcDbVertex
100
AcDb2dVertex
 10
93.5660481684868
 20
-116.1121135820831
 30
0.0
  0
VERTEX
  5
5E
330
5C
100
AcDbEntity
  8
_U+30EC_U+30A4_U+30E4_U+30FC 1
 62
   179
420
  2234388
370
     9
100
AcDbVertex
100
AcDb2dVertex
 10
97.57889528833276
 20
-113.863155249312
 30
0.0
  0
SEQEND
  5
5F
330
5C
100
AcDbEntity
  8
_U+30EC_U+30A4_U+30E4_U+30FC 1
 62
   179
420
  2234388
370
     9
  0
SPLINE
  5
60
330
41
100
AcDbEntity
  8
_U+30EC_U+30A4_U+30E4_U+30FC 1
 62
   179
420
  2234388
370
     9
100
AcDbSpline
210
0.0
220
0.0
230
1.0
 70
     8
 71
     3
 72
     8
 73
     4
 74
     0
 42
0.0000000001
 43
0.0000000001
 12
1.0
 22
0.0
 32
0.0
 13
1.0
 23
0.0
 33
0.0
 40
0.0
 40
0.0
 40
0.0
 40
0.0
 40
1.0
 40
1.0
 40
1.0
 40
1.0
 10
94.10967871017318
 20
-132.854594133453
 30
0.0
 10
94.10967871017318
 20
-132.854594133453
 30
0.0
 10
95.20935757100693
 20
-135.1590091328767
 30
0.0
 10
96.53227420392318
 20
-134.247784133105
 30
0.0
  0
POLYLINE
  5
61
330
41
100
AcDbEntity
  8
_U+30EC_U+30A4_U+30E4_U+30FC 1
 62
   179
420
  2234388
370
     9
100
AcDb2dPolyline
 66
     1
 10
0.0
 20
0.0
 30
0.0
  0
VERTEX
  5
62
330
61
100
AcDbEntity
  8
_U+30EC_U+30A4_U+30E4_U+30FC 1
 62
   179
420
  2234388
370
     9
100
AcDbVertex
100
AcDb2dVertex
 10
93.52195094738958
 20
-135.8824857993629
 30
0.0
  0
VERTEX
  5
63
330
61
100
AcDbEntity
  8
_U+30EC_U+30A4_U+30E4_U+30FC 1
 62
   179
420
  2234388
370
     9
100
AcDbVertex
100
AcDb2dVertex
 10
94.2564342619847
 20
-136.2645441326002
 30
0.0
  0
VERTEX
  5
64
330
61
100
AcDbEntity
  8
_U+30EC_U+30A4_U+30E4_U+30FC 1
 62
   179
420
  2234388
370
     9
100
AcDbVertex
100
AcDb2dVertex
 10
97.13792307736068
 20
-134.7359580218717
 30
0.0
  0
SEQEND
  5
65
330
61
100
AcDbEntity
  8
_U+30EC_U+30A4_U+30E4_U+30FC 1
 62
   179
420
  2234388
370
     9
  0
POLYLINE
  5
66
330
41
100
AcDbEntity
  8
_U+30EC_U+30A4_U+30E4_U+30FC 1
 62
   179
420
  2234388
370
     9
100
AcDb2dPolyline
 66
     1
 10
0.0
 20
0.0
 30
0.0
  0
VERTEX
  5
67
330
66
100
AcDbEntity
  8
_U+30EC_U+30A4_U+30E4_U+30FC 1
 62
   179
420
  2234388
370
     9
100
AcDbVertex
100
AcDb2dVertex
 10
94.2564342619847
 20
-136.2645441326002
 30
0.0
  0
VERTEX
  5
68
330
66
100
AcDbEntity
  8
_U+30EC_U+30A4_U+30E4_U+30FC 1
 62
   179
420
  2234388
370
     9
100
AcDbVertex
100
AcDb2dVertex
 10
94.2564342619847
 20
-136.588041354742
 30
0.0
  0
SEQEND
  5
69
330
66
100
AcDbEntity
  8
_U+30EC_U+30A4_U+30E4_U+30FC 1
 62
   179
420
  2234388
370
     9
  0
POLYLINE
  5
6A
330
41
100
AcDbEntity
  8
_U+30EC_U+30A4_U+30E4_U+30FC 1
 62
   179
420
  2234388
370
     9
100
AcDb2dPolyline
 66
     1
 10
0.0
 20
0.0
 30
0.0
  0
VERTEX
  5
6B
330
6A
100
AcDbEntity
  8
_U+30EC_U+30A4_U+30E4_U+30FC 1
 62
   179
420
  2234388
370
     9
100
AcDbVertex
100
AcDb2dVertex
 10
89.02385800658995
 20
-145.9073719079676
 30
0.0
  0
VERTEX
  5
6C
330
6A
100
AcDbEntity
  8
_U+30EC_U+30A4_U+30E4_U+30FC 1
 62
   179
420
  2234388
370
     9
100
AcDbVertex
100
AcDb2dVertex
 10
92.28722875666776
 20
-144.0845691306457
 30
0.0
  0
SEQEND
  5
6D
330
6A
100
AcDbEntity
  8
_U+30EC_U+30A4_U+30E4_U+30FC 1
 62
   179
420
  2234388
370
     9
  0
POLYLINE
  5
6E
330
41
100
AcDbEntity
  8
_U+30EC_U+30A4_U+30E4_U+30FC 1
 62
   179
420
  2234388
370
     9
100
AcDb2dPolyline
 66
     1
 10
0.0
 20
0.0
 30
0.0
  0
VERTEX
  5
6F
330
6E
100
AcDbEntity
  8
_U+30EC_U+30A4_U+30E4_U+30FC 1
 62
   179
420
  2234388
370
     9
100
AcDbVertex
100
AcDb2dVertex
 10
88.34793580161194
 20
-145.1429024637144
 30
0.0
  0
VERTEX
  5
70
330
6E
100
AcDbEntity
  8
_U+30EC_U+30A4_U+30E4_U+30FC 1
 62
   179
420
  2234388
370
     9
100
AcDbVertex
100
AcDb2dVertex
 10
92.3168268114682
 20
-142.9673219087023
 30
0.0
  0
SEQEND
  5
71
330
6E
100
AcDbEntity
  8
_U+30EC_U+30A4_U+30E4_U+30FC 1
 62
   179
420
  2234388
370
     9
  0
POLYLINE
  5
72
330
41
100
AcDbEntity
  8
_U+30EC_U+30A4_U+30E4_U+30FC 1
 62
   179
420
  2234388
370
     9
100
AcDb2dPolyline
 66
     1
 10
0.0
 20
0.0
 30
0.0
  0
VERTEX
  5
73
330
72
100
AcDbEntity
  8
_U+30EC_U+30A4_U+30E4_U+30FC 1
 62
   179
420
  2234388
370
     9
100
AcDbVertex
100
AcDb2dVertex
 10
91.5520398865351
 20
-139.2927885762879
 30
0.0
  0
VERTEX
  5
74
330
72
100
AcDbEntity
  8
_U+30EC_U+30A4_U+30E4_U+30FC 1
 62
   179
420
  2234388
370
     9
100
AcDbVertex
100
AcDb2dVertex
 10
92.28722875666776
 20
-138.7929024653019
 30
0.0
  0
SEQEND
  5
75
330
72
100
AcDbEntity
  8
_U+30EC_U+30A4_U+30E4_U+30FC 1
 62
   179
420
  2234388
370
     9
  0
SPLINE
  5
76
330
41
100
AcDbEntity
  8
_U+30EC_U+30A4_U+30E4_U+30FC 1
 62
   179
420
  2234388
370
     9
100
AcDbSpline
210
0.0
220
0.0
230
1.0
 70
     8
 71
     3
 72
    44
 73
    40
 74
     0
 42
0.0000000001
 43
0.0000000001
 12
1.0
 22
0.0
 32
0.0
 13
1.0
 23
0.0
 33
0.0
 40
0.0
 40
0.0
 40
0.0
 40
0.0
 40
1.0
 40
1.0
 40
1.0
 40
2.0
 40
2.0
 40
2.0
 40
3.0
 40
3.0
 40
3.0
 40
4.0
 40
4.0
 40
4.0
 40
5.0
 40
5.0
 40
5.0
 40
6.0
 40
6.0
 40
6.0
 40
7.0
 40
7.0
 40
7.0
 40
8.0
 40
8.0
 40
8.0
 40
9.0
 40
9.0
 40
9.0
 40
10.0
 40
10.0
 40
10.0
 40
11.0
 40
11.0
 40
11.0
 40
12.0
 40
12.0
 40
12.0
 40
13.0
 40
13.0
 40
13.0
 40
13.0
 10
92.28722875666776
 20
-134.9123469107165
 30
0.0
 10
92.28722875666776
 20
-134.9123469107165
 30
0.0
 10
90.69955240828386
 20
-135.8824857993629
 30
0.0
 10
90.69955240828386
 20
-135.8824857993629
 30
0.0
 10
90.69955240828386
 20
-135.8824857993629
 30
0.0
 10
90.69955240828386
 20
-139.3809830207103
 30
0.0
 10
90.69955240828386
 20
-139.3809830207103
 30
0.0
 10
90.69955240828386
 20
-139.3809830207103
 30
0.0
 10
87.75985526105957
 20
-143.9374607973486
 30
0.0
 10
87.75985526105957
 20
-143.9374607973486
 30
0.0
 10
87.75985526105957
 20
-143.9374607973486
 30
0.0
 10
87.14214138792987
 20
-145.1432552414922
 30
0.0
 10
87.61274693147928
 20
-145.554594130278
 30
0.0
 10
87.61274693147928
 20
-145.554594130278
 30
0.0
 10
88.1715469172231
 20
-146.1130413523608
 30
0.0
 10
88.1715469172231
 20
-146.1130413523608
 30
0.0
 10
88.1715469172231
 20
-146.1130413523608
 30
0.0
 10
88.55325246304054
 20
-146.4072580189535
 30
0.0
 10
88.58288579561786
 20
-146.5247330189243
 30
0.0
 10
88.58288579561786
 20
-146.5247330189243
 30
0.0
 10
88.58288579561786
 20
-147.1124607965549
 30
0.0
 10
88.58288579561786
 20
-147.1124607965549
 30
0.0
 10
88.58288579561786
 20
-147.1124607965549
 30
0.0
 10
88.43613024380635
 20
-147.3481163520521
 30
0.0
 10
88.20082747203165
 20
-147.0538996854587
 30
0.0
 10
88.20082747203165
 20
-147.0538996854587
 30
0.0
 10
87.52455248928486
 20
-146.5540135744727
 30
0.0
 10
87.52455248928486
 20
-146.5540135744727
 30
0.0
 10
87.52455248928486
 20
-146.5540135744727
 30
0.0
 10
87.49527193447632
 20
-147.0538996854587
 30
0.0
 10
87.49527193447632
 20
-147.0538996854587
 30
0.0
 10
87.49527193447632
 20
-147.0538996854587
 30
0.0
 10
88.34793580161194
 20
-147.6123469075415
 30
0.0
 10
88.34793580161194
 20
-147.6123469075415
 30
0.0
 10
88.34793580161194
 20
-147.6123469075415
 30
0.0
 10
88.6121663504264
 20
-147.9065635741342
 30
0.0
 10
89.11205244878437
 20
-147.4948719075707
 30
0.0
 10
89.11205244878437
 20
-147.4948719075707
 30
0.0
 10
92.25759542409043
 20
-145.7602635746712
 30
0.0
 10
92.25759542409043
 20
-145.7602635746712
 30
0.0
  0
SPLINE
  5
77
330
41
100
AcDbEntity
  8
_U+30EC_U+30A4_U+30E4_U+30FC 1
 62
   179
420
  2234388
370
     9
100
AcDbSpline
210
0.0
220
0.0
230
1.0
 70
    11
 71
     3
 72
    17
 73
    13
 74
     0
 42
0.0000000001
 43
0.0000000001
 12
1.0
 22
0.0
 32
0.0
 13
1.0
 23
0.0
 33
0.0
 40
0.0
 40
0.0
 40
0.0
 40
0.0
 40
1.0
 40
1.0
 40
1.0
 40
2.0
 40
2.0
 40
2.0
 40
3.0
 40
3.0
 40
3.0
 40
4.0
 40
4.0
 40
4.0
 40
4.0
 10
94.35979814823655
 20
-112.8489191384544
 30
0.0
 10
94.35979814823655
 20
-113.384647471654
 30
0.0
 10
93.5701756683815
 20
-113.8190580271008
 30
0.0
 10
92.59590930434821
 20
-113.8190580271008
 30
0.0
 10
91.62160766253805
 20
-113.8190580271008
 30
0.0
 10
90.83184407157549
 20
-113.384647471654
 30
0.0
 10
90.83184407157549
 20
-112.8489191384544
 30
0.0
 10
90.83184407157549
 20
-112.3132260830328
 30
0.0
 10
91.62160766253805
 20
-111.8787802498081
 30
0.0
 10
92.59590930434821
 20
-111.8787802498081
 30
0.0
 10
93.5701756683815
 20
-111.8787802498081
 30
0.0
 10
94.35979814823655
 20
-112.3132260830328
 30
0.0
 10
94.35979814823655
 20
-112.8489191384544
 30
0.0
  0
HATCH
  5
78
330
41
100
AcDbEntity
  8
_U+30EC_U+30A4_U+30E4_U+30FC 1
 62
     7
420
 16711422
100
AcDbHatch
 10
0.0
 20
0.0
 30
0.0
210
0.0
220
0.0
230
1.0
  2
SOLID
 70
     1
 71
     0
 91
        1
 92
        1
 93
        1
 72
     4
 94
        3
 73
     0
 74
     1
 95
       17
 96
       13
 40
0.0
 40
0.0
 40
0.0
 40
0.0
 40
1.0
 40
1.0
 40
1.0
 40
2.0
 40
2.0
 40
2.0
 40
3.0
 40
3.0
 40
3.0
 40
4.0
 40
4.0
 40
4.0
 40
4.0
 10
94.35979814823655
 20
-112.8489191384544
 10
94.35979814823655
 20
-113.384647471654
 10
93.5701756683815
 20
-113.8190580271008
 10
92.59590930434821
 20
-113.8190580271008
 10
91.62160766253805
 20
-113.8190580271008
 10
90.83184407157549
 20
-113.384647471654
 10
90.83184407157549
 20
-112.8489191384544
 10
90.83184407157549
 20
-112.3132260830328
 10
91.62160766253805
 20
-111.8787802498081
 10
92.59590930434821
 20
-111.8787802498081
 10
93.5701756683815
 20
-111.8787802498081
 10
94.35979814823655
 20
-112.3132260830328
 10
94.35979814823655
 20
-112.8489191384544
 97
        0
 97
        0
 75
     2
 76
     1
 98
        0
  0
SPLINE
  5
79
330
41
100
AcDbEntity
  8
_U+30EC_U+30A4_U+30E4_U+30FC 1
 62
   179
420
  2234388
370
     9
100
AcDbSpline
210
0.0
220
0.0
230
1.0
 70
     8
 71
     3
 72
     8
 73
     4
 74
     0
 42
0.0000000001
 43
0.0000000001
 12
1.0
 22
0.0
 32
0.0
 13
1.0
 23
0.0
 33
0.0
 40
0.0
 40
0.0
 40
0.0
 40
0.0
 40
1.0
 40
1.0
 40
1.0
 40
1.0
 10
90.92003851376991
 20
-113.0694052495104
 30
0.0
 10
90.92003851376991
 20
-113.0694052495104
 30
0.0
 10
92.68410374654263
 20
-111.2614191388513
 30
0.0
 10
94.27160370604213
 20
-113.1575996939328
 30
0.0
  0
SPLINE
  5
7A
330
41
100
AcDbEntity
  8
_U+30EC_U+30A4_U+30E4_U+30FC 1
 62
   179
420
  2234388
370
     9
100
AcDbSpline
210
0.0
220
0.0
230
1.0
 70
    11
 71
     3
 72
    17
 73
    13
 74
     0
 42
0.0000000001
 43
0.0000000001
 12
1.0
 22
0.0
 32
0.0
 13
1.0
 23
0.0
 33
0.0
 40
0.0
 40
0.0
 40
0.0
 40
0.0
 40
1.0
 40
1.0
 40
1.0
 40
2.0
 40
2.0
 40
2.0
 40
3.0
 40
3.0
 40
3.0
 40
4.0
 40
4.0
 40
4.0
 40
4.0
 10
95.35265830949491
 20
-143.2894432975112
 30
0.0
 10
95.57109589511154
 20
-143.4444891308053
 30
0.0
 10
95.56280561754527
 20
-143.8303221862649
 30
0.0
 10
95.33544034556806
 20
-144.1503621861847
 30
0.0
 10
95.1073695180533
 20
-144.470084686105
 30
0.0
 10
94.74633674948623
 20
-144.6037521860715
 30
0.0
 10
94.5278967550591
 20
-144.4480360749994
 30
0.0
 10
94.30949442086734
 20
-144.2929902417046
 30
0.0
 10
94.31707676043757
 20
-143.9071571862457
 30
0.0
 10
94.54514997636386
 20
-143.5874346863255
 30
0.0
 10
94.77251285992955
 20
-143.2673946864056
 30
0.0
 10
95.13425118403416
 20
-143.1337271864385
 30
0.0
 10
95.35265830949491
 20
-143.2894432975112
 30
0.0
  0
HATCH
  5
7B
330
41
100
AcDbEntity
  8
_U+30EC_U+30A4_U+30E4_U+30FC 1
 62
     7
420
 16711422
100
AcDbHatch
 10
0.0
 20
0.0
 30
0.0
210
0.0
220
0.0
230
1.0
  2
SOLID
 70
     1
 71
     0
 91
        1
 92
        1
 93
        1
 72
     4
 94
        3
 73
     0
 74
     1
 95
       17
 96
       13
 40
0.0
 40
0.0
 40
0.0
 40
0.0
 40
1.0
 40
1.0
 40
1.0
 40
2.0
 40
2.0
 40
2.0
 40
3.0
 40
3.0
 40
3.0
 40
4.0
 40
4.0
 40
4.0
 40
4.0
 10
95.35265830949491
 20
-143.2894432975112
 10
95.57109589511154
 20
-143.4444891308053
 10
95.56280561754527
 20
-143.8303221862649
 10
95.33544034556806
 20
-144.1503621861847
 10
95.1073695180533
 20
-144.470084686105
 10
94.74633674948623
 20
-144.6037521860715
 10
94.5278967550591
 20
-144.4480360749994
 10
94.30949442086734
 20
-144.2929902417046
 10
94.31707676043757
 20
-143.9071571862457
 10
94.54514997636386
 20
-143.5874346863255
 10
94.77251285992955
 20
-143.2673946864056
 10
95.13425118403416
 20
-143.1337271864385
 10
95.35265830949491
 20
-143.2894432975112
 97
        0
 97
        0
 75
     2
 76
     1
 98
        0
  0
SPLINE
  5
7C
330
41
100
AcDbEntity
  8
_U+30EC_U+30A4_U+30E4_U+30FC 1
 62
   179
420
  2234388
370
     9
100
AcDbSpline
210
0.0
220
0.0
230
1.0
 70
     8
 71
     3
 72
     8
 73
     4
 74
     0
 42
0.0000000001
 43
0.0000000001
 12
1.0
 22
0.0
 32
0.0
 13
1.0
 23
0.0
 33
0.0
 40
0.0
 40
0.0
 40
0.0
 40
0.0
 40
1.0
 40
1.0
 40
1.0
 40
1.0
 10
94.37426203675643
 20
-144.231677463942
 30
0.0
 10
94.37426203675643
 20
-144.231677463942
 30
0.0
 10
95.28583979127792
 20
-144.2020441306159
 30
0.0
 10
95.07981757431176
 20
-143.2908191308441
 30
0.0
  0
SPLINE
  5
7D
330
41
100
AcDbEntity
  8
_U+30EC_U+30A4_U+30E4_U+30FC 1
 62
   179
420
  2234388
370
     9
100
AcDbSpline
210
0.0
220
0.0
230
1.0
 70
    11
 71
     3
 72
    17
 73
    13
 74
     0
 42
0.0000000001
 43
0.0000000001
 12
1.0
 22
0.0
 32
0.0
 13
1.0
 23
0.0
 33
0.0
 40
0.0
 40
0.0
 40
0.0
 40
0.0
 40
1.0
 40
1.0
 40
1.0
 40
2.0
 40
2.0
 40
2.0
 40
3.0
 40
3.0
 40
3.0
 40
4.0
 40
4.0
 40
4.0
 40
4.0
 10
95.71093700265502
 20
-136.6066327436263
 30
0.0
 10
95.36849562250254
 20
-136.3892510770139
 30
0.0
 10
94.76009508246857
 20
-136.7337738547055
 30
0.0
 10
94.35288608752302
 20
-137.3762880212114
 30
0.0
 10
93.94567232546845
 20
-138.0184494099395
 30
0.0
 10
93.89261454904428
 20
-138.7157499653208
 30
0.0
 10
94.23576386532996
 20
-138.9331316319332
 30
0.0
 10
94.57890842042436
 20
-139.1505132985457
 30
0.0
 10
95.18660340492077
 20
-138.805990520854
 30
0.0
 10
95.59452033895839
 20
-138.1634763543481
 30
0.0
 10
96.00173171745844
 20
-137.5209621878422
 30
0.0
 10
96.05408393834504
 20
-136.8240496880163
 30
0.0
 10
95.71093700265502
 20
-136.6066327436263
 30
0.0
  0
SPLINE
  5
7E
330
41
100
AcDbEntity
  8
_U+30EC_U+30A4_U+30E4_U+30FC 1
 62
   179
420
  2234388
370
     9
100
AcDbSpline
210
0.0
220
0.0
230
1.0
 70
    11
 71
     3
 72
    17
 73
    13
 74
     0
 42
0.0000000001
 43
0.0000000001
 12
1.0
 22
0.0
 32
0.0
 13
1.0
 23
0.0
 33
0.0
 40
0.0
 40
0.0
 40
0.0
 40
0.0
 40
1.0
 40
1.0
 40
1.0
 40
2.0
 40
2.0
 40
2.0
 40
3.0
 40
3.0
 40
3.0
 40
4.0
 40
4.0
 40
4.0
 40
4.0
 10
95.6992247807316
 20
-137.5182105211758
 30
0.0
 10
95.56972006181331
 20
-137.4358721878634
 30
0.0
 10
95.33889997616542
 20
-137.5661177433861
 30
0.0
 10
95.18522757162253
 20
-137.8096755211034
 30
0.0
 10
95.0308872977823
 20
-138.0529157988199
 30
0.0
 10
95.0109200760695
 20
-138.3171463543093
 30
0.0
 10
95.14046007276465
 20
-138.3994846876224
 30
0.0
 10
95.27067034722049
 20
-138.4818230209349
 30
0.0
 10
95.50078728579416
 20
-138.3512599654119
 30
0.0
 10
95.6551275596344
 20
-138.1076669099177
 30
0.0
 10
95.80946783347461
 20
-137.8644619099781
 30
0.0
 10
95.8294703329643
 20
-137.6005488544889
 30
0.0
 10
95.6992247807316
 20
-137.5182105211758
 30
0.0
  0
POLYLINE
  5
7F
330
41
100
AcDbEntity
  8
_U+30EC_U+30A4_U+30E4_U+30FC 1
 62
   179
420
  2234388
370
     9
100
AcDb2dPolyline
 66
     1
 10
0.0
 20
0.0
 30
0.0
  0
VERTEX
  5
80
330
7F
100
AcDbEntity
  8
_U+30EC_U+30A4_U+30E4_U+30FC 1
 62
   179
420
  2234388
370
     9
100
AcDbVertex
100
AcDb2dVertex
 10
94.96198979954002
 20
-133.9714885776179
 30
0.0
  0
VERTEX
  5
81
330
7F
100
AcDbEntity
  8
_U+30EC_U+30A4_U+30E4_U+30FC 1
 62
   179
420
  2234388
370
     9
100
AcDbVertex
100
AcDb2dVertex
 10
94.5802842537226
 20
-132.5603774668596
 30
0.0
  0
VERTEX
  5
82
330
7F
100
AcDbEntity
  8
_U+30EC_U+30A4_U+30E4_U+30FC 1
 62
   179
420
  2234388
370
     9
100
AcDbVertex
100
AcDb2dVertex
 10
93.96292315836168
 20
-132.854594133453
 30
0.0
  0
VERTEX
  5
83
330
7F
100
AcDbEntity
  8
_U+30EC_U+30A4_U+30E4_U+30FC 1
 62
   179
420
  2234388
370
     9
100
AcDbVertex
100
AcDb2dVertex
 10
94.02148426797876
 20
-135.6471830216435
 30
0.0
  0
VERTEX
  5
84
330
7F
100
AcDbEntity
  8
_U+30EC_U+30A4_U+30E4_U+30FC 1
 62
   179
420
  2234388
370
     9
100
AcDbVertex
100
AcDb2dVertex
 10
93.55087872442935
 20
-135.8532052438144
 30
0.0
  0
VERTEX
  5
85
330
7F
100
AcDbEntity
  8
_U+30EC_U+30A4_U+30E4_U+30FC 1
 62
   179
420
  2234388
370
     9
100
AcDbVertex
100
AcDb2dVertex
 10
93.55087872442935
 20
-136.3527385770226
 30
0.0
  0
VERTEX
  5
86
330
7F
100
AcDbEntity
  8
_U+30EC_U+30A4_U+30E4_U+30FC 1
 62
   179
420
  2234388
370
     9
100
AcDbVertex
100
AcDb2dVertex
 10
94.2564342619847
 20
-136.646955243616
 30
0.0
  0
VERTEX
  5
87
330
7F
100
AcDbEntity
  8
_U+30EC_U+30A4_U+30E4_U+30FC 1
 62
   179
420
  2234388
370
     9
100
AcDbVertex
100
AcDb2dVertex
 10
97.13792307736068
 20
-135.0887357995613
 30
0.0
  0
VERTEX
  5
88
330
7F
100
AcDbEntity
  8
_U+30EC_U+30A4_U+30E4_U+30FC 1
 62
   179
420
  2234388
370
     9
100
AcDbVertex
100
AcDb2dVertex
 10
97.13792307736068
 20
-134.6770441329971
 30
0.0
  0
VERTEX
  5
89
330
7F
100
AcDbEntity
  8
_U+30EC_U+30A4_U+30E4_U+30FC 1
 62
   179
420
  2234388
370
     9
100
AcDbVertex
100
AcDb2dVertex
 10
96.49092864942243
 20
-134.2360719108851
 30
0.0
  0
SEQEND
  5
8A
330
7F
100
AcDbEntity
  8
_U+30EC_U+30A4_U+30E4_U+30FC 1
 62
   179
420
  2234388
370
     9
  0
SPLINE
  5
8B
330
41
100
AcDbEntity
  8
_U+30EC_U+30A4_U+30E4_U+30FC 1
 62
   179
420
  2234388
370
     9
100
AcDbSpline
210
0.0
220
0.0
230
1.0
 70
     8
 71
     3
 72
    26
 73
    22
 74
     0
 42
0.0000000001
 43
0.0000000001
 12
1.0
 22
0.0
 32
0.0
 13
1.0
 23
0.0
 33
0.0
 40
0.0
 40
0.0
 40
0.0
 40
0.0
 40
1.0
 40
1.0
 40
1.0
 40
2.0
 40
2.0
 40
2.0
 40
3.0
 40
3.0
 40
3.0
 40
4.0
 40
4.0
 40
4.0
 40
5.0
 40
5.0
 40
5.0
 40
6.0
 40
6.0
 40
6.0
 40
7.0
 40
7.0
 40
7.0
 40
7.0
 10
92.22863236927378
 20
-135.2651246884061
 30
0.0
 10
92.22863236927378
 20
-135.2651246884061
 30
0.0
 10
91.05250656594592
 20
-136.1177885770816
 30
0.0
 10
91.05250656594592
 20
-136.1177885770816
 30
0.0
 10
91.05250656594592
 20
-136.1177885770816
 30
0.0
 10
91.0228732333686
 20
-139.7337607983999
 30
0.0
 10
91.0228732333686
 20
-139.7337607983999
 30
0.0
 10
91.0228732333686
 20
-139.7337607983999
 30
0.0
 10
88.1715469172231
 20
-143.9078274640231
 30
0.0
 10
88.1715469172231
 20
-144.2020441306159
 30
0.0
 10
88.1715469172231
 20
-144.2020441306159
 30
0.0
 10
87.46563860189899
 20
-145.2607302414624
 30
0.0
 10
88.3183024690346
 20
-145.6427885747004
 30
0.0
 10
88.3183024690346
 20
-145.6427885747004
 30
0.0
 10
88.87710245477844
 20
-145.9662857968415
 30
0.0
 10
88.87710245477844
 20
-146.3483441300795
 30
0.0
 10
88.87710245477844
 20
-146.3483441300795
 30
0.0
 10
88.87710245477844
 20
-147.3184830187259
 30
0.0
 10
88.87710245477844
 20
-147.3184830187259
 30
0.0
 10
88.87710245477844
 20
-147.3184830187259
 30
0.0
 10
88.90638300958699
 20
-147.7008941297417
 30
0.0
 10
88.4654107986149
 20
-147.6712607964155
 30
0.0
  0
POLYLINE
  5
8C
330
41
100
AcDbEntity
  8
_U+30EC_U+30A4_U+30E4_U+30FC 1
 62
   179
420
  2234388
370
     9
100
AcDb2dPolyline
 66
     1
 10
0.0
 20
0.0
 30
0.0
  0
VERTEX
  5
8D
330
8C
100
AcDbEntity
  8
_U+30EC_U+30A4_U+30E4_U+30FC 1
 62
   179
420
  2234388
370
     9
100
AcDbVertex
100
AcDb2dVertex
 10
87.49527193447632
 20
-146.5832941300205
 30
0.0
  0
VERTEX
  5
8E
330
8C
100
AcDbEntity
  8
_U+30EC_U+30A4_U+30E4_U+30FC 1
 62
   179
420
  2234388
370
     9
100
AcDbVertex
100
AcDb2dVertex
 10
88.28902191422607
 20
-146.230516352331
 30
0.0
  0
SEQEND
  5
8F
330
8C
100
AcDbEntity
  8
_U+30EC_U+30A4_U+30E4_U+30FC 1
 62
   179
420
  2234388
370
     9
  0
POLYLINE
  5
90
330
41
100
AcDbEntity
  8
_U+30EC_U+30A4_U+30E4_U+30FC 1
 62
   179
420
  2234388
370
     9
100
AcDb2dPolyline
 66
     1
 10
0.0
 20
0.0
 30
0.0
  0
VERTEX
  5
91
330
90
100
AcDbEntity
  8
_U+30EC_U+30A4_U+30E4_U+30FC 1
 62
   179
420
  2234388
370
     9
100
AcDbVertex
100
AcDb2dVertex
 10
84.37918590286318
 20
-115.2742663600703
 30
0.0
  0
VERTEX
  5
92
330
90
100
AcDbEntity
  8
_U+30EC_U+30A4_U+30E4_U+30FC 1
 62
   179
420
  2234388
370
     9
100
AcDbVertex
100
AcDb2dVertex
 10
84.49630812209736
 20
-110.8645441389505
 30
0.0
  0
VERTEX
  5
93
330
90
100
AcDbEntity
  8
_U+30EC_U+30A4_U+30E4_U+30FC 1
 62
   179
420
  2234388
370
     9
100
AcDbVertex
100
AcDb2dVertex
 10
85.79029697797385
 20
-110.0411608058231
 30
0.0
  0
SEQEND
  5
94
330
90
100
AcDbEntity
  8
_U+30EC_U+30A4_U+30E4_U+30FC 1
 62
   179
420
  2234388
370
     9
  0
POLYLINE
  5
95
330
41
100
AcDbEntity
  8
_U+30EC_U+30A4_U+30E4_U+30FC 1
 62
   179
420
  2234388
370
     9
100
AcDb2dPolyline
 66
     1
 10
0.0
 20
0.0
 30
0.0
  0
VERTEX
  5
96
330
95
100
AcDbEntity
  8
_U+30EC_U+30A4_U+30E4_U+30FC 1
 62
   179
420
  2234388
370
     9
100
AcDbVertex
100
AcDb2dVertex
 10
83.49724148091902
 20
-110.1589885835714
 30
0.0
  0
VERTEX
  5
97
330
95
100
AcDbEntity
  8
_U+30EC_U+30A4_U+30E4_U+30FC 1
 62
   179
420
  2234388
370
     9
100
AcDbVertex
100
AcDb2dVertex
 10
86.20163585636861
 20
-111.9814385831158
 30
0.0
  0
SEQEND
  5
98
330
95
100
AcDbEntity
  8
_U+30EC_U+30A4_U+30E4_U+30FC 1
 62
   179
420
  2234388
370
     9
  0
POLYLINE
  5
99
330
41
100
AcDbEntity
  8
_U+30EC_U+30A4_U+30E4_U+30FC 1
 62
   179
420
  2234388
370
     9
100
AcDb2dPolyline
 66
     1
 10
0.0
 20
0.0
 30
0.0
  0
VERTEX
  5
9A
330
99
100
AcDbEntity
  8
_U+30EC_U+30A4_U+30E4_U+30FC 1
 62
   179
420
  2234388
370
     9
100
AcDbVertex
100
AcDb2dVertex
 10
88.49469135342345
 20
-107.4542413620252
 30
0.0
  0
VERTEX
  5
9B
330
99
100
AcDbEntity
  8
_U+30EC_U+30A4_U+30E4_U+30FC 1
 62
   179
420
  2234388
370
     9
100
AcDbVertex
100
AcDb2dVertex
 10
91.14070100814034
 20
-109.2770441393474
 30
0.0
  0
SEQEND
  5
9C
330
99
100
AcDbEntity
  8
_U+30EC_U+30A4_U+30E4_U+30FC 1
 62
   179
420
  2234388
370
     9
  0
POLYLINE
  5
9D
330
41
100
AcDbEntity
  8
_U+30EC_U+30A4_U+30E4_U+30FC 1
 62
   179
420
  2234388
370
     9
100
AcDb2dPolyline
 66
     1
 10
0.0
 20
0.0
 30
0.0
  0
VERTEX
  5
9E
330
9D
100
AcDbEntity
  8
_U+30EC_U+30A4_U+30E4_U+30FC 1
 62
   179
420
  2234388
370
     9
100
AcDbVertex
100
AcDb2dVertex
 10
88.20082747203165
 20
-108.6889635839388
 30
0.0
  0
VERTEX
  5
9F
330
9D
100
AcDbEntity
  8
_U+30EC_U+30A4_U+30E4_U+30FC 1
 62
   179
420
  2234388
370
     9
100
AcDbVertex
100
AcDb2dVertex
 10
89.31772188798175
 20
-108.0423219174339
 30
0.0
  0
SEQEND
  5
A0
330
9D
100
AcDbEntity
  8
_U+30EC_U+30A4_U+30E4_U+30FC 1
 62
   179
420
  2234388
370
     9
  0
POLYLINE
  5
A1
330
41
100
AcDbEntity
  8
_U+30EC_U+30A4_U+30E4_U+30FC 1
 62
   179
420
  2234388
370
     9
100
AcDb2dPolyline
 66
     1
 10
0.0
 20
0.0
 30
0.0
  0
VERTEX
  5
A2
330
A1
100
AcDbEntity
  8
_U+30EC_U+30A4_U+30E4_U+30FC 1
 62
   179
420
  2234388
370
     9
100
AcDbVertex
100
AcDb2dVertex
 10
92.84532318687403
 20
-109.3356052504439
 30
0.0
  0
VERTEX
  5
A3
330
A1
100
AcDbEntity
  8
_U+30EC_U+30A4_U+30E4_U+30FC 1
 62
   179
420
  2234388
370
     9
100
AcDbVertex
100
AcDb2dVertex
 10
95.55042311786117
 20
-107.63063025087
 30
0.0
  0
SEQEND
  5
A4
330
A1
100
AcDbEntity
  8
_U+30EC_U+30A4_U+30E4_U+30FC 1
 62
   179
420
  2234388
370
     9
  0
POLYLINE
  5
A5
330
41
100
AcDbEntity
  8
_U+30EC_U+30A4_U+30E4_U+30FC 1
 62
   179
420
  2234388
370
     9
100
AcDb2dPolyline
 66
     1
 10
0.0
 20
0.0
 30
0.0
  0
VERTEX
  5
A6
330
A5
100
AcDbEntity
  8
_U+30EC_U+30A4_U+30E4_U+30FC 1
 62
   179
420
  2234388
370
     9
100
AcDbVertex
100
AcDb2dVertex
 10
94.78560091515119
 20
-108.1008830285304
 30
0.0
  0
VERTEX
  5
A7
330
A5
100
AcDbEntity
  8
_U+30EC_U+30A4_U+30E4_U+30FC 1
 62
   179
420
  2234388
370
     9
100
AcDbVertex
100
AcDb2dVertex
 10
96.54948975903953
 20
-109.1592163615991
 30
0.0
  0
SEQEND
  5
A8
330
A5
100
AcDbEntity
  8
_U+30EC_U+30A4_U+30E4_U+30FC 1
 62
   179
420
  2234388
370
     9
  0
POLYLINE
  5
A9
330
41
100
AcDbEntity
  8
_U+30EC_U+30A4_U+30E4_U+30FC 1
 62
   179
420
  2234388
370
     9
100
AcDb2dPolyline
 66
     1
 10
0.0
 20
0.0
 30
0.0
  0
VERTEX
  5
AA
330
A9
100
AcDbEntity
  8
_U+30EC_U+30A4_U+30E4_U+30FC 1
 62
   179
420
  2234388
370
     9
100
AcDbVertex
100
AcDb2dVertex
 10
98.72542303686018
 20
-112.686994138495
 30
0.0
  0
VERTEX
  5
AB
330
A9
100
AcDbEntity
  8
_U+30EC_U+30A4_U+30E4_U+30FC 1
 62
   179
420
  2234388
370
     9
100
AcDbVertex
100
AcDb2dVertex
 10
101.3712563026927
 20
-111.2173219166401
 30
0.0
  0
SEQEND
  5
AC
330
A9
100
AcDbEntity
  8
_U+30EC_U+30A4_U+30E4_U+30FC 1
 62
   179
420
  2234388
370
     9
  0
POLYLINE
  5
AD
330
41
100
AcDbEntity
  8
_U+30EC_U+30A4_U+30E4_U+30FC 1
 62
   179
420
  2234388
370
     9
100
AcDb2dPolyline
 66
     1
 10
0.0
 20
0.0
 30
0.0
  0
VERTEX
  5
AE
330
AD
100
AcDbEntity
  8
_U+30EC_U+30A4_U+30E4_U+30FC 1
 62
   179
420
  2234388
370
     9
100
AcDbVertex
100
AcDb2dVertex
 10
99.0189341404832
 20
-110.7467163612023
 30
0.0
  0
VERTEX
  5
AF
330
AD
100
AcDbEntity
  8
_U+30EC_U+30A4_U+30E4_U+30FC 1
 62
   179
420
  2234388
370
     9
100
AcDbVertex
100
AcDb2dVertex
 10
100.7242618747544
 20
-111.5700996943297
 30
0.0
  0
SEQEND
  5
B0
330
AD
100
AcDbEntity
  8
_U+30EC_U+30A4_U+30E4_U+30FC 1
 62
   179
420
  2234388
370
     9
  0
POLYLINE
  5
B1
330
41
100
AcDbEntity
  8
_U+30EC_U+30A4_U+30E4_U+30FC 1
 62
   179
420
  2234388
370
     9
100
AcDb2dPolyline
 66
     1
 10
0.0
 20
0.0
 30
0.0
  0
VERTEX
  5
B2
330
B1
100
AcDbEntity
  8
_U+30EC_U+30A4_U+30E4_U+30FC 1
 62
   179
420
  2234388
370
     9
100
AcDbVertex
100
AcDb2dVertex
 10
84.37918590286318
 20
-118.4492663592766
 30
0.0
  0
VERTEX
  5
B3
330
B1
100
AcDbEntity
  8
_U+30EC_U+30A4_U+30E4_U+30FC 1
 62
   179
420
  2234388
370
     9
100
AcDbVertex
100
AcDb2dVertex
 10
84.37918590286318
 20
-125.6222969130388
 30
0.0
  0
SEQEND
  5
B4
330
B1
100
AcDbEntity
  8
_U+30EC_U+30A4_U+30E4_U+30FC 1
 62
   179
420
  2234388
370
     9
  0
POLYLINE
  5
B5
330
41
100
AcDbEntity
  8
_U+30EC_U+30A4_U+30E4_U+30FC 1
 62
   179
420
  2234388
370
     9
100
AcDb2dPolyline
 66
     1
 10
0.0
 20
0.0
 30
0.0
  0
VERTEX
  5
B6
330
B5
100
AcDbEntity
  8
_U+30EC_U+30A4_U+30E4_U+30FC 1
 62
   179
420
  2234388
370
     9
100
AcDbVertex
100
AcDb2dVertex
 10
84.26135812809144
 20
-129.9734580230623
 30
0.0
  0
VERTEX
  5
B7
330
B5
100
AcDbEntity
  8
_U+30EC_U+30A4_U+30E4_U+30FC 1
 62
   179
420
  2234388
370
     9
100
AcDbVertex
100
AcDb2dVertex
 10
84.26135812809144
 20
-145.3192913525592
 30
0.0
  0
SEQEND
  5
B8
330
B5
100
AcDbEntity
  8
_U+30EC_U+30A4_U+30E4_U+30FC 1
 62
   179
420
  2234388
370
     9
  0
POLYLINE
  5
B9
330
41
100
AcDbEntity
  8
_U+30EC_U+30A4_U+30E4_U+30FC 1
 62
   179
420
  2234388
370
     9
100
AcDb2dPolyline
 66
     1
 10
0.0
 20
0.0
 30
0.0
  0
VERTEX
  5
BA
330
B9
100
AcDbEntity
  8
_U+30EC_U+30A4_U+30E4_U+30FC 1
 62
   179
420
  2234388
370
     9
100
AcDbVertex
100
AcDb2dVertex
 10
83.43832759353315
 20
-144.907599685995
 30
0.0
  0
VERTEX
  5
BB
330
B9
100
AcDbEntity
  8
_U+30EC_U+30A4_U+30E4_U+30FC 1
 62
   179
420
  2234388
370
     9
100
AcDbVertex
100
AcDb2dVertex
 10
85.96668586236268
 20
-146.3776246856279
 30
0.0
  0
SEQEND
  5
BC
330
B9
100
AcDbEntity
  8
_U+30EC_U+30A4_U+30E4_U+30FC 1
 62
   179
420
  2234388
370
     9
  0
POLYLINE
  5
BD
330
41
100
AcDbEntity
  8
_U+30EC_U+30A4_U+30E4_U+30FC 1
 62
   179
420
  2234388
370
     9
100
AcDb2dPolyline
 66
     1
 10
0.0
 20
0.0
 30
0.0
  0
VERTEX
  5
BE
330
BD
100
AcDbEntity
  8
_U+30EC_U+30A4_U+30E4_U+30FC 1
 62
   179
420
  2234388
370
     9
100
AcDbVertex
100
AcDb2dVertex
 10
90.69955240828386
 20
-113.7308635826784
 30
0.0
  0
VERTEX
  5
BF
330
BD
100
AcDbEntity
  8
_U+30EC_U+30A4_U+30E4_U+30FC 1
 62
   179
420
  2234388
370
     9
100
AcDbVertex
100
AcDb2dVertex
 10
89.64121910195087
 20
-114.0395441381568
 30
0.0
  0
VERTEX
  5
C0
330
BD
100
AcDbEntity
  8
_U+30EC_U+30A4_U+30E4_U+30FC 1
 62
   179
420
  2234388
370
     9
100
AcDbVertex
100
AcDb2dVertex
 10
90.21448297621457
 20
-114.1718358047904
 30
0.0
  0
VERTEX
  5
C1
330
BD
100
AcDbEntity
  8
_U+30EC_U+30A4_U+30E4_U+30FC 1
 62
   179
420
  2234388
370
     9
100
AcDbVertex
100
AcDb2dVertex
 10
90.30267741840899
 20
-114.7891969157472
 30
0.0
  0
VERTEX
  5
C2
330
BD
100
AcDbEntity
  8
_U+30EC_U+30A4_U+30E4_U+30FC 1
 62
   179
420
  2234388
370
     9
100
AcDbVertex
100
AcDb2dVertex
 10
90.69955240828386
 20
-113.7308635826784
 30
0.0
  0
SEQEND
  5
C4
330
BD
100
AcDbEntity
  8
_U+30EC_U+30A4_U+30E4_U+30FC 1
 62
   179
420
  2234388
370
     9
  0
HATCH
  5
C3
330
41
100
AcDbEntity
  8
_U+30EC_U+30A4_U+30E4_U+30FC 1
 62
   179
420
  2234388
100
AcDbHatch
 10
0.0
 20
0.0
 30
0.0
210
0.0
220
0.0
230
1.0
  2
SOLID
 70
     1
 71
     0
 91
        1
 92
        1
 93
        4
 72
     1
 10
90.69955240828386
 20
-113.7308635826784
 11
89.64121910195087
 21
-114.0395441381568
 72
     1
 10
89.64121910195087
 20
-114.0395441381568
 11
90.21448297621457
 21
-114.1718358047904
 72
     1
 10
90.21448297621457
 20
-114.1718358047904
 11
90.30267741840899
 21
-114.7891969157472
 72
     1
 10
90.30267741840899
 20
-114.7891969157472
 11
90.69955240828386
 21
-113.7308635826784
 97
        0
 75
     2
 76
     1
 98
        0
  0
POLYLINE
  5
C5
330
41
100
AcDbEntity
  8
_U+30EC_U+30A4_U+30E4_U+30FC 1
 62
   179
420
  2234388
370
     9
100
AcDb2dPolyline
 66
     1
 10
0.0
 20
0.0
 30
0.0
  0
VERTEX
  5
C6
330
C5
100
AcDbEntity
  8
_U+30EC_U+30A4_U+30E4_U+30FC 1
 62
   179
420
  2234388
370
     9
100
AcDbVertex
100
AcDb2dVertex
 10
81.26274709348127
 20
-117.9641969149534
 30
0.0
  0
VERTEX
  5
C7
330
C5
100
AcDbEntity
  8
_U+30EC_U+30A4_U+30E4_U+30FC 1
 62
   179
420
  2234388
370
     9
100
AcDbVertex
100
AcDb2dVertex
 10
85.89295530868814
 20
-117.9641969149534
 30
0.0
  0
VERTEX
  5
C8
330
C5
100
AcDbEntity
  8
_U+30EC_U+30A4_U+30E4_U+30FC 1
 62
   179
420
  2234388
370
     9
100
AcDbVertex
100
AcDb2dVertex
 10
90.39087186060341
 20
-114.083641360368
 30
0.0
  0
SEQEND
  5
C9
330
C5
100
AcDbEntity
  8
_U+30EC_U+30A4_U+30E4_U+30FC 1
 62
   179
420
  2234388
370
     9
  0
INSERT
  5
CB
330
41
100
AcDbEntity
  8
_U+30EC_U+30A4_U+30E4_U+30FC 1
100
AcDbBlockReference
  2
block 3
 10
0.0
 20
0.0
 30
0.0
  0
INSERT
  5
D5
330
41
100
AcDbEntity
  8
_U+30EC_U+30A4_U+30E4_U+30FC 1
100
AcDbBlockReference
  2
block 4
 10
0.0
 20
0.0
 30
0.0
  0
INSERT
  5
DD
330
41
100
AcDbEntity
  8
_U+30EC_U+30A4_U+30E4_U+30FC 1
100
AcDbBlockReference
  2
block 5
 10
0.0
 20
0.0
 30
0.0
  0
INSERT
  5
E6
330
41
100
AcDbEntity
  8
_U+30EC_U+30A4_U+30E4_U+30FC 1
100
AcDbBlockReference
  2
block 6
 10
0.0
 20
0.0
 30
0.0
  0
SPLINE
  5
F2
330
41
100
AcDbEntity
  8
_U+30EC_U+30A4_U+30E4_U+30FC 1
370
     0
100
AcDbSpline
210
0.0
220
0.0
230
1.0
 70
    11
 71
     3
 72
    17
 73
    13
 74
     0
 42
0.0000000001
 43
0.0000000001
 12
1.0
 22
0.0
 32
0.0
 13
1.0
 23
0.0
 33
0.0
 40
0.0
 40
0.0
 40
0.0
 40
0.0
 40
1.0
 40
1.0
 40
1.0
 40
2.0
 40
2.0
 40
2.0
 40
3.0
 40
3.0
 40
3.0
 40
4.0
 40
4.0
 40
4.0
 40
4.0
 10
84.47288367825053
 20
-145.4102374636474
 30
0.0
 10
84.47288367825053
 20
-145.5418588525036
 30
0.0
 10
84.36641534763343
 20
-145.6482919080325
 30
0.0
 10
84.23482923987936
 20
-145.6482919080325
 30
0.0
 10
84.10320785434841
 20
-145.6482919080325
 30
0.0
 10
83.9967748015082
 20
-145.5418588525036
 30
0.0
 10
83.9967748015082
 20
-145.4102374636474
 30
0.0
 10
83.9967748015082
 20
-145.2786513525693
 30
0.0
 10
84.10320785434841
 20
-145.1721830192622
 30
0.0
 10
84.23482923987936
 20
-145.1721830192622
 30
0.0
 10
84.36641534763343
 20
-145.1721830192622
 30
0.0
 10
84.47288367825053
 20
-145.2786513525693
 30
0.0
 10
84.47288367825053
 20
-145.4102374636474
 30
0.0
  0
HATCH
  5
F3
330
41
100
AcDbEntity
  8
_U+30EC_U+30A4_U+30E4_U+30FC 1
 62
   179
420
  2234388
100
AcDbHatch
 10
0.0
 20
0.0
 30
0.0
210
0.0
220
0.0
230
1.0
  2
SOLID
 70
     1
 71
     0
 91
        1
 92
        1
 93
        1
 72
     4
 94
        3
 73
     0
 74
     1
 95
       17
 96
       13
 40
0.0
 40
0.0
 40
0.0
 40
0.0
 40
1.0
 40
1.0
 40
1.0
 40
2.0
 40
2.0
 40
2.0
 40
3.0
 40
3.0
 40
3.0
 40
4.0
 40
4.0
 40
4.0
 40
4.0
 10
84.47288367825053
 20
-145.4102374636474
 10
84.47288367825053
 20
-145.5418588525036
 10
84.36641534763343
 20
-145.6482919080325
 10
84.23482923987936
 20
-145.6482919080325
 10
84.10320785434841
 20
-145.6482919080325
 10
83.9967748015082
 20
-145.5418588525036
 10
83.9967748015082
 20
-145.4102374636474
 10
83.9967748015082
 20
-145.2786513525693
 10
84.10320785434841
 20
-145.1721830192622
 10
84.23482923987936
 20
-145.1721830192622
 10
84.36641534763343
 20
-145.1721830192622
 10
84.47288367825053
 20
-145.2786513525693
 10
84.47288367825053
 20
-145.4102374636474
 97
        0
 97
        0
 75
     2
 76
     1
 98
        0
  0
SPLINE
  5
F4
330
41
100
AcDbEntity
  8
_U+30EC_U+30A4_U+30E4_U+30FC 1
370
     0
100
AcDbSpline
210
0.0
220
0.0
230
1.0
 70
    11
 71
     3
 72
    17
 73
    13
 74
     0
 42
0.0000000001
 43
0.0000000001
 12
1.0
 22
0.0
 32
0.0
 13
1.0
 23
0.0
 33
0.0
 40
0.0
 40
0.0
 40
0.0
 40
0.0
 40
1.0
 40
1.0
 40
1.0
 40
2.0
 40
2.0
 40
2.0
 40
3.0
 40
3.0
 40
3.0
 40
4.0
 40
4.0
 40
4.0
 40
4.0
 10
84.8256614470282
 20
-110.8380152500682
 30
0.0
 10
84.8256614470282
 20
-110.9696366389241
 30
0.0
 10
84.71919311641109
 20
-111.0760696944534
 30
0.0
 10
84.58760700865703
 20
-111.0760696944534
 30
0.0
 10
84.45598562312608
 20
-111.0760696944534
 30
0.0
 10
84.34955257028585
 20
-110.9696366389241
 30
0.0
 10
84.34955257028585
 20
-110.8380152500682
 30
0.0
 10
84.34955257028585
 20
-110.7064291389901
 30
0.0
 10
84.45598562312608
 20
-110.5999608056834
 30
0.0
 10
84.58760700865703
 20
-110.5999608056834
 30
0.0
 10
84.71919311641109
 20
-110.5999608056834
 30
0.0
 10
84.8256614470282
 20
-110.7064291389901
 30
0.0
 10
84.8256614470282
 20
-110.8380152500682
 30
0.0
  0
HATCH
  5
F5
330
41
100
AcDbEntity
  8
_U+30EC_U+30A4_U+30E4_U+30FC 1
 62
   179
420
  2234388
100
AcDbHatch
 10
0.0
 20
0.0
 30
0.0
210
0.0
220
0.0
230
1.0
  2
SOLID
 70
     1
 71
     0
 91
        1
 92
        1
 93
        1
 72
     4
 94
        3
 73
     0
 74
     1
 95
       17
 96
       13
 40
0.0
 40
0.0
 40
0.0
 40
0.0
 40
1.0
 40
1.0
 40
1.0
 40
2.0
 40
2.0
 40
2.0
 40
3.0
 40
3.0
 40
3.0
 40
4.0
 40
4.0
 40
4.0
 40
4.0
 10
84.8256614470282
 20
-110.8380152500682
 10
84.8256614470282
 20
-110.9696366389241
 10
84.71919311641109
 20
-111.0760696944534
 10
84.58760700865703
 20
-111.0760696944534
 10
84.45598562312608
 20
-111.0760696944534
 10
84.34955257028585
 20
-110.9696366389241
 10
84.34955257028585
 20
-110.8380152500682
 10
84.34955257028585
 20
-110.7064291389901
 10
84.45598562312608
 20
-110.5999608056834
 10
84.58760700865703
 20
-110.5999608056834
 10
84.71919311641109
 20
-110.5999608056834
 10
84.8256614470282
 20
-110.7064291389901
 10
84.8256614470282
 20
-110.8380152500682
 97
        0
 97
        0
 75
     2
 76
     1
 98
        0
  0
SPLINE
  5
F6
330
41
100
AcDbEntity
  8
_U+30EC_U+30A4_U+30E4_U+30FC 1
370
     0
100
AcDbSpline
210
0.0
220
0.0
230
1.0
 70
    11
 71
     3
 72
    17
 73
    13
 74
     0
 42
0.0000000001
 43
0.0000000001
 12
1.0
 22
0.0
 32
0.0
 13
1.0
 23
0.0
 33
0.0
 40
0.0
 40
0.0
 40
0.0
 40
0.0
 40
1.0
 40
1.0
 40
1.0
 40
2.0
 40
2.0
 40
2.0
 40
3.0
 40
3.0
 40
3.0
 40
4.0
 40
4.0
 40
4.0
 40
4.0
 10
89.57644910360328
 20
-108.0040808063323
 30
0.0
 10
89.57644910360328
 20
-108.1357021951882
 30
0.0
 10
89.46998077298619
 20
-108.2421352507172
 30
0.0
 10
89.33839466523212
 20
-108.2421352507172
 30
0.0
 10
89.20677327970117
 20
-108.2421352507172
 30
0.0
 10
89.10034022686095
 20
-108.1357021951882
 30
0.0
 10
89.10034022686095
 20
-108.0040808063323
 30
0.0
 10
89.10034022686095
 20
-107.8724946952542
 30
0.0
 10
89.20677327970117
 20
-107.7660263619474
 30
0.0
 10
89.33839466523212
 20
-107.7660263619474
 30
0.0
 10
89.46998077298619
 20
-107.7660263619474
 30
0.0
 10
89.57644910360328
 20
-107.8724946952542
 30
0.0
 10
89.57644910360328
 20
-108.0040808063323
 30
0.0
  0
HATCH
  5
F7
330
41
100
AcDbEntity
  8
_U+30EC_U+30A4_U+30E4_U+30FC 1
 62
   179
420
  2234388
100
AcDbHatch
 10
0.0
 20
0.0
 30
0.0
210
0.0
220
0.0
230
1.0
  2
SOLID
 70
     1
 71
     0
 91
        1
 92
        1
 93
        1
 72
     4
 94
        3
 73
     0
 74
     1
 95
       17
 96
       13
 40
0.0
 40
0.0
 40
0.0
 40
0.0
 40
1.0
 40
1.0
 40
1.0
 40
2.0
 40
2.0
 40
2.0
 40
3.0
 40
3.0
 40
3.0
 40
4.0
 40
4.0
 40
4.0
 40
4.0
 10
89.57644910360328
 20
-108.0040808063323
 10
89.57644910360328
 20
-108.1357021951882
 10
89.46998077298619
 20
-108.2421352507172
 10
89.33839466523212
 20
-108.2421352507172
 10
89.20677327970117
 20
-108.2421352507172
 10
89.10034022686095
 20
-108.1357021951882
 10
89.10034022686095
 20
-108.0040808063323
 10
89.10034022686095
 20
-107.8724946952542
 10
89.20677327970117
 20
-107.7660263619474
 10
89.33839466523212
 20
-107.7660263619474
 10
89.46998077298619
 20
-107.7660263619474
 10
89.57644910360328
 20
-107.8724946952542
 10
89.57644910360328
 20
-108.0040808063323
 97
        0
 97
        0
 75
     2
 76
     1
 98
        0
  0
SPLINE
  5
F8
330
41
100
AcDbEntity
  8
_U+30EC_U+30A4_U+30E4_U+30FC 1
370
     0
100
AcDbSpline
210
0.0
220
0.0
230
1.0
 70
    11
 71
     3
 72
    17
 73
    13
 74
     0
 42
0.0000000001
 43
0.0000000001
 12
1.0
 22
0.0
 32
0.0
 13
1.0
 23
0.0
 33
0.0
 40
0.0
 40
0.0
 40
0.0
 40
0.0
 40
1.0
 40
1.0
 40
1.0
 40
2.0
 40
2.0
 40
2.0
 40
3.0
 40
3.0
 40
3.0
 40
4.0
 40
4.0
 40
4.0
 40
4.0
 10
95.06810535238834
 20
-108.0922752507547
 30
0.0
 10
95.06810535238834
 20
-108.2238966396106
 30
0.0
 10
94.96128424400247
 20
-108.3303296951396
 30
0.0
 10
94.8296981362484
 20
-108.3303296951396
 30
0.0
 10
94.69807675071745
 20
-108.3303296951396
 30
0.0
 10
94.59199647564601
 20
-108.2238966396106
 30
0.0
 10
94.59199647564601
 20
-108.0922752507547
 30
0.0
 10
94.59199647564601
 20
-107.9606891396766
 30
0.0
 10
94.69807675071745
 20
-107.8542208063698
 30
0.0
 10
94.8296981362484
 20
-107.8542208063698
 30
0.0
 10
94.96128424400247
 20
-107.8542208063698
 30
0.0
 10
95.06810535238834
 20
-107.9606891396766
 30
0.0
 10
95.06810535238834
 20
-108.0922752507547
 30
0.0
  0
HATCH
  5
F9
330
41
100
AcDbEntity
  8
_U+30EC_U+30A4_U+30E4_U+30FC 1
 62
   179
420
  2234388
100
AcDbHatch
 10
0.0
 20
0.0
 30
0.0
210
0.0
220
0.0
230
1.0
  2
SOLID
 70
     1
 71
     0
 91
        1
 92
        1
 93
        1
 72
     4
 94
        3
 73
     0
 74
     1
 95
       17
 96
       13
 40
0.0
 40
0.0
 40
0.0
 40
0.0
 40
1.0
 40
1.0
 40
1.0
 40
2.0
 40
2.0
 40
2.0
 40
3.0
 40
3.0
 40
3.0
 40
4.0
 40
4.0
 40
4.0
 40
4.0
 10
95.06810535238834
 20
-108.0922752507547
 10
95.06810535238834
 20
-108.2238966396106
 10
94.96128424400247
 20
-108.3303296951396
 10
94.8296981362484
 20
-108.3303296951396
 10
94.69807675071745
 20
-108.3303296951396
 10
94.59199647564601
 20
-108.2238966396106
 10
94.59199647564601
 20
-108.0922752507547
 10
94.59199647564601
 20
-107.9606891396766
 10
94.69807675071745
 20
-107.8542208063698
 10
94.8296981362484
 20
-107.8542208063698
 10
94.96128424400247
 20
-107.8542208063698
 10
95.06810535238834
 20
-107.9606891396766
 10
95.06810535238834
 20
-108.0922752507547
 97
        0
 97
        0
 75
     2
 76
     1
 98
        0
  0
SPLINE
  5
FA
330
41
100
AcDbEntity
  8
_U+30EC_U+30A4_U+30E4_U+30FC 1
370
     0
100
AcDbSpline
210
0.0
220
0.0
230
1.0
 70
    11
 71
     3
 72
    17
 73
    13
 74
     0
 42
0.0000000001
 43
0.0000000001
 12
1.0
 22
0.0
 32
0.0
 13
1.0
 23
0.0
 33
0.0
 40
0.0
 40
0.0
 40
0.0
 40
0.0
 40
1.0
 40
1.0
 40
1.0
 40
2.0
 40
2.0
 40
2.0
 40
3.0
 40
3.0
 40
3.0
 40
4.0
 40
4.0
 40
4.0
 40
4.0
 10
100.8772263152964
 20
-111.6317652498698
 30
0.0
 10
100.8772263152964
 20
-111.7633866387257
 30
0.0
 10
100.7704052069106
 20
-111.8698196942549
 30
0.0
 10
100.6388190991565
 20
-111.8698196942549
 30
0.0
 10
100.5071977136255
 20
-111.8698196942549
 30
0.0
 10
100.4011174385541
 20
-111.7633866387257
 30
0.0
 10
100.4011174385541
 20
-111.6317652498698
 30
0.0
 10
100.4011174385541
 20
-111.5001791387917
 30
0.0
 10
100.5071977136255
 20
-111.3937108054849
 30
0.0
 10
100.6388190991565
 20
-111.3937108054849
 30
0.0
 10
100.7704052069106
 20
-111.3937108054849
 30
0.0
 10
100.8772263152964
 20
-111.5001791387917
 30
0.0
 10
100.8772263152964
 20
-111.6317652498698
 30
0.0
  0
HATCH
  5
FB
330
41
100
AcDbEntity
  8
_U+30EC_U+30A4_U+30E4_U+30FC 1
 62
   179
420
  2234388
100
AcDbHatch
 10
0.0
 20
0.0
 30
0.0
210
0.0
220
0.0
230
1.0
  2
SOLID
 70
     1
 71
     0
 91
        1
 92
        1
 93
        1
 72
     4
 94
        3
 73
     0
 74
     1
 95
       17
 96
       13
 40
0.0
 40
0.0
 40
0.0
 40
0.0
 40
1.0
 40
1.0
 40
1.0
 40
2.0
 40
2.0
 40
2.0
 40
3.0
 40
3.0
 40
3.0
 40
4.0
 40
4.0
 40
4.0
 40
4.0
 10
100.8772263152964
 20
-111.6317652498698
 10
100.8772263152964
 20
-111.7633866387257
 10
100.7704052069106
 20
-111.8698196942549
 10
100.6388190991565
 20
-111.8698196942549
 10
100.5071977136255
 20
-111.8698196942549
 10
100.4011174385541
 20
-111.7633866387257
 10
100.4011174385541
 20
-111.6317652498698
 10
100.4011174385541
 20
-111.5001791387917
 10
100.5071977136255
 20
-111.3937108054849
 10
100.6388190991565
 20
-111.3937108054849
 10
100.7704052069106
 20
-111.3937108054849
 10
100.8772263152964
 20
-111.5001791387917
 10
100.8772263152964
 20
-111.6317652498698
 97
        0
 97
        0
 75
     2
 76
     1
 98
        0
  0
ENDBLK
  5
44
330
41
100
AcDbEntity
  8
0
100
AcDbBlockEnd
  0
BLOCK
  5
CC
330
CA
100
AcDbEntity
  8
0
100
AcDbBlockBegin
  2
block 3
 70
     0
 10
0.0
 20
0.0
 30
0.0
  3
block 3
  1

  0
SPLINE
  5
CE
330
CA
100
AcDbEntity
  8
_U+30EC_U+30A4_U+30E4_U+30FC 1
370
     0
100
AcDbSpline
210
0.0
220
0.0
230
1.0
 70
    11
 71
     3
 72
    26
 73
    22
 74
     0
 42
0.0000000001
 43
0.0000000001
 12
1.0
 22
0.0
 32
0.0
 13
1.0
 23
0.0
 33
0.0
 40
0.0
 40
0.0
 40
0.0
 40
0.0
 40
1.0
 40
1.0
 40
1.0
 40
2.0
 40
2.0
 40
2.0
 40
3.0
 40
3.0
 40
3.0
 40
4.0
 40
4.0
 40
4.0
 40
5.0
 40
5.0
 40
5.0
 40
6.0
 40
6.0
 40
6.0
 40
7.0
 40
7.0
 40
7.0
 40
7.0
 10
83.03696422620257
 20
-128.3270507491683
 30
0.0
 10
83.03696422620257
 20
-128.3270507491683
 30
0.0
 10
83.03696422620257
 20
-127.2227253913714
 30
0.0
 10
83.03696422620257
 20
-127.2227253913714
 30
0.0
 10
83.03696422620257
 20
-127.2227253913714
 30
0.0
 10
82.70692407871563
 20
-127.2227253913714
 30
0.0
 10
82.70692407871563
 20
-127.2227253913714
 30
0.0
 10
82.70692407871563
 20
-127.2227253913714
 30
0.0
 10
82.70692407871563
 20
-127.0747585402799
 30
0.0
 10
82.70692407871563
 20
-127.0747585402799
 30
0.0
 10
83.03903128349371
 20
-127.0599446296933
 30
0.0
 10
83.08554007254459
 20
-126.896991613241
 30
0.0
 10
83.11516789371774
 20
-126.782786697905
 30
0.0
 10
83.11516789371774
 20
-126.782786697905
 30
0.0
 10
83.26123994229233
 20
-126.782786697905
 30
0.0
 10
83.26123994229233
 20
-126.782786697905
 30
0.0
 10
83.26123994229233
 20
-126.782786697905
 30
0.0
 10
83.26123994229233
 20
-128.3270507491683
 30
0.0
 10
83.26123994229233
 20
-128.3270507491683
 30
0.0
 10
83.26123994229233
 20
-128.3270507491683
 30
0.0
 10
83.03696422620257
 20
-128.3270507491683
 30
0.0
 10
83.03696422620257
 20
-128.3270507491683
 30
0.0
  0
HATCH
  5
CF
330
CA
100
AcDbEntity
  8
_U+30EC_U+30A4_U+30E4_U+30FC 1
 62
   179
420
  2234388
100
AcDbHatch
 10
0.0
 20
0.0
 30
0.0
210
0.0
220
0.0
230
1.0
  2
SOLID
 70
     1
 71
     0
 91
        1
 92
        1
 93
        1
 72
     4
 94
        3
 73
     0
 74
     1
 95
       26
 96
       22
 40
0.0
 40
0.0
 40
0.0
 40
0.0
 40
1.0
 40
1.0
 40
1.0
 40
2.0
 40
2.0
 40
2.0
 40
3.0
 40
3.0
 40
3.0
 40
4.0
 40
4.0
 40
4.0
 40
5.0
 40
5.0
 40
5.0
 40
6.0
 40
6.0
 40
6.0
 40
7.0
 40
7.0
 40
7.0
 40
7.0
 10
83.03696422620257
 20
-128.3270507491683
 10
83.03696422620257
 20
-128.3270507491683
 10
83.03696422620257
 20
-127.2227253913714
 10
83.03696422620257
 20
-127.2227253913714
 10
83.03696422620257
 20
-127.2227253913714
 10
82.70692407871563
 20
-127.2227253913714
 10
82.70692407871563
 20
-127.2227253913714
 10
82.70692407871563
 20
-127.2227253913714
 10
82.70692407871563
 20
-127.0747585402799
 10
82.70692407871563
 20
-127.0747585402799
 10
83.03903128349371
 20
-127.0599446296933
 10
83.08554007254459
 20
-126.896991613241
 10
83.11516789371774
 20
-126.782786697905
 10
83.11516789371774
 20
-126.782786697905
 10
83.26123994229233
 20
-126.782786697905
 10
83.26123994229233
 20
-126.782786697905
 10
83.26123994229233
 20
-126.782786697905
 10
83.26123994229233
 20
-128.3270507491683
 10
83.26123994229233
 20
-128.3270507491683
 10
83.26123994229233
 20
-128.3270507491683
 10
83.03696422620257
 20
-128.3270507491683
 10
83.03696422620257
 20
-128.3270507491683
 97
        0
 97
        0
 75
     2
 76
     1
 98
        0
  0
SPLINE
  5
D0
330
CA
100
AcDbEntity
  8
_U+30EC_U+30A4_U+30E4_U+30FC 1
370
     0
100
AcDbSpline
210
0.0
220
0.0
230
1.0
 70
    11
 71
     3
 72
    44
 73
    40
 74
     0
 42
0.0000000001
 43
0.0000000001
 12
1.0
 22
0.0
 32
0.0
 13
1.0
 23
0.0
 33
0.0
 40
0.0
 40
0.0
 40
0.0
 40
0.0
 40
1.0
 40
1.0
 40
1.0
 40
2.0
 40
2.0
 40
2.0
 40
3.0
 40
3.0
 40
3.0
 40
4.0
 40
4.0
 40
4.0
 40
5.0
 40
5.0
 40
5.0
 40
6.0
 40
6.0
 40
6.0
 40
7.0
 40
7.0
 40
7.0
 40
8.0
 40
8.0
 40
8.0
 40
9.0
 40
9.0
 40
9.0
 40
10.0
 40
10.0
 40
10.0
 40
11.0
 40
11.0
 40
11.0
 40
12.0
 40
12.0
 40
12.0
 40
13.0
 40
13.0
 40
13.0
 40
13.0
 10
84.35557452318194
 20
-127.7453463764838
 30
0.0
 10
84.13767223373989
 20
-127.9039930235796
 30
0.0
 10
84.04448240086388
 20
-127.9780625765124
 30
0.0
 10
83.99590655452187
 20
-128.1218953130216
 30
0.0
 10
83.99590655452187
 20
-128.1218953130216
 30
0.0
 10
84.77432587941406
 20
-128.1218953130216
 30
0.0
 10
84.77432587941406
 20
-128.1218953130216
 30
0.0
 10
84.77432587941406
 20
-128.1218953130216
 30
0.0
 10
84.77432587941406
 20
-128.3270507491683
 30
0.0
 10
84.77432587941406
 20
-128.3270507491683
 30
0.0
 10
84.77432587941406
 20
-128.3270507491683
 30
0.0
 10
83.74630938661551
 20
-128.3270507491683
 30
0.0
 10
83.74630938661551
 20
-128.3270507491683
 30
0.0
 10
83.77800426507982
 20
-127.9694498377993
 30
0.0
 10
83.84363333407381
 20
-127.8912461702841
 30
0.0
 10
84.22862275455049
 20
-127.5929009012615
 30
0.0
 10
84.48459334910454
 20
-127.3941188917626
 30
0.0
 10
84.55022241809856
 20
-127.3264227654774
 30
0.0
 10
84.55022241809856
 20
-127.188963455616
 30
0.0
 10
84.55022241809856
 20
-127.0704521709234
 30
0.0
 10
84.47821992245684
 20
-126.9393662877096
 30
0.0
 10
84.28150497024907
 20
-126.9393662877096
 30
0.0
 10
84.02122800633845
 20
-126.9393662877096
 30
0.0
 10
84.01278752239959
 20
-127.1698431756728
 30
0.0
 10
84.00865340781729
 20
-127.2862874030743
 30
0.0
 10
84.00865340781729
 20
-127.2862874030743
 30
0.0
 10
83.78437769172751
 20
-127.2862874030743
 30
0.0
 10
83.78437769172751
 20
-127.2862874030743
 30
0.0
 10
83.79281817566638
 20
-127.1593356344428
 30
0.0
 10
83.8033257168964
 20
-127.0471977763979
 30
0.0
 10
83.88376869647698
 20
-126.9286864917053
 30
0.0
 10
83.99383949723071
 20
-126.7679727873184
 30
0.0
 10
84.1798746534342
 20
-126.7340385967887
 30
0.0
 10
84.29631888083564
 20
-126.7340385967887
 30
0.0
 10
84.573476812624
 20
-126.7340385967887
 30
0.0
 10
84.78069930606178
 20
-126.9181789504753
 30
0.0
 10
84.78069930606178
 20
-127.1910305129071
 30
0.0
 10
84.78069930606178
 20
-127.4194403435792
 30
0.0
 10
84.66442733343459
 20
-127.5190036031029
 30
0.0
 10
84.35557452318194
 20
-127.7453463764838
 30
0.0
  0
HATCH
  5
D1
330
CA
100
AcDbEntity
  8
_U+30EC_U+30A4_U+30E4_U+30FC 1
 62
   179
420
  2234388
100
AcDbHatch
 10
0.0
 20
0.0
 30
0.0
210
0.0
220
0.0
230
1.0
  2
SOLID
 70
     1
 71
     0
 91
        1
 92
        1
 93
        1
 72
     4
 94
        3
 73
     0
 74
     1
 95
       44
 96
       40
 40
0.0
 40
0.0
 40
0.0
 40
0.0
 40
1.0
 40
1.0
 40
1.0
 40
2.0
 40
2.0
 40
2.0
 40
3.0
 40
3.0
 40
3.0
 40
4.0
 40
4.0
 40
4.0
 40
5.0
 40
5.0
 40
5.0
 40
6.0
 40
6.0
 40
6.0
 40
7.0
 40
7.0
 40
7.0
 40
8.0
 40
8.0
 40
8.0
 40
9.0
 40
9.0
 40
9.0
 40
10.0
 40
10.0
 40
10.0
 40
11.0
 40
11.0
 40
11.0
 40
12.0
 40
12.0
 40
12.0
 40
13.0
 40
13.0
 40
13.0
 40
13.0
 10
84.35557452318194
 20
-127.7453463764838
 10
84.13767223373989
 20
-127.9039930235796
 10
84.04448240086388
 20
-127.9780625765124
 10
83.99590655452187
 20
-128.1218953130216
 10
83.99590655452187
 20
-128.1218953130216
 10
84.77432587941406
 20
-128.1218953130216
 10
84.77432587941406
 20
-128.1218953130216
 10
84.77432587941406
 20
-128.1218953130216
 10
84.77432587941406
 20
-128.3270507491683
 10
84.77432587941406
 20
-128.3270507491683
 10
84.77432587941406
 20
-128.3270507491683
 10
83.74630938661551
 20
-128.3270507491683
 10
83.74630938661551
 20
-128.3270507491683
 10
83.77800426507982
 20
-127.9694498377993
 10
83.84363333407381
 20
-127.8912461702841
 10
84.22862275455049
 20
-127.5929009012615
 10
84.48459334910454
 20
-127.3941188917626
 10
84.55022241809856
 20
-127.3264227654774
 10
84.55022241809856
 20
-127.188963455616
 10
84.55022241809856
 20
-127.0704521709234
 10
84.47821992245684
 20
-126.9393662877096
 10
84.28150497024907
 20
-126.9393662877096
 10
84.02122800633845
 20
-126.9393662877096
 10
84.01278752239959
 20
-127.1698431756728
 10
84.00865340781729
 20
-127.2862874030743
 10
84.00865340781729
 20
-127.2862874030743
 10
83.78437769172751
 20
-127.2862874030743
 10
83.78437769172751
 20
-127.2862874030743
 10
83.79281817566638
 20
-127.1593356344428
 10
83.8033257168964
 20
-127.0471977763979
 10
83.88376869647698
 20
-126.9286864917053
 10
83.99383949723071
 20
-126.7679727873184
 10
84.1798746534342
 20
-126.7340385967887
 10
84.29631888083564
 20
-126.7340385967887
 10
84.573476812624
 20
-126.7340385967887
 10
84.78069930606178
 20
-126.9181789504753
 10
84.78069930606178
 20
-127.1910305129071
 10
84.78069930606178
 20
-127.4194403435792
 10
84.66442733343459
 20
-127.5190036031029
 10
84.35557452318194
 20
-127.7453463764838
 97
        0
 97
        0
 75
     2
 76
     1
 98
        0
  0
SPLINE
  5
D2
330
CA
100
AcDbEntity
  8
_U+30EC_U+30A4_U+30E4_U+30FC 1
370
     0
100
AcDbSpline
210
0.0
220
0.0
230
1.0
 70
    11
 71
     3
 72
    53
 73
    49
 74
     0
 42
0.0000000001
 43
0.0000000001
 12
1.0
 22
0.0
 32
0.0
 13
1.0
 23
0.0
 33
0.0
 40
0.0
 40
0.0
 40
0.0
 40
0.0
 40
1.0
 40
1.0
 40
1.0
 40
2.0
 40
2.0
 40
2.0
 40
3.0
 40
3.0
 40
3.0
 40
4.0
 40
4.0
 40
4.0
 40
5.0
 40
5.0
 40
5.0
 40
6.0
 40
6.0
 40
6.0
 40
7.0
 40
7.0
 40
7.0
 40
8.0
 40
8.0
 40
8.0
 40
9.0
 40
9.0
 40
9.0
 40
10.0
 40
10.0
 40
10.0
 40
11.0
 40
11.0
 40
11.0
 40
12.0
 40
12.0
 40
12.0
 40
13.0
 40
13.0
 40
13.0
 40
14.0
 40
14.0
 40
14.0
 40
15.0
 40
15.0
 40
15.0
 40
16.0
 40
16.0
 40
16.0
 40
16.0
 10
85.4202812828984
 20
-128.3778659075757
 30
0.0
 10
85.34190536060898
 20
-128.3778659075757
 30
0.0
 10
85.24044729856837
 20
-128.3608126849237
 30
0.0
 10
85.13898923652776
 20
-128.2974229279951
 30
0.0
 10
84.96535642407116
 20
-128.1873521272414
 30
0.0
 10
84.94434134161114
 20
-128.0562662440276
 30
0.0
 10
84.925221061668
 20
-127.9484347553393
 30
0.0
 10
84.925221061668
 20
-127.9484347553393
 30
0.0
 10
85.14742972046662
 20
-127.9484347553393
 30
0.0
 10
85.14742972046662
 20
-127.9484347553393
 30
0.0
 10
85.20237899345635
 20
-128.1472167648382
 30
0.0
 10
85.3293307620878
 20
-128.1768445860114
 30
0.0
 10
85.42234834018956
 20
-128.1768445860114
 30
0.0
 10
85.56204696211644
 20
-128.1768445860114
 30
0.0
 10
85.71432018256448
 20
-128.0774535812619
 30
0.0
 10
85.71432018256448
 20
-127.8447373812333
 30
0.0
 10
85.71432018256448
 20
-127.5887667866792
 30
0.0
 10
85.53448619823443
 20
-127.5190036031029
 30
0.0
 10
85.41390785625069
 20
-127.5190036031029
 30
0.0
 10
85.3822129777864
 20
-127.5190036031029
 30
0.0
 10
85.24044729856837
 20
-127.5190036031029
 30
0.0
 10
85.15156383504892
 20
-127.6480224290255
 30
0.0
 10
85.15156383504892
 20
-127.6480224290255
 30
0.0
 10
84.97603622007544
 20
-127.6289021490824
 30
0.0
 10
84.97603622007544
 20
-127.6289021490824
 30
0.0
 10
84.97603622007544
 20
-127.6289021490824
 30
0.0
 10
85.09661456205919
 20
-126.782786697905
 30
0.0
 10
85.09661456205919
 20
-126.782786697905
 30
0.0
 10
85.09661456205919
 20
-126.782786697905
 30
0.0
 10
85.87503388695139
 20
-126.782786697905
 30
0.0
 10
85.87503388695139
 20
-126.782786697905
 30
0.0
 10
85.87503388695139
 20
-126.782786697905
 30
0.0
 10
85.87503388695139
 20
-126.9774345928216
 30
0.0
 10
85.87503388695139
 20
-126.9774345928216
 30
0.0
 10
85.87503388695139
 20
-126.9774345928216
 30
0.0
 10
85.25956757851151
 20
-126.9774345928216
 30
0.0
 10
85.25956757851151
 20
-126.9774345928216
 30
0.0
 10
85.25956757851151
 20
-126.9774345928216
 30
0.0
 10
85.1939385095175
 20
-127.4004923184103
 30
0.0
 10
85.1939385095175
 20
-127.4004923184103
 30
0.0
 10
85.25526120915494
 20
-127.3665581278806
 30
0.0
 10
85.33777124602668
 20
-127.3264227654774
 30
0.0
 10
85.45628253071926
 20
-127.3264227654774
 30
0.0
 10
85.71001381320792
 20
-127.3264227654774
 30
0.0
 10
85.94703638259311
 20
-127.5126301764552
 30
0.0
 10
85.94703638259311
 20
-127.8256171012901
 30
0.0
 10
85.94703638259311
 20
-128.1430826502559
 30
0.0
 10
85.72276066650335
 20
-128.3778659075757
 30
0.0
 10
85.4202812828984
 20
-128.3778659075757
 30
0.0
  0
HATCH
  5
D3
330
CA
100
AcDbEntity
  8
_U+30EC_U+30A4_U+30E4_U+30FC 1
 62
   179
420
  2234388
100
AcDbHatch
 10
0.0
 20
0.0
 30
0.0
210
0.0
220
0.0
230
1.0
  2
SOLID
 70
     1
 71
     0
 91
        1
 92
        1
 93
        1
 72
     4
 94
        3
 73
     0
 74
     1
 95
       53
 96
       49
 40
0.0
 40
0.0
 40
0.0
 40
0.0
 40
1.0
 40
1.0
 40
1.0
 40
2.0
 40
2.0
 40
2.0
 40
3.0
 40
3.0
 40
3.0
 40
4.0
 40
4.0
 40
4.0
 40
5.0
 40
5.0
 40
5.0
 40
6.0
 40
6.0
 40
6.0
 40
7.0
 40
7.0
 40
7.0
 40
8.0
 40
8.0
 40
8.0
 40
9.0
 40
9.0
 40
9.0
 40
10.0
 40
10.0
 40
10.0
 40
11.0
 40
11.0
 40
11.0
 40
12.0
 40
12.0
 40
12.0
 40
13.0
 40
13.0
 40
13.0
 40
14.0
 40
14.0
 40
14.0
 40
15.0
 40
15.0
 40
15.0
 40
16.0
 40
16.0
 40
16.0
 40
16.0
 10
85.4202812828984
 20
-128.3778659075757
 10
85.34190536060898
 20
-128.3778659075757
 10
85.24044729856837
 20
-128.3608126849237
 10
85.13898923652776
 20
-128.2974229279951
 10
84.96535642407116
 20
-128.1873521272414
 10
84.94434134161114
 20
-128.0562662440276
 10
84.925221061668
 20
-127.9484347553393
 10
84.925221061668
 20
-127.9484347553393
 10
85.14742972046662
 20
-127.9484347553393
 10
85.14742972046662
 20
-127.9484347553393
 10
85.20237899345635
 20
-128.1472167648382
 10
85.3293307620878
 20
-128.1768445860114
 10
85.42234834018956
 20
-128.1768445860114
 10
85.56204696211644
 20
-128.1768445860114
 10
85.71432018256448
 20
-128.0774535812619
 10
85.71432018256448
 20
-127.8447373812333
 10
85.71432018256448
 20
-127.5887667866792
 10
85.53448619823443
 20
-127.5190036031029
 10
85.41390785625069
 20
-127.5190036031029
 10
85.3822129777864
 20
-127.5190036031029
 10
85.24044729856837
 20
-127.5190036031029
 10
85.15156383504892
 20
-127.6480224290255
 10
85.15156383504892
 20
-127.6480224290255
 10
84.97603622007544
 20
-127.6289021490824
 10
84.97603622007544
 20
-127.6289021490824
 10
84.97603622007544
 20
-127.6289021490824
 10
85.09661456205919
 20
-126.782786697905
 10
85.09661456205919
 20
-126.782786697905
 10
85.09661456205919
 20
-126.782786697905
 10
85.87503388695139
 20
-126.782786697905
 10
85.87503388695139
 20
-126.782786697905
 10
85.87503388695139
 20
-126.782786697905
 10
85.87503388695139
 20
-126.9774345928216
 10
85.87503388695139
 20
-126.9774345928216
 10
85.87503388695139
 20
-126.9774345928216
 10
85.25956757851151
 20
-126.9774345928216
 10
85.25956757851151
 20
-126.9774345928216
 10
85.25956757851151
 20
-126.9774345928216
 10
85.1939385095175
 20
-127.4004923184103
 10
85.1939385095175
 20
-127.4004923184103
 10
85.25526120915494
 20
-127.3665581278806
 10
85.33777124602668
 20
-127.3264227654774
 10
85.45628253071926
 20
-127.3264227654774
 10
85.71001381320792
 20
-127.3264227654774
 10
85.94703638259311
 20
-127.5126301764552
 10
85.94703638259311
 20
-127.8256171012901
 10
85.94703638259311
 20
-128.1430826502559
 10
85.72276066650335
 20
-128.3778659075757
 10
85.4202812828984
 20
-128.3778659075757
 97
        0
 97
        0
 75
     2
 76
     1
 98
        0
  0
ENDBLK
  5
CD
330
CA
100
AcDbEntity
  8
0
100
AcDbBlockEnd
  0
BLOCK
  5
D6
330
D4
100
AcDbEntity
  8
0
100
AcDbBlockBegin
  2
block 4
 70
     0
 10
0.0
 20
0.0
 30
0.0
  3
block 4
  1

  0
SPLINE
  5
D8
330
D4
100
AcDbEntity
  8
_U+30EC_U+30A4_U+30E4_U+30FC 1
370
     0
100
AcDbSpline
210
0.0
220
0.0
230
1.0
 70
    11
 71
     3
 72
    44
 73
    40
 74
     0
 42
0.0000000001
 43
0.0000000001
 12
1.0
 22
0.0
 32
0.0
 13
1.0
 23
0.0
 33
0.0
 40
0.0
 40
0.0
 40
0.0
 40
0.0
 40
1.0
 40
1.0
 40
1.0
 40
2.0
 40
2.0
 40
2.0
 40
3.0
 40
3.0
 40
3.0
 40
4.0
 40
4.0
 40
4.0
 40
5.0
 40
5.0
 40
5.0
 40
6.0
 40
6.0
 40
6.0
 40
7.0
 40
7.0
 40
7.0
 40
8.0
 40
8.0
 40
8.0
 40
9.0
 40
9.0
 40
9.0
 40
10.0
 40
10.0
 40
10.0
 40
11.0
 40
11.0
 40
11.0
 40
12.0
 40
12.0
 40
12.0
 40
13.0
 40
13.0
 40
13.0
 40
13.0
 10
97.65571015353747
 20
-109.7955376244608
 30
0.0
 10
97.3887152534306
 20
-109.7581583384459
 30
0.0
 10
97.27054847828653
 20
-109.7466172685703
 30
0.0
 10
97.13550073526474
 20
-109.8162081973723
 30
0.0
 10
97.13550073526474
 20
-109.8162081973723
 30
0.0
 10
97.69498424206931
 20
-110.3574326981051
 30
0.0
 10
97.69498424206931
 20
-110.3574326981051
 30
0.0
 10
97.69498424206931
 20
-110.3574326981051
 30
0.0
 10
97.55235728897998
 20
-110.5048827848738
 30
0.0
 10
97.55235728897998
 20
-110.5048827848738
 30
0.0
 10
97.55235728897998
 20
-110.5048827848738
 30
0.0
 10
96.81338430739387
 20
-109.7900254716844
 30
0.0
 10
96.81338430739387
 20
-109.7900254716844
 30
0.0
 10
97.08485783163157
 20
-109.5552422143647
 30
0.0
 10
97.18648814844644
 20
-109.5445624183604
 30
0.0
 10
97.67052406412404
 20
-109.5979613983818
 30
0.0
 10
97.9926404919949
 20
-109.6329291175571
 30
0.0
 10
98.08703610829075
 20
-109.6298285316203
 30
0.0
 10
98.18246525323217
 20
-109.5311265459679
 30
0.0
 10
98.26480303532963
 20
-109.445860432708
 30
0.0
 10
98.30442163341002
 20
-109.3016831866503
 30
0.0
 10
98.16282820896625
 20
-109.1649128958859
 30
0.0
 10
97.9761040336657
 20
-108.983873128136
 30
0.0
 10
97.80970592172814
 20
-109.1437255586516
 30
0.0
 10
97.72564559188804
 20
-109.2245130477807
 30
0.0
 10
97.72564559188804
 20
-109.2245130477807
 30
0.0
 10
97.56441512317835
 20
-109.0684502222989
 30
0.0
 10
97.56441512317835
 20
-109.0684502222989
 30
0.0
 10
97.65881073947419
 20
-108.9831841090389
 30
0.0
 10
97.74424910750838
 20
-108.9099758299774
 30
0.0
 10
97.88446449375806
 20
-108.8806925183527
 30
0.0
 10
98.0753227836409
 20
-108.8415906845952
 30
0.0
 10
98.23276364731682
 20
-108.9468383516695
 30
0.0
 10
98.31613495805986
 20
-109.0276258407986
 30
0.0
 10
98.51560598665583
 20
-109.2203789331984
 30
0.0
 10
98.53662106911585
 20
-109.4968478458897
 30
0.0
 10
98.34679630787858
 20
-109.6928737790004
 30
0.0
 10
98.18797740600857
 20
-109.8570325788725
 30
0.0
 10
98.03501516646347
 20
-109.8477308210624
 30
0.0
 10
97.65571015353747
 20
-109.7955376244608
 30
0.0
  0
HATCH
  5
D9
330
D4
100
AcDbEntity
  8
_U+30EC_U+30A4_U+30E4_U+30FC 1
 62
   179
420
  2234388
100
AcDbHatch
 10
0.0
 20
0.0
 30
0.0
210
0.0
220
0.0
230
1.0
  2
SOLID
 70
     1
 71
     0
 91
        1
 92
        1
 93
        1
 72
     4
 94
        3
 73
     0
 74
     1
 95
       44
 96
       40
 40
0.0
 40
0.0
 40
0.0
 40
0.0
 40
1.0
 40
1.0
 40
1.0
 40
2.0
 40
2.0
 40
2.0
 40
3.0
 40
3.0
 40
3.0
 40
4.0
 40
4.0
 40
4.0
 40
5.0
 40
5.0
 40
5.0
 40
6.0
 40
6.0
 40
6.0
 40
7.0
 40
7.0
 40
7.0
 40
8.0
 40
8.0
 40
8.0
 40
9.0
 40
9.0
 40
9.0
 40
10.0
 40
10.0
 40
10.0
 40
11.0
 40
11.0
 40
11.0
 40
12.0
 40
12.0
 40
12.0
 40
13.0
 40
13.0
 40
13.0
 40
13.0
 10
97.65571015353747
 20
-109.7955376244608
 10
97.3887152534306
 20
-109.7581583384459
 10
97.27054847828653
 20
-109.7466172685703
 10
97.13550073526474
 20
-109.8162081973723
 10
97.13550073526474
 20
-109.8162081973723
 10
97.69498424206931
 20
-110.3574326981051
 10
97.69498424206931
 20
-110.3574326981051
 10
97.69498424206931
 20
-110.3574326981051
 10
97.55235728897998
 20
-110.5048827848738
 10
97.55235728897998
 20
-110.5048827848738
 10
97.55235728897998
 20
-110.5048827848738
 10
96.81338430739387
 20
-109.7900254716844
 10
96.81338430739387
 20
-109.7900254716844
 10
97.08485783163157
 20
-109.5552422143647
 10
97.18648814844644
 20
-109.5445624183604
 10
97.67052406412404
 20
-109.5979613983818
 10
97.9926404919949
 20
-109.6329291175571
 10
98.08703610829075
 20
-109.6298285316203
 10
98.18246525323217
 20
-109.5311265459679
 10
98.26480303532963
 20
-109.445860432708
 10
98.30442163341002
 20
-109.3016831866503
 10
98.16282820896625
 20
-109.1649128958859
 10
97.9761040336657
 20
-108.983873128136
 10
97.80970592172814
 20
-109.1437255586516
 10
97.72564559188804
 20
-109.2245130477807
 10
97.72564559188804
 20
-109.2245130477807
 10
97.56441512317835
 20
-109.0684502222989
 10
97.56441512317835
 20
-109.0684502222989
 10
97.65881073947419
 20
-108.9831841090389
 10
97.74424910750838
 20
-108.9099758299774
 10
97.88446449375806
 20
-108.8806925183527
 10
98.0753227836409
 20
-108.8415906845952
 10
98.23276364731682
 20
-108.9468383516695
 10
98.31613495805986
 20
-109.0276258407986
 10
98.51560598665583
 20
-109.2203789331984
 10
98.53662106911585
 20
-109.4968478458897
 10
98.34679630787858
 20
-109.6928737790004
 10
98.18797740600857
 20
-109.8570325788725
 10
98.03501516646347
 20
-109.8477308210624
 10
97.65571015353747
 20
-109.7955376244608
 97
        0
 97
        0
 75
     2
 76
     1
 98
        0
  0
SPLINE
  5
DA
330
D4
100
AcDbEntity
  8
_U+30EC_U+30A4_U+30E4_U+30FC 1
370
     0
100
AcDbSpline
210
0.0
220
0.0
230
1.0
 70
    11
 71
     3
 72
    53
 73
    49
 74
     0
 42
0.0000000001
 43
0.0000000001
 12
1.0
 22
0.0
 32
0.0
 13
1.0
 23
0.0
 33
0.0
 40
0.0
 40
0.0
 40
0.0
 40
0.0
 40
1.0
 40
1.0
 40
1.0
 40
2.0
 40
2.0
 40
2.0
 40
3.0
 40
3.0
 40
3.0
 40
4.0
 40
4.0
 40
4.0
 40
5.0
 40
5.0
 40
5.0
 40
6.0
 40
6.0
 40
6.0
 40
7.0
 40
7.0
 40
7.0
 40
8.0
 40
8.0
 40
8.0
 40
9.0
 40
9.0
 40
9.0
 40
10.0
 40
10.0
 40
10.0
 40
11.0
 40
11.0
 40
11.0
 40
12.0
 40
12.0
 40
12.0
 40
13.0
 40
13.0
 40
13.0
 40
14.0
 40
14.0
 40
14.0
 40
15.0
 40
15.0
 40
15.0
 40
16.0
 40
16.0
 40
16.0
 40
16.0
 10
97.98127167689357
 20
-110.9904689935198
 30
0.0
 10
97.925116620484
 20
-110.9360364848528
 30
0.0
 10
97.86379392084656
 20
-110.8533541932068
 30
0.0
 10
97.83485511877046
 20
-110.7370822205796
 30
0.0
 10
97.78662378197696
 20
-110.5374389372094
 30
0.0
 10
97.86276039220098
 20
-110.4284016651012
 30
0.0
 10
97.92408309183843
 20
-110.3376233990649
 30
0.0
 10
97.92408309183843
 20
-110.3376233990649
 30
0.0
 10
98.0835910128055
 20
-110.4921359315784
 30
0.0
 10
98.0835910128055
 20
-110.4921359315784
 30
0.0
 10
97.98506128192734
 20
-110.6733479541025
 30
0.0
 10
98.05568573937497
 20
-110.7829019905334
 30
0.0
 10
98.12252059178881
 20
-110.8474975308819
 30
0.0
 10
98.22277287040959
 20
-110.9446492235659
 30
0.0
 10
98.40157332609405
 20
-110.9791001784184
 30
0.0
 10
98.56314830435227
 20
-110.8118407926095
 30
0.0
 10
98.7412597409397
 20
-110.6278726936972
 30
0.0
 10
98.66064450658484
 20
-110.4526895882722
 30
0.0
 10
98.57382810035655
 20
-110.3688015132064
 30
0.0
 10
98.5510904701539
 20
-110.3467529021008
 30
0.0
 10
98.4491156437905
 20
-110.2482231712227
 30
0.0
 10
98.29546438514836
 20
-110.2792290305899
 30
0.0
 10
98.29546438514836
 20
-110.2792290305899
 30
0.0
 10
98.18246525323217
 20
-110.1434922684711
 30
0.0
 10
98.18246525323217
 20
-110.1434922684711
 30
0.0
 10
98.18246525323217
 20
-110.1434922684711
 30
0.0
 10
98.85770396834113
 20
-109.6191487356161
 30
0.0
 10
98.85770396834113
 20
-109.6191487356161
 30
0.0
 10
98.85770396834113
 20
-109.6191487356161
 30
0.0
 10
99.41718747514571
 20
-110.1603732363488
 30
0.0
 10
99.41718747514571
 20
-110.1603732363488
 30
0.0
 10
99.41718747514571
 20
-110.1603732363488
 30
0.0
 10
99.28179522257538
 20
-110.3002441130499
 30
0.0
 10
99.28179522257538
 20
-110.3002441130499
 30
0.0
 10
99.28179522257538
 20
-110.3002441130499
 30
0.0
 10
98.83944496226931
 20
-109.8721909990077
 30
0.0
 10
98.83944496226931
 20
-109.8721909990077
 30
0.0
 10
98.83944496226931
 20
-109.8721909990077
 30
0.0
 10
98.49803599968105
 20
-110.1307454151757
 30
0.0
 10
98.49803599968105
 20
-110.1307454151757
 30
0.0
 10
98.56555987119195
 20
-110.1490044212475
 30
0.0
 10
98.6530652965173
 20
-110.1775987137751
 30
0.0
 10
98.73815915500296
 20
-110.2599364958725
 30
0.0
 10
98.92040470617268
 20
-110.4363253847173
 30
0.0
 10
98.96140134244716
 20
-110.7350151632885
 30
0.0
 10
98.74367130777937
 20
-110.9599798984753
 30
0.0
 10
98.52318519672338
 20
-111.1880452195988
 30
0.0
 10
98.19865720201284
 20
-111.2007920728942
 30
0.0
 10
97.98127167689357
 20
-110.9904689935198
 30
0.0
  0
HATCH
  5
DB
330
D4
100
AcDbEntity
  8
_U+30EC_U+30A4_U+30E4_U+30FC 1
 62
   179
420
  2234388
100
AcDbHatch
 10
0.0
 20
0.0
 30
0.0
210
0.0
220
0.0
230
1.0
  2
SOLID
 70
     1
 71
     0
 91
        1
 92
        1
 93
        1
 72
     4
 94
        3
 73
     0
 74
     1
 95
       53
 96
       49
 40
0.0
 40
0.0
 40
0.0
 40
0.0
 40
1.0
 40
1.0
 40
1.0
 40
2.0
 40
2.0
 40
2.0
 40
3.0
 40
3.0
 40
3.0
 40
4.0
 40
4.0
 40
4.0
 40
5.0
 40
5.0
 40
5.0
 40
6.0
 40
6.0
 40
6.0
 40
7.0
 40
7.0
 40
7.0
 40
8.0
 40
8.0
 40
8.0
 40
9.0
 40
9.0
 40
9.0
 40
10.0
 40
10.0
 40
10.0
 40
11.0
 40
11.0
 40
11.0
 40
12.0
 40
12.0
 40
12.0
 40
13.0
 40
13.0
 40
13.0
 40
14.0
 40
14.0
 40
14.0
 40
15.0
 40
15.0
 40
15.0
 40
16.0
 40
16.0
 40
16.0
 40
16.0
 10
97.98127167689357
 20
-110.9904689935198
 10
97.925116620484
 20
-110.9360364848528
 10
97.86379392084656
 20
-110.8533541932068
 10
97.83485511877046
 20
-110.7370822205796
 10
97.78662378197696
 20
-110.5374389372094
 10
97.86276039220098
 20
-110.4284016651012
 10
97.92408309183843
 20
-110.3376233990649
 10
97.92408309183843
 20
-110.3376233990649
 10
98.0835910128055
 20
-110.4921359315784
 10
98.0835910128055
 20
-110.4921359315784
 10
97.98506128192734
 20
-110.6733479541025
 10
98.05568573937497
 20
-110.7829019905334
 10
98.12252059178881
 20
-110.8474975308819
 10
98.22277287040959
 20
-110.9446492235659
 10
98.40157332609405
 20
-110.9791001784184
 10
98.56314830435227
 20
-110.8118407926095
 10
98.7412597409397
 20
-110.6278726936972
 10
98.66064450658484
 20
-110.4526895882722
 10
98.57382810035655
 20
-110.3688015132064
 10
98.5510904701539
 20
-110.3467529021008
 10
98.4491156437905
 20
-110.2482231712227
 10
98.29546438514836
 20
-110.2792290305899
 10
98.29546438514836
 20
-110.2792290305899
 10
98.18246525323217
 20
-110.1434922684711
 10
98.18246525323217
 20
-110.1434922684711
 10
98.18246525323217
 20
-110.1434922684711
 10
98.85770396834113
 20
-109.6191487356161
 10
98.85770396834113
 20
-109.6191487356161
 10
98.85770396834113
 20
-109.6191487356161
 10
99.41718747514571
 20
-110.1603732363488
 10
99.41718747514571
 20
-110.1603732363488
 10
99.41718747514571
 20
-110.1603732363488
 10
99.28179522257538
 20
-110.3002441130499
 10
99.28179522257538
 20
-110.3002441130499
 10
99.28179522257538
 20
-110.3002441130499
 10
98.83944496226931
 20
-109.8721909990077
 10
98.83944496226931
 20
-109.8721909990077
 10
98.83944496226931
 20
-109.8721909990077
 10
98.49803599968105
 20
-110.1307454151757
 10
98.49803599968105
 20
-110.1307454151757
 10
98.56555987119195
 20
-110.1490044212475
 10
98.6530652965173
 20
-110.1775987137751
 10
98.73815915500296
 20
-110.2599364958725
 10
98.92040470617268
 20
-110.4363253847173
 10
98.96140134244716
 20
-110.7350151632885
 10
98.74367130777937
 20
-110.9599798984753
 10
98.52318519672338
 20
-111.1880452195988
 10
98.19865720201284
 20
-111.2007920728942
 10
97.98127167689357
 20
-110.9904689935198
 97
        0
 97
        0
 75
     2
 76
     1
 98
        0
  0
ENDBLK
  5
D7
330
D4
100
AcDbEntity
  8
0
100
AcDbBlockEnd
  0
BLOCK
  5
DE
330
DC
100
AcDbEntity
  8
0
100
AcDbBlockBegin
  2
block 5
 70
     0
 10
0.0
 20
0.0
 30
0.0
  3
block 5
  1

  0
SPLINE
  5
E0
330
DC
100
AcDbEntity
  8
_U+30EC_U+30A4_U+30E4_U+30FC 1
370
     0
100
AcDbSpline
210
0.0
220
0.0
230
1.0
 70
    11
 71
     3
 72
    44
 73
    40
 74
     0
 42
0.0000000001
 43
0.0000000001
 12
1.0
 22
0.0
 32
0.0
 13
1.0
 23
0.0
 33
0.0
 40
0.0
 40
0.0
 40
0.0
 40
0.0
 40
1.0
 40
1.0
 40
1.0
 40
2.0
 40
2.0
 40
2.0
 40
3.0
 40
3.0
 40
3.0
 40
4.0
 40
4.0
 40
4.0
 40
5.0
 40
5.0
 40
5.0
 40
6.0
 40
6.0
 40
6.0
 40
7.0
 40
7.0
 40
7.0
 40
8.0
 40
8.0
 40
8.0
 40
9.0
 40
9.0
 40
9.0
 40
10.0
 40
10.0
 40
10.0
 40
11.0
 40
11.0
 40
11.0
 40
12.0
 40
12.0
 40
12.0
 40
13.0
 40
13.0
 40
13.0
 40
13.0
 10
86.66568330081623
 20
-109.5636826983035
 30
0.0
 10
86.61142304692353
 20
-109.8277492672479
 30
0.0
 10
86.59247502175467
 20
-109.9452270232949
 30
0.0
 10
86.65345321184358
 20
-110.0842366261248
 30
0.0
 10
86.65345321184358
 20
-110.0842366261248
 30
0.0
 10
87.22895641265457
 20
-109.560065348044
 30
0.0
 10
87.22895641265457
 20
-109.560065348044
 30
0.0
 10
87.22895641265457
 20
-109.560065348044
 30
0.0
 10
87.36710474161309
 20
-109.711649549395
 30
0.0
 10
87.36710474161309
 20
-109.711649549395
 30
0.0
 10
87.36710474161309
 20
-109.711649549395
 30
0.0
 10
86.60711667756698
 20
-110.4041137419302
 30
0.0
 10
86.60711667756698
 20
-110.4041137419302
 30
0.0
 10
86.38973115244771
 20
-110.1183430714288
 30
0.0
 10
86.38559703786541
 20
-110.0163682450654
 30
0.0
 10
86.46931285815698
 20
-109.5366386987443
 30
0.0
 10
86.52460664069524
 20
-109.2171060924874
 30
0.0
 10
86.5275349718577
 20
-109.1228827309658
 30
0.0
 10
86.43486190330448
 20
-109.0212524141509
 30
0.0
 10
86.35510794282095
 20
-108.9337469888256
 30
0.0
 10
86.21368677315144
 20
-108.8851711424836
 30
0.0
 10
86.06813148889964
 20
-109.0176350638914
 30
0.0
 10
85.8758951608227
 20
-109.1928181693164
 30
0.0
 10
86.02489554055975
 20
-109.3690348033869
 30
0.0
 10
86.10017087691246
 20
-109.4579182669064
 30
0.0
 10
86.10017087691246
 20
-109.4579182669064
 30
0.0
 10
85.93428952929769
 20
-109.6089857039346
 30
0.0
 10
85.93428952929769
 20
-109.6089857039346
 30
0.0
 10
85.85505233313694
 20
-109.5094224444108
 30
0.0
 10
85.78735620685178
 20
-109.4193331974716
 30
0.0
 10
85.7670301434888
 20
-109.2777397730278
 30
0.0
 10
85.74015839870385
 20
-109.0848144258538
 30
0.0
 10
85.85488007836267
 20
-108.9342637531484
 30
0.0
 10
85.94100746549393
 20
-108.8560600856332
 30
0.0
 10
86.14581839209202
 20
-108.6693359103327
 30
0.0
 10
86.42314857865463
 20
-108.6658908148474
 30
0.0
 10
86.60677216801845
 20
-108.8676011555088
 30
0.0
 10
86.76076793620912
 20
-109.036410834286
 30
0.0
 10
86.74164765626598
 20
-109.1883395451856
 30
0.0
 10
86.66568330081623
 20
-109.5636826983035
 30
0.0
  0
HATCH
  5
E1
330
DC
100
AcDbEntity
  8
_U+30EC_U+30A4_U+30E4_U+30FC 1
 62
   179
420
  2234388
100
AcDbHatch
 10
0.0
 20
0.0
 30
0.0
210
0.0
220
0.0
230
1.0
  2
SOLID
 70
     1
 71
     0
 91
        1
 92
        1
 93
        1
 72
     4
 94
        3
 73
     0
 74
     1
 95
       44
 96
       40
 40
0.0
 40
0.0
 40
0.0
 40
0.0
 40
1.0
 40
1.0
 40
1.0
 40
2.0
 40
2.0
 40
2.0
 40
3.0
 40
3.0
 40
3.0
 40
4.0
 40
4.0
 40
4.0
 40
5.0
 40
5.0
 40
5.0
 40
6.0
 40
6.0
 40
6.0
 40
7.0
 40
7.0
 40
7.0
 40
8.0
 40
8.0
 40
8.0
 40
9.0
 40
9.0
 40
9.0
 40
10.0
 40
10.0
 40
10.0
 40
11.0
 40
11.0
 40
11.0
 40
12.0
 40
12.0
 40
12.0
 40
13.0
 40
13.0
 40
13.0
 40
13.0
 10
86.66568330081623
 20
-109.5636826983035
 10
86.61142304692353
 20
-109.8277492672479
 10
86.59247502175467
 20
-109.9452270232949
 10
86.65345321184358
 20
-110.0842366261248
 10
86.65345321184358
 20
-110.0842366261248
 10
87.22895641265457
 20
-109.560065348044
 10
87.22895641265457
 20
-109.560065348044
 10
87.22895641265457
 20
-109.560065348044
 10
87.36710474161309
 20
-109.711649549395
 10
87.36710474161309
 20
-109.711649549395
 10
87.36710474161309
 20
-109.711649549395
 10
86.60711667756698
 20
-110.4041137419302
 10
86.60711667756698
 20
-110.4041137419302
 10
86.38973115244771
 20
-110.1183430714288
 10
86.38559703786541
 20
-110.0163682450654
 10
86.46931285815698
 20
-109.5366386987443
 10
86.52460664069524
 20
-109.2171060924874
 10
86.5275349718577
 20
-109.1228827309658
 10
86.43486190330448
 20
-109.0212524141509
 10
86.35510794282095
 20
-108.9337469888256
 10
86.21368677315144
 20
-108.8851711424836
 10
86.06813148889964
 20
-109.0176350638914
 10
85.8758951608227
 20
-109.1928181693164
 10
86.02489554055975
 20
-109.3690348033869
 10
86.10017087691246
 20
-109.4579182669064
 10
86.10017087691246
 20
-109.4579182669064
 10
85.93428952929769
 20
-109.6089857039346
 10
85.93428952929769
 20
-109.6089857039346
 10
85.85505233313694
 20
-109.5094224444108
 10
85.78735620685178
 20
-109.4193331974716
 10
85.7670301434888
 20
-109.2777397730278
 10
85.74015839870385
 20
-109.0848144258538
 10
85.85488007836267
 20
-108.9342637531484
 10
85.94100746549393
 20
-108.8560600856332
 10
86.14581839209202
 20
-108.6693359103327
 10
86.42314857865463
 20
-108.6658908148474
 10
86.60677216801845
 20
-108.8676011555088
 10
86.76076793620912
 20
-109.036410834286
 10
86.74164765626598
 20
-109.1883395451856
 10
86.66568330081623
 20
-109.5636826983035
 97
        0
 97
        0
 75
     2
 76
     1
 98
        0
  0
SPLINE
  5
E2
330
DC
100
AcDbEntity
  8
_U+30EC_U+30A4_U+30E4_U+30FC 1
370
     0
100
AcDbSpline
210
0.0
220
0.0
230
1.0
 70
    11
 71
     3
 72
    29
 73
    25
 74
     0
 42
0.0000000001
 43
0.0000000001
 12
1.0
 22
0.0
 32
0.0
 13
1.0
 23
0.0
 33
0.0
 40
0.0
 40
0.0
 40
0.0
 40
0.0
 40
1.0
 40
1.0
 40
1.0
 40
2.0
 40
2.0
 40
2.0
 40
3.0
 40
3.0
 40
3.0
 40
4.0
 40
4.0
 40
4.0
 40
5.0
 40
5.0
 40
5.0
 40
6.0
 40
6.0
 40
6.0
 40
7.0
 40
7.0
 40
7.0
 40
8.0
 40
8.0
 40
8.0
 40
8.0
 10
88.03304169891189
 20
-108.8648450791206
 30
0.0
 10
88.09436439854933
 20
-109.0922213811471
 30
0.0
 10
87.97895369979346
 20
-109.2231350095866
 30
0.0
 10
87.89282631266221
 20
-109.301510931876
 30
0.0
 10
87.7739705184211
 20
-109.4096869301129
 30
0.0
 10
87.63788924675373
 20
-109.470837374976
 30
0.0
 10
87.44496389957973
 20
-109.4003851723027
 30
0.0
 10
87.23739689659344
 20
-109.3263156193698
 30
0.0
 10
87.06376408413684
 20
-109.1640516220146
 30
0.0
 10
86.95403779293163
 20
-109.0434732800308
 30
0.0
 10
86.85705835502185
 20
-108.9371920843109
 30
0.0
 10
86.70013425566871
 20
-108.7396158582318
 30
0.0
 10
86.64432370880768
 20
-108.5213690592412
 30
0.0
 10
86.58747963330104
 20
-108.2986436361198
 30
0.0
 10
86.69066024308428
 20
-108.1732421604567
 30
0.0
 10
86.7860893880257
 20
-108.0862534994541
 30
0.0
 10
86.9032226345242
 20
-107.9794555394114
 30
0.0
 10
87.03964841574009
 20
-107.9153767633857
 30
0.0
 10
87.23240150813982
 20
-107.9858289660591
 30
0.0
 10
87.43566214176955
 20
-108.0611043024118
 30
0.0
 10
87.60671113261222
 20
-108.2144110515054
 30
0.0
 10
87.72349986956219
 20
-108.342740858331
 30
0.0
 10
87.83891056831806
 20
-108.4693481174139
 30
0.0
 10
87.97843693547067
 20
-108.6540052354233
 30
0.0
 10
88.03304169891189
 20
-108.8648450791206
 30
0.0
  0
SPLINE
  5
E3
330
DC
100
AcDbEntity
  8
_U+30EC_U+30A4_U+30E4_U+30FC 1
370
     0
100
AcDbSpline
210
0.0
220
0.0
230
1.0
 70
    11
 71
     3
 72
    17
 73
    13
 74
     0
 42
0.0000000001
 43
0.0000000001
 12
1.0
 22
0.0
 32
0.0
 13
1.0
 23
0.0
 33
0.0
 40
0.0
 40
0.0
 40
0.0
 40
0.0
 40
1.0
 40
1.0
 40
1.0
 40
2.0
 40
2.0
 40
2.0
 40
3.0
 40
3.0
 40
3.0
 40
4.0
 40
4.0
 40
4.0
 40
4.0
 10
86.9156249782711
 20
-108.228535942995
 30
0.0
 10
86.73114011503597
 20
-108.3966566026752
 30
0.0
 10
86.88754745006631
 20
-108.6376410318684
 30
0.0
 10
87.11974688577214
 20
-108.8925780977769
 30
0.0
 10
87.334893098826
 20
-109.1287393932907
 30
0.0
 10
87.56950410137152
 20
-109.3328613007918
 30
0.0
 10
87.76191268422272
 20
-109.1576781953668
 30
0.0
 10
87.94484725448949
 20
-108.9909355738807
 30
0.0
 10
87.7913682506216
 20
-108.7501233994618
 30
0.0
 10
87.5576185219474
 20
-108.4936360405849
 30
0.0
 10
87.34264456366782
 20
-108.2574747450711
 30
0.0
 10
87.10648326815394
 20
-108.0547308757641
 30
0.0
 10
86.9156249782711
 20
-108.228535942995
 30
0.0
  0
HATCH
  5
E4
330
DC
100
AcDbEntity
  8
_U+30EC_U+30A4_U+30E4_U+30FC 1
 62
   179
420
  2234388
100
AcDbHatch
 10
0.0
 20
0.0
 30
0.0
210
0.0
220
0.0
230
1.0
  2
SOLID
 70
     1
 71
     0
 91
        2
 92
        1
 93
        1
 72
     4
 94
        3
 73
     0
 74
     1
 95
       29
 96
       25
 40
0.0
 40
0.0
 40
0.0
 40
0.0
 40
1.0
 40
1.0
 40
1.0
 40
2.0
 40
2.0
 40
2.0
 40
3.0
 40
3.0
 40
3.0
 40
4.0
 40
4.0
 40
4.0
 40
5.0
 40
5.0
 40
5.0
 40
6.0
 40
6.0
 40
6.0
 40
7.0
 40
7.0
 40
7.0
 40
8.0
 40
8.0
 40
8.0
 40
8.0
 10
88.03304169891189
 20
-108.8648450791206
 10
88.09436439854933
 20
-109.0922213811471
 10
87.97895369979346
 20
-109.2231350095866
 10
87.89282631266221
 20
-109.301510931876
 10
87.7739705184211
 20
-109.4096869301129
 10
87.63788924675373
 20
-109.470837374976
 10
87.44496389957973
 20
-109.4003851723027
 10
87.23739689659344
 20
-109.3263156193698
 10
87.06376408413684
 20
-109.1640516220146
 10
86.95403779293163
 20
-109.0434732800308
 10
86.85705835502185
 20
-108.9371920843109
 10
86.70013425566871
 20
-108.7396158582318
 10
86.64432370880768
 20
-108.5213690592412
 10
86.58747963330104
 20
-108.2986436361198
 10
86.69066024308428
 20
-108.1732421604567
 10
86.7860893880257
 20
-108.0862534994541
 10
86.9032226345242
 20
-107.9794555394114
 10
87.03964841574009
 20
-107.9153767633857
 10
87.23240150813982
 20
-107.9858289660591
 10
87.43566214176955
 20
-108.0611043024118
 10
87.60671113261222
 20
-108.2144110515054
 10
87.72349986956219
 20
-108.342740858331
 10
87.83891056831806
 20
-108.4693481174139
 10
87.97843693547067
 20
-108.6540052354233
 10
88.03304169891189
 20
-108.8648450791206
 97
        0
 97
        0
 92
        1
 93
        1
 72
     4
 94
        3
 73
     0
 74
     1
 95
       17
 96
       13
 40
0.0
 40
0.0
 40
0.0
 40
0.0
 40
1.0
 40
1.0
 40
1.0
 40
2.0
 40
2.0
 40
2.0
 40
3.0
 40
3.0
 40
3.0
 40
4.0
 40
4.0
 40
4.0
 40
4.0
 10
86.9156249782711
 20
-108.228535942995
 10
86.73114011503597
 20
-108.3966566026752
 10
86.88754745006631
 20
-108.6376410318684
 10
87.11974688577214
 20
-108.8925780977769
 10
87.334893098826
 20
-109.1287393932907
 10
87.56950410137152
 20
-109.3328613007918
 10
87.76191268422272
 20
-109.1576781953668
 10
87.94484725448949
 20
-108.9909355738807
 10
87.7913682506216
 20
-108.7501233994618
 10
87.5576185219474
 20
-108.4936360405849
 10
87.34264456366782
 20
-108.2574747450711
 10
87.10648326815394
 20
-108.0547308757641
 10
86.9156249782711
 20
-108.228535942995
 97
        0
 97
        0
 75
     2
 76
     1
 98
        0
  0
ENDBLK
  5
DF
330
DC
100
AcDbEntity
  8
0
100
AcDbBlockEnd
  0
BLOCK
  5
E7
330
E5
100
AcDbEntity
  8
0
100
AcDbBlockBegin
  2
block 6
 70
     0
 10
0.0
 20
0.0
 30
0.0
  3
block 6
  1

  0
SPLINE
  5
E9
330
E5
100
AcDbEntity
  8
_U+30EC_U+30A4_U+30E4_U+30FC 1
370
     0
100
AcDbSpline
210
0.0
220
0.0
230
1.0
 70
    11
 71
     3
 72
    35
 73
    31
 74
     0
 42
0.0000000001
 43
0.0000000001
 12
1.0
 22
0.0
 32
0.0
 13
1.0
 23
0.0
 33
0.0
 40
0.0
 40
0.0
 40
0.0
 40
0.0
 40
1.0
 40
1.0
 40
1.0
 40
2.0
 40
2.0
 40
2.0
 40
3.0
 40
3.0
 40
3.0
 40
4.0
 40
4.0
 40
4.0
 40
5.0
 40
5.0
 40
5.0
 40
6.0
 40
6.0
 40
6.0
 40
7.0
 40
7.0
 40
7.0
 40
8.0
 40
8.0
 40
8.0
 40
9.0
 40
9.0
 40
9.0
 40
10.0
 40
10.0
 40
10.0
 40
10.0
 10
81.60414901388717
 20
-115.7555528139431
 30
0.0
 10
81.60414901388717
 20
-115.7555528139431
 30
0.0
 10
81.55350611025399
 20
-116.019963892436
 30
0.0
 10
81.55350611025399
 20
-116.019963892436
 30
0.0
 10
81.6930324774066
 20
-116.0327107457314
 30
0.0
 10
82.02100556760239
 20
-116.123661266542
 30
0.0
 10
82.02100556760239
 20
-116.5150241136664
 30
0.0
 10
82.02100556760239
 20
-116.9930311122448
 30
0.0
 10
81.61482880989143
 20
-117.1179158235851
 30
0.0
 10
81.33973793539424
 20
-117.1179158235851
 30
0.0
 10
81.33973793539424
 20
-117.1179158235851
 30
0.0
 10
81.27204180910908
 20
-117.4712103655975
 30
0.0
 10
81.27204180910908
 20
-117.4712103655975
 30
0.0
 10
81.27204180910908
 20
-117.4712103655975
 30
0.0
 10
81.0648193156713
 20
-117.4712103655975
 30
0.0
 10
81.0648193156713
 20
-117.4712103655975
 30
0.0
 10
81.0648193156713
 20
-117.4712103655975
 30
0.0
 10
81.13664955653876
 20
-117.1031019129985
 30
0.0
 10
81.13664955653876
 20
-117.1031019129985
 30
0.0
 10
81.02881806785044
 20
-117.0839816330554
 30
0.0
 10
80.67759058312922
 20
-117.022658933418
 30
0.0
 10
80.67759058312922
 20
-116.605974634477
 30
0.0
 10
80.67759058312922
 20
-116.1574232022975
 30
0.0
 10
81.03312443720701
 20
-116.0072170391406
 30
0.0
 10
81.3481784193331
 20
-116.0072170391406
 30
0.0
 10
81.3481784193331
 20
-116.0072170391406
 30
0.0
 10
81.39692652044938
 20
-115.7555528139431
 30
0.0
 10
81.39692652044938
 20
-115.7555528139431
 30
0.0
 10
81.39692652044938
 20
-115.7555528139431
 30
0.0
 10
81.60414901388717
 20
-115.7555528139431
 30
0.0
 10
81.60414901388717
 20
-115.7555528139431
 30
0.0
  0
SPLINE
  5
EA
330
E5
100
AcDbEntity
  8
_U+30EC_U+30A4_U+30E4_U+30FC 1
370
     0
100
AcDbSpline
210
0.0
220
0.0
230
1.0
 70
    11
 71
     3
 72
    14
 73
    10
 74
     0
 42
0.0000000001
 43
0.0000000001
 12
1.0
 22
0.0
 32
0.0
 13
1.0
 23
0.0
 33
0.0
 40
0.0
 40
0.0
 40
0.0
 40
0.0
 40
1.0
 40
1.0
 40
1.0
 40
2.0
 40
2.0
 40
2.0
 40
3.0
 40
3.0
 40
3.0
 40
3.0
 10
81.31441648357765
 20
-116.1806775968229
 30
0.0
 10
81.1938381415939
 20
-116.1891180807618
 30
0.0
 10
80.89979924192784
 20
-116.2123724752872
 30
0.0
 10
80.89979924192784
 20
-116.6101087490593
 30
0.0
 10
80.89979924192784
 20
-116.6736707607621
 30
0.0
 10
80.89979924192784
 20
-116.8872666808476
 30
0.0
 10
81.16851668977732
 20
-116.9317084126073
 30
0.0
 10
81.16851668977732
 20
-116.9317084126073
 30
0.0
 10
81.31441648357765
 20
-116.1806775968229
 30
0.0
 10
81.31441648357765
 20
-116.1806775968229
 30
0.0
  0
SPLINE
  5
EB
330
E5
100
AcDbEntity
  8
_U+30EC_U+30A4_U+30E4_U+30FC 1
370
     0
100
AcDbSpline
210
0.0
220
0.0
230
1.0
 70
    11
 71
     3
 72
    14
 73
    10
 74
     0
 42
0.0000000001
 43
0.0000000001
 12
1.0
 22
0.0
 32
0.0
 13
1.0
 23
0.0
 33
0.0
 40
0.0
 40
0.0
 40
0.0
 40
0.0
 40
1.0
 40
1.0
 40
1.0
 40
2.0
 40
2.0
 40
2.0
 40
3.0
 40
3.0
 40
3.0
 40
3.0
 10
81.3757391832151
 20
-116.9401488965462
 30
0.0
 10
81.55764022483629
 20
-116.9360147819639
 30
0.0
 10
81.8010362208692
 20
-116.8555718023833
 30
0.0
 10
81.8010362208692
 20
-116.5002102030798
 30
0.0
 10
81.8010362208692
 20
-116.4070203702038
 30
0.0
 10
81.78828936757377
 20
-116.2187459019349
 30
0.0
 10
81.51750486243313
 20
-116.1913573928272
 30
0.0
 10
81.51750486243313
 20
-116.1913573928272
 30
0.0
 10
81.3757391832151
 20
-116.9401488965462
 30
0.0
 10
81.3757391832151
 20
-116.9401488965462
 30
0.0
  0
HATCH
  5
EC
330
E5
100
AcDbEntity
  8
_U+30EC_U+30A4_U+30E4_U+30FC 1
 62
   179
420
  2234388
100
AcDbHatch
 10
0.0
 20
0.0
 30
0.0
210
0.0
220
0.0
230
1.0
  2
SOLID
 70
     1
 71
     0
 91
        3
 92
        1
 93
        1
 72
     4
 94
        3
 73
     0
 74
     1
 95
       35
 96
       31
 40
0.0
 40
0.0
 40
0.0
 40
0.0
 40
1.0
 40
1.0
 40
1.0
 40
2.0
 40
2.0
 40
2.0
 40
3.0
 40
3.0
 40
3.0
 40
4.0
 40
4.0
 40
4.0
 40
5.0
 40
5.0
 40
5.0
 40
6.0
 40
6.0
 40
6.0
 40
7.0
 40
7.0
 40
7.0
 40
8.0
 40
8.0
 40
8.0
 40
9.0
 40
9.0
 40
9.0
 40
10.0
 40
10.0
 40
10.0
 40
10.0
 10
81.60414901388717
 20
-115.7555528139431
 10
81.60414901388717
 20
-115.7555528139431
 10
81.55350611025399
 20
-116.019963892436
 10
81.55350611025399
 20
-116.019963892436
 10
81.6930324774066
 20
-116.0327107457314
 10
82.02100556760239
 20
-116.123661266542
 10
82.02100556760239
 20
-116.5150241136664
 10
82.02100556760239
 20
-116.9930311122448
 10
81.61482880989143
 20
-117.1179158235851
 10
81.33973793539424
 20
-117.1179158235851
 10
81.33973793539424
 20
-117.1179158235851
 10
81.27204180910908
 20
-117.4712103655975
 10
81.27204180910908
 20
-117.4712103655975
 10
81.27204180910908
 20
-117.4712103655975
 10
81.0648193156713
 20
-117.4712103655975
 10
81.0648193156713
 20
-117.4712103655975
 10
81.0648193156713
 20
-117.4712103655975
 10
81.13664955653876
 20
-117.1031019129985
 10
81.13664955653876
 20
-117.1031019129985
 10
81.02881806785044
 20
-117.0839816330554
 10
80.67759058312922
 20
-117.022658933418
 10
80.67759058312922
 20
-116.605974634477
 10
80.67759058312922
 20
-116.1574232022975
 10
81.03312443720701
 20
-116.0072170391406
 10
81.3481784193331
 20
-116.0072170391406
 10
81.3481784193331
 20
-116.0072170391406
 10
81.39692652044938
 20
-115.7555528139431
 10
81.39692652044938
 20
-115.7555528139431
 10
81.39692652044938
 20
-115.7555528139431
 10
81.60414901388717
 20
-115.7555528139431
 10
81.60414901388717
 20
-115.7555528139431
 97
        0
 97
        0
 92
        1
 93
        1
 72
     4
 94
        3
 73
     0
 74
     1
 95
       14
 96
       10
 40
0.0
 40
0.0
 40
0.0
 40
0.0
 40
1.0
 40
1.0
 40
1.0
 40
2.0
 40
2.0
 40
2.0
 40
3.0
 40
3.0
 40
3.0
 40
3.0
 10
81.31441648357765
 20
-116.1806775968229
 10
81.1938381415939
 20
-116.1891180807618
 10
80.89979924192784
 20
-116.2123724752872
 10
80.89979924192784
 20
-116.6101087490593
 10
80.89979924192784
 20
-116.6736707607621
 10
80.89979924192784
 20
-116.8872666808476
 10
81.16851668977732
 20
-116.9317084126073
 10
81.16851668977732
 20
-116.9317084126073
 10
81.31441648357765
 20
-116.1806775968229
 10
81.31441648357765
 20
-116.1806775968229
 97
        0
 97
        0
 92
        1
 93
        1
 72
     4
 94
        3
 73
     0
 74
     1
 95
       14
 96
       10
 40
0.0
 40
0.0
 40
0.0
 40
0.0
 40
1.0
 40
1.0
 40
1.0
 40
2.0
 40
2.0
 40
2.0
 40
3.0
 40
3.0
 40
3.0
 40
3.0
 10
81.3757391832151
 20
-116.9401488965462
 10
81.55764022483629
 20
-116.9360147819639
 10
81.8010362208692
 20
-116.8555718023833
 10
81.8010362208692
 20
-116.5002102030798
 10
81.8010362208692
 20
-116.4070203702038
 10
81.78828936757377
 20
-116.2187459019349
 10
81.51750486243313
 20
-116.1913573928272
 10
81.51750486243313
 20
-116.1913573928272
 10
81.3757391832151
 20
-116.9401488965462
 10
81.3757391832151
 20
-116.9401488965462
 97
        0
 97
        0
 75
     2
 76
     1
 98
        0
  0
SPLINE
  5
ED
330
E5
100
AcDbEntity
  8
_U+30EC_U+30A4_U+30E4_U+30FC 1
370
     0
100
AcDbSpline
210
0.0
220
0.0
230
1.0
 70
    11
 71
     3
 72
    26
 73
    22
 74
     0
 42
0.0000000001
 43
0.0000000001
 12
1.0
 22
0.0
 32
0.0
 13
1.0
 23
0.0
 33
0.0
 40
0.0
 40
0.0
 40
0.0
 40
0.0
 40
1.0
 40
1.0
 40
1.0
 40
2.0
 40
2.0
 40
2.0
 40
3.0
 40
3.0
 40
3.0
 40
4.0
 40
4.0
 40
4.0
 40
5.0
 40
5.0
 40
5.0
 40
6.0
 40
6.0
 40
6.0
 40
7.0
 40
7.0
 40
7.0
 40
7.0
 10
82.68418644851299
 20
-117.126356307524
 30
0.0
 10
82.68418644851299
 20
-117.126356307524
 30
0.0
 10
82.68418644851299
 20
-116.0220309497271
 30
0.0
 10
82.68418644851299
 20
-116.0220309497271
 30
0.0
 10
82.68418644851299
 20
-116.0220309497271
 30
0.0
 10
82.35414630102605
 20
-116.0220309497271
 30
0.0
 10
82.35414630102605
 20
-116.0220309497271
 30
0.0
 10
82.35414630102605
 20
-116.0220309497271
 30
0.0
 10
82.35414630102605
 20
-115.8740640986357
 30
0.0
 10
82.35414630102605
 20
-115.8740640986357
 30
0.0
 10
82.68625350580413
 20
-115.8592501880491
 30
0.0
 10
82.73276229485501
 20
-115.6962971715968
 30
0.0
 10
82.76239011602816
 20
-115.5820922562607
 30
0.0
 10
82.76239011602816
 20
-115.5820922562607
 30
0.0
 10
82.90846216460275
 20
-115.5820922562607
 30
0.0
 10
82.90846216460275
 20
-115.5820922562607
 30
0.0
 10
82.90846216460275
 20
-115.5820922562607
 30
0.0
 10
82.90846216460275
 20
-117.126356307524
 30
0.0
 10
82.90846216460275
 20
-117.126356307524
 30
0.0
 10
82.90846216460275
 20
-117.126356307524
 30
0.0
 10
82.68418644851299
 20
-117.126356307524
 30
0.0
 10
82.68418644851299
 20
-117.126356307524
 30
0.0
  0
HATCH
  5
EE
330
E5
100
AcDbEntity
  8
_U+30EC_U+30A4_U+30E4_U+30FC 1
 62
   179
420
  2234388
100
AcDbHatch
 10
0.0
 20
0.0
 30
0.0
210
0.0
220
0.0
230
1.0
  2
SOLID
 70
     1
 71
     0
 91
        1
 92
        1
 93
        1
 72
     4
 94
        3
 73
     0
 74
     1
 95
       26
 96
       22
 40
0.0
 40
0.0
 40
0.0
 40
0.0
 40
1.0
 40
1.0
 40
1.0
 40
2.0
 40
2.0
 40
2.0
 40
3.0
 40
3.0
 40
3.0
 40
4.0
 40
4.0
 40
4.0
 40
5.0
 40
5.0
 40
5.0
 40
6.0
 40
6.0
 40
6.0
 40
7.0
 40
7.0
 40
7.0
 40
7.0
 10
82.68418644851299
 20
-117.126356307524
 10
82.68418644851299
 20
-117.126356307524
 10
82.68418644851299
 20
-116.0220309497271
 10
82.68418644851299
 20
-116.0220309497271
 10
82.68418644851299
 20
-116.0220309497271
 10
82.35414630102605
 20
-116.0220309497271
 10
82.35414630102605
 20
-116.0220309497271
 10
82.35414630102605
 20
-116.0220309497271
 10
82.35414630102605
 20
-115.8740640986357
 10
82.35414630102605
 20
-115.8740640986357
 10
82.68625350580413
 20
-115.8592501880491
 10
82.73276229485501
 20
-115.6962971715968
 10
82.76239011602816
 20
-115.5820922562607
 10
82.76239011602816
 20
-115.5820922562607
 10
82.90846216460275
 20
-115.5820922562607
 10
82.90846216460275
 20
-115.5820922562607
 10
82.90846216460275
 20
-115.5820922562607
 10
82.90846216460275
 20
-117.126356307524
 10
82.90846216460275
 20
-117.126356307524
 10
82.90846216460275
 20
-117.126356307524
 10
82.68418644851299
 20
-117.126356307524
 10
82.68418644851299
 20
-117.126356307524
 97
        0
 97
        0
 75
     2
 76
     1
 98
        0
  0
SPLINE
  5
EF
330
E5
100
AcDbEntity
  8
_U+30EC_U+30A4_U+30E4_U+30FC 1
370
     0
100
AcDbSpline
210
0.0
220
0.0
230
1.0
 70
    11
 71
     3
 72
    29
 73
    25
 74
     0
 42
0.0000000001
 43
0.0000000001
 12
1.0
 22
0.0
 32
0.0
 13
1.0
 23
0.0
 33
0.0
 40
0.0
 40
0.0
 40
0.0
 40
0.0
 40
1.0
 40
1.0
 40
1.0
 40
2.0
 40
2.0
 40
2.0
 40
3.0
 40
3.0
 40
3.0
 40
4.0
 40
4.0
 40
4.0
 40
5.0
 40
5.0
 40
5.0
 40
6.0
 40
6.0
 40
6.0
 40
7.0
 40
7.0
 40
7.0
 40
8.0
 40
8.0
 40
8.0
 40
8.0
 10
84.30734318638845
 20
-116.9485893804851
 30
0.0
 10
84.19951169770013
 20
-117.1580511859883
 30
0.0
 10
84.0260511400178
 20
-117.1771714659314
 30
0.0
 10
83.90960691261635
 20
-117.1771714659314
 30
0.0
 10
83.74889320822945
 20
-117.1771714659314
 30
0.0
 10
83.60712752901142
 20
-117.1306626768805
 30
0.0
 10
83.51187063884426
 20
-116.9485893804851
 30
0.0
 10
83.4083455195125
 20
-116.7539414855685
 30
0.0
 10
83.38922523956937
 20
-116.5170911709575
 30
0.0
 10
83.38922523956937
 20
-116.3541381545052
 30
0.0
 10
83.38922523956937
 20
-116.210305417996
 30
0.0
 10
83.4061062074471
 20
-115.9586411927985
 30
0.0
 10
83.51187063884426
 20
-115.7596869285254
 30
0.0
 10
83.61987438230685
 20
-115.5565985496699
 30
0.0
 10
83.78058808669374
 20
-115.5333441551444
 30
0.0
 10
83.90960691261635
 20
-115.5333441551444
 30
0.0
 10
84.0682535597121
 20
-115.5333441551444
 30
0.0
 10
84.21225855099556
 20
-115.5777858869042
 30
0.0
 10
84.30734318638845
 20
-115.7596869285254
 30
0.0
 10
84.4067341911379
 20
-115.9522677661508
 30
0.0
 10
84.42998858566334
 20
-116.1806775968229
 30
0.0
 10
84.42998858566334
 20
-116.3541381545052
 30
0.0
 10
84.42998858566334
 20
-116.5255316548964
 30
0.0
 10
84.40897350320331
 20
-116.7561807976339
 30
0.0
 10
84.30734318638845
 20
-116.9485893804851
 30
0.0
  0
SPLINE
  5
F0
330
E5
100
AcDbEntity
  8
_U+30EC_U+30A4_U+30E4_U+30FC 1
370
     0
100
AcDbSpline
210
0.0
220
0.0
230
1.0
 70
    11
 71
     3
 72
    17
 73
    13
 74
     0
 42
0.0000000001
 43
0.0000000001
 12
1.0
 22
0.0
 32
0.0
 13
1.0
 23
0.0
 33
0.0
 40
0.0
 40
0.0
 40
0.0
 40
0.0
 40
1.0
 40
1.0
 40
1.0
 40
2.0
 40
2.0
 40
2.0
 40
3.0
 40
3.0
 40
3.0
 40
4.0
 40
4.0
 40
4.0
 40
4.0
 10
83.90960691261635
 20
-115.7259249927699
 30
0.0
 10
83.66000974471
 20
-115.7259249927699
 30
0.0
 10
83.61350095565913
 20
-116.009456351206
 30
0.0
 10
83.61350095565913
 20
-116.3541381545052
 30
0.0
 10
83.61350095565913
 20
-116.6736707607621
 30
0.0
 10
83.64950220347998
 20
-116.9825235710148
 30
0.0
 10
83.90960691261635
 20
-116.9825235710148
 30
0.0
 10
84.15713702323156
 20
-116.9825235710148
 30
0.0
 10
84.20588512434784
 20
-116.7010592698699
 30
0.0
 10
84.20588512434784
 20
-116.3541381545052
 30
0.0
 10
84.20588512434784
 20
-116.0347778030226
 30
0.0
 10
84.16781681923582
 20
-115.7259249927699
 30
0.0
 10
83.90960691261635
 20
-115.7259249927699
 30
0.0
  0
HATCH
  5
F1
330
E5
100
AcDbEntity
  8
_U+30EC_U+30A4_U+30E4_U+30FC 1
 62
   179
420
  2234388
100
AcDbHatch
 10
0.0
 20
0.0
 30
0.0
210
0.0
220
0.0
230
1.0
  2
SOLID
 70
     1
 71
     0
 91
        2
 92
        1
 93
        1
 72
     4
 94
        3
 73
     0
 74
     1
 95
       29
 96
       25
 40
0.0
 40
0.0
 40
0.0
 40
0.0
 40
1.0
 40
1.0
 40
1.0
 40
2.0
 40
2.0
 40
2.0
 40
3.0
 40
3.0
 40
3.0
 40
4.0
 40
4.0
 40
4.0
 40
5.0
 40
5.0
 40
5.0
 40
6.0
 40
6.0
 40
6.0
 40
7.0
 40
7.0
 40
7.0
 40
8.0
 40
8.0
 40
8.0
 40
8.0
 10
84.30734318638845
 20
-116.9485893804851
 10
84.19951169770013
 20
-117.1580511859883
 10
84.0260511400178
 20
-117.1771714659314
 10
83.90960691261635
 20
-117.1771714659314
 10
83.74889320822945
 20
-117.1771714659314
 10
83.60712752901142
 20
-117.1306626768805
 10
83.51187063884426
 20
-116.9485893804851
 10
83.4083455195125
 20
-116.7539414855685
 10
83.38922523956937
 20
-116.5170911709575
 10
83.38922523956937
 20
-116.3541381545052
 10
83.38922523956937
 20
-116.210305417996
 10
83.4061062074471
 20
-115.9586411927985
 10
83.51187063884426
 20
-115.7596869285254
 10
83.61987438230685
 20
-115.5565985496699
 10
83.78058808669374
 20
-115.5333441551444
 10
83.90960691261635
 20
-115.5333441551444
 10
84.0682535597121
 20
-115.5333441551444
 10
84.21225855099556
 20
-115.5777858869042
 10
84.30734318638845
 20
-115.7596869285254
 10
84.4067341911379
 20
-115.9522677661508
 10
84.42998858566334
 20
-116.1806775968229
 10
84.42998858566334
 20
-116.3541381545052
 10
84.42998858566334
 20
-116.5255316548964
 10
84.40897350320331
 20
-116.7561807976339
 10
84.30734318638845
 20
-116.9485893804851
 97
        0
 97
        0
 92
        1
 93
        1
 72
     4
 94
        3
 73
     0
 74
     1
 95
       17
 96
       13
 40
0.0
 40
0.0
 40
0.0
 40
0.0
 40
1.0
 40
1.0
 40
1.0
 40
2.0
 40
2.0
 40
2.0
 40
3.0
 40
3.0
 40
3.0
 40
4.0
 40
4.0
 40
4.0
 40
4.0
 10
83.90960691261635
 20
-115.7259249927699
 10
83.66000974471
 20
-115.7259249927699
 10
83.61350095565913
 20
-116.009456351206
 10
83.61350095565913
 20
-116.3541381545052
 10
83.61350095565913
 20
-116.6736707607621
 10
83.64950220347998
 20
-116.9825235710148
 10
83.90960691261635
 20
-116.9825235710148
 10
84.15713702323156
 20
-116.9825235710148
 10
84.20588512434784
 20
-116.7010592698699
 10
84.20588512434784
 20
-116.3541381545052
 10
84.20588512434784
 20
-116.0347778030226
 10
84.16781681923582
 20
-115.7259249927699
 10
83.90960691261635
 20
-115.7259249927699
 97
        0
 97
        0
 75
     2
 76
     1
 98
        0
  0
ENDBLK
  5
E8
330
E5
100
AcDbEntity
  8
0
100
AcDbBlockEnd
  0
ENDSEC
  0
SECTION
  2
ENTITIES
  0
INSERT
  5
42
330
1F
100
AcDbEntity
  8
_U+30EC_U+30A4_U+30E4_U+30FC 1
100
AcDbBlockReference
  2
block 2
 10
0.0
 20
0.0
 30
0.0
  0
ENDSEC
  0
SECTION
  2
OBJECTS
  0
DICTIONARY
  5
C
330
0
100
AcDbDictionary
281
     1
  3
ACAD_GROUP
350
D
  3
ACAD_LAYOUT
350
1A
  3
ACAD_MATERIAL
350
3B
  3
ACAD_MLEADERSTYLE
350
FD
  3
ACAD_MLINESTYLE
350
17
  3
ACAD_PLOTSETTINGS
350
19
  3
ACAD_PLOTSTYLENAME
350
E
  3
ACAD_TABLESTYLE
350
FC
  3
ACAD_VISUALSTYLE
350
2A
  0
SUN
  5
3F
330
29
100
AcDbSun
 90
        1
290
     0
 63
     7
421
 16777215
 40
1.0
291
     1
 91
  2455826
 92
 54000000
292
     0
 70
     2
 71
   256
280
     1
  0
DICTIONARY
  5
D
102
{ACAD_REACTORS
330
C
102
}
330
C
100
AcDbDictionary
281
     1
  0
DICTIONARY
  5
1A
102
{ACAD_REACTORS
330
C
102
}
330
C
100
AcDbDictionary
281
     1
  3
Layout1
350
1E
  3
Layout2
350
26
  3
Model
350
22
  0
DICTIONARY
  5
3B
102
{ACAD_REACTORS
330
C
102
}
330
C
100
AcDbDictionary
281
     1
  3
ByBlock
350
3D
  3
ByLayer
350
3C
  3
Global
350
3E
  0
DICTIONARY
  5
FD
102
{ACAD_REACTORS
330
C
102
}
330
C
100
AcDbDictionary
281
     1
  0
DICTIONARY
  5
17
102
{ACAD_REACTORS
330
C
102
}
330
C
100
AcDbDictionary
281
     1
  3
Standard
350
18
  0
DICTIONARY
  5
19
102
{ACAD_REACTORS
330
C
102
}
330
C
100
AcDbDictionary
281
     1
  0
ACDBDICTIONARYWDFLT
  5
E
102
{ACAD_REACTORS
330
C
102
}
330
C
100
AcDbDictionary
281
     1
  3
Normal
350
F
100
AcDbDictionaryWithDefault
340
F
  0
DICTIONARY
  5
FC
102
{ACAD_REACTORS
330
C
102
}
330
C
100
AcDbDictionary
281
     1
  0
DICTIONARY
  5
2A
102
{ACAD_REACTORS
330
C
102
}
330
C
100
AcDbDictionary
281
     1
  3
2dWireframe
350
2F
  3
3D Hidden
350
31
  3
3dWireframe
350
30
  3
Basic
350
32
  3
Brighten
350
36
  3
ColorChange
350
3A
  3
Conceptual
350
34
  3
Dim
350
35
  3
Facepattern
350
39
  3
Flat
350
2B
  3
FlatWithEdges
350
2C
  3
Gouraud
350
2D
  3
GouraudWithEdges
350
2E
  3
Linepattern
350
38
  3
Realistic
350
33
  3
Thicken
350
37
  0
LAYOUT
  5
1E
102
{ACAD_REACTORS
330
1A
102
}
330
1A
100
AcDbPlotSettings
  1

  2
none_device
  4

  6

 40
0.0
 41
0.0
 42
0.0
 43
0.0
 44
0.0
 45
0.0
 46
0.0
 47
0.0
 48
0.0
 49
0.0
140
0.0
141
0.0
142
1.0
143
1.0
 70
   688
 72
     0
 73
     0
 74
     5
  7

 75
    16
 76
     0
 77
     2
 78
   300
147
1.0
148
0.0
149
0.0
100
AcDbLayout
  1
Layout1
 70
     1
 71
     1
 10
0.0
 20
0.0
 11
12.0
 21
9.0
 12
0.0
 22
0.0
 32
0.0
 14
1.000000000000000E+20
 24
1.000000000000000E+20
 34
1.000000000000000E+20
 15
-1.000000000000000E+20
 25
-1.000000000000000E+20
 35
-1.000000000000000E+20
146
0.0
 13
0.0
 23
0.0
 33
0.0
 16
1.0
 26
0.0
 36
0.0
 17
0.0
 27
1.0
 37
0.0
 76
     0
330
1B
  0
LAYOUT
  5
26
102
{ACAD_REACTORS
330
1A
102
}
330
1A
100
AcDbPlotSettings
  1

  2
none_device
  4

  6

 40
0.0
 41
0.0
 42
0.0
 43
0.0
 44
0.0
 45
0.0
 46
0.0
 47
0.0
 48
0.0
 49
0.0
140
0.0
141
0.0
142
1.0
143
1.0
 70
   688
 72
     0
 73
     0
 74
     5
  7

 75
    16
 76
     0
 77
     2
 78
   300
147
1.0
148
0.0
149
0.0
100
AcDbLayout
  1
Layout2
 70
     1
 71
     2
 10
0.0
 20
0.0
 11
0.0
 21
0.0
 12
0.0
 22
0.0
 32
0.0
 14
0.0
 24
0.0
 34
0.0
 15
0.0
 25
0.0
 35
0.0
146
0.0
 13
0.0
 23
0.0
 33
0.0
 16
1.0
 26
0.0
 36
0.0
 17
0.0
 27
1.0
 37
0.0
 76
     0
330
23
  0
LAYOUT
  5
22
102
{ACAD_REACTORS
330
1A
102
}
330
1A
100
AcDbPlotSettings
  1

  2
none_device
  4

  6

 40
0.0
 41
0.0
 42
0.0
 43
0.0
 44
0.0
 45
0.0
 46
0.0
 47
0.0
 48
0.0
 49
0.0
140
0.0
141
0.0
142
1.0
143
1.0
 70
  1712
 72
     0
 73
     0
 74
     0
  7

 75
     0
 76
     0
 77
     2
 78
   300
147
1.0
148
0.0
149
0.0
100
AcDbLayout
  1
Model
 70
     1
 71
     0
 10
0.0
 20
0.0
 11
12.0
 21
9.0
 12
0.0
 22
0.0
 32
0.0
 14
1.000000000000000E+20
 24
1.000000000000000E+20
 34
1.000000000000000E+20
 15
-1.000000000000000E+20
 25
-1.000000000000000E+20
 35
-1.000000000000000E+20
146
0.0
 13
0.0
 23
0.0
 33
0.0
 16
1.0
 26
0.0
 36
0.0
 17
0.0
 27
1.0
 37
0.0
 76
     0
330
1F
331
29
  0
MATERIAL
  5
3D
102
{ACAD_REACTORS
330
3B
102
}
330
3B
100
AcDbMaterial
  1
ByBlock
 72
     1
 94
      127
  0
MATERIAL
  5
3C
102
{ACAD_REACTORS
330
3B
102
}
330
3B
100
AcDbMaterial
  1
ByLayer
 72
     1
 94
      127
  0
MATERIAL
  5
3E
102
{ACAD_REACTORS
330
3B
102
}
330
3B
100
AcDbMaterial
  1
Global
 72
     1
 94
      127
  0
MLINESTYLE
  5
18
102
{ACAD_REACTORS
330
17
102
}
330
17
100
AcDbMlineStyle
  2
Standard
 70
     0
  3

 62
   256
 51
90.0
 52
90.0
 71
     2
 49
0.5
 62
   256
  6
BYLAYER
 49
-0.5
 62
   256
  6
BYLAYER
  0
ACDBPLACEHOLDER
  5
F
102
{ACAD_REACTORS
330
E
102
}
330
E
  0
VISUALSTYLE
  5
2F
102
{ACAD_REACTORS
330
2A
102
}
330
2A
100
AcDbVisualStyle
  2
2dWireframe
 70
     4
177
     2
291
     0
 71
     0
176
     1
 72
     2
176
     1
 73
     0
176
     1
 90
        0
176
     1
 40
-0.6
176
     1
 41
-30.0
176
     1
 62
     5
 63
     7
421
 16777215
176
     1
 74
     1
176
     1
 91
        4
176
     1
 64
     7
176
     1
 65
   257
176
     1
 75
     1
176
     1
175
     1
176
     1
 42
1.0
176
     1
 92
        0
176
     1
 66
   257
176
     1
 43
1.0
176
     1
 76
     1
176
     1
 77
     6
176
     1
 78
     2
176
     1
 67
     7
176
     1
 79
     5
176
     1
170
     0
176
     1
171
     0
176
     1
290
     0
176
     1
 93
        1
176
     1
 44
0.0
176
     1
173
     0
176
     1
  0
VISUALSTYLE
  5
31
102
{ACAD_REACTORS
330
2A
102
}
330
2A
100
AcDbVisualStyle
  2
3D Hidden
 70
     6
177
     2
291
     0
 71
     1
176
     1
 72
     2
176
     1
 73
     2
176
     1
 90
        0
176
     1
 40
-0.6
176
     1
 41
-30.0
176
     1
 62
     5
 63
     7
421
 16777215
176
     1
 74
     2
176
     1
 91
        2
176
     1
 64
     7
176
     1
 65
   257
176
     1
 75
     2
176
     1
175
     1
176
     1
 42
40.0
176
     1
 92
        0
176
     1
 66
   257
176
     1
 43
1.0
176
     1
 76
     1
176
     1
 77
     6
176
     1
 78
     2
176
     1
 67
     7
176
     1
 79
     3
176
     1
170
     0
176
     1
171
     0
176
     1
290
     0
176
     1
 93
        1
176
     1
 44
0.0
176
     1
173
     0
176
     1
  0
VISUALSTYLE
  5
30
102
{ACAD_REACTORS
330
2A
102
}
330
2A
100
AcDbVisualStyle
  2
3dWireframe
 70
     5
177
     2
291
     0
 71
     0
176
     1
 72
     2
176
     1
 73
     0
176
     1
 90
        0
176
     1
 40
-0.6
176
     1
 41
-30.0
176
     1
 62
     5
 63
     7
421
 16777215
176
     1
 74
     1
176
     1
 91
        4
176
     1
 64
     7
176
     1
 65
   257
176
     1
 75
     1
176
     1
175
     1
176
     1
 42
1.0
176
     1
 92
        0
176
     1
 66
   257
176
     1
 43
1.0
176
     1
 76
     1
176
     1
 77
     6
176
     1
 78
     2
176
     1
 67
     7
176
     1
 79
     5
176
     1
170
     0
176
     1
171
     0
176
     1
290
     0
176
     1
 93
        1
176
     1
 44
0.0
176
     1
173
     0
176
     1
  0
VISUALSTYLE
  5
32
102
{ACAD_REACTORS
330
2A
102
}
330
2A
100
AcDbVisualStyle
  2
Basic
 70
     7
177
     2
291
     1
 71
     1
176
     1
 72
     0
176
     1
 73
     1
176
     1
 90
        0
176
     1
 40
-0.6
176
     1
 41
-30.0
176
     1
 62
     5
 63
     7
421
 16777215
176
     1
 74
     0
176
     1
 91
        4
176
     1
 64
     7
176
     1
 65
   257
176
     1
 75
     1
176
     1
175
     1
176
     1
 42
1.0
176
     1
 92
        8
176
     1
 66
     7
176
     1
 43
1.0
176
     1
 76
     1
176
     1
 77
     6
176
     1
 78
     2
176
     1
 67
     7
176
     1
 79
     5
176
     1
170
     0
176
     1
171
     0
176
     1
290
     0
176
     1
 93
        1
176
     1
 44
0.0
176
     1
173
     0
176
     1
  0
VISUALSTYLE
  5
36
102
{ACAD_REACTORS
330
2A
102
}
330
2A
100
AcDbVisualStyle
  2
Brighten
 70
    12
177
     2
291
     1
 71
     2
176
     1
 72
     2
176
     1
 73
     0
176
     1
 90
        0
176
     1
 40
-0.6
176
     1
 41
-30.0
176
     1
 62
     5
 63
     7
421
 16777215
176
     1
 74
     1
176
     1
 91
        4
176
     1
 64
     7
176
     1
 65
   257
176
     1
 75
     1
176
     1
175
     1
176
     1
 42
1.0
176
     1
 92
        8
176
     1
 66
     7
176
     1
 43
1.0
176
     1
 76
     1
176
     1
 77
     6
176
     1
 78
     2
176
     1
 67
     7
176
     1
 79
     5
176
     1
170
     0
176
     1
171
     0
176
     1
290
     0
176
     1
 93
        1
176
     1
 44
50.0
176
     1
173
     0
176
     1
  0
VISUALSTYLE
  5
3A
102
{ACAD_REACTORS
330
2A
102
}
330
2A
100
AcDbVisualStyle
  2
ColorChange
 70
    16
177
     2
291
     1
 71
     2
176
     1
 72
     2
176
     1
 73
     3
176
     1
 90
        0
176
     1
 40
-0.6
176
     1
 41
-30.0
176
     1
 62
     5
 63
     8
421
  8421504
176
     1
 74
     1
176
     1
 91
        4
176
     1
 64
     7
176
     1
 65
   257
176
     1
 75
     1
176
     1
175
     1
176
     1
 42
1.0
176
     1
 92
        8
176
     1
 66
     8
424
  8421504
176
     1
 43
1.0
176
     1
 76
     1
176
     1
 77
     6
176
     1
 78
     2
176
     1
 67
     7
176
     1
 79
     5
176
     1
170
     0
176
     1
171
     0
176
     1
290
     0
176
     1
 93
        1
176
     1
 44
0.0
176
     1
173
     0
176
     1
  0
VISUALSTYLE
  5
34
102
{ACAD_REACTORS
330
2A
102
}
330
2A
100
AcDbVisualStyle
  2
Conceptual
 70
     9
177
     2
291
     0
 71
     3
176
     1
 72
     2
176
     1
 73
     0
176
     1
 90
        0
176
     1
 40
-0.6
176
     1
 41
-30.0
176
     1
 62
     5
 63
     7
421
 16777215
176
     1
 74
     2
176
     1
 91
        2
176
     1
 64
     7
176
     1
 65
   257
176
     1
 75
     1
176
     1
175
     1
176
     1
 42
40.0
176
     1
 92
        8
176
     1
 66
     7
176
     1
 43
1.0
176
     1
 76
     1
176
     1
 77
     6
176
     1
 78
     2
176
     1
 67
     7
176
     1
 79
     3
176
     1
170
     0
176
     1
171
     0
176
     1
290
     0
176
     1
 93
        1
176
     1
 44
0.0
176
     1
173
     0
176
     1
  0
VISUALSTYLE
  5
35
102
{ACAD_REACTORS
330
2A
102
}
330
2A
100
AcDbVisualStyle
  2
Dim
 70
    11
177
     2
291
     1
 71
     2
176
     1
 72
     2
176
     1
 73
     0
176
     1
 90
        0
176
     1
 40
-0.6
176
     1
 41
-30.0
176
     1
 62
     5
 63
     7
421
 16777215
176
     1
 74
     1
176
     1
 91
        4
176
     1
 64
     7
176
     1
 65
   257
176
     1
 75
     1
176
     1
175
     1
176
     1
 42
1.0
176
     1
 92
        8
176
     1
 66
     7
176
     1
 43
1.0
176
     1
 76
     1
176
     1
 77
     6
176
     1
 78
     2
176
     1
 67
     7
176
     1
 79
     5
176
     1
170
     0
176
     1
171
     0
176
     1
290
     0
176
     1
 93
        1
176
     1
 44
-50.0
176
     1
173
     0
176
     1
  0
VISUALSTYLE
  5
39
102
{ACAD_REACTORS
330
2A
102
}
330
2A
100
AcDbVisualStyle
  2
Facepattern
 70
    15
177
     2
291
     1
 71
     2
176
     1
 72
     2
176
     1
 73
     0
176
     1
 90
        0
176
     1
 40
-0.6
176
     1
 41
-30.0
176
     1
 62
     5
 63
     7
421
 16777215
176
     1
 74
     1
176
     1
 91
        4
176
     1
 64
     7
176
     1
 65
   257
176
     1
 75
     1
176
     1
175
     1
176
     1
 42
1.0
176
     1
 92
        8
176
     1
 66
     7
176
     1
 43
1.0
176
     1
 76
     1
176
     1
 77
     6
176
     1
 78
     2
176
     1
 67
     7
176
     1
 79
     5
176
     1
170
     0
176
     1
171
     0
176
     1
290
     0
176
     1
 93
        1
176
     1
 44
0.0
176
     1
173
     0
176
     1
  0
VISUALSTYLE
  5
2B
102
{ACAD_REACTORS
330
2A
102
}
330
2A
100
AcDbVisualStyle
  2
Flat
 70
     0
177
     2
291
     1
 71
     2
176
     1
 72
     1
176
     1
 73
     1
176
     1
 90
        2
176
     1
 40
-0.6
176
     1
 41
30.0
176
     1
 62
     5
 63
     7
421
 16777215
176
     1
 74
     0
176
     1
 91
        4
176
     1
 64
     7
176
     1
 65
   257
176
     1
 75
     1
176
     1
175
     1
176
     1
 42
1.0
176
     1
 92
        8
176
     1
 66
     7
176
     1
 43
1.0
176
     1
 76
     1
176
     1
 77
     6
176
     1
 78
     2
176
     1
 67
     7
176
     1
 79
     5
176
     1
170
     0
176
     1
171
     0
176
     1
290
     0
176
     1
 93
       13
176
     1
 44
0.0
176
     1
173
     0
176
     1
  0
VISUALSTYLE
  5
2C
102
{ACAD_REACTORS
330
2A
102
}
330
2A
100
AcDbVisualStyle
  2
FlatWithEdges
 70
     1
177
     2
291
     1
 71
     2
176
     1
 72
     1
176
     1
 73
     1
176
     1
 90
        2
176
     1
 40
-0.6
176
     1
 41
30.0
176
     1
 62
     5
 63
     7
421
 16777215
176
     1
 74
     1
176
     1
 91
        4
176
     1
 64
     7
176
     1
 65
   257
176
     1
 75
     1
176
     1
175
     1
176
     1
 42
1.0
176
     1
 92
        0
176
     1
 66
   257
176
     1
 43
1.0
176
     1
 76
     1
176
     1
 77
     6
176
     1
 78
     2
176
     1
 67
     7
176
     1
 79
     5
176
     1
170
     0
176
     1
171
     0
176
     1
290
     0
176
     1
 93
       13
176
     1
 44
0.0
176
     1
173
     0
176
     1
  0
VISUALSTYLE
  5
2D
102
{ACAD_REACTORS
330
2A
102
}
330
2A
100
AcDbVisualStyle
  2
Gouraud
 70
     2
177
     2
291
     1
 71
     2
176
     1
 72
     2
176
     1
 73
     1
176
     1
 90
        2
176
     1
 40
-0.6
176
     1
 41
30.0
176
     1
 62
     5
 63
     7
421
 16777215
176
     1
 74
     0
176
     1
 91
        4
176
     1
 64
     7
176
     1
 65
   257
176
     1
 75
     1
176
     1
175
     1
176
     1
 42
1.0
176
     1
 92
        0
176
     1
 66
     7
176
     1
 43
1.0
176
     1
 76
     1
176
     1
 77
     6
176
     1
 78
     2
176
     1
 67
     7
176
     1
 79
     5
176
     1
170
     0
176
     1
171
     0
176
     1
290
     0
176
     1
 93
       13
176
     1
 44
0.0
176
     1
173
     0
176
     1
  0
VISUALSTYLE
  5
2E
102
{ACAD_REACTORS
330
2A
102
}
330
2A
100
AcDbVisualStyle
  2
GouraudWithEdges
 70
     3
177
     2
291
     1
 71
     2
176
     1
 72
     2
176
     1
 73
     1
176
     1
 90
        2
176
     1
 40
-0.6
176
     1
 41
30.0
176
     1
 62
     5
 63
     7
421
 16777215
176
     1
 74
     1
176
     1
 91
        4
176
     1
 64
     7
176
     1
 65
   257
176
     1
 75
     1
176
     1
175
     1
176
     1
 42
1.0
176
     1
 92
        0
176
     1
 66
   257
176
     1
 43
1.0
176
     1
 76
     1
176
     1
 77
     6
176
     1
 78
     2
176
     1
 67
     7
176
     1
 79
     5
176
     1
170
     0
176
     1
171
     0
176
     1
290
     0
176
     1
 93
       13
176
     1
 44
0.0
176
     1
173
     0
176
     1
  0
VISUALSTYLE
  5
38
102
{ACAD_REACTORS
330
2A
102
}
330
2A
100
AcDbVisualStyle
  2
Linepattern
 70
    14
177
     2
291
     1
 71
     2
176
     1
 72
     2
176
     1
 73
     0
176
     1
 90
        0
176
     1
 40
-0.6
176
     1
 41
-30.0
176
     1
 62
     5
 63
     7
421
 16777215
176
     1
 74
     1
176
     1
 91
        4
176
     1
 64
     7
176
     1
 65
   257
176
     1
 75
     7
176
     1
175
     7
176
     1
 42
1.0
176
     1
 92
        8
176
     1
 66
     7
176
     1
 43
1.0
176
     1
 76
     1
176
     1
 77
     6
176
     1
 78
     2
176
     1
 67
     7
176
     1
 79
     5
176
     1
170
     0
176
     1
171
     0
176
     1
290
     0
176
     1
 93
        1
176
     1
 44
0.0
176
     1
173
     0
176
     1
  0
VISUALSTYLE
  5
33
102
{ACAD_REACTORS
330
2A
102
}
330
2A
100
AcDbVisualStyle
  2
Realistic
 70
     8
177
     2
291
     0
 71
     2
176
     1
 72
     2
176
     1
 73
     0
176
     1
 90
        0
176
     1
 40
-0.6
176
     1
 41
-30.0
176
     1
 62
     5
 63
     7
421
 16777215
176
     1
 74
     1
176
     1
 91
        0
176
     1
 64
     7
176
     1
 65
   257
176
     1
 75
     1
176
     1
175
     1
176
     1
 42
1.0
176
     1
 92
        8
176
     1
 66
     8
424
  7895160
176
     1
 43
1.0
176
     1
 76
     1
176
     1
 77
     6
176
     1
 78
     2
176
     1
 67
     7
176
     1
 79
     5
176
     1
170
     0
176
     1
171
     0
176
     1
290
     0
176
     1
 93
       13
176
     1
 44
0.0
176
     1
173
     0
176
     1
  0
VISUALSTYLE
  5
37
102
{ACAD_REACTORS
330
2A
102
}
330
2A
100
AcDbVisualStyle
  2
Thicken
 70
    13
177
     2
291
     1
 71
     2
176
     1
 72
     2
176
     1
 73
     0
176
     1
 90
        0
176
     1
 40
-0.6
176
     1
 41
-30.0
176
     1
 62
     5
 63
     7
421
 16777215
176
     1
 74
     1
176
     1
 91
        4
176
     1
 64
     7
176
     1
 65
   257
176
     1
 75
     1
176
     1
175
     1
176
     1
 42
1.0
176
     1
 92
       12
176
     1
 66
     7
176
     1
 43
1.0
176
     1
 76
     1
176
     1
 77
     6
176
     1
 78
     2
176
     1
 67
     7
176
     1
 79
     5
176
     1
170
     0
176
     1
171
     0
176
     1
290
     0
176
     1
 93
        1
176
     1
 44
0.0
176
     1
173
     0
176
     1
  0
ENDSEC
  0
EOF
