  0
SECTION
  2
HEADER
  9
$ACADVER
  1
AC1024
  9
$ACADMAINTVER
 70
     6
  9
$DWGCODEPAGE
  3
UNDEFINED
  9
$INSBASE
 10
0.0
 20
0.0
 30
0.0
  9
$EXTMIN
 10
1.000000000000000E+20
 20
1.000000000000000E+20
 30
1.000000000000000E+20
  9
$EXTMAX
 10
-1.000000000000000E+20
 20
-1.000000000000000E+20
 30
-1.000000000000000E+20
  9
$LIMMIN
 10
0.0
 20
0.0
  9
$LIMMAX
 10
12.0
 20
9.0
  9
$ORTHOMODE
 70
     0
  9
$REGENMODE
 70
     1
  9
$FILLMODE
 70
     1
  9
$QTEXTMODE
 70
     0
  9
$MIRRTEXT
 70
     1
  9
$LTSCALE
 40
1.0
  9
$ATTMODE
 70
     1
  9
$TEXTSIZE
 40
0.2
  9
$TRACEWID
 40
0.05
  9
$TEXTSTYLE
  7
Standard
  9
$CLAYER
  8
0
  9
$CELTYPE
  6
ByLayer
  9
$CECOLOR
 62
   256
  9
$CELTSCALE
 40
1.0
  9
$DISPSILH
 70
     0
  9
$DIMSCALE
 40
1.0
  9
$DIMASZ
 40
0.18
  9
$DIMEXO
 40
0.0625
  9
$DIMDLI
 40
0.38
  9
$DIMRND
 40
0.0
  9
$DIMDLE
 40
0.0
  9
$DIMEXE
 40
0.18
  9
$DIMTP
 40
0.0
  9
$DIMTM
 40
0.0
  9
$DIMTXT
 40
0.18
  9
$DIMCEN
 40
0.09
  9
$DIMTSZ
 40
0.0
  9
$DIMTOL
 70
     0
  9
$DIMLIM
 70
     0
  9
$DIMTIH
 70
     1
  9
$DIMTOH
 70
     1
  9
$DIMSE1
 70
     0
  9
$DIMSE2
 70
     0
  9
$DIMTAD
 70
     0
  9
$DIMZIN
 70
     0
  9
$DIMBLK
  1

  9
$DIMASO
 70
     1
  9
$DIMSHO
 70
     1
  9
$DIMPOST
  1

  9
$DIMAPOST
  1

  9
$DIMALT
 70
     0
  9
$DIMALTD
 70
     2
  9
$DIMALTF
 40
25.4
  9
$DIMLFAC
 40
1.0
  9
$DIMTOFL
 70
     0
  9
$DIMTVP
 40
0.0
  9
$DIMTIX
 70
     0
  9
$DIMSOXD
 70
     0
  9
$DIMSAH
 70
     0
  9
$DIMBLK1
  1

  9
$DIMBLK2
  1

  9
$DIMSTYLE
  2
Standard
  9
$DIMCLRD
 70
     0
  9
$DIMCLRE
 70
     0
  9
$DIMCLRT
 70
     0
  9
$DIMTFAC
 40
1.0
  9
$DIMGAP
 40
0.09
  9
$DIMJUST
 70
     0
  9
$DIMSD1
 70
     0
  9
$DIMSD2
 70
     0
  9
$DIMTOLJ
 70
     1
  9
$DIMTZIN
 70
     0
  9
$DIMALTZ
 70
     0
  9
$DIMALTTZ
 70
     0
  9
$DIMUPT
 70
     0
  9
$DIMDEC
 70
     4
  9
$DIMTDEC
 70
     4
  9
$DIMALTU
 70
     2
  9
$DIMALTTD
 70
     2
  9
$DIMTXSTY
  7
Standard
  9
$DIMAUNIT
 70
     0
  9
$DIMADEC
 70
     0
  9
$DIMALTRND
 40
0.0
  9
$DIMAZIN
 70
     0
  9
$DIMDSEP
 70
    46
  9
$DIMATFIT
 70
     3
  9
$DIMFRAC
 70
     0
  9
$DIMLDRBLK
  1

  9
$DIMLUNIT
 70
     2
  9
$DIMLWD
 70
    -2
  9
$DIMLWE
 70
    -2
  9
$DIMTMOVE
 70
     0
  9
$DIMFXL
 40
1.0
  9
$DIMFXLON
 70
     0
  9
$DIMJOGANG
 40
0.7853981633974483
  9
$DIMTFILL
 70
     0
  9
$DIMTFILLCLR
 70
     0
  9
$DIMARCSYM
 70
     0
  9
$DIMLTYPE
  6

  9
$DIMLTEX1
  6

  9
$DIMLTEX2
  6

  9
$DIMTXTDIRECTION
 70
     0
  9
$LUNITS
 70
     2
  9
$LUPREC
 70
     4
  9
$SKETCHINC
 40
0.1
  9
$FILLETRAD
 40
0.5
  9
$AUNITS
 70
     0
  9
$AUPREC
 70
     0
  9
$MENU
  1
.
  9
$ELEVATION
 40
0.0
  9
$PELEVATION
 40
0.0
  9
$THICKNESS
 40
0.0
  9
$LIMCHECK
 70
     0
  9
$CHAMFERA
 40
0.5
  9
$CHAMFERB
 40
0.5
  9
$CHAMFERC
 40
1.0
  9
$CHAMFERD
 40
0.0
  9
$SKPOLY
 70
     0
  9
$TDCREATE
 40
2457917.646261574
  9
$TDUCREATE
 40
2457917.271261574
  9
$TDUPDATE
 40
2457917.646261574
  9
$TDUUPDATE
 40
2457917.271261574
  9
$TDINDWG
 40
0.0000000116
  9
$TDUSRTIMER
 40
0.0000000116
  9
$USRTIMER
 70
     1
  9
$ANGBASE
 50
0.0
  9
$ANGDIR
 70
     0
  9
$PDMODE
 70
     0
  9
$PDSIZE
 40
0.0
  9
$PLINEWID
 40
0.0
  9
$SPLFRAME
 70
     0
  9
$SPLINETYPE
 70
     6
  9
$SPLINESEGS
 70
     8
  9
$HANDSEED
  5
10B
  9
$SURFTAB1
 70
     6
  9
$SURFTAB2
 70
     6
  9
$SURFTYPE
 70
     6
  9
$SURFU
 70
     6
  9
$SURFV
 70
     6
  9
$UCSBASE
  2

  9
$UCSNAME
  2

  9
$UCSORG
 10
0.0
 20
0.0
 30
0.0
  9
$UCSXDIR
 10
1.0
 20
0.0
 30
0.0
  9
$UCSYDIR
 10
0.0
 20
1.0
 30
0.0
  9
$UCSORTHOREF
  2

  9
$UCSORTHOVIEW
 70
     0
  9
$UCSORGTOP
 10
0.0
 20
0.0
 30
0.0
  9
$UCSORGBOTTOM
 10
0.0
 20
0.0
 30
0.0
  9
$UCSORGLEFT
 10
0.0
 20
0.0
 30
0.0
  9
$UCSORGRIGHT
 10
0.0
 20
0.0
 30
0.0
  9
$UCSORGFRONT
 10
0.0
 20
0.0
 30
0.0
  9
$UCSORGBACK
 10
0.0
 20
0.0
 30
0.0
  9
$PUCSBASE
  2

  9
$PUCSNAME
  2

  9
$PUCSORG
 10
0.0
 20
0.0
 30
0.0
  9
$PUCSXDIR
 10
1.0
 20
0.0
 30
0.0
  9
$PUCSYDIR
 10
0.0
 20
1.0
 30
0.0
  9
$PUCSORTHOREF
  2

  9
$PUCSORTHOVIEW
 70
     0
  9
$PUCSORGTOP
 10
0.0
 20
0.0
 30
0.0
  9
$PUCSORGBOTTOM
 10
0.0
 20
0.0
 30
0.0
  9
$PUCSORGLEFT
 10
0.0
 20
0.0
 30
0.0
  9
$PUCSORGRIGHT
 10
0.0
 20
0.0
 30
0.0
  9
$PUCSORGFRONT
 10
0.0
 20
0.0
 30
0.0
  9
$PUCSORGBACK
 10
0.0
 20
0.0
 30
0.0
  9
$USERI1
 70
     0
  9
$USERI2
 70
     0
  9
$USERI3
 70
     0
  9
$USERI4
 70
     0
  9
$USERI5
 70
     0
  9
$USERR1
 40
0.0
  9
$USERR2
 40
0.0
  9
$USERR3
 40
0.0
  9
$USERR4
 40
0.0
  9
$USERR5
 40
0.0
  9
$WORLDVIEW
 70
     1
  9
$SHADEDGE
 70
     3
  9
$SHADEDIF
 70
    70
  9
$TILEMODE
 70
     1
  9
$MAXACTVP
 70
    64
  9
$PINSBASE
 10
0.0
 20
0.0
 30
0.0
  9
$PLIMCHECK
 70
     0
  9
$PEXTMIN
 10
1.000000000000000E+20
 20
1.000000000000000E+20
 30
1.000000000000000E+20
  9
$PEXTMAX
 10
-1.000000000000000E+20
 20
-1.000000000000000E+20
 30
-1.000000000000000E+20
  9
$PLIMMIN
 10
0.0
 20
0.0
  9
$PLIMMAX
 10
12.0
 20
9.0
  9
$UNITMODE
 70
     0
  9
$VISRETAIN
 70
     1
  9
$PLINEGEN
 70
     0
  9
$PSLTSCALE
 70
     1
  9
$TREEDEPTH
 70
  3020
  9
$CMLSTYLE
  2
Standard
  9
$CMLJUST
 70
     0
  9
$CMLSCALE
 40
1.0
  9
$PROXYGRAPHICS
 70
     1
  9
$MEASUREMENT
 70
     0
  9
$CELWEIGHT
370
    -1
  9
$ENDCAPS
280
     0
  9
$JOINSTYLE
280
     0
  9
$LWDISPLAY
290
     1
  9
$INSUNITS
 70
     1
  9
$HYPERLINKBASE
  1

  9
$STYLESHEET
  1

  9
$XEDIT
290
     1
  9
$CEPSNTYPE
380
     0
  9
$PSTYLEMODE
290
     1
  9
$FINGERPRINTGUID
  2
{F57D0D21-A843-20E1-AD3A-4C0785E7A98C}
  9
$VERSIONGUID
  2
{FAEB1C32-E019-11D5-929B-00C0DF256EC4}
  9
$EXTNAMES
290
     1
  9
$PSVPSCALE
 40
0.0
  9
$OLESTARTUP
290
     0
  9
$SORTENTS
280
   127
  9
$INDEXCTL
280
     0
  9
$HIDETEXT
280
     1
  9
$XCLIPFRAME
280
     2
  9
$HALOGAP
280
     0
  9
$OBSCOLOR
 70
   257
  9
$OBSLTYPE
280
     0
  9
$INTERSECTIONDISPLAY
280
     0
  9
$INTERSECTIONCOLOR
 70
   257
  9
$DIMASSOC
280
     2
  9
$PROJECTNAME
  1

  9
$CAMERADISPLAY
290
     0
  9
$LENSLENGTH
 40
50.0
  9
$CAMERAHEIGHT
 40
0.0
  9
$STEPSPERSEC
 40
2.0
  9
$STEPSIZE
 40
6.0
  9
$3DDWFPREC
 40
2.0
  9
$PSOLWIDTH
 40
0.25
  9
$PSOLHEIGHT
 40
4.0
  9
$LOFTANG1
 40
1.570796326794897
  9
$LOFTANG2
 40
1.570796326794897
  9
$LOFTMAG1
 40
0.0
  9
$LOFTMAG2
 40
0.0
  9
$LOFTPARAM
 70
     7
  9
$LOFTNORMALS
280
     1
  9
$LATITUDE
 40
37.795
  9
$LONGITUDE
 40
-122.394
  9
$NORTHDIRECTION
 40
0.0
  9
$TIMEZONE
 70
 -8000
  9
$LIGHTGLYPHDISPLAY
280
     1
  9
$TILEMODELIGHTSYNCH
280
     1
  9
$CMATERIAL
347
3C
  9
$SOLIDHIST
280
     1
  9
$SHOWHIST
280
     1
  9
$DWFFRAME
280
     2
  9
$DGNFRAME
280
     2
  9
$REALWORLDSCALE
290
     1
  9
$INTERFERECOLOR
 62
   256
  9
$CSHADOW
280
     0
  9
$SHADOWPLANELOCATION
 40
0.0
  0
ENDSEC
  0
SECTION
  2
CLASSES
  0
CLASS
  1
ACDBDICTIONARYWDFLT
  2
AcDbDictionaryWithDefault
  3
ObjectDBX Classes
 90
        0
 91
        4
280
     0
281
     0
  0
CLASS
  1
VISUALSTYLE
  2
AcDbVisualStyle
  3
ObjectDBX Classes
 90
     4095
 91
        4
280
     0
281
     0
  0
CLASS
  1
MATERIAL
  2
AcDbMaterial
  3
ObjectDBX Classes
 90
     1153
 91
        4
280
     0
281
     0
  0
CLASS
  1
SUN
  2
AcDbSun
  3
SCENEOE
 90
     1024
 91
        4
280
     0
281
     0
  0
ENDSEC
  0
SECTION
  2
TABLES
  0
TABLE
  2
VPORT
  5
8
330
0
100
AcDbSymbolTable
 70
     1
  0
VPORT
  5
29
330
8
100
AcDbSymbolTableRecord
100
AcDbViewportTableRecord
  2
*Active
 70
     0
 10
0.0
 20
0.0
 11
1.0
 21
1.0
 12
0.0
 22
0.0
 13
0.0
 23
0.0
 14
0.5
 24
0.5
 15
0.5
 25
0.5
 16
0.0
 26
0.0
 36
1.0
 17
91.00082462281999
 27
-128.4993055234307
 37
0.0
 40
256.9986110468615
 41
0.7081814508812795
 42
50.0
 43
0.0
 44
0.0
 50
0.0
 51
0.0
 71
     0
 72
   100
 73
     1
 74
     3
 75
     0
 76
     0
 77
     0
 78
     0
281
     0
 65
     1
110
0.0
120
0.0
130
0.0
111
1.0
121
0.0
131
0.0
112
0.0
122
1.0
132
0.0
 79
     0
146
0.0
 60
     3
 61
     5
292
     1
282
     1
141
0.0
142
0.0
 63
   250
361
3F
  0
ENDTAB
  0
TABLE
  2
LTYPE
  5
5
330
0
100
AcDbSymbolTable
 70
     1
  0
LTYPE
  5
14
330
5
100
AcDbSymbolTableRecord
100
AcDbLinetypeTableRecord
  2
ByBlock
 70
     0
  3

 72
    65
 73
     0
 40
0.0
  0
LTYPE
  5
15
330
5
100
AcDbSymbolTableRecord
100
AcDbLinetypeTableRecord
  2
ByLayer
 70
     0
  3

 72
    65
 73
     0
 40
0.0
  0
LTYPE
  5
16
330
5
100
AcDbSymbolTableRecord
100
AcDbLinetypeTableRecord
  2
Continuous
 70
     0
  3
Solid line
 72
    65
 73
     0
 40
0.0
  0
ENDTAB
  0
TABLE
  2
LAYER
  5
2
330
0
100
AcDbSymbolTable
 70
     2
  0
LAYER
  5
10
330
2
100
AcDbSymbolTableRecord
100
AcDbLayerTableRecord
  2
0
 70
     0
 62
     7
  6
Continuous
370
    -3
390
F
347
3E
  0
LAYER
  5
40
330
2
100
AcDbSymbolTableRecord
100
AcDbLayerTableRecord
  2
_U+30EC_U+30A4_U+30E4_U+30FC 1
 70
     0
 62
     7
  6
Continuous
370
    -3
390
F
347
3E
  0
ENDTAB
  0
TABLE
  2
STYLE
  5
3
330
0
100
AcDbSymbolTable
 70
     1
  0
STYLE
  5
11
330
3
100
AcDbSymbolTableRecord
100
AcDbTextStyleTableRecord
  2
Standard
 70
     0
 40
0.0
 41
1.0
 50
0.0
 71
     0
 42
0.2
  3
txt
  4

  0
ENDTAB
  0
TABLE
  2
VIEW
  5
6
330
0
100
AcDbSymbolTable
 70
     0
  0
ENDTAB
  0
TABLE
  2
UCS
  5
7
330
0
100
AcDbSymbolTable
 70
     0
  0
ENDTAB
  0
TABLE
  2
APPID
  5
9
330
0
100
AcDbSymbolTable
 70
     1
  0
APPID
  5
12
330
9
100
AcDbSymbolTableRecord
100
AcDbRegAppTableRecord
  2
ACAD
 70
     0
  0
ENDTAB
  0
TABLE
  2
DIMSTYLE
  5
A
330
0
100
AcDbSymbolTable
 70
     1
100
AcDbDimStyleTable
  0
DIMSTYLE
105
27
330
A
100
AcDbSymbolTableRecord
100
AcDbDimStyleTableRecord
  2
Standard
 70
     0
178
     0
340
11
  0
ENDTAB
  0
TABLE
  2
BLOCK_RECORD
  5
1
330
0
100
AcDbSymbolTable
 70
     8
  0
BLOCK_RECORD
  5
1F
330
1
100
AcDbSymbolTableRecord
100
AcDbBlockTableRecord
  2
*Model_Space
340
22
 70
     0
280
     1
281
     0
  0
BLOCK_RECORD
  5
1B
330
1
100
AcDbSymbolTableRecord
100
AcDbBlockTableRecord
  2
*Paper_Space
340
1E
 70
     0
280
     1
281
     0
  0
BLOCK_RECORD
  5
23
330
1
100
AcDbSymbolTableRecord
100
AcDbBlockTableRecord
  2
*Paper_Space0
340
26
 70
     0
280
     1
281
     0
  0
BLOCK_RECORD
  5
41
330
1
100
AcDbSymbolTableRecord
100
AcDbBlockTableRecord
  2
block 2
340
0
102
{BLKREFS
331
42
102
}
 70
     0
280
     1
281
     0
  0
BLOCK_RECORD
  5
8A
330
1
100
AcDbSymbolTableRecord
100
AcDbBlockTableRecord
  2
block 3
340
0
102
{BLKREFS
331
8B
102
}
 70
     0
280
     1
281
     0
  0
BLOCK_RECORD
  5
92
330
1
100
AcDbSymbolTableRecord
100
AcDbBlockTableRecord
  2
block 4
340
0
102
{BLKREFS
331
93
102
}
 70
     0
280
     1
281
     0
  0
BLOCK_RECORD
  5
D5
330
1
100
AcDbSymbolTableRecord
100
AcDbBlockTableRecord
  2
block 5
340
0
102
{BLKREFS
331
D6
102
}
 70
     0
280
     1
281
     0
  0
BLOCK_RECORD
  5
DD
330
1
100
AcDbSymbolTableRecord
100
AcDbBlockTableRecord
  2
block 6
340
0
102
{BLKREFS
331
DE
102
}
 70
     0
280
     1
281
     0
  0
BLOCK_RECORD
  5
E6
330
1
100
AcDbSymbolTableRecord
100
AcDbBlockTableRecord
  2
block 7
340
0
102
{BLKREFS
331
E7
102
}
 70
     0
280
     1
281
     0
  0
BLOCK_RECORD
  5
F2
330
1
100
AcDbSymbolTableRecord
100
AcDbBlockTableRecord
  2
block 8
340
0
102
{BLKREFS
331
F3
102
}
 70
     0
280
     1
281
     0
  0
ENDTAB
  0
ENDSEC
  0
SECTION
  2
BLOCKS
  0
BLOCK
  5
20
330
1F
100
AcDbEntity
  8
0
100
AcDbBlockBegin
  2
*Model_Space
 70
     0
 10
0.0
 20
0.0
 30
0.0
  3
*Model_Space
  1

  0
ENDBLK
  5
21
330
1F
100
AcDbEntity
  8
0
100
AcDbBlockEnd
  0
BLOCK
  5
1C
330
1B
100
AcDbEntity
 67
     1
  8
0
100
AcDbBlockBegin
  2
*Paper_Space
 70
     0
 10
0.0
 20
0.0
 30
0.0
  3
*Paper_Space
  1

  0
ENDBLK
  5
1D
330
1B
100
AcDbEntity
 67
     1
  8
0
100
AcDbBlockEnd
  0
BLOCK
  5
24
330
23
100
AcDbEntity
  8
0
100
AcDbBlockBegin
  2
*Paper_Space0
 70
     0
 10
0.0
 20
0.0
 30
0.0
  3
*Paper_Space0
  1

  0
ENDBLK
  5
25
330
23
100
AcDbEntity
  8
0
100
AcDbBlockEnd
  0
BLOCK
  5
43
330
41
100
AcDbEntity
  8
0
100
AcDbBlockBegin
  2
block 2
 70
     0
 10
0.0
 20
0.0
 30
0.0
  3
block 2
  1

  0
SPLINE
  5
45
330
41
100
AcDbEntity
  8
_U+30EC_U+30A4_U+30E4_U+30FC 1
370
     0
100
AcDbSpline
210
0.0
220
0.0
230
1.0
 70
    11
 71
     3
 72
    74
 73
    70
 74
     0
 42
0.0000000001
 43
0.0000000001
 12
1.0
 22
0.0
 32
0.0
 13
1.0
 23
0.0
 33
0.0
 40
0.0
 40
0.0
 40
0.0
 40
0.0
 40
1.0
 40
1.0
 40
1.0
 40
2.0
 40
2.0
 40
2.0
 40
3.0
 40
3.0
 40
3.0
 40
4.0
 40
4.0
 40
4.0
 40
5.0
 40
5.0
 40
5.0
 40
6.0
 40
6.0
 40
6.0
 40
7.0
 40
7.0
 40
7.0
 40
8.0
 40
8.0
 40
8.0
 40
9.0
 40
9.0
 40
9.0
 40
10.0
 40
10.0
 40
10.0
 40
11.0
 40
11.0
 40
11.0
 40
12.0
 40
12.0
 40
12.0
 40
13.0
 40
13.0
 40
13.0
 40
14.0
 40
14.0
 40
14.0
 40
15.0
 40
15.0
 40
15.0
 40
16.0
 40
16.0
 40
16.0
 40
17.0
 40
17.0
 40
17.0
 40
18.0
 40
18.0
 40
18.0
 40
19.0
 40
19.0
 40
19.0
 40
20.0
 40
20.0
 40
20.0
 40
21.0
 40
21.0
 40
21.0
 40
22.0
 40
22.0
 40
22.0
 40
23.0
 40
23.0
 40
23.0
 40
23.0
 10
86.50135584872211
 20
-117.5380413595045
 30
0.0
 10
86.50135584872211
 20
-117.5380413595045
 30
0.0
 10
86.50135584872211
 20
-118.0672080260389
 30
0.0
 10
86.50135584872211
 20
-118.0672080260389
 30
0.0
 10
86.50135584872211
 20
-118.0672080260389
 30
0.0
 10
92.4394876416722
 20
-121.5360719140604
 30
0.0
 10
92.4394876416722
 20
-121.5360719140604
 30
0.0
 10
92.4394876416722
 20
-121.5360719140604
 30
0.0
 10
92.49875430682684
 20
-127.1216024682195
 30
0.0
 10
92.49875430682684
 20
-127.1216024682195
 30
0.0
 10
92.49875430682684
 20
-127.1216024682195
 30
0.0
 10
89.67635576772112
 20
-130.5319052451445
 30
0.0
 10
89.67635576772112
 20
-130.5319052451445
 30
0.0
 10
89.67635576772112
 20
-130.5319052451445
 30
0.0
 10
89.61708910256647
 20
-134.7063246885455
 30
0.0
 10
89.61708910256647
 20
-134.7063246885455
 30
0.0
 10
89.61708910256647
 20
-134.7063246885455
 30
0.0
 10
88.85297245539404
 20
-135.2354913550799
 30
0.0
 10
88.85297245539404
 20
-135.2354913550799
 30
0.0
 10
88.85297245539404
 20
-135.2354913550799
 30
0.0
 10
88.67658357100521
 20
-135.2354913550799
 30
0.0
 10
88.67658357100521
 20
-135.4707941327987
 30
0.0
 10
88.67658357100521
 20
-135.4707941327987
 30
0.0
 10
88.7351446806223
 20
-140.6449857981722
 30
0.0
 10
88.7351446806223
 20
-140.6449857981722
 30
0.0
 10
88.7351446806223
 20
-140.6449857981722
 30
0.0
 10
88.79405856800817
 20
-141.1741524647066
 30
0.0
 10
88.55875579623347
 20
-141.1741524647066
 30
0.0
 10
88.32380580222754
 20
-141.1741524647066
 30
0.0
 10
88.55875579623347
 20
-141.056324686958
 30
0.0
 10
88.55875579623347
 20
-141.056324686958
 30
0.0
 10
88.55875579623347
 20
-141.056324686958
 30
0.0
 10
87.97102803344987
 20
-141.1741524647066
 30
0.0
 10
87.91246692383278
 20
-141.6444052423664
 30
0.0
 10
87.91246692383278
 20
-141.6444052423664
 30
0.0
 10
87.97102803344987
 20
-142.6438246865611
 30
0.0
 10
87.97102803344987
 20
-142.6438246865611
 30
0.0
 10
87.97102803344987
 20
-142.6438246865611
 30
0.0
 10
88.02958914306697
 20
-143.7025107974077
 30
0.0
 10
88.67658357100521
 20
-143.8199857973785
 30
0.0
 10
88.67658357100521
 20
-143.8199857973785
 30
0.0
 10
89.08792244939997
 20
-144.3491524639128
 30
0.0
 10
89.61708910256647
 20
-143.8199857973785
 30
0.0
 10
89.61708910256647
 20
-143.8199857973785
 30
0.0
 10
89.61708910256647
 20
-145.5249607969518
 30
0.0
 10
89.61708910256647
 20
-145.5249607969518
 30
0.0
 10
89.61708910256647
 20
-145.5249607969518
 30
0.0
 10
90.08769464611588
 20
-145.6424357969226
 30
0.0
 10
90.08769464611588
 20
-145.6424357969226
 30
0.0
 10
90.08769464611588
 20
-145.6424357969226
 30
0.0
 10
95.32097645704818
 20
-142.6438246865611
 30
0.0
 10
95.32097645704818
 20
-142.6438246865611
 30
0.0
 10
95.32097645704818
 20
-142.6438246865611
 30
0.0
 10
95.37953756666528
 20
-127.8860719124729
 30
0.0
 10
95.37953756666528
 20
-127.8860719124729
 30
0.0
 10
95.37953756666528
 20
-127.8860719124729
 30
0.0
 10
98.20175971688661
 20
-124.2408191356066
 30
0.0
 10
98.20175971688661
 20
-124.2408191356066
 30
0.0
 10
98.20175971688661
 20
-124.2408191356066
 30
0.0
 10
98.2603208265037
 20
-119.7132691367382
 30
0.0
 10
98.2603208265037
 20
-119.7132691367382
 30
0.0
 10
98.2603208265037
 20
-119.7132691367382
 30
0.0
 10
98.43670971089254
 20
-118.4785469148247
 30
0.0
 10
97.2019875201707
 20
-117.5966024706007
 30
0.0
 10
97.2019875201707
 20
-117.5966024706007
 30
0.0
 10
91.79319876927151
 20
-114.4216024713945
 30
0.0
 10
91.79319876927151
 20
-114.4216024713945
 30
0.0
 10
91.79319876927151
 20
-114.4216024713945
 30
0.0
 10
86.50135584872211
 20
-117.5380413595045
 30
0.0
 10
86.50135584872211
 20
-117.5380413595045
 30
0.0
  0
SPLINE
  5
46
330
41
100
AcDbEntity
  8
_U+30EC_U+30A4_U+30E4_U+30FC 1
 62
   179
420
  2234388
370
     9
100
AcDbSpline
210
0.0
220
0.0
230
1.0
 70
    11
 71
     3
 72
    44
 73
    40
 74
     0
 42
0.0000000001
 43
0.0000000001
 12
1.0
 22
0.0
 32
0.0
 13
1.0
 23
0.0
 33
0.0
 40
0.0
 40
0.0
 40
0.0
 40
0.0
 40
1.0
 40
1.0
 40
1.0
 40
2.0
 40
2.0
 40
2.0
 40
3.0
 40
3.0
 40
3.0
 40
4.0
 40
4.0
 40
4.0
 40
5.0
 40
5.0
 40
5.0
 40
6.0
 40
6.0
 40
6.0
 40
7.0
 40
7.0
 40
7.0
 40
8.0
 40
8.0
 40
8.0
 40
9.0
 40
9.0
 40
9.0
 40
10.0
 40
10.0
 40
10.0
 40
11.0
 40
11.0
 40
11.0
 40
12.0
 40
12.0
 40
12.0
 40
13.0
 40
13.0
 40
13.0
 40
13.0
 10
86.515819737242
 20
-117.5232246928414
 30
0.0
 10
86.515819737242
 20
-117.5232246928414
 30
0.0
 10
86.515819737242
 20
-118.0523913593758
 30
0.0
 10
86.515819737242
 20
-118.0523913593758
 30
0.0
 10
86.515819737242
 20
-118.0523913593758
 30
0.0
 10
92.51321819534672
 20
-121.5801691362716
 30
0.0
 10
92.51321819534672
 20
-121.5801691362716
 30
0.0
 10
92.51321819534672
 20
-121.5801691362716
 30
0.0
 10
92.51321819534672
 20
-127.1364191348826
 30
0.0
 10
92.51321819534672
 20
-127.1364191348826
 30
0.0
 10
92.51321819534672
 20
-127.1364191348826
 30
0.0
 10
89.690819656241
 20
-130.5760024673557
 30
0.0
 10
89.690819656241
 20
-130.5760024673557
 30
0.0
 10
89.690819656241
 20
-130.5760024673557
 30
0.0
 10
89.60262521404658
 20
-145.569058019163
 30
0.0
 10
89.60262521404658
 20
-145.569058019163
 30
0.0
 10
89.60262521404658
 20
-145.569058019163
 30
0.0
 10
89.99950020392146
 20
-145.7013496857966
 30
0.0
 10
89.99950020392146
 20
-145.7013496857966
 30
0.0
 10
89.99950020392146
 20
-145.7013496857966
 30
0.0
 10
95.29134312447086
 20
-142.7027385754351
 30
0.0
 10
95.29134312447086
 20
-142.7027385754351
 30
0.0
 10
95.29134312447086
 20
-142.7027385754351
 30
0.0
 10
95.37953756666528
 20
-127.9301691346841
 30
0.0
 10
95.37953756666528
 20
-127.9301691346841
 30
0.0
 10
95.37953756666528
 20
-127.9301691346841
 30
0.0
 10
98.24585693798382
 20
-124.3582941355771
 30
0.0
 10
98.24585693798382
 20
-124.3582941355771
 30
0.0
 10
98.24585693798382
 20
-124.3582941355771
 30
0.0
 10
98.24585693798382
 20
-120.2572524699357
 30
0.0
 10
98.24585693798382
 20
-120.2572524699357
 30
0.0
 10
98.24585693798382
 20
-120.2572524699357
 30
0.0
 10
98.42224582237266
 20
-118.316974692643
 30
0.0
 10
97.31981529494244
 20
-117.7437108038974
 30
0.0
 10
97.31981529494244
 20
-117.7437108038974
 30
0.0
 10
91.71946821559698
 20
-114.52461358248
 30
0.0
 10
91.71946821559698
 20
-114.52461358248
 30
0.0
 10
91.71946821559698
 20
-114.52461358248
 30
0.0
 10
86.515819737242
 20
-117.5232246928414
 30
0.0
 10
86.515819737242
 20
-117.5232246928414
 30
0.0
  0
POLYLINE
  5
47
330
41
100
AcDbEntity
  8
_U+30EC_U+30A4_U+30E4_U+30FC 1
 62
   179
420
  2234388
370
     9
100
AcDb2dPolyline
 66
     1
 10
0.0
 20
0.0
 30
0.0
  0
VERTEX
  5
48
330
47
100
AcDbEntity
  8
_U+30EC_U+30A4_U+30E4_U+30FC 1
 62
   179
420
  2234388
370
     9
100
AcDbVertex
100
AcDb2dVertex
 10
93.13057929070764
 20
-120.8305163586813
 30
0.0
  0
VERTEX
  5
49
330
47
100
AcDbEntity
  8
_U+30EC_U+30A4_U+30E4_U+30FC 1
 62
   179
420
  2234388
370
     9
100
AcDbVertex
100
AcDb2dVertex
 10
97.14342641055362
 20
-118.4492663592766
 30
0.0
  0
SEQEND
  5
4A
330
47
100
AcDbEntity
  8
_U+30EC_U+30A4_U+30E4_U+30FC 1
 62
   179
420
  2234388
370
     9
  0
POLYLINE
  5
4B
330
41
100
AcDbEntity
  8
_U+30EC_U+30A4_U+30E4_U+30FC 1
 62
   179
420
  2234388
370
     9
100
AcDb2dPolyline
 66
     1
 10
0.0
 20
0.0
 30
0.0
  0
VERTEX
  5
4C
330
4B
100
AcDbEntity
  8
_U+30EC_U+30A4_U+30E4_U+30FC 1
 62
   179
420
  2234388
370
     9
100
AcDbVertex
100
AcDb2dVertex
 10
93.61564872277694
 20
-121.6242663584828
 30
0.0
  0
VERTEX
  5
4D
330
4B
100
AcDbEntity
  8
_U+30EC_U+30A4_U+30E4_U+30FC 1
 62
   179
420
  2234388
370
     9
100
AcDbVertex
100
AcDb2dVertex
 10
97.6284958426229
 20
-119.4194052479229
 30
0.0
  0
SEQEND
  5
4E
330
4B
100
AcDbEntity
  8
_U+30EC_U+30A4_U+30E4_U+30FC 1
 62
   179
420
  2234388
370
     9
  0
POLYLINE
  5
4F
330
41
100
AcDbEntity
  8
_U+30EC_U+30A4_U+30E4_U+30FC 1
 62
   179
420
  2234388
370
     9
100
AcDb2dPolyline
 66
     1
 10
0.0
 20
0.0
 30
0.0
  0
VERTEX
  5
50
330
4F
100
AcDbEntity
  8
_U+30EC_U+30A4_U+30E4_U+30FC 1
 62
   179
420
  2234388
370
     9
100
AcDbVertex
100
AcDb2dVertex
 10
93.48335705948531
 20
-126.9600302460378
 30
0.0
  0
VERTEX
  5
51
330
4F
100
AcDbEntity
  8
_U+30EC_U+30A4_U+30E4_U+30FC 1
 62
   179
420
  2234388
370
     9
100
AcDbVertex
100
AcDb2dVertex
 10
97.71669028481732
 20
-124.6228774688443
 30
0.0
  0
SEQEND
  5
52
330
4F
100
AcDbEntity
  8
_U+30EC_U+30A4_U+30E4_U+30FC 1
 62
   179
420
  2234388
370
     9
  0
POLYLINE
  5
53
330
41
100
AcDbEntity
  8
_U+30EC_U+30A4_U+30E4_U+30FC 1
 62
   179
420
  2234388
370
     9
100
AcDb2dPolyline
 66
     1
 10
0.0
 20
0.0
 30
0.0
  0
VERTEX
  5
54
330
53
100
AcDbEntity
  8
_U+30EC_U+30A4_U+30E4_U+30FC 1
 62
   179
420
  2234388
370
     9
100
AcDbVertex
100
AcDb2dVertex
 10
90.83734740476842
 20
-130.5319052451445
 30
0.0
  0
VERTEX
  5
55
330
53
100
AcDbEntity
  8
_U+30EC_U+30A4_U+30E4_U+30FC 1
 62
   179
420
  2234388
370
     9
100
AcDbVertex
100
AcDb2dVertex
 10
94.85037091349878
 20
-128.2829469123737
 30
0.0
  0
SEQEND
  5
56
330
53
100
AcDbEntity
  8
_U+30EC_U+30A4_U+30E4_U+30FC 1
 62
   179
420
  2234388
370
     9
  0
SPLINE
  5
57
330
41
100
AcDbEntity
  8
_U+30EC_U+30A4_U+30E4_U+30FC 1
 62
   179
420
  2234388
370
     9
100
AcDbSpline
210
0.0
220
0.0
230
1.0
 70
     8
 71
     3
 72
    20
 73
    16
 74
     0
 42
0.0000000001
 43
0.0000000001
 12
1.0
 22
0.0
 32
0.0
 13
1.0
 23
0.0
 33
0.0
 40
0.0
 40
0.0
 40
0.0
 40
0.0
 40
1.0
 40
1.0
 40
1.0
 40
2.0
 40
2.0
 40
2.0
 40
3.0
 40
3.0
 40
3.0
 40
4.0
 40
4.0
 40
4.0
 40
5.0
 40
5.0
 40
5.0
 40
5.0
 10
86.515819737242
 20
-117.5232246928414
 30
0.0
 10
86.515819737242
 20
-117.5232246928414
 30
0.0
 10
92.20453764766627
 20
-120.8305163586813
 30
0.0
 10
92.20453764766627
 20
-120.8305163586813
 30
0.0
 10
92.20453764766627
 20
-120.8305163586813
 30
0.0
 10
92.99828762741602
 20
-121.0950996919485
 30
0.0
 10
93.04238484851322
 20
-122.1975302472284
 30
0.0
 10
93.04238484851322
 20
-122.1975302472284
 30
0.0
 10
93.04238484851322
 20
-127.224613579305
 30
0.0
 10
93.04238484851322
 20
-127.224613579305
 30
0.0
 10
93.04238484851322
 20
-127.224613579305
 30
0.0
 10
90.1758890883103
 20
-130.8846830228341
 30
0.0
 10
90.1758890883103
 20
-130.8846830228341
 30
0.0
 10
90.1758890883103
 20
-130.8846830228341
 30
0.0
 10
90.0994068680393
 20
-145.7013496857966
 30
0.0
 10
90.0994068680393
 20
-145.7013496857966
 30
0.0
  0
POLYLINE
  5
58
330
41
100
AcDbEntity
  8
_U+30EC_U+30A4_U+30E4_U+30FC 1
 62
   179
420
  2234388
370
     9
100
AcDb2dPolyline
 66
     1
 10
0.0
 20
0.0
 30
0.0
  0
VERTEX
  5
59
330
58
100
AcDbEntity
  8
_U+30EC_U+30A4_U+30E4_U+30FC 1
 62
   179
420
  2234388
370
     9
100
AcDbVertex
100
AcDb2dVertex
 10
89.67635576772112
 20
-135.8824857993629
 30
0.0
  0
VERTEX
  5
5A
330
58
100
AcDbEntity
  8
_U+30EC_U+30A4_U+30E4_U+30FC 1
 62
   179
420
  2234388
370
     9
100
AcDbVertex
100
AcDb2dVertex
 10
89.20575022417171
 20
-135.7353774660658
 30
0.0
  0
VERTEX
  5
5B
330
58
100
AcDbEntity
  8
_U+30EC_U+30A4_U+30E4_U+30FC 1
 62
   179
420
  2234388
370
     9
100
AcDbVertex
100
AcDb2dVertex
 10
89.14718911455462
 20
-141.3798219090992
 30
0.0
  0
SEQEND
  5
5C
330
58
100
AcDbEntity
  8
_U+30EC_U+30A4_U+30E4_U+30FC 1
 62
   179
420
  2234388
370
     9
  0
POLYLINE
  5
5D
330
41
100
AcDbEntity
  8
_U+30EC_U+30A4_U+30E4_U+30FC 1
 62
   179
420
  2234388
370
     9
100
AcDb2dPolyline
 66
     1
 10
0.0
 20
0.0
 30
0.0
  0
VERTEX
  5
5E
330
5D
100
AcDbEntity
  8
_U+30EC_U+30A4_U+30E4_U+30FC 1
 62
   179
420
  2234388
370
     9
100
AcDbVertex
100
AcDb2dVertex
 10
89.61708910256647
 20
-141.115238575832
 30
0.0
  0
VERTEX
  5
5F
330
5D
100
AcDbEntity
  8
_U+30EC_U+30A4_U+30E4_U+30FC 1
 62
   179
420
  2234388
370
     9
100
AcDbVertex
100
AcDb2dVertex
 10
88.35343913480487
 20
-141.8207941312112
 30
0.0
  0
VERTEX
  5
60
330
5D
100
AcDbEntity
  8
_U+30EC_U+30A4_U+30E4_U+30FC 1
 62
   179
420
  2234388
370
     9
100
AcDbVertex
100
AcDb2dVertex
 10
88.38236691184464
 20
-143.2026246864217
 30
0.0
  0
VERTEX
  5
61
330
5D
100
AcDbEntity
  8
_U+30EC_U+30A4_U+30E4_U+30FC 1
 62
   179
420
  2234388
370
     9
100
AcDbVertex
100
AcDb2dVertex
 10
89.23538355674903
 20
-143.6143163529853
 30
0.0
  0
VERTEX
  5
62
330
5D
100
AcDbEntity
  8
_U+30EC_U+30A4_U+30E4_U+30FC 1
 62
   179
420
  2234388
370
     9
100
AcDbVertex
100
AcDb2dVertex
 10
89.5881613255267
 20
-143.4082941308143
 30
0.0
  0
SEQEND
  5
63
330
5D
100
AcDbEntity
  8
_U+30EC_U+30A4_U+30E4_U+30FC 1
 62
   179
420
  2234388
370
     9
  0
POLYLINE
  5
64
330
41
100
AcDbEntity
  8
_U+30EC_U+30A4_U+30E4_U+30FC 1
 62
   179
420
  2234388
370
     9
100
AcDb2dPolyline
 66
     1
 10
0.0
 20
0.0
 30
0.0
  0
VERTEX
  5
65
330
64
100
AcDbEntity
  8
_U+30EC_U+30A4_U+30E4_U+30FC 1
 62
   179
420
  2234388
370
     9
100
AcDbVertex
100
AcDb2dVertex
 10
88.7351446806223
 20
-143.0851496864509
 30
0.0
  0
VERTEX
  5
66
330
64
100
AcDbEntity
  8
_U+30EC_U+30A4_U+30E4_U+30FC 1
 62
   179
420
  2234388
370
     9
100
AcDbVertex
100
AcDb2dVertex
 10
89.5881613255267
 20
-142.4088746866202
 30
0.0
  0
SEQEND
  5
67
330
64
100
AcDbEntity
  8
_U+30EC_U+30A4_U+30E4_U+30FC 1
 62
   179
420
  2234388
370
     9
  0
SPLINE
  5
68
330
41
100
AcDbEntity
  8
_U+30EC_U+30A4_U+30E4_U+30FC 1
 62
   179
420
  2234388
370
     9
100
AcDbSpline
210
0.0
220
0.0
230
1.0
 70
     8
 71
     3
 72
    29
 73
    25
 74
     0
 42
0.0000000001
 43
0.0000000001
 12
1.0
 22
0.0
 32
0.0
 13
1.0
 23
0.0
 33
0.0
 40
0.0
 40
0.0
 40
0.0
 40
0.0
 40
1.0
 40
1.0
 40
1.0
 40
2.0
 40
2.0
 40
2.0
 40
3.0
 40
3.0
 40
3.0
 40
4.0
 40
4.0
 40
4.0
 40
5.0
 40
5.0
 40
5.0
 40
6.0
 40
6.0
 40
6.0
 40
7.0
 40
7.0
 40
7.0
 40
8.0
 40
8.0
 40
8.0
 40
8.0
 10
89.6467224351438
 20
-135.3825996883763
 30
0.0
 10
89.6467224351438
 20
-135.3825996883763
 30
0.0
 10
89.38213910856055
 20
-135.2062107995315
 30
0.0
 10
89.38213910856055
 20
-135.2062107995315
 30
0.0
 10
89.38213910856055
 20
-135.2062107995315
 30
0.0
 10
88.70621690358253
 20
-134.7945191329679
 30
0.0
 10
88.67658357100521
 20
-135.8235719104883
 30
0.0
 10
88.67658357100521
 20
-135.8235719104883
 30
0.0
 10
88.67658357100521
 20
-140.67426635372
 30
0.0
 10
88.67658357100521
 20
-140.67426635372
 30
0.0
 10
88.67658357100521
 20
-140.67426635372
 30
0.0
 10
88.79441134577695
 20
-141.115238575832
 30
0.0
 10
88.41200024442196
 20
-141.1741524647066
 30
0.0
 10
88.41200024442196
 20
-141.1741524647066
 30
0.0
 10
87.88283359125546
 20
-141.1155913536097
 30
0.0
 10
87.94139470087255
 20
-141.6740385756925
 30
0.0
 10
87.94139470087255
 20
-141.6740385756925
 30
0.0
 10
87.94139470087255
 20
-142.7616524643097
 30
0.0
 10
87.94139470087255
 20
-142.7616524643097
 30
0.0
 10
87.94139470087255
 20
-142.7616524643097
 30
0.0
 10
88.05922247564429
 20
-143.4964885752367
 30
0.0
 10
88.38236691184464
 20
-143.7317913529561
 30
0.0
 10
88.38236691184464
 20
-143.7317913529561
 30
0.0
 10
89.0589946723602
 20
-144.1727635750681
 30
0.0
 10
89.5881613255267
 20
-143.9963746862233
 30
0.0
  0
POLYLINE
  5
69
330
41
100
AcDbEntity
  8
_U+30EC_U+30A4_U+30E4_U+30FC 1
 62
   179
420
  2234388
370
     9
100
AcDb2dPolyline
 66
     1
 10
0.0
 20
0.0
 30
0.0
  0
VERTEX
  5
6A
330
69
100
AcDbEntity
  8
_U+30EC_U+30A4_U+30E4_U+30FC 1
 62
   179
420
  2234388
370
     9
100
AcDbVertex
100
AcDb2dVertex
 10
89.23538355674903
 20
-143.6143163529853
 30
0.0
  0
VERTEX
  5
6B
330
69
100
AcDbEntity
  8
_U+30EC_U+30A4_U+30E4_U+30FC 1
 62
   179
420
  2234388
370
     9
100
AcDbVertex
100
AcDb2dVertex
 10
89.23538355674903
 20
-143.9963746862233
 30
0.0
  0
SEQEND
  5
6C
330
69
100
AcDbEntity
  8
_U+30EC_U+30A4_U+30E4_U+30FC 1
 62
   179
420
  2234388
370
     9
  0
POLYLINE
  5
6D
330
41
100
AcDbEntity
  8
_U+30EC_U+30A4_U+30E4_U+30FC 1
 62
   179
420
  2234388
370
     9
100
AcDb2dPolyline
 66
     1
 10
0.0
 20
0.0
 30
0.0
  0
VERTEX
  5
6E
330
6D
100
AcDbEntity
  8
_U+30EC_U+30A4_U+30E4_U+30FC 1
 62
   179
420
  2234388
370
     9
100
AcDbVertex
100
AcDb2dVertex
 10
89.02936133978288
 20
-135.1476496884353
 30
0.0
  0
VERTEX
  5
6F
330
6D
100
AcDbEntity
  8
_U+30EC_U+30A4_U+30E4_U+30FC 1
 62
   179
420
  2234388
370
     9
100
AcDbVertex
100
AcDb2dVertex
 10
89.6467224351438
 20
-134.7652385774195
 30
0.0
  0
SEQEND
  5
70
330
6D
100
AcDbEntity
  8
_U+30EC_U+30A4_U+30E4_U+30FC 1
 62
   179
420
  2234388
370
     9
  0
SPLINE
  5
71
330
41
100
AcDbEntity
  8
_U+30EC_U+30A4_U+30E4_U+30FC 1
 62
   179
420
  2234388
370
     9
100
AcDbSpline
210
0.0
220
0.0
230
1.0
 70
    11
 71
     3
 72
    17
 73
    13
 74
     0
 42
0.0000000001
 43
0.0000000001
 12
1.0
 22
0.0
 32
0.0
 13
1.0
 23
0.0
 33
0.0
 40
0.0
 40
0.0
 40
0.0
 40
0.0
 40
1.0
 40
1.0
 40
1.0
 40
2.0
 40
2.0
 40
2.0
 40
3.0
 40
3.0
 40
3.0
 40
4.0
 40
4.0
 40
4.0
 40
4.0
 10
94.3508375929096
 20
-131.0021580228049
 30
0.0
 10
94.3508375929096
 20
-131.0021580228049
 30
0.0
 10
94.3508375929096
 20
-141.262346909129
 30
0.0
 10
94.3508375929096
 20
-141.262346909129
 30
0.0
 10
94.3508375929096
 20
-141.262346909129
 30
0.0
 10
94.58578758691553
 20
-141.6444052423664
 30
0.0
 10
94.79180980388168
 20
-141.0270441314096
 30
0.0
 10
94.79180980388168
 20
-141.0270441314096
 30
0.0
 10
94.79180980388168
 20
-130.6790135784415
 30
0.0
 10
94.79180980388168
 20
-130.6790135784415
 30
0.0
 10
94.79180980388168
 20
-130.6790135784415
 30
0.0
 10
94.43903203510402
 20
-130.5315524673674
 30
0.0
 10
94.3508375929096
 20
-131.0021580228049
 30
0.0
  0
SPLINE
  5
72
330
41
100
AcDbEntity
  8
_U+30EC_U+30A4_U+30E4_U+30FC 1
 62
   179
420
  2234388
370
     9
100
AcDbSpline
210
0.0
220
0.0
230
1.0
 70
    11
 71
     3
 72
    17
 73
    13
 74
     0
 42
0.0000000001
 43
0.0000000001
 12
1.0
 22
0.0
 32
0.0
 13
1.0
 23
0.0
 33
0.0
 40
0.0
 40
0.0
 40
0.0
 40
0.0
 40
1.0
 40
1.0
 40
1.0
 40
2.0
 40
2.0
 40
2.0
 40
3.0
 40
3.0
 40
3.0
 40
4.0
 40
4.0
 40
4.0
 40
4.0
 10
90.61686129928238
 20
-133.2070191333648
 30
0.0
 10
90.61686129928238
 20
-133.2070191333648
 30
0.0
 10
90.61686129928238
 20
-143.2319052419695
 30
0.0
 10
90.61686129928238
 20
-143.2319052419695
 30
0.0
 10
90.61686129928238
 20
-143.2319052419695
 30
0.0
 10
90.7050557414768
 20
-143.7317913529561
 30
0.0
 10
91.08746684283179
 20
-143.2319052419695
 30
0.0
 10
91.08746684283179
 20
-143.2319052419695
 30
0.0
 10
91.08746684283179
 20
-132.9424358000976
 30
0.0
 10
91.08746684283179
 20
-132.9424358000976
 30
0.0
 10
91.08746684283179
 20
-132.9424358000976
 30
0.0
 10
90.82288351624854
 20
-132.2661608002669
 30
0.0
 10
90.61686129928238
 20
-133.2070191333648
 30
0.0
  0
POLYLINE
  5
73
330
41
100
AcDbEntity
  8
_U+30EC_U+30A4_U+30E4_U+30FC 1
 62
   179
420
  2234388
370
     9
100
AcDb2dPolyline
 66
     1
 10
0.0
 20
0.0
 30
0.0
  0
VERTEX
  5
74
330
73
100
AcDbEntity
  8
_U+30EC_U+30A4_U+30E4_U+30FC 1
 62
   179
420
  2234388
370
     9
100
AcDbVertex
100
AcDb2dVertex
 10
91.52861544268826
 20
-134.6181302441231
 30
0.0
  0
VERTEX
  5
75
330
73
100
AcDbEntity
  8
_U+30EC_U+30A4_U+30E4_U+30FC 1
 62
   179
420
  2234388
370
     9
100
AcDbVertex
100
AcDb2dVertex
 10
91.49898211011093
 20
-135.5297080216733
 30
0.0
  0
VERTEX
  5
76
330
73
100
AcDbEntity
  8
_U+30EC_U+30A4_U+30E4_U+30FC 1
 62
   179
420
  2234388
370
     9
100
AcDbVertex
100
AcDb2dVertex
 10
93.88023204936019
 20
-134.1185969109149
 30
0.0
  0
VERTEX
  5
77
330
73
100
AcDbEntity
  8
_U+30EC_U+30A4_U+30E4_U+30FC 1
 62
   179
420
  2234388
370
     9
100
AcDbVertex
100
AcDb2dVertex
 10
93.90986538193751
 20
-133.2952135777872
 30
0.0
  0
VERTEX
  5
78
330
73
100
AcDbEntity
  8
_U+30EC_U+30A4_U+30E4_U+30FC 1
 62
   179
420
  2234388
370
     9
100
AcDbVertex
100
AcDb2dVertex
 10
91.52861544268826
 20
-134.6181302441231
 30
0.0
  0
SEQEND
  5
79
330
73
100
AcDbEntity
  8
_U+30EC_U+30A4_U+30E4_U+30FC 1
 62
   179
420
  2234388
370
     9
  0
POLYLINE
  5
7A
330
41
100
AcDbEntity
  8
_U+30EC_U+30A4_U+30E4_U+30FC 1
 62
   179
420
  2234388
370
     9
100
AcDb2dPolyline
 66
     1
 10
0.0
 20
0.0
 30
0.0
  0
VERTEX
  5
7B
330
7A
100
AcDbEntity
  8
_U+30EC_U+30A4_U+30E4_U+30FC 1
 62
   179
420
  2234388
370
     9
100
AcDbVertex
100
AcDb2dVertex
 10
91.58717655230535
 20
-134.5299357997007
 30
0.0
  0
VERTEX
  5
7C
330
7A
100
AcDbEntity
  8
_U+30EC_U+30A4_U+30E4_U+30FC 1
 62
   179
420
  2234388
370
     9
100
AcDbVertex
100
AcDb2dVertex
 10
91.8517598788886
 20
-134.8241524662941
 30
0.0
  0
VERTEX
  5
7D
330
7A
100
AcDbEntity
  8
_U+30EC_U+30A4_U+30E4_U+30FC 1
 62
   179
420
  2234388
370
     9
100
AcDbVertex
100
AcDb2dVertex
 10
93.85059871678287
 20
-133.5894302443806
 30
0.0
  0
SEQEND
  5
7E
330
7A
100
AcDbEntity
  8
_U+30EC_U+30A4_U+30E4_U+30FC 1
 62
   179
420
  2234388
370
     9
  0
POLYLINE
  5
7F
330
41
100
AcDbEntity
  8
_U+30EC_U+30A4_U+30E4_U+30FC 1
 62
   179
420
  2234388
370
     9
100
AcDb2dPolyline
 66
     1
 10
0.0
 20
0.0
 30
0.0
  0
VERTEX
  5
80
330
7F
100
AcDbEntity
  8
_U+30EC_U+30A4_U+30E4_U+30FC 1
 62
   179
420
  2234388
370
     9
100
AcDbVertex
100
AcDb2dVertex
 10
91.8517598788886
 20
-134.8241524662941
 30
0.0
  0
VERTEX
  5
81
330
7F
100
AcDbEntity
  8
_U+30EC_U+30A4_U+30E4_U+30FC 1
 62
   179
420
  2234388
370
     9
100
AcDbVertex
100
AcDb2dVertex
 10
91.8517598788886
 20
-135.2651246884061
 30
0.0
  0
SEQEND
  5
82
330
7F
100
AcDbEntity
  8
_U+30EC_U+30A4_U+30E4_U+30FC 1
 62
   179
420
  2234388
370
     9
  0
POLYLINE
  5
83
330
41
100
AcDbEntity
  8
_U+30EC_U+30A4_U+30E4_U+30FC 1
 62
   179
420
  2234388
370
     9
100
AcDb2dPolyline
 66
     1
 10
0.0
 20
0.0
 30
0.0
  0
VERTEX
  5
84
330
83
100
AcDbEntity
  8
_U+30EC_U+30A4_U+30E4_U+30FC 1
 62
   179
420
  2234388
370
     9
100
AcDbVertex
100
AcDb2dVertex
 10
91.55754321972803
 20
-135.2354913550799
 30
0.0
  0
VERTEX
  5
85
330
83
100
AcDbEntity
  8
_U+30EC_U+30A4_U+30E4_U+30FC 1
 62
   179
420
  2234388
370
     9
100
AcDbVertex
100
AcDb2dVertex
 10
91.79319876927151
 20
-135.0887357995613
 30
0.0
  0
SEQEND
  5
86
330
83
100
AcDbEntity
  8
_U+30EC_U+30A4_U+30E4_U+30FC 1
 62
   179
420
  2234388
370
     9
  0
SPLINE
  5
87
330
41
100
AcDbEntity
  8
_U+30EC_U+30A4_U+30E4_U+30FC 1
 62
   179
420
  2234388
370
     9
100
AcDbSpline
210
0.0
220
0.0
230
1.0
 70
    11
 71
     3
 72
    17
 73
    13
 74
     0
 42
0.0000000001
 43
0.0000000001
 12
1.0
 22
0.0
 32
0.0
 13
1.0
 23
0.0
 33
0.0
 40
0.0
 40
0.0
 40
0.0
 40
0.0
 40
1.0
 40
1.0
 40
1.0
 40
2.0
 40
2.0
 40
2.0
 40
3.0
 40
3.0
 40
3.0
 40
4.0
 40
4.0
 40
4.0
 40
4.0
 10
94.32120426033227
 20
-117.9056358038569
 30
0.0
 10
94.32120426033227
 20
-118.5305816370339
 30
0.0
 10
93.47231511532257
 20
-119.0373469146852
 30
0.0
 10
92.42502375315232
 20
-119.0373469146852
 30
0.0
 10
91.37769711320517
 20
-119.0373469146852
 30
0.0
 10
90.52866685708796
 20
-118.5305816370339
 30
0.0
 10
90.52866685708796
 20
-117.9056358038569
 30
0.0
 10
90.52866685708796
 20
-117.2803371929021
 30
0.0
 10
91.37769711320517
 20
-116.7735719152511
 30
0.0
 10
92.42502375315232
 20
-116.7735719152511
 30
0.0
 10
93.47231511532257
 20
-116.7735719152511
 30
0.0
 10
94.32120426033227
 20
-117.2803371929021
 30
0.0
 10
94.32120426033227
 20
-117.9056358038569
 30
0.0
  0
HATCH
  5
88
330
41
100
AcDbEntity
  8
_U+30EC_U+30A4_U+30E4_U+30FC 1
 62
     7
420
 16711422
100
AcDbHatch
 10
0.0
 20
0.0
 30
0.0
210
0.0
220
0.0
230
1.0
  2
SOLID
 70
     1
 71
     0
 91
        1
 92
        1
 93
        1
 72
     4
 94
        3
 73
     0
 74
     1
 95
       17
 96
       13
 40
0.0
 40
0.0
 40
0.0
 40
0.0
 40
1.0
 40
1.0
 40
1.0
 40
2.0
 40
2.0
 40
2.0
 40
3.0
 40
3.0
 40
3.0
 40
4.0
 40
4.0
 40
4.0
 40
4.0
 10
94.32120426033227
 20
-117.9056358038569
 10
94.32120426033227
 20
-118.5305816370339
 10
93.47231511532257
 20
-119.0373469146852
 10
92.42502375315232
 20
-119.0373469146852
 10
91.37769711320517
 20
-119.0373469146852
 10
90.52866685708796
 20
-118.5305816370339
 10
90.52866685708796
 20
-117.9056358038569
 10
90.52866685708796
 20
-117.2803371929021
 10
91.37769711320517
 20
-116.7735719152511
 10
92.42502375315232
 20
-116.7735719152511
 10
93.47231511532257
 20
-116.7735719152511
 10
94.32120426033227
 20
-117.2803371929021
 10
94.32120426033227
 20
-117.9056358038569
 97
        0
 97
        0
 75
     2
 76
     1
 98
        0
  0
SPLINE
  5
89
330
41
100
AcDbEntity
  8
_U+30EC_U+30A4_U+30E4_U+30FC 1
 62
   179
420
  2234388
370
     9
100
AcDbSpline
210
0.0
220
0.0
230
1.0
 70
     8
 71
     3
 72
     8
 73
     4
 74
     0
 42
0.0000000001
 43
0.0000000001
 12
1.0
 22
0.0
 32
0.0
 13
1.0
 23
0.0
 33
0.0
 40
0.0
 40
0.0
 40
0.0
 40
0.0
 40
1.0
 40
1.0
 40
1.0
 40
1.0
 10
90.61686129928238
 20
-118.1554024704613
 30
0.0
 10
90.61686129928238
 20
-118.1554024704613
 30
0.0
 10
92.20453764766627
 20
-116.2740385820426
 30
0.0
 10
94.26193759517763
 20
-118.0672080260389
 30
0.0
  0
INSERT
  5
8B
330
41
100
AcDbEntity
  8
_U+30EC_U+30A4_U+30E4_U+30FC 1
100
AcDbBlockReference
  2
block 3
 10
0.0
 20
0.0
 30
0.0
  0
INSERT
  5
93
330
41
100
AcDbEntity
  8
_U+30EC_U+30A4_U+30E4_U+30FC 1
100
AcDbBlockReference
  2
block 4
 10
0.0
 20
0.0
 30
0.0
  0
SPLINE
  5
9A
330
41
100
AcDbEntity
  8
_U+30EC_U+30A4_U+30E4_U+30FC 1
 62
   179
420
  2234388
370
     9
100
AcDbSpline
210
0.0
220
0.0
230
1.0
 70
     8
 71
     3
 72
    17
 73
    13
 74
     0
 42
0.0000000001
 43
0.0000000001
 12
1.0
 22
0.0
 32
0.0
 13
1.0
 23
0.0
 33
0.0
 40
0.0
 40
0.0
 40
0.0
 40
0.0
 40
1.0
 40
1.0
 40
1.0
 40
2.0
 40
2.0
 40
2.0
 40
3.0
 40
3.0
 40
3.0
 40
4.0
 40
4.0
 40
4.0
 40
4.0
 10
93.3951626172909
 20
-137.9181899655202
 30
0.0
 10
93.3951626172909
 20
-137.9181899655202
 30
0.0
 10
93.59360011222833
 20
-137.0582941324018
 30
0.0
 10
93.02033623796463
 20
-137.1244399657186
 30
0.0
 10
93.02033623796463
 20
-137.1244399657186
 30
0.0
 10
92.46912097424952
 20
-137.102391354613
 30
0.0
 10
91.91790571053441
 20
-138.1607246876817
 30
0.0
 10
91.91790571053441
 20
-138.1607246876817
 30
0.0
 10
91.52103072065954
 20
-139.3293010762785
 30
0.0
 10
92.51321819534672
 20
-139.1088149652225
 30
0.0
 10
92.51321819534672
 20
-139.1088149652225
 30
0.0
 10
92.7660916434754
 20
-138.8442316319553
 30
0.0
 10
92.7660916434754
 20
-138.8442316319553
 30
0.0
  0
POLYLINE
  5
9B
330
41
100
AcDbEntity
  8
_U+30EC_U+30A4_U+30E4_U+30FC 1
 62
   179
420
  2234388
370
     9
100
AcDb2dPolyline
 66
     1
 10
0.0
 20
0.0
 30
0.0
  0
VERTEX
  5
9C
330
9B
100
AcDbEntity
  8
_U+30EC_U+30A4_U+30E4_U+30FC 1
 62
   179
420
  2234388
370
     9
100
AcDbVertex
100
AcDb2dVertex
 10
82.3851448426243
 20
-139.7626885761705
 30
0.0
  0
VERTEX
  5
9D
330
9B
100
AcDbEntity
  8
_U+30EC_U+30A4_U+30E4_U+30FC 1
 62
   179
420
  2234388
370
     9
100
AcDbVertex
100
AcDb2dVertex
 10
85.32519476761738
 20
-141.4680163535216
 30
0.0
  0
SEQEND
  5
9E
330
9B
100
AcDbEntity
  8
_U+30EC_U+30A4_U+30E4_U+30FC 1
 62
   179
420
  2234388
370
     9
  0
POLYLINE
  5
9F
330
41
100
AcDbEntity
  8
_U+30EC_U+30A4_U+30E4_U+30FC 1
 62
   179
420
  2234388
370
     9
100
AcDb2dPolyline
 66
     1
 10
0.0
 20
0.0
 30
0.0
  0
VERTEX
  5
A0
330
9F
100
AcDbEntity
  8
_U+30EC_U+30A4_U+30E4_U+30FC 1
 62
   179
420
  2234388
370
     9
100
AcDbVertex
100
AcDb2dVertex
 10
83.26708926456847
 20
-140.233294131608
 30
0.0
  0
VERTEX
  5
A1
330
9F
100
AcDbEntity
  8
_U+30EC_U+30A4_U+30E4_U+30FC 1
 62
   179
420
  2234388
370
     9
100
AcDbVertex
100
AcDb2dVertex
 10
83.26708926456847
 20
-130.7668552450861
 30
0.0
  0
SEQEND
  5
A2
330
9F
100
AcDbEntity
  8
_U+30EC_U+30A4_U+30E4_U+30FC 1
 62
   179
420
  2234388
370
     9
  0
POLYLINE
  5
A3
330
41
100
AcDbEntity
  8
_U+30EC_U+30A4_U+30E4_U+30FC 1
 62
   179
420
  2234388
370
     9
100
AcDb2dPolyline
 66
     1
 10
0.0
 20
0.0
 30
0.0
  0
VERTEX
  5
A4
330
A3
100
AcDbEntity
  8
_U+30EC_U+30A4_U+30E4_U+30FC 1
 62
   179
420
  2234388
370
     9
100
AcDbVertex
100
AcDb2dVertex
 10
83.3263559297231
 20
-123.2999608025084
 30
0.0
  0
VERTEX
  5
A5
330
A3
100
AcDbEntity
  8
_U+30EC_U+30A4_U+30E4_U+30FC 1
 62
   179
420
  2234388
370
     9
100
AcDbVertex
100
AcDb2dVertex
 10
83.3263559297231
 20
-126.3571330239663
 30
0.0
  0
SEQEND
  5
A6
330
A3
100
AcDbEntity
  8
_U+30EC_U+30A4_U+30E4_U+30FC 1
 62
   179
420
  2234388
370
     9
  0
POLYLINE
  5
A7
330
41
100
AcDbEntity
  8
_U+30EC_U+30A4_U+30E4_U+30FC 1
 62
   179
420
  2234388
370
     9
100
AcDb2dPolyline
 66
     1
 10
0.0
 20
0.0
 30
0.0
  0
VERTEX
  5
A8
330
A7
100
AcDbEntity
  8
_U+30EC_U+30A4_U+30E4_U+30FC 1
 62
   179
420
  2234388
370
     9
100
AcDbVertex
100
AcDb2dVertex
 10
82.56153372701313
 20
-115.1860719156479
 30
0.0
  0
VERTEX
  5
A9
330
A7
100
AcDbEntity
  8
_U+30EC_U+30A4_U+30E4_U+30FC 1
 62
   179
420
  2234388
370
     9
100
AcDbVertex
100
AcDb2dVertex
 10
85.38375587723446
 20
-116.8910469152216
 30
0.0
  0
SEQEND
  5
AA
330
A7
100
AcDbEntity
  8
_U+30EC_U+30A4_U+30E4_U+30FC 1
 62
   179
420
  2234388
370
     9
  0
POLYLINE
  5
AB
330
41
100
AcDbEntity
  8
_U+30EC_U+30A4_U+30E4_U+30FC 1
 62
   179
420
  2234388
370
     9
100
AcDb2dPolyline
 66
     1
 10
0.0
 20
0.0
 30
0.0
  0
VERTEX
  5
AC
330
AB
100
AcDbEntity
  8
_U+30EC_U+30A4_U+30E4_U+30FC 1
 62
   179
420
  2234388
370
     9
100
AcDbVertex
100
AcDb2dVertex
 10
84.61963923006203
 20
-114.7743802490841
 30
0.0
  0
VERTEX
  5
AD
330
AB
100
AcDbEntity
  8
_U+30EC_U+30A4_U+30E4_U+30FC 1
 62
   179
420
  2234388
370
     9
100
AcDbVertex
100
AcDb2dVertex
 10
83.3263559297231
 20
-115.7152385821823
 30
0.0
  0
VERTEX
  5
AE
330
AB
100
AcDbEntity
  8
_U+30EC_U+30A4_U+30E4_U+30FC 1
 62
   179
420
  2234388
370
     9
100
AcDbVertex
100
AcDb2dVertex
 10
83.3263559297231
 20
-119.5368802478934
 30
0.0
  0
SEQEND
  5
AF
330
AB
100
AcDbEntity
  8
_U+30EC_U+30A4_U+30E4_U+30FC 1
 62
   179
420
  2234388
370
     9
  0
POLYLINE
  5
B0
330
41
100
AcDbEntity
  8
_U+30EC_U+30A4_U+30E4_U+30FC 1
 62
   179
420
  2234388
370
     9
100
AcDb2dPolyline
 66
     1
 10
0.0
 20
0.0
 30
0.0
  0
VERTEX
  5
B1
330
B0
100
AcDbEntity
  8
_U+30EC_U+30A4_U+30E4_U+30FC 1
 62
   179
420
  2234388
370
     9
100
AcDbVertex
100
AcDb2dVertex
 10
87.55968915505511
 20
-112.1285469164122
 30
0.0
  0
VERTEX
  5
B2
330
B0
100
AcDbEntity
  8
_U+30EC_U+30A4_U+30E4_U+30FC 1
 62
   179
420
  2234388
370
     9
100
AcDbVertex
100
AcDb2dVertex
 10
90.79325018367122
 20
-113.9513496937344
 30
0.0
  0
SEQEND
  5
B3
330
B0
100
AcDbEntity
  8
_U+30EC_U+30A4_U+30E4_U+30FC 1
 62
   179
420
  2234388
370
     9
  0
POLYLINE
  5
B4
330
41
100
AcDbEntity
  8
_U+30EC_U+30A4_U+30E4_U+30FC 1
 62
   179
420
  2234388
370
     9
100
AcDb2dPolyline
 66
     1
 10
0.0
 20
0.0
 30
0.0
  0
VERTEX
  5
B5
330
B4
100
AcDbEntity
  8
_U+30EC_U+30A4_U+30E4_U+30FC 1
 62
   179
420
  2234388
370
     9
100
AcDbVertex
100
AcDb2dVertex
 10
87.32403360551163
 20
-113.3043552494518
 30
0.0
  0
VERTEX
  5
B6
330
B4
100
AcDbEntity
  8
_U+30EC_U+30A4_U+30E4_U+30FC 1
 62
   179
420
  2234388
370
     9
100
AcDbVertex
100
AcDb2dVertex
 10
88.50019468661638
 20
-112.5987996940726
 30
0.0
  0
SEQEND
  5
B7
330
B4
100
AcDbEntity
  8
_U+30EC_U+30A4_U+30E4_U+30FC 1
 62
   179
420
  2234388
370
     9
  0
POLYLINE
  5
B8
330
41
100
AcDbEntity
  8
_U+30EC_U+30A4_U+30E4_U+30FC 1
 62
   179
420
  2234388
370
     9
100
AcDb2dPolyline
 66
     1
 10
0.0
 20
0.0
 30
0.0
  0
VERTEX
  5
B9
330
B8
100
AcDbEntity
  8
_U+30EC_U+30A4_U+30E4_U+30FC 1
 62
   179
420
  2234388
370
     9
100
AcDbVertex
100
AcDb2dVertex
 10
92.79226541044986
 20
-113.8335219159861
 30
0.0
  0
VERTEX
  5
BA
330
B8
100
AcDbEntity
  8
_U+30EC_U+30A4_U+30E4_U+30FC 1
 62
   179
420
  2234388
370
     9
100
AcDbVertex
100
AcDb2dVertex
 10
95.5559264510541
 20
-112.1874608052865
 30
0.0
  0
SEQEND
  5
BB
330
B8
100
AcDbEntity
  8
_U+30EC_U+30A4_U+30E4_U+30FC 1
 62
   179
420
  2234388
370
     9
  0
POLYLINE
  5
BC
330
41
100
AcDbEntity
  8
_U+30EC_U+30A4_U+30E4_U+30FC 1
 62
   179
420
  2234388
370
     9
100
AcDb2dPolyline
 66
     1
 10
0.0
 20
0.0
 30
0.0
  0
VERTEX
  5
BD
330
BC
100
AcDbEntity
  8
_U+30EC_U+30A4_U+30E4_U+30FC 1
 62
   179
420
  2234388
370
     9
100
AcDbVertex
100
AcDb2dVertex
 10
94.73254313872704
 20
-112.6577135829466
 30
0.0
  0
VERTEX
  5
BE
330
BC
100
AcDbEntity
  8
_U+30EC_U+30A4_U+30E4_U+30FC 1
 62
   179
420
  2234388
370
     9
100
AcDbVertex
100
AcDb2dVertex
 10
96.55569864777001
 20
-113.6571330271413
 30
0.0
  0
SEQEND
  5
BF
330
BC
100
AcDbEntity
  8
_U+30EC_U+30A4_U+30E4_U+30FC 1
 62
   179
420
  2234388
370
     9
  0
POLYLINE
  5
C0
330
41
100
AcDbEntity
  8
_U+30EC_U+30A4_U+30E4_U+30FC 1
 62
   179
420
  2234388
370
     9
100
AcDb2dPolyline
 66
     1
 10
0.0
 20
0.0
 30
0.0
  0
VERTEX
  5
C1
330
C0
100
AcDbEntity
  8
_U+30EC_U+30A4_U+30E4_U+30FC 1
 62
   179
420
  2234388
370
     9
100
AcDbVertex
100
AcDb2dVertex
 10
99.20153191360252
 20
-115.4210219155893
 30
0.0
  0
VERTEX
  5
C2
330
C0
100
AcDbEntity
  8
_U+30EC_U+30A4_U+30E4_U+30FC 1
 62
   179
420
  2234388
370
     9
100
AcDbVertex
100
AcDb2dVertex
 10
101.2589318611139
 20
-116.479355248658
 30
0.0
  0
SEQEND
  5
C3
330
C0
100
AcDbEntity
  8
_U+30EC_U+30A4_U+30E4_U+30FC 1
 62
   179
420
  2234388
370
     9
  0
POLYLINE
  5
C4
330
41
100
AcDbEntity
  8
_U+30EC_U+30A4_U+30E4_U+30FC 1
 62
   179
420
  2234388
370
     9
100
AcDb2dPolyline
 66
     1
 10
0.0
 20
0.0
 30
0.0
  0
VERTEX
  5
C5
330
C4
100
AcDbEntity
  8
_U+30EC_U+30A4_U+30E4_U+30FC 1
 62
   179
420
  2234388
370
     9
100
AcDbVertex
100
AcDb2dVertex
 10
99.20153191360252
 20
-117.7140774705716
 30
0.0
  0
VERTEX
  5
C6
330
C4
100
AcDbEntity
  8
_U+30EC_U+30A4_U+30E4_U+30FC 1
 62
   179
420
  2234388
370
     9
100
AcDbVertex
100
AcDb2dVertex
 10
102.2001429482127
 20
-116.0680163598719
 30
0.0
  0
SEQEND
  5
C7
330
C4
100
AcDbEntity
  8
_U+30EC_U+30A4_U+30E4_U+30FC 1
 62
   179
420
  2234388
370
     9
  0
POLYLINE
  5
C8
330
41
100
AcDbEntity
  8
_U+30EC_U+30A4_U+30E4_U+30FC 1
 62
   179
420
  2234388
370
     9
100
AcDb2dPolyline
 66
     1
 10
0.0
 20
0.0
 30
0.0
  0
VERTEX
  5
C9
330
C8
100
AcDbEntity
  8
_U+30EC_U+30A4_U+30E4_U+30FC 1
 62
   179
420
  2234388
370
     9
100
AcDbVertex
100
AcDb2dVertex
 10
90.44047241489355
 20
-118.8020441369662
 30
0.0
  0
VERTEX
  5
CA
330
C8
100
AcDbEntity
  8
_U+30EC_U+30A4_U+30E4_U+30FC 1
 62
   179
420
  2234388
370
     9
100
AcDbVertex
100
AcDb2dVertex
 10
89.55852799294938
 20
-118.8020441369662
 30
0.0
  0
VERTEX
  5
CB
330
C8
100
AcDbEntity
  8
_U+30EC_U+30A4_U+30E4_U+30FC 1
 62
   179
420
  2234388
370
     9
100
AcDbVertex
100
AcDb2dVertex
 10
89.95540298282425
 20
-119.1107246924445
 30
0.0
  0
VERTEX
  5
CC
330
C8
100
AcDbEntity
  8
_U+30EC_U+30A4_U+30E4_U+30FC 1
 62
   179
420
  2234388
370
     9
100
AcDbVertex
100
AcDb2dVertex
 10
90.08769464611588
 20
-119.6839885811901
 30
0.0
  0
VERTEX
  5
CD
330
C8
100
AcDbEntity
  8
_U+30EC_U+30A4_U+30E4_U+30FC 1
 62
   179
420
  2234388
370
     9
100
AcDbVertex
100
AcDb2dVertex
 10
90.44047241489355
 20
-118.8020441369662
 30
0.0
  0
SEQEND
  5
CF
330
C8
100
AcDbEntity
  8
_U+30EC_U+30A4_U+30E4_U+30FC 1
 62
   179
420
  2234388
370
     9
  0
HATCH
  5
CE
330
41
100
AcDbEntity
  8
_U+30EC_U+30A4_U+30E4_U+30FC 1
 62
   179
420
  2234388
100
AcDbHatch
 10
0.0
 20
0.0
 30
0.0
210
0.0
220
0.0
230
1.0
  2
SOLID
 70
     1
 71
     0
 91
        1
 92
        1
 93
        4
 72
     1
 10
90.44047241489355
 20
-118.8020441369662
 11
89.55852799294938
 21
-118.8020441369662
 72
     1
 10
89.55852799294938
 20
-118.8020441369662
 11
89.95540298282425
 21
-119.1107246924445
 72
     1
 10
89.95540298282425
 20
-119.1107246924445
 11
90.08769464611588
 21
-119.6839885811901
 72
     1
 10
90.08769464611588
 20
-119.6839885811901
 11
90.44047241489355
 21
-118.8020441369662
 97
        0
 75
     2
 76
     1
 98
        0
  0
POLYLINE
  5
D0
330
41
100
AcDbEntity
  8
_U+30EC_U+30A4_U+30E4_U+30FC 1
 62
   179
420
  2234388
370
     9
100
AcDb2dPolyline
 66
     1
 10
0.0
 20
0.0
 30
0.0
  0
VERTEX
  5
D1
330
D0
100
AcDbEntity
  8
_U+30EC_U+30A4_U+30E4_U+30FC 1
 62
   179
420
  2234388
370
     9
100
AcDbVertex
100
AcDb2dVertex
 10
81.09186154228537
 20
-122.9471830248188
 30
0.0
  0
VERTEX
  5
D2
330
D0
100
AcDbEntity
  8
_U+30EC_U+30A4_U+30E4_U+30FC 1
 62
   179
420
  2234388
370
     9
100
AcDbVertex
100
AcDb2dVertex
 10
85.67797253639505
 20
-122.9471830248188
 30
0.0
  0
VERTEX
  5
D3
330
D0
100
AcDbEntity
  8
_U+30EC_U+30A4_U+30E4_U+30FC 1
 62
   179
420
  2234388
370
     9
100
AcDbVertex
100
AcDb2dVertex
 10
90.08769464611588
 20
-119.0225302480222
 30
0.0
  0
SEQEND
  5
D4
330
D0
100
AcDbEntity
  8
_U+30EC_U+30A4_U+30E4_U+30FC 1
 62
   179
420
  2234388
370
     9
  0
INSERT
  5
D6
330
41
100
AcDbEntity
  8
_U+30EC_U+30A4_U+30E4_U+30FC 1
100
AcDbBlockReference
  2
block 5
 10
0.0
 20
0.0
 30
0.0
  0
INSERT
  5
DE
330
41
100
AcDbEntity
  8
_U+30EC_U+30A4_U+30E4_U+30FC 1
100
AcDbBlockReference
  2
block 6
 10
0.0
 20
0.0
 30
0.0
  0
INSERT
  5
E7
330
41
100
AcDbEntity
  8
_U+30EC_U+30A4_U+30E4_U+30FC 1
100
AcDbBlockReference
  2
block 7
 10
0.0
 20
0.0
 30
0.0
  0
INSERT
  5
F3
330
41
100
AcDbEntity
  8
_U+30EC_U+30A4_U+30E4_U+30FC 1
100
AcDbBlockReference
  2
block 8
 10
0.0
 20
0.0
 30
0.0
  0
SPLINE
  5
FF
330
41
100
AcDbEntity
  8
_U+30EC_U+30A4_U+30E4_U+30FC 1
370
     0
100
AcDbSpline
210
0.0
220
0.0
230
1.0
 70
    11
 71
     3
 72
    17
 73
    13
 74
     0
 42
0.0000000001
 43
0.0000000001
 12
1.0
 22
0.0
 32
0.0
 13
1.0
 23
0.0
 33
0.0
 40
0.0
 40
0.0
 40
0.0
 40
0.0
 40
1.0
 40
1.0
 40
1.0
 40
2.0
 40
2.0
 40
2.0
 40
3.0
 40
3.0
 40
3.0
 40
4.0
 40
4.0
 40
4.0
 40
4.0
 10
101.5000907438503
 20
-116.5999346930724
 30
0.0
 10
101.5000907438503
 20
-116.7315560819283
 30
0.0
 10
101.3933049132413
 20
-116.8379891374572
 30
0.0
 10
101.2616860857954
 20
-116.8379891374572
 30
0.0
 10
101.1307676977169
 20
-116.8379891374572
 30
0.0
 10
101.0239818671079
 20
-116.7315560819283
 30
0.0
 10
101.0239818671079
 20
-116.5999346930724
 30
0.0
 10
101.0239818671079
 20
-116.468348581994
 30
0.0
 10
101.1307676977169
 20
-116.3618802486872
 30
0.0
 10
101.2616860857954
 20
-116.3618802486872
 30
0.0
 10
101.3933049132413
 20
-116.3618802486872
 30
0.0
 10
101.5000907438503
 20
-116.468348581994
 30
0.0
 10
101.5000907438503
 20
-116.5999346930724
 30
0.0
  0
HATCH
  5
100
330
41
100
AcDbEntity
  8
_U+30EC_U+30A4_U+30E4_U+30FC 1
 62
   179
420
  2234388
100
AcDbHatch
 10
0.0
 20
0.0
 30
0.0
210
0.0
220
0.0
230
1.0
  2
SOLID
 70
     1
 71
     0
 91
        1
 92
        1
 93
        1
 72
     4
 94
        3
 73
     0
 74
     1
 95
       17
 96
       13
 40
0.0
 40
0.0
 40
0.0
 40
0.0
 40
1.0
 40
1.0
 40
1.0
 40
2.0
 40
2.0
 40
2.0
 40
3.0
 40
3.0
 40
3.0
 40
4.0
 40
4.0
 40
4.0
 40
4.0
 10
101.5000907438503
 20
-116.5999346930724
 10
101.5000907438503
 20
-116.7315560819283
 10
101.3933049132413
 20
-116.8379891374572
 10
101.2616860857954
 20
-116.8379891374572
 10
101.1307676977169
 20
-116.8379891374572
 10
101.0239818671079
 20
-116.7315560819283
 10
101.0239818671079
 20
-116.5999346930724
 10
101.0239818671079
 20
-116.468348581994
 10
101.1307676977169
 20
-116.3618802486872
 10
101.2616860857954
 20
-116.3618802486872
 10
101.3933049132413
 20
-116.3618802486872
 10
101.5000907438503
 20
-116.468348581994
 10
101.5000907438503
 20
-116.5999346930724
 97
        0
 97
        0
 75
     2
 76
     1
 98
        0
  0
SPLINE
  5
101
330
41
100
AcDbEntity
  8
_U+30EC_U+30A4_U+30E4_U+30FC 1
370
     0
100
AcDbSpline
210
0.0
220
0.0
230
1.0
 70
    11
 71
     3
 72
    17
 73
    13
 74
     0
 42
0.0000000001
 43
0.0000000001
 12
1.0
 22
0.0
 32
0.0
 13
1.0
 23
0.0
 33
0.0
 40
0.0
 40
0.0
 40
0.0
 40
0.0
 40
1.0
 40
1.0
 40
1.0
 40
2.0
 40
2.0
 40
2.0
 40
3.0
 40
3.0
 40
3.0
 40
4.0
 40
4.0
 40
4.0
 40
4.0
 10
95.03226313108054
 20
-112.6604652496127
 30
0.0
 10
95.03226313108054
 20
-112.7920866384686
 30
0.0
 10
94.92614997626859
 20
-112.8985196939975
 30
0.0
 10
94.79456386519051
 20
-112.8985196939975
 30
0.0
 10
94.6629400849472
 20
-112.8985196939975
 30
0.0
 10
94.5561542543382
 20
-112.7920866384686
 30
0.0
 10
94.5561542543382
 20
-112.6604652496127
 30
0.0
 10
94.5561542543382
 20
-112.5288791385346
 30
0.0
 10
94.6629400849472
 20
-112.4224108052278
 30
0.0
 10
94.79456386519051
 20
-112.4224108052278
 30
0.0
 10
94.92614997626859
 20
-112.4224108052278
 30
0.0
 10
95.03226313108054
 20
-112.5288791385346
 30
0.0
 10
95.03226313108054
 20
-112.6604652496127
 30
0.0
  0
HATCH
  5
102
330
41
100
AcDbEntity
  8
_U+30EC_U+30A4_U+30E4_U+30FC 1
 62
   179
420
  2234388
100
AcDbHatch
 10
0.0
 20
0.0
 30
0.0
210
0.0
220
0.0
230
1.0
  2
SOLID
 70
     1
 71
     0
 91
        1
 92
        1
 93
        1
 72
     4
 94
        3
 73
     0
 74
     1
 95
       17
 96
       13
 40
0.0
 40
0.0
 40
0.0
 40
0.0
 40
1.0
 40
1.0
 40
1.0
 40
2.0
 40
2.0
 40
2.0
 40
3.0
 40
3.0
 40
3.0
 40
4.0
 40
4.0
 40
4.0
 40
4.0
 10
95.03226313108054
 20
-112.6604652496127
 10
95.03226313108054
 20
-112.7920866384686
 10
94.92614997626859
 20
-112.8985196939975
 10
94.79456386519051
 20
-112.8985196939975
 10
94.6629400849472
 20
-112.8985196939975
 10
94.5561542543382
 20
-112.7920866384686
 10
94.5561542543382
 20
-112.6604652496127
 10
94.5561542543382
 20
-112.5288791385346
 10
94.6629400849472
 20
-112.4224108052278
 10
94.79456386519051
 20
-112.4224108052278
 10
94.92614997626859
 20
-112.4224108052278
 10
95.03226313108054
 20
-112.5288791385346
 10
95.03226313108054
 20
-112.6604652496127
 97
        0
 97
        0
 75
     2
 76
     1
 98
        0
  0
SPLINE
  5
103
330
41
100
AcDbEntity
  8
_U+30EC_U+30A4_U+30E4_U+30FC 1
370
     0
100
AcDbSpline
210
0.0
220
0.0
230
1.0
 70
    11
 71
     3
 72
    17
 73
    13
 74
     0
 42
0.0000000001
 43
0.0000000001
 12
1.0
 22
0.0
 32
0.0
 13
1.0
 23
0.0
 33
0.0
 40
0.0
 40
0.0
 40
0.0
 40
0.0
 40
1.0
 40
1.0
 40
1.0
 40
2.0
 40
2.0
 40
2.0
 40
3.0
 40
3.0
 40
3.0
 40
4.0
 40
4.0
 40
4.0
 40
4.0
 10
88.7413535693528
 20
-112.6604652496127
 30
0.0
 10
88.7413535693528
 20
-112.7920866384686
 30
0.0
 10
88.63456773874378
 20
-112.8985196939975
 30
0.0
 10
88.50294635321285
 20
-112.8985196939975
 30
0.0
 10
88.37136024545877
 20
-112.8985196939975
 30
0.0
 10
88.26489191484167
 20
-112.7920866384686
 30
0.0
 10
88.26489191484167
 20
-112.6604652496127
 30
0.0
 10
88.26489191484167
 20
-112.5288791385346
 30
0.0
 10
88.37136024545877
 20
-112.4224108052278
 30
0.0
 10
88.50294635321285
 20
-112.4224108052278
 30
0.0
 10
88.63456773874378
 20
-112.4224108052278
 30
0.0
 10
88.7413535693528
 20
-112.5288791385346
 30
0.0
 10
88.7413535693528
 20
-112.6604652496127
 30
0.0
  0
HATCH
  5
104
330
41
100
AcDbEntity
  8
_U+30EC_U+30A4_U+30E4_U+30FC 1
 62
   179
420
  2234388
100
AcDbHatch
 10
0.0
 20
0.0
 30
0.0
210
0.0
220
0.0
230
1.0
  2
SOLID
 70
     1
 71
     0
 91
        1
 92
        1
 93
        1
 72
     4
 94
        3
 73
     0
 74
     1
 95
       17
 96
       13
 40
0.0
 40
0.0
 40
0.0
 40
0.0
 40
1.0
 40
1.0
 40
1.0
 40
2.0
 40
2.0
 40
2.0
 40
3.0
 40
3.0
 40
3.0
 40
4.0
 40
4.0
 40
4.0
 40
4.0
 10
88.7413535693528
 20
-112.6604652496127
 10
88.7413535693528
 20
-112.7920866384686
 10
88.63456773874378
 20
-112.8985196939975
 10
88.50294635321285
 20
-112.8985196939975
 10
88.37136024545877
 20
-112.8985196939975
 10
88.26489191484167
 20
-112.7920866384686
 10
88.26489191484167
 20
-112.6604652496127
 10
88.26489191484167
 20
-112.5288791385346
 10
88.37136024545877
 20
-112.4224108052278
 10
88.50294635321285
 20
-112.4224108052278
 10
88.63456773874378
 20
-112.4224108052278
 10
88.7413535693528
 20
-112.5288791385346
 10
88.7413535693528
 20
-112.6604652496127
 97
        0
 97
        0
 75
     2
 76
     1
 98
        0
  0
SPLINE
  5
105
330
41
100
AcDbEntity
  8
_U+30EC_U+30A4_U+30E4_U+30FC 1
370
     0
100
AcDbSpline
210
0.0
220
0.0
230
1.0
 70
    11
 71
     3
 72
    17
 73
    13
 74
     0
 42
0.0000000001
 43
0.0000000001
 12
1.0
 22
0.0
 32
0.0
 13
1.0
 23
0.0
 33
0.0
 40
0.0
 40
0.0
 40
0.0
 40
0.0
 40
1.0
 40
1.0
 40
1.0
 40
2.0
 40
2.0
 40
2.0
 40
3.0
 40
3.0
 40
3.0
 40
4.0
 40
4.0
 40
4.0
 40
4.0
 10
83.62607592207662
 20
-115.7179902488484
 30
0.0
 10
83.62607592207662
 20
-115.8496116377043
 30
0.0
 10
83.51929009146761
 20
-115.9560446932333
 30
0.0
 10
83.38766870593668
 20
-115.9560446932333
 30
0.0
 10
83.2560825981826
 20
-115.9560446932333
 30
0.0
 10
83.1496142675655
 20
-115.8496116377043
 30
0.0
 10
83.1496142675655
 20
-115.7179902488484
 30
0.0
 10
83.1496142675655
 20
-115.58640413777
 30
0.0
 10
83.2560825981826
 20
-115.4799358044632
 30
0.0
 10
83.38766870593668
 20
-115.4799358044632
 30
0.0
 10
83.51929009146761
 20
-115.4799358044632
 30
0.0
 10
83.62607592207662
 20
-115.58640413777
 30
0.0
 10
83.62607592207662
 20
-115.7179902488484
 30
0.0
  0
HATCH
  5
106
330
41
100
AcDbEntity
  8
_U+30EC_U+30A4_U+30E4_U+30FC 1
 62
   179
420
  2234388
100
AcDbHatch
 10
0.0
 20
0.0
 30
0.0
210
0.0
220
0.0
230
1.0
  2
SOLID
 70
     1
 71
     0
 91
        1
 92
        1
 93
        1
 72
     4
 94
        3
 73
     0
 74
     1
 95
       17
 96
       13
 40
0.0
 40
0.0
 40
0.0
 40
0.0
 40
1.0
 40
1.0
 40
1.0
 40
2.0
 40
2.0
 40
2.0
 40
3.0
 40
3.0
 40
3.0
 40
4.0
 40
4.0
 40
4.0
 40
4.0
 10
83.62607592207662
 20
-115.7179902488484
 10
83.62607592207662
 20
-115.8496116377043
 10
83.51929009146761
 20
-115.9560446932333
 10
83.38766870593668
 20
-115.9560446932333
 10
83.2560825981826
 20
-115.9560446932333
 10
83.1496142675655
 20
-115.8496116377043
 10
83.1496142675655
 20
-115.7179902488484
 10
83.1496142675655
 20
-115.58640413777
 10
83.2560825981826
 20
-115.4799358044632
 10
83.38766870593668
 20
-115.4799358044632
 10
83.51929009146761
 20
-115.4799358044632
 10
83.62607592207662
 20
-115.58640413777
 10
83.62607592207662
 20
-115.7179902488484
 97
        0
 97
        0
 75
     2
 76
     1
 98
        0
  0
SPLINE
  5
107
330
41
100
AcDbEntity
  8
_U+30EC_U+30A4_U+30E4_U+30FC 1
370
     0
100
AcDbSpline
210
0.0
220
0.0
230
1.0
 70
    11
 71
     3
 72
    17
 73
    13
 74
     0
 42
0.0000000001
 43
0.0000000001
 12
1.0
 22
0.0
 32
0.0
 13
1.0
 23
0.0
 33
0.0
 40
0.0
 40
0.0
 40
0.0
 40
0.0
 40
1.0
 40
1.0
 40
1.0
 40
2.0
 40
2.0
 40
2.0
 40
3.0
 40
3.0
 40
3.0
 40
4.0
 40
4.0
 40
4.0
 40
4.0
 10
83.44968703768778
 20
-140.2360457982744
 30
0.0
 10
83.44968703768778
 20
-140.36766718713
 30
0.0
 10
83.34290120707878
 20
-140.474100242659
 30
0.0
 10
83.21127982154783
 20
-140.474100242659
 30
0.0
 10
83.07969371379377
 20
-140.474100242659
 30
0.0
 10
82.97322538317667
 20
-140.36766718713
 30
0.0
 10
82.97322538317667
 20
-140.2360457982744
 30
0.0
 10
82.97322538317667
 20
-140.1044596871964
 30
0.0
 10
83.07969371379377
 20
-139.9979913538893
 30
0.0
 10
83.21127982154783
 20
-139.9979913538893
 30
0.0
 10
83.34290120707878
 20
-139.9979913538893
 30
0.0
 10
83.44968703768778
 20
-140.1044596871964
 30
0.0
 10
83.44968703768778
 20
-140.2360457982744
 30
0.0
  0
HATCH
  5
108
330
41
100
AcDbEntity
  8
_U+30EC_U+30A4_U+30E4_U+30FC 1
 62
   179
420
  2234388
100
AcDbHatch
 10
0.0
 20
0.0
 30
0.0
210
0.0
220
0.0
230
1.0
  2
SOLID
 70
     1
 71
     0
 91
        1
 92
        1
 93
        1
 72
     4
 94
        3
 73
     0
 74
     1
 95
       17
 96
       13
 40
0.0
 40
0.0
 40
0.0
 40
0.0
 40
1.0
 40
1.0
 40
1.0
 40
2.0
 40
2.0
 40
2.0
 40
3.0
 40
3.0
 40
3.0
 40
4.0
 40
4.0
 40
4.0
 40
4.0
 10
83.44968703768778
 20
-140.2360457982744
 10
83.44968703768778
 20
-140.36766718713
 10
83.34290120707878
 20
-140.474100242659
 10
83.21127982154783
 20
-140.474100242659
 10
83.07969371379377
 20
-140.474100242659
 10
82.97322538317667
 20
-140.36766718713
 10
82.97322538317667
 20
-140.2360457982744
 10
82.97322538317667
 20
-140.1044596871964
 10
83.07969371379377
 20
-139.9979913538893
 10
83.21127982154783
 20
-139.9979913538893
 10
83.34290120707878
 20
-139.9979913538893
 10
83.44968703768778
 20
-140.1044596871964
 10
83.44968703768778
 20
-140.2360457982744
 97
        0
 97
        0
 75
     2
 76
     1
 98
        0
  0
ENDBLK
  5
44
330
41
100
AcDbEntity
  8
0
100
AcDbBlockEnd
  0
BLOCK
  5
8C
330
8A
100
AcDbEntity
  8
0
100
AcDbBlockBegin
  2
block 3
 70
     0
 10
0.0
 20
0.0
 30
0.0
  3
block 3
  1

  0
SPLINE
  5
8E
330
8A
100
AcDbEntity
  8
_U+30EC_U+30A4_U+30E4_U+30FC 1
 62
   179
420
  2234388
370
     9
100
AcDbSpline
210
0.0
220
0.0
230
1.0
 70
    11
 71
     3
 72
    17
 73
    13
 74
     0
 42
0.0000000001
 43
0.0000000001
 12
1.0
 22
0.0
 32
0.0
 13
1.0
 23
0.0
 33
0.0
 40
0.0
 40
0.0
 40
0.0
 40
0.0
 40
1.0
 40
1.0
 40
1.0
 40
2.0
 40
2.0
 40
2.0
 40
3.0
 40
3.0
 40
3.0
 40
4.0
 40
4.0
 40
4.0
 40
4.0
 10
93.01412734923414
 20
-141.7067763534623
 30
0.0
 10
92.78951374385339
 20
-142.0350713533801
 30
0.0
 10
92.42915125304701
 20
-142.1790752422329
 30
0.0
 10
92.20937070309853
 20
-142.0285449644928
 30
0.0
 10
91.99026043091071
 20
-141.8779794089751
 30
0.0
 10
91.99438793080542
 20
-141.4897121868501
 30
0.0
 10
92.2197070917237
 20
-141.1617699647094
 30
0.0
 10
92.44499097486512
 20
-140.833439687014
 30
0.0
 10
92.80535346567152
 20
-140.6890830203834
 30
0.0
 10
93.02446373785932
 20
-140.8396485759011
 30
0.0
 10
93.24427956558469
 20
-140.9901788536412
 30
0.0
 10
93.23944651015243
 20
-141.3787988535441
 30
0.0
 10
93.01412734923414
 20
-141.7067763534623
 30
0.0
  0
HATCH
  5
8F
330
8A
100
AcDbEntity
  8
_U+30EC_U+30A4_U+30E4_U+30FC 1
 62
     7
420
 16711422
100
AcDbHatch
 10
0.0
 20
0.0
 30
0.0
210
0.0
220
0.0
230
1.0
  2
SOLID
 70
     1
 71
     0
 91
        1
 92
        1
 93
        1
 72
     4
 94
        3
 73
     0
 74
     1
 95
       17
 96
       13
 40
0.0
 40
0.0
 40
0.0
 40
0.0
 40
1.0
 40
1.0
 40
1.0
 40
2.0
 40
2.0
 40
2.0
 40
3.0
 40
3.0
 40
3.0
 40
4.0
 40
4.0
 40
4.0
 40
4.0
 10
93.01412734923414
 20
-141.7067763534623
 10
92.78951374385339
 20
-142.0350713533801
 10
92.42915125304701
 20
-142.1790752422329
 10
92.20937070309853
 20
-142.0285449644928
 10
91.99026043091071
 20
-141.8779794089751
 10
91.99438793080542
 20
-141.4897121868501
 10
92.2197070917237
 20
-141.1617699647094
 10
92.44499097486512
 20
-140.833439687014
 10
92.80535346567152
 20
-140.6890830203834
 10
93.02446373785932
 20
-140.8396485759011
 10
93.24427956558469
 20
-140.9901788536412
 10
93.23944651015243
 20
-141.3787988535441
 10
93.01412734923414
 20
-141.7067763534623
 97
        0
 97
        0
 75
     2
 76
     1
 98
        0
  0
SPLINE
  5
90
330
8A
100
AcDbEntity
  8
_U+30EC_U+30A4_U+30E4_U+30FC 1
 62
   179
420
  2234388
370
     9
100
AcDbSpline
210
0.0
220
0.0
230
1.0
 70
    11
 71
     3
 72
    17
 73
    13
 74
     0
 42
0.0000000001
 43
0.0000000001
 12
1.0
 22
0.0
 32
0.0
 13
1.0
 23
0.0
 33
0.0
 40
0.0
 40
0.0
 40
0.0
 40
0.0
 40
1.0
 40
1.0
 40
1.0
 40
2.0
 40
2.0
 40
2.0
 40
3.0
 40
3.0
 40
3.0
 40
4.0
 40
4.0
 40
4.0
 40
4.0
 10
92.72887124540051
 20
-141.5355380201719
 30
0.0
 10
92.55110652771344
 20
-141.7953235756624
 30
0.0
 10
92.29202653432313
 20
-141.9269096867405
 30
0.0
 10
92.15077431570455
 20
-141.8301074645424
 30
0.0
 10
92.0088518193253
 20
-141.7329524645665
 30
0.0
 10
92.03848515190262
 20
-141.443568853528
 30
0.0
 10
92.21692014735036
 20
-141.1841360758152
 30
0.0
 10
92.39472014281431
 20
-140.92473857588
 30
0.0
 10
92.65376485842775
 20
-140.7924469092464
 30
0.0
 10
92.79501942124543
 20
-140.8896019092222
 30
0.0
 10
92.93697485120246
 20
-140.9867569091975
 30
0.0
 10
92.90734151862515
 20
-141.2761405202367
 30
0.0
 10
92.72887124540051
 20
-141.5355380201719
 30
0.0
  0
HATCH
  5
91
330
8A
100
AcDbEntity
  8
_U+30EC_U+30A4_U+30E4_U+30FC 1
 62
     7
420
 16711422
100
AcDbHatch
 10
0.0
 20
0.0
 30
0.0
210
0.0
220
0.0
230
1.0
  2
SOLID
 70
     1
 71
     0
 91
        1
 92
        1
 93
        1
 72
     4
 94
        3
 73
     0
 74
     1
 95
       17
 96
       13
 40
0.0
 40
0.0
 40
0.0
 40
0.0
 40
1.0
 40
1.0
 40
1.0
 40
2.0
 40
2.0
 40
2.0
 40
3.0
 40
3.0
 40
3.0
 40
4.0
 40
4.0
 40
4.0
 40
4.0
 10
92.72887124540051
 20
-141.5355380201719
 10
92.55110652771344
 20
-141.7953235756624
 10
92.29202653432313
 20
-141.9269096867405
 10
92.15077431570455
 20
-141.8301074645424
 10
92.0088518193253
 20
-141.7329524645665
 10
92.03848515190262
 20
-141.443568853528
 10
92.21692014735036
 20
-141.1841360758152
 10
92.39472014281431
 20
-140.92473857588
 10
92.65376485842775
 20
-140.7924469092464
 10
92.79501942124543
 20
-140.8896019092222
 10
92.93697485120246
 20
-140.9867569091975
 10
92.90734151862515
 20
-141.2761405202367
 10
92.72887124540051
 20
-141.5355380201719
 97
        0
 97
        0
 75
     2
 76
     1
 98
        0
  0
ENDBLK
  5
8D
330
8A
100
AcDbEntity
  8
0
100
AcDbBlockEnd
  0
BLOCK
  5
94
330
92
100
AcDbEntity
  8
0
100
AcDbBlockBegin
  2
block 4
 70
     0
 10
0.0
 20
0.0
 30
0.0
  3
block 4
  1

  0
SPLINE
  5
96
330
92
100
AcDbEntity
  8
_U+30EC_U+30A4_U+30E4_U+30FC 1
 62
   179
420
  2234388
370
     9
100
AcDbSpline
210
0.0
220
0.0
230
1.0
 70
    11
 71
     3
 72
    17
 73
    13
 74
     0
 42
0.0000000001
 43
0.0000000001
 12
1.0
 22
0.0
 32
0.0
 13
1.0
 23
0.0
 33
0.0
 40
0.0
 40
0.0
 40
0.0
 40
0.0
 40
1.0
 40
1.0
 40
1.0
 40
2.0
 40
2.0
 40
2.0
 40
3.0
 40
3.0
 40
3.0
 40
4.0
 40
4.0
 40
4.0
 40
4.0
 10
93.22014956620029
 20
-138.4728624653821
 30
0.0
 10
92.99553596081955
 20
-138.8011574652999
 30
0.0
 10
92.63446791447561
 20
-138.9451966319302
 30
0.0
 10
92.4153576422878
 20
-138.7946310764126
 30
0.0
 10
92.19557709233932
 20
-138.6440655208943
 30
0.0
 10
92.20041014777158
 20
-138.2558335765474
 30
0.0
 10
92.42502375315232
 20
-137.9278560766291
 30
0.0
 10
92.6503429140706
 20
-137.5995257989332
 30
0.0
 10
93.01067012710011
 20
-137.4551691323026
 30
0.0
 10
93.23048595482548
 20
-137.6057346878209
 30
0.0
 10
93.45026650477396
 20
-137.756264965561
 30
0.0
 10
93.4454687271186
 20
-138.1448849654638
 30
0.0
 10
93.22014956620029
 20
-138.4728624653821
 30
0.0
  0
HATCH
  5
97
330
92
100
AcDbEntity
  8
_U+30EC_U+30A4_U+30E4_U+30FC 1
 62
     7
420
 16711422
100
AcDbHatch
 10
0.0
 20
0.0
 30
0.0
210
0.0
220
0.0
230
1.0
  2
SOLID
 70
     1
 71
     0
 91
        1
 92
        1
 93
        1
 72
     4
 94
        3
 73
     0
 74
     1
 95
       17
 96
       13
 40
0.0
 40
0.0
 40
0.0
 40
0.0
 40
1.0
 40
1.0
 40
1.0
 40
2.0
 40
2.0
 40
2.0
 40
3.0
 40
3.0
 40
3.0
 40
4.0
 40
4.0
 40
4.0
 40
4.0
 10
93.22014956620029
 20
-138.4728624653821
 10
92.99553596081955
 20
-138.8011574652999
 10
92.63446791447561
 20
-138.9451966319302
 10
92.4153576422878
 20
-138.7946310764126
 10
92.19557709233932
 20
-138.6440655208943
 10
92.20041014777158
 20
-138.2558335765474
 10
92.42502375315232
 20
-137.9278560766291
 10
92.6503429140706
 20
-137.5995257989332
 10
93.01067012710011
 20
-137.4551691323026
 10
93.23048595482548
 20
-137.6057346878209
 10
93.45026650477396
 20
-137.756264965561
 10
93.4454687271186
 20
-138.1448849654638
 10
93.22014956620029
 20
-138.4728624653821
 97
        0
 97
        0
 75
     2
 76
     1
 98
        0
  0
SPLINE
  5
98
330
92
100
AcDbEntity
  8
_U+30EC_U+30A4_U+30E4_U+30FC 1
 62
   179
420
  2234388
370
     9
100
AcDbSpline
210
0.0
220
0.0
230
1.0
 70
    11
 71
     3
 72
    17
 73
    13
 74
     0
 42
0.0000000001
 43
0.0000000001
 12
1.0
 22
0.0
 32
0.0
 13
1.0
 23
0.0
 33
0.0
 40
0.0
 40
0.0
 40
0.0
 40
0.0
 40
1.0
 40
1.0
 40
1.0
 40
2.0
 40
2.0
 40
2.0
 40
3.0
 40
3.0
 40
3.0
 40
4.0
 40
4.0
 40
4.0
 40
4.0
 10
92.93489346236667
 20
-138.301624132091
 30
0.0
 10
92.7571287446796
 20
-138.5614096875816
 30
0.0
 10
92.49804875128929
 20
-138.6929957986603
 30
0.0
 10
92.35612625491004
 20
-138.5961935764622
 30
0.0
 10
92.21487403629146
 20
-138.4990385764863
 30
0.0
 10
92.24450736886878
 20
-138.2096549654478
 30
0.0
 10
92.42227208655585
 20
-137.950222187735
 30
0.0
 10
92.60003680424292
 20
-137.6908246877997
 30
0.0
 10
92.85978707539391
 20
-137.5585330211661
 30
0.0
 10
93.00104164341641
 20
-137.6556880211414
 30
0.0
 10
93.14296179039174
 20
-137.7528430211172
 30
0.0
 10
93.11336373559129
 20
-138.0422266321564
 30
0.0
 10
92.93489346236667
 20
-138.301624132091
 30
0.0
  0
HATCH
  5
99
330
92
100
AcDbEntity
  8
_U+30EC_U+30A4_U+30E4_U+30FC 1
 62
     7
420
 16711422
100
AcDbHatch
 10
0.0
 20
0.0
 30
0.0
210
0.0
220
0.0
230
1.0
  2
SOLID
 70
     1
 71
     0
 91
        1
 92
        1
 93
        1
 72
     4
 94
        3
 73
     0
 74
     1
 95
       17
 96
       13
 40
0.0
 40
0.0
 40
0.0
 40
0.0
 40
1.0
 40
1.0
 40
1.0
 40
2.0
 40
2.0
 40
2.0
 40
3.0
 40
3.0
 40
3.0
 40
4.0
 40
4.0
 40
4.0
 40
4.0
 10
92.93489346236667
 20
-138.301624132091
 10
92.7571287446796
 20
-138.5614096875816
 10
92.49804875128929
 20
-138.6929957986603
 10
92.35612625491004
 20
-138.5961935764622
 10
92.21487403629146
 20
-138.4990385764863
 10
92.24450736886878
 20
-138.2096549654478
 10
92.42227208655585
 20
-137.950222187735
 10
92.60003680424292
 20
-137.6908246877997
 10
92.85978707539391
 20
-137.5585330211661
 10
93.00104164341641
 20
-137.6556880211414
 10
93.14296179039174
 20
-137.7528430211172
 10
93.11336373559129
 20
-138.0422266321564
 10
92.93489346236667
 20
-138.301624132091
 97
        0
 97
        0
 75
     2
 76
     1
 98
        0
  0
ENDBLK
  5
95
330
92
100
AcDbEntity
  8
0
100
AcDbBlockEnd
  0
BLOCK
  5
D7
330
D5
100
AcDbEntity
  8
0
100
AcDbBlockBegin
  2
block 5
 70
     0
 10
0.0
 20
0.0
 30
0.0
  3
block 5
  1

  0
SPLINE
  5
D9
330
D5
100
AcDbEntity
  8
_U+30EC_U+30A4_U+30E4_U+30FC 1
370
     0
100
AcDbSpline
210
0.0
220
0.0
230
1.0
 70
    11
 71
     3
 72
    44
 73
    40
 74
     0
 42
0.0000000001
 43
0.0000000001
 12
1.0
 22
0.0
 32
0.0
 13
1.0
 23
0.0
 33
0.0
 40
0.0
 40
0.0
 40
0.0
 40
0.0
 40
1.0
 40
1.0
 40
1.0
 40
2.0
 40
2.0
 40
2.0
 40
3.0
 40
3.0
 40
3.0
 40
4.0
 40
4.0
 40
4.0
 40
5.0
 40
5.0
 40
5.0
 40
6.0
 40
6.0
 40
6.0
 40
7.0
 40
7.0
 40
7.0
 40
8.0
 40
8.0
 40
8.0
 40
9.0
 40
9.0
 40
9.0
 40
10.0
 40
10.0
 40
10.0
 40
11.0
 40
11.0
 40
11.0
 40
12.0
 40
12.0
 40
12.0
 40
13.0
 40
13.0
 40
13.0
 40
13.0
 10
97.6023111735161
 20
-114.175287514859
 30
0.0
 10
97.3335937256666
 20
-114.1553059610445
 30
0.0
 10
97.21439342187696
 20
-114.1515163560107
 30
0.0
 10
97.08416881253451
 20
-114.2297200235259
 30
0.0
 10
97.08416881253451
 20
-114.2297200235259
 30
0.0
 10
97.67810327419159
 20
-114.7333929834694
 30
0.0
 10
97.67810327419159
 20
-114.7333929834694
 30
0.0
 10
97.67810327419159
 20
-114.7333929834694
 30
0.0
 10
97.545811607558
 20
-114.8898003184998
 30
0.0
 10
97.545811607558
 20
-114.8898003184998
 30
0.0
 10
97.545811607558
 20
-114.8898003184998
 30
0.0
 10
96.76170787511514
 20
-114.2248968898466
 30
0.0
 10
96.76170787511514
 20
-114.2248968898466
 30
0.0
 10
97.01664494102361
 20
-113.9727159003263
 30
0.0
 10
97.11724172919291
 20
-113.9554904229
 30
0.0
 10
97.60437823080724
 20
-113.9768500149086
 30
0.0
 10
97.92752818732367
 20
-113.9909749063981
 30
0.0
 10
98.02123478452248
 20
-113.9816731485879
 30
0.0
 10
98.11011824804191
 20
-113.8765977362878
 30
0.0
 10
98.18728838691152
 20
-113.7863362345743
 30
0.0
 10
98.21691620808467
 20
-113.6399196764511
 30
0.0
 10
98.06671004492777
 20
-113.5124511434969
 30
0.0
 10
97.86827254497739
 20
-113.3443304838167
 30
0.0
 10
97.71255422904409
 20
-113.514518200788
 30
0.0
 10
97.63469507107745
 20
-113.6006455879193
 30
0.0
 10
97.63469507107745
 20
-113.6006455879193
 30
0.0
 10
97.46381833500905
 20
-113.4556070679903
 30
0.0
 10
97.46381833500905
 20
-113.4556070679903
 30
0.0
 10
97.55201277943145
 20
-113.3643120376312
 30
0.0
 10
97.63262801378629
 20
-113.2857638605675
 30
0.0
 10
97.77043183319628
 20
-113.2471787911327
 30
0.0
 10
97.95853404669093
 20
-113.1958468684024
 30
0.0
 10
98.12252059178881
 20
-113.2905869942468
 30
0.0
 10
98.21071503621121
 20
-113.3656900758253
 30
0.0
 10
98.42224389900555
 20
-113.5448350410582
 30
0.0
 10
98.4615179875374
 20
-113.8194091512326
 30
0.0
 10
98.28512909869261
 20
-114.0274929185417
 30
0.0
 10
98.13767901192392
 20
-114.2018147500954
 30
0.0
 10
97.98402775328178
 20
-114.2021592596439
 30
0.0
 10
97.6023111735161
 20
-114.175287514859
 30
0.0
  0
HATCH
  5
DA
330
D5
100
AcDbEntity
  8
_U+30EC_U+30A4_U+30E4_U+30FC 1
 62
   179
420
  2234388
100
AcDbHatch
 10
0.0
 20
0.0
 30
0.0
210
0.0
220
0.0
230
1.0
  2
SOLID
 70
     1
 71
     0
 91
        1
 92
        1
 93
        1
 72
     4
 94
        3
 73
     0
 74
     1
 95
       44
 96
       40
 40
0.0
 40
0.0
 40
0.0
 40
0.0
 40
1.0
 40
1.0
 40
1.0
 40
2.0
 40
2.0
 40
2.0
 40
3.0
 40
3.0
 40
3.0
 40
4.0
 40
4.0
 40
4.0
 40
5.0
 40
5.0
 40
5.0
 40
6.0
 40
6.0
 40
6.0
 40
7.0
 40
7.0
 40
7.0
 40
8.0
 40
8.0
 40
8.0
 40
9.0
 40
9.0
 40
9.0
 40
10.0
 40
10.0
 40
10.0
 40
11.0
 40
11.0
 40
11.0
 40
12.0
 40
12.0
 40
12.0
 40
13.0
 40
13.0
 40
13.0
 40
13.0
 10
97.6023111735161
 20
-114.175287514859
 10
97.3335937256666
 20
-114.1553059610445
 10
97.21439342187696
 20
-114.1515163560107
 10
97.08416881253451
 20
-114.2297200235259
 10
97.08416881253451
 20
-114.2297200235259
 10
97.67810327419159
 20
-114.7333929834694
 10
97.67810327419159
 20
-114.7333929834694
 10
97.67810327419159
 20
-114.7333929834694
 10
97.545811607558
 20
-114.8898003184998
 10
97.545811607558
 20
-114.8898003184998
 10
97.545811607558
 20
-114.8898003184998
 10
96.76170787511514
 20
-114.2248968898466
 10
96.76170787511514
 20
-114.2248968898466
 10
97.01664494102361
 20
-113.9727159003263
 10
97.11724172919291
 20
-113.9554904229
 10
97.60437823080724
 20
-113.9768500149086
 10
97.92752818732367
 20
-113.9909749063981
 10
98.02123478452248
 20
-113.9816731485879
 10
98.11011824804191
 20
-113.8765977362878
 10
98.18728838691152
 20
-113.7863362345743
 10
98.21691620808467
 20
-113.6399196764511
 10
98.06671004492777
 20
-113.5124511434969
 10
97.86827254497739
 20
-113.3443304838167
 10
97.71255422904409
 20
-113.514518200788
 10
97.63469507107745
 20
-113.6006455879193
 10
97.63469507107745
 20
-113.6006455879193
 10
97.46381833500905
 20
-113.4556070679903
 10
97.46381833500905
 20
-113.4556070679903
 10
97.55201277943145
 20
-113.3643120376312
 10
97.63262801378629
 20
-113.2857638605675
 10
97.77043183319628
 20
-113.2471787911327
 10
97.95853404669093
 20
-113.1958468684024
 10
98.12252059178881
 20
-113.2905869942468
 10
98.21071503621121
 20
-113.3656900758253
 10
98.42224389900555
 20
-113.5448350410582
 10
98.4615179875374
 20
-113.8194091512326
 10
98.28512909869261
 20
-114.0274929185417
 10
98.13767901192392
 20
-114.2018147500954
 10
97.98402775328178
 20
-114.2021592596439
 10
97.6023111735161
 20
-114.175287514859
 97
        0
 97
        0
 75
     2
 76
     1
 98
        0
  0
SPLINE
  5
DB
330
D5
100
AcDbEntity
  8
_U+30EC_U+30A4_U+30E4_U+30FC 1
370
     0
100
AcDbSpline
210
0.0
220
0.0
230
1.0
 70
    11
 71
     3
 72
    53
 73
    49
 74
     0
 42
0.0000000001
 43
0.0000000001
 12
1.0
 22
0.0
 32
0.0
 13
1.0
 23
0.0
 33
0.0
 40
0.0
 40
0.0
 40
0.0
 40
0.0
 40
1.0
 40
1.0
 40
1.0
 40
2.0
 40
2.0
 40
2.0
 40
3.0
 40
3.0
 40
3.0
 40
4.0
 40
4.0
 40
4.0
 40
5.0
 40
5.0
 40
5.0
 40
6.0
 40
6.0
 40
6.0
 40
7.0
 40
7.0
 40
7.0
 40
8.0
 40
8.0
 40
8.0
 40
9.0
 40
9.0
 40
9.0
 40
10.0
 40
10.0
 40
10.0
 40
11.0
 40
11.0
 40
11.0
 40
12.0
 40
12.0
 40
12.0
 40
13.0
 40
13.0
 40
13.0
 40
14.0
 40
14.0
 40
14.0
 40
15.0
 40
15.0
 40
15.0
 40
16.0
 40
16.0
 40
16.0
 40
16.0
 10
98.00538734529033
 20
-115.3462754702954
 30
0.0
 10
97.94613170294403
 20
-115.2956325666622
 30
0.0
 10
97.87929685053018
 20
-115.2170843895985
 30
0.0
 10
97.84277883838654
 20
-115.1030517290367
 30
0.0
 10
97.78145613874908
 20
-114.907025795926
 30
0.0
 10
97.85035804845408
 20
-114.7933376449128
 30
0.0
 10
97.90547957621808
 20
-114.6985975190684
 30
0.0
 10
97.90547957621808
 20
-114.6985975190684
 30
0.0
 10
98.07497827409237
 20
-114.8422580008033
 30
0.0
 10
98.07497827409237
 20
-114.8422580008033
 30
0.0
 10
97.98816186786408
 20
-115.0293266856524
 30
0.0
 10
98.06602102583072
 20
-115.1344020979525
 30
0.0
 10
98.13698999282687
 20
-115.1943467593959
 30
0.0
 10
98.24309893377256
 20
-115.2846082611094
 30
0.0
 10
98.42362193719966
 20
-115.3070013817635
 30
0.0
 10
98.57382810035655
 20
-115.1295789642732
 30
0.0
 10
98.73988170274559
 20
-114.934586559808
 30
0.0
 10
98.6475531437409
 20
-114.7647433523852
 30
0.0
 10
98.55591360383325
 20
-114.6868841944186
 30
0.0
 10
98.5317979354365
 20
-114.6662136215071
 30
0.0
 10
98.42362193719966
 20
-114.5749185911479
 30
0.0
 10
98.27272675494571
 20
-114.6159152274224
 30
0.0
 10
98.27272675494571
 20
-114.6159152274224
 30
0.0
 10
98.15077037476787
 20
-114.4877576753711
 30
0.0
 10
98.15077037476787
 20
-114.4877576753711
 30
0.0
 10
98.15077037476787
 20
-114.4877576753711
 30
0.0
 10
98.79018009683024
 20
-113.9203504489505
 30
0.0
 10
98.79018009683024
 20
-113.9203504489505
 30
0.0
 10
98.79018009683024
 20
-113.9203504489505
 30
0.0
 10
99.38411455848731
 20
-114.4236788993455
 30
0.0
 10
99.38411455848731
 20
-114.4236788993455
 30
0.0
 10
99.38411455848731
 20
-114.4236788993455
 30
0.0
 10
99.25802406372716
 20
-114.5721625147597
 30
0.0
 10
99.25802406372716
 20
-114.5721625147597
 30
0.0
 10
99.25802406372716
 20
-114.5721625147597
 30
0.0
 10
98.78880205863614
 20
-114.1739094766649
 30
0.0
 10
98.78880205863614
 20
-114.1739094766649
 30
0.0
 10
98.78880205863614
 20
-114.1739094766649
 30
0.0
 10
98.46496308302265
 20
-114.4543402491642
 30
0.0
 10
98.46496308302265
 20
-114.4543402491642
 30
0.0
 10
98.5331759736306
 20
-114.4684651406537
 30
0.0
 10
98.62205943715004
 20
-114.4908582613078
 30
0.0
 10
98.71232093886358
 20
-114.5676838906289
 30
0.0
 10
98.90593530513463
 20
-114.7316704357268
 30
0.0
 10
98.96656898567502
 20
-115.0269151188127
 30
0.0
 10
98.76399737114234
 20
-115.2660047454891
 30
0.0
 10
98.55866968022144
 20
-115.5078504485536
 30
0.0
 10
98.23620874280206
 20
-115.5419568938576
 30
0.0
 10
98.00538734529033
 20
-115.3462754702954
 30
0.0
  0
HATCH
  5
DC
330
D5
100
AcDbEntity
  8
_U+30EC_U+30A4_U+30E4_U+30FC 1
 62
   179
420
  2234388
100
AcDbHatch
 10
0.0
 20
0.0
 30
0.0
210
0.0
220
0.0
230
1.0
  2
SOLID
 70
     1
 71
     0
 91
        1
 92
        1
 93
        1
 72
     4
 94
        3
 73
     0
 74
     1
 95
       53
 96
       49
 40
0.0
 40
0.0
 40
0.0
 40
0.0
 40
1.0
 40
1.0
 40
1.0
 40
2.0
 40
2.0
 40
2.0
 40
3.0
 40
3.0
 40
3.0
 40
4.0
 40
4.0
 40
4.0
 40
5.0
 40
5.0
 40
5.0
 40
6.0
 40
6.0
 40
6.0
 40
7.0
 40
7.0
 40
7.0
 40
8.0
 40
8.0
 40
8.0
 40
9.0
 40
9.0
 40
9.0
 40
10.0
 40
10.0
 40
10.0
 40
11.0
 40
11.0
 40
11.0
 40
12.0
 40
12.0
 40
12.0
 40
13.0
 40
13.0
 40
13.0
 40
14.0
 40
14.0
 40
14.0
 40
15.0
 40
15.0
 40
15.0
 40
16.0
 40
16.0
 40
16.0
 40
16.0
 10
98.00538734529033
 20
-115.3462754702954
 10
97.94613170294403
 20
-115.2956325666622
 10
97.87929685053018
 20
-115.2170843895985
 10
97.84277883838654
 20
-115.1030517290367
 10
97.78145613874908
 20
-114.907025795926
 10
97.85035804845408
 20
-114.7933376449128
 10
97.90547957621808
 20
-114.6985975190684
 10
97.90547957621808
 20
-114.6985975190684
 10
98.07497827409237
 20
-114.8422580008033
 10
98.07497827409237
 20
-114.8422580008033
 10
97.98816186786408
 20
-115.0293266856524
 10
98.06602102583072
 20
-115.1344020979525
 10
98.13698999282687
 20
-115.1943467593959
 10
98.24309893377256
 20
-115.2846082611094
 10
98.42362193719966
 20
-115.3070013817635
 10
98.57382810035655
 20
-115.1295789642732
 10
98.73988170274559
 20
-114.934586559808
 10
98.6475531437409
 20
-114.7647433523852
 10
98.55591360383325
 20
-114.6868841944186
 10
98.5317979354365
 20
-114.6662136215071
 10
98.42362193719966
 20
-114.5749185911479
 10
98.27272675494571
 20
-114.6159152274224
 10
98.27272675494571
 20
-114.6159152274224
 10
98.15077037476787
 20
-114.4877576753711
 10
98.15077037476787
 20
-114.4877576753711
 10
98.15077037476787
 20
-114.4877576753711
 10
98.79018009683024
 20
-113.9203504489505
 10
98.79018009683024
 20
-113.9203504489505
 10
98.79018009683024
 20
-113.9203504489505
 10
99.38411455848731
 20
-114.4236788993455
 10
99.38411455848731
 20
-114.4236788993455
 10
99.38411455848731
 20
-114.4236788993455
 10
99.25802406372716
 20
-114.5721625147597
 10
99.25802406372716
 20
-114.5721625147597
 10
99.25802406372716
 20
-114.5721625147597
 10
98.78880205863614
 20
-114.1739094766649
 10
98.78880205863614
 20
-114.1739094766649
 10
98.78880205863614
 20
-114.1739094766649
 10
98.46496308302265
 20
-114.4543402491642
 10
98.46496308302265
 20
-114.4543402491642
 10
98.5331759736306
 20
-114.4684651406537
 10
98.62205943715004
 20
-114.4908582613078
 10
98.71232093886358
 20
-114.5676838906289
 10
98.90593530513463
 20
-114.7316704357268
 10
98.96656898567502
 20
-115.0269151188127
 10
98.76399737114234
 20
-115.2660047454891
 10
98.55866968022144
 20
-115.5078504485536
 10
98.23620874280206
 20
-115.5419568938576
 10
98.00538734529033
 20
-115.3462754702954
 97
        0
 97
        0
 75
     2
 76
     1
 98
        0
  0
ENDBLK
  5
D8
330
D5
100
AcDbEntity
  8
0
100
AcDbBlockEnd
  0
BLOCK
  5
DF
330
DD
100
AcDbEntity
  8
0
100
AcDbBlockBegin
  2
block 6
 70
     0
 10
0.0
 20
0.0
 30
0.0
  3
block 6
  1

  0
SPLINE
  5
E1
330
DD
100
AcDbEntity
  8
_U+30EC_U+30A4_U+30E4_U+30FC 1
370
     0
100
AcDbSpline
210
0.0
220
0.0
230
1.0
 70
    11
 71
     3
 72
    44
 73
    40
 74
     0
 42
0.0000000001
 43
0.0000000001
 12
1.0
 22
0.0
 32
0.0
 13
1.0
 23
0.0
 33
0.0
 40
0.0
 40
0.0
 40
0.0
 40
0.0
 40
1.0
 40
1.0
 40
1.0
 40
2.0
 40
2.0
 40
2.0
 40
3.0
 40
3.0
 40
3.0
 40
4.0
 40
4.0
 40
4.0
 40
5.0
 40
5.0
 40
5.0
 40
6.0
 40
6.0
 40
6.0
 40
7.0
 40
7.0
 40
7.0
 40
8.0
 40
8.0
 40
8.0
 40
9.0
 40
9.0
 40
9.0
 40
10.0
 40
10.0
 40
10.0
 40
11.0
 40
11.0
 40
11.0
 40
12.0
 40
12.0
 40
12.0
 40
13.0
 40
13.0
 40
13.0
 40
13.0
 10
85.49348956195996
 20
-114.1704643811796
 30
0.0
 10
85.39857718134134
 20
-114.4228176254742
 30
0.0
 10
85.3615424048749
 20
-114.5358167573904
 30
0.0
 10
85.39995521953543
 20
-114.6827500798363
 30
0.0
 10
85.39995521953543
 20
-114.6827500798363
 30
0.0
 10
86.0503892471506
 20
-114.2548692205682
 30
0.0
 10
86.0503892471506
 20
-114.2548692205682
 30
0.0
 10
86.0503892471506
 20
-114.2548692205682
 30
0.0
 10
86.16304386951828
 20
-114.4264349757337
 30
0.0
 10
86.16304386951828
 20
-114.4264349757337
 30
0.0
 10
86.16304386951828
 20
-114.4264349757337
 30
0.0
 10
85.30400931027123
 20
-114.9912583805404
 30
0.0
 10
85.30400931027123
 20
-114.9912583805404
 30
0.0
 10
85.13416610284841
 20
-114.6751708697687
 30
0.0
 10
85.14587942749826
 20
-114.5737128077281
 30
0.0
 10
85.3036648007227
 20
-114.1129312865759
 30
0.0
 10
85.40822344870003
 20
-113.8061455336144
 30
0.0
 10
85.42596569044906
 20
-113.7136447198355
 30
0.0
 10
85.35034584454783
 20
-113.5987507854024
 30
0.0
 10
85.28523353987661
 20
-113.4997042902015
 30
0.0
 10
85.15311412801728
 20
-113.4295965970766
 30
0.0
 10
84.9886108185966
 20
-113.5377725953135
 30
0.0
 10
84.77122529347734
 20
-113.6807440579513
 30
0.0
 10
84.89094236158977
 20
-113.8779757744819
 30
0.0
 10
84.9514037873559
 20
-113.9775390340056
 30
0.0
 10
84.9514037873559
 20
-113.9775390340056
 30
0.0
 10
84.76399059295831
 20
-114.1008734523776
 30
0.0
 10
84.76399059295831
 20
-114.1008734523776
 30
0.0
 10
84.70128985512676
 20
-113.9901136325268
 30
0.0
 10
84.64857989420244
 20
-113.8905503730031
 30
0.0
 10
84.6506469514936
 20
-113.7474066555909
 30
0.0
 10
84.65409204697885
 20
-113.5527587606743
 30
0.0
 10
84.79103459251752
 20
-113.4220173870091
 30
0.0
 10
84.88835853997583
 20
-113.3581108657577
 30
0.0
 10
85.11986895658463
 20
-113.2058376453097
 30
0.0
 10
85.39427081198477
 20
-113.2458007529385
 30
0.0
 10
85.54413246559314
 20
-113.4736938192878
 30
0.0
 10
85.66970619603049
 20
-113.6645521091707
 30
0.0
 10
85.62715926678766
 20
-113.8116576863908
 30
0.0
 10
85.49348956195996
 20
-114.1704643811796
 30
0.0
  0
HATCH
  5
E2
330
DD
100
AcDbEntity
  8
_U+30EC_U+30A4_U+30E4_U+30FC 1
 62
   179
420
  2234388
100
AcDbHatch
 10
0.0
 20
0.0
 30
0.0
210
0.0
220
0.0
230
1.0
  2
SOLID
 70
     1
 71
     0
 91
        1
 92
        1
 93
        1
 72
     4
 94
        3
 73
     0
 74
     1
 95
       44
 96
       40
 40
0.0
 40
0.0
 40
0.0
 40
0.0
 40
1.0
 40
1.0
 40
1.0
 40
2.0
 40
2.0
 40
2.0
 40
3.0
 40
3.0
 40
3.0
 40
4.0
 40
4.0
 40
4.0
 40
5.0
 40
5.0
 40
5.0
 40
6.0
 40
6.0
 40
6.0
 40
7.0
 40
7.0
 40
7.0
 40
8.0
 40
8.0
 40
8.0
 40
9.0
 40
9.0
 40
9.0
 40
10.0
 40
10.0
 40
10.0
 40
11.0
 40
11.0
 40
11.0
 40
12.0
 40
12.0
 40
12.0
 40
13.0
 40
13.0
 40
13.0
 40
13.0
 10
85.49348956195996
 20
-114.1704643811796
 10
85.39857718134134
 20
-114.4228176254742
 10
85.3615424048749
 20
-114.5358167573904
 10
85.39995521953543
 20
-114.6827500798363
 10
85.39995521953543
 20
-114.6827500798363
 10
86.0503892471506
 20
-114.2548692205682
 10
86.0503892471506
 20
-114.2548692205682
 10
86.0503892471506
 20
-114.2548692205682
 10
86.16304386951828
 20
-114.4264349757337
 10
86.16304386951828
 20
-114.4264349757337
 10
86.16304386951828
 20
-114.4264349757337
 10
85.30400931027123
 20
-114.9912583805404
 10
85.30400931027123
 20
-114.9912583805404
 10
85.13416610284841
 20
-114.6751708697687
 10
85.14587942749826
 20
-114.5737128077281
 10
85.3036648007227
 20
-114.1129312865759
 10
85.40822344870003
 20
-113.8061455336144
 10
85.42596569044906
 20
-113.7136447198355
 10
85.35034584454783
 20
-113.5987507854024
 10
85.28523353987661
 20
-113.4997042902015
 10
85.15311412801728
 20
-113.4295965970766
 10
84.9886108185966
 20
-113.5377725953135
 10
84.77122529347734
 20
-113.6807440579513
 10
84.89094236158977
 20
-113.8779757744819
 10
84.9514037873559
 20
-113.9775390340056
 10
84.9514037873559
 20
-113.9775390340056
 10
84.76399059295831
 20
-114.1008734523776
 10
84.76399059295831
 20
-114.1008734523776
 10
84.70128985512676
 20
-113.9901136325268
 10
84.64857989420244
 20
-113.8905503730031
 10
84.6506469514936
 20
-113.7474066555909
 10
84.65409204697885
 20
-113.5527587606743
 10
84.79103459251752
 20
-113.4220173870091
 10
84.88835853997583
 20
-113.3581108657577
 10
85.11986895658463
 20
-113.2058376453097
 10
85.39427081198477
 20
-113.2458007529385
 10
85.54413246559314
 20
-113.4736938192878
 10
85.66970619603049
 20
-113.6645521091707
 10
85.62715926678766
 20
-113.8116576863908
 10
85.49348956195996
 20
-114.1704643811796
 97
        0
 97
        0
 75
     2
 76
     1
 98
        0
  0
SPLINE
  5
E3
330
DD
100
AcDbEntity
  8
_U+30EC_U+30A4_U+30E4_U+30FC 1
370
     0
100
AcDbSpline
210
0.0
220
0.0
230
1.0
 70
    11
 71
     3
 72
    29
 73
    25
 74
     0
 42
0.0000000001
 43
0.0000000001
 12
1.0
 22
0.0
 32
0.0
 13
1.0
 23
0.0
 33
0.0
 40
0.0
 40
0.0
 40
0.0
 40
0.0
 40
1.0
 40
1.0
 40
1.0
 40
2.0
 40
2.0
 40
2.0
 40
3.0
 40
3.0
 40
3.0
 40
4.0
 40
4.0
 40
4.0
 40
5.0
 40
5.0
 40
5.0
 40
6.0
 40
6.0
 40
6.0
 40
7.0
 40
7.0
 40
7.0
 40
8.0
 40
8.0
 40
8.0
 40
8.0
 10
86.95334877383458
 20
-113.6940076755696
 30
0.0
 10
86.97815346132838
 20
-113.9282741685665
 30
0.0
 10
86.84379473740364
 20
-114.0395507527401
 30
0.0
 10
86.74647078994533
 20
-114.1034572739915
 30
0.0
 10
86.61228432079486
 20
-114.1918239731882
 30
0.0
 10
86.4682793295114
 20
-114.2307535521715
 30
0.0
 10
86.28861759995563
 20
-114.1310180378735
 30
0.0
 10
86.09517548845885
 20
-114.0254258612506
 30
0.0
 10
85.94910343988425
 20
-113.838012666853
 30
0.0
 10
85.85953095726776
 20
-113.7017591404114
 30
0.0
 10
85.78046601588127
 20
-113.5816975627504
 30
0.0
 10
85.65627032363803
 20
-113.3620727255657
 30
0.0
 10
85.63542749595226
 20
-113.137797009476
 30
0.0
 10
85.61389564916945
 20
-112.9086981597069
 30
0.0
 10
85.73550751979876
 20
-112.8010389257928
 30
0.0
 10
85.84333900848709
 20
-112.7300699587966
 30
0.0
 10
85.97580292989494
 20
-112.6429090430198
 30
0.0
 10
86.12049694027543
 20
-112.6008788780998
 30
0.0
 10
86.29998641505695
 20
-112.7006143923978
 30
0.0
 10
86.48877764764865
 20
-112.8068955881177
 30
0.0
 10
86.63381616757766
 20
-112.9850070247051
 30
0.0
 10
86.72907305774481
 20
-113.1298732898599
 30
0.0
 10
86.8232964192664
 20
-113.273017007272
 30
0.0
 10
86.93233369137457
 20
-113.4773111695473
 30
0.0
 10
86.95334877383458
 20
-113.6940076755696
 30
0.0
  0
SPLINE
  5
E4
330
DD
100
AcDbEntity
  8
_U+30EC_U+30A4_U+30E4_U+30FC 1
370
     0
100
AcDbSpline
210
0.0
220
0.0
230
1.0
 70
    11
 71
     3
 72
    17
 73
    13
 74
     0
 42
0.0000000001
 43
0.0000000001
 12
1.0
 22
0.0
 32
0.0
 13
1.0
 23
0.0
 33
0.0
 40
0.0
 40
0.0
 40
0.0
 40
0.0
 40
1.0
 40
1.0
 40
1.0
 40
2.0
 40
2.0
 40
2.0
 40
3.0
 40
3.0
 40
3.0
 40
4.0
 40
4.0
 40
4.0
 40
4.0
 10
85.94910343988425
 20
-112.8909559179578
 30
0.0
 10
85.74050290825238
 20
-113.0280707182708
 30
0.0
 10
85.85746389997661
 20
-113.2905869942468
 30
0.0
 10
86.04694415166536
 20
-113.5785969768137
 30
0.0
 10
86.22247176663883
 20
-113.8454196221463
 30
0.0
 10
86.42211505000905
 20
-114.0838202297256
 30
0.0
 10
86.63967282990258
 20
-113.9408487670877
 30
0.0
 10
86.84637855901758
 20
-113.8047674954203
 30
0.0
 10
86.7323458984558
 20
-113.5429402385413
 30
0.0
 10
86.54183211812149
 20
-113.2530354534576
 30
0.0
 10
86.36630450314802
 20
-112.986212808125
 30
0.0
 10
86.16476641726089
 20
-112.7490179839655
 30
0.0
 10
85.94910343988425
 20
-112.8909559179578
 30
0.0
  0
HATCH
  5
E5
330
DD
100
AcDbEntity
  8
_U+30EC_U+30A4_U+30E4_U+30FC 1
 62
   179
420
  2234388
100
AcDbHatch
 10
0.0
 20
0.0
 30
0.0
210
0.0
220
0.0
230
1.0
  2
SOLID
 70
     1
 71
     0
 91
        2
 92
        1
 93
        1
 72
     4
 94
        3
 73
     0
 74
     1
 95
       29
 96
       25
 40
0.0
 40
0.0
 40
0.0
 40
0.0
 40
1.0
 40
1.0
 40
1.0
 40
2.0
 40
2.0
 40
2.0
 40
3.0
 40
3.0
 40
3.0
 40
4.0
 40
4.0
 40
4.0
 40
5.0
 40
5.0
 40
5.0
 40
6.0
 40
6.0
 40
6.0
 40
7.0
 40
7.0
 40
7.0
 40
8.0
 40
8.0
 40
8.0
 40
8.0
 10
86.95334877383458
 20
-113.6940076755696
 10
86.97815346132838
 20
-113.9282741685665
 10
86.84379473740364
 20
-114.0395507527401
 10
86.74647078994533
 20
-114.1034572739915
 10
86.61228432079486
 20
-114.1918239731882
 10
86.4682793295114
 20
-114.2307535521715
 10
86.28861759995563
 20
-114.1310180378735
 10
86.09517548845885
 20
-114.0254258612506
 10
85.94910343988425
 20
-113.838012666853
 10
85.85953095726776
 20
-113.7017591404114
 10
85.78046601588127
 20
-113.5816975627504
 10
85.65627032363803
 20
-113.3620727255657
 10
85.63542749595226
 20
-113.137797009476
 10
85.61389564916945
 20
-112.9086981597069
 10
85.73550751979876
 20
-112.8010389257928
 10
85.84333900848709
 20
-112.7300699587966
 10
85.97580292989494
 20
-112.6429090430198
 10
86.12049694027543
 20
-112.6008788780998
 10
86.29998641505695
 20
-112.7006143923978
 10
86.48877764764865
 20
-112.8068955881177
 10
86.63381616757766
 20
-112.9850070247051
 10
86.72907305774481
 20
-113.1298732898599
 10
86.8232964192664
 20
-113.273017007272
 10
86.93233369137457
 20
-113.4773111695473
 10
86.95334877383458
 20
-113.6940076755696
 97
        0
 97
        0
 92
        1
 93
        1
 72
     4
 94
        3
 73
     0
 74
     1
 95
       17
 96
       13
 40
0.0
 40
0.0
 40
0.0
 40
0.0
 40
1.0
 40
1.0
 40
1.0
 40
2.0
 40
2.0
 40
2.0
 40
3.0
 40
3.0
 40
3.0
 40
4.0
 40
4.0
 40
4.0
 40
4.0
 10
85.94910343988425
 20
-112.8909559179578
 10
85.74050290825238
 20
-113.0280707182708
 10
85.85746389997661
 20
-113.2905869942468
 10
86.04694415166536
 20
-113.5785969768137
 10
86.22247176663883
 20
-113.8454196221463
 10
86.42211505000905
 20
-114.0838202297256
 10
86.63967282990258
 20
-113.9408487670877
 10
86.84637855901758
 20
-113.8047674954203
 10
86.7323458984558
 20
-113.5429402385413
 10
86.54183211812149
 20
-113.2530354534576
 10
86.36630450314802
 20
-112.986212808125
 10
86.16476641726089
 20
-112.7490179839655
 10
85.94910343988425
 20
-112.8909559179578
 97
        0
 97
        0
 75
     2
 76
     1
 98
        0
  0
ENDBLK
  5
E0
330
DD
100
AcDbEntity
  8
0
100
AcDbBlockEnd
  0
BLOCK
  5
E8
330
E6
100
AcDbEntity
  8
0
100
AcDbBlockBegin
  2
block 7
 70
     0
 10
0.0
 20
0.0
 30
0.0
  3
block 7
  1

  0
SPLINE
  5
EA
330
E6
100
AcDbEntity
  8
_U+30EC_U+30A4_U+30E4_U+30FC 1
370
     0
100
AcDbSpline
210
0.0
220
0.0
230
1.0
 70
    11
 71
     3
 72
    26
 73
    22
 74
     0
 42
0.0000000001
 43
0.0000000001
 12
1.0
 22
0.0
 32
0.0
 13
1.0
 23
0.0
 33
0.0
 40
0.0
 40
0.0
 40
0.0
 40
0.0
 40
1.0
 40
1.0
 40
1.0
 40
2.0
 40
2.0
 40
2.0
 40
3.0
 40
3.0
 40
3.0
 40
4.0
 40
4.0
 40
4.0
 40
5.0
 40
5.0
 40
5.0
 40
6.0
 40
6.0
 40
6.0
 40
7.0
 40
7.0
 40
7.0
 40
7.0
 10
82.05321721038948
 20
-129.1208007489698
 30
0.0
 10
82.05321721038948
 20
-129.1208007489698
 30
0.0
 10
82.05321721038948
 20
-128.016475391173
 30
0.0
 10
82.05321721038948
 20
-128.016475391173
 30
0.0
 10
82.05321721038948
 20
-128.016475391173
 30
0.0
 10
81.72317706290254
 20
-128.016475391173
 30
0.0
 10
81.72317706290254
 20
-128.016475391173
 30
0.0
 10
81.72317706290254
 20
-128.016475391173
 30
0.0
 10
81.72317706290254
 20
-127.8685085400815
 30
0.0
 10
81.72317706290254
 20
-127.8685085400815
 30
0.0
 10
82.05528426768063
 20
-127.8536946294949
 30
0.0
 10
82.1017930567315
 20
-127.6907416130426
 30
0.0
 10
82.13142087790465
 20
-127.5765366977066
 30
0.0
 10
82.13142087790465
 20
-127.5765366977066
 30
0.0
 10
82.27749292647924
 20
-127.5765366977066
 30
0.0
 10
82.27749292647924
 20
-127.5765366977066
 30
0.0
 10
82.27749292647924
 20
-127.5765366977066
 30
0.0
 10
82.27749292647924
 20
-129.1208007489698
 30
0.0
 10
82.27749292647924
 20
-129.1208007489698
 30
0.0
 10
82.27749292647924
 20
-129.1208007489698
 30
0.0
 10
82.05321721038948
 20
-129.1208007489698
 30
0.0
 10
82.05321721038948
 20
-129.1208007489698
 30
0.0
  0
HATCH
  5
EB
330
E6
100
AcDbEntity
  8
_U+30EC_U+30A4_U+30E4_U+30FC 1
 62
   179
420
  2234388
100
AcDbHatch
 10
0.0
 20
0.0
 30
0.0
210
0.0
220
0.0
230
1.0
  2
SOLID
 70
     1
 71
     0
 91
        1
 92
        1
 93
        1
 72
     4
 94
        3
 73
     0
 74
     1
 95
       26
 96
       22
 40
0.0
 40
0.0
 40
0.0
 40
0.0
 40
1.0
 40
1.0
 40
1.0
 40
2.0
 40
2.0
 40
2.0
 40
3.0
 40
3.0
 40
3.0
 40
4.0
 40
4.0
 40
4.0
 40
5.0
 40
5.0
 40
5.0
 40
6.0
 40
6.0
 40
6.0
 40
7.0
 40
7.0
 40
7.0
 40
7.0
 10
82.05321721038948
 20
-129.1208007489698
 10
82.05321721038948
 20
-129.1208007489698
 10
82.05321721038948
 20
-128.016475391173
 10
82.05321721038948
 20
-128.016475391173
 10
82.05321721038948
 20
-128.016475391173
 10
81.72317706290254
 20
-128.016475391173
 10
81.72317706290254
 20
-128.016475391173
 10
81.72317706290254
 20
-128.016475391173
 10
81.72317706290254
 20
-127.8685085400815
 10
81.72317706290254
 20
-127.8685085400815
 10
82.05528426768063
 20
-127.8536946294949
 10
82.1017930567315
 20
-127.6907416130426
 10
82.13142087790465
 20
-127.5765366977066
 10
82.13142087790465
 20
-127.5765366977066
 10
82.27749292647924
 20
-127.5765366977066
 10
82.27749292647924
 20
-127.5765366977066
 10
82.27749292647924
 20
-127.5765366977066
 10
82.27749292647924
 20
-129.1208007489698
 10
82.27749292647924
 20
-129.1208007489698
 10
82.27749292647924
 20
-129.1208007489698
 10
82.05321721038948
 20
-129.1208007489698
 10
82.05321721038948
 20
-129.1208007489698
 97
        0
 97
        0
 75
     2
 76
     1
 98
        0
  0
SPLINE
  5
EC
330
E6
100
AcDbEntity
  8
_U+30EC_U+30A4_U+30E4_U+30FC 1
370
     0
100
AcDbSpline
210
0.0
220
0.0
230
1.0
 70
    11
 71
     3
 72
    29
 73
    25
 74
     0
 42
0.0000000001
 43
0.0000000001
 12
1.0
 22
0.0
 32
0.0
 13
1.0
 23
0.0
 33
0.0
 40
0.0
 40
0.0
 40
0.0
 40
0.0
 40
1.0
 40
1.0
 40
1.0
 40
2.0
 40
2.0
 40
2.0
 40
3.0
 40
3.0
 40
3.0
 40
4.0
 40
4.0
 40
4.0
 40
5.0
 40
5.0
 40
5.0
 40
6.0
 40
6.0
 40
6.0
 40
7.0
 40
7.0
 40
7.0
 40
8.0
 40
8.0
 40
8.0
 40
8.0
 10
83.67637394826494
 20
-128.9430338219309
 30
0.0
 10
83.56854245957662
 20
-129.1524956274341
 30
0.0
 10
83.39508190189429
 20
-129.171443652603
 30
0.0
 10
83.27863767449284
 20
-129.171443652603
 30
0.0
 10
83.11792397010593
 20
-129.171443652603
 30
0.0
 10
82.97615829088791
 20
-129.1249348635521
 30
0.0
 10
82.88090140072075
 20
-128.9430338219309
 30
0.0
 10
82.777376281389
 20
-128.7483859270143
 30
0.0
 10
82.75825600144586
 20
-128.5115356124034
 30
0.0
 10
82.75825600144586
 20
-128.3485825959511
 30
0.0
 10
82.75825600144586
 20
-128.2047498594419
 30
0.0
 10
82.77513696932358
 20
-127.9530856342444
 30
0.0
 10
82.88090140072075
 20
-127.7541313699712
 30
0.0
 10
82.98890514418333
 20
-127.5510429911157
 30
0.0
 10
83.14961884857024
 20
-127.5277885965903
 30
0.0
 10
83.27863767449284
 20
-127.5277885965903
 30
0.0
 10
83.4372843215886
 20
-127.5277885965903
 30
0.0
 10
83.58128931287204
 20
-127.57223032835
 30
0.0
 10
83.67637394826494
 20
-127.7541313699712
 30
0.0
 10
83.7757649530144
 20
-127.9467122075967
 30
0.0
 10
83.7991916023141
 20
-128.1751220382687
 30
0.0
 10
83.7991916023141
 20
-128.3485825959511
 30
0.0
 10
83.7991916023141
 20
-128.5199760963422
 30
0.0
 10
83.77800426507982
 20
-128.7506252390797
 30
0.0
 10
83.67637394826494
 20
-128.9430338219309
 30
0.0
  0
SPLINE
  5
ED
330
E6
100
AcDbEntity
  8
_U+30EC_U+30A4_U+30E4_U+30FC 1
370
     0
100
AcDbSpline
210
0.0
220
0.0
230
1.0
 70
    11
 71
     3
 72
    17
 73
    13
 74
     0
 42
0.0000000001
 43
0.0000000001
 12
1.0
 22
0.0
 32
0.0
 13
1.0
 23
0.0
 33
0.0
 40
0.0
 40
0.0
 40
0.0
 40
0.0
 40
1.0
 40
1.0
 40
1.0
 40
2.0
 40
2.0
 40
2.0
 40
3.0
 40
3.0
 40
3.0
 40
4.0
 40
4.0
 40
4.0
 40
4.0
 10
83.27863767449284
 20
-127.7203694342157
 30
0.0
 10
83.0290405065865
 20
-127.7203694342157
 30
0.0
 10
82.98253171753562
 20
-128.0039007926518
 30
0.0
 10
82.98253171753562
 20
-128.3485825959511
 30
0.0
 10
82.98253171753562
 20
-128.668115202208
 30
0.0
 10
83.01853296535648
 20
-128.9767957576864
 30
0.0
 10
83.27863767449284
 20
-128.9767957576864
 30
0.0
 10
83.52616778510804
 20
-128.9767957576864
 30
0.0
 10
83.57491588622433
 20
-128.6955037113157
 30
0.0
 10
83.57491588622433
 20
-128.3485825959511
 30
0.0
 10
83.57491588622433
 20
-128.0292222444684
 30
0.0
 10
83.53684758111233
 20
-127.7203694342157
 30
0.0
 10
83.27863767449284
 20
-127.7203694342157
 30
0.0
  0
HATCH
  5
EE
330
E6
100
AcDbEntity
  8
_U+30EC_U+30A4_U+30E4_U+30FC 1
 62
   179
420
  2234388
100
AcDbHatch
 10
0.0
 20
0.0
 30
0.0
210
0.0
220
0.0
230
1.0
  2
SOLID
 70
     1
 71
     0
 91
        2
 92
        1
 93
        1
 72
     4
 94
        3
 73
     0
 74
     1
 95
       29
 96
       25
 40
0.0
 40
0.0
 40
0.0
 40
0.0
 40
1.0
 40
1.0
 40
1.0
 40
2.0
 40
2.0
 40
2.0
 40
3.0
 40
3.0
 40
3.0
 40
4.0
 40
4.0
 40
4.0
 40
5.0
 40
5.0
 40
5.0
 40
6.0
 40
6.0
 40
6.0
 40
7.0
 40
7.0
 40
7.0
 40
8.0
 40
8.0
 40
8.0
 40
8.0
 10
83.67637394826494
 20
-128.9430338219309
 10
83.56854245957662
 20
-129.1524956274341
 10
83.39508190189429
 20
-129.171443652603
 10
83.27863767449284
 20
-129.171443652603
 10
83.11792397010593
 20
-129.171443652603
 10
82.97615829088791
 20
-129.1249348635521
 10
82.88090140072075
 20
-128.9430338219309
 10
82.777376281389
 20
-128.7483859270143
 10
82.75825600144586
 20
-128.5115356124034
 10
82.75825600144586
 20
-128.3485825959511
 10
82.75825600144586
 20
-128.2047498594419
 10
82.77513696932358
 20
-127.9530856342444
 10
82.88090140072075
 20
-127.7541313699712
 10
82.98890514418333
 20
-127.5510429911157
 10
83.14961884857024
 20
-127.5277885965903
 10
83.27863767449284
 20
-127.5277885965903
 10
83.4372843215886
 20
-127.5277885965903
 10
83.58128931287204
 20
-127.57223032835
 10
83.67637394826494
 20
-127.7541313699712
 10
83.7757649530144
 20
-127.9467122075967
 10
83.7991916023141
 20
-128.1751220382687
 10
83.7991916023141
 20
-128.3485825959511
 10
83.7991916023141
 20
-128.5199760963422
 10
83.77800426507982
 20
-128.7506252390797
 10
83.67637394826494
 20
-128.9430338219309
 97
        0
 97
        0
 92
        1
 93
        1
 72
     4
 94
        3
 73
     0
 74
     1
 95
       17
 96
       13
 40
0.0
 40
0.0
 40
0.0
 40
0.0
 40
1.0
 40
1.0
 40
1.0
 40
2.0
 40
2.0
 40
2.0
 40
3.0
 40
3.0
 40
3.0
 40
4.0
 40
4.0
 40
4.0
 40
4.0
 10
83.27863767449284
 20
-127.7203694342157
 10
83.0290405065865
 20
-127.7203694342157
 10
82.98253171753562
 20
-128.0039007926518
 10
82.98253171753562
 20
-128.3485825959511
 10
82.98253171753562
 20
-128.668115202208
 10
83.01853296535648
 20
-128.9767957576864
 10
83.27863767449284
 20
-128.9767957576864
 10
83.52616778510804
 20
-128.9767957576864
 10
83.57491588622433
 20
-128.6955037113157
 10
83.57491588622433
 20
-128.3485825959511
 10
83.57491588622433
 20
-128.0292222444684
 10
83.53684758111233
 20
-127.7203694342157
 10
83.27863767449284
 20
-127.7203694342157
 97
        0
 97
        0
 75
     2
 76
     1
 98
        0
  0
SPLINE
  5
EF
330
E6
100
AcDbEntity
  8
_U+30EC_U+30A4_U+30E4_U+30FC 1
370
     0
100
AcDbSpline
210
0.0
220
0.0
230
1.0
 70
    11
 71
     3
 72
    29
 73
    25
 74
     0
 42
0.0000000001
 43
0.0000000001
 12
1.0
 22
0.0
 32
0.0
 13
1.0
 23
0.0
 33
0.0
 40
0.0
 40
0.0
 40
0.0
 40
0.0
 40
1.0
 40
1.0
 40
1.0
 40
2.0
 40
2.0
 40
2.0
 40
3.0
 40
3.0
 40
3.0
 40
4.0
 40
4.0
 40
4.0
 40
5.0
 40
5.0
 40
5.0
 40
6.0
 40
6.0
 40
6.0
 40
7.0
 40
7.0
 40
7.0
 40
8.0
 40
8.0
 40
8.0
 40
8.0
 10
84.85321856602629
 20
-128.9430338219309
 30
0.0
 10
84.74538707733797
 20
-129.1524956274341
 30
0.0
 10
84.57192651965563
 20
-129.171443652603
 30
0.0
 10
84.45548229225419
 20
-129.171443652603
 30
0.0
 10
84.29476858786728
 20
-129.171443652603
 30
0.0
 10
84.15300290864926
 20
-129.1249348635521
 30
0.0
 10
84.05791827325636
 20
-128.9430338219309
 30
0.0
 10
83.95422089915034
 20
-128.7483859270143
 30
0.0
 10
83.9351006192072
 20
-128.5115356124034
 30
0.0
 10
83.9351006192072
 20
-128.3485825959511
 30
0.0
 10
83.9351006192072
 20
-128.2047498594419
 30
0.0
 10
83.95215384185919
 20
-127.9530856342444
 30
0.0
 10
84.05791827325636
 20
-127.7541313699712
 30
0.0
 10
84.16574976194468
 20
-127.5510429911157
 30
0.0
 10
84.32646346633159
 20
-127.5277885965903
 30
0.0
 10
84.45548229225419
 20
-127.5277885965903
 30
0.0
 10
84.61430119412421
 20
-127.5277885965903
 30
0.0
 10
84.75813393063339
 20
-127.57223032835
 30
0.0
 10
84.85321856602629
 20
-127.7541313699712
 30
0.0
 10
84.95278182555
 20
-127.9467122075967
 30
0.0
 10
84.97603622007544
 20
-128.1751220382687
 30
0.0
 10
84.97603622007544
 20
-128.3485825959511
 30
0.0
 10
84.97603622007544
 20
-128.5199760963422
 30
0.0
 10
84.95484888284115
 20
-128.7506252390797
 30
0.0
 10
84.85321856602629
 20
-128.9430338219309
 30
0.0
  0
SPLINE
  5
F0
330
E6
100
AcDbEntity
  8
_U+30EC_U+30A4_U+30E4_U+30FC 1
370
     0
100
AcDbSpline
210
0.0
220
0.0
230
1.0
 70
    11
 71
     3
 72
    17
 73
    13
 74
     0
 42
0.0000000001
 43
0.0000000001
 12
1.0
 22
0.0
 32
0.0
 13
1.0
 23
0.0
 33
0.0
 40
0.0
 40
0.0
 40
0.0
 40
0.0
 40
1.0
 40
1.0
 40
1.0
 40
2.0
 40
2.0
 40
2.0
 40
3.0
 40
3.0
 40
3.0
 40
4.0
 40
4.0
 40
4.0
 40
4.0
 10
84.45548229225419
 20
-127.7203694342157
 30
0.0
 10
84.20588512434784
 20
-127.7203694342157
 30
0.0
 10
84.15937633529697
 20
-128.0039007926518
 30
0.0
 10
84.15937633529697
 20
-128.3485825959511
 30
0.0
 10
84.15937633529697
 20
-128.668115202208
 30
0.0
 10
84.19537758311783
 20
-128.9767957576864
 30
0.0
 10
84.45548229225419
 20
-128.9767957576864
 30
0.0
 10
84.70301240286939
 20
-128.9767957576864
 30
0.0
 10
84.75176050398568
 20
-128.6955037113157
 30
0.0
 10
84.75176050398568
 20
-128.3485825959511
 30
0.0
 10
84.75176050398568
 20
-128.0292222444684
 30
0.0
 10
84.71369219887366
 20
-127.7203694342157
 30
0.0
 10
84.45548229225419
 20
-127.7203694342157
 30
0.0
  0
HATCH
  5
F1
330
E6
100
AcDbEntity
  8
_U+30EC_U+30A4_U+30E4_U+30FC 1
 62
   179
420
  2234388
100
AcDbHatch
 10
0.0
 20
0.0
 30
0.0
210
0.0
220
0.0
230
1.0
  2
SOLID
 70
     1
 71
     0
 91
        2
 92
        1
 93
        1
 72
     4
 94
        3
 73
     0
 74
     1
 95
       29
 96
       25
 40
0.0
 40
0.0
 40
0.0
 40
0.0
 40
1.0
 40
1.0
 40
1.0
 40
2.0
 40
2.0
 40
2.0
 40
3.0
 40
3.0
 40
3.0
 40
4.0
 40
4.0
 40
4.0
 40
5.0
 40
5.0
 40
5.0
 40
6.0
 40
6.0
 40
6.0
 40
7.0
 40
7.0
 40
7.0
 40
8.0
 40
8.0
 40
8.0
 40
8.0
 10
84.85321856602629
 20
-128.9430338219309
 10
84.74538707733797
 20
-129.1524956274341
 10
84.57192651965563
 20
-129.171443652603
 10
84.45548229225419
 20
-129.171443652603
 10
84.29476858786728
 20
-129.171443652603
 10
84.15300290864926
 20
-129.1249348635521
 10
84.05791827325636
 20
-128.9430338219309
 10
83.95422089915034
 20
-128.7483859270143
 10
83.9351006192072
 20
-128.5115356124034
 10
83.9351006192072
 20
-128.3485825959511
 10
83.9351006192072
 20
-128.2047498594419
 10
83.95215384185919
 20
-127.9530856342444
 10
84.05791827325636
 20
-127.7541313699712
 10
84.16574976194468
 20
-127.5510429911157
 10
84.32646346633159
 20
-127.5277885965903
 10
84.45548229225419
 20
-127.5277885965903
 10
84.61430119412421
 20
-127.5277885965903
 10
84.75813393063339
 20
-127.57223032835
 10
84.85321856602629
 20
-127.7541313699712
 10
84.95278182555
 20
-127.9467122075967
 10
84.97603622007544
 20
-128.1751220382687
 10
84.97603622007544
 20
-128.3485825959511
 10
84.97603622007544
 20
-128.5199760963422
 10
84.95484888284115
 20
-128.7506252390797
 10
84.85321856602629
 20
-128.9430338219309
 97
        0
 97
        0
 92
        1
 93
        1
 72
     4
 94
        3
 73
     0
 74
     1
 95
       17
 96
       13
 40
0.0
 40
0.0
 40
0.0
 40
0.0
 40
1.0
 40
1.0
 40
1.0
 40
2.0
 40
2.0
 40
2.0
 40
3.0
 40
3.0
 40
3.0
 40
4.0
 40
4.0
 40
4.0
 40
4.0
 10
84.45548229225419
 20
-127.7203694342157
 10
84.20588512434784
 20
-127.7203694342157
 10
84.15937633529697
 20
-128.0039007926518
 10
84.15937633529697
 20
-128.3485825959511
 10
84.15937633529697
 20
-128.668115202208
 10
84.19537758311783
 20
-128.9767957576864
 10
84.45548229225419
 20
-128.9767957576864
 10
84.70301240286939
 20
-128.9767957576864
 10
84.75176050398568
 20
-128.6955037113157
 10
84.75176050398568
 20
-128.3485825959511
 10
84.75176050398568
 20
-128.0292222444684
 10
84.71369219887366
 20
-127.7203694342157
 10
84.45548229225419
 20
-127.7203694342157
 97
        0
 97
        0
 75
     2
 76
     1
 98
        0
  0
ENDBLK
  5
E9
330
E6
100
AcDbEntity
  8
0
100
AcDbBlockEnd
  0
BLOCK
  5
F4
330
F2
100
AcDbEntity
  8
0
100
AcDbBlockBegin
  2
block 8
 70
     0
 10
0.0
 20
0.0
 30
0.0
  3
block 8
  1

  0
SPLINE
  5
F6
330
F2
100
AcDbEntity
  8
_U+30EC_U+30A4_U+30E4_U+30FC 1
370
     0
100
AcDbSpline
210
0.0
220
0.0
230
1.0
 70
    11
 71
     3
 72
    35
 73
    31
 74
     0
 42
0.0000000001
 43
0.0000000001
 12
1.0
 22
0.0
 32
0.0
 13
1.0
 23
0.0
 33
0.0
 40
0.0
 40
0.0
 40
0.0
 40
0.0
 40
1.0
 40
1.0
 40
1.0
 40
2.0
 40
2.0
 40
2.0
 40
3.0
 40
3.0
 40
3.0
 40
4.0
 40
4.0
 40
4.0
 40
5.0
 40
5.0
 40
5.0
 40
6.0
 40
6.0
 40
6.0
 40
7.0
 40
7.0
 40
7.0
 40
8.0
 40
8.0
 40
8.0
 40
9.0
 40
9.0
 40
9.0
 40
10.0
 40
10.0
 40
10.0
 40
10.0
 10
81.16868894455158
 20
-120.6062472571748
 30
0.0
 10
81.16868894455158
 20
-120.6062472571748
 30
0.0
 10
81.11804604091841
 20
-120.8706583356678
 30
0.0
 10
81.11804604091841
 20
-120.8706583356678
 30
0.0
 10
81.25757240807103
 20
-120.8834051889632
 30
0.0
 10
81.58554549826681
 20
-120.9743557097738
 30
0.0
 10
81.58554549826681
 20
-121.3657185568982
 30
0.0
 10
81.58554549826681
 20
-121.8437255554766
 30
0.0
 10
81.17936874055586
 20
-121.9686102668169
 30
0.0
 10
80.90427786605866
 20
-121.9686102668169
 30
0.0
 10
80.90427786605866
 20
-121.9686102668169
 30
0.0
 10
80.8365817397735
 20
-122.3219048088292
 30
0.0
 10
80.8365817397735
 20
-122.3219048088292
 30
0.0
 10
80.8365817397735
 20
-122.3219048088292
 30
0.0
 10
80.62935924633572
 20
-122.3219048088292
 30
0.0
 10
80.62935924633572
 20
-122.3219048088292
 30
0.0
 10
80.62935924633572
 20
-122.3219048088292
 30
0.0
 10
80.70118948720318
 20
-121.9537963562303
 30
0.0
 10
80.70118948720318
 20
-121.9537963562303
 30
0.0
 10
80.59335799851486
 20
-121.9346760762872
 30
0.0
 10
80.24213051379364
 20
-121.8733533766497
 30
0.0
 10
80.24213051379364
 20
-121.4566690777088
 30
0.0
 10
80.24213051379364
 20
-121.0081176455292
 30
0.0
 10
80.59766436787142
 20
-120.8579114823723
 30
0.0
 10
80.91271834999752
 20
-120.8579114823723
 30
0.0
 10
80.91271834999752
 20
-120.8579114823723
 30
0.0
 10
80.96146645111381
 20
-120.6062472571748
 30
0.0
 10
80.96146645111381
 20
-120.6062472571748
 30
0.0
 10
80.96146645111381
 20
-120.6062472571748
 30
0.0
 10
81.16868894455158
 20
-120.6062472571748
 30
0.0
 10
81.16868894455158
 20
-120.6062472571748
 30
0.0
  0
SPLINE
  5
F7
330
F2
100
AcDbEntity
  8
_U+30EC_U+30A4_U+30E4_U+30FC 1
370
     0
100
AcDbSpline
210
0.0
220
0.0
230
1.0
 70
    11
 71
     3
 72
    14
 73
    10
 74
     0
 42
0.0000000001
 43
0.0000000001
 12
1.0
 22
0.0
 32
0.0
 13
1.0
 23
0.0
 33
0.0
 40
0.0
 40
0.0
 40
0.0
 40
0.0
 40
1.0
 40
1.0
 40
1.0
 40
2.0
 40
2.0
 40
2.0
 40
3.0
 40
3.0
 40
3.0
 40
3.0
 10
80.87895641424207
 20
-121.0313720400547
 30
0.0
 10
80.75837807225832
 20
-121.0398125239935
 30
0.0
 10
80.46433917259225
 20
-121.063066918519
 30
0.0
 10
80.46433917259225
 20
-121.4608031922911
 30
0.0
 10
80.46433917259225
 20
-121.5243652039939
 30
0.0
 10
80.46433917259225
 20
-121.7379611240794
 30
0.0
 10
80.73305662044174
 20
-121.7824028558391
 30
0.0
 10
80.73305662044174
 20
-121.7824028558391
 30
0.0
 10
80.87895641424207
 20
-121.0313720400547
 30
0.0
 10
80.87895641424207
 20
-121.0313720400547
 30
0.0
  0
SPLINE
  5
F8
330
F2
100
AcDbEntity
  8
_U+30EC_U+30A4_U+30E4_U+30FC 1
370
     0
100
AcDbSpline
210
0.0
220
0.0
230
1.0
 70
    11
 71
     3
 72
    14
 73
    10
 74
     0
 42
0.0000000001
 43
0.0000000001
 12
1.0
 22
0.0
 32
0.0
 13
1.0
 23
0.0
 33
0.0
 40
0.0
 40
0.0
 40
0.0
 40
0.0
 40
1.0
 40
1.0
 40
1.0
 40
2.0
 40
2.0
 40
2.0
 40
3.0
 40
3.0
 40
3.0
 40
3.0
 10
80.94027911387951
 20
-121.790843339778
 30
0.0
 10
81.12218015550071
 20
-121.7867092251957
 30
0.0
 10
81.36557615153362
 20
-121.7062662456151
 30
0.0
 10
81.36557615153362
 20
-121.3509046463116
 30
0.0
 10
81.36557615153362
 20
-121.2577148134356
 30
0.0
 10
81.35282929823819
 20
-121.0694403451667
 30
0.0
 10
81.08204479309755
 20
-121.0420518360589
 30
0.0
 10
81.08204479309755
 20
-121.0420518360589
 30
0.0
 10
80.94027911387951
 20
-121.790843339778
 30
0.0
 10
80.94027911387951
 20
-121.790843339778
 30
0.0
  0
HATCH
  5
F9
330
F2
100
AcDbEntity
  8
_U+30EC_U+30A4_U+30E4_U+30FC 1
 62
   179
420
  2234388
100
AcDbHatch
 10
0.0
 20
0.0
 30
0.0
210
0.0
220
0.0
230
1.0
  2
SOLID
 70
     1
 71
     0
 91
        3
 92
        1
 93
        1
 72
     4
 94
        3
 73
     0
 74
     1
 95
       35
 96
       31
 40
0.0
 40
0.0
 40
0.0
 40
0.0
 40
1.0
 40
1.0
 40
1.0
 40
2.0
 40
2.0
 40
2.0
 40
3.0
 40
3.0
 40
3.0
 40
4.0
 40
4.0
 40
4.0
 40
5.0
 40
5.0
 40
5.0
 40
6.0
 40
6.0
 40
6.0
 40
7.0
 40
7.0
 40
7.0
 40
8.0
 40
8.0
 40
8.0
 40
9.0
 40
9.0
 40
9.0
 40
10.0
 40
10.0
 40
10.0
 40
10.0
 10
81.16868894455158
 20
-120.6062472571748
 10
81.16868894455158
 20
-120.6062472571748
 10
81.11804604091841
 20
-120.8706583356678
 10
81.11804604091841
 20
-120.8706583356678
 10
81.25757240807103
 20
-120.8834051889632
 10
81.58554549826681
 20
-120.9743557097738
 10
81.58554549826681
 20
-121.3657185568982
 10
81.58554549826681
 20
-121.8437255554766
 10
81.17936874055586
 20
-121.9686102668169
 10
80.90427786605866
 20
-121.9686102668169
 10
80.90427786605866
 20
-121.9686102668169
 10
80.8365817397735
 20
-122.3219048088292
 10
80.8365817397735
 20
-122.3219048088292
 10
80.8365817397735
 20
-122.3219048088292
 10
80.62935924633572
 20
-122.3219048088292
 10
80.62935924633572
 20
-122.3219048088292
 10
80.62935924633572
 20
-122.3219048088292
 10
80.70118948720318
 20
-121.9537963562303
 10
80.70118948720318
 20
-121.9537963562303
 10
80.59335799851486
 20
-121.9346760762872
 10
80.24213051379364
 20
-121.8733533766497
 10
80.24213051379364
 20
-121.4566690777088
 10
80.24213051379364
 20
-121.0081176455292
 10
80.59766436787142
 20
-120.8579114823723
 10
80.91271834999752
 20
-120.8579114823723
 10
80.91271834999752
 20
-120.8579114823723
 10
80.96146645111381
 20
-120.6062472571748
 10
80.96146645111381
 20
-120.6062472571748
 10
80.96146645111381
 20
-120.6062472571748
 10
81.16868894455158
 20
-120.6062472571748
 10
81.16868894455158
 20
-120.6062472571748
 97
        0
 97
        0
 92
        1
 93
        1
 72
     4
 94
        3
 73
     0
 74
     1
 95
       14
 96
       10
 40
0.0
 40
0.0
 40
0.0
 40
0.0
 40
1.0
 40
1.0
 40
1.0
 40
2.0
 40
2.0
 40
2.0
 40
3.0
 40
3.0
 40
3.0
 40
3.0
 10
80.87895641424207
 20
-121.0313720400547
 10
80.75837807225832
 20
-121.0398125239935
 10
80.46433917259225
 20
-121.063066918519
 10
80.46433917259225
 20
-121.4608031922911
 10
80.46433917259225
 20
-121.5243652039939
 10
80.46433917259225
 20
-121.7379611240794
 10
80.73305662044174
 20
-121.7824028558391
 10
80.73305662044174
 20
-121.7824028558391
 10
80.87895641424207
 20
-121.0313720400547
 10
80.87895641424207
 20
-121.0313720400547
 97
        0
 97
        0
 92
        1
 93
        1
 72
     4
 94
        3
 73
     0
 74
     1
 95
       14
 96
       10
 40
0.0
 40
0.0
 40
0.0
 40
0.0
 40
1.0
 40
1.0
 40
1.0
 40
2.0
 40
2.0
 40
2.0
 40
3.0
 40
3.0
 40
3.0
 40
3.0
 10
80.94027911387951
 20
-121.790843339778
 10
81.12218015550071
 20
-121.7867092251957
 10
81.36557615153362
 20
-121.7062662456151
 10
81.36557615153362
 20
-121.3509046463116
 10
81.36557615153362
 20
-121.2577148134356
 10
81.35282929823819
 20
-121.0694403451667
 10
81.08204479309755
 20
-121.0420518360589
 10
81.08204479309755
 20
-121.0420518360589
 10
80.94027911387951
 20
-121.790843339778
 10
80.94027911387951
 20
-121.790843339778
 97
        0
 97
        0
 75
     2
 76
     1
 98
        0
  0
SPLINE
  5
FA
330
F2
100
AcDbEntity
  8
_U+30EC_U+30A4_U+30E4_U+30FC 1
370
     0
100
AcDbSpline
210
0.0
220
0.0
230
1.0
 70
    11
 71
     3
 72
    26
 73
    22
 74
     0
 42
0.0000000001
 43
0.0000000001
 12
1.0
 22
0.0
 32
0.0
 13
1.0
 23
0.0
 33
0.0
 40
0.0
 40
0.0
 40
0.0
 40
0.0
 40
1.0
 40
1.0
 40
1.0
 40
2.0
 40
2.0
 40
2.0
 40
3.0
 40
3.0
 40
3.0
 40
4.0
 40
4.0
 40
4.0
 40
5.0
 40
5.0
 40
5.0
 40
6.0
 40
6.0
 40
6.0
 40
7.0
 40
7.0
 40
7.0
 40
7.0
 10
82.24872637917741
 20
-121.9770507507557
 30
0.0
 10
82.24872637917741
 20
-121.9770507507557
 30
0.0
 10
82.24872637917741
 20
-120.8727253929589
 30
0.0
 10
82.24872637917741
 20
-120.8727253929589
 30
0.0
 10
82.24872637917741
 20
-120.8727253929589
 30
0.0
 10
81.91868623169047
 20
-120.8727253929589
 30
0.0
 10
81.91868623169047
 20
-120.8727253929589
 30
0.0
 10
81.91868623169047
 20
-120.8727253929589
 30
0.0
 10
81.91868623169047
 20
-120.7247585418674
 30
0.0
 10
81.91868623169047
 20
-120.7247585418674
 30
0.0
 10
82.25079343646856
 20
-120.7099446312808
 30
0.0
 10
82.29730222551943
 20
-120.5469916148285
 30
0.0
 10
82.32693004669258
 20
-120.4327866994925
 30
0.0
 10
82.32693004669258
 20
-120.4327866994925
 30
0.0
 10
82.47300209526718
 20
-120.4327866994925
 30
0.0
 10
82.47300209526718
 20
-120.4327866994925
 30
0.0
 10
82.47300209526718
 20
-120.4327866994925
 30
0.0
 10
82.47300209526718
 20
-121.9770507507557
 30
0.0
 10
82.47300209526718
 20
-121.9770507507557
 30
0.0
 10
82.47300209526718
 20
-121.9770507507557
 30
0.0
 10
82.24872637917741
 20
-121.9770507507557
 30
0.0
 10
82.24872637917741
 20
-121.9770507507557
 30
0.0
  0
HATCH
  5
FB
330
F2
100
AcDbEntity
  8
_U+30EC_U+30A4_U+30E4_U+30FC 1
 62
   179
420
  2234388
100
AcDbHatch
 10
0.0
 20
0.0
 30
0.0
210
0.0
220
0.0
230
1.0
  2
SOLID
 70
     1
 71
     0
 91
        1
 92
        1
 93
        1
 72
     4
 94
        3
 73
     0
 74
     1
 95
       26
 96
       22
 40
0.0
 40
0.0
 40
0.0
 40
0.0
 40
1.0
 40
1.0
 40
1.0
 40
2.0
 40
2.0
 40
2.0
 40
3.0
 40
3.0
 40
3.0
 40
4.0
 40
4.0
 40
4.0
 40
5.0
 40
5.0
 40
5.0
 40
6.0
 40
6.0
 40
6.0
 40
7.0
 40
7.0
 40
7.0
 40
7.0
 10
82.24872637917741
 20
-121.9770507507557
 10
82.24872637917741
 20
-121.9770507507557
 10
82.24872637917741
 20
-120.8727253929589
 10
82.24872637917741
 20
-120.8727253929589
 10
82.24872637917741
 20
-120.8727253929589
 10
81.91868623169047
 20
-120.8727253929589
 10
81.91868623169047
 20
-120.8727253929589
 10
81.91868623169047
 20
-120.8727253929589
 10
81.91868623169047
 20
-120.7247585418674
 10
81.91868623169047
 20
-120.7247585418674
 10
82.25079343646856
 20
-120.7099446312808
 10
82.29730222551943
 20
-120.5469916148285
 10
82.32693004669258
 20
-120.4327866994925
 10
82.32693004669258
 20
-120.4327866994925
 10
82.47300209526718
 20
-120.4327866994925
 10
82.47300209526718
 20
-120.4327866994925
 10
82.47300209526718
 20
-120.4327866994925
 10
82.47300209526718
 20
-121.9770507507557
 10
82.47300209526718
 20
-121.9770507507557
 10
82.47300209526718
 20
-121.9770507507557
 10
82.24872637917741
 20
-121.9770507507557
 10
82.24872637917741
 20
-121.9770507507557
 97
        0
 97
        0
 75
     2
 76
     1
 98
        0
  0
SPLINE
  5
FC
330
F2
100
AcDbEntity
  8
_U+30EC_U+30A4_U+30E4_U+30FC 1
370
     0
100
AcDbSpline
210
0.0
220
0.0
230
1.0
 70
    11
 71
     3
 72
    29
 73
    25
 74
     0
 42
0.0000000001
 43
0.0000000001
 12
1.0
 22
0.0
 32
0.0
 13
1.0
 23
0.0
 33
0.0
 40
0.0
 40
0.0
 40
0.0
 40
0.0
 40
1.0
 40
1.0
 40
1.0
 40
2.0
 40
2.0
 40
2.0
 40
3.0
 40
3.0
 40
3.0
 40
4.0
 40
4.0
 40
4.0
 40
5.0
 40
5.0
 40
5.0
 40
6.0
 40
6.0
 40
6.0
 40
7.0
 40
7.0
 40
7.0
 40
8.0
 40
8.0
 40
8.0
 40
8.0
 10
83.87188311705286
 20
-121.7992838237168
 30
0.0
 10
83.76405162836454
 20
-122.00874562922
 30
0.0
 10
83.59059107068222
 20
-122.0278659091632
 30
0.0
 10
83.47414684328078
 20
-122.0278659091632
 30
0.0
 10
83.31343313889387
 20
-122.0278659091632
 30
0.0
 10
83.17166745967583
 20
-121.9813571201123
 30
0.0
 10
83.07641056950868
 20
-121.7992838237168
 30
0.0
 10
82.97288545017692
 20
-121.6046359288002
 30
0.0
 10
82.95376517023378
 20
-121.3677856141893
 30
0.0
 10
82.95376517023378
 20
-121.204832597737
 30
0.0
 10
82.95376517023378
 20
-121.0609998612278
 30
0.0
 10
82.9706461381115
 20
-120.8093356360303
 30
0.0
 10
83.07641056950868
 20
-120.6103813717571
 30
0.0
 10
83.18441431297126
 20
-120.4072929929017
 30
0.0
 10
83.34512801735816
 20
-120.3840385983762
 30
0.0
 10
83.47414684328078
 20
-120.3840385983762
 30
0.0
 10
83.63279349037653
 20
-120.3840385983762
 30
0.0
 10
83.77679848165997
 20
-120.4284803301359
 30
0.0
 10
83.87188311705286
 20
-120.6103813717571
 30
0.0
 10
83.97127412180232
 20
-120.8029622093826
 30
0.0
 10
83.99452851632776
 20
-121.0313720400547
 30
0.0
 10
83.99452851632776
 20
-121.204832597737
 30
0.0
 10
83.99452851632776
 20
-121.3762260981282
 30
0.0
 10
83.97351343386774
 20
-121.6068752408656
 30
0.0
 10
83.87188311705286
 20
-121.7992838237168
 30
0.0
  0
SPLINE
  5
FD
330
F2
100
AcDbEntity
  8
_U+30EC_U+30A4_U+30E4_U+30FC 1
370
     0
100
AcDbSpline
210
0.0
220
0.0
230
1.0
 70
    11
 71
     3
 72
    17
 73
    13
 74
     0
 42
0.0000000001
 43
0.0000000001
 12
1.0
 22
0.0
 32
0.0
 13
1.0
 23
0.0
 33
0.0
 40
0.0
 40
0.0
 40
0.0
 40
0.0
 40
1.0
 40
1.0
 40
1.0
 40
2.0
 40
2.0
 40
2.0
 40
3.0
 40
3.0
 40
3.0
 40
4.0
 40
4.0
 40
4.0
 40
4.0
 10
83.47414684328078
 20
-120.5766194360017
 30
0.0
 10
83.22454967537442
 20
-120.5766194360017
 30
0.0
 10
83.17804088632354
 20
-120.8601507944377
 30
0.0
 10
83.17804088632354
 20
-121.204832597737
 30
0.0
 10
83.17804088632354
 20
-121.5243652039939
 30
0.0
 10
83.2140421341444
 20
-121.8332180142466
 30
0.0
 10
83.47414684328078
 20
-121.8332180142466
 30
0.0
 10
83.72167695389598
 20
-121.8332180142466
 30
0.0
 10
83.77042505501225
 20
-121.5517537131016
 30
0.0
 10
83.77042505501225
 20
-121.204832597737
 30
0.0
 10
83.77042505501225
 20
-120.8854722462543
 30
0.0
 10
83.73235674990025
 20
-120.5766194360017
 30
0.0
 10
83.47414684328078
 20
-120.5766194360017
 30
0.0
  0
HATCH
  5
FE
330
F2
100
AcDbEntity
  8
_U+30EC_U+30A4_U+30E4_U+30FC 1
 62
   179
420
  2234388
100
AcDbHatch
 10
0.0
 20
0.0
 30
0.0
210
0.0
220
0.0
230
1.0
  2
SOLID
 70
     1
 71
     0
 91
        2
 92
        1
 93
        1
 72
     4
 94
        3
 73
     0
 74
     1
 95
       29
 96
       25
 40
0.0
 40
0.0
 40
0.0
 40
0.0
 40
1.0
 40
1.0
 40
1.0
 40
2.0
 40
2.0
 40
2.0
 40
3.0
 40
3.0
 40
3.0
 40
4.0
 40
4.0
 40
4.0
 40
5.0
 40
5.0
 40
5.0
 40
6.0
 40
6.0
 40
6.0
 40
7.0
 40
7.0
 40
7.0
 40
8.0
 40
8.0
 40
8.0
 40
8.0
 10
83.87188311705286
 20
-121.7992838237168
 10
83.76405162836454
 20
-122.00874562922
 10
83.59059107068222
 20
-122.0278659091632
 10
83.47414684328078
 20
-122.0278659091632
 10
83.31343313889387
 20
-122.0278659091632
 10
83.17166745967583
 20
-121.9813571201123
 10
83.07641056950868
 20
-121.7992838237168
 10
82.97288545017692
 20
-121.6046359288002
 10
82.95376517023378
 20
-121.3677856141893
 10
82.95376517023378
 20
-121.204832597737
 10
82.95376517023378
 20
-121.0609998612278
 10
82.9706461381115
 20
-120.8093356360303
 10
83.07641056950868
 20
-120.6103813717571
 10
83.18441431297126
 20
-120.4072929929017
 10
83.34512801735816
 20
-120.3840385983762
 10
83.47414684328078
 20
-120.3840385983762
 10
83.63279349037653
 20
-120.3840385983762
 10
83.77679848165997
 20
-120.4284803301359
 10
83.87188311705286
 20
-120.6103813717571
 10
83.97127412180232
 20
-120.8029622093826
 10
83.99452851632776
 20
-121.0313720400547
 10
83.99452851632776
 20
-121.204832597737
 10
83.99452851632776
 20
-121.3762260981282
 10
83.97351343386774
 20
-121.6068752408656
 10
83.87188311705286
 20
-121.7992838237168
 97
        0
 97
        0
 92
        1
 93
        1
 72
     4
 94
        3
 73
     0
 74
     1
 95
       17
 96
       13
 40
0.0
 40
0.0
 40
0.0
 40
0.0
 40
1.0
 40
1.0
 40
1.0
 40
2.0
 40
2.0
 40
2.0
 40
3.0
 40
3.0
 40
3.0
 40
4.0
 40
4.0
 40
4.0
 40
4.0
 10
83.47414684328078
 20
-120.5766194360017
 10
83.22454967537442
 20
-120.5766194360017
 10
83.17804088632354
 20
-120.8601507944377
 10
83.17804088632354
 20
-121.204832597737
 10
83.17804088632354
 20
-121.5243652039939
 10
83.2140421341444
 20
-121.8332180142466
 10
83.47414684328078
 20
-121.8332180142466
 10
83.72167695389598
 20
-121.8332180142466
 10
83.77042505501225
 20
-121.5517537131016
 10
83.77042505501225
 20
-121.204832597737
 10
83.77042505501225
 20
-120.8854722462543
 10
83.73235674990025
 20
-120.5766194360017
 10
83.47414684328078
 20
-120.5766194360017
 97
        0
 97
        0
 75
     2
 76
     1
 98
        0
  0
ENDBLK
  5
F5
330
F2
100
AcDbEntity
  8
0
100
AcDbBlockEnd
  0
ENDSEC
  0
SECTION
  2
ENTITIES
  0
INSERT
  5
42
330
1F
100
AcDbEntity
  8
_U+30EC_U+30A4_U+30E4_U+30FC 1
100
AcDbBlockReference
  2
block 2
 10
0.0
 20
0.0
 30
0.0
  0
ENDSEC
  0
SECTION
  2
OBJECTS
  0
DICTIONARY
  5
C
330
0
100
AcDbDictionary
281
     1
  3
ACAD_GROUP
350
D
  3
ACAD_LAYOUT
350
1A
  3
ACAD_MATERIAL
350
3B
  3
ACAD_MLEADERSTYLE
350
10A
  3
ACAD_MLINESTYLE
350
17
  3
ACAD_PLOTSETTINGS
350
19
  3
ACAD_PLOTSTYLENAME
350
E
  3
ACAD_TABLESTYLE
350
109
  3
ACAD_VISUALSTYLE
350
2A
  0
SUN
  5
3F
330
29
100
AcDbSun
 90
        1
290
     0
 63
     7
421
 16777215
 40
1.0
291
     1
 91
  2455826
 92
 54000000
292
     0
 70
     2
 71
   256
280
     1
  0
DICTIONARY
  5
D
102
{ACAD_REACTORS
330
C
102
}
330
C
100
AcDbDictionary
281
     1
  0
DICTIONARY
  5
1A
102
{ACAD_REACTORS
330
C
102
}
330
C
100
AcDbDictionary
281
     1
  3
Layout1
350
1E
  3
Layout2
350
26
  3
Model
350
22
  0
DICTIONARY
  5
3B
102
{ACAD_REACTORS
330
C
102
}
330
C
100
AcDbDictionary
281
     1
  3
ByBlock
350
3D
  3
ByLayer
350
3C
  3
Global
350
3E
  0
DICTIONARY
  5
10A
102
{ACAD_REACTORS
330
C
102
}
330
C
100
AcDbDictionary
281
     1
  0
DICTIONARY
  5
17
102
{ACAD_REACTORS
330
C
102
}
330
C
100
AcDbDictionary
281
     1
  3
Standard
350
18
  0
DICTIONARY
  5
19
102
{ACAD_REACTORS
330
C
102
}
330
C
100
AcDbDictionary
281
     1
  0
ACDBDICTIONARYWDFLT
  5
E
102
{ACAD_REACTORS
330
C
102
}
330
C
100
AcDbDictionary
281
     1
  3
Normal
350
F
100
AcDbDictionaryWithDefault
340
F
  0
DICTIONARY
  5
109
102
{ACAD_REACTORS
330
C
102
}
330
C
100
AcDbDictionary
281
     1
  0
DICTIONARY
  5
2A
102
{ACAD_REACTORS
330
C
102
}
330
C
100
AcDbDictionary
281
     1
  3
2dWireframe
350
2F
  3
3D Hidden
350
31
  3
3dWireframe
350
30
  3
Basic
350
32
  3
Brighten
350
36
  3
ColorChange
350
3A
  3
Conceptual
350
34
  3
Dim
350
35
  3
Facepattern
350
39
  3
Flat
350
2B
  3
FlatWithEdges
350
2C
  3
Gouraud
350
2D
  3
GouraudWithEdges
350
2E
  3
Linepattern
350
38
  3
Realistic
350
33
  3
Thicken
350
37
  0
LAYOUT
  5
1E
102
{ACAD_REACTORS
330
1A
102
}
330
1A
100
AcDbPlotSettings
  1

  2
none_device
  4

  6

 40
0.0
 41
0.0
 42
0.0
 43
0.0
 44
0.0
 45
0.0
 46
0.0
 47
0.0
 48
0.0
 49
0.0
140
0.0
141
0.0
142
1.0
143
1.0
 70
   688
 72
     0
 73
     0
 74
     5
  7

 75
    16
 76
     0
 77
     2
 78
   300
147
1.0
148
0.0
149
0.0
100
AcDbLayout
  1
Layout1
 70
     1
 71
     1
 10
0.0
 20
0.0
 11
12.0
 21
9.0
 12
0.0
 22
0.0
 32
0.0
 14
1.000000000000000E+20
 24
1.000000000000000E+20
 34
1.000000000000000E+20
 15
-1.000000000000000E+20
 25
-1.000000000000000E+20
 35
-1.000000000000000E+20
146
0.0
 13
0.0
 23
0.0
 33
0.0
 16
1.0
 26
0.0
 36
0.0
 17
0.0
 27
1.0
 37
0.0
 76
     0
330
1B
  0
LAYOUT
  5
26
102
{ACAD_REACTORS
330
1A
102
}
330
1A
100
AcDbPlotSettings
  1

  2
none_device
  4

  6

 40
0.0
 41
0.0
 42
0.0
 43
0.0
 44
0.0
 45
0.0
 46
0.0
 47
0.0
 48
0.0
 49
0.0
140
0.0
141
0.0
142
1.0
143
1.0
 70
   688
 72
     0
 73
     0
 74
     5
  7

 75
    16
 76
     0
 77
     2
 78
   300
147
1.0
148
0.0
149
0.0
100
AcDbLayout
  1
Layout2
 70
     1
 71
     2
 10
0.0
 20
0.0
 11
0.0
 21
0.0
 12
0.0
 22
0.0
 32
0.0
 14
0.0
 24
0.0
 34
0.0
 15
0.0
 25
0.0
 35
0.0
146
0.0
 13
0.0
 23
0.0
 33
0.0
 16
1.0
 26
0.0
 36
0.0
 17
0.0
 27
1.0
 37
0.0
 76
     0
330
23
  0
LAYOUT
  5
22
102
{ACAD_REACTORS
330
1A
102
}
330
1A
100
AcDbPlotSettings
  1

  2
none_device
  4

  6

 40
0.0
 41
0.0
 42
0.0
 43
0.0
 44
0.0
 45
0.0
 46
0.0
 47
0.0
 48
0.0
 49
0.0
140
0.0
141
0.0
142
1.0
143
1.0
 70
  1712
 72
     0
 73
     0
 74
     0
  7

 75
     0
 76
     0
 77
     2
 78
   300
147
1.0
148
0.0
149
0.0
100
AcDbLayout
  1
Model
 70
     1
 71
     0
 10
0.0
 20
0.0
 11
12.0
 21
9.0
 12
0.0
 22
0.0
 32
0.0
 14
1.000000000000000E+20
 24
1.000000000000000E+20
 34
1.000000000000000E+20
 15
-1.000000000000000E+20
 25
-1.000000000000000E+20
 35
-1.000000000000000E+20
146
0.0
 13
0.0
 23
0.0
 33
0.0
 16
1.0
 26
0.0
 36
0.0
 17
0.0
 27
1.0
 37
0.0
 76
     0
330
1F
331
29
  0
MATERIAL
  5
3D
102
{ACAD_REACTORS
330
3B
102
}
330
3B
100
AcDbMaterial
  1
ByBlock
 72
     1
 94
      127
  0
MATERIAL
  5
3C
102
{ACAD_REACTORS
330
3B
102
}
330
3B
100
AcDbMaterial
  1
ByLayer
 72
     1
 94
      127
  0
MATERIAL
  5
3E
102
{ACAD_REACTORS
330
3B
102
}
330
3B
100
AcDbMaterial
  1
Global
 72
     1
 94
      127
  0
MLINESTYLE
  5
18
102
{ACAD_REACTORS
330
17
102
}
330
17
100
AcDbMlineStyle
  2
Standard
 70
     0
  3

 62
   256
 51
90.0
 52
90.0
 71
     2
 49
0.5
 62
   256
  6
BYLAYER
 49
-0.5
 62
   256
  6
BYLAYER
  0
ACDBPLACEHOLDER
  5
F
102
{ACAD_REACTORS
330
E
102
}
330
E
  0
VISUALSTYLE
  5
2F
102
{ACAD_REACTORS
330
2A
102
}
330
2A
100
AcDbVisualStyle
  2
2dWireframe
 70
     4
177
     2
291
     0
 71
     0
176
     1
 72
     2
176
     1
 73
     0
176
     1
 90
        0
176
     1
 40
-0.6
176
     1
 41
-30.0
176
     1
 62
     5
 63
     7
421
 16777215
176
     1
 74
     1
176
     1
 91
        4
176
     1
 64
     7
176
     1
 65
   257
176
     1
 75
     1
176
     1
175
     1
176
     1
 42
1.0
176
     1
 92
        0
176
     1
 66
   257
176
     1
 43
1.0
176
     1
 76
     1
176
     1
 77
     6
176
     1
 78
     2
176
     1
 67
     7
176
     1
 79
     5
176
     1
170
     0
176
     1
171
     0
176
     1
290
     0
176
     1
 93
        1
176
     1
 44
0.0
176
     1
173
     0
176
     1
  0
VISUALSTYLE
  5
31
102
{ACAD_REACTORS
330
2A
102
}
330
2A
100
AcDbVisualStyle
  2
3D Hidden
 70
     6
177
     2
291
     0
 71
     1
176
     1
 72
     2
176
     1
 73
     2
176
     1
 90
        0
176
     1
 40
-0.6
176
     1
 41
-30.0
176
     1
 62
     5
 63
     7
421
 16777215
176
     1
 74
     2
176
     1
 91
        2
176
     1
 64
     7
176
     1
 65
   257
176
     1
 75
     2
176
     1
175
     1
176
     1
 42
40.0
176
     1
 92
        0
176
     1
 66
   257
176
     1
 43
1.0
176
     1
 76
     1
176
     1
 77
     6
176
     1
 78
     2
176
     1
 67
     7
176
     1
 79
     3
176
     1
170
     0
176
     1
171
     0
176
     1
290
     0
176
     1
 93
        1
176
     1
 44
0.0
176
     1
173
     0
176
     1
  0
VISUALSTYLE
  5
30
102
{ACAD_REACTORS
330
2A
102
}
330
2A
100
AcDbVisualStyle
  2
3dWireframe
 70
     5
177
     2
291
     0
 71
     0
176
     1
 72
     2
176
     1
 73
     0
176
     1
 90
        0
176
     1
 40
-0.6
176
     1
 41
-30.0
176
     1
 62
     5
 63
     7
421
 16777215
176
     1
 74
     1
176
     1
 91
        4
176
     1
 64
     7
176
     1
 65
   257
176
     1
 75
     1
176
     1
175
     1
176
     1
 42
1.0
176
     1
 92
        0
176
     1
 66
   257
176
     1
 43
1.0
176
     1
 76
     1
176
     1
 77
     6
176
     1
 78
     2
176
     1
 67
     7
176
     1
 79
     5
176
     1
170
     0
176
     1
171
     0
176
     1
290
     0
176
     1
 93
        1
176
     1
 44
0.0
176
     1
173
     0
176
     1
  0
VISUALSTYLE
  5
32
102
{ACAD_REACTORS
330
2A
102
}
330
2A
100
AcDbVisualStyle
  2
Basic
 70
     7
177
     2
291
     1
 71
     1
176
     1
 72
     0
176
     1
 73
     1
176
     1
 90
        0
176
     1
 40
-0.6
176
     1
 41
-30.0
176
     1
 62
     5
 63
     7
421
 16777215
176
     1
 74
     0
176
     1
 91
        4
176
     1
 64
     7
176
     1
 65
   257
176
     1
 75
     1
176
     1
175
     1
176
     1
 42
1.0
176
     1
 92
        8
176
     1
 66
     7
176
     1
 43
1.0
176
     1
 76
     1
176
     1
 77
     6
176
     1
 78
     2
176
     1
 67
     7
176
     1
 79
     5
176
     1
170
     0
176
     1
171
     0
176
     1
290
     0
176
     1
 93
        1
176
     1
 44
0.0
176
     1
173
     0
176
     1
  0
VISUALSTYLE
  5
36
102
{ACAD_REACTORS
330
2A
102
}
330
2A
100
AcDbVisualStyle
  2
Brighten
 70
    12
177
     2
291
     1
 71
     2
176
     1
 72
     2
176
     1
 73
     0
176
     1
 90
        0
176
     1
 40
-0.6
176
     1
 41
-30.0
176
     1
 62
     5
 63
     7
421
 16777215
176
     1
 74
     1
176
     1
 91
        4
176
     1
 64
     7
176
     1
 65
   257
176
     1
 75
     1
176
     1
175
     1
176
     1
 42
1.0
176
     1
 92
        8
176
     1
 66
     7
176
     1
 43
1.0
176
     1
 76
     1
176
     1
 77
     6
176
     1
 78
     2
176
     1
 67
     7
176
     1
 79
     5
176
     1
170
     0
176
     1
171
     0
176
     1
290
     0
176
     1
 93
        1
176
     1
 44
50.0
176
     1
173
     0
176
     1
  0
VISUALSTYLE
  5
3A
102
{ACAD_REACTORS
330
2A
102
}
330
2A
100
AcDbVisualStyle
  2
ColorChange
 70
    16
177
     2
291
     1
 71
     2
176
     1
 72
     2
176
     1
 73
     3
176
     1
 90
        0
176
     1
 40
-0.6
176
     1
 41
-30.0
176
     1
 62
     5
 63
     8
421
  8421504
176
     1
 74
     1
176
     1
 91
        4
176
     1
 64
     7
176
     1
 65
   257
176
     1
 75
     1
176
     1
175
     1
176
     1
 42
1.0
176
     1
 92
        8
176
     1
 66
     8
424
  8421504
176
     1
 43
1.0
176
     1
 76
     1
176
     1
 77
     6
176
     1
 78
     2
176
     1
 67
     7
176
     1
 79
     5
176
     1
170
     0
176
     1
171
     0
176
     1
290
     0
176
     1
 93
        1
176
     1
 44
0.0
176
     1
173
     0
176
     1
  0
VISUALSTYLE
  5
34
102
{ACAD_REACTORS
330
2A
102
}
330
2A
100
AcDbVisualStyle
  2
Conceptual
 70
     9
177
     2
291
     0
 71
     3
176
     1
 72
     2
176
     1
 73
     0
176
     1
 90
        0
176
     1
 40
-0.6
176
     1
 41
-30.0
176
     1
 62
     5
 63
     7
421
 16777215
176
     1
 74
     2
176
     1
 91
        2
176
     1
 64
     7
176
     1
 65
   257
176
     1
 75
     1
176
     1
175
     1
176
     1
 42
40.0
176
     1
 92
        8
176
     1
 66
     7
176
     1
 43
1.0
176
     1
 76
     1
176
     1
 77
     6
176
     1
 78
     2
176
     1
 67
     7
176
     1
 79
     3
176
     1
170
     0
176
     1
171
     0
176
     1
290
     0
176
     1
 93
        1
176
     1
 44
0.0
176
     1
173
     0
176
     1
  0
VISUALSTYLE
  5
35
102
{ACAD_REACTORS
330
2A
102
}
330
2A
100
AcDbVisualStyle
  2
Dim
 70
    11
177
     2
291
     1
 71
     2
176
     1
 72
     2
176
     1
 73
     0
176
     1
 90
        0
176
     1
 40
-0.6
176
     1
 41
-30.0
176
     1
 62
     5
 63
     7
421
 16777215
176
     1
 74
     1
176
     1
 91
        4
176
     1
 64
     7
176
     1
 65
   257
176
     1
 75
     1
176
     1
175
     1
176
     1
 42
1.0
176
     1
 92
        8
176
     1
 66
     7
176
     1
 43
1.0
176
     1
 76
     1
176
     1
 77
     6
176
     1
 78
     2
176
     1
 67
     7
176
     1
 79
     5
176
     1
170
     0
176
     1
171
     0
176
     1
290
     0
176
     1
 93
        1
176
     1
 44
-50.0
176
     1
173
     0
176
     1
  0
VISUALSTYLE
  5
39
102
{ACAD_REACTORS
330
2A
102
}
330
2A
100
AcDbVisualStyle
  2
Facepattern
 70
    15
177
     2
291
     1
 71
     2
176
     1
 72
     2
176
     1
 73
     0
176
     1
 90
        0
176
     1
 40
-0.6
176
     1
 41
-30.0
176
     1
 62
     5
 63
     7
421
 16777215
176
     1
 74
     1
176
     1
 91
        4
176
     1
 64
     7
176
     1
 65
   257
176
     1
 75
     1
176
     1
175
     1
176
     1
 42
1.0
176
     1
 92
        8
176
     1
 66
     7
176
     1
 43
1.0
176
     1
 76
     1
176
     1
 77
     6
176
     1
 78
     2
176
     1
 67
     7
176
     1
 79
     5
176
     1
170
     0
176
     1
171
     0
176
     1
290
     0
176
     1
 93
        1
176
     1
 44
0.0
176
     1
173
     0
176
     1
  0
VISUALSTYLE
  5
2B
102
{ACAD_REACTORS
330
2A
102
}
330
2A
100
AcDbVisualStyle
  2
Flat
 70
     0
177
     2
291
     1
 71
     2
176
     1
 72
     1
176
     1
 73
     1
176
     1
 90
        2
176
     1
 40
-0.6
176
     1
 41
30.0
176
     1
 62
     5
 63
     7
421
 16777215
176
     1
 74
     0
176
     1
 91
        4
176
     1
 64
     7
176
     1
 65
   257
176
     1
 75
     1
176
     1
175
     1
176
     1
 42
1.0
176
     1
 92
        8
176
     1
 66
     7
176
     1
 43
1.0
176
     1
 76
     1
176
     1
 77
     6
176
     1
 78
     2
176
     1
 67
     7
176
     1
 79
     5
176
     1
170
     0
176
     1
171
     0
176
     1
290
     0
176
     1
 93
       13
176
     1
 44
0.0
176
     1
173
     0
176
     1
  0
VISUALSTYLE
  5
2C
102
{ACAD_REACTORS
330
2A
102
}
330
2A
100
AcDbVisualStyle
  2
FlatWithEdges
 70
     1
177
     2
291
     1
 71
     2
176
     1
 72
     1
176
     1
 73
     1
176
     1
 90
        2
176
     1
 40
-0.6
176
     1
 41
30.0
176
     1
 62
     5
 63
     7
421
 16777215
176
     1
 74
     1
176
     1
 91
        4
176
     1
 64
     7
176
     1
 65
   257
176
     1
 75
     1
176
     1
175
     1
176
     1
 42
1.0
176
     1
 92
        0
176
     1
 66
   257
176
     1
 43
1.0
176
     1
 76
     1
176
     1
 77
     6
176
     1
 78
     2
176
     1
 67
     7
176
     1
 79
     5
176
     1
170
     0
176
     1
171
     0
176
     1
290
     0
176
     1
 93
       13
176
     1
 44
0.0
176
     1
173
     0
176
     1
  0
VISUALSTYLE
  5
2D
102
{ACAD_REACTORS
330
2A
102
}
330
2A
100
AcDbVisualStyle
  2
Gouraud
 70
     2
177
     2
291
     1
 71
     2
176
     1
 72
     2
176
     1
 73
     1
176
     1
 90
        2
176
     1
 40
-0.6
176
     1
 41
30.0
176
     1
 62
     5
 63
     7
421
 16777215
176
     1
 74
     0
176
     1
 91
        4
176
     1
 64
     7
176
     1
 65
   257
176
     1
 75
     1
176
     1
175
     1
176
     1
 42
1.0
176
     1
 92
        0
176
     1
 66
     7
176
     1
 43
1.0
176
     1
 76
     1
176
     1
 77
     6
176
     1
 78
     2
176
     1
 67
     7
176
     1
 79
     5
176
     1
170
     0
176
     1
171
     0
176
     1
290
     0
176
     1
 93
       13
176
     1
 44
0.0
176
     1
173
     0
176
     1
  0
VISUALSTYLE
  5
2E
102
{ACAD_REACTORS
330
2A
102
}
330
2A
100
AcDbVisualStyle
  2
GouraudWithEdges
 70
     3
177
     2
291
     1
 71
     2
176
     1
 72
     2
176
     1
 73
     1
176
     1
 90
        2
176
     1
 40
-0.6
176
     1
 41
30.0
176
     1
 62
     5
 63
     7
421
 16777215
176
     1
 74
     1
176
     1
 91
        4
176
     1
 64
     7
176
     1
 65
   257
176
     1
 75
     1
176
     1
175
     1
176
     1
 42
1.0
176
     1
 92
        0
176
     1
 66
   257
176
     1
 43
1.0
176
     1
 76
     1
176
     1
 77
     6
176
     1
 78
     2
176
     1
 67
     7
176
     1
 79
     5
176
     1
170
     0
176
     1
171
     0
176
     1
290
     0
176
     1
 93
       13
176
     1
 44
0.0
176
     1
173
     0
176
     1
  0
VISUALSTYLE
  5
38
102
{ACAD_REACTORS
330
2A
102
}
330
2A
100
AcDbVisualStyle
  2
Linepattern
 70
    14
177
     2
291
     1
 71
     2
176
     1
 72
     2
176
     1
 73
     0
176
     1
 90
        0
176
     1
 40
-0.6
176
     1
 41
-30.0
176
     1
 62
     5
 63
     7
421
 16777215
176
     1
 74
     1
176
     1
 91
        4
176
     1
 64
     7
176
     1
 65
   257
176
     1
 75
     7
176
     1
175
     7
176
     1
 42
1.0
176
     1
 92
        8
176
     1
 66
     7
176
     1
 43
1.0
176
     1
 76
     1
176
     1
 77
     6
176
     1
 78
     2
176
     1
 67
     7
176
     1
 79
     5
176
     1
170
     0
176
     1
171
     0
176
     1
290
     0
176
     1
 93
        1
176
     1
 44
0.0
176
     1
173
     0
176
     1
  0
VISUALSTYLE
  5
33
102
{ACAD_REACTORS
330
2A
102
}
330
2A
100
AcDbVisualStyle
  2
Realistic
 70
     8
177
     2
291
     0
 71
     2
176
     1
 72
     2
176
     1
 73
     0
176
     1
 90
        0
176
     1
 40
-0.6
176
     1
 41
-30.0
176
     1
 62
     5
 63
     7
421
 16777215
176
     1
 74
     1
176
     1
 91
        0
176
     1
 64
     7
176
     1
 65
   257
176
     1
 75
     1
176
     1
175
     1
176
     1
 42
1.0
176
     1
 92
        8
176
     1
 66
     8
424
  7895160
176
     1
 43
1.0
176
     1
 76
     1
176
     1
 77
     6
176
     1
 78
     2
176
     1
 67
     7
176
     1
 79
     5
176
     1
170
     0
176
     1
171
     0
176
     1
290
     0
176
     1
 93
       13
176
     1
 44
0.0
176
     1
173
     0
176
     1
  0
VISUALSTYLE
  5
37
102
{ACAD_REACTORS
330
2A
102
}
330
2A
100
AcDbVisualStyle
  2
Thicken
 70
    13
177
     2
291
     1
 71
     2
176
     1
 72
     2
176
     1
 73
     0
176
     1
 90
        0
176
     1
 40
-0.6
176
     1
 41
-30.0
176
     1
 62
     5
 63
     7
421
 16777215
176
     1
 74
     1
176
     1
 91
        4
176
     1
 64
     7
176
     1
 65
   257
176
     1
 75
     1
176
     1
175
     1
176
     1
 42
1.0
176
     1
 92
       12
176
     1
 66
     7
176
     1
 43
1.0
176
     1
 76
     1
176
     1
 77
     6
176
     1
 78
     2
176
     1
 67
     7
176
     1
 79
     5
176
     1
170
     0
176
     1
171
     0
176
     1
290
     0
176
     1
 93
        1
176
     1
 44
0.0
176
     1
173
     0
176
     1
  0
ENDSEC
  0
EOF
