  0
SECTION
  2
HEADER
  9
$ACADVER
  1
AC1024
  9
$ACADMAINTVER
 70
     6
  9
$DWGCODEPAGE
  3
UNDEFINED
  9
$INSBASE
 10
0.0
 20
0.0
 30
0.0
  9
$EXTMIN
 10
1.000000000000000E+20
 20
1.000000000000000E+20
 30
1.000000000000000E+20
  9
$EXTMAX
 10
-1.000000000000000E+20
 20
-1.000000000000000E+20
 30
-1.000000000000000E+20
  9
$LIMMIN
 10
0.0
 20
0.0
  9
$LIMMAX
 10
12.0
 20
9.0
  9
$ORTHOMODE
 70
     0
  9
$REGENMODE
 70
     1
  9
$FILLMODE
 70
     1
  9
$QTEXTMODE
 70
     0
  9
$MIRRTEXT
 70
     1
  9
$LTSCALE
 40
1.0
  9
$ATTMODE
 70
     1
  9
$TEXTSIZE
 40
0.2
  9
$TRACEWID
 40
0.05
  9
$TEXTSTYLE
  7
Standard
  9
$CLAYER
  8
0
  9
$CELTYPE
  6
ByLayer
  9
$CECOLOR
 62
   256
  9
$CELTSCALE
 40
1.0
  9
$DISPSILH
 70
     0
  9
$DIMSCALE
 40
1.0
  9
$DIMASZ
 40
0.18
  9
$DIMEXO
 40
0.0625
  9
$DIMDLI
 40
0.38
  9
$DIMRND
 40
0.0
  9
$DIMDLE
 40
0.0
  9
$DIMEXE
 40
0.18
  9
$DIMTP
 40
0.0
  9
$DIMTM
 40
0.0
  9
$DIMTXT
 40
0.18
  9
$DIMCEN
 40
0.09
  9
$DIMTSZ
 40
0.0
  9
$DIMTOL
 70
     0
  9
$DIMLIM
 70
     0
  9
$DIMTIH
 70
     1
  9
$DIMTOH
 70
     1
  9
$DIMSE1
 70
     0
  9
$DIMSE2
 70
     0
  9
$DIMTAD
 70
     0
  9
$DIMZIN
 70
     0
  9
$DIMBLK
  1

  9
$DIMASO
 70
     1
  9
$DIMSHO
 70
     1
  9
$DIMPOST
  1

  9
$DIMAPOST
  1

  9
$DIMALT
 70
     0
  9
$DIMALTD
 70
     2
  9
$DIMALTF
 40
25.4
  9
$DIMLFAC
 40
1.0
  9
$DIMTOFL
 70
     0
  9
$DIMTVP
 40
0.0
  9
$DIMTIX
 70
     0
  9
$DIMSOXD
 70
     0
  9
$DIMSAH
 70
     0
  9
$DIMBLK1
  1

  9
$DIMBLK2
  1

  9
$DIMSTYLE
  2
Standard
  9
$DIMCLRD
 70
     0
  9
$DIMCLRE
 70
     0
  9
$DIMCLRT
 70
     0
  9
$DIMTFAC
 40
1.0
  9
$DIMGAP
 40
0.09
  9
$DIMJUST
 70
     0
  9
$DIMSD1
 70
     0
  9
$DIMSD2
 70
     0
  9
$DIMTOLJ
 70
     1
  9
$DIMTZIN
 70
     0
  9
$DIMALTZ
 70
     0
  9
$DIMALTTZ
 70
     0
  9
$DIMUPT
 70
     0
  9
$DIMDEC
 70
     4
  9
$DIMTDEC
 70
     4
  9
$DIMALTU
 70
     2
  9
$DIMALTTD
 70
     2
  9
$DIMTXSTY
  7
Standard
  9
$DIMAUNIT
 70
     0
  9
$DIMADEC
 70
     0
  9
$DIMALTRND
 40
0.0
  9
$DIMAZIN
 70
     0
  9
$DIMDSEP
 70
    46
  9
$DIMATFIT
 70
     3
  9
$DIMFRAC
 70
     0
  9
$DIMLDRBLK
  1

  9
$DIMLUNIT
 70
     2
  9
$DIMLWD
 70
    -2
  9
$DIMLWE
 70
    -2
  9
$DIMTMOVE
 70
     0
  9
$DIMFXL
 40
1.0
  9
$DIMFXLON
 70
     0
  9
$DIMJOGANG
 40
0.7853981633974483
  9
$DIMTFILL
 70
     0
  9
$DIMTFILLCLR
 70
     0
  9
$DIMARCSYM
 70
     0
  9
$DIMLTYPE
  6

  9
$DIMLTEX1
  6

  9
$DIMLTEX2
  6

  9
$DIMTXTDIRECTION
 70
     0
  9
$LUNITS
 70
     2
  9
$LUPREC
 70
     4
  9
$SKETCHINC
 40
0.1
  9
$FILLETRAD
 40
0.5
  9
$AUNITS
 70
     0
  9
$AUPREC
 70
     0
  9
$MENU
  1
.
  9
$ELEVATION
 40
0.0
  9
$PELEVATION
 40
0.0
  9
$THICKNESS
 40
0.0
  9
$LIMCHECK
 70
     0
  9
$CHAMFERA
 40
0.5
  9
$CHAMFERB
 40
0.5
  9
$CHAMFERC
 40
1.0
  9
$CHAMFERD
 40
0.0
  9
$SKPOLY
 70
     0
  9
$TDCREATE
 40
2457917.645717581
  9
$TDUCREATE
 40
2457917.270717592
  9
$TDUPDATE
 40
2457917.645717581
  9
$TDUUPDATE
 40
2457917.270717592
  9
$TDINDWG
 40
0.0000000116
  9
$TDUSRTIMER
 40
0.0000000116
  9
$USRTIMER
 70
     1
  9
$ANGBASE
 50
0.0
  9
$ANGDIR
 70
     0
  9
$PDMODE
 70
     0
  9
$PDSIZE
 40
0.0
  9
$PLINEWID
 40
0.0
  9
$SPLFRAME
 70
     0
  9
$SPLINETYPE
 70
     6
  9
$SPLINESEGS
 70
     8
  9
$HANDSEED
  5
100
  9
$SURFTAB1
 70
     6
  9
$SURFTAB2
 70
     6
  9
$SURFTYPE
 70
     6
  9
$SURFU
 70
     6
  9
$SURFV
 70
     6
  9
$UCSBASE
  2

  9
$UCSNAME
  2

  9
$UCSORG
 10
0.0
 20
0.0
 30
0.0
  9
$UCSXDIR
 10
1.0
 20
0.0
 30
0.0
  9
$UCSYDIR
 10
0.0
 20
1.0
 30
0.0
  9
$UCSORTHOREF
  2

  9
$UCSORTHOVIEW
 70
     0
  9
$UCSORGTOP
 10
0.0
 20
0.0
 30
0.0
  9
$UCSORGBOTTOM
 10
0.0
 20
0.0
 30
0.0
  9
$UCSORGLEFT
 10
0.0
 20
0.0
 30
0.0
  9
$UCSORGRIGHT
 10
0.0
 20
0.0
 30
0.0
  9
$UCSORGFRONT
 10
0.0
 20
0.0
 30
0.0
  9
$UCSORGBACK
 10
0.0
 20
0.0
 30
0.0
  9
$PUCSBASE
  2

  9
$PUCSNAME
  2

  9
$PUCSORG
 10
0.0
 20
0.0
 30
0.0
  9
$PUCSXDIR
 10
1.0
 20
0.0
 30
0.0
  9
$PUCSYDIR
 10
0.0
 20
1.0
 30
0.0
  9
$PUCSORTHOREF
  2

  9
$PUCSORTHOVIEW
 70
     0
  9
$PUCSORGTOP
 10
0.0
 20
0.0
 30
0.0
  9
$PUCSORGBOTTOM
 10
0.0
 20
0.0
 30
0.0
  9
$PUCSORGLEFT
 10
0.0
 20
0.0
 30
0.0
  9
$PUCSORGRIGHT
 10
0.0
 20
0.0
 30
0.0
  9
$PUCSORGFRONT
 10
0.0
 20
0.0
 30
0.0
  9
$PUCSORGBACK
 10
0.0
 20
0.0
 30
0.0
  9
$USERI1
 70
     0
  9
$USERI2
 70
     0
  9
$USERI3
 70
     0
  9
$USERI4
 70
     0
  9
$USERI5
 70
     0
  9
$USERR1
 40
0.0
  9
$USERR2
 40
0.0
  9
$USERR3
 40
0.0
  9
$USERR4
 40
0.0
  9
$USERR5
 40
0.0
  9
$WORLDVIEW
 70
     1
  9
$SHADEDGE
 70
     3
  9
$SHADEDIF
 70
    70
  9
$TILEMODE
 70
     1
  9
$MAXACTVP
 70
    64
  9
$PINSBASE
 10
0.0
 20
0.0
 30
0.0
  9
$PLIMCHECK
 70
     0
  9
$PEXTMIN
 10
1.000000000000000E+20
 20
1.000000000000000E+20
 30
1.000000000000000E+20
  9
$PEXTMAX
 10
-1.000000000000000E+20
 20
-1.000000000000000E+20
 30
-1.000000000000000E+20
  9
$PLIMMIN
 10
0.0
 20
0.0
  9
$PLIMMAX
 10
12.0
 20
9.0
  9
$UNITMODE
 70
     0
  9
$VISRETAIN
 70
     1
  9
$PLINEGEN
 70
     0
  9
$PSLTSCALE
 70
     1
  9
$TREEDEPTH
 70
  3020
  9
$CMLSTYLE
  2
Standard
  9
$CMLJUST
 70
     0
  9
$CMLSCALE
 40
1.0
  9
$PROXYGRAPHICS
 70
     1
  9
$MEASUREMENT
 70
     0
  9
$CELWEIGHT
370
    -1
  9
$ENDCAPS
280
     0
  9
$JOINSTYLE
280
     0
  9
$LWDISPLAY
290
     1
  9
$INSUNITS
 70
     1
  9
$HYPERLINKBASE
  1

  9
$STYLESHEET
  1

  9
$XEDIT
290
     1
  9
$CEPSNTYPE
380
     0
  9
$PSTYLEMODE
290
     1
  9
$FINGERPRINTGUID
  2
{F1A1D8A6-F675-94DF-B650-428227F4E62E}
  9
$VERSIONGUID
  2
{FAEB1C32-E019-11D5-929B-00C0DF256EC4}
  9
$EXTNAMES
290
     1
  9
$PSVPSCALE
 40
0.0
  9
$OLESTARTUP
290
     0
  9
$SORTENTS
280
   127
  9
$INDEXCTL
280
     0
  9
$HIDETEXT
280
     1
  9
$XCLIPFRAME
280
     2
  9
$HALOGAP
280
     0
  9
$OBSCOLOR
 70
   257
  9
$OBSLTYPE
280
     0
  9
$INTERSECTIONDISPLAY
280
     0
  9
$INTERSECTIONCOLOR
 70
   257
  9
$DIMASSOC
280
     2
  9
$PROJECTNAME
  1

  9
$CAMERADISPLAY
290
     0
  9
$LENSLENGTH
 40
50.0
  9
$CAMERAHEIGHT
 40
0.0
  9
$STEPSPERSEC
 40
2.0
  9
$STEPSIZE
 40
6.0
  9
$3DDWFPREC
 40
2.0
  9
$PSOLWIDTH
 40
0.25
  9
$PSOLHEIGHT
 40
4.0
  9
$LOFTANG1
 40
1.570796326794897
  9
$LOFTANG2
 40
1.570796326794897
  9
$LOFTMAG1
 40
0.0
  9
$LOFTMAG2
 40
0.0
  9
$LOFTPARAM
 70
     7
  9
$LOFTNORMALS
280
     1
  9
$LATITUDE
 40
37.795
  9
$LONGITUDE
 40
-122.394
  9
$NORTHDIRECTION
 40
0.0
  9
$TIMEZONE
 70
 -8000
  9
$LIGHTGLYPHDISPLAY
280
     1
  9
$TILEMODELIGHTSYNCH
280
     1
  9
$CMATERIAL
347
3C
  9
$SOLIDHIST
280
     1
  9
$SHOWHIST
280
     1
  9
$DWFFRAME
280
     2
  9
$DGNFRAME
280
     2
  9
$REALWORLDSCALE
290
     1
  9
$INTERFERECOLOR
 62
   256
  9
$CSHADOW
280
     0
  9
$SHADOWPLANELOCATION
 40
0.0
  0
ENDSEC
  0
SECTION
  2
CLASSES
  0
CLASS
  1
ACDBDICTIONARYWDFLT
  2
AcDbDictionaryWithDefault
  3
ObjectDBX Classes
 90
        0
 91
        4
280
     0
281
     0
  0
CLASS
  1
VISUALSTYLE
  2
AcDbVisualStyle
  3
ObjectDBX Classes
 90
     4095
 91
        4
280
     0
281
     0
  0
CLASS
  1
MATERIAL
  2
AcDbMaterial
  3
ObjectDBX Classes
 90
     1153
 91
        4
280
     0
281
     0
  0
CLASS
  1
SUN
  2
AcDbSun
  3
SCENEOE
 90
     1024
 91
        4
280
     0
281
     0
  0
ENDSEC
  0
SECTION
  2
TABLES
  0
TABLE
  2
VPORT
  5
8
330
0
100
AcDbSymbolTable
 70
     1
  0
VPORT
  5
29
330
8
100
AcDbSymbolTableRecord
100
AcDbViewportTableRecord
  2
*Active
 70
     0
 10
0.0
 20
0.0
 11
1.0
 21
1.0
 12
0.0
 22
0.0
 13
0.0
 23
0.0
 14
0.5
 24
0.5
 15
0.5
 25
0.5
 16
0.0
 26
0.0
 36
1.0
 17
91.00082462281999
 27
-128.4993055234307
 37
0.0
 40
256.9986110468615
 41
0.7081814508812795
 42
50.0
 43
0.0
 44
0.0
 50
0.0
 51
0.0
 71
     0
 72
   100
 73
     1
 74
     3
 75
     0
 76
     0
 77
     0
 78
     0
281
     0
 65
     1
110
0.0
120
0.0
130
0.0
111
1.0
121
0.0
131
0.0
112
0.0
122
1.0
132
0.0
 79
     0
146
0.0
 60
     3
 61
     5
292
     1
282
     1
141
0.0
142
0.0
 63
   250
361
3F
  0
ENDTAB
  0
TABLE
  2
LTYPE
  5
5
330
0
100
AcDbSymbolTable
 70
     1
  0
LTYPE
  5
14
330
5
100
AcDbSymbolTableRecord
100
AcDbLinetypeTableRecord
  2
ByBlock
 70
     0
  3

 72
    65
 73
     0
 40
0.0
  0
LTYPE
  5
15
330
5
100
AcDbSymbolTableRecord
100
AcDbLinetypeTableRecord
  2
ByLayer
 70
     0
  3

 72
    65
 73
     0
 40
0.0
  0
LTYPE
  5
16
330
5
100
AcDbSymbolTableRecord
100
AcDbLinetypeTableRecord
  2
Continuous
 70
     0
  3
Solid line
 72
    65
 73
     0
 40
0.0
  0
ENDTAB
  0
TABLE
  2
LAYER
  5
2
330
0
100
AcDbSymbolTable
 70
     2
  0
LAYER
  5
10
330
2
100
AcDbSymbolTableRecord
100
AcDbLayerTableRecord
  2
0
 70
     0
 62
     7
  6
Continuous
370
    -3
390
F
347
3E
  0
LAYER
  5
40
330
2
100
AcDbSymbolTableRecord
100
AcDbLayerTableRecord
  2
_U+30EC_U+30A4_U+30E4_U+30FC 1
 70
     0
 62
     7
  6
Continuous
370
    -3
390
F
347
3E
  0
ENDTAB
  0
TABLE
  2
STYLE
  5
3
330
0
100
AcDbSymbolTable
 70
     1
  0
STYLE
  5
11
330
3
100
AcDbSymbolTableRecord
100
AcDbTextStyleTableRecord
  2
Standard
 70
     0
 40
0.0
 41
1.0
 50
0.0
 71
     0
 42
0.2
  3
txt
  4

  0
ENDTAB
  0
TABLE
  2
VIEW
  5
6
330
0
100
AcDbSymbolTable
 70
     0
  0
ENDTAB
  0
TABLE
  2
UCS
  5
7
330
0
100
AcDbSymbolTable
 70
     0
  0
ENDTAB
  0
TABLE
  2
APPID
  5
9
330
0
100
AcDbSymbolTable
 70
     1
  0
APPID
  5
12
330
9
100
AcDbSymbolTableRecord
100
AcDbRegAppTableRecord
  2
ACAD
 70
     0
  0
ENDTAB
  0
TABLE
  2
DIMSTYLE
  5
A
330
0
100
AcDbSymbolTable
 70
     1
100
AcDbDimStyleTable
  0
DIMSTYLE
105
27
330
A
100
AcDbSymbolTableRecord
100
AcDbDimStyleTableRecord
  2
Standard
 70
     0
178
     0
340
11
  0
ENDTAB
  0
TABLE
  2
BLOCK_RECORD
  5
1
330
0
100
AcDbSymbolTable
 70
     7
  0
BLOCK_RECORD
  5
1F
330
1
100
AcDbSymbolTableRecord
100
AcDbBlockTableRecord
  2
*Model_Space
340
22
 70
     0
280
     1
281
     0
  0
BLOCK_RECORD
  5
1B
330
1
100
AcDbSymbolTableRecord
100
AcDbBlockTableRecord
  2
*Paper_Space
340
1E
 70
     0
280
     1
281
     0
  0
BLOCK_RECORD
  5
23
330
1
100
AcDbSymbolTableRecord
100
AcDbBlockTableRecord
  2
*Paper_Space0
340
26
 70
     0
280
     1
281
     0
  0
BLOCK_RECORD
  5
5F
330
1
100
AcDbSymbolTableRecord
100
AcDbBlockTableRecord
  2
block 2
340
0
102
{BLKREFS
331
60
102
}
 70
     0
280
     1
281
     0
  0
BLOCK_RECORD
  5
71
330
1
100
AcDbSymbolTableRecord
100
AcDbBlockTableRecord
  2
block 3
340
0
102
{BLKREFS
331
72
102
}
 70
     0
280
     1
281
     0
  0
BLOCK_RECORD
  5
7A
330
1
100
AcDbSymbolTableRecord
100
AcDbBlockTableRecord
  2
block 4
340
0
102
{BLKREFS
331
7B
102
}
 70
     0
280
     1
281
     0
  0
BLOCK_RECORD
  5
8C
330
1
100
AcDbSymbolTableRecord
100
AcDbBlockTableRecord
  2
block 5
340
0
102
{BLKREFS
331
8D
102
}
 70
     0
280
     1
281
     0
  0
BLOCK_RECORD
  5
A8
330
1
100
AcDbSymbolTableRecord
100
AcDbBlockTableRecord
  2
block 6
340
0
102
{BLKREFS
331
A9
102
}
 70
     0
280
     1
281
     0
  0
BLOCK_RECORD
  5
F5
330
1
100
AcDbSymbolTableRecord
100
AcDbBlockTableRecord
  2
block 7
340
0
102
{BLKREFS
331
F6
102
}
 70
     0
280
     1
281
     0
  0
ENDTAB
  0
ENDSEC
  0
SECTION
  2
BLOCKS
  0
BLOCK
  5
20
330
1F
100
AcDbEntity
  8
0
100
AcDbBlockBegin
  2
*Model_Space
 70
     0
 10
0.0
 20
0.0
 30
0.0
  3
*Model_Space
  1

  0
ENDBLK
  5
21
330
1F
100
AcDbEntity
  8
0
100
AcDbBlockEnd
  0
BLOCK
  5
1C
330
1B
100
AcDbEntity
 67
     1
  8
0
100
AcDbBlockBegin
  2
*Paper_Space
 70
     0
 10
0.0
 20
0.0
 30
0.0
  3
*Paper_Space
  1

  0
ENDBLK
  5
1D
330
1B
100
AcDbEntity
 67
     1
  8
0
100
AcDbBlockEnd
  0
BLOCK
  5
24
330
23
100
AcDbEntity
  8
0
100
AcDbBlockBegin
  2
*Paper_Space0
 70
     0
 10
0.0
 20
0.0
 30
0.0
  3
*Paper_Space0
  1

  0
ENDBLK
  5
25
330
23
100
AcDbEntity
  8
0
100
AcDbBlockEnd
  0
BLOCK
  5
61
330
5F
100
AcDbEntity
  8
0
100
AcDbBlockBegin
  2
block 2
 70
     0
 10
0.0
 20
0.0
 30
0.0
  3
block 2
  1

  0
SPLINE
  5
63
330
5F
100
AcDbEntity
  8
_U+30EC_U+30A4_U+30E4_U+30FC 1
 62
   179
420
  2234388
370
     9
100
AcDbSpline
210
0.0
220
0.0
230
1.0
 70
    11
 71
     3
 72
    17
 73
    13
 74
     0
 42
0.0000000001
 43
0.0000000001
 12
1.0
 22
0.0
 32
0.0
 13
1.0
 23
0.0
 33
0.0
 40
0.0
 40
0.0
 40
0.0
 40
0.0
 40
1.0
 40
1.0
 40
1.0
 40
2.0
 40
2.0
 40
2.0
 40
3.0
 40
3.0
 40
3.0
 40
4.0
 40
4.0
 40
4.0
 40
4.0
 10
115.7200687144018
 20
-108.3206988618087
 30
0.0
 10
115.7200687144018
 20
-108.3758027506839
 30
0.0
 10
115.7648362132596
 20
-108.4206055284504
 30
0.0
 10
115.8199753785196
 20
-108.4206055284504
 30
0.0
 10
115.8750792660027
 20
-108.4206055284504
 30
0.0
 10
115.9198820426374
 20
-108.3758027506839
 30
0.0
 10
115.9198820426374
 20
-108.3206988618087
 30
0.0
 10
115.9198820426374
 20
-108.2648894173783
 30
0.0
 10
115.8750792660027
 20
-108.2200866396116
 30
0.0
 10
115.8199753785196
 20
-108.2200866396116
 30
0.0
 10
115.7648362132596
 20
-108.2200866396116
 30
0.0
 10
115.7200687144018
 20
-108.2648894173783
 30
0.0
 10
115.7200687144018
 20
-108.3206988618087
 30
0.0
  0
SPLINE
  5
64
330
5F
100
AcDbEntity
  8
_U+30EC_U+30A4_U+30E4_U+30FC 1
 62
   179
420
  2234388
370
     9
100
AcDbSpline
210
0.0
220
0.0
230
1.0
 70
    11
 71
     3
 72
    17
 73
    13
 74
     0
 42
0.0000000001
 43
0.0000000001
 12
1.0
 22
0.0
 32
0.0
 13
1.0
 23
0.0
 33
0.0
 40
0.0
 40
0.0
 40
0.0
 40
0.0
 40
1.0
 40
1.0
 40
1.0
 40
2.0
 40
2.0
 40
2.0
 40
3.0
 40
3.0
 40
3.0
 40
4.0
 40
4.0
 40
4.0
 40
4.0
 10
115.7200687144018
 20
-138.313689132088
 30
0.0
 10
115.7200687144018
 20
-138.3688282987411
 30
0.0
 10
115.7648362132596
 20
-138.4135957987297
 30
0.0
 10
115.8199753785196
 20
-138.4135957987297
 30
0.0
 10
115.8750792660027
 20
-138.4135957987297
 30
0.0
 10
115.9198820426374
 20
-138.3688282987411
 30
0.0
 10
115.9198820426374
 20
-138.313689132088
 30
0.0
 10
115.9198820426374
 20
-138.2585852432131
 30
0.0
 10
115.8750792660027
 20
-138.2137824654464
 30
0.0
 10
115.8199753785196
 20
-138.2137824654464
 30
0.0
 10
115.7648362132596
 20
-138.2137824654464
 30
0.0
 10
115.7200687144018
 20
-138.2585852432131
 30
0.0
 10
115.7200687144018
 20
-138.313689132088
 30
0.0
  0
POLYLINE
  5
65
330
5F
100
AcDbEntity
  8
_U+30EC_U+30A4_U+30E4_U+30FC 1
 62
   179
420
  2234388
370
     9
100
AcDb2dPolyline
 66
     1
 10
0.0
 20
0.0
 30
0.0
  0
VERTEX
  5
66
330
65
100
AcDbEntity
  8
_U+30EC_U+30A4_U+30E4_U+30FC 1
 62
   179
420
  2234388
370
     9
100
AcDbVertex
100
AcDb2dVertex
 10
115.8199753785196
 20
-108.3138196951436
 30
0.0
  0
VERTEX
  5
67
330
65
100
AcDbEntity
  8
_U+30EC_U+30A4_U+30E4_U+30FC 1
 62
   179
420
  2234388
370
     9
100
AcDbVertex
100
AcDb2dVertex
 10
115.8199753785196
 20
-138.313689132088
 30
0.0
  0
SEQEND
  5
68
330
65
100
AcDbEntity
  8
_U+30EC_U+30A4_U+30E4_U+30FC 1
 62
   179
420
  2234388
370
     9
  0
POLYLINE
  5
69
330
5F
100
AcDbEntity
  8
_U+30EC_U+30A4_U+30E4_U+30FC 1
 62
   179
420
  2234388
370
     9
100
AcDb2dPolyline
 66
     1
 10
0.0
 20
0.0
 30
0.0
  0
VERTEX
  5
6A
330
69
100
AcDbEntity
  8
_U+30EC_U+30A4_U+30E4_U+30FC 1
 62
   179
420
  2234388
370
     9
100
AcDbVertex
100
AcDb2dVertex
 10
113.7584126533367
 20
-108.3206988618087
 30
0.0
  0
VERTEX
  5
6B
330
69
100
AcDbEntity
  8
_U+30EC_U+30A4_U+30E4_U+30FC 1
 62
   179
420
  2234388
370
     9
100
AcDbVertex
100
AcDb2dVertex
 10
116.8197475752355
 20
-108.3206988618087
 30
0.0
  0
SEQEND
  5
6C
330
69
100
AcDbEntity
  8
_U+30EC_U+30A4_U+30E4_U+30FC 1
 62
   179
420
  2234388
370
     9
  0
POLYLINE
  5
6D
330
5F
100
AcDbEntity
  8
_U+30EC_U+30A4_U+30E4_U+30FC 1
 62
   179
420
  2234388
370
     9
100
AcDb2dPolyline
 66
     1
 10
0.0
 20
0.0
 30
0.0
  0
VERTEX
  5
6E
330
6D
100
AcDbEntity
  8
_U+30EC_U+30A4_U+30E4_U+30FC 1
 62
   179
420
  2234388
370
     9
100
AcDbVertex
100
AcDb2dVertex
 10
113.9603073704081
 20
-138.313689132088
 30
0.0
  0
VERTEX
  5
6F
330
6D
100
AcDbEntity
  8
_U+30EC_U+30A4_U+30E4_U+30FC 1
 62
   179
420
  2234388
370
     9
100
AcDbVertex
100
AcDb2dVertex
 10
116.8197475752355
 20
-138.313689132088
 30
0.0
  0
SEQEND
  5
70
330
6D
100
AcDbEntity
  8
_U+30EC_U+30A4_U+30E4_U+30FC 1
 62
   179
420
  2234388
370
     9
  0
INSERT
  5
72
330
5F
100
AcDbEntity
  8
_U+30EC_U+30A4_U+30E4_U+30FC 1
100
AcDbBlockReference
  2
block 3
 10
0.0
 20
0.0
 30
0.0
  0
ENDBLK
  5
62
330
5F
100
AcDbEntity
  8
0
100
AcDbBlockEnd
  0
BLOCK
  5
73
330
71
100
AcDbEntity
  8
0
100
AcDbBlockBegin
  2
block 3
 70
     0
 10
0.0
 20
0.0
 30
0.0
  3
block 3
  1

  0
SPLINE
  5
75
330
71
100
AcDbEntity
  8
_U+30EC_U+30A4_U+30E4_U+30FC 1
370
     0
100
AcDbSpline
210
0.0
220
0.0
230
1.0
 70
    11
 71
     3
 72
    62
 73
    58
 74
     0
 42
0.0000000001
 43
0.0000000001
 12
1.0
 22
0.0
 32
0.0
 13
1.0
 23
0.0
 33
0.0
 40
0.0
 40
0.0
 40
0.0
 40
0.0
 40
1.0
 40
1.0
 40
1.0
 40
2.0
 40
2.0
 40
2.0
 40
3.0
 40
3.0
 40
3.0
 40
4.0
 40
4.0
 40
4.0
 40
5.0
 40
5.0
 40
5.0
 40
6.0
 40
6.0
 40
6.0
 40
7.0
 40
7.0
 40
7.0
 40
8.0
 40
8.0
 40
8.0
 40
9.0
 40
9.0
 40
9.0
 40
10.0
 40
10.0
 40
10.0
 40
11.0
 40
11.0
 40
11.0
 40
12.0
 40
12.0
 40
12.0
 40
13.0
 40
13.0
 40
13.0
 40
14.0
 40
14.0
 40
14.0
 40
15.0
 40
15.0
 40
15.0
 40
16.0
 40
16.0
 40
16.0
 40
17.0
 40
17.0
 40
17.0
 40
18.0
 40
18.0
 40
18.0
 40
19.0
 40
19.0
 40
19.0
 40
19.0
 10
116.7642767720242
 20
-124.0158582589266
 30
0.0
 10
116.6812499708297
 20
-124.0158582589266
 30
0.0
 10
116.4903916809469
 20
-123.9946709216923
 30
0.0
 10
116.3808376445159
 20
-123.8084635107146
 30
0.0
 10
116.3160698493932
 20
-123.6963256526697
 30
0.0
 10
116.312624753908
 20
-123.5969346479202
 30
0.0
 10
116.3088351488742
 20
-123.5123575537573
 30
0.0
 10
116.3088351488742
 20
-123.5123575537573
 30
0.0
 10
116.5014159864997
 20
-123.5123575537573
 30
0.0
 10
116.5014159864997
 20
-123.5123575537573
 30
0.0
 10
116.5034830437908
 20
-123.5864271066902
 30
0.0
 10
116.5124402920524
 20
-123.82121036401
 30
0.0
 10
116.7604871669904
 20
-123.82121036401
 30
0.0
 10
116.8810655089742
 20
-123.82121036401
 30
0.0
 10
117.0143907042534
 20
-123.7514471804337
 30
0.0
 10
117.0143907042534
 20
-123.5228650949873
 30
0.0
 10
117.0143907042534
 20
-123.4065931223602
 30
0.0
 10
116.9809732780464
 20
-123.3578450212439
 30
0.0
 10
116.9534125141644
 20
-123.3261501427796
 30
0.0
 10
116.8886447190417
 20
-123.2520805898467
 30
0.0
 10
116.7866698926783
 20
-123.2395059913255
 30
0.0
 10
116.7384385558848
 20
-123.2395059913255
 30
0.0
 10
116.7219020975556
 20
-123.2395059913255
 30
0.0
 10
116.6902072190913
 20
-123.2415730486167
 30
0.0
 10
116.6660915506946
 20
-123.245707163199
 30
0.0
 10
116.6660915506946
 20
-123.245707163199
 30
0.0
 10
116.6660915506946
 20
-123.0512315230566
 30
0.0
 10
116.6660915506946
 20
-123.0512315230566
 30
0.0
 10
116.6995089769015
 20
-123.0574326949301
 30
0.0
 10
116.7363714985937
 20
-123.0596720069955
 30
0.0
 10
116.7422281609186
 20
-123.0596720069955
 30
0.0
 10
116.7997612555223
 20
-123.0596720069955
 30
0.0
 10
116.9733940679789
 20
-123.0384846697612
 30
0.0
 10
116.9733940679789
 20
-122.801462100376
 30
0.0
 10
116.9733940679789
 20
-122.6238674281114
 30
0.0
 10
116.8590168978686
 20
-122.5687459003474
 30
0.0
 10
116.7625542242816
 20
-122.5687459003474
 30
0.0
 10
116.5310438076728
 20
-122.5687459003474
 30
0.0
 10
116.5234645976053
 20
-122.801462100376
 30
0.0
 10
116.52001950212
 20
-122.8734645960178
 30
0.0
 10
116.52001950212
 20
-122.8734645960178
 30
0.0
 10
116.3422525750811
 20
-122.8734645960178
 30
0.0
 10
116.3422525750811
 20
-122.8734645960178
 30
0.0
 10
116.3494872756001
 20
-122.7485798846774
 30
0.0
 10
116.3736029439969
 20
-122.3720309481396
 30
0.0
 10
116.7735785298344
 20
-122.3720309481396
 30
0.0
 10
116.9699489724936
 20
-122.3720309481396
 30
0.0
 10
117.1807888161909
 20
-122.4989827167711
 30
0.0
 10
117.1807888161909
 20
-122.7950886737283
 30
0.0
 10
117.1807888161909
 20
-122.9812960847061
 30
0.0
 10
117.0977620149964
 20
-123.0638061215778
 30
0.0
 10
117.0106010992196
 20
-123.1251288212153
 30
0.0
 10
117.0643445887895
 20
-123.1526895850972
 30
0.0
 10
117.223508000208
 20
-123.2331325646778
 30
0.0
 10
117.223508000208
 20
-123.5102904964662
 30
0.0
 10
117.223508000208
 20
-123.848771127892
 30
0.0
 10
117.0071560037343
 20
-124.0158582589266
 30
0.0
 10
116.7642767720242
 20
-124.0158582589266
 30
0.0
  0
HATCH
  5
76
330
71
100
AcDbEntity
  8
_U+30EC_U+30A4_U+30E4_U+30FC 1
 62
   179
420
  2234388
100
AcDbHatch
 10
0.0
 20
0.0
 30
0.0
210
0.0
220
0.0
230
1.0
  2
SOLID
 70
     1
 71
     0
 91
        1
 92
        1
 93
        1
 72
     4
 94
        3
 73
     0
 74
     1
 95
       62
 96
       58
 40
0.0
 40
0.0
 40
0.0
 40
0.0
 40
1.0
 40
1.0
 40
1.0
 40
2.0
 40
2.0
 40
2.0
 40
3.0
 40
3.0
 40
3.0
 40
4.0
 40
4.0
 40
4.0
 40
5.0
 40
5.0
 40
5.0
 40
6.0
 40
6.0
 40
6.0
 40
7.0
 40
7.0
 40
7.0
 40
8.0
 40
8.0
 40
8.0
 40
9.0
 40
9.0
 40
9.0
 40
10.0
 40
10.0
 40
10.0
 40
11.0
 40
11.0
 40
11.0
 40
12.0
 40
12.0
 40
12.0
 40
13.0
 40
13.0
 40
13.0
 40
14.0
 40
14.0
 40
14.0
 40
15.0
 40
15.0
 40
15.0
 40
16.0
 40
16.0
 40
16.0
 40
17.0
 40
17.0
 40
17.0
 40
18.0
 40
18.0
 40
18.0
 40
19.0
 40
19.0
 40
19.0
 40
19.0
 10
116.7642767720242
 20
-124.0158582589266
 10
116.6812499708297
 20
-124.0158582589266
 10
116.4903916809469
 20
-123.9946709216923
 10
116.3808376445159
 20
-123.8084635107146
 10
116.3160698493932
 20
-123.6963256526697
 10
116.312624753908
 20
-123.5969346479202
 10
116.3088351488742
 20
-123.5123575537573
 10
116.3088351488742
 20
-123.5123575537573
 10
116.5014159864997
 20
-123.5123575537573
 10
116.5014159864997
 20
-123.5123575537573
 10
116.5034830437908
 20
-123.5864271066902
 10
116.5124402920524
 20
-123.82121036401
 10
116.7604871669904
 20
-123.82121036401
 10
116.8810655089742
 20
-123.82121036401
 10
117.0143907042534
 20
-123.7514471804337
 10
117.0143907042534
 20
-123.5228650949873
 10
117.0143907042534
 20
-123.4065931223602
 10
116.9809732780464
 20
-123.3578450212439
 10
116.9534125141644
 20
-123.3261501427796
 10
116.8886447190417
 20
-123.2520805898467
 10
116.7866698926783
 20
-123.2395059913255
 10
116.7384385558848
 20
-123.2395059913255
 10
116.7219020975556
 20
-123.2395059913255
 10
116.6902072190913
 20
-123.2415730486167
 10
116.6660915506946
 20
-123.245707163199
 10
116.6660915506946
 20
-123.245707163199
 10
116.6660915506946
 20
-123.0512315230566
 10
116.6660915506946
 20
-123.0512315230566
 10
116.6995089769015
 20
-123.0574326949301
 10
116.7363714985937
 20
-123.0596720069955
 10
116.7422281609186
 20
-123.0596720069955
 10
116.7997612555223
 20
-123.0596720069955
 10
116.9733940679789
 20
-123.0384846697612
 10
116.9733940679789
 20
-122.801462100376
 10
116.9733940679789
 20
-122.6238674281114
 10
116.8590168978686
 20
-122.5687459003474
 10
116.7625542242816
 20
-122.5687459003474
 10
116.5310438076728
 20
-122.5687459003474
 10
116.5234645976053
 20
-122.801462100376
 10
116.52001950212
 20
-122.8734645960178
 10
116.52001950212
 20
-122.8734645960178
 10
116.3422525750811
 20
-122.8734645960178
 10
116.3422525750811
 20
-122.8734645960178
 10
116.3494872756001
 20
-122.7485798846774
 10
116.3736029439969
 20
-122.3720309481396
 10
116.7735785298344
 20
-122.3720309481396
 10
116.9699489724936
 20
-122.3720309481396
 10
117.1807888161909
 20
-122.4989827167711
 10
117.1807888161909
 20
-122.7950886737283
 10
117.1807888161909
 20
-122.9812960847061
 10
117.0977620149964
 20
-123.0638061215778
 10
117.0106010992196
 20
-123.1251288212153
 10
117.0643445887895
 20
-123.1526895850972
 10
117.223508000208
 20
-123.2331325646778
 10
117.223508000208
 20
-123.5102904964662
 10
117.223508000208
 20
-123.848771127892
 10
117.0071560037343
 20
-124.0158582589266
 10
116.7642767720242
 20
-124.0158582589266
 97
        0
 97
        0
 75
     2
 76
     1
 98
        0
  0
SPLINE
  5
77
330
71
100
AcDbEntity
  8
_U+30EC_U+30A4_U+30E4_U+30FC 1
370
     0
100
AcDbSpline
210
0.0
220
0.0
230
1.0
 70
    11
 71
     3
 72
    29
 73
    25
 74
     0
 42
0.0000000001
 43
0.0000000001
 12
1.0
 22
0.0
 32
0.0
 13
1.0
 23
0.0
 33
0.0
 40
0.0
 40
0.0
 40
0.0
 40
0.0
 40
1.0
 40
1.0
 40
1.0
 40
2.0
 40
2.0
 40
2.0
 40
3.0
 40
3.0
 40
3.0
 40
4.0
 40
4.0
 40
4.0
 40
5.0
 40
5.0
 40
5.0
 40
6.0
 40
6.0
 40
6.0
 40
7.0
 40
7.0
 40
7.0
 40
8.0
 40
8.0
 40
8.0
 40
8.0
 10
118.1505831952887
 20
-123.7872761734803
 30
0.0
 10
118.0561875789929
 20
-123.9967379789835
 30
0.0
 10
117.9042588680934
 20
-124.0158582589266
 30
0.0
 10
117.8026285512785
 20
-124.0158582589266
 30
0.0
 10
117.6617241459318
 20
-124.0158582589266
 30
0.0
 10
117.5377007084628
 20
-123.9693494698757
 30
0.0
 10
117.4543293977198
 20
-123.7872761734803
 30
0.0
 10
117.3637233864577
 20
-123.5928005333379
 30
0.0
 10
117.34684241858
 20
-123.3557779639527
 30
0.0
 10
117.34684241858
 20
-123.1928249475004
 30
0.0
 10
117.34684241858
 20
-123.0489922109912
 30
0.0
 10
117.3620008387151
 20
-122.7973279857937
 30
0.0
 10
117.4543293977198
 20
-122.5983737215205
 30
0.0
 10
117.5487250140156
 20
-122.3952853426651
 30
0.0
 10
117.6896294193623
 20
-122.3720309481396
 30
0.0
 10
117.8026285512785
 20
-122.3720309481396
 30
0.0
 10
117.9414658993341
 20
-122.3720309481396
 30
0.0
 10
118.0675563940942
 20
-122.4164726798994
 30
0.0
 10
118.1505831952887
 20
-122.5983737215205
 30
0.0
 10
118.2377441110656
 20
-122.790954559146
 30
0.0
 10
118.2580701744285
 20
-123.0193643898181
 30
0.0
 10
118.2580701744285
 20
-123.1928249475004
 30
0.0
 10
118.2580701744285
 20
-123.3642184478916
 30
0.0
 10
118.2394666588082
 20
-123.5948675906291
 30
0.0
 10
118.1505831952887
 20
-123.7872761734803
 30
0.0
  0
SPLINE
  5
78
330
71
100
AcDbEntity
  8
_U+30EC_U+30A4_U+30E4_U+30FC 1
370
     0
100
AcDbSpline
210
0.0
220
0.0
230
1.0
 70
    11
 71
     3
 72
    17
 73
    13
 74
     0
 42
0.0000000001
 43
0.0000000001
 12
1.0
 22
0.0
 32
0.0
 13
1.0
 23
0.0
 33
0.0
 40
0.0
 40
0.0
 40
0.0
 40
0.0
 40
1.0
 40
1.0
 40
1.0
 40
2.0
 40
2.0
 40
2.0
 40
3.0
 40
3.0
 40
3.0
 40
4.0
 40
4.0
 40
4.0
 40
4.0
 10
117.8026285512785
 20
-122.5646117857651
 30
0.0
 10
117.5838649879652
 20
-122.5646117857651
 30
0.0
 10
117.5432128612392
 20
-122.8479708894269
 30
0.0
 10
117.5432128612392
 20
-123.1928249475004
 30
0.0
 10
117.5432128612392
 20
-123.5123575537573
 30
0.0
 10
117.5749077397035
 20
-123.82121036401
 30
0.0
 10
117.8026285512785
 20
-123.82121036401
 30
0.0
 10
118.0193250573007
 20
-123.82121036401
 30
0.0
 10
118.0616997317693
 20
-123.5397460628651
 30
0.0
 10
118.0616997317693
 20
-123.1928249475004
 30
0.0
 10
118.0616997317693
 20
-122.8734645960178
 30
0.0
 10
118.0282823055624
 20
-122.5646117857651
 30
0.0
 10
117.8026285512785
 20
-122.5646117857651
 30
0.0
  0
HATCH
  5
79
330
71
100
AcDbEntity
  8
_U+30EC_U+30A4_U+30E4_U+30FC 1
 62
   179
420
  2234388
100
AcDbHatch
 10
0.0
 20
0.0
 30
0.0
210
0.0
220
0.0
230
1.0
  2
SOLID
 70
     1
 71
     0
 91
        2
 92
        1
 93
        1
 72
     4
 94
        3
 73
     0
 74
     1
 95
       29
 96
       25
 40
0.0
 40
0.0
 40
0.0
 40
0.0
 40
1.0
 40
1.0
 40
1.0
 40
2.0
 40
2.0
 40
2.0
 40
3.0
 40
3.0
 40
3.0
 40
4.0
 40
4.0
 40
4.0
 40
5.0
 40
5.0
 40
5.0
 40
6.0
 40
6.0
 40
6.0
 40
7.0
 40
7.0
 40
7.0
 40
8.0
 40
8.0
 40
8.0
 40
8.0
 10
118.1505831952887
 20
-123.7872761734803
 10
118.0561875789929
 20
-123.9967379789835
 10
117.9042588680934
 20
-124.0158582589266
 10
117.8026285512785
 20
-124.0158582589266
 10
117.6617241459318
 20
-124.0158582589266
 10
117.5377007084628
 20
-123.9693494698757
 10
117.4543293977198
 20
-123.7872761734803
 10
117.3637233864577
 20
-123.5928005333379
 10
117.34684241858
 20
-123.3557779639527
 10
117.34684241858
 20
-123.1928249475004
 10
117.34684241858
 20
-123.0489922109912
 10
117.3620008387151
 20
-122.7973279857937
 10
117.4543293977198
 20
-122.5983737215205
 10
117.5487250140156
 20
-122.3952853426651
 10
117.6896294193623
 20
-122.3720309481396
 10
117.8026285512785
 20
-122.3720309481396
 10
117.9414658993341
 20
-122.3720309481396
 10
118.0675563940942
 20
-122.4164726798994
 10
118.1505831952887
 20
-122.5983737215205
 10
118.2377441110656
 20
-122.790954559146
 10
118.2580701744285
 20
-123.0193643898181
 10
118.2580701744285
 20
-123.1928249475004
 10
118.2580701744285
 20
-123.3642184478916
 10
118.2394666588082
 20
-123.5948675906291
 10
118.1505831952887
 20
-123.7872761734803
 97
        0
 97
        0
 92
        1
 93
        1
 72
     4
 94
        3
 73
     0
 74
     1
 95
       17
 96
       13
 40
0.0
 40
0.0
 40
0.0
 40
0.0
 40
1.0
 40
1.0
 40
1.0
 40
2.0
 40
2.0
 40
2.0
 40
3.0
 40
3.0
 40
3.0
 40
4.0
 40
4.0
 40
4.0
 40
4.0
 10
117.8026285512785
 20
-122.5646117857651
 10
117.5838649879652
 20
-122.5646117857651
 10
117.5432128612392
 20
-122.8479708894269
 10
117.5432128612392
 20
-123.1928249475004
 10
117.5432128612392
 20
-123.5123575537573
 10
117.5749077397035
 20
-123.82121036401
 10
117.8026285512785
 20
-123.82121036401
 10
118.0193250573007
 20
-123.82121036401
 10
118.0616997317693
 20
-123.5397460628651
 10
118.0616997317693
 20
-123.1928249475004
 10
118.0616997317693
 20
-122.8734645960178
 10
118.0282823055624
 20
-122.5646117857651
 10
117.8026285512785
 20
-122.5646117857651
 97
        0
 97
        0
 75
     2
 76
     1
 98
        0
  0
ENDBLK
  5
74
330
71
100
AcDbEntity
  8
0
100
AcDbBlockEnd
  0
BLOCK
  5
7C
330
7A
100
AcDbEntity
  8
0
100
AcDbBlockBegin
  2
block 4
 70
     0
 10
0.0
 20
0.0
 30
0.0
  3
block 4
  1

  0
SPLINE
  5
7E
330
7A
100
AcDbEntity
  8
_U+30EC_U+30A4_U+30E4_U+30FC 1
 62
   179
420
  2234388
370
     9
100
AcDbSpline
210
0.0
220
0.0
230
1.0
 70
    11
 71
     3
 72
    17
 73
    13
 74
     0
 42
0.0000000001
 43
0.0000000001
 12
1.0
 22
0.0
 32
0.0
 13
1.0
 23
0.0
 33
0.0
 40
0.0
 40
0.0
 40
0.0
 40
0.0
 40
1.0
 40
1.0
 40
1.0
 40
2.0
 40
2.0
 40
2.0
 40
3.0
 40
3.0
 40
3.0
 40
4.0
 40
4.0
 40
4.0
 40
4.0
 10
103.7407940200185
 20
-142.4815821866018
 30
0.0
 10
103.7407940200185
 20
-142.4264430199487
 30
0.0
 10
103.6959912433838
 20
-142.3816755199601
 30
0.0
 10
103.6408873559007
 20
-142.3816755199601
 30
0.0
 10
103.5857481906407
 20
-142.3816755199601
 30
0.0
 10
103.5409833074482
 20
-142.4264430199487
 30
0.0
 10
103.5409833074482
 20
-142.4815821866018
 30
0.0
 10
103.5409833074482
 20
-142.5366860754767
 30
0.0
 10
103.5857481906407
 20
-142.5814888532434
 30
0.0
 10
103.6408873559007
 20
-142.5814888532434
 30
0.0
 10
103.6959912433838
 20
-142.5814888532434
 30
0.0
 10
103.7407940200185
 20
-142.5366860754767
 30
0.0
 10
103.7407940200185
 20
-142.4815821866018
 30
0.0
  0
SPLINE
  5
7F
330
7A
100
AcDbEntity
  8
_U+30EC_U+30A4_U+30E4_U+30FC 1
 62
   179
420
  2234388
370
     9
100
AcDbSpline
210
0.0
220
0.0
230
1.0
 70
    11
 71
     3
 72
    17
 73
    13
 74
     0
 42
0.0000000001
 43
0.0000000001
 12
1.0
 22
0.0
 32
0.0
 13
1.0
 23
0.0
 33
0.0
 40
0.0
 40
0.0
 40
0.0
 40
0.0
 40
1.0
 40
1.0
 40
1.0
 40
2.0
 40
2.0
 40
2.0
 40
3.0
 40
3.0
 40
3.0
 40
4.0
 40
4.0
 40
4.0
 40
4.0
 10
63.81661642745803
 20
-142.4815821866018
 30
0.0
 10
63.81661642745803
 20
-142.4264430199487
 30
0.0
 10
63.77181365082327
 20
-142.3816755199601
 30
0.0
 10
63.7167097633402
 20
-142.3816755199601
 30
0.0
 10
63.66121942852926
 20
-142.3816755199601
 30
0.0
 10
63.61645032145358
 20
-142.4264430199487
 30
0.0
 10
63.61645032145358
 20
-142.4815821866018
 30
0.0
 10
63.61645032145358
 20
-142.5366860754767
 30
0.0
 10
63.66121942852926
 20
-142.5814888532434
 30
0.0
 10
63.7167097633402
 20
-142.5814888532434
 30
0.0
 10
63.77181365082327
 20
-142.5814888532434
 30
0.0
 10
63.81661642745803
 20
-142.5366860754767
 30
0.0
 10
63.81661642745803
 20
-142.4815821866018
 30
0.0
  0
POLYLINE
  5
80
330
7A
100
AcDbEntity
  8
_U+30EC_U+30A4_U+30E4_U+30FC 1
 62
   179
420
  2234388
370
     9
100
AcDb2dPolyline
 66
     1
 10
0.0
 20
0.0
 30
0.0
  0
VERTEX
  5
81
330
80
100
AcDbEntity
  8
_U+30EC_U+30A4_U+30E4_U+30FC 1
 62
   179
420
  2234388
370
     9
100
AcDbVertex
100
AcDb2dVertex
 10
63.7167097633402
 20
-142.4815821866018
 30
0.0
  0
VERTEX
  5
82
330
80
100
AcDbEntity
  8
_U+30EC_U+30A4_U+30E4_U+30FC 1
 62
   179
420
  2234388
370
     9
100
AcDbVertex
100
AcDb2dVertex
 10
103.7166666407375
 20
-142.4815821866018
 30
0.0
  0
SEQEND
  5
83
330
80
100
AcDbEntity
  8
_U+30EC_U+30A4_U+30E4_U+30FC 1
 62
   179
420
  2234388
370
     9
  0
POLYLINE
  5
84
330
7A
100
AcDbEntity
  8
_U+30EC_U+30A4_U+30E4_U+30FC 1
 62
   179
420
  2234388
370
     9
100
AcDb2dPolyline
 66
     1
 10
0.0
 20
0.0
 30
0.0
  0
VERTEX
  5
85
330
84
100
AcDbEntity
  8
_U+30EC_U+30A4_U+30E4_U+30FC 1
 62
   179
420
  2234388
370
     9
100
AcDbVertex
100
AcDb2dVertex
 10
63.7167097633402
 20
-140.4268985760042
 30
0.0
  0
VERTEX
  5
86
330
84
100
AcDbEntity
  8
_U+30EC_U+30A4_U+30E4_U+30FC 1
 62
   179
420
  2234388
370
     9
100
AcDbVertex
100
AcDb2dVertex
 10
63.7167097633402
 20
-143.4813544085743
 30
0.0
  0
SEQEND
  5
87
330
84
100
AcDbEntity
  8
_U+30EC_U+30A4_U+30E4_U+30FC 1
 62
   179
420
  2234388
370
     9
  0
POLYLINE
  5
88
330
7A
100
AcDbEntity
  8
_U+30EC_U+30A4_U+30E4_U+30FC 1
 62
   179
420
  2234388
370
     9
100
AcDb2dPolyline
 66
     1
 10
0.0
 20
0.0
 30
0.0
  0
VERTEX
  5
89
330
88
100
AcDbEntity
  8
_U+30EC_U+30A4_U+30E4_U+30FC 1
 62
   179
420
  2234388
370
     9
100
AcDbVertex
100
AcDb2dVertex
 10
103.6408873559007
 20
-140.621208575956
 30
0.0
  0
VERTEX
  5
8A
330
88
100
AcDbEntity
  8
_U+30EC_U+30A4_U+30E4_U+30FC 1
 62
   179
420
  2234388
370
     9
100
AcDbVertex
100
AcDb2dVertex
 10
103.6408873559007
 20
-143.4813544085743
 30
0.0
  0
SEQEND
  5
8B
330
88
100
AcDbEntity
  8
_U+30EC_U+30A4_U+30E4_U+30FC 1
 62
   179
420
  2234388
370
     9
  0
INSERT
  5
8D
330
7A
100
AcDbEntity
  8
_U+30EC_U+30A4_U+30E4_U+30FC 1
100
AcDbBlockReference
  2
block 5
 10
0.0
 20
0.0
 30
0.0
  0
INSERT
  5
A9
330
7A
100
AcDbEntity
  8
_U+30EC_U+30A4_U+30E4_U+30FC 1
100
AcDbBlockReference
  2
block 6
 10
0.0
 20
0.0
 30
0.0
  0
ENDBLK
  5
7D
330
7A
100
AcDbEntity
  8
0
100
AcDbBlockEnd
  0
BLOCK
  5
8E
330
8C
100
AcDbEntity
  8
0
100
AcDbBlockBegin
  2
block 5
 70
     0
 10
0.0
 20
0.0
 30
0.0
  3
block 5
  1

  0
POLYLINE
  5
90
330
8C
100
AcDbEntity
  8
_U+30EC_U+30A4_U+30E4_U+30FC 1
370
     0
100
AcDb2dPolyline
 66
     1
 10
0.0
 20
0.0
 30
0.0
  0
VERTEX
  5
91
330
90
100
AcDbEntity
  8
_U+30EC_U+30A4_U+30E4_U+30FC 1
370
     0
100
AcDbVertex
100
AcDb2dVertex
 10
83.64812416528589
 20
-141.4211696695058
 30
0.0
  0
VERTEX
  5
92
330
90
100
AcDbEntity
  8
_U+30EC_U+30A4_U+30E4_U+30FC 1
370
     0
100
AcDbVertex
100
AcDb2dVertex
 10
83.64812416528589
 20
-141.7680907848705
 30
0.0
  0
VERTEX
  5
93
330
90
100
AcDbEntity
  8
_U+30EC_U+30A4_U+30E4_U+30FC 1
370
     0
100
AcDbVertex
100
AcDb2dVertex
 10
83.45726587540305
 20
-141.7680907848705
 30
0.0
  0
VERTEX
  5
94
330
90
100
AcDbEntity
  8
_U+30EC_U+30A4_U+30E4_U+30FC 1
370
     0
100
AcDbVertex
100
AcDb2dVertex
 10
83.45726587540305
 20
-141.4211696695058
 30
0.0
  0
VERTEX
  5
95
330
90
100
AcDbEntity
  8
_U+30EC_U+30A4_U+30E4_U+30FC 1
370
     0
100
AcDbVertex
100
AcDb2dVertex
 10
82.88331296756043
 20
-141.4211696695058
 30
0.0
  0
VERTEX
  5
96
330
90
100
AcDbEntity
  8
_U+30EC_U+30A4_U+30E4_U+30FC 1
370
     0
100
AcDbVertex
100
AcDb2dVertex
 10
82.88331296756043
 20
-141.1968939534161
 30
0.0
  0
VERTEX
  5
97
330
90
100
AcDbEntity
  8
_U+30EC_U+30A4_U+30E4_U+30FC 1
370
     0
100
AcDbVertex
100
AcDb2dVertex
 10
83.47793644831455
 20
-140.223654478833
 30
0.0
  0
VERTEX
  5
98
330
90
100
AcDbEntity
  8
_U+30EC_U+30A4_U+30E4_U+30FC 1
370
     0
100
AcDbVertex
100
AcDb2dVertex
 10
83.64812416528589
 20
-140.223654478833
 30
0.0
  0
VERTEX
  5
99
330
90
100
AcDbEntity
  8
_U+30EC_U+30A4_U+30E4_U+30FC 1
370
     0
100
AcDbVertex
100
AcDb2dVertex
 10
83.64812416528589
 20
-141.2223876600069
 30
0.0
  0
VERTEX
  5
9A
330
90
100
AcDbEntity
  8
_U+30EC_U+30A4_U+30E4_U+30FC 1
370
     0
100
AcDbVertex
100
AcDb2dVertex
 10
83.82968069735855
 20
-141.2223876600069
 30
0.0
  0
VERTEX
  5
9B
330
90
100
AcDbEntity
  8
_U+30EC_U+30A4_U+30E4_U+30FC 1
370
     0
100
AcDbVertex
100
AcDb2dVertex
 10
83.82968069735855
 20
-141.4211696695058
 30
0.0
  0
VERTEX
  5
9C
330
90
100
AcDbEntity
  8
_U+30EC_U+30A4_U+30E4_U+30FC 1
370
     0
100
AcDbVertex
100
AcDb2dVertex
 10
83.64812416528589
 20
-141.4211696695058
 30
0.0
  0
SEQEND
  5
9D
330
90
100
AcDbEntity
  8
_U+30EC_U+30A4_U+30E4_U+30FC 1
370
     0
  0
POLYLINE
  5
9E
330
8C
100
AcDbEntity
  8
_U+30EC_U+30A4_U+30E4_U+30FC 1
370
     0
100
AcDb2dPolyline
 66
     1
 10
0.0
 20
0.0
 30
0.0
  0
VERTEX
  5
9F
330
9E
100
AcDbEntity
  8
_U+30EC_U+30A4_U+30E4_U+30FC 1
370
     0
100
AcDbVertex
100
AcDb2dVertex
 10
83.45726587540305
 20
-140.5664414796153
 30
0.0
  0
VERTEX
  5
A0
330
9E
100
AcDbEntity
  8
_U+30EC_U+30A4_U+30E4_U+30FC 1
370
     0
100
AcDbVertex
100
AcDb2dVertex
 10
83.05763479911407
 20
-141.2223876600069
 30
0.0
  0
VERTEX
  5
A1
330
9E
100
AcDbEntity
  8
_U+30EC_U+30A4_U+30E4_U+30FC 1
370
     0
100
AcDbVertex
100
AcDb2dVertex
 10
83.45726587540305
 20
-141.2223876600069
 30
0.0
  0
VERTEX
  5
A2
330
9E
100
AcDbEntity
  8
_U+30EC_U+30A4_U+30E4_U+30FC 1
370
     0
100
AcDbVertex
100
AcDb2dVertex
 10
83.45726587540305
 20
-140.5664414796153
 30
0.0
  0
SEQEND
  5
A3
330
9E
100
AcDbEntity
  8
_U+30EC_U+30A4_U+30E4_U+30FC 1
370
     0
  0
HATCH
  5
A4
330
8C
100
AcDbEntity
  8
_U+30EC_U+30A4_U+30E4_U+30FC 1
 62
   179
420
  2234388
100
AcDbHatch
 10
0.0
 20
0.0
 30
0.0
210
0.0
220
0.0
230
1.0
  2
SOLID
 70
     1
 71
     0
 91
        2
 92
        1
 93
       11
 72
     1
 10
83.64812416528589
 20
-141.4211696695058
 11
83.64812416528589
 21
-141.7680907848705
 72
     1
 10
83.64812416528589
 20
-141.7680907848705
 11
83.45726587540305
 21
-141.7680907848705
 72
     1
 10
83.45726587540305
 20
-141.7680907848705
 11
83.45726587540305
 21
-141.4211696695058
 72
     1
 10
83.45726587540305
 20
-141.4211696695058
 11
82.88331296756043
 21
-141.4211696695058
 72
     1
 10
82.88331296756043
 20
-141.4211696695058
 11
82.88331296756043
 21
-141.1968939534161
 72
     1
 10
82.88331296756043
 20
-141.1968939534161
 11
83.47793644831455
 21
-140.223654478833
 72
     1
 10
83.47793644831455
 20
-140.223654478833
 11
83.64812416528589
 21
-140.223654478833
 72
     1
 10
83.64812416528589
 20
-140.223654478833
 11
83.64812416528589
 21
-141.2223876600069
 72
     1
 10
83.64812416528589
 20
-141.2223876600069
 11
83.82968069735855
 21
-141.2223876600069
 72
     1
 10
83.82968069735855
 20
-141.2223876600069
 11
83.82968069735855
 21
-141.4211696695058
 72
     1
 10
83.82968069735855
 20
-141.4211696695058
 11
83.64812416528589
 21
-141.4211696695058
 97
        0
 92
        1
 93
        3
 72
     1
 10
83.45726587540305
 20
-140.5664414796153
 11
83.05763479911407
 21
-141.2223876600069
 72
     1
 10
83.05763479911407
 20
-141.2223876600069
 11
83.45726587540305
 21
-141.2223876600069
 72
     1
 10
83.45726587540305
 20
-141.2223876600069
 11
83.45726587540305
 21
-140.5664414796153
 97
        0
 75
     2
 76
     1
 98
        0
  0
SPLINE
  5
A5
330
8C
100
AcDbEntity
  8
_U+30EC_U+30A4_U+30E4_U+30FC 1
370
     0
100
AcDbSpline
210
0.0
220
0.0
230
1.0
 70
    11
 71
     3
 72
    29
 73
    25
 74
     0
 42
0.0000000001
 43
0.0000000001
 12
1.0
 22
0.0
 32
0.0
 13
1.0
 23
0.0
 33
0.0
 40
0.0
 40
0.0
 40
0.0
 40
0.0
 40
1.0
 40
1.0
 40
1.0
 40
2.0
 40
2.0
 40
2.0
 40
3.0
 40
3.0
 40
3.0
 40
4.0
 40
4.0
 40
4.0
 40
5.0
 40
5.0
 40
5.0
 40
6.0
 40
6.0
 40
6.0
 40
7.0
 40
7.0
 40
7.0
 40
8.0
 40
8.0
 40
8.0
 40
8.0
 10
84.73642982907631
 20
-141.5903238578316
 30
0.0
 10
84.64203421278047
 20
-141.7997856633348
 30
0.0
 10
84.49010550188095
 20
-141.8187336885037
 30
0.0
 10
84.38813067551756
 20
-141.8187336885037
 30
0.0
 10
84.24757077971937
 20
-141.8187336885037
 30
0.0
 10
84.12354734225036
 20
-141.7722248994528
 30
0.0
 10
84.04017603150731
 20
-141.5903238578316
 30
0.0
 10
83.94922551069672
 20
-141.395675962915
 30
0.0
 10
83.93268905236752
 20
-141.1586533935298
 30
0.0
 10
83.93268905236752
 20
-140.996044886626
 30
0.0
 10
83.93268905236752
 20
-140.8520398953426
 30
0.0
 10
83.9475029629541
 20
-140.6002034153708
 30
0.0
 10
84.04017603150731
 20
-140.4014214058719
 30
0.0
 10
84.13457164780317
 20
-140.1985052817907
 30
0.0
 10
84.27513154360136
 20
-140.175078632491
 30
0.0
 10
84.38813067551756
 20
-140.175078632491
 30
0.0
 10
84.52696802357312
 20
-140.175078632491
 30
0.0
 10
84.65305851833327
 20
-140.2195203642507
 30
0.0
 10
84.73642982907631
 20
-140.4014214058719
 30
0.0
 10
84.82324623530461
 20
-140.5940022434973
 30
0.0
 10
84.84357229866758
 20
-140.8224120741694
 30
0.0
 10
84.84357229866758
 20
-140.996044886626
 30
0.0
 10
84.84357229866758
 20
-141.1672661322429
 30
0.0
 10
84.82531329259577
 20
-141.3977430202061
 30
0.0
 10
84.73642982907631
 20
-141.5903238578316
 30
0.0
  0
SPLINE
  5
A6
330
8C
100
AcDbEntity
  8
_U+30EC_U+30A4_U+30E4_U+30FC 1
370
     0
100
AcDbSpline
210
0.0
220
0.0
230
1.0
 70
    11
 71
     3
 72
    17
 73
    13
 74
     0
 42
0.0000000001
 43
0.0000000001
 12
1.0
 22
0.0
 32
0.0
 13
1.0
 23
0.0
 33
0.0
 40
0.0
 40
0.0
 40
0.0
 40
0.0
 40
1.0
 40
1.0
 40
1.0
 40
2.0
 40
2.0
 40
2.0
 40
3.0
 40
3.0
 40
3.0
 40
4.0
 40
4.0
 40
4.0
 40
4.0
 10
84.38813067551756
 20
-140.3676594701164
 30
0.0
 10
84.16971162175271
 20
-140.3676594701164
 30
0.0
 10
84.12905949502677
 20
-140.6511908285525
 30
0.0
 10
84.12905949502677
 20
-140.996044886626
 30
0.0
 10
84.12905949502677
 20
-141.3154052381087
 30
0.0
 10
84.16040986394255
 20
-141.624085793587
 30
0.0
 10
84.38813067551756
 20
-141.624085793587
 30
0.0
 10
84.60482718153978
 20
-141.624085793587
 30
0.0
 10
84.64754636555686
 20
-141.3429660019906
 30
0.0
 10
84.64754636555686
 20
-140.996044886626
 30
0.0
 10
84.64754636555686
 20
-140.6763400255948
 30
0.0
 10
84.61412893934994
 20
-140.3676594701164
 30
0.0
 10
84.38813067551756
 20
-140.3676594701164
 30
0.0
  0
HATCH
  5
A7
330
8C
100
AcDbEntity
  8
_U+30EC_U+30A4_U+30E4_U+30FC 1
 62
   179
420
  2234388
100
AcDbHatch
 10
0.0
 20
0.0
 30
0.0
210
0.0
220
0.0
230
1.0
  2
SOLID
 70
     1
 71
     0
 91
        2
 92
        1
 93
        1
 72
     4
 94
        3
 73
     0
 74
     1
 95
       29
 96
       25
 40
0.0
 40
0.0
 40
0.0
 40
0.0
 40
1.0
 40
1.0
 40
1.0
 40
2.0
 40
2.0
 40
2.0
 40
3.0
 40
3.0
 40
3.0
 40
4.0
 40
4.0
 40
4.0
 40
5.0
 40
5.0
 40
5.0
 40
6.0
 40
6.0
 40
6.0
 40
7.0
 40
7.0
 40
7.0
 40
8.0
 40
8.0
 40
8.0
 40
8.0
 10
84.73642982907631
 20
-141.5903238578316
 10
84.64203421278047
 20
-141.7997856633348
 10
84.49010550188095
 20
-141.8187336885037
 10
84.38813067551756
 20
-141.8187336885037
 10
84.24757077971937
 20
-141.8187336885037
 10
84.12354734225036
 20
-141.7722248994528
 10
84.04017603150731
 20
-141.5903238578316
 10
83.94922551069672
 20
-141.395675962915
 10
83.93268905236752
 20
-141.1586533935298
 10
83.93268905236752
 20
-140.996044886626
 10
83.93268905236752
 20
-140.8520398953426
 10
83.9475029629541
 20
-140.6002034153708
 10
84.04017603150731
 20
-140.4014214058719
 10
84.13457164780317
 20
-140.1985052817907
 10
84.27513154360136
 20
-140.175078632491
 10
84.38813067551756
 20
-140.175078632491
 10
84.52696802357312
 20
-140.175078632491
 10
84.65305851833327
 20
-140.2195203642507
 10
84.73642982907631
 20
-140.4014214058719
 10
84.82324623530461
 20
-140.5940022434973
 10
84.84357229866758
 20
-140.8224120741694
 10
84.84357229866758
 20
-140.996044886626
 10
84.84357229866758
 20
-141.1672661322429
 10
84.82531329259577
 20
-141.3977430202061
 10
84.73642982907631
 20
-141.5903238578316
 97
        0
 97
        0
 92
        1
 93
        1
 72
     4
 94
        3
 73
     0
 74
     1
 95
       17
 96
       13
 40
0.0
 40
0.0
 40
0.0
 40
0.0
 40
1.0
 40
1.0
 40
1.0
 40
2.0
 40
2.0
 40
2.0
 40
3.0
 40
3.0
 40
3.0
 40
4.0
 40
4.0
 40
4.0
 40
4.0
 10
84.38813067551756
 20
-140.3676594701164
 10
84.16971162175271
 20
-140.3676594701164
 10
84.12905949502677
 20
-140.6511908285525
 10
84.12905949502677
 20
-140.996044886626
 10
84.12905949502677
 20
-141.3154052381087
 10
84.16040986394255
 20
-141.624085793587
 10
84.38813067551756
 20
-141.624085793587
 10
84.60482718153978
 20
-141.624085793587
 10
84.64754636555686
 20
-141.3429660019906
 10
84.64754636555686
 20
-140.996044886626
 10
84.64754636555686
 20
-140.6763400255948
 10
84.61412893934994
 20
-140.3676594701164
 10
84.38813067551756
 20
-140.3676594701164
 97
        0
 97
        0
 75
     2
 76
     1
 98
        0
  0
ENDBLK
  5
8F
330
8C
100
AcDbEntity
  8
0
100
AcDbBlockEnd
  0
BLOCK
  5
AA
330
A8
100
AcDbEntity
  8
0
100
AcDbBlockBegin
  2
block 6
 70
     0
 10
0.0
 20
0.0
 30
0.0
  3
block 6
  1

  0
SPLINE
  5
AC
330
A8
100
AcDbEntity
  8
_U+30EC_U+30A4_U+30E4_U+30FC 1
370
     0
100
AcDbSpline
210
0.0
220
0.0
230
1.0
 70
    11
 71
     3
 72
    56
 73
    52
 74
     0
 42
0.0000000001
 43
0.0000000001
 12
1.0
 22
0.0
 32
0.0
 13
1.0
 23
0.0
 33
0.0
 40
0.0
 40
0.0
 40
0.0
 40
0.0
 40
1.0
 40
1.0
 40
1.0
 40
2.0
 40
2.0
 40
2.0
 40
3.0
 40
3.0
 40
3.0
 40
4.0
 40
4.0
 40
4.0
 40
5.0
 40
5.0
 40
5.0
 40
6.0
 40
6.0
 40
6.0
 40
7.0
 40
7.0
 40
7.0
 40
8.0
 40
8.0
 40
8.0
 40
9.0
 40
9.0
 40
9.0
 40
10.0
 40
10.0
 40
10.0
 40
11.0
 40
11.0
 40
11.0
 40
12.0
 40
12.0
 40
12.0
 40
13.0
 40
13.0
 40
13.0
 40
14.0
 40
14.0
 40
14.0
 40
15.0
 40
15.0
 40
15.0
 40
16.0
 40
16.0
 40
16.0
 40
17.0
 40
17.0
 40
17.0
 40
17.0
 10
82.98528779392382
 20
-123.4715331722571
 30
0.0
 10
82.8168226246951
 20
-123.1628526167787
 30
0.0
 10
82.59116887041124
 20
-122.9575249258578
 30
0.0
 10
82.51124265515344
 20
-122.8920681116381
 30
0.0
 10
82.25389402240528
 20
-123.2303764882896
 30
0.0
 10
82.00033499469089
 20
-123.3826497087377
 30
0.0
 10
81.82635767268577
 20
-123.476011796388
 30
0.0
 10
81.82635767268577
 20
-123.476011796388
 30
0.0
 10
81.68717581508169
 20
-123.2875650733448
 30
0.0
 10
81.68717581508169
 20
-123.2875650733448
 30
0.0
 10
81.77812633589228
 20
-123.2517360802982
 30
0.0
 10
81.96519502074135
 20
-123.1755994700742
 30
0.0
 10
82.16880016391961
 20
-122.9892198043221
 30
0.0
 10
82.4003105805284
 20
-122.7776909415278
 30
0.0
 10
82.56326359698072
 20
-122.4900254685094
 30
0.0
 10
82.67075057612051
 20
-122.1768662889002
 30
0.0
 10
82.67075057612051
 20
-122.1768662889002
 30
0.0
 10
82.3410549381821
 20
-122.1768662889002
 30
0.0
 10
82.3410549381821
 20
-122.1768662889002
 30
0.0
 10
82.20772974290293
 20
-122.1768662889002
 30
0.0
 10
82.02445066308763
 20
-122.1813449130311
 30
0.0
 10
81.8928480155511
 20
-122.2002929381999
 30
0.0
 10
81.8928480155511
 20
-122.2002929381999
 30
0.0
 10
81.8928480155511
 20
-121.9887640754056
 30
0.0
 10
81.8928480155511
 20
-121.9887640754056
 30
0.0
 10
81.9521036578974
 20
-121.994965247279
 30
0.0
 10
82.17982446947241
 20
-122.0056450432833
 30
0.0
 10
82.25596107969643
 20
-122.0056450432833
 30
0.0
 10
82.25596107969643
 20
-122.0056450432833
 30
0.0
 10
82.52812362303116
 20
-122.0056450432833
 30
0.0
 10
82.52812362303116
 20
-122.0056450432833
 30
0.0
 10
82.70968015510384
 20
-122.0056450432833
 30
0.0
 10
82.73000621846681
 20
-121.9990993618613
 30
0.0
 10
82.75033228182978
 20
-121.994965247279
 30
0.0
 10
82.7892618608131
 20
-121.9887640754056
 30
0.0
 10
82.8223347774715
 20
-121.9632703688147
 30
0.0
 10
82.84093829309185
 20
-121.946389400937
 30
0.0
 10
82.84093829309185
 20
-121.946389400937
 30
0.0
 10
82.9780530934048
 20
-122.1196777038451
 30
0.0
 10
82.9780530934048
 20
-122.1196777038451
 30
0.0
 10
82.94291311945524
 20
-122.1472384677271
 30
0.0
 10
82.93154430435392
 20
-122.1579182637314
 30
0.0
 10
82.88916962988534
 20
-122.193747256778
 30
0.0
 10
82.77617049796916
 20
-122.4414496221674
 30
0.0
 10
82.70589055007005
 20
-122.5916557853243
 30
0.0
 10
82.61494002925946
 20
-122.7377278338989
 30
0.0
 10
82.88916962988534
 20
-122.9554578685667
 30
0.0
 10
83.08898516802984
 20
-123.2410562842939
 30
0.0
 10
83.13549395708071
 20
-123.3192599518091
 30
0.0
 10
83.13549395708071
 20
-123.3192599518091
 30
0.0
 10
82.98528779392382
 20
-123.4715331722571
 30
0.0
 10
82.98528779392382
 20
-123.4715331722571
 30
0.0
  0
HATCH
  5
AD
330
A8
100
AcDbEntity
  8
_U+30EC_U+30A4_U+30E4_U+30FC 1
 62
   179
420
  2234388
100
AcDbHatch
 10
0.0
 20
0.0
 30
0.0
210
0.0
220
0.0
230
1.0
  2
SOLID
 70
     1
 71
     0
 91
        1
 92
        1
 93
        1
 72
     4
 94
        3
 73
     0
 74
     1
 95
       56
 96
       52
 40
0.0
 40
0.0
 40
0.0
 40
0.0
 40
1.0
 40
1.0
 40
1.0
 40
2.0
 40
2.0
 40
2.0
 40
3.0
 40
3.0
 40
3.0
 40
4.0
 40
4.0
 40
4.0
 40
5.0
 40
5.0
 40
5.0
 40
6.0
 40
6.0
 40
6.0
 40
7.0
 40
7.0
 40
7.0
 40
8.0
 40
8.0
 40
8.0
 40
9.0
 40
9.0
 40
9.0
 40
10.0
 40
10.0
 40
10.0
 40
11.0
 40
11.0
 40
11.0
 40
12.0
 40
12.0
 40
12.0
 40
13.0
 40
13.0
 40
13.0
 40
14.0
 40
14.0
 40
14.0
 40
15.0
 40
15.0
 40
15.0
 40
16.0
 40
16.0
 40
16.0
 40
17.0
 40
17.0
 40
17.0
 40
17.0
 10
82.98528779392382
 20
-123.4715331722571
 10
82.8168226246951
 20
-123.1628526167787
 10
82.59116887041124
 20
-122.9575249258578
 10
82.51124265515344
 20
-122.8920681116381
 10
82.25389402240528
 20
-123.2303764882896
 10
82.00033499469089
 20
-123.3826497087377
 10
81.82635767268577
 20
-123.476011796388
 10
81.82635767268577
 20
-123.476011796388
 10
81.68717581508169
 20
-123.2875650733448
 10
81.68717581508169
 20
-123.2875650733448
 10
81.77812633589228
 20
-123.2517360802982
 10
81.96519502074135
 20
-123.1755994700742
 10
82.16880016391961
 20
-122.9892198043221
 10
82.4003105805284
 20
-122.7776909415278
 10
82.56326359698072
 20
-122.4900254685094
 10
82.67075057612051
 20
-122.1768662889002
 10
82.67075057612051
 20
-122.1768662889002
 10
82.3410549381821
 20
-122.1768662889002
 10
82.3410549381821
 20
-122.1768662889002
 10
82.20772974290293
 20
-122.1768662889002
 10
82.02445066308763
 20
-122.1813449130311
 10
81.8928480155511
 20
-122.2002929381999
 10
81.8928480155511
 20
-122.2002929381999
 10
81.8928480155511
 20
-121.9887640754056
 10
81.8928480155511
 20
-121.9887640754056
 10
81.9521036578974
 20
-121.994965247279
 10
82.17982446947241
 20
-122.0056450432833
 10
82.25596107969643
 20
-122.0056450432833
 10
82.25596107969643
 20
-122.0056450432833
 10
82.52812362303116
 20
-122.0056450432833
 10
82.52812362303116
 20
-122.0056450432833
 10
82.70968015510384
 20
-122.0056450432833
 10
82.73000621846681
 20
-121.9990993618613
 10
82.75033228182978
 20
-121.994965247279
 10
82.7892618608131
 20
-121.9887640754056
 10
82.8223347774715
 20
-121.9632703688147
 10
82.84093829309185
 20
-121.946389400937
 10
82.84093829309185
 20
-121.946389400937
 10
82.9780530934048
 20
-122.1196777038451
 10
82.9780530934048
 20
-122.1196777038451
 10
82.94291311945524
 20
-122.1472384677271
 10
82.93154430435392
 20
-122.1579182637314
 10
82.88916962988534
 20
-122.193747256778
 10
82.77617049796916
 20
-122.4414496221674
 10
82.70589055007005
 20
-122.5916557853243
 10
82.61494002925946
 20
-122.7377278338989
 10
82.88916962988534
 20
-122.9554578685667
 10
83.08898516802984
 20
-123.2410562842939
 10
83.13549395708071
 20
-123.3192599518091
 10
83.13549395708071
 20
-123.3192599518091
 10
82.98528779392382
 20
-123.4715331722571
 10
82.98528779392382
 20
-123.4715331722571
 97
        0
 97
        0
 75
     2
 76
     1
 98
        0
  0
SPLINE
  5
AE
330
A8
100
AcDbEntity
  8
_U+30EC_U+30A4_U+30E4_U+30FC 1
370
     0
100
AcDbSpline
210
0.0
220
0.0
230
1.0
 70
    11
 71
     3
 72
    47
 73
    43
 74
     0
 42
0.0000000001
 43
0.0000000001
 12
1.0
 22
0.0
 32
0.0
 13
1.0
 23
0.0
 33
0.0
 40
0.0
 40
0.0
 40
0.0
 40
0.0
 40
1.0
 40
1.0
 40
1.0
 40
2.0
 40
2.0
 40
2.0
 40
3.0
 40
3.0
 40
3.0
 40
4.0
 40
4.0
 40
4.0
 40
5.0
 40
5.0
 40
5.0
 40
6.0
 40
6.0
 40
6.0
 40
7.0
 40
7.0
 40
7.0
 40
8.0
 40
8.0
 40
8.0
 40
9.0
 40
9.0
 40
9.0
 40
10.0
 40
10.0
 40
10.0
 40
11.0
 40
11.0
 40
11.0
 40
12.0
 40
12.0
 40
12.0
 40
13.0
 40
13.0
 40
13.0
 40
14.0
 40
14.0
 40
14.0
 40
14.0
 10
84.82462427349871
 20
-123.3213270091002
 30
0.0
 10
84.74676511553206
 20
-123.2303764882896
 30
0.0
 10
84.64306774142604
 20
-123.1056640317236
 30
0.0
 10
84.49113903052653
 20
-122.8707085196295
 30
0.0
 10
84.41155732481725
 20
-122.7501301776458
 30
0.0
 10
84.25790606617511
 20
-122.5134521178091
 30
0.0
 10
84.18383651324224
 20
-122.3990749476988
 30
0.0
 10
84.12837047592971
 20
-122.3122585414706
 30
0.0
 10
84.10976696030937
 20
-122.2871093444282
 30
0.0
 10
84.06911483358341
 20
-122.2871093444282
 30
0.0
 10
84.0301852546001
 20
-122.2871093444282
 30
0.0
 10
83.98023137006398
 20
-122.3315510761879
 30
0.0
 10
83.9654174594774
 20
-122.3484320440657
 30
0.0
 10
83.90788436487372
 20
-122.4118218009943
 30
0.0
 10
83.78007132237096
 20
-122.5640950214423
 30
0.0
 10
83.70806882672923
 20
-122.6488443703795
 30
0.0
 10
83.64330103160654
 20
-122.7229139233123
 30
0.0
 10
83.54683835801954
 20
-122.8517604944607
 30
0.0
 10
83.48379311063947
 20
-122.9299641619758
 30
0.0
 10
83.48379311063947
 20
-122.9299641619758
 30
0.0
 10
83.31360539366813
 20
-122.7566758590678
 30
0.0
 10
83.31360539366813
 20
-122.7566758590678
 30
0.0
 10
83.43935137887975
 20
-122.6571125995441
 30
0.0
 10
83.56337481634874
 20
-122.5237874042649
 30
0.0
 10
83.57818872693532
 20
-122.5069064363872
 30
0.0
 10
83.65225827986819
 20
-122.4245686542897
 30
0.0
 10
83.79488523295753
 20
-122.2636826951285
 30
0.0
 10
83.85965302808023
 20
-122.1875460849045
 30
0.0
 10
83.9061618171311
 20
-122.1324245571405
 30
0.0
 10
83.99504528065054
 20
-122.0542208896253
 30
0.0
 10
84.07841659139359
 20
-122.0542208896253
 30
0.0
 10
84.18211396549961
 20
-122.0542208896253
 30
0.0
 10
84.24688176062232
 20
-122.1537841491491
 30
0.0
 10
84.31888425626403
 20
-122.2636826951285
 30
0.0
 10
84.3984659619733
 20
-122.3821939798211
 30
0.0
 10
84.56176348797415
 20
-122.6254177210798
 30
0.0
 10
84.65788165201262
 20
-122.7694227123632
 30
0.0
 10
84.71334768932513
 20
-122.8538275517518
 30
0.0
 10
84.82841387853249
 20
-122.9957654857441
 30
0.0
 10
84.99481199047005
 20
-123.1607855594876
 30
0.0
 10
84.99481199047005
 20
-123.1607855594876
 30
0.0
 10
84.82462427349871
 20
-123.3213270091002
 30
0.0
 10
84.82462427349871
 20
-123.3213270091002
 30
0.0
  0
SPLINE
  5
AF
330
A8
100
AcDbEntity
  8
_U+30EC_U+30A4_U+30E4_U+30FC 1
370
     0
100
AcDbSpline
210
0.0
220
0.0
230
1.0
 70
    11
 71
     3
 72
    17
 73
    13
 74
     0
 42
0.0000000001
 43
0.0000000001
 12
1.0
 22
0.0
 32
0.0
 13
1.0
 23
0.0
 33
0.0
 40
0.0
 40
0.0
 40
0.0
 40
0.0
 40
1.0
 40
1.0
 40
1.0
 40
2.0
 40
2.0
 40
2.0
 40
3.0
 40
3.0
 40
3.0
 40
4.0
 40
4.0
 40
4.0
 40
4.0
 10
84.78190508948161
 20
-122.2953775735928
 30
0.0
 10
84.68750947318577
 20
-122.1916801994868
 30
0.0
 10
84.62274167806306
 20
-122.1451714104359
 30
0.0
 10
84.5707207362358
 20
-122.1093424173893
 30
0.0
 10
84.5707207362358
 20
-122.1093424173893
 30
0.0
 10
84.65236949923622
 20
-122.0035779859922
 30
0.0
 10
84.65236949923622
 20
-122.0035779859922
 30
0.0
 10
84.71885984210154
 20
-122.0459526604607
 30
0.0
 10
84.78018254173898
 20
-122.0945285068028
 30
0.0
 10
84.86699894796728
 20
-122.1854790276134
 30
0.0
 10
84.86699894796728
 20
-122.1854790276134
 30
0.0
 10
84.78190508948161
 20
-122.2953775735928
 30
0.0
 10
84.78190508948161
 20
-122.2953775735928
 30
0.0
  0
SPLINE
  5
B0
330
A8
100
AcDbEntity
  8
_U+30EC_U+30A4_U+30E4_U+30FC 1
370
     0
100
AcDbSpline
210
0.0
220
0.0
230
1.0
 70
    11
 71
     3
 72
    17
 73
    13
 74
     0
 42
0.0000000001
 43
0.0000000001
 12
1.0
 22
0.0
 32
0.0
 13
1.0
 23
0.0
 33
0.0
 40
0.0
 40
0.0
 40
0.0
 40
0.0
 40
1.0
 40
1.0
 40
1.0
 40
2.0
 40
2.0
 40
2.0
 40
3.0
 40
3.0
 40
3.0
 40
4.0
 40
4.0
 40
4.0
 40
4.0
 10
84.98206513717463
 20
-122.1517170918579
 30
0.0
 10
84.87457815803484
 20
-122.0183918965787
 30
0.0
 10
84.81325545839738
 20
-121.9801513366925
 30
0.0
 10
84.77811548444784
 20
-121.9591362542324
 30
0.0
 10
84.77811548444784
 20
-121.9591362542324
 30
0.0
 10
84.86527640022466
 20
-121.8533718228353
 30
0.0
 10
84.86527640022466
 20
-121.8533718228353
 30
0.0
 10
84.93383380038112
 20
-121.8998806118861
 30
0.0
 10
84.99308944272742
 20
-121.9484564582282
 30
0.0
 10
85.0726711484367
 20
-122.0414740363299
 30
0.0
 10
85.0726711484367
 20
-122.0414740363299
 30
0.0
 10
84.98206513717463
 20
-122.1517170918579
 30
0.0
 10
84.98206513717463
 20
-122.1517170918579
 30
0.0
  0
HATCH
  5
B1
330
A8
100
AcDbEntity
  8
_U+30EC_U+30A4_U+30E4_U+30FC 1
 62
   179
420
  2234388
100
AcDbHatch
 10
0.0
 20
0.0
 30
0.0
210
0.0
220
0.0
230
1.0
  2
SOLID
 70
     1
 71
     0
 91
        3
 92
        1
 93
        1
 72
     4
 94
        3
 73
     0
 74
     1
 95
       47
 96
       43
 40
0.0
 40
0.0
 40
0.0
 40
0.0
 40
1.0
 40
1.0
 40
1.0
 40
2.0
 40
2.0
 40
2.0
 40
3.0
 40
3.0
 40
3.0
 40
4.0
 40
4.0
 40
4.0
 40
5.0
 40
5.0
 40
5.0
 40
6.0
 40
6.0
 40
6.0
 40
7.0
 40
7.0
 40
7.0
 40
8.0
 40
8.0
 40
8.0
 40
9.0
 40
9.0
 40
9.0
 40
10.0
 40
10.0
 40
10.0
 40
11.0
 40
11.0
 40
11.0
 40
12.0
 40
12.0
 40
12.0
 40
13.0
 40
13.0
 40
13.0
 40
14.0
 40
14.0
 40
14.0
 40
14.0
 10
84.82462427349871
 20
-123.3213270091002
 10
84.74676511553206
 20
-123.2303764882896
 10
84.64306774142604
 20
-123.1056640317236
 10
84.49113903052653
 20
-122.8707085196295
 10
84.41155732481725
 20
-122.7501301776458
 10
84.25790606617511
 20
-122.5134521178091
 10
84.18383651324224
 20
-122.3990749476988
 10
84.12837047592971
 20
-122.3122585414706
 10
84.10976696030937
 20
-122.2871093444282
 10
84.06911483358341
 20
-122.2871093444282
 10
84.0301852546001
 20
-122.2871093444282
 10
83.98023137006398
 20
-122.3315510761879
 10
83.9654174594774
 20
-122.3484320440657
 10
83.90788436487372
 20
-122.4118218009943
 10
83.78007132237096
 20
-122.5640950214423
 10
83.70806882672923
 20
-122.6488443703795
 10
83.64330103160654
 20
-122.7229139233123
 10
83.54683835801954
 20
-122.8517604944607
 10
83.48379311063947
 20
-122.9299641619758
 10
83.48379311063947
 20
-122.9299641619758
 10
83.31360539366813
 20
-122.7566758590678
 10
83.31360539366813
 20
-122.7566758590678
 10
83.43935137887975
 20
-122.6571125995441
 10
83.56337481634874
 20
-122.5237874042649
 10
83.57818872693532
 20
-122.5069064363872
 10
83.65225827986819
 20
-122.4245686542897
 10
83.79488523295753
 20
-122.2636826951285
 10
83.85965302808023
 20
-122.1875460849045
 10
83.9061618171311
 20
-122.1324245571405
 10
83.99504528065054
 20
-122.0542208896253
 10
84.07841659139359
 20
-122.0542208896253
 10
84.18211396549961
 20
-122.0542208896253
 10
84.24688176062232
 20
-122.1537841491491
 10
84.31888425626403
 20
-122.2636826951285
 10
84.3984659619733
 20
-122.3821939798211
 10
84.56176348797415
 20
-122.6254177210798
 10
84.65788165201262
 20
-122.7694227123632
 10
84.71334768932513
 20
-122.8538275517518
 10
84.82841387853249
 20
-122.9957654857441
 10
84.99481199047005
 20
-123.1607855594876
 10
84.99481199047005
 20
-123.1607855594876
 10
84.82462427349871
 20
-123.3213270091002
 10
84.82462427349871
 20
-123.3213270091002
 97
        0
 97
        0
 92
        1
 93
        1
 72
     4
 94
        3
 73
     0
 74
     1
 95
       17
 96
       13
 40
0.0
 40
0.0
 40
0.0
 40
0.0
 40
1.0
 40
1.0
 40
1.0
 40
2.0
 40
2.0
 40
2.0
 40
3.0
 40
3.0
 40
3.0
 40
4.0
 40
4.0
 40
4.0
 40
4.0
 10
84.78190508948161
 20
-122.2953775735928
 10
84.68750947318577
 20
-122.1916801994868
 10
84.62274167806306
 20
-122.1451714104359
 10
84.5707207362358
 20
-122.1093424173893
 10
84.5707207362358
 20
-122.1093424173893
 10
84.65236949923622
 20
-122.0035779859922
 10
84.65236949923622
 20
-122.0035779859922
 10
84.71885984210154
 20
-122.0459526604607
 10
84.78018254173898
 20
-122.0945285068028
 10
84.86699894796728
 20
-122.1854790276134
 10
84.86699894796728
 20
-122.1854790276134
 10
84.78190508948161
 20
-122.2953775735928
 10
84.78190508948161
 20
-122.2953775735928
 97
        0
 97
        0
 92
        1
 93
        1
 72
     4
 94
        3
 73
     0
 74
     1
 95
       17
 96
       13
 40
0.0
 40
0.0
 40
0.0
 40
0.0
 40
1.0
 40
1.0
 40
1.0
 40
2.0
 40
2.0
 40
2.0
 40
3.0
 40
3.0
 40
3.0
 40
4.0
 40
4.0
 40
4.0
 40
4.0
 10
84.98206513717463
 20
-122.1517170918579
 10
84.87457815803484
 20
-122.0183918965787
 10
84.81325545839738
 20
-121.9801513366925
 10
84.77811548444784
 20
-121.9591362542324
 10
84.77811548444784
 20
-121.9591362542324
 10
84.86527640022466
 20
-121.8533718228353
 10
84.86527640022466
 20
-121.8533718228353
 10
84.93383380038112
 20
-121.8998806118861
 10
84.99308944272742
 20
-121.9484564582282
 10
85.0726711484367
 20
-122.0414740363299
 10
85.0726711484367
 20
-122.0414740363299
 10
84.98206513717463
 20
-122.1517170918579
 10
84.98206513717463
 20
-122.1517170918579
 97
        0
 97
        0
 75
     2
 76
     1
 98
        0
  0
SPLINE
  5
B2
330
A8
100
AcDbEntity
  8
_U+30EC_U+30A4_U+30E4_U+30FC 1
370
     0
100
AcDbSpline
210
0.0
220
0.0
230
1.0
 70
    11
 71
     3
 72
    35
 73
    31
 74
     0
 42
0.0000000001
 43
0.0000000001
 12
1.0
 22
0.0
 32
0.0
 13
1.0
 23
0.0
 33
0.0
 40
0.0
 40
0.0
 40
0.0
 40
0.0
 40
1.0
 40
1.0
 40
1.0
 40
2.0
 40
2.0
 40
2.0
 40
3.0
 40
3.0
 40
3.0
 40
4.0
 40
4.0
 40
4.0
 40
5.0
 40
5.0
 40
5.0
 40
6.0
 40
6.0
 40
6.0
 40
7.0
 40
7.0
 40
7.0
 40
8.0
 40
8.0
 40
8.0
 40
9.0
 40
9.0
 40
9.0
 40
10.0
 40
10.0
 40
10.0
 40
10.0
 10
85.41718069696168
 20
-121.9908311326967
 30
0.0
 10
85.41545814921906
 20
-122.0542208896253
 30
0.0
 10
85.41545814921906
 20
-122.1896131421957
 30
0.0
 10
85.41545814921906
 20
-122.2550699564154
 30
0.0
 10
85.41545814921906
 20
-122.2550699564154
 30
0.0
 10
85.41545814921906
 20
-122.5620279641512
 30
0.0
 10
85.41545814921906
 20
-122.5620279641512
 30
0.0
 10
85.41545814921906
 20
-122.6254177210798
 30
0.0
 10
85.4244153974807
 20
-122.8517604944607
 30
0.0
 10
85.42820500251447
 20
-122.9151502513893
 30
0.0
 10
85.42820500251447
 20
-122.9151502513893
 30
0.0
 10
85.21908770655982
 20
-122.9151502513893
 30
0.0
 10
85.21908770655982
 20
-122.9151502513893
 30
0.0
 10
85.23183455985524
 20
-122.8200656159964
 30
0.0
 10
85.23390161714639
 20
-122.6591796568352
 30
0.0
 10
85.23390161714639
 20
-122.55996090686
 30
0.0
 10
85.23390161714639
 20
-122.55996090686
 30
0.0
 10
85.23390161714639
 20
-122.2151068487865
 30
0.0
 10
85.23390161714639
 20
-122.2151068487865
 30
0.0
 10
85.23390161714639
 20
-122.1324245571405
 30
0.0
 10
85.23183455985524
 20
-121.9591362542324
 30
0.0
 10
85.22838946437
 20
-121.8809325867173
 30
0.0
 10
85.22838946437
 20
-121.8809325867173
 30
0.0
 10
85.4133910919279
 20
-121.8933349304642
 30
0.0
 10
85.4133910919279
 20
-121.8933349304642
 30
0.0
 10
85.45404321865385
 20
-121.8957464973038
 30
0.0
 10
85.46885712924043
 20
-121.9081488410507
 30
0.0
 10
85.46885712924043
 20
-121.9336425476416
 30
0.0
 10
85.46885712924043
 20
-121.9550021396501
 30
0.0
 10
85.44301891310106
 20
-121.973950164819
 30
0.0
 10
85.41718069696168
 20
-121.9908311326967
 30
0.0
  0
SPLINE
  5
B3
330
A8
100
AcDbEntity
  8
_U+30EC_U+30A4_U+30E4_U+30FC 1
370
     0
100
AcDbSpline
210
0.0
220
0.0
230
1.0
 70
    11
 71
     3
 72
    38
 73
    34
 74
     0
 42
0.0000000001
 43
0.0000000001
 12
1.0
 22
0.0
 32
0.0
 13
1.0
 23
0.0
 33
0.0
 40
0.0
 40
0.0
 40
0.0
 40
0.0
 40
1.0
 40
1.0
 40
1.0
 40
2.0
 40
2.0
 40
2.0
 40
3.0
 40
3.0
 40
3.0
 40
4.0
 40
4.0
 40
4.0
 40
5.0
 40
5.0
 40
5.0
 40
6.0
 40
6.0
 40
6.0
 40
7.0
 40
7.0
 40
7.0
 40
8.0
 40
8.0
 40
8.0
 40
9.0
 40
9.0
 40
9.0
 40
10.0
 40
10.0
 40
10.0
 40
11.0
 40
11.0
 40
11.0
 40
11.0
 10
86.24848223755247
 20
-121.9336425476416
 30
0.0
 10
86.2281561741895
 20
-121.9505235155193
 30
0.0
 10
86.22643362644686
 20
-121.9505235155193
 30
0.0
 10
86.21540932089407
 20
-121.9653374261059
 30
0.0
 10
86.2116197158603
 20
-122.0669677429208
 30
0.0
 10
86.20610756308389
 20
-122.5134521178091
 30
0.0
 10
86.20231795805012
 20
-122.6023355813286
 30
0.0
 10
86.19473874798257
 20
-122.7459960630635
 30
0.0
 10
86.17820228965337
 20
-123.0781032678416
 30
0.0
 10
85.95599363085475
 20
-123.3089246653533
 30
0.0
 10
85.92636580968161
 20
-123.3406195438176
 30
0.0
 10
85.74136418212369
 20
-123.5266547000211
 30
0.0
 10
85.57806665612284
 20
-123.5986571956628
 30
0.0
 10
85.57806665612284
 20
-123.5986571956628
 30
0.0
 10
85.42097030199545
 20
-123.4102104726197
 30
0.0
 10
85.42097030199545
 20
-123.4102104726197
 30
0.0
 10
85.48746064486078
 20
-123.3953965620331
 30
0.0
 10
85.6338772029839
 20
-123.3637016835688
 30
0.0
 10
85.8061319772464
 20
-123.1904133806607
 30
0.0
 10
86.02627357875386
 20
-122.9723388364444
 30
0.0
 10
86.02627357875386
 20
-122.7081000127258
 30
0.0
 10
86.02627357875386
 20
-122.1961588236176
 30
0.0
 10
86.02627357875386
 20
-121.9550021396501
 30
0.0
 10
86.02627357875386
 20
-121.9422552863547
 30
0.0
 10
86.02248397372007
 20
-121.842692026831
 30
0.0
 10
86.02248397372007
 20
-121.842692026831
 30
0.0
 10
86.21334226360293
 20
-121.8575059374176
 30
0.0
 10
86.21334226360293
 20
-121.8575059374176
 30
0.0
 10
86.2336683269659
 20
-121.8595729947087
 30
0.0
 10
86.26329614813905
 20
-121.8616400519999
 30
0.0
 10
86.26329614813905
 20
-121.8998806118861
 30
0.0
 10
86.26329614813905
 20
-121.9105604078904
 30
0.0
 10
86.26157360039642
 20
-121.9229627516373
 30
0.0
 10
86.24848223755247
 20
-121.9336425476416
 30
0.0
  0
HATCH
  5
B4
330
A8
100
AcDbEntity
  8
_U+30EC_U+30A4_U+30E4_U+30FC 1
 62
   179
420
  2234388
100
AcDbHatch
 10
0.0
 20
0.0
 30
0.0
210
0.0
220
0.0
230
1.0
  2
SOLID
 70
     1
 71
     0
 91
        2
 92
        1
 93
        1
 72
     4
 94
        3
 73
     0
 74
     1
 95
       35
 96
       31
 40
0.0
 40
0.0
 40
0.0
 40
0.0
 40
1.0
 40
1.0
 40
1.0
 40
2.0
 40
2.0
 40
2.0
 40
3.0
 40
3.0
 40
3.0
 40
4.0
 40
4.0
 40
4.0
 40
5.0
 40
5.0
 40
5.0
 40
6.0
 40
6.0
 40
6.0
 40
7.0
 40
7.0
 40
7.0
 40
8.0
 40
8.0
 40
8.0
 40
9.0
 40
9.0
 40
9.0
 40
10.0
 40
10.0
 40
10.0
 40
10.0
 10
85.41718069696168
 20
-121.9908311326967
 10
85.41545814921906
 20
-122.0542208896253
 10
85.41545814921906
 20
-122.1896131421957
 10
85.41545814921906
 20
-122.2550699564154
 10
85.41545814921906
 20
-122.2550699564154
 10
85.41545814921906
 20
-122.5620279641512
 10
85.41545814921906
 20
-122.5620279641512
 10
85.41545814921906
 20
-122.6254177210798
 10
85.4244153974807
 20
-122.8517604944607
 10
85.42820500251447
 20
-122.9151502513893
 10
85.42820500251447
 20
-122.9151502513893
 10
85.21908770655982
 20
-122.9151502513893
 10
85.21908770655982
 20
-122.9151502513893
 10
85.23183455985524
 20
-122.8200656159964
 10
85.23390161714639
 20
-122.6591796568352
 10
85.23390161714639
 20
-122.55996090686
 10
85.23390161714639
 20
-122.55996090686
 10
85.23390161714639
 20
-122.2151068487865
 10
85.23390161714639
 20
-122.2151068487865
 10
85.23390161714639
 20
-122.1324245571405
 10
85.23183455985524
 20
-121.9591362542324
 10
85.22838946437
 20
-121.8809325867173
 10
85.22838946437
 20
-121.8809325867173
 10
85.4133910919279
 20
-121.8933349304642
 10
85.4133910919279
 20
-121.8933349304642
 10
85.45404321865385
 20
-121.8957464973038
 10
85.46885712924043
 20
-121.9081488410507
 10
85.46885712924043
 20
-121.9336425476416
 10
85.46885712924043
 20
-121.9550021396501
 10
85.44301891310106
 20
-121.973950164819
 10
85.41718069696168
 20
-121.9908311326967
 97
        0
 97
        0
 92
        1
 93
        1
 72
     4
 94
        3
 73
     0
 74
     1
 95
       38
 96
       34
 40
0.0
 40
0.0
 40
0.0
 40
0.0
 40
1.0
 40
1.0
 40
1.0
 40
2.0
 40
2.0
 40
2.0
 40
3.0
 40
3.0
 40
3.0
 40
4.0
 40
4.0
 40
4.0
 40
5.0
 40
5.0
 40
5.0
 40
6.0
 40
6.0
 40
6.0
 40
7.0
 40
7.0
 40
7.0
 40
8.0
 40
8.0
 40
8.0
 40
9.0
 40
9.0
 40
9.0
 40
10.0
 40
10.0
 40
10.0
 40
11.0
 40
11.0
 40
11.0
 40
11.0
 10
86.24848223755247
 20
-121.9336425476416
 10
86.2281561741895
 20
-121.9505235155193
 10
86.22643362644686
 20
-121.9505235155193
 10
86.21540932089407
 20
-121.9653374261059
 10
86.2116197158603
 20
-122.0669677429208
 10
86.20610756308389
 20
-122.5134521178091
 10
86.20231795805012
 20
-122.6023355813286
 10
86.19473874798257
 20
-122.7459960630635
 10
86.17820228965337
 20
-123.0781032678416
 10
85.95599363085475
 20
-123.3089246653533
 10
85.92636580968161
 20
-123.3406195438176
 10
85.74136418212369
 20
-123.5266547000211
 10
85.57806665612284
 20
-123.5986571956628
 10
85.57806665612284
 20
-123.5986571956628
 10
85.42097030199545
 20
-123.4102104726197
 10
85.42097030199545
 20
-123.4102104726197
 10
85.48746064486078
 20
-123.3953965620331
 10
85.6338772029839
 20
-123.3637016835688
 10
85.8061319772464
 20
-123.1904133806607
 10
86.02627357875386
 20
-122.9723388364444
 10
86.02627357875386
 20
-122.7081000127258
 10
86.02627357875386
 20
-122.1961588236176
 10
86.02627357875386
 20
-121.9550021396501
 10
86.02627357875386
 20
-121.9422552863547
 10
86.02248397372007
 20
-121.842692026831
 10
86.02248397372007
 20
-121.842692026831
 10
86.21334226360293
 20
-121.8575059374176
 10
86.21334226360293
 20
-121.8575059374176
 10
86.2336683269659
 20
-121.8595729947087
 10
86.26329614813905
 20
-121.8616400519999
 10
86.26329614813905
 20
-121.8998806118861
 10
86.26329614813905
 20
-121.9105604078904
 10
86.26157360039642
 20
-121.9229627516373
 10
86.24848223755247
 20
-121.9336425476416
 97
        0
 97
        0
 75
     2
 76
     1
 98
        0
  0
SPLINE
  5
B5
330
A8
100
AcDbEntity
  8
_U+30EC_U+30A4_U+30E4_U+30FC 1
370
     0
100
AcDbSpline
210
0.0
220
0.0
230
1.0
 70
    11
 71
     3
 72
   104
 73
   100
 74
     0
 42
0.0000000001
 43
0.0000000001
 12
1.0
 22
0.0
 32
0.0
 13
1.0
 23
0.0
 33
0.0
 40
0.0
 40
0.0
 40
0.0
 40
0.0
 40
1.0
 40
1.0
 40
1.0
 40
2.0
 40
2.0
 40
2.0
 40
3.0
 40
3.0
 40
3.0
 40
4.0
 40
4.0
 40
4.0
 40
5.0
 40
5.0
 40
5.0
 40
6.0
 40
6.0
 40
6.0
 40
7.0
 40
7.0
 40
7.0
 40
8.0
 40
8.0
 40
8.0
 40
9.0
 40
9.0
 40
9.0
 40
10.0
 40
10.0
 40
10.0
 40
11.0
 40
11.0
 40
11.0
 40
12.0
 40
12.0
 40
12.0
 40
13.0
 40
13.0
 40
13.0
 40
14.0
 40
14.0
 40
14.0
 40
15.0
 40
15.0
 40
15.0
 40
16.0
 40
16.0
 40
16.0
 40
17.0
 40
17.0
 40
17.0
 40
18.0
 40
18.0
 40
18.0
 40
19.0
 40
19.0
 40
19.0
 40
20.0
 40
20.0
 40
20.0
 40
21.0
 40
21.0
 40
21.0
 40
22.0
 40
22.0
 40
22.0
 40
23.0
 40
23.0
 40
23.0
 40
24.0
 40
24.0
 40
24.0
 40
25.0
 40
25.0
 40
25.0
 40
26.0
 40
26.0
 40
26.0
 40
27.0
 40
27.0
 40
27.0
 40
28.0
 40
28.0
 40
28.0
 40
29.0
 40
29.0
 40
29.0
 40
30.0
 40
30.0
 40
30.0
 40
31.0
 40
31.0
 40
31.0
 40
32.0
 40
32.0
 40
32.0
 40
33.0
 40
33.0
 40
33.0
 40
33.0
 10
87.5782890948589
 20
-123.573163489072
 30
0.0
 10
87.5782890948589
 20
-123.573163489072
 30
0.0
 10
87.02638479812188
 20
-123.573163489072
 30
0.0
 10
87.02638479812188
 20
-123.573163489072
 30
0.0
 10
86.83931611327282
 20
-123.573163489072
 30
0.0
 10
86.65052488068112
 20
-123.5772976036543
 30
0.0
 10
86.46345619583205
 20
-123.5921115142409
 30
0.0
 10
86.46345619583205
 20
-123.5921115142409
 30
0.0
 10
86.46345619583205
 20
-123.3826497087377
 30
0.0
 10
86.46345619583205
 20
-123.3826497087377
 30
0.0
 10
86.5743882704571
 20
-123.3912624474508
 30
0.0
 10
86.5950588433686
 20
-123.393329504742
 30
0.0
 10
86.77627086589274
 20
-123.3974636193243
 30
0.0
 10
86.77627086589274
 20
-123.3974636193243
 30
0.0
 10
86.77627086589274
 20
-122.7904377948232
 30
0.0
 10
86.77627086589274
 20
-122.7904377948232
 30
0.0
 10
86.77627086589274
 20
-122.6908745352995
 30
0.0
 10
86.77627086589274
 20
-122.6023355813286
 30
0.0
 10
86.76352401259732
 20
-122.2678168097108
 30
0.0
 10
86.76352401259732
 20
-122.2678168097108
 30
0.0
 10
86.98917776688118
 20
-122.2846977775885
 30
0.0
 10
86.98917776688118
 20
-122.2846977775885
 30
0.0
 10
87.00605873475891
 20
-122.2871093444282
 30
0.0
 10
87.0170830403117
 20
-122.297444630884
 30
0.0
 10
87.0170830403117
 20
-122.3122585414706
 30
0.0
 10
87.0170830403117
 20
-122.3315510761879
 30
0.0
 10
87.00399167746775
 20
-122.3398193053525
 30
0.0
 10
86.96885170351821
 20
-122.3608343878126
 30
0.0
 10
86.96885170351821
 20
-122.4097547437031
 30
0.0
 10
86.96506209848444
 20
-122.5957898999066
 30
0.0
 10
86.96506209848444
 20
-122.779757998819
 30
0.0
 10
86.96506209848444
 20
-122.779757998819
 30
0.0
 10
86.96506209848444
 20
-123.4019422434551
 30
0.0
 10
86.96506209848444
 20
-123.4019422434551
 30
0.0
 10
86.96506209848444
 20
-123.4019422434551
 30
0.0
 10
87.02638479812188
 20
-123.4019422434551
 30
0.0
 10
87.02638479812188
 20
-123.4019422434551
 30
0.0
 10
87.02638479812188
 20
-123.4019422434551
 30
0.0
 10
87.2430813041441
 20
-123.4019422434551
 30
0.0
 10
87.2430813041441
 20
-123.4019422434551
 30
0.0
 10
87.2430813041441
 20
-123.4019422434551
 30
0.0
 10
87.2430813041441
 20
-122.4097547437031
 30
0.0
 10
87.2430813041441
 20
-122.4097547437031
 30
0.0
 10
87.2430813041441
 20
-122.3949408331166
 30
0.0
 10
87.24101424685294
 20
-122.3377522480614
 30
0.0
 10
87.24101424685294
 20
-122.325005394766
 30
0.0
 10
87.2375691513677
 20
-122.1220892706848
 30
0.0
 10
87.23550209407655
 20
-121.7920491231978
 30
0.0
 10
87.23550209407655
 20
-121.7644883593158
 30
0.0
 10
87.23550209407655
 20
-121.7644883593158
 30
0.0
 10
87.45977781016632
 20
-121.7813693271936
 30
0.0
 10
87.45977781016632
 20
-121.7813693271936
 30
0.0
 10
87.46322290565156
 20
-121.7813693271936
 30
0.0
 10
87.48733857404831
 20
-121.7834363844847
 30
0.0
 10
87.48733857404831
 20
-121.8023844096536
 30
0.0
 10
87.48733857404831
 20
-121.8171983202402
 30
0.0
 10
87.47459172075288
 20
-121.8278781162444
 30
0.0
 10
87.46873505842795
 20
-121.8320122308267
 30
0.0
 10
87.45771075287516
 20
-121.8406249695398
 30
0.0
 10
87.43738468951219
 20
-121.8575059374176
 30
0.0
 10
87.43566214176955
 20
-121.8595729947087
 30
0.0
 10
87.43014998899316
 20
-121.9842854512748
 30
0.0
 10
87.41878117389183
 20
-122.2278537020819
 30
0.0
 10
87.42636038395939
 20
-122.407687686412
 30
0.0
 10
87.42636038395939
 20
-122.407687686412
 30
0.0
 10
87.42808293170201
 20
-122.4541964754629
 30
0.0
 10
87.42808293170201
 20
-122.4541964754629
 30
0.0
 10
87.42808293170201
 20
-122.4541964754629
 30
0.0
 10
87.67819686393115
 20
-122.4541964754629
 30
0.0
 10
87.67819686393115
 20
-122.4541964754629
 30
0.0
 10
87.73194035350105
 20
-122.4541964754629
 30
0.0
 10
87.94863685952326
 20
-122.449717851332
 30
0.0
 10
88.00410289683579
 20
-122.4455837367497
 30
0.0
 10
88.00410289683579
 20
-122.4455837367497
 30
0.0
 10
88.00410289683579
 20
-122.6550455422529
 30
0.0
 10
88.00410289683579
 20
-122.6550455422529
 30
0.0
 10
87.98756643850659
 20
-122.6550455422529
 30
0.0
 10
87.96689586559509
 20
-122.6529784849618
 30
0.0
 10
87.88180200710941
 20
-122.6529784849618
 30
0.0
 10
87.85045163819365
 20
-122.6529784849618
 30
0.0
 10
87.70575762781314
 20
-122.6488443703795
 30
0.0
 10
87.67819686393115
 20
-122.6488443703795
 30
0.0
 10
87.67819686393115
 20
-122.6488443703795
 30
0.0
 10
87.42808293170201
 20
-122.6488443703795
 30
0.0
 10
87.42808293170201
 20
-122.6488443703795
 30
0.0
 10
87.42808293170201
 20
-122.6488443703795
 30
0.0
 10
87.42808293170201
 20
-123.4019422434551
 30
0.0
 10
87.42808293170201
 20
-123.4019422434551
 30
0.0
 10
87.42808293170201
 20
-123.4019422434551
 30
0.0
 10
87.5782890948589
 20
-123.4019422434551
 30
0.0
 10
87.5782890948589
 20
-123.4019422434551
 30
0.0
 10
87.76880287519322
 20
-123.4019422434551
 30
0.0
 10
87.95793861733344
 20
-123.3974636193243
 30
0.0
 10
88.14845239766775
 20
-123.3826497087377
 30
0.0
 10
88.14845239766775
 20
-123.3826497087377
 30
0.0
 10
88.14845239766775
 20
-123.5921115142409
 30
0.0
 10
88.14845239766775
 20
-123.5921115142409
 30
0.0
 10
87.90212807047239
 20
-123.573163489072
 30
0.0
 10
87.6003377059645
 20
-123.573163489072
 30
0.0
 10
87.5782890948589
 20
-123.573163489072
 30
0.0
  0
HATCH
  5
B6
330
A8
100
AcDbEntity
  8
_U+30EC_U+30A4_U+30E4_U+30FC 1
 62
   179
420
  2234388
100
AcDbHatch
 10
0.0
 20
0.0
 30
0.0
210
0.0
220
0.0
230
1.0
  2
SOLID
 70
     1
 71
     0
 91
        1
 92
        1
 93
        1
 72
     4
 94
        3
 73
     0
 74
     1
 95
      104
 96
      100
 40
0.0
 40
0.0
 40
0.0
 40
0.0
 40
1.0
 40
1.0
 40
1.0
 40
2.0
 40
2.0
 40
2.0
 40
3.0
 40
3.0
 40
3.0
 40
4.0
 40
4.0
 40
4.0
 40
5.0
 40
5.0
 40
5.0
 40
6.0
 40
6.0
 40
6.0
 40
7.0
 40
7.0
 40
7.0
 40
8.0
 40
8.0
 40
8.0
 40
9.0
 40
9.0
 40
9.0
 40
10.0
 40
10.0
 40
10.0
 40
11.0
 40
11.0
 40
11.0
 40
12.0
 40
12.0
 40
12.0
 40
13.0
 40
13.0
 40
13.0
 40
14.0
 40
14.0
 40
14.0
 40
15.0
 40
15.0
 40
15.0
 40
16.0
 40
16.0
 40
16.0
 40
17.0
 40
17.0
 40
17.0
 40
18.0
 40
18.0
 40
18.0
 40
19.0
 40
19.0
 40
19.0
 40
20.0
 40
20.0
 40
20.0
 40
21.0
 40
21.0
 40
21.0
 40
22.0
 40
22.0
 40
22.0
 40
23.0
 40
23.0
 40
23.0
 40
24.0
 40
24.0
 40
24.0
 40
25.0
 40
25.0
 40
25.0
 40
26.0
 40
26.0
 40
26.0
 40
27.0
 40
27.0
 40
27.0
 40
28.0
 40
28.0
 40
28.0
 40
29.0
 40
29.0
 40
29.0
 40
30.0
 40
30.0
 40
30.0
 40
31.0
 40
31.0
 40
31.0
 40
32.0
 40
32.0
 40
32.0
 40
33.0
 40
33.0
 40
33.0
 40
33.0
 10
87.5782890948589
 20
-123.573163489072
 10
87.5782890948589
 20
-123.573163489072
 10
87.02638479812188
 20
-123.573163489072
 10
87.02638479812188
 20
-123.573163489072
 10
86.83931611327282
 20
-123.573163489072
 10
86.65052488068112
 20
-123.5772976036543
 10
86.46345619583205
 20
-123.5921115142409
 10
86.46345619583205
 20
-123.5921115142409
 10
86.46345619583205
 20
-123.3826497087377
 10
86.46345619583205
 20
-123.3826497087377
 10
86.5743882704571
 20
-123.3912624474508
 10
86.5950588433686
 20
-123.393329504742
 10
86.77627086589274
 20
-123.3974636193243
 10
86.77627086589274
 20
-123.3974636193243
 10
86.77627086589274
 20
-122.7904377948232
 10
86.77627086589274
 20
-122.7904377948232
 10
86.77627086589274
 20
-122.6908745352995
 10
86.77627086589274
 20
-122.6023355813286
 10
86.76352401259732
 20
-122.2678168097108
 10
86.76352401259732
 20
-122.2678168097108
 10
86.98917776688118
 20
-122.2846977775885
 10
86.98917776688118
 20
-122.2846977775885
 10
87.00605873475891
 20
-122.2871093444282
 10
87.0170830403117
 20
-122.297444630884
 10
87.0170830403117
 20
-122.3122585414706
 10
87.0170830403117
 20
-122.3315510761879
 10
87.00399167746775
 20
-122.3398193053525
 10
86.96885170351821
 20
-122.3608343878126
 10
86.96885170351821
 20
-122.4097547437031
 10
86.96506209848444
 20
-122.5957898999066
 10
86.96506209848444
 20
-122.779757998819
 10
86.96506209848444
 20
-122.779757998819
 10
86.96506209848444
 20
-123.4019422434551
 10
86.96506209848444
 20
-123.4019422434551
 10
86.96506209848444
 20
-123.4019422434551
 10
87.02638479812188
 20
-123.4019422434551
 10
87.02638479812188
 20
-123.4019422434551
 10
87.02638479812188
 20
-123.4019422434551
 10
87.2430813041441
 20
-123.4019422434551
 10
87.2430813041441
 20
-123.4019422434551
 10
87.2430813041441
 20
-123.4019422434551
 10
87.2430813041441
 20
-122.4097547437031
 10
87.2430813041441
 20
-122.4097547437031
 10
87.2430813041441
 20
-122.3949408331166
 10
87.24101424685294
 20
-122.3377522480614
 10
87.24101424685294
 20
-122.325005394766
 10
87.2375691513677
 20
-122.1220892706848
 10
87.23550209407655
 20
-121.7920491231978
 10
87.23550209407655
 20
-121.7644883593158
 10
87.23550209407655
 20
-121.7644883593158
 10
87.45977781016632
 20
-121.7813693271936
 10
87.45977781016632
 20
-121.7813693271936
 10
87.46322290565156
 20
-121.7813693271936
 10
87.48733857404831
 20
-121.7834363844847
 10
87.48733857404831
 20
-121.8023844096536
 10
87.48733857404831
 20
-121.8171983202402
 10
87.47459172075288
 20
-121.8278781162444
 10
87.46873505842795
 20
-121.8320122308267
 10
87.45771075287516
 20
-121.8406249695398
 10
87.43738468951219
 20
-121.8575059374176
 10
87.43566214176955
 20
-121.8595729947087
 10
87.43014998899316
 20
-121.9842854512748
 10
87.41878117389183
 20
-122.2278537020819
 10
87.42636038395939
 20
-122.407687686412
 10
87.42636038395939
 20
-122.407687686412
 10
87.42808293170201
 20
-122.4541964754629
 10
87.42808293170201
 20
-122.4541964754629
 10
87.42808293170201
 20
-122.4541964754629
 10
87.67819686393115
 20
-122.4541964754629
 10
87.67819686393115
 20
-122.4541964754629
 10
87.73194035350105
 20
-122.4541964754629
 10
87.94863685952326
 20
-122.449717851332
 10
88.00410289683579
 20
-122.4455837367497
 10
88.00410289683579
 20
-122.4455837367497
 10
88.00410289683579
 20
-122.6550455422529
 10
88.00410289683579
 20
-122.6550455422529
 10
87.98756643850659
 20
-122.6550455422529
 10
87.96689586559509
 20
-122.6529784849618
 10
87.88180200710941
 20
-122.6529784849618
 10
87.85045163819365
 20
-122.6529784849618
 10
87.70575762781314
 20
-122.6488443703795
 10
87.67819686393115
 20
-122.6488443703795
 10
87.67819686393115
 20
-122.6488443703795
 10
87.42808293170201
 20
-122.6488443703795
 10
87.42808293170201
 20
-122.6488443703795
 10
87.42808293170201
 20
-122.6488443703795
 10
87.42808293170201
 20
-123.4019422434551
 10
87.42808293170201
 20
-123.4019422434551
 10
87.42808293170201
 20
-123.4019422434551
 10
87.5782890948589
 20
-123.4019422434551
 10
87.5782890948589
 20
-123.4019422434551
 10
87.76880287519322
 20
-123.4019422434551
 10
87.95793861733344
 20
-123.3974636193243
 10
88.14845239766775
 20
-123.3826497087377
 10
88.14845239766775
 20
-123.3826497087377
 10
88.14845239766775
 20
-123.5921115142409
 10
88.14845239766775
 20
-123.5921115142409
 10
87.90212807047239
 20
-123.573163489072
 10
87.6003377059645
 20
-123.573163489072
 10
87.5782890948589
 20
-123.573163489072
 97
        0
 97
        0
 75
     2
 76
     1
 98
        0
  0
SPLINE
  5
B7
330
A8
100
AcDbEntity
  8
_U+30EC_U+30A4_U+30E4_U+30FC 1
370
     0
100
AcDbSpline
210
0.0
220
0.0
230
1.0
 70
    11
 71
     3
 72
    80
 73
    76
 74
     0
 42
0.0000000001
 43
0.0000000001
 12
1.0
 22
0.0
 32
0.0
 13
1.0
 23
0.0
 33
0.0
 40
0.0
 40
0.0
 40
0.0
 40
0.0
 40
1.0
 40
1.0
 40
1.0
 40
2.0
 40
2.0
 40
2.0
 40
3.0
 40
3.0
 40
3.0
 40
4.0
 40
4.0
 40
4.0
 40
5.0
 40
5.0
 40
5.0
 40
6.0
 40
6.0
 40
6.0
 40
7.0
 40
7.0
 40
7.0
 40
8.0
 40
8.0
 40
8.0
 40
9.0
 40
9.0
 40
9.0
 40
10.0
 40
10.0
 40
10.0
 40
11.0
 40
11.0
 40
11.0
 40
12.0
 40
12.0
 40
12.0
 40
13.0
 40
13.0
 40
13.0
 40
14.0
 40
14.0
 40
14.0
 40
15.0
 40
15.0
 40
15.0
 40
16.0
 40
16.0
 40
16.0
 40
17.0
 40
17.0
 40
17.0
 40
18.0
 40
18.0
 40
18.0
 40
19.0
 40
19.0
 40
19.0
 40
20.0
 40
20.0
 40
20.0
 40
21.0
 40
21.0
 40
21.0
 40
22.0
 40
22.0
 40
22.0
 40
23.0
 40
23.0
 40
23.0
 40
24.0
 40
24.0
 40
24.0
 40
25.0
 40
25.0
 40
25.0
 40
25.0
 10
89.58574623411398
 20
-123.3850612755774
 30
0.0
 10
89.4245157654043
 20
-123.5287217573123
 30
0.0
 10
89.23744708055523
 20
-123.579709170494
 30
0.0
 10
89.15614282710332
 20
-123.6027913102451
 30
0.0
 10
89.15614282710332
 20
-123.6027913102451
 30
0.0
 10
89.0524454529973
 20
-123.4081434153285
 30
0.0
 10
89.0524454529973
 20
-123.4081434153285
 30
0.0
 10
89.45414358657744
 20
-123.3702473649908
 30
0.0
 10
89.6357001186501
 20
-123.0867160065547
 30
0.0
 10
89.6357001186501
 20
-122.8179985587052
 30
0.0
 10
89.6357001186501
 20
-122.5513481681469
 30
0.0
 10
89.43760712824825
 20
-122.3291395093483
 30
0.0
 10
89.25260550069032
 20
-122.3484320440657
 30
0.0
 10
89.19679495382928
 20
-122.5620279641512
 30
0.0
 10
89.13960636877412
 20
-122.7735568269455
 30
0.0
 10
89.02109508408154
 20
-122.9978325430353
 30
0.0
 10
89.05623505803108
 20
-123.0591552426727
 30
0.0
 10
89.08930797468948
 20
-123.1056640317236
 30
0.0
 10
89.12651500593019
 20
-123.1563069353568
 30
0.0
 10
89.12651500593019
 20
-123.1563069353568
 30
0.0
 10
89.00249156846118
 20
-123.3065130985137
 30
0.0
 10
89.00249156846118
 20
-123.3065130985137
 30
0.0
 10
88.97837590006444
 20
-123.2686170481759
 30
0.0
 10
88.95426023166769
 20
-123.2348551124205
 30
0.0
 10
88.91533065268436
 20
-123.1690537886522
 30
0.0
 10
88.88570283151121
 20
-123.2072943485385
 30
0.0
 10
88.80060897302555
 20
-123.3233940663914
 30
0.0
 10
88.6951890511769
 20
-123.3912624474508
 30
0.0
 10
88.65246986715981
 20
-123.4188232113328
 30
0.0
 10
88.61905244095288
 20
-123.4295030073371
 30
0.0
 10
88.57288816145054
 20
-123.4295030073371
 30
0.0
 10
88.38754202434409
 20
-123.4295030073371
 30
0.0
 10
88.33965519709912
 20
-123.2262423737073
 30
0.0
 10
88.33965519709912
 20
-123.0719020959681
 30
0.0
 10
88.33965519709912
 20
-122.8138644441229
 30
0.0
 10
88.45816648179171
 20
-122.5578938495689
 30
0.0
 10
88.60802813540008
 20
-122.4097547437031
 30
0.0
 10
88.5711656137079
 20
-122.2784966057151
 30
0.0
 10
88.5504950407964
 20
-122.1493055250182
 30
0.0
 10
88.53016897743343
 20
-121.9908311326967
 30
0.0
 10
88.53016897743343
 20
-121.9908311326967
 30
0.0
 10
88.7062133567297
 20
-121.9229627516373
 30
0.0
 10
88.7062133567297
 20
-121.9229627516373
 30
0.0
 10
88.70414629943855
 20
-122.0266601257433
 30
0.0
 10
88.70242375169593
 20
-122.0986626213851
 30
0.0
 10
88.74514293571302
 20
-122.297444630884
 30
0.0
 10
88.90430634713157
 20
-122.1916801994868
 30
0.0
 10
89.04865584796353
 20
-122.1813449130311
 30
0.0
 10
89.10791149030983
 20
-122.1768662889002
 30
0.0
 10
89.10997854760099
 20
-122.1472384677271
 30
0.0
 10
89.1117010953436
 20
-122.1303574998494
 30
0.0
 10
89.12479245818756
 20
-121.9866970181144
 30
0.0
 10
89.1282375536728
 20
-121.9315754903504
 30
0.0
 10
89.13030461096396
 20
-121.8785210198776
 30
0.0
 10
89.13409421599773
 20
-121.815131262949
 30
0.0
 10
89.13409421599773
 20
-121.815131262949
 30
0.0
 10
89.35251326976257
 20
-121.8785210198776
 30
0.0
 10
89.35251326976257
 20
-121.8785210198776
 30
0.0
 10
89.36353757531538
 20
-121.8829996440084
 30
0.0
 10
89.36732718034915
 20
-121.8933349304642
 30
0.0
 10
89.36732718034915
 20
-121.8998806118861
 30
0.0
 10
89.36732718034915
 20
-121.9208956943462
 30
0.0
 10
89.33563230188484
 20
-121.9525905728105
 30
0.0
 10
89.32460799633205
 20
-121.9632703688147
 30
0.0
 10
89.30807153800285
 20
-122.0163248392876
 30
0.0
 10
89.30600448071169
 20
-122.0311387498742
 30
0.0
 10
89.28567841734872
 20
-122.1768662889002
 30
0.0
 10
89.34148896420977
 20
-122.1854790276134
 30
0.0
 10
89.40970185481771
 20
-122.193747256778
 30
0.0
 10
89.49514022285192
 20
-122.2468017272508
 30
0.0
 10
89.68014185040983
 20
-122.3587673305214
 30
0.0
 10
89.8079548929126
 20
-122.587521670742
 30
0.0
 10
89.8079548929126
 20
-122.8434922652961
 30
0.0
 10
89.8079548929126
 20
-122.9978325430353
 30
0.0
 10
89.7597235561191
 20
-123.2303764882896
 30
0.0
 10
89.58574623411398
 20
-123.3850612755774
 30
0.0
  0
SPLINE
  5
B8
330
A8
100
AcDbEntity
  8
_U+30EC_U+30A4_U+30E4_U+30FC 1
370
     0
100
AcDbSpline
210
0.0
220
0.0
230
1.0
 70
    11
 71
     3
 72
    17
 73
    13
 74
     0
 42
0.0000000001
 43
0.0000000001
 12
1.0
 22
0.0
 32
0.0
 13
1.0
 23
0.0
 33
0.0
 40
0.0
 40
0.0
 40
0.0
 40
0.0
 40
1.0
 40
1.0
 40
1.0
 40
2.0
 40
2.0
 40
2.0
 40
3.0
 40
3.0
 40
3.0
 40
4.0
 40
4.0
 40
4.0
 40
4.0
 10
88.6634941727126
 20
-122.5978569571978
 30
0.0
 10
88.52293427691441
 20
-122.779757998819
 30
0.0
 10
88.50605330903669
 20
-122.9344427861067
 30
0.0
 10
88.50605330903669
 20
-123.0274603642084
 30
0.0
 10
88.50605330903669
 20
-123.2093614058296
 30
0.0
 10
88.55256209808756
 20
-123.2303764882896
 30
0.0
 10
88.59700382984728
 20
-123.2303764882896
 30
0.0
 10
88.66556123000375
 20
-123.2303764882896
 30
0.0
 10
88.76925860410978
 20
-123.090850121137
 30
0.0
 10
88.82851424645607
 20
-123.0061007721999
 30
0.0
 10
88.78200545740519
 20
-122.911016136807
 30
0.0
 10
88.74307587842188
 20
-122.8307454120007
 30
0.0
 10
88.6634941727126
 20
-122.5978569571978
 30
0.0
  0
SPLINE
  5
B9
330
A8
100
AcDbEntity
  8
_U+30EC_U+30A4_U+30E4_U+30FC 1
370
     0
100
AcDbSpline
210
0.0
220
0.0
230
1.0
 70
    11
 71
     3
 72
    14
 73
    10
 74
     0
 42
0.0000000001
 43
0.0000000001
 12
1.0
 22
0.0
 32
0.0
 13
1.0
 23
0.0
 33
0.0
 40
0.0
 40
0.0
 40
0.0
 40
0.0
 40
1.0
 40
1.0
 40
1.0
 40
2.0
 40
2.0
 40
2.0
 40
3.0
 40
3.0
 40
3.0
 40
3.0
 10
88.78958466747275
 20
-122.4731445006317
 30
0.0
 10
88.82644718916492
 20
-122.5957898999066
 30
0.0
 10
88.87467852595842
 20
-122.7143011845992
 30
0.0
 10
88.93014456327094
 20
-122.8262667878698
 30
0.0
 10
89.01558293130513
 20
-122.6402316316663
 30
0.0
 10
89.04314369518714
 20
-122.5365342575603
 30
0.0
 10
89.07277151636028
 20
-122.352566158648
 30
0.0
 10
89.02454017956678
 20
-122.3587673305214
 30
0.0
 10
88.92084280546077
 20
-122.3694471265257
 30
0.0
 10
88.78958466747275
 20
-122.4731445006317
 30
0.0
  0
HATCH
  5
BA
330
A8
100
AcDbEntity
  8
_U+30EC_U+30A4_U+30E4_U+30FC 1
 62
   179
420
  2234388
100
AcDbHatch
 10
0.0
 20
0.0
 30
0.0
210
0.0
220
0.0
230
1.0
  2
SOLID
 70
     1
 71
     0
 91
        3
 92
        1
 93
        1
 72
     4
 94
        3
 73
     0
 74
     1
 95
       80
 96
       76
 40
0.0
 40
0.0
 40
0.0
 40
0.0
 40
1.0
 40
1.0
 40
1.0
 40
2.0
 40
2.0
 40
2.0
 40
3.0
 40
3.0
 40
3.0
 40
4.0
 40
4.0
 40
4.0
 40
5.0
 40
5.0
 40
5.0
 40
6.0
 40
6.0
 40
6.0
 40
7.0
 40
7.0
 40
7.0
 40
8.0
 40
8.0
 40
8.0
 40
9.0
 40
9.0
 40
9.0
 40
10.0
 40
10.0
 40
10.0
 40
11.0
 40
11.0
 40
11.0
 40
12.0
 40
12.0
 40
12.0
 40
13.0
 40
13.0
 40
13.0
 40
14.0
 40
14.0
 40
14.0
 40
15.0
 40
15.0
 40
15.0
 40
16.0
 40
16.0
 40
16.0
 40
17.0
 40
17.0
 40
17.0
 40
18.0
 40
18.0
 40
18.0
 40
19.0
 40
19.0
 40
19.0
 40
20.0
 40
20.0
 40
20.0
 40
21.0
 40
21.0
 40
21.0
 40
22.0
 40
22.0
 40
22.0
 40
23.0
 40
23.0
 40
23.0
 40
24.0
 40
24.0
 40
24.0
 40
25.0
 40
25.0
 40
25.0
 40
25.0
 10
89.58574623411398
 20
-123.3850612755774
 10
89.4245157654043
 20
-123.5287217573123
 10
89.23744708055523
 20
-123.579709170494
 10
89.15614282710332
 20
-123.6027913102451
 10
89.15614282710332
 20
-123.6027913102451
 10
89.0524454529973
 20
-123.4081434153285
 10
89.0524454529973
 20
-123.4081434153285
 10
89.45414358657744
 20
-123.3702473649908
 10
89.6357001186501
 20
-123.0867160065547
 10
89.6357001186501
 20
-122.8179985587052
 10
89.6357001186501
 20
-122.5513481681469
 10
89.43760712824825
 20
-122.3291395093483
 10
89.25260550069032
 20
-122.3484320440657
 10
89.19679495382928
 20
-122.5620279641512
 10
89.13960636877412
 20
-122.7735568269455
 10
89.02109508408154
 20
-122.9978325430353
 10
89.05623505803108
 20
-123.0591552426727
 10
89.08930797468948
 20
-123.1056640317236
 10
89.12651500593019
 20
-123.1563069353568
 10
89.12651500593019
 20
-123.1563069353568
 10
89.00249156846118
 20
-123.3065130985137
 10
89.00249156846118
 20
-123.3065130985137
 10
88.97837590006444
 20
-123.2686170481759
 10
88.95426023166769
 20
-123.2348551124205
 10
88.91533065268436
 20
-123.1690537886522
 10
88.88570283151121
 20
-123.2072943485385
 10
88.80060897302555
 20
-123.3233940663914
 10
88.6951890511769
 20
-123.3912624474508
 10
88.65246986715981
 20
-123.4188232113328
 10
88.61905244095288
 20
-123.4295030073371
 10
88.57288816145054
 20
-123.4295030073371
 10
88.38754202434409
 20
-123.4295030073371
 10
88.33965519709912
 20
-123.2262423737073
 10
88.33965519709912
 20
-123.0719020959681
 10
88.33965519709912
 20
-122.8138644441229
 10
88.45816648179171
 20
-122.5578938495689
 10
88.60802813540008
 20
-122.4097547437031
 10
88.5711656137079
 20
-122.2784966057151
 10
88.5504950407964
 20
-122.1493055250182
 10
88.53016897743343
 20
-121.9908311326967
 10
88.53016897743343
 20
-121.9908311326967
 10
88.7062133567297
 20
-121.9229627516373
 10
88.7062133567297
 20
-121.9229627516373
 10
88.70414629943855
 20
-122.0266601257433
 10
88.70242375169593
 20
-122.0986626213851
 10
88.74514293571302
 20
-122.297444630884
 10
88.90430634713157
 20
-122.1916801994868
 10
89.04865584796353
 20
-122.1813449130311
 10
89.10791149030983
 20
-122.1768662889002
 10
89.10997854760099
 20
-122.1472384677271
 10
89.1117010953436
 20
-122.1303574998494
 10
89.12479245818756
 20
-121.9866970181144
 10
89.1282375536728
 20
-121.9315754903504
 10
89.13030461096396
 20
-121.8785210198776
 10
89.13409421599773
 20
-121.815131262949
 10
89.13409421599773
 20
-121.815131262949
 10
89.35251326976257
 20
-121.8785210198776
 10
89.35251326976257
 20
-121.8785210198776
 10
89.36353757531538
 20
-121.8829996440084
 10
89.36732718034915
 20
-121.8933349304642
 10
89.36732718034915
 20
-121.8998806118861
 10
89.36732718034915
 20
-121.9208956943462
 10
89.33563230188484
 20
-121.9525905728105
 10
89.32460799633205
 20
-121.9632703688147
 10
89.30807153800285
 20
-122.0163248392876
 10
89.30600448071169
 20
-122.0311387498742
 10
89.28567841734872
 20
-122.1768662889002
 10
89.34148896420977
 20
-122.1854790276134
 10
89.40970185481771
 20
-122.193747256778
 10
89.49514022285192
 20
-122.2468017272508
 10
89.68014185040983
 20
-122.3587673305214
 10
89.8079548929126
 20
-122.587521670742
 10
89.8079548929126
 20
-122.8434922652961
 10
89.8079548929126
 20
-122.9978325430353
 10
89.7597235561191
 20
-123.2303764882896
 10
89.58574623411398
 20
-123.3850612755774
 97
        0
 97
        0
 92
        1
 93
        1
 72
     4
 94
        3
 73
     0
 74
     1
 95
       17
 96
       13
 40
0.0
 40
0.0
 40
0.0
 40
0.0
 40
1.0
 40
1.0
 40
1.0
 40
2.0
 40
2.0
 40
2.0
 40
3.0
 40
3.0
 40
3.0
 40
4.0
 40
4.0
 40
4.0
 40
4.0
 10
88.6634941727126
 20
-122.5978569571978
 10
88.52293427691441
 20
-122.779757998819
 10
88.50605330903669
 20
-122.9344427861067
 10
88.50605330903669
 20
-123.0274603642084
 10
88.50605330903669
 20
-123.2093614058296
 10
88.55256209808756
 20
-123.2303764882896
 10
88.59700382984728
 20
-123.2303764882896
 10
88.66556123000375
 20
-123.2303764882896
 10
88.76925860410978
 20
-123.090850121137
 10
88.82851424645607
 20
-123.0061007721999
 10
88.78200545740519
 20
-122.911016136807
 10
88.74307587842188
 20
-122.8307454120007
 10
88.6634941727126
 20
-122.5978569571978
 97
        0
 97
        0
 92
        1
 93
        1
 72
     4
 94
        3
 73
     0
 74
     1
 95
       14
 96
       10
 40
0.0
 40
0.0
 40
0.0
 40
0.0
 40
1.0
 40
1.0
 40
1.0
 40
2.0
 40
2.0
 40
2.0
 40
3.0
 40
3.0
 40
3.0
 40
3.0
 10
88.78958466747275
 20
-122.4731445006317
 10
88.82644718916492
 20
-122.5957898999066
 10
88.87467852595842
 20
-122.7143011845992
 10
88.93014456327094
 20
-122.8262667878698
 10
89.01558293130513
 20
-122.6402316316663
 10
89.04314369518714
 20
-122.5365342575603
 10
89.07277151636028
 20
-122.352566158648
 10
89.02454017956678
 20
-122.3587673305214
 10
88.92084280546077
 20
-122.3694471265257
 10
88.78958466747275
 20
-122.4731445006317
 97
        0
 97
        0
 75
     2
 76
     1
 98
        0
  0
SPLINE
  5
BB
330
A8
100
AcDbEntity
  8
_U+30EC_U+30A4_U+30E4_U+30FC 1
370
     0
100
AcDbSpline
210
0.0
220
0.0
230
1.0
 70
    11
 71
     3
 72
    62
 73
    58
 74
     0
 42
0.0000000001
 43
0.0000000001
 12
1.0
 22
0.0
 32
0.0
 13
1.0
 23
0.0
 33
0.0
 40
0.0
 40
0.0
 40
0.0
 40
0.0
 40
1.0
 40
1.0
 40
1.0
 40
2.0
 40
2.0
 40
2.0
 40
3.0
 40
3.0
 40
3.0
 40
4.0
 40
4.0
 40
4.0
 40
5.0
 40
5.0
 40
5.0
 40
6.0
 40
6.0
 40
6.0
 40
7.0
 40
7.0
 40
7.0
 40
8.0
 40
8.0
 40
8.0
 40
9.0
 40
9.0
 40
9.0
 40
10.0
 40
10.0
 40
10.0
 40
11.0
 40
11.0
 40
11.0
 40
12.0
 40
12.0
 40
12.0
 40
13.0
 40
13.0
 40
13.0
 40
14.0
 40
14.0
 40
14.0
 40
15.0
 40
15.0
 40
15.0
 40
16.0
 40
16.0
 40
16.0
 40
17.0
 40
17.0
 40
17.0
 40
18.0
 40
18.0
 40
18.0
 40
19.0
 40
19.0
 40
19.0
 40
19.0
 10
91.04508868166582
 20
-123.4208902686239
 30
0.0
 10
91.05060083444222
 20
-123.393329504742
 30
0.0
 10
91.05232338218484
 20
-123.3871283328685
 30
0.0
 10
91.05611298721861
 20
-123.3044460412225
 30
0.0
 10
91.05611298721861
 20
-123.3044460412225
 30
0.0
 10
90.60790606458761
 20
-123.3044460412225
 30
0.0
 10
90.60790606458761
 20
-123.3044460412225
 30
0.0
 10
90.21172008378387
 20
-123.3044460412225
 30
0.0
 10
90.16727835202416
 20
-123.3089246653533
 30
0.0
 10
90.03567570448762
 20
-123.3233940663914
 30
0.0
 10
90.03567570448762
 20
-123.3233940663914
 30
0.0
 10
90.03567570448762
 20
-123.1035969744324
 30
0.0
 10
90.03567570448762
 20
-123.1035969744324
 30
0.0
 10
90.08390704128111
 20
-123.111865203597
 30
0.0
 10
90.12834877304083
 20
-123.1204779423102
 30
0.0
 10
90.30232609504596
 20
-123.1204779423102
 30
0.0
 10
90.34676782680567
 20
-123.1204779423102
 30
0.0
 10
90.54486081720754
 20
-123.1246120568925
 30
0.0
 10
90.58379039619086
 20
-123.1246120568925
 30
0.0
 10
90.58379039619086
 20
-123.1246120568925
 30
0.0
 10
91.06885984051404
 20
-123.1246120568925
 30
0.0
 10
91.06885984051404
 20
-123.1246120568925
 30
0.0
 10
91.06885984051404
 20
-123.1246120568925
 30
0.0
 10
91.06885984051404
 20
-122.303990312306
 30
0.0
 10
91.06885984051404
 20
-122.303990312306
 30
0.0
 10
91.06885984051404
 20
-122.303990312306
 30
0.0
 10
90.55967472779412
 20
-122.303990312306
 30
0.0
 10
90.55967472779412
 20
-122.303990312306
 30
0.0
 10
90.42462698477232
 20
-122.303990312306
 30
0.0
 10
90.1541869891802
 20
-122.3101914841794
 30
0.0
 10
90.0284410039686
 20
-122.3229383374748
 30
0.0
 10
90.0284410039686
 20
-122.3229383374748
 30
0.0
 10
90.0284410039686
 20
-122.1048637932585
 30
0.0
 10
90.0284410039686
 20
-122.1048637932585
 30
0.0
 10
90.17106795705793
 20
-122.1176106465539
 30
0.0
 10
90.31369491014728
 20
-122.1220892706848
 30
0.0
 10
90.4559773536881
 20
-122.1220892706848
 30
0.0
 10
90.4559773536881
 20
-122.1220892706848
 30
0.0
 10
90.84871823900657
 20
-122.1220892706848
 30
0.0
 10
90.84871823900657
 20
-122.1220892706848
 30
0.0
 10
90.91727563916305
 20
-122.1220892706848
 30
0.0
 10
90.9413913075598
 20
-122.1241563279759
 30
0.0
 10
90.98755558706215
 20
-122.1220892706848
 30
0.0
 10
91.03199731882187
 20
-122.1220892706848
 30
0.0
 10
91.22836776148111
 20
-122.1176106465539
 30
0.0
 10
91.26901988820705
 20
-122.1176106465539
 30
0.0
 10
91.2559285253631
 20
-122.2361219312465
 30
0.0
 10
91.2559285253631
 20
-122.4118218009943
 30
0.0
 10
91.2559285253631
 20
-122.55996090686
 30
0.0
 10
91.2559285253631
 20
-122.55996090686
 30
0.0
 10
91.2559285253631
 20
-122.9830186324487
 30
0.0
 10
91.2559285253631
 20
-122.9830186324487
 30
0.0
 10
91.2559285253631
 20
-123.0315944787907
 30
0.0
 10
91.2559285253631
 20
-123.3003119266402
 30
0.0
 10
91.27074243594969
 20
-123.4208902686239
 30
0.0
 10
91.27074243594969
 20
-123.4208902686239
 30
0.0
 10
91.04508868166582
 20
-123.4208902686239
 30
0.0
 10
91.04508868166582
 20
-123.4208902686239
 30
0.0
  0
SPLINE
  5
BC
330
A8
100
AcDbEntity
  8
_U+30EC_U+30A4_U+30E4_U+30FC 1
370
     0
100
AcDbSpline
210
0.0
220
0.0
230
1.0
 70
    11
 71
     3
 72
    17
 73
    13
 74
     0
 42
0.0000000001
 43
0.0000000001
 12
1.0
 22
0.0
 32
0.0
 13
1.0
 23
0.0
 33
0.0
 40
0.0
 40
0.0
 40
0.0
 40
0.0
 40
1.0
 40
1.0
 40
1.0
 40
2.0
 40
2.0
 40
2.0
 40
3.0
 40
3.0
 40
3.0
 40
4.0
 40
4.0
 40
4.0
 40
4.0
 10
91.17462427191121
 20
-122.0669677429208
 30
0.0
 10
91.13569469292788
 20
-122.0183918965787
 30
0.0
 10
91.03578692385564
 20
-121.9229627516373
 30
0.0
 10
90.96722952369917
 20
-121.8785210198776
 30
0.0
 10
90.96722952369917
 20
-121.8785210198776
 30
0.0
 10
91.05232338218484
 20
-121.7644883593158
 30
0.0
 10
91.05232338218484
 20
-121.7644883593158
 30
0.0
 10
91.12088078234132
 20
-121.8023844096536
 30
0.0
 10
91.2228556087047
 20
-121.8871337585907
 30
0.0
 10
91.27280949324083
 20
-121.9525905728105
 30
0.0
 10
91.27280949324083
 20
-121.9525905728105
 30
0.0
 10
91.17462427191121
 20
-122.0669677429208
 30
0.0
 10
91.17462427191121
 20
-122.0669677429208
 30
0.0
  0
SPLINE
  5
BD
330
A8
100
AcDbEntity
  8
_U+30EC_U+30A4_U+30E4_U+30FC 1
370
     0
100
AcDbSpline
210
0.0
220
0.0
230
1.0
 70
    11
 71
     3
 72
    17
 73
    13
 74
     0
 42
0.0000000001
 43
0.0000000001
 12
1.0
 22
0.0
 32
0.0
 13
1.0
 23
0.0
 33
0.0
 40
0.0
 40
0.0
 40
0.0
 40
0.0
 40
1.0
 40
1.0
 40
1.0
 40
2.0
 40
2.0
 40
2.0
 40
3.0
 40
3.0
 40
3.0
 40
4.0
 40
4.0
 40
4.0
 40
4.0
 10
91.47279728615958
 20
-122.0163248392876
 30
0.0
 10
91.3987277332267
 20
-121.9274413757681
 30
0.0
 10
91.34860159391633
 20
-121.8809325867173
 30
0.0
 10
91.25971813039688
 20
-121.8130642056579
 30
0.0
 10
91.25971813039688
 20
-121.8130642056579
 30
0.0
 10
91.34860159391633
 20
-121.7010986023872
 30
0.0
 10
91.34860159391633
 20
-121.7010986023872
 30
0.0
 10
91.44316946498644
 20
-121.7517415060204
 30
0.0
 10
91.53033038076326
 20
-121.8488931987044
 30
0.0
 10
91.5709825074892
 20
-121.9060817837596
 30
0.0
 10
91.5709825074892
 20
-121.9060817837596
 30
0.0
 10
91.47279728615958
 20
-122.0163248392876
 30
0.0
 10
91.47279728615958
 20
-122.0163248392876
 30
0.0
  0
HATCH
  5
BE
330
A8
100
AcDbEntity
  8
_U+30EC_U+30A4_U+30E4_U+30FC 1
 62
   179
420
  2234388
100
AcDbHatch
 10
0.0
 20
0.0
 30
0.0
210
0.0
220
0.0
230
1.0
  2
SOLID
 70
     1
 71
     0
 91
        3
 92
        1
 93
        1
 72
     4
 94
        3
 73
     0
 74
     1
 95
       62
 96
       58
 40
0.0
 40
0.0
 40
0.0
 40
0.0
 40
1.0
 40
1.0
 40
1.0
 40
2.0
 40
2.0
 40
2.0
 40
3.0
 40
3.0
 40
3.0
 40
4.0
 40
4.0
 40
4.0
 40
5.0
 40
5.0
 40
5.0
 40
6.0
 40
6.0
 40
6.0
 40
7.0
 40
7.0
 40
7.0
 40
8.0
 40
8.0
 40
8.0
 40
9.0
 40
9.0
 40
9.0
 40
10.0
 40
10.0
 40
10.0
 40
11.0
 40
11.0
 40
11.0
 40
12.0
 40
12.0
 40
12.0
 40
13.0
 40
13.0
 40
13.0
 40
14.0
 40
14.0
 40
14.0
 40
15.0
 40
15.0
 40
15.0
 40
16.0
 40
16.0
 40
16.0
 40
17.0
 40
17.0
 40
17.0
 40
18.0
 40
18.0
 40
18.0
 40
19.0
 40
19.0
 40
19.0
 40
19.0
 10
91.04508868166582
 20
-123.4208902686239
 10
91.05060083444222
 20
-123.393329504742
 10
91.05232338218484
 20
-123.3871283328685
 10
91.05611298721861
 20
-123.3044460412225
 10
91.05611298721861
 20
-123.3044460412225
 10
90.60790606458761
 20
-123.3044460412225
 10
90.60790606458761
 20
-123.3044460412225
 10
90.21172008378387
 20
-123.3044460412225
 10
90.16727835202416
 20
-123.3089246653533
 10
90.03567570448762
 20
-123.3233940663914
 10
90.03567570448762
 20
-123.3233940663914
 10
90.03567570448762
 20
-123.1035969744324
 10
90.03567570448762
 20
-123.1035969744324
 10
90.08390704128111
 20
-123.111865203597
 10
90.12834877304083
 20
-123.1204779423102
 10
90.30232609504596
 20
-123.1204779423102
 10
90.34676782680567
 20
-123.1204779423102
 10
90.54486081720754
 20
-123.1246120568925
 10
90.58379039619086
 20
-123.1246120568925
 10
90.58379039619086
 20
-123.1246120568925
 10
91.06885984051404
 20
-123.1246120568925
 10
91.06885984051404
 20
-123.1246120568925
 10
91.06885984051404
 20
-123.1246120568925
 10
91.06885984051404
 20
-122.303990312306
 10
91.06885984051404
 20
-122.303990312306
 10
91.06885984051404
 20
-122.303990312306
 10
90.55967472779412
 20
-122.303990312306
 10
90.55967472779412
 20
-122.303990312306
 10
90.42462698477232
 20
-122.303990312306
 10
90.1541869891802
 20
-122.3101914841794
 10
90.0284410039686
 20
-122.3229383374748
 10
90.0284410039686
 20
-122.3229383374748
 10
90.0284410039686
 20
-122.1048637932585
 10
90.0284410039686
 20
-122.1048637932585
 10
90.17106795705793
 20
-122.1176106465539
 10
90.31369491014728
 20
-122.1220892706848
 10
90.4559773536881
 20
-122.1220892706848
 10
90.4559773536881
 20
-122.1220892706848
 10
90.84871823900657
 20
-122.1220892706848
 10
90.84871823900657
 20
-122.1220892706848
 10
90.91727563916305
 20
-122.1220892706848
 10
90.9413913075598
 20
-122.1241563279759
 10
90.98755558706215
 20
-122.1220892706848
 10
91.03199731882187
 20
-122.1220892706848
 10
91.22836776148111
 20
-122.1176106465539
 10
91.26901988820705
 20
-122.1176106465539
 10
91.2559285253631
 20
-122.2361219312465
 10
91.2559285253631
 20
-122.4118218009943
 10
91.2559285253631
 20
-122.55996090686
 10
91.2559285253631
 20
-122.55996090686
 10
91.2559285253631
 20
-122.9830186324487
 10
91.2559285253631
 20
-122.9830186324487
 10
91.2559285253631
 20
-123.0315944787907
 10
91.2559285253631
 20
-123.3003119266402
 10
91.27074243594969
 20
-123.4208902686239
 10
91.27074243594969
 20
-123.4208902686239
 10
91.04508868166582
 20
-123.4208902686239
 10
91.04508868166582
 20
-123.4208902686239
 97
        0
 97
        0
 92
        1
 93
        1
 72
     4
 94
        3
 73
     0
 74
     1
 95
       17
 96
       13
 40
0.0
 40
0.0
 40
0.0
 40
0.0
 40
1.0
 40
1.0
 40
1.0
 40
2.0
 40
2.0
 40
2.0
 40
3.0
 40
3.0
 40
3.0
 40
4.0
 40
4.0
 40
4.0
 40
4.0
 10
91.17462427191121
 20
-122.0669677429208
 10
91.13569469292788
 20
-122.0183918965787
 10
91.03578692385564
 20
-121.9229627516373
 10
90.96722952369917
 20
-121.8785210198776
 10
90.96722952369917
 20
-121.8785210198776
 10
91.05232338218484
 20
-121.7644883593158
 10
91.05232338218484
 20
-121.7644883593158
 10
91.12088078234132
 20
-121.8023844096536
 10
91.2228556087047
 20
-121.8871337585907
 10
91.27280949324083
 20
-121.9525905728105
 10
91.27280949324083
 20
-121.9525905728105
 10
91.17462427191121
 20
-122.0669677429208
 10
91.17462427191121
 20
-122.0669677429208
 97
        0
 97
        0
 92
        1
 93
        1
 72
     4
 94
        3
 73
     0
 74
     1
 95
       17
 96
       13
 40
0.0
 40
0.0
 40
0.0
 40
0.0
 40
1.0
 40
1.0
 40
1.0
 40
2.0
 40
2.0
 40
2.0
 40
3.0
 40
3.0
 40
3.0
 40
4.0
 40
4.0
 40
4.0
 40
4.0
 10
91.47279728615958
 20
-122.0163248392876
 10
91.3987277332267
 20
-121.9274413757681
 10
91.34860159391633
 20
-121.8809325867173
 10
91.25971813039688
 20
-121.8130642056579
 10
91.25971813039688
 20
-121.8130642056579
 10
91.34860159391633
 20
-121.7010986023872
 10
91.34860159391633
 20
-121.7010986023872
 10
91.44316946498644
 20
-121.7517415060204
 10
91.53033038076326
 20
-121.8488931987044
 10
91.5709825074892
 20
-121.9060817837596
 10
91.5709825074892
 20
-121.9060817837596
 10
91.47279728615958
 20
-122.0163248392876
 10
91.47279728615958
 20
-122.0163248392876
 97
        0
 97
        0
 75
     2
 76
     1
 98
        0
  0
SPLINE
  5
BF
330
A8
100
AcDbEntity
  8
_U+30EC_U+30A4_U+30E4_U+30FC 1
370
     0
100
AcDbSpline
210
0.0
220
0.0
230
1.0
 70
    11
 71
     3
 72
    59
 73
    55
 74
     0
 42
0.0000000001
 43
0.0000000001
 12
1.0
 22
0.0
 32
0.0
 13
1.0
 23
0.0
 33
0.0
 40
0.0
 40
0.0
 40
0.0
 40
0.0
 40
1.0
 40
1.0
 40
1.0
 40
2.0
 40
2.0
 40
2.0
 40
3.0
 40
3.0
 40
3.0
 40
4.0
 40
4.0
 40
4.0
 40
5.0
 40
5.0
 40
5.0
 40
6.0
 40
6.0
 40
6.0
 40
7.0
 40
7.0
 40
7.0
 40
8.0
 40
8.0
 40
8.0
 40
9.0
 40
9.0
 40
9.0
 40
10.0
 40
10.0
 40
10.0
 40
11.0
 40
11.0
 40
11.0
 40
12.0
 40
12.0
 40
12.0
 40
13.0
 40
13.0
 40
13.0
 40
14.0
 40
14.0
 40
14.0
 40
15.0
 40
15.0
 40
15.0
 40
16.0
 40
16.0
 40
16.0
 40
17.0
 40
17.0
 40
17.0
 40
18.0
 40
18.0
 40
18.0
 40
18.0
 10
93.02515731181316
 20
-123.5139078467257
 30
0.0
 10
93.00483124845019
 20
-123.4229573259151
 30
0.0
 10
92.99173988560624
 20
-123.3826497087377
 30
0.0
 10
92.93627384829371
 20
-123.2348551124205
 30
0.0
 10
92.56592608362935
 20
-123.2875650733448
 30
0.0
 10
92.45120440397054
 20
-123.3044460412225
 30
0.0
 10
92.13253307158493
 20
-123.3468207156911
 30
0.0
 10
92.06397567142845
 20
-123.3554334544042
 30
0.0
 10
91.85864798050757
 20
-123.3850612755774
 30
0.0
 10
91.80834958642292
 20
-123.4081434153285
 30
0.0
 10
91.7583957018868
 20
-123.4336371219194
 30
0.0
 10
91.7528835491104
 20
-123.4357041792105
 30
0.0
 10
91.74013669581497
 20
-123.4357041792105
 30
0.0
 10
91.72325572793724
 20
-123.4357041792105
 30
0.0
 10
91.7253227852284
 20
-123.4295030073371
 30
0.0
 10
91.71395397012706
 20
-123.3785155941554
 30
0.0
 10
91.71395397012706
 20
-123.3785155941554
 30
0.0
 10
91.66951223836735
 20
-123.1731879032345
 30
0.0
 10
91.66951223836735
 20
-123.1731879032345
 30
0.0
 10
91.73083493800479
 20
-123.1776665273653
 30
0.0
 10
91.78630097531732
 20
-123.1776665273653
 30
0.0
 10
91.95648869228866
 20
-123.1649196740699
 30
0.0
 10
92.05122881813303
 20
-122.9365098433978
 30
0.0
 10
92.30478784584741
 20
-122.1303574998494
 30
0.0
 10
92.34750702986452
 20
-121.8743869052953
 30
0.0
 10
92.34750702986452
 20
-121.8743869052953
 30
0.0
 10
92.55111217304278
 20
-121.946389400937
 30
0.0
 10
92.55111217304278
 20
-121.946389400937
 30
0.0
 10
92.58625214699234
 20
-121.9591362542324
 30
0.0
 10
92.6010660575789
 20
-121.9632703688147
 30
0.0
 10
92.6010660575789
 20
-121.9887640754056
 30
0.0
 10
92.6010660575789
 20
-122.0204589538699
 30
0.0
 10
92.57695038918216
 20
-122.0266601257433
 30
0.0
 10
92.54904511575162
 20
-122.0332058071653
 30
0.0
 10
92.51597219909323
 20
-122.1176106465539
 30
0.0
 10
92.4288112833164
 20
-122.325005394766
 30
0.0
 10
92.33062606198679
 20
-122.6064696959109
 30
0.0
 10
92.24174259846734
 20
-122.8624402904649
 30
0.0
 10
92.23244084065718
 20
-122.890001054347
 30
0.0
 10
92.13425561932755
 20
-123.1501057634833
 30
0.0
 10
92.48806692566271
 20
-123.1163438277279
 30
0.0
 10
92.52699650464604
 20
-123.1142767704367
 30
0.0
 10
92.86599390039461
 20
-123.069835038677
 30
0.0
 10
92.85462508529329
 20
-123.0484754466684
 30
0.0
 10
92.74197046292562
 20
-122.8286783547095
 30
0.0
 10
92.63069387875206
 20
-122.7122341273081
 30
0.0
 10
92.63069387875206
 20
-122.7122341273081
 30
0.0
 10
92.79364689520438
 20
-122.6064696959109
 30
0.0
 10
92.79364689520438
 20
-122.6064696959109
 30
0.0
 10
92.90457896982942
 20
-122.7291150951858
 30
0.0
 10
93.09750431700341
 20
-123.0505425039596
 30
0.0
 10
93.20292423885205
 20
-123.4122775299108
 30
0.0
 10
93.20292423885205
 20
-123.4122775299108
 30
0.0
 10
93.02515731181316
 20
-123.5139078467257
 30
0.0
 10
93.02515731181316
 20
-123.5139078467257
 30
0.0
  0
HATCH
  5
C0
330
A8
100
AcDbEntity
  8
_U+30EC_U+30A4_U+30E4_U+30FC 1
 62
   179
420
  2234388
100
AcDbHatch
 10
0.0
 20
0.0
 30
0.0
210
0.0
220
0.0
230
1.0
  2
SOLID
 70
     1
 71
     0
 91
        1
 92
        1
 93
        1
 72
     4
 94
        3
 73
     0
 74
     1
 95
       59
 96
       55
 40
0.0
 40
0.0
 40
0.0
 40
0.0
 40
1.0
 40
1.0
 40
1.0
 40
2.0
 40
2.0
 40
2.0
 40
3.0
 40
3.0
 40
3.0
 40
4.0
 40
4.0
 40
4.0
 40
5.0
 40
5.0
 40
5.0
 40
6.0
 40
6.0
 40
6.0
 40
7.0
 40
7.0
 40
7.0
 40
8.0
 40
8.0
 40
8.0
 40
9.0
 40
9.0
 40
9.0
 40
10.0
 40
10.0
 40
10.0
 40
11.0
 40
11.0
 40
11.0
 40
12.0
 40
12.0
 40
12.0
 40
13.0
 40
13.0
 40
13.0
 40
14.0
 40
14.0
 40
14.0
 40
15.0
 40
15.0
 40
15.0
 40
16.0
 40
16.0
 40
16.0
 40
17.0
 40
17.0
 40
17.0
 40
18.0
 40
18.0
 40
18.0
 40
18.0
 10
93.02515731181316
 20
-123.5139078467257
 10
93.00483124845019
 20
-123.4229573259151
 10
92.99173988560624
 20
-123.3826497087377
 10
92.93627384829371
 20
-123.2348551124205
 10
92.56592608362935
 20
-123.2875650733448
 10
92.45120440397054
 20
-123.3044460412225
 10
92.13253307158493
 20
-123.3468207156911
 10
92.06397567142845
 20
-123.3554334544042
 10
91.85864798050757
 20
-123.3850612755774
 10
91.80834958642292
 20
-123.4081434153285
 10
91.7583957018868
 20
-123.4336371219194
 10
91.7528835491104
 20
-123.4357041792105
 10
91.74013669581497
 20
-123.4357041792105
 10
91.72325572793724
 20
-123.4357041792105
 10
91.7253227852284
 20
-123.4295030073371
 10
91.71395397012706
 20
-123.3785155941554
 10
91.71395397012706
 20
-123.3785155941554
 10
91.66951223836735
 20
-123.1731879032345
 10
91.66951223836735
 20
-123.1731879032345
 10
91.73083493800479
 20
-123.1776665273653
 10
91.78630097531732
 20
-123.1776665273653
 10
91.95648869228866
 20
-123.1649196740699
 10
92.05122881813303
 20
-122.9365098433978
 10
92.30478784584741
 20
-122.1303574998494
 10
92.34750702986452
 20
-121.8743869052953
 10
92.34750702986452
 20
-121.8743869052953
 10
92.55111217304278
 20
-121.946389400937
 10
92.55111217304278
 20
-121.946389400937
 10
92.58625214699234
 20
-121.9591362542324
 10
92.6010660575789
 20
-121.9632703688147
 10
92.6010660575789
 20
-121.9887640754056
 10
92.6010660575789
 20
-122.0204589538699
 10
92.57695038918216
 20
-122.0266601257433
 10
92.54904511575162
 20
-122.0332058071653
 10
92.51597219909323
 20
-122.1176106465539
 10
92.4288112833164
 20
-122.325005394766
 10
92.33062606198679
 20
-122.6064696959109
 10
92.24174259846734
 20
-122.8624402904649
 10
92.23244084065718
 20
-122.890001054347
 10
92.13425561932755
 20
-123.1501057634833
 10
92.48806692566271
 20
-123.1163438277279
 10
92.52699650464604
 20
-123.1142767704367
 10
92.86599390039461
 20
-123.069835038677
 10
92.85462508529329
 20
-123.0484754466684
 10
92.74197046292562
 20
-122.8286783547095
 10
92.63069387875206
 20
-122.7122341273081
 10
92.63069387875206
 20
-122.7122341273081
 10
92.79364689520438
 20
-122.6064696959109
 10
92.79364689520438
 20
-122.6064696959109
 10
92.90457896982942
 20
-122.7291150951858
 10
93.09750431700341
 20
-123.0505425039596
 10
93.20292423885205
 20
-123.4122775299108
 10
93.20292423885205
 20
-123.4122775299108
 10
93.02515731181316
 20
-123.5139078467257
 10
93.02515731181316
 20
-123.5139078467257
 97
        0
 97
        0
 75
     2
 76
     1
 98
        0
  0
SPLINE
  5
C1
330
A8
100
AcDbEntity
  8
_U+30EC_U+30A4_U+30E4_U+30FC 1
370
     0
100
AcDbSpline
210
0.0
220
0.0
230
1.0
 70
    11
 71
     3
 72
    23
 73
    19
 74
     0
 42
0.0000000001
 43
0.0000000001
 12
1.0
 22
0.0
 32
0.0
 13
1.0
 23
0.0
 33
0.0
 40
0.0
 40
0.0
 40
0.0
 40
0.0
 40
1.0
 40
1.0
 40
1.0
 40
2.0
 40
2.0
 40
2.0
 40
3.0
 40
3.0
 40
3.0
 40
4.0
 40
4.0
 40
4.0
 40
5.0
 40
5.0
 40
5.0
 40
6.0
 40
6.0
 40
6.0
 40
6.0
 10
94.01321069698281
 20
-123.7233696522289
 30
0.0
 10
93.86851668660232
 20
-123.5307888146034
 30
0.0
 10
93.66491154342405
 20
-123.2558701948805
 30
0.0
 10
93.66491154342405
 20
-122.7081000127258
 30
0.0
 10
93.66491154342405
 20
-122.1599853210225
 30
0.0
 10
93.86851668660232
 20
-121.8850667012996
 30
0.0
 10
94.01321069698281
 20
-121.6924858636741
 30
0.0
 10
94.01321069698281
 20
-121.6924858636741
 30
0.0
 10
94.11105140876391
 20
-121.7920491231978
 30
0.0
 10
94.11105140876391
 20
-121.7920491231978
 30
0.0
 10
93.98909502858606
 20
-121.9591362542324
 30
0.0
 10
93.80374889147963
 20
-122.2151068487865
 30
0.0
 10
93.80374889147963
 20
-122.7081000127258
 30
0.0
 10
93.80374889147963
 20
-123.2007486671165
 30
0.0
 10
93.98909502858606
 20
-123.4567192616705
 30
0.0
 10
94.11105140876391
 20
-123.6238063927052
 30
0.0
 10
94.11105140876391
 20
-123.6238063927052
 30
0.0
 10
94.01321069698281
 20
-123.7233696522289
 30
0.0
 10
94.01321069698281
 20
-123.7233696522289
 30
0.0
  0
HATCH
  5
C2
330
A8
100
AcDbEntity
  8
_U+30EC_U+30A4_U+30E4_U+30FC 1
 62
   179
420
  2234388
100
AcDbHatch
 10
0.0
 20
0.0
 30
0.0
210
0.0
220
0.0
230
1.0
  2
SOLID
 70
     1
 71
     0
 91
        1
 92
        1
 93
        1
 72
     4
 94
        3
 73
     0
 74
     1
 95
       23
 96
       19
 40
0.0
 40
0.0
 40
0.0
 40
0.0
 40
1.0
 40
1.0
 40
1.0
 40
2.0
 40
2.0
 40
2.0
 40
3.0
 40
3.0
 40
3.0
 40
4.0
 40
4.0
 40
4.0
 40
5.0
 40
5.0
 40
5.0
 40
6.0
 40
6.0
 40
6.0
 40
6.0
 10
94.01321069698281
 20
-123.7233696522289
 10
93.86851668660232
 20
-123.5307888146034
 10
93.66491154342405
 20
-123.2558701948805
 10
93.66491154342405
 20
-122.7081000127258
 10
93.66491154342405
 20
-122.1599853210225
 10
93.86851668660232
 20
-121.8850667012996
 10
94.01321069698281
 20
-121.6924858636741
 10
94.01321069698281
 20
-121.6924858636741
 10
94.11105140876391
 20
-121.7920491231978
 10
94.11105140876391
 20
-121.7920491231978
 10
93.98909502858606
 20
-121.9591362542324
 10
93.80374889147963
 20
-122.2151068487865
 10
93.80374889147963
 20
-122.7081000127258
 10
93.80374889147963
 20
-123.2007486671165
 10
93.98909502858606
 20
-123.4567192616705
 10
94.11105140876391
 20
-123.6238063927052
 10
94.11105140876391
 20
-123.6238063927052
 10
94.01321069698281
 20
-123.7233696522289
 10
94.01321069698281
 20
-123.7233696522289
 97
        0
 97
        0
 75
     2
 76
     1
 98
        0
  0
SPLINE
  5
C3
330
A8
100
AcDbEntity
  8
_U+30EC_U+30A4_U+30E4_U+30FC 1
370
     0
100
AcDbSpline
210
0.0
220
0.0
230
1.0
 70
    11
 71
     3
 72
    23
 73
    19
 74
     0
 42
0.0000000001
 43
0.0000000001
 12
1.0
 22
0.0
 32
0.0
 13
1.0
 23
0.0
 33
0.0
 40
0.0
 40
0.0
 40
0.0
 40
0.0
 40
1.0
 40
1.0
 40
1.0
 40
2.0
 40
2.0
 40
2.0
 40
3.0
 40
3.0
 40
3.0
 40
4.0
 40
4.0
 40
4.0
 40
5.0
 40
5.0
 40
5.0
 40
6.0
 40
6.0
 40
6.0
 40
6.0
 10
94.64676375672026
 20
-123.3213270091002
 30
0.0
 10
94.60611162999432
 20
-123.4081434153285
 30
0.0
 10
94.54134383487161
 20
-123.5287217573123
 30
0.0
 10
94.45797252412856
 20
-123.628285016836
 30
0.0
 10
94.45797252412856
 20
-123.628285016836
 30
0.0
 10
94.2819281448323
 20
-123.5266547000211
 30
0.0
 10
94.2819281448323
 20
-123.5266547000211
 30
0.0
 10
94.36357690783272
 20
-123.441905351084
 30
0.0
 10
94.44488116128461
 20
-123.3595675689865
 30
0.0
 10
94.51343856144109
 20
-123.1690537886522
 30
0.0
 10
94.51343856144109
 20
-123.1690537886522
 30
0.0
 10
94.67639157789341
 20
-123.2558701948805
 30
0.0
 10
94.67639157789341
 20
-123.2558701948805
 30
0.0
 10
94.69292803622261
 20
-123.2644829335936
 30
0.0
 10
94.70222979403277
 20
-123.2813639014713
 30
0.0
 10
94.70222979403277
 20
-123.2916991879271
 30
0.0
 10
94.70222979403277
 20
-123.3192599518091
 30
0.0
 10
94.65778806227306
 20
-123.3213270091002
 30
0.0
 10
94.64676375672026
 20
-123.3213270091002
 30
0.0
  0
SPLINE
  5
C4
330
A8
100
AcDbEntity
  8
_U+30EC_U+30A4_U+30E4_U+30FC 1
370
     0
100
AcDbSpline
210
0.0
220
0.0
230
1.0
 70
    11
 71
     3
 72
   116
 73
   112
 74
     0
 42
0.0000000001
 43
0.0000000001
 12
1.0
 22
0.0
 32
0.0
 13
1.0
 23
0.0
 33
0.0
 40
0.0
 40
0.0
 40
0.0
 40
0.0
 40
1.0
 40
1.0
 40
1.0
 40
2.0
 40
2.0
 40
2.0
 40
3.0
 40
3.0
 40
3.0
 40
4.0
 40
4.0
 40
4.0
 40
5.0
 40
5.0
 40
5.0
 40
6.0
 40
6.0
 40
6.0
 40
7.0
 40
7.0
 40
7.0
 40
8.0
 40
8.0
 40
8.0
 40
9.0
 40
9.0
 40
9.0
 40
10.0
 40
10.0
 40
10.0
 40
11.0
 40
11.0
 40
11.0
 40
12.0
 40
12.0
 40
12.0
 40
13.0
 40
13.0
 40
13.0
 40
14.0
 40
14.0
 40
14.0
 40
15.0
 40
15.0
 40
15.0
 40
16.0
 40
16.0
 40
16.0
 40
17.0
 40
17.0
 40
17.0
 40
18.0
 40
18.0
 40
18.0
 40
19.0
 40
19.0
 40
19.0
 40
20.0
 40
20.0
 40
20.0
 40
21.0
 40
21.0
 40
21.0
 40
22.0
 40
22.0
 40
22.0
 40
23.0
 40
23.0
 40
23.0
 40
24.0
 40
24.0
 40
24.0
 40
25.0
 40
25.0
 40
25.0
 40
26.0
 40
26.0
 40
26.0
 40
27.0
 40
27.0
 40
27.0
 40
28.0
 40
28.0
 40
28.0
 40
29.0
 40
29.0
 40
29.0
 40
30.0
 40
30.0
 40
30.0
 40
31.0
 40
31.0
 40
31.0
 40
32.0
 40
32.0
 40
32.0
 40
33.0
 40
33.0
 40
33.0
 40
34.0
 40
34.0
 40
34.0
 40
35.0
 40
35.0
 40
35.0
 40
36.0
 40
36.0
 40
36.0
 40
37.0
 40
37.0
 40
37.0
 40
37.0
 10
95.42087671225589
 20
-123.1439045916099
 30
0.0
 10
95.42087671225589
 20
-123.1439045916099
 30
0.0
 10
94.8651828104851
 20
-123.1439045916099
 30
0.0
 10
94.8651828104851
 20
-123.1439045916099
 30
0.0
 10
94.63022729839106
 20
-123.1439045916099
 30
0.0
 10
94.4596950718712
 20
-123.1439045916099
 30
0.0
 10
94.30983341826283
 20
-123.1542398780656
 30
0.0
 10
94.30983341826283
 20
-123.1542398780656
 30
0.0
 10
94.30983341826283
 20
-122.9682047218621
 30
0.0
 10
94.30983341826283
 20
-122.9682047218621
 30
0.0
 10
94.54685598764802
 20
-122.9850856897398
 30
0.0
 10
94.86139320545132
 20
-122.9850856897398
 30
0.0
 10
94.8651828104851
 20
-122.9850856897398
 30
0.0
 10
94.8651828104851
 20
-122.9850856897398
 30
0.0
 10
95.05604110036793
 20
-122.9850856897398
 30
0.0
 10
95.05604110036793
 20
-122.9850856897398
 30
0.0
 10
95.05604110036793
 20
-122.9850856897398
 30
0.0
 10
95.05604110036793
 20
-122.8241997305787
 30
0.0
 10
95.05604110036793
 20
-122.8241997305787
 30
0.0
 10
95.05604110036793
 20
-122.8241997305787
 30
0.0
 10
94.90032278443465
 20
-122.8241997305787
 30
0.0
 10
94.90032278443465
 20
-122.8241997305787
 30
0.0
 10
94.81729598324013
 20
-122.8241997305787
 30
0.0
 10
94.58578556663133
 20
-122.8286783547095
 30
0.0
 10
94.41904294514525
 20
-122.834879526583
 30
0.0
 10
94.41904294514525
 20
-122.834879526583
 30
0.0
 10
94.41904294514525
 20
-122.6571125995441
 30
0.0
 10
94.41904294514525
 20
-122.6571125995441
 30
0.0
 10
94.5689045987536
 20
-122.663658280966
 30
0.0
 10
94.78766816206698
 20
-122.6698594528395
 30
0.0
 10
94.90032278443465
 20
-122.6698594528395
 30
0.0
 10
94.90032278443465
 20
-122.6698594528395
 30
0.0
 10
95.05604110036793
 20
-122.6698594528395
 30
0.0
 10
95.05604110036793
 20
-122.6698594528395
 30
0.0
 10
95.05604110036793
 20
-122.6698594528395
 30
0.0
 10
95.05604110036793
 20
-122.532400142978
 30
0.0
 10
95.05604110036793
 20
-122.532400142978
 30
0.0
 10
95.05604110036793
 20
-122.532400142978
 30
0.0
 10
94.93374021064157
 20
-122.532400142978
 30
0.0
 10
94.93374021064157
 20
-122.532400142978
 30
0.0
 10
94.90617944675957
 20
-122.532400142978
 30
0.0
 10
94.78181149974205
 20
-122.5386013148515
 30
0.0
 10
94.75804034089383
 20
-122.5386013148515
 30
0.0
 10
94.6116237827707
 20
-122.5386013148515
 30
0.0
 10
94.5561577454582
 20
-122.5430799389823
 30
0.0
 10
94.49138995033549
 20
-122.5472140535646
 30
0.0
 10
94.49690210311189
 20
-122.4710774433406
 30
0.0
 10
94.50241425588828
 20
-122.3270724520571
 30
0.0
 10
94.50241425588828
 20
-122.2468017272508
 30
0.0
 10
94.50241425588828
 20
-122.2468017272508
 30
0.0
 10
94.50241425588828
 20
-122.1451714104359
 30
0.0
 10
94.50241425588828
 20
-122.1451714104359
 30
0.0
 10
94.50241425588828
 20
-121.994965247279
 30
0.0
 10
94.50034719859714
 20
-121.9591362542324
 30
0.0
 10
94.49138995033549
 20
-121.8047959764933
 30
0.0
 10
94.54134383487161
 20
-121.8068630337844
 30
0.0
 10
94.84313419937949
 20
-121.815131262949
 30
0.0
 10
94.95785587903832
 20
-121.815131262949
 30
0.0
 10
94.95785587903832
 20
-121.815131262949
 30
0.0
 10
95.31166718537348
 20
-121.815131262949
 30
0.0
 10
95.31166718537348
 20
-121.815131262949
 30
0.0
 10
95.4691080490494
 20
-121.815131262949
 30
0.0
 10
95.73920353509298
 20
-121.8023844096536
 30
0.0
 10
95.7891574196291
 20
-121.7982502950713
 30
0.0
 10
95.78743487188648
 20
-121.8406249695398
 30
0.0
 10
95.78192271911009
 20
-122.0139132724479
 30
0.0
 10
95.78192271911009
 20
-122.0583550042076
 30
0.0
 10
95.78192271911009
 20
-122.0583550042076
 30
0.0
 10
95.78192271911009
 20
-122.2784966057151
 30
0.0
 10
95.78192271911009
 20
-122.2784966057151
 30
0.0
 10
95.78192271911009
 20
-122.40114200499
 30
0.0
 10
95.78571232414386
 20
-122.4669433287583
 30
0.0
 10
95.7891574196291
 20
-122.5472140535646
 30
0.0
 10
95.63171655595319
 20
-122.5386013148515
 30
0.0
 10
95.35783146487583
 20
-122.532400142978
 30
0.0
 10
95.32648109596005
 20
-122.532400142978
 30
0.0
 10
95.32648109596005
 20
-122.532400142978
 30
0.0
 10
95.22071666456289
 20
-122.532400142978
 30
0.0
 10
95.22071666456289
 20
-122.532400142978
 30
0.0
 10
95.22071666456289
 20
-122.532400142978
 30
0.0
 10
95.22071666456289
 20
-122.6698594528395
 30
0.0
 10
95.22071666456289
 20
-122.6698594528395
 30
0.0
 10
95.22071666456289
 20
-122.6698594528395
 30
0.0
 10
95.38194713327258
 20
-122.6698594528395
 30
0.0
 10
95.38194713327258
 20
-122.6698594528395
 30
0.0
 10
95.4856445073786
 20
-122.6698594528395
 30
0.0
 10
95.70613061843459
 20
-122.6657253382572
 30
0.0
 10
95.86529402985313
 20
-122.6571125995441
 30
0.0
 10
95.86529402985313
 20
-122.6571125995441
 30
0.0
 10
95.86529402985313
 20
-122.834879526583
 30
0.0
 10
95.86529402985313
 20
-122.834879526583
 30
0.0
 10
95.71715492398738
 20
-122.8286783547095
 30
0.0
 10
95.47806529731105
 20
-122.8241997305787
 30
0.0
 10
95.38194713327258
 20
-122.8241997305787
 30
0.0
 10
95.38194713327258
 20
-122.8241997305787
 30
0.0
 10
95.22071666456289
 20
-122.8241997305787
 30
0.0
 10
95.22071666456289
 20
-122.8241997305787
 30
0.0
 10
95.22071666456289
 20
-122.8241997305787
 30
0.0
 10
95.22071666456289
 20
-122.9850856897398
 30
0.0
 10
95.22071666456289
 20
-122.9850856897398
 30
0.0
 10
95.22071666456289
 20
-122.9850856897398
 30
0.0
 10
95.42087671225589
 20
-122.9850856897398
 30
0.0
 10
95.42087671225589
 20
-122.9850856897398
 30
0.0
 10
95.60587833981381
 20
-122.9850856897398
 30
0.0
 10
95.79122447692025
 20
-122.9809515751575
 30
0.0
 10
95.97622610447817
 20
-122.9682047218621
 30
0.0
 10
95.97622610447817
 20
-122.9682047218621
 30
0.0
 10
95.97622610447817
 20
-123.1542398780656
 30
0.0
 10
95.97622610447817
 20
-123.1542398780656
 30
0.0
 10
95.90043400380267
 20
-123.1501057634833
 30
0.0
 10
95.66892358719389
 20
-123.1439045916099
 30
0.0
 10
95.42087671225589
 20
-123.1439045916099
 30
0.0
  0
POLYLINE
  5
C5
330
A8
100
AcDbEntity
  8
_U+30EC_U+30A4_U+30E4_U+30FC 1
370
     0
100
AcDb2dPolyline
 66
     1
 10
0.0
 20
0.0
 30
0.0
  0
VERTEX
  5
C6
330
C5
100
AcDbEntity
  8
_U+30EC_U+30A4_U+30E4_U+30FC 1
370
     0
100
AcDbVertex
100
AcDb2dVertex
 10
95.05604110036793
 20
-121.9550021396501
 30
0.0
  0
VERTEX
  5
C7
330
C5
100
AcDbEntity
  8
_U+30EC_U+30A4_U+30E4_U+30FC 1
370
     0
100
AcDbVertex
100
AcDb2dVertex
 10
94.67639157789341
 20
-121.9550021396501
 30
0.0
  0
VERTEX
  5
C8
330
C5
100
AcDbEntity
  8
_U+30EC_U+30A4_U+30E4_U+30FC 1
370
     0
100
AcDbVertex
100
AcDb2dVertex
 10
94.67639157789341
 20
-122.0965955640939
 30
0.0
  0
VERTEX
  5
C9
330
C5
100
AcDbEntity
  8
_U+30EC_U+30A4_U+30E4_U+30FC 1
370
     0
100
AcDbVertex
100
AcDb2dVertex
 10
95.05604110036793
 20
-122.0965955640939
 30
0.0
  0
VERTEX
  5
CA
330
C5
100
AcDbEntity
  8
_U+30EC_U+30A4_U+30E4_U+30FC 1
370
     0
100
AcDbVertex
100
AcDb2dVertex
 10
95.05604110036793
 20
-121.9550021396501
 30
0.0
  0
SEQEND
  5
CB
330
C5
100
AcDbEntity
  8
_U+30EC_U+30A4_U+30E4_U+30FC 1
370
     0
  0
POLYLINE
  5
CC
330
A8
100
AcDbEntity
  8
_U+30EC_U+30A4_U+30E4_U+30FC 1
370
     0
100
AcDb2dPolyline
 66
     1
 10
0.0
 20
0.0
 30
0.0
  0
VERTEX
  5
CD
330
CC
100
AcDbEntity
  8
_U+30EC_U+30A4_U+30E4_U+30FC 1
370
     0
100
AcDbVertex
100
AcDb2dVertex
 10
95.05604110036793
 20
-122.2402560458288
 30
0.0
  0
VERTEX
  5
CE
330
CC
100
AcDbEntity
  8
_U+30EC_U+30A4_U+30E4_U+30FC 1
370
     0
100
AcDbVertex
100
AcDb2dVertex
 10
94.67639157789341
 20
-122.2402560458288
 30
0.0
  0
VERTEX
  5
CF
330
CC
100
AcDbEntity
  8
_U+30EC_U+30A4_U+30E4_U+30FC 1
370
     0
100
AcDbVertex
100
AcDb2dVertex
 10
94.67639157789341
 20
-122.3842610371123
 30
0.0
  0
VERTEX
  5
D0
330
CC
100
AcDbEntity
  8
_U+30EC_U+30A4_U+30E4_U+30FC 1
370
     0
100
AcDbVertex
100
AcDb2dVertex
 10
95.05604110036793
 20
-122.3842610371123
 30
0.0
  0
VERTEX
  5
D1
330
CC
100
AcDbEntity
  8
_U+30EC_U+30A4_U+30E4_U+30FC 1
370
     0
100
AcDbVertex
100
AcDb2dVertex
 10
95.05604110036793
 20
-122.2402560458288
 30
0.0
  0
SEQEND
  5
D2
330
CC
100
AcDbEntity
  8
_U+30EC_U+30A4_U+30E4_U+30FC 1
370
     0
  0
SPLINE
  5
D3
330
A8
100
AcDbEntity
  8
_U+30EC_U+30A4_U+30E4_U+30FC 1
370
     0
100
AcDbSpline
210
0.0
220
0.0
230
1.0
 70
    11
 71
     3
 72
    17
 73
    13
 74
     0
 42
0.0000000001
 43
0.0000000001
 12
1.0
 22
0.0
 32
0.0
 13
1.0
 23
0.0
 33
0.0
 40
0.0
 40
0.0
 40
0.0
 40
0.0
 40
1.0
 40
1.0
 40
1.0
 40
2.0
 40
2.0
 40
2.0
 40
3.0
 40
3.0
 40
3.0
 40
4.0
 40
4.0
 40
4.0
 40
4.0
 10
94.91169159953597
 20
-123.621739335414
 30
0.0
 10
94.89481063165825
 20
-123.518041961308
 30
0.0
 10
94.8486463521559
 20
-123.3974636193243
 30
0.0
 10
94.7838785570332
 20
-123.2982448693491
 30
0.0
 10
94.7838785570332
 20
-123.2982448693491
 30
0.0
 10
94.91892630005499
 20
-123.2093614058296
 30
0.0
 10
94.91892630005499
 20
-123.2093614058296
 30
0.0
 10
94.9836940951777
 20
-123.2941107547668
 30
0.0
 10
95.04846189030039
 20
-123.4208902686239
 30
0.0
 10
95.06878795366336
 20
-123.52458764273
 30
0.0
 10
95.06878795366336
 20
-123.52458764273
 30
0.0
 10
94.91169159953597
 20
-123.621739335414
 30
0.0
 10
94.91169159953597
 20
-123.621739335414
 30
0.0
  0
SPLINE
  5
D4
330
A8
100
AcDbEntity
  8
_U+30EC_U+30A4_U+30E4_U+30FC 1
370
     0
100
AcDbSpline
210
0.0
220
0.0
230
1.0
 70
    11
 71
     3
 72
    17
 73
    13
 74
     0
 42
0.0000000001
 43
0.0000000001
 12
1.0
 22
0.0
 32
0.0
 13
1.0
 23
0.0
 33
0.0
 40
0.0
 40
0.0
 40
0.0
 40
0.0
 40
1.0
 40
1.0
 40
1.0
 40
2.0
 40
2.0
 40
2.0
 40
3.0
 40
3.0
 40
3.0
 40
4.0
 40
4.0
 40
4.0
 40
4.0
 10
95.33371579647907
 20
-123.6262179595448
 30
0.0
 10
95.29857582252953
 20
-123.4270914404974
 30
0.0
 10
95.23759763244061
 20
-123.3299397478134
 30
0.0
 10
95.19660099616613
 20
-123.2706841054671
 30
0.0
 10
95.19660099616613
 20
-123.2706841054671
 30
0.0
 10
95.34852970706565
 20
-123.1880018138211
 30
0.0
 10
95.34852970706565
 20
-123.1880018138211
 30
0.0
 10
95.43948022787625
 20
-123.3023789839314
 30
0.0
 10
95.48013235460219
 20
-123.4525851470882
 30
0.0
 10
95.49287920789762
 20
-123.518041961308
 30
0.0
 10
95.49287920789762
 20
-123.518041961308
 30
0.0
 10
95.33371579647907
 20
-123.6262179595448
 30
0.0
 10
95.33371579647907
 20
-123.6262179595448
 30
0.0
  0
POLYLINE
  5
D5
330
A8
100
AcDbEntity
  8
_U+30EC_U+30A4_U+30E4_U+30FC 1
370
     0
100
AcDb2dPolyline
 66
     1
 10
0.0
 20
0.0
 30
0.0
  0
VERTEX
  5
D6
330
D5
100
AcDbEntity
  8
_U+30EC_U+30A4_U+30E4_U+30FC 1
370
     0
100
AcDbVertex
100
AcDb2dVertex
 10
95.60415579207118
 20
-121.9550021396501
 30
0.0
  0
VERTEX
  5
D7
330
D5
100
AcDbEntity
  8
_U+30EC_U+30A4_U+30E4_U+30FC 1
370
     0
100
AcDbVertex
100
AcDb2dVertex
 10
95.22071666456289
 20
-121.9550021396501
 30
0.0
  0
VERTEX
  5
D8
330
D5
100
AcDbEntity
  8
_U+30EC_U+30A4_U+30E4_U+30FC 1
370
     0
100
AcDbVertex
100
AcDb2dVertex
 10
95.22071666456289
 20
-122.0965955640939
 30
0.0
  0
VERTEX
  5
D9
330
D5
100
AcDbEntity
  8
_U+30EC_U+30A4_U+30E4_U+30FC 1
370
     0
100
AcDbVertex
100
AcDb2dVertex
 10
95.60415579207118
 20
-122.0965955640939
 30
0.0
  0
VERTEX
  5
DA
330
D5
100
AcDbEntity
  8
_U+30EC_U+30A4_U+30E4_U+30FC 1
370
     0
100
AcDbVertex
100
AcDb2dVertex
 10
95.60415579207118
 20
-121.9550021396501
 30
0.0
  0
SEQEND
  5
DB
330
D5
100
AcDbEntity
  8
_U+30EC_U+30A4_U+30E4_U+30FC 1
370
     0
  0
POLYLINE
  5
DC
330
A8
100
AcDbEntity
  8
_U+30EC_U+30A4_U+30E4_U+30FC 1
370
     0
100
AcDb2dPolyline
 66
     1
 10
0.0
 20
0.0
 30
0.0
  0
VERTEX
  5
DD
330
DC
100
AcDbEntity
  8
_U+30EC_U+30A4_U+30E4_U+30FC 1
370
     0
100
AcDbVertex
100
AcDb2dVertex
 10
95.60415579207118
 20
-122.2402560458288
 30
0.0
  0
VERTEX
  5
DE
330
DC
100
AcDbEntity
  8
_U+30EC_U+30A4_U+30E4_U+30FC 1
370
     0
100
AcDbVertex
100
AcDb2dVertex
 10
95.22071666456289
 20
-122.2402560458288
 30
0.0
  0
VERTEX
  5
DF
330
DC
100
AcDbEntity
  8
_U+30EC_U+30A4_U+30E4_U+30FC 1
370
     0
100
AcDbVertex
100
AcDb2dVertex
 10
95.22071666456289
 20
-122.3842610371123
 30
0.0
  0
VERTEX
  5
E0
330
DC
100
AcDbEntity
  8
_U+30EC_U+30A4_U+30E4_U+30FC 1
370
     0
100
AcDbVertex
100
AcDb2dVertex
 10
95.60415579207118
 20
-122.3842610371123
 30
0.0
  0
VERTEX
  5
E1
330
DC
100
AcDbEntity
  8
_U+30EC_U+30A4_U+30E4_U+30FC 1
370
     0
100
AcDbVertex
100
AcDb2dVertex
 10
95.60415579207118
 20
-122.2402560458288
 30
0.0
  0
SEQEND
  5
E2
330
DC
100
AcDbEntity
  8
_U+30EC_U+30A4_U+30E4_U+30FC 1
370
     0
  0
SPLINE
  5
E3
330
A8
100
AcDbEntity
  8
_U+30EC_U+30A4_U+30E4_U+30FC 1
370
     0
100
AcDbSpline
210
0.0
220
0.0
230
1.0
 70
    11
 71
     3
 72
    17
 73
    13
 74
     0
 42
0.0000000001
 43
0.0000000001
 12
1.0
 22
0.0
 32
0.0
 13
1.0
 23
0.0
 33
0.0
 40
0.0
 40
0.0
 40
0.0
 40
0.0
 40
1.0
 40
1.0
 40
1.0
 40
2.0
 40
2.0
 40
2.0
 40
3.0
 40
3.0
 40
3.0
 40
4.0
 40
4.0
 40
4.0
 40
4.0
 10
95.8373887564226
 20
-123.6365532460006
 30
0.0
 10
95.77641056633368
 20
-123.5077066748522
 30
0.0
 10
95.69682886062441
 20
-123.3850612755774
 30
0.0
 10
95.58761933374198
 20
-123.2961778120579
 30
0.0
 10
95.58761933374198
 20
-123.2961778120579
 30
0.0
 10
95.72266707676378
 20
-123.1690537886522
 30
0.0
 10
95.72266707676378
 20
-123.1690537886522
 30
0.0
 10
95.72645668179756
 20
-123.1711208459433
 30
0.0
 10
95.8911322459925
 20
-123.3089246653533
 30
0.0
 10
95.98173825725458
 20
-123.5032280507214
 30
0.0
 10
95.98173825725458
 20
-123.5032280507214
 30
0.0
 10
95.8373887564226
 20
-123.6365532460006
 30
0.0
 10
95.8373887564226
 20
-123.6365532460006
 30
0.0
  0
HATCH
  5
E4
330
A8
100
AcDbEntity
  8
_U+30EC_U+30A4_U+30E4_U+30FC 1
 62
   179
420
  2234388
100
AcDbHatch
 10
0.0
 20
0.0
 30
0.0
210
0.0
220
0.0
230
1.0
  2
SOLID
 70
     1
 71
     0
 91
        9
 92
        1
 93
        1
 72
     4
 94
        3
 73
     0
 74
     1
 95
       23
 96
       19
 40
0.0
 40
0.0
 40
0.0
 40
0.0
 40
1.0
 40
1.0
 40
1.0
 40
2.0
 40
2.0
 40
2.0
 40
3.0
 40
3.0
 40
3.0
 40
4.0
 40
4.0
 40
4.0
 40
5.0
 40
5.0
 40
5.0
 40
6.0
 40
6.0
 40
6.0
 40
6.0
 10
94.64676375672026
 20
-123.3213270091002
 10
94.60611162999432
 20
-123.4081434153285
 10
94.54134383487161
 20
-123.5287217573123
 10
94.45797252412856
 20
-123.628285016836
 10
94.45797252412856
 20
-123.628285016836
 10
94.2819281448323
 20
-123.5266547000211
 10
94.2819281448323
 20
-123.5266547000211
 10
94.36357690783272
 20
-123.441905351084
 10
94.44488116128461
 20
-123.3595675689865
 10
94.51343856144109
 20
-123.1690537886522
 10
94.51343856144109
 20
-123.1690537886522
 10
94.67639157789341
 20
-123.2558701948805
 10
94.67639157789341
 20
-123.2558701948805
 10
94.69292803622261
 20
-123.2644829335936
 10
94.70222979403277
 20
-123.2813639014713
 10
94.70222979403277
 20
-123.2916991879271
 10
94.70222979403277
 20
-123.3192599518091
 10
94.65778806227306
 20
-123.3213270091002
 10
94.64676375672026
 20
-123.3213270091002
 97
        0
 97
        0
 92
        1
 93
        1
 72
     4
 94
        3
 73
     0
 74
     1
 95
      116
 96
      112
 40
0.0
 40
0.0
 40
0.0
 40
0.0
 40
1.0
 40
1.0
 40
1.0
 40
2.0
 40
2.0
 40
2.0
 40
3.0
 40
3.0
 40
3.0
 40
4.0
 40
4.0
 40
4.0
 40
5.0
 40
5.0
 40
5.0
 40
6.0
 40
6.0
 40
6.0
 40
7.0
 40
7.0
 40
7.0
 40
8.0
 40
8.0
 40
8.0
 40
9.0
 40
9.0
 40
9.0
 40
10.0
 40
10.0
 40
10.0
 40
11.0
 40
11.0
 40
11.0
 40
12.0
 40
12.0
 40
12.0
 40
13.0
 40
13.0
 40
13.0
 40
14.0
 40
14.0
 40
14.0
 40
15.0
 40
15.0
 40
15.0
 40
16.0
 40
16.0
 40
16.0
 40
17.0
 40
17.0
 40
17.0
 40
18.0
 40
18.0
 40
18.0
 40
19.0
 40
19.0
 40
19.0
 40
20.0
 40
20.0
 40
20.0
 40
21.0
 40
21.0
 40
21.0
 40
22.0
 40
22.0
 40
22.0
 40
23.0
 40
23.0
 40
23.0
 40
24.0
 40
24.0
 40
24.0
 40
25.0
 40
25.0
 40
25.0
 40
26.0
 40
26.0
 40
26.0
 40
27.0
 40
27.0
 40
27.0
 40
28.0
 40
28.0
 40
28.0
 40
29.0
 40
29.0
 40
29.0
 40
30.0
 40
30.0
 40
30.0
 40
31.0
 40
31.0
 40
31.0
 40
32.0
 40
32.0
 40
32.0
 40
33.0
 40
33.0
 40
33.0
 40
34.0
 40
34.0
 40
34.0
 40
35.0
 40
35.0
 40
35.0
 40
36.0
 40
36.0
 40
36.0
 40
37.0
 40
37.0
 40
37.0
 40
37.0
 10
95.42087671225589
 20
-123.1439045916099
 10
95.42087671225589
 20
-123.1439045916099
 10
94.8651828104851
 20
-123.1439045916099
 10
94.8651828104851
 20
-123.1439045916099
 10
94.63022729839106
 20
-123.1439045916099
 10
94.4596950718712
 20
-123.1439045916099
 10
94.30983341826283
 20
-123.1542398780656
 10
94.30983341826283
 20
-123.1542398780656
 10
94.30983341826283
 20
-122.9682047218621
 10
94.30983341826283
 20
-122.9682047218621
 10
94.54685598764802
 20
-122.9850856897398
 10
94.86139320545132
 20
-122.9850856897398
 10
94.8651828104851
 20
-122.9850856897398
 10
94.8651828104851
 20
-122.9850856897398
 10
95.05604110036793
 20
-122.9850856897398
 10
95.05604110036793
 20
-122.9850856897398
 10
95.05604110036793
 20
-122.9850856897398
 10
95.05604110036793
 20
-122.8241997305787
 10
95.05604110036793
 20
-122.8241997305787
 10
95.05604110036793
 20
-122.8241997305787
 10
94.90032278443465
 20
-122.8241997305787
 10
94.90032278443465
 20
-122.8241997305787
 10
94.81729598324013
 20
-122.8241997305787
 10
94.58578556663133
 20
-122.8286783547095
 10
94.41904294514525
 20
-122.834879526583
 10
94.41904294514525
 20
-122.834879526583
 10
94.41904294514525
 20
-122.6571125995441
 10
94.41904294514525
 20
-122.6571125995441
 10
94.5689045987536
 20
-122.663658280966
 10
94.78766816206698
 20
-122.6698594528395
 10
94.90032278443465
 20
-122.6698594528395
 10
94.90032278443465
 20
-122.6698594528395
 10
95.05604110036793
 20
-122.6698594528395
 10
95.05604110036793
 20
-122.6698594528395
 10
95.05604110036793
 20
-122.6698594528395
 10
95.05604110036793
 20
-122.532400142978
 10
95.05604110036793
 20
-122.532400142978
 10
95.05604110036793
 20
-122.532400142978
 10
94.93374021064157
 20
-122.532400142978
 10
94.93374021064157
 20
-122.532400142978
 10
94.90617944675957
 20
-122.532400142978
 10
94.78181149974205
 20
-122.5386013148515
 10
94.75804034089383
 20
-122.5386013148515
 10
94.6116237827707
 20
-122.5386013148515
 10
94.5561577454582
 20
-122.5430799389823
 10
94.49138995033549
 20
-122.5472140535646
 10
94.49690210311189
 20
-122.4710774433406
 10
94.50241425588828
 20
-122.3270724520571
 10
94.50241425588828
 20
-122.2468017272508
 10
94.50241425588828
 20
-122.2468017272508
 10
94.50241425588828
 20
-122.1451714104359
 10
94.50241425588828
 20
-122.1451714104359
 10
94.50241425588828
 20
-121.994965247279
 10
94.50034719859714
 20
-121.9591362542324
 10
94.49138995033549
 20
-121.8047959764933
 10
94.54134383487161
 20
-121.8068630337844
 10
94.84313419937949
 20
-121.815131262949
 10
94.95785587903832
 20
-121.815131262949
 10
94.95785587903832
 20
-121.815131262949
 10
95.31166718537348
 20
-121.815131262949
 10
95.31166718537348
 20
-121.815131262949
 10
95.4691080490494
 20
-121.815131262949
 10
95.73920353509298
 20
-121.8023844096536
 10
95.7891574196291
 20
-121.7982502950713
 10
95.78743487188648
 20
-121.8406249695398
 10
95.78192271911009
 20
-122.0139132724479
 10
95.78192271911009
 20
-122.0583550042076
 10
95.78192271911009
 20
-122.0583550042076
 10
95.78192271911009
 20
-122.2784966057151
 10
95.78192271911009
 20
-122.2784966057151
 10
95.78192271911009
 20
-122.40114200499
 10
95.78571232414386
 20
-122.4669433287583
 10
95.7891574196291
 20
-122.5472140535646
 10
95.63171655595319
 20
-122.5386013148515
 10
95.35783146487583
 20
-122.532400142978
 10
95.32648109596005
 20
-122.532400142978
 10
95.32648109596005
 20
-122.532400142978
 10
95.22071666456289
 20
-122.532400142978
 10
95.22071666456289
 20
-122.532400142978
 10
95.22071666456289
 20
-122.532400142978
 10
95.22071666456289
 20
-122.6698594528395
 10
95.22071666456289
 20
-122.6698594528395
 10
95.22071666456289
 20
-122.6698594528395
 10
95.38194713327258
 20
-122.6698594528395
 10
95.38194713327258
 20
-122.6698594528395
 10
95.4856445073786
 20
-122.6698594528395
 10
95.70613061843459
 20
-122.6657253382572
 10
95.86529402985313
 20
-122.6571125995441
 10
95.86529402985313
 20
-122.6571125995441
 10
95.86529402985313
 20
-122.834879526583
 10
95.86529402985313
 20
-122.834879526583
 10
95.71715492398738
 20
-122.8286783547095
 10
95.47806529731105
 20
-122.8241997305787
 10
95.38194713327258
 20
-122.8241997305787
 10
95.38194713327258
 20
-122.8241997305787
 10
95.22071666456289
 20
-122.8241997305787
 10
95.22071666456289
 20
-122.8241997305787
 10
95.22071666456289
 20
-122.8241997305787
 10
95.22071666456289
 20
-122.9850856897398
 10
95.22071666456289
 20
-122.9850856897398
 10
95.22071666456289
 20
-122.9850856897398
 10
95.42087671225589
 20
-122.9850856897398
 10
95.42087671225589
 20
-122.9850856897398
 10
95.60587833981381
 20
-122.9850856897398
 10
95.79122447692025
 20
-122.9809515751575
 10
95.97622610447817
 20
-122.9682047218621
 10
95.97622610447817
 20
-122.9682047218621
 10
95.97622610447817
 20
-123.1542398780656
 10
95.97622610447817
 20
-123.1542398780656
 10
95.90043400380267
 20
-123.1501057634833
 10
95.66892358719389
 20
-123.1439045916099
 10
95.42087671225589
 20
-123.1439045916099
 97
        0
 97
        0
 92
        1
 93
        4
 72
     1
 10
95.05604110036793
 20
-121.9550021396501
 11
94.67639157789341
 21
-121.9550021396501
 72
     1
 10
94.67639157789341
 20
-121.9550021396501
 11
94.67639157789341
 21
-122.0965955640939
 72
     1
 10
94.67639157789341
 20
-122.0965955640939
 11
95.05604110036793
 21
-122.0965955640939
 72
     1
 10
95.05604110036793
 20
-122.0965955640939
 11
95.05604110036793
 21
-121.9550021396501
 97
        0
 92
        1
 93
        4
 72
     1
 10
95.05604110036793
 20
-122.2402560458288
 11
94.67639157789341
 21
-122.2402560458288
 72
     1
 10
94.67639157789341
 20
-122.2402560458288
 11
94.67639157789341
 21
-122.3842610371123
 72
     1
 10
94.67639157789341
 20
-122.3842610371123
 11
95.05604110036793
 21
-122.3842610371123
 72
     1
 10
95.05604110036793
 20
-122.3842610371123
 11
95.05604110036793
 21
-122.2402560458288
 97
        0
 92
        1
 93
        1
 72
     4
 94
        3
 73
     0
 74
     1
 95
       17
 96
       13
 40
0.0
 40
0.0
 40
0.0
 40
0.0
 40
1.0
 40
1.0
 40
1.0
 40
2.0
 40
2.0
 40
2.0
 40
3.0
 40
3.0
 40
3.0
 40
4.0
 40
4.0
 40
4.0
 40
4.0
 10
94.91169159953597
 20
-123.621739335414
 10
94.89481063165825
 20
-123.518041961308
 10
94.8486463521559
 20
-123.3974636193243
 10
94.7838785570332
 20
-123.2982448693491
 10
94.7838785570332
 20
-123.2982448693491
 10
94.91892630005499
 20
-123.2093614058296
 10
94.91892630005499
 20
-123.2093614058296
 10
94.9836940951777
 20
-123.2941107547668
 10
95.04846189030039
 20
-123.4208902686239
 10
95.06878795366336
 20
-123.52458764273
 10
95.06878795366336
 20
-123.52458764273
 10
94.91169159953597
 20
-123.621739335414
 10
94.91169159953597
 20
-123.621739335414
 97
        0
 97
        0
 92
        1
 93
        1
 72
     4
 94
        3
 73
     0
 74
     1
 95
       17
 96
       13
 40
0.0
 40
0.0
 40
0.0
 40
0.0
 40
1.0
 40
1.0
 40
1.0
 40
2.0
 40
2.0
 40
2.0
 40
3.0
 40
3.0
 40
3.0
 40
4.0
 40
4.0
 40
4.0
 40
4.0
 10
95.33371579647907
 20
-123.6262179595448
 10
95.29857582252953
 20
-123.4270914404974
 10
95.23759763244061
 20
-123.3299397478134
 10
95.19660099616613
 20
-123.2706841054671
 10
95.19660099616613
 20
-123.2706841054671
 10
95.34852970706565
 20
-123.1880018138211
 10
95.34852970706565
 20
-123.1880018138211
 10
95.43948022787625
 20
-123.3023789839314
 10
95.48013235460219
 20
-123.4525851470882
 10
95.49287920789762
 20
-123.518041961308
 10
95.49287920789762
 20
-123.518041961308
 10
95.33371579647907
 20
-123.6262179595448
 10
95.33371579647907
 20
-123.6262179595448
 97
        0
 97
        0
 92
        1
 93
        4
 72
     1
 10
95.60415579207118
 20
-121.9550021396501
 11
95.22071666456289
 21
-121.9550021396501
 72
     1
 10
95.22071666456289
 20
-121.9550021396501
 11
95.22071666456289
 21
-122.0965955640939
 72
     1
 10
95.22071666456289
 20
-122.0965955640939
 11
95.60415579207118
 21
-122.0965955640939
 72
     1
 10
95.60415579207118
 20
-122.0965955640939
 11
95.60415579207118
 21
-121.9550021396501
 97
        0
 92
        1
 93
        4
 72
     1
 10
95.60415579207118
 20
-122.2402560458288
 11
95.22071666456289
 21
-122.2402560458288
 72
     1
 10
95.22071666456289
 20
-122.2402560458288
 11
95.22071666456289
 21
-122.3842610371123
 72
     1
 10
95.22071666456289
 20
-122.3842610371123
 11
95.60415579207118
 21
-122.3842610371123
 72
     1
 10
95.60415579207118
 20
-122.3842610371123
 11
95.60415579207118
 21
-122.2402560458288
 97
        0
 92
        1
 93
        1
 72
     4
 94
        3
 73
     0
 74
     1
 95
       17
 96
       13
 40
0.0
 40
0.0
 40
0.0
 40
0.0
 40
1.0
 40
1.0
 40
1.0
 40
2.0
 40
2.0
 40
2.0
 40
3.0
 40
3.0
 40
3.0
 40
4.0
 40
4.0
 40
4.0
 40
4.0
 10
95.8373887564226
 20
-123.6365532460006
 10
95.77641056633368
 20
-123.5077066748522
 10
95.69682886062441
 20
-123.3850612755774
 10
95.58761933374198
 20
-123.2961778120579
 10
95.58761933374198
 20
-123.2961778120579
 10
95.72266707676378
 20
-123.1690537886522
 10
95.72266707676378
 20
-123.1690537886522
 10
95.72645668179756
 20
-123.1711208459433
 10
95.8911322459925
 20
-123.3089246653533
 10
95.98173825725458
 20
-123.5032280507214
 10
95.98173825725458
 20
-123.5032280507214
 10
95.8373887564226
 20
-123.6365532460006
 10
95.8373887564226
 20
-123.6365532460006
 97
        0
 97
        0
 75
     2
 76
     1
 98
        0
  0
SPLINE
  5
E5
330
A8
100
AcDbEntity
  8
_U+30EC_U+30A4_U+30E4_U+30FC 1
370
     0
100
AcDbSpline
210
0.0
220
0.0
230
1.0
 70
    11
 71
     3
 72
    23
 73
    19
 74
     0
 42
0.0000000001
 43
0.0000000001
 12
1.0
 22
0.0
 32
0.0
 13
1.0
 23
0.0
 33
0.0
 40
0.0
 40
0.0
 40
0.0
 40
0.0
 40
1.0
 40
1.0
 40
1.0
 40
2.0
 40
2.0
 40
2.0
 40
3.0
 40
3.0
 40
3.0
 40
4.0
 40
4.0
 40
4.0
 40
5.0
 40
5.0
 40
5.0
 40
6.0
 40
6.0
 40
6.0
 40
6.0
 10
96.17500811397709
 20
-123.6238063927052
 30
0.0
 10
96.29696449415493
 20
-123.4567192616705
 30
0.0
 10
96.48231063126137
 20
-123.2007486671165
 30
0.0
 10
96.48231063126137
 20
-122.7081000127258
 30
0.0
 10
96.48231063126137
 20
-122.2151068487865
 30
0.0
 10
96.29696449415493
 20
-121.9591362542324
 30
0.0
 10
96.17500811397709
 20
-121.7920491231978
 30
0.0
 10
96.17500811397709
 20
-121.7920491231978
 30
0.0
 10
96.2731933353067
 20
-121.6924858636741
 30
0.0
 10
96.2731933353067
 20
-121.6924858636741
 30
0.0
 10
96.41547577884752
 20
-121.8850667012996
 30
0.0
 10
96.62114797931694
 20
-122.1599853210225
 30
0.0
 10
96.62114797931694
 20
-122.7081000127258
 30
0.0
 10
96.62114797931694
 20
-123.2558701948805
 30
0.0
 10
96.41547577884752
 20
-123.5307888146034
 30
0.0
 10
96.2731933353067
 20
-123.7233696522289
 30
0.0
 10
96.2731933353067
 20
-123.7233696522289
 30
0.0
 10
96.17500811397709
 20
-123.6238063927052
 30
0.0
 10
96.17500811397709
 20
-123.6238063927052
 30
0.0
  0
HATCH
  5
E6
330
A8
100
AcDbEntity
  8
_U+30EC_U+30A4_U+30E4_U+30FC 1
 62
   179
420
  2234388
100
AcDbHatch
 10
0.0
 20
0.0
 30
0.0
210
0.0
220
0.0
230
1.0
  2
SOLID
 70
     1
 71
     0
 91
        1
 92
        1
 93
        1
 72
     4
 94
        3
 73
     0
 74
     1
 95
       23
 96
       19
 40
0.0
 40
0.0
 40
0.0
 40
0.0
 40
1.0
 40
1.0
 40
1.0
 40
2.0
 40
2.0
 40
2.0
 40
3.0
 40
3.0
 40
3.0
 40
4.0
 40
4.0
 40
4.0
 40
5.0
 40
5.0
 40
5.0
 40
6.0
 40
6.0
 40
6.0
 40
6.0
 10
96.17500811397709
 20
-123.6238063927052
 10
96.29696449415493
 20
-123.4567192616705
 10
96.48231063126137
 20
-123.2007486671165
 10
96.48231063126137
 20
-122.7081000127258
 10
96.48231063126137
 20
-122.2151068487865
 10
96.29696449415493
 20
-121.9591362542324
 10
96.17500811397709
 20
-121.7920491231978
 10
96.17500811397709
 20
-121.7920491231978
 10
96.2731933353067
 20
-121.6924858636741
 10
96.2731933353067
 20
-121.6924858636741
 10
96.41547577884752
 20
-121.8850667012996
 10
96.62114797931694
 20
-122.1599853210225
 10
96.62114797931694
 20
-122.7081000127258
 10
96.62114797931694
 20
-123.2558701948805
 10
96.41547577884752
 20
-123.5307888146034
 10
96.2731933353067
 20
-123.7233696522289
 10
96.2731933353067
 20
-123.7233696522289
 10
96.17500811397709
 20
-123.6238063927052
 10
96.17500811397709
 20
-123.6238063927052
 97
        0
 97
        0
 75
     2
 76
     1
 98
        0
  0
ENDBLK
  5
AB
330
A8
100
AcDbEntity
  8
0
100
AcDbBlockEnd
  0
BLOCK
  5
F7
330
F5
100
AcDbEntity
  8
0
100
AcDbBlockBegin
  2
block 7
 70
     0
 10
0.0
 20
0.0
 30
0.0
  3
block 7
  1

  0
SPLINE
  5
F9
330
F5
100
AcDbEntity
  8
_U+30EC_U+30A4_U+30E4_U+30FC 1
370
     0
100
AcDbSpline
210
0.0
220
0.0
230
1.0
 70
    11
 71
     3
 72
    53
 73
    49
 74
     0
 42
0.0000000001
 43
0.0000000001
 12
1.0
 22
0.0
 32
0.0
 13
1.0
 23
0.0
 33
0.0
 40
0.0
 40
0.0
 40
0.0
 40
0.0
 40
1.0
 40
1.0
 40
1.0
 40
2.0
 40
2.0
 40
2.0
 40
3.0
 40
3.0
 40
3.0
 40
4.0
 40
4.0
 40
4.0
 40
5.0
 40
5.0
 40
5.0
 40
6.0
 40
6.0
 40
6.0
 40
7.0
 40
7.0
 40
7.0
 40
8.0
 40
8.0
 40
8.0
 40
9.0
 40
9.0
 40
9.0
 40
10.0
 40
10.0
 40
10.0
 40
11.0
 40
11.0
 40
11.0
 40
12.0
 40
12.0
 40
12.0
 40
13.0
 40
13.0
 40
13.0
 40
14.0
 40
14.0
 40
14.0
 40
15.0
 40
15.0
 40
15.0
 40
16.0
 40
16.0
 40
16.0
 40
16.0
 10
87.3390272134083
 20
-146.9929225978004
 30
0.0
 10
87.27046981325184
 20
-146.9929225978004
 30
0.0
 10
87.18158634973238
 20
-146.9760416299227
 30
0.0
 10
87.09270288621293
 20
-146.9126518729941
 30
0.0
 10
86.94077417531342
 20
-146.8027533270146
 30
0.0
 10
86.92217065969307
 20
-146.6714951890266
 30
0.0
 10
86.90563420136387
 20
-146.5636637003383
 30
0.0
 10
86.90563420136387
 20
-146.5636637003383
 30
0.0
 10
87.09993758673197
 20
-146.5636637003383
 30
0.0
 10
87.09993758673197
 20
-146.5636637003383
 30
0.0
 10
87.14816892352546
 20
-146.7624457098372
 30
0.0
 10
87.25944550769903
 20
-146.7920735310103
 30
0.0
 10
87.34074976115093
 20
-146.7920735310103
 30
0.0
 10
87.46305065087729
 20
-146.7920735310103
 30
0.0
 10
87.59637584615646
 20
-146.6925102714866
 30
0.0
 10
87.59637584615646
 20
-146.4599663262322
 30
0.0
 10
87.59637584615646
 20
-146.2039957316782
 30
0.0
 10
87.43893498248055
 20
-146.1340602933276
 30
0.0
 10
87.3335150606319
 20
-146.1340602933276
 30
0.0
 10
87.30560978720138
 20
-146.1340602933276
 30
0.0
 10
87.18158634973238
 20
-146.1340602933276
 30
0.0
 10
87.10372719176574
 20
-146.2632513740245
 30
0.0
 10
87.10372719176574
 20
-146.2632513740245
 30
0.0
 10
86.9500759331236
 20
-146.2443033488556
 30
0.0
 10
86.9500759331236
 20
-146.2443033488556
 30
0.0
 10
86.9500759331236
 20
-146.2443033488556
 30
0.0
 10
87.05584036452076
 20
-145.3978433881297
 30
0.0
 10
87.05584036452076
 20
-145.3978433881297
 30
0.0
 10
87.05584036452076
 20
-145.3978433881297
 30
0.0
 10
87.73728025150318
 20
-145.3978433881297
 30
0.0
 10
87.73728025150318
 20
-145.3978433881297
 30
0.0
 10
87.73728025150318
 20
-145.3978433881297
 30
0.0
 10
87.73728025150318
 20
-145.5924912830463
 30
0.0
 10
87.73728025150318
 20
-145.5924912830463
 30
0.0
 10
87.73728025150318
 20
-145.5924912830463
 30
0.0
 10
87.19812280806158
 20
-145.5924912830463
 30
0.0
 10
87.19812280806158
 20
-145.5924912830463
 30
0.0
 10
87.19812280806158
 20
-145.5924912830463
 30
0.0
 10
87.14093422300644
 20
-146.015549008635
 30
0.0
 10
87.14093422300644
 20
-146.015549008635
 30
0.0
 10
87.19467771257634
 20
-145.9817870728796
 30
0.0
 10
87.26668020821806
 20
-145.9414794557021
 30
0.0
 10
87.37037758232408
 20
-145.9414794557021
 30
0.0
 10
87.59258624112269
 20
-145.9414794557021
 30
0.0
 10
87.79998098933473
 20
-146.1278591214542
 30
0.0
 10
87.79998098933473
 20
-146.4410183010634
 30
0.0
 10
87.79998098933473
 20
-146.7583115952549
 30
0.0
 10
87.60361054667548
 20
-146.9929225978004
 30
0.0
 10
87.3390272134083
 20
-146.9929225978004
 30
0.0
  0
HATCH
  5
FA
330
F5
100
AcDbEntity
  8
_U+30EC_U+30A4_U+30E4_U+30FC 1
 62
   179
420
  2234388
100
AcDbHatch
 10
0.0
 20
0.0
 30
0.0
210
0.0
220
0.0
230
1.0
  2
SOLID
 70
     1
 71
     0
 91
        1
 92
        1
 93
        1
 72
     4
 94
        3
 73
     0
 74
     1
 95
       53
 96
       49
 40
0.0
 40
0.0
 40
0.0
 40
0.0
 40
1.0
 40
1.0
 40
1.0
 40
2.0
 40
2.0
 40
2.0
 40
3.0
 40
3.0
 40
3.0
 40
4.0
 40
4.0
 40
4.0
 40
5.0
 40
5.0
 40
5.0
 40
6.0
 40
6.0
 40
6.0
 40
7.0
 40
7.0
 40
7.0
 40
8.0
 40
8.0
 40
8.0
 40
9.0
 40
9.0
 40
9.0
 40
10.0
 40
10.0
 40
10.0
 40
11.0
 40
11.0
 40
11.0
 40
12.0
 40
12.0
 40
12.0
 40
13.0
 40
13.0
 40
13.0
 40
14.0
 40
14.0
 40
14.0
 40
15.0
 40
15.0
 40
15.0
 40
16.0
 40
16.0
 40
16.0
 40
16.0
 10
87.3390272134083
 20
-146.9929225978004
 10
87.27046981325184
 20
-146.9929225978004
 10
87.18158634973238
 20
-146.9760416299227
 10
87.09270288621293
 20
-146.9126518729941
 10
86.94077417531342
 20
-146.8027533270146
 10
86.92217065969307
 20
-146.6714951890266
 10
86.90563420136387
 20
-146.5636637003383
 10
86.90563420136387
 20
-146.5636637003383
 10
87.09993758673197
 20
-146.5636637003383
 10
87.09993758673197
 20
-146.5636637003383
 10
87.14816892352546
 20
-146.7624457098372
 10
87.25944550769903
 20
-146.7920735310103
 10
87.34074976115093
 20
-146.7920735310103
 10
87.46305065087729
 20
-146.7920735310103
 10
87.59637584615646
 20
-146.6925102714866
 10
87.59637584615646
 20
-146.4599663262322
 10
87.59637584615646
 20
-146.2039957316782
 10
87.43893498248055
 20
-146.1340602933276
 10
87.3335150606319
 20
-146.1340602933276
 10
87.30560978720138
 20
-146.1340602933276
 10
87.18158634973238
 20
-146.1340602933276
 10
87.10372719176574
 20
-146.2632513740245
 10
87.10372719176574
 20
-146.2632513740245
 10
86.9500759331236
 20
-146.2443033488556
 10
86.9500759331236
 20
-146.2443033488556
 10
86.9500759331236
 20
-146.2443033488556
 10
87.05584036452076
 20
-145.3978433881297
 10
87.05584036452076
 20
-145.3978433881297
 10
87.05584036452076
 20
-145.3978433881297
 10
87.73728025150318
 20
-145.3978433881297
 10
87.73728025150318
 20
-145.3978433881297
 10
87.73728025150318
 20
-145.3978433881297
 10
87.73728025150318
 20
-145.5924912830463
 10
87.73728025150318
 20
-145.5924912830463
 10
87.73728025150318
 20
-145.5924912830463
 10
87.19812280806158
 20
-145.5924912830463
 10
87.19812280806158
 20
-145.5924912830463
 10
87.19812280806158
 20
-145.5924912830463
 10
87.14093422300644
 20
-146.015549008635
 10
87.14093422300644
 20
-146.015549008635
 10
87.19467771257634
 20
-145.9817870728796
 10
87.26668020821806
 20
-145.9414794557021
 10
87.37037758232408
 20
-145.9414794557021
 10
87.59258624112269
 20
-145.9414794557021
 10
87.79998098933473
 20
-146.1278591214542
 10
87.79998098933473
 20
-146.4410183010634
 10
87.79998098933473
 20
-146.7583115952549
 10
87.60361054667548
 20
-146.9929225978004
 10
87.3390272134083
 20
-146.9929225978004
 97
        0
 97
        0
 75
     2
 76
     1
 98
        0
  0
SPLINE
  5
FB
330
F5
100
AcDbEntity
  8
_U+30EC_U+30A4_U+30E4_U+30FC 1
370
     0
100
AcDbSpline
210
0.0
220
0.0
230
1.0
 70
    11
 71
     3
 72
    29
 73
    25
 74
     0
 42
0.0000000001
 43
0.0000000001
 12
1.0
 22
0.0
 32
0.0
 13
1.0
 23
0.0
 33
0.0
 40
0.0
 40
0.0
 40
0.0
 40
0.0
 40
1.0
 40
1.0
 40
1.0
 40
2.0
 40
2.0
 40
2.0
 40
3.0
 40
3.0
 40
3.0
 40
4.0
 40
4.0
 40
4.0
 40
5.0
 40
5.0
 40
5.0
 40
6.0
 40
6.0
 40
6.0
 40
7.0
 40
7.0
 40
7.0
 40
8.0
 40
8.0
 40
8.0
 40
8.0
 10
88.734635394483
 20
-146.7645127671283
 30
0.0
 10
88.64023977818717
 20
-146.9739745726315
 30
0.0
 10
88.48831106728765
 20
-146.9929225978004
 30
0.0
 10
88.38633624092425
 20
-146.9929225978004
 30
0.0
 10
88.24577634512606
 20
-146.9929225978004
 30
0.0
 10
88.12175290765707
 20
-146.9464138087495
 30
0.0
 10
88.03838159691402
 20
-146.7645127671283
 30
0.0
 10
87.94743107610343
 20
-146.5698648722117
 30
0.0
 10
87.93089461777423
 20
-146.3328423028265
 30
0.0
 10
87.93089461777423
 20
-146.1702337959227
 30
0.0
 10
87.93089461777423
 20
-146.0262288046393
 30
0.0
 10
87.9457085283608
 20
-145.7743923246675
 30
0.0
 10
88.03838159691402
 20
-145.5756103151686
 30
0.0
 10
88.13277721320986
 20
-145.3726941910874
 30
0.0
 10
88.27333710900805
 20
-145.3492675417877
 30
0.0
 10
88.38633624092425
 20
-145.3492675417877
 30
0.0
 10
88.52517358897983
 20
-145.3492675417877
 30
0.0
 10
88.65126408373996
 20
-145.3937092735474
 30
0.0
 10
88.734635394483
 20
-145.5756103151686
 30
0.0
 10
88.8214518007113
 20
-145.7681911527941
 30
0.0
 10
88.84177786407429
 20
-145.9966009834661
 30
0.0
 10
88.84177786407429
 20
-146.1702337959227
 30
0.0
 10
88.84177786407429
 20
-146.3414550415396
 30
0.0
 10
88.82351885800246
 20
-146.5719319295029
 30
0.0
 10
88.734635394483
 20
-146.7645127671283
 30
0.0
  0
SPLINE
  5
FC
330
F5
100
AcDbEntity
  8
_U+30EC_U+30A4_U+30E4_U+30FC 1
370
     0
100
AcDbSpline
210
0.0
220
0.0
230
1.0
 70
    11
 71
     3
 72
    17
 73
    13
 74
     0
 42
0.0000000001
 43
0.0000000001
 12
1.0
 22
0.0
 32
0.0
 13
1.0
 23
0.0
 33
0.0
 40
0.0
 40
0.0
 40
0.0
 40
0.0
 40
1.0
 40
1.0
 40
1.0
 40
2.0
 40
2.0
 40
2.0
 40
3.0
 40
3.0
 40
3.0
 40
4.0
 40
4.0
 40
4.0
 40
4.0
 10
88.38633624092425
 20
-145.5418483794132
 30
0.0
 10
88.16791718715942
 20
-145.5418483794132
 30
0.0
 10
88.12726506043346
 20
-145.8253797378492
 30
0.0
 10
88.12726506043346
 20
-146.1702337959227
 30
0.0
 10
88.12726506043346
 20
-146.4895941474054
 30
0.0
 10
88.15861542934924
 20
-146.7982747028838
 30
0.0
 10
88.38633624092425
 20
-146.7982747028838
 30
0.0
 10
88.60303274694647
 20
-146.7982747028838
 30
0.0
 10
88.64575193096357
 20
-146.5171549112874
 30
0.0
 10
88.64575193096357
 20
-146.1702337959227
 30
0.0
 10
88.64575193096357
 20
-145.8505289348915
 30
0.0
 10
88.61233450475665
 20
-145.5418483794132
 30
0.0
 10
88.38633624092425
 20
-145.5418483794132
 30
0.0
  0
HATCH
  5
FD
330
F5
100
AcDbEntity
  8
_U+30EC_U+30A4_U+30E4_U+30FC 1
 62
   179
420
  2234388
100
AcDbHatch
 10
0.0
 20
0.0
 30
0.0
210
0.0
220
0.0
230
1.0
  2
SOLID
 70
     1
 71
     0
 91
        2
 92
        1
 93
        1
 72
     4
 94
        3
 73
     0
 74
     1
 95
       29
 96
       25
 40
0.0
 40
0.0
 40
0.0
 40
0.0
 40
1.0
 40
1.0
 40
1.0
 40
2.0
 40
2.0
 40
2.0
 40
3.0
 40
3.0
 40
3.0
 40
4.0
 40
4.0
 40
4.0
 40
5.0
 40
5.0
 40
5.0
 40
6.0
 40
6.0
 40
6.0
 40
7.0
 40
7.0
 40
7.0
 40
8.0
 40
8.0
 40
8.0
 40
8.0
 10
88.734635394483
 20
-146.7645127671283
 10
88.64023977818717
 20
-146.9739745726315
 10
88.48831106728765
 20
-146.9929225978004
 10
88.38633624092425
 20
-146.9929225978004
 10
88.24577634512606
 20
-146.9929225978004
 10
88.12175290765707
 20
-146.9464138087495
 10
88.03838159691402
 20
-146.7645127671283
 10
87.94743107610343
 20
-146.5698648722117
 10
87.93089461777423
 20
-146.3328423028265
 10
87.93089461777423
 20
-146.1702337959227
 10
87.93089461777423
 20
-146.0262288046393
 10
87.9457085283608
 20
-145.7743923246675
 10
88.03838159691402
 20
-145.5756103151686
 10
88.13277721320986
 20
-145.3726941910874
 10
88.27333710900805
 20
-145.3492675417877
 10
88.38633624092425
 20
-145.3492675417877
 10
88.52517358897983
 20
-145.3492675417877
 10
88.65126408373996
 20
-145.3937092735474
 10
88.734635394483
 20
-145.5756103151686
 10
88.8214518007113
 20
-145.7681911527941
 10
88.84177786407429
 20
-145.9966009834661
 10
88.84177786407429
 20
-146.1702337959227
 10
88.84177786407429
 20
-146.3414550415396
 10
88.82351885800246
 20
-146.5719319295029
 10
88.734635394483
 20
-146.7645127671283
 97
        0
 97
        0
 92
        1
 93
        1
 72
     4
 94
        3
 73
     0
 74
     1
 95
       17
 96
       13
 40
0.0
 40
0.0
 40
0.0
 40
0.0
 40
1.0
 40
1.0
 40
1.0
 40
2.0
 40
2.0
 40
2.0
 40
3.0
 40
3.0
 40
3.0
 40
4.0
 40
4.0
 40
4.0
 40
4.0
 10
88.38633624092425
 20
-145.5418483794132
 10
88.16791718715942
 20
-145.5418483794132
 10
88.12726506043346
 20
-145.8253797378492
 10
88.12726506043346
 20
-146.1702337959227
 10
88.12726506043346
 20
-146.4895941474054
 10
88.15861542934924
 20
-146.7982747028838
 10
88.38633624092425
 20
-146.7982747028838
 10
88.60303274694647
 20
-146.7982747028838
 10
88.64575193096357
 20
-146.5171549112874
 10
88.64575193096357
 20
-146.1702337959227
 10
88.64575193096357
 20
-145.8505289348915
 10
88.61233450475665
 20
-145.5418483794132
 10
88.38633624092425
 20
-145.5418483794132
 97
        0
 97
        0
 75
     2
 76
     1
 98
        0
  0
ENDBLK
  5
F8
330
F5
100
AcDbEntity
  8
0
100
AcDbBlockEnd
  0
ENDSEC
  0
SECTION
  2
ENTITIES
  0
SPLINE
  5
41
330
1F
100
AcDbEntity
  8
_U+30EC_U+30A4_U+30E4_U+30FC 1
370
     0
100
AcDbSpline
210
0.0
220
0.0
230
1.0
 70
    11
 71
     3
 72
    92
 73
    88
 74
     0
 42
0.0000000001
 43
0.0000000001
 12
1.0
 22
0.0
 32
0.0
 13
1.0
 23
0.0
 33
0.0
 40
0.0
 40
0.0
 40
0.0
 40
0.0
 40
1.0
 40
1.0
 40
1.0
 40
2.0
 40
2.0
 40
2.0
 40
3.0
 40
3.0
 40
3.0
 40
4.0
 40
4.0
 40
4.0
 40
5.0
 40
5.0
 40
5.0
 40
6.0
 40
6.0
 40
6.0
 40
7.0
 40
7.0
 40
7.0
 40
8.0
 40
8.0
 40
8.0
 40
9.0
 40
9.0
 40
9.0
 40
10.0
 40
10.0
 40
10.0
 40
11.0
 40
11.0
 40
11.0
 40
12.0
 40
12.0
 40
12.0
 40
13.0
 40
13.0
 40
13.0
 40
14.0
 40
14.0
 40
14.0
 40
15.0
 40
15.0
 40
15.0
 40
16.0
 40
16.0
 40
16.0
 40
17.0
 40
17.0
 40
17.0
 40
18.0
 40
18.0
 40
18.0
 40
19.0
 40
19.0
 40
19.0
 40
20.0
 40
20.0
 40
20.0
 40
21.0
 40
21.0
 40
21.0
 40
22.0
 40
22.0
 40
22.0
 40
23.0
 40
23.0
 40
23.0
 40
24.0
 40
24.0
 40
24.0
 40
25.0
 40
25.0
 40
25.0
 40
26.0
 40
26.0
 40
26.0
 40
27.0
 40
27.0
 40
27.0
 40
28.0
 40
28.0
 40
28.0
 40
29.0
 40
29.0
 40
29.0
 40
29.0
 10
63.79195726142047
 20
-138.6595877431132
 30
0.0
 10
63.79195726142047
 20
-138.6595877431132
 30
0.0
 10
69.81260553810249
 20
-138.6595877431132
 30
0.0
 10
69.81260553810249
 20
-138.6595877431132
 30
0.0
 10
69.81260553810249
 20
-138.6595877431132
 30
0.0
 10
69.81260553810249
 20
-137.073463576843
 30
0.0
 10
69.81260553810249
 20
-137.073463576843
 30
0.0
 10
69.81260553810249
 20
-137.073463576843
 30
0.0
 10
74.10280477614661
 20
-137.073463576843
 30
0.0
 10
74.10280477614661
 20
-137.073463576843
 30
0.0
 10
74.10280477614661
 20
-137.073463576843
 30
0.0
 10
74.10280477614661
 20
-138.5155838542597
 30
0.0
 10
74.10280477614661
 20
-138.5155838542597
 30
0.0
 10
74.10280477614661
 20
-138.5155838542597
 30
0.0
 10
77.64779998058815
 20
-138.5155838542597
 30
0.0
 10
77.64779998058815
 20
-138.5155838542597
 30
0.0
 10
77.64779998058815
 20
-138.5155838542597
 30
0.0
 10
77.64779998058815
 20
-137.0014616324162
 30
0.0
 10
77.64779998058815
 20
-137.0014616324162
 30
0.0
 10
77.64779998058815
 20
-137.0014616324162
 30
0.0
 10
81.8537556895145
 20
-137.0014616324162
 30
0.0
 10
81.8537556895145
 20
-137.0014616324162
 30
0.0
 10
81.8537556895145
 20
-137.0014616324162
 30
0.0
 10
81.8537556895145
 20
-138.6361632986741
 30
0.0
 10
81.8537556895145
 20
-138.6361632986741
 30
0.0
 10
81.8537556895145
 20
-138.6361632986741
 30
0.0
 10
85.41081393209971
 20
-138.6361632986741
 30
0.0
 10
85.41081393209971
 20
-138.6361632986741
 30
0.0
 10
85.41081393209971
 20
-138.6361632986741
 30
0.0
 10
85.41081393209971
 20
-137.0014616324162
 30
0.0
 10
85.41081393209971
 20
-137.0014616324162
 30
0.0
 10
85.41081393209971
 20
-137.0014616324162
 30
0.0
 10
89.6648221998059
 20
-137.0014616324162
 30
0.0
 10
89.6648221998059
 20
-137.0014616324162
 30
0.0
 10
89.6648221998059
 20
-137.0014616324162
 30
0.0
 10
89.6648221998059
 20
-138.3953571876231
 30
0.0
 10
89.6648221998059
 20
-138.3953571876231
 30
0.0
 10
89.6648221998059
 20
-138.3953571876231
 30
0.0
 10
93.26975012049044
 20
-138.3953571876231
 30
0.0
 10
93.26975012049044
 20
-138.3953571876231
 30
0.0
 10
93.26975012049044
 20
-138.3953571876231
 30
0.0
 10
93.26975012049044
 20
-136.9053296879961
 30
0.0
 10
93.26975012049044
 20
-136.9053296879961
 30
0.0
 10
93.26975012049044
 20
-136.9053296879961
 30
0.0
 10
97.5478861224572
 20
-136.9053296879961
 30
0.0
 10
97.5478861224572
 20
-136.9053296879961
 30
0.0
 10
97.5478861224572
 20
-136.9053296879961
 30
0.0
 10
97.5478861224572
 20
-138.3953571876231
 30
0.0
 10
97.5478861224572
 20
-138.3953571876231
 30
0.0
 10
97.5478861224572
 20
-138.3953571876231
 30
0.0
 10
103.6770470772004
 20
-138.3953571876231
 30
0.0
 10
103.6770470772004
 20
-138.3953571876231
 30
0.0
 10
103.6770470772004
 20
-138.3953571876231
 30
0.0
 10
103.6770470772004
 20
-136.7613257991433
 30
0.0
 10
103.6770470772004
 20
-136.7613257991433
 30
0.0
 10
103.6770470772004
 20
-136.7613257991433
 30
0.0
 10
101.7539849040396
 20
-136.7613257991433
 30
0.0
 10
101.7539849040396
 20
-136.7613257991433
 30
0.0
 10
101.7539849040396
 20
-136.7613257991433
 30
0.0
 10
101.7539849040396
 20
-135.0787521884527
 30
0.0
 10
101.7539849040396
 20
-135.0787521884527
 30
0.0
 10
101.7539849040396
 20
-135.0787521884527
 30
0.0
 10
103.4844656932247
 20
-135.0787521884527
 30
0.0
 10
103.4844656932247
 20
-135.0787521884527
 30
0.0
 10
103.4844656932247
 20
-135.0787521884527
 30
0.0
 10
103.4844656932247
 20
-133.5164052443987
 30
0.0
 10
103.4844656932247
 20
-133.5164052443987
 30
0.0
 10
103.4844656932247
 20
-133.5164052443987
 30
0.0
 10
65.3422744440908
 20
-133.5164052443987
 30
0.0
 10
65.3422744440908
 20
-133.5164052443987
 30
0.0
 10
65.3422744440908
 20
-133.5164052443987
 30
0.0
 10
63.77992753950515
 20
-133.3238238555583
 30
0.0
 10
63.77992753950515
 20
-134.0452191331553
 30
0.0
 10
63.77992753950515
 20
-134.0452191331553
 30
0.0
 10
63.77992753950515
 20
-135.2951107995094
 30
0.0
 10
63.77992753950515
 20
-135.2951107995094
 30
0.0
 10
63.77992753950515
 20
-135.2951107995094
 30
0.0
 10
65.6786833243972
 20
-135.2951107995094
 30
0.0
 10
65.6786833243972
 20
-135.2951107995094
 30
0.0
 10
65.6786833243972
 20
-135.2951107995094
 30
0.0
 10
65.6786833243972
 20
-136.9053296879961
 30
0.0
 10
65.6786833243972
 20
-136.9053296879961
 30
0.0
 10
65.6786833243972
 20
-136.9053296879961
 30
0.0
 10
63.80419864999706
 20
-136.9053296879961
 30
0.0
 10
63.80419864999706
 20
-136.9053296879961
 30
0.0
 10
63.80419864999706
 20
-136.9053296879961
 30
0.0
 10
63.79195726142047
 20
-138.6595877431132
 30
0.0
 10
63.79195726142047
 20
-138.6595877431132
 30
0.0
  0
HATCH
  5
42
330
1F
100
AcDbEntity
  8
_U+30EC_U+30A4_U+30E4_U+30FC 1
 62
     7
420
 16777215
100
AcDbHatch
 10
0.0
 20
0.0
 30
0.0
210
0.0
220
0.0
230
1.0
  2
SOLID
 70
     1
 71
     0
 91
        1
 92
        1
 93
        1
 72
     4
 94
        3
 73
     0
 74
     1
 95
       92
 96
       88
 40
0.0
 40
0.0
 40
0.0
 40
0.0
 40
1.0
 40
1.0
 40
1.0
 40
2.0
 40
2.0
 40
2.0
 40
3.0
 40
3.0
 40
3.0
 40
4.0
 40
4.0
 40
4.0
 40
5.0
 40
5.0
 40
5.0
 40
6.0
 40
6.0
 40
6.0
 40
7.0
 40
7.0
 40
7.0
 40
8.0
 40
8.0
 40
8.0
 40
9.0
 40
9.0
 40
9.0
 40
10.0
 40
10.0
 40
10.0
 40
11.0
 40
11.0
 40
11.0
 40
12.0
 40
12.0
 40
12.0
 40
13.0
 40
13.0
 40
13.0
 40
14.0
 40
14.0
 40
14.0
 40
15.0
 40
15.0
 40
15.0
 40
16.0
 40
16.0
 40
16.0
 40
17.0
 40
17.0
 40
17.0
 40
18.0
 40
18.0
 40
18.0
 40
19.0
 40
19.0
 40
19.0
 40
20.0
 40
20.0
 40
20.0
 40
21.0
 40
21.0
 40
21.0
 40
22.0
 40
22.0
 40
22.0
 40
23.0
 40
23.0
 40
23.0
 40
24.0
 40
24.0
 40
24.0
 40
25.0
 40
25.0
 40
25.0
 40
26.0
 40
26.0
 40
26.0
 40
27.0
 40
27.0
 40
27.0
 40
28.0
 40
28.0
 40
28.0
 40
29.0
 40
29.0
 40
29.0
 40
29.0
 10
63.79195726142047
 20
-138.6595877431132
 10
63.79195726142047
 20
-138.6595877431132
 10
69.81260553810249
 20
-138.6595877431132
 10
69.81260553810249
 20
-138.6595877431132
 10
69.81260553810249
 20
-138.6595877431132
 10
69.81260553810249
 20
-137.073463576843
 10
69.81260553810249
 20
-137.073463576843
 10
69.81260553810249
 20
-137.073463576843
 10
74.10280477614661
 20
-137.073463576843
 10
74.10280477614661
 20
-137.073463576843
 10
74.10280477614661
 20
-137.073463576843
 10
74.10280477614661
 20
-138.5155838542597
 10
74.10280477614661
 20
-138.5155838542597
 10
74.10280477614661
 20
-138.5155838542597
 10
77.64779998058815
 20
-138.5155838542597
 10
77.64779998058815
 20
-138.5155838542597
 10
77.64779998058815
 20
-138.5155838542597
 10
77.64779998058815
 20
-137.0014616324162
 10
77.64779998058815
 20
-137.0014616324162
 10
77.64779998058815
 20
-137.0014616324162
 10
81.8537556895145
 20
-137.0014616324162
 10
81.8537556895145
 20
-137.0014616324162
 10
81.8537556895145
 20
-137.0014616324162
 10
81.8537556895145
 20
-138.6361632986741
 10
81.8537556895145
 20
-138.6361632986741
 10
81.8537556895145
 20
-138.6361632986741
 10
85.41081393209971
 20
-138.6361632986741
 10
85.41081393209971
 20
-138.6361632986741
 10
85.41081393209971
 20
-138.6361632986741
 10
85.41081393209971
 20
-137.0014616324162
 10
85.41081393209971
 20
-137.0014616324162
 10
85.41081393209971
 20
-137.0014616324162
 10
89.6648221998059
 20
-137.0014616324162
 10
89.6648221998059
 20
-137.0014616324162
 10
89.6648221998059
 20
-137.0014616324162
 10
89.6648221998059
 20
-138.3953571876231
 10
89.6648221998059
 20
-138.3953571876231
 10
89.6648221998059
 20
-138.3953571876231
 10
93.26975012049044
 20
-138.3953571876231
 10
93.26975012049044
 20
-138.3953571876231
 10
93.26975012049044
 20
-138.3953571876231
 10
93.26975012049044
 20
-136.9053296879961
 10
93.26975012049044
 20
-136.9053296879961
 10
93.26975012049044
 20
-136.9053296879961
 10
97.5478861224572
 20
-136.9053296879961
 10
97.5478861224572
 20
-136.9053296879961
 10
97.5478861224572
 20
-136.9053296879961
 10
97.5478861224572
 20
-138.3953571876231
 10
97.5478861224572
 20
-138.3953571876231
 10
97.5478861224572
 20
-138.3953571876231
 10
103.6770470772004
 20
-138.3953571876231
 10
103.6770470772004
 20
-138.3953571876231
 10
103.6770470772004
 20
-138.3953571876231
 10
103.6770470772004
 20
-136.7613257991433
 10
103.6770470772004
 20
-136.7613257991433
 10
103.6770470772004
 20
-136.7613257991433
 10
101.7539849040396
 20
-136.7613257991433
 10
101.7539849040396
 20
-136.7613257991433
 10
101.7539849040396
 20
-136.7613257991433
 10
101.7539849040396
 20
-135.0787521884527
 10
101.7539849040396
 20
-135.0787521884527
 10
101.7539849040396
 20
-135.0787521884527
 10
103.4844656932247
 20
-135.0787521884527
 10
103.4844656932247
 20
-135.0787521884527
 10
103.4844656932247
 20
-135.0787521884527
 10
103.4844656932247
 20
-133.5164052443987
 10
103.4844656932247
 20
-133.5164052443987
 10
103.4844656932247
 20
-133.5164052443987
 10
65.3422744440908
 20
-133.5164052443987
 10
65.3422744440908
 20
-133.5164052443987
 10
65.3422744440908
 20
-133.5164052443987
 10
63.77992753950515
 20
-133.3238238555583
 10
63.77992753950515
 20
-134.0452191331553
 10
63.77992753950515
 20
-134.0452191331553
 10
63.77992753950515
 20
-135.2951107995094
 10
63.77992753950515
 20
-135.2951107995094
 10
63.77992753950515
 20
-135.2951107995094
 10
65.6786833243972
 20
-135.2951107995094
 10
65.6786833243972
 20
-135.2951107995094
 10
65.6786833243972
 20
-135.2951107995094
 10
65.6786833243972
 20
-136.9053296879961
 10
65.6786833243972
 20
-136.9053296879961
 10
65.6786833243972
 20
-136.9053296879961
 10
63.80419864999706
 20
-136.9053296879961
 10
63.80419864999706
 20
-136.9053296879961
 10
63.80419864999706
 20
-136.9053296879961
 10
63.79195726142047
 20
-138.6595877431132
 10
63.79195726142047
 20
-138.6595877431132
 97
        0
 97
        0
 75
     2
 76
     1
 98
        0
  0
POLYLINE
  5
43
330
1F
100
AcDbEntity
  8
_U+30EC_U+30A4_U+30E4_U+30FC 1
 62
     7
420
 16777215
370
     9
100
AcDb2dPolyline
 66
     1
 10
0.0
 20
0.0
 30
0.0
  0
VERTEX
  5
44
330
43
100
AcDbEntity
  8
_U+30EC_U+30A4_U+30E4_U+30FC 1
 62
     7
420
 16777215
370
     9
100
AcDbVertex
100
AcDb2dVertex
 10
76.02361109210521
 20
-135.484587743907
 30
0.0
  0
VERTEX
  5
45
330
43
100
AcDbEntity
  8
_U+30EC_U+30A4_U+30E4_U+30FC 1
 62
     7
420
 16777215
370
     9
100
AcDbVertex
100
AcDb2dVertex
 10
83.16736109031928
 20
-124.7248655243743
 30
0.0
  0
SEQEND
  5
46
330
43
100
AcDbEntity
  8
_U+30EC_U+30A4_U+30E4_U+30FC 1
 62
     7
420
 16777215
370
     9
  0
SPLINE
  5
47
330
1F
100
AcDbEntity
  8
_U+30EC_U+30A4_U+30E4_U+30FC 1
 62
     7
420
 16777215
370
    25
100
AcDbSpline
210
0.0
220
0.0
230
1.0
 70
    11
 71
     3
 72
   143
 73
   139
 74
     0
 42
0.0000000001
 43
0.0000000001
 12
1.0
 22
0.0
 32
0.0
 13
1.0
 23
0.0
 33
0.0
 40
0.0
 40
0.0
 40
0.0
 40
0.0
 40
1.0
 40
1.0
 40
1.0
 40
2.0
 40
2.0
 40
2.0
 40
3.0
 40
3.0
 40
3.0
 40
4.0
 40
4.0
 40
4.0
 40
5.0
 40
5.0
 40
5.0
 40
6.0
 40
6.0
 40
6.0
 40
7.0
 40
7.0
 40
7.0
 40
8.0
 40
8.0
 40
8.0
 40
9.0
 40
9.0
 40
9.0
 40
10.0
 40
10.0
 40
10.0
 40
11.0
 40
11.0
 40
11.0
 40
12.0
 40
12.0
 40
12.0
 40
13.0
 40
13.0
 40
13.0
 40
14.0
 40
14.0
 40
14.0
 40
15.0
 40
15.0
 40
15.0
 40
16.0
 40
16.0
 40
16.0
 40
17.0
 40
17.0
 40
17.0
 40
18.0
 40
18.0
 40
18.0
 40
19.0
 40
19.0
 40
19.0
 40
20.0
 40
20.0
 40
20.0
 40
21.0
 40
21.0
 40
21.0
 40
22.0
 40
22.0
 40
22.0
 40
23.0
 40
23.0
 40
23.0
 40
24.0
 40
24.0
 40
24.0
 40
25.0
 40
25.0
 40
25.0
 40
26.0
 40
26.0
 40
26.0
 40
27.0
 40
27.0
 40
27.0
 40
28.0
 40
28.0
 40
28.0
 40
29.0
 40
29.0
 40
29.0
 40
30.0
 40
30.0
 40
30.0
 40
31.0
 40
31.0
 40
31.0
 40
32.0
 40
32.0
 40
32.0
 40
33.0
 40
33.0
 40
33.0
 40
34.0
 40
34.0
 40
34.0
 40
35.0
 40
35.0
 40
35.0
 40
36.0
 40
36.0
 40
36.0
 40
37.0
 40
37.0
 40
37.0
 40
38.0
 40
38.0
 40
38.0
 40
39.0
 40
39.0
 40
39.0
 40
40.0
 40
40.0
 40
40.0
 40
41.0
 40
41.0
 40
41.0
 40
42.0
 40
42.0
 40
42.0
 40
43.0
 40
43.0
 40
43.0
 40
44.0
 40
44.0
 40
44.0
 40
45.0
 40
45.0
 40
45.0
 40
46.0
 40
46.0
 40
46.0
 40
46.0
 10
62.27783507782673
 20
-136.8929471879989
 30
0.0
 10
62.27783507782673
 20
-136.8929471879989
 30
0.0
 10
65.70277804600471
 20
-136.8929471879989
 30
0.0
 10
65.70277804600471
 20
-136.8929471879989
 30
0.0
 10
65.70277804600471
 20
-136.8929471879989
 30
0.0
 10
65.70277804600471
 20
-135.3429827439421
 30
0.0
 10
65.70277804600471
 20
-135.3429827439421
 30
0.0
 10
65.70277804600471
 20
-135.3429827439421
 30
0.0
 10
63.79195726142047
 20
-135.3429827439421
 30
0.0
 10
63.79195726142047
 20
-135.3429827439421
 30
0.0
 10
63.79195726142047
 20
-135.3429827439421
 30
0.0
 10
63.79195726142047
 20
-134.0817316331459
 30
0.0
 10
63.79195726142047
 20
-134.0817316331459
 30
0.0
 10
63.79195726142047
 20
-134.0817316331459
 30
0.0
 10
63.61179365490572
 20
-133.5039874666239
 30
0.0
 10
64.76537695880869
 20
-133.5039874666239
 30
0.0
 10
64.76537695880869
 20
-133.5039874666239
 30
0.0
 10
103.4486234719168
 20
-133.5039874666239
 30
0.0
 10
103.4486234719168
 20
-133.5039874666239
 30
0.0
 10
103.4486234719168
 20
-133.5039874666239
 30
0.0
 10
103.4486234719168
 20
-135.0908171884497
 30
0.0
 10
103.4486234719168
 20
-135.0908171884497
 30
0.0
 10
103.4486234719168
 20
-135.0908171884497
 30
0.0
 10
101.7178277523486
 20
-135.0908171884497
 30
0.0
 10
101.7178277523486
 20
-135.0908171884497
 30
0.0
 10
101.7178277523486
 20
-135.0908171884497
 30
0.0
 10
101.7178277523486
 20
-136.748943299146
 30
0.0
 10
101.7178277523486
 20
-136.748943299146
 30
0.0
 10
101.7178277523486
 20
-136.748943299146
 30
0.0
 10
105.1429471959364
 20
-136.748943299146
 30
0.0
 10
105.1429471959364
 20
-136.748943299146
 30
0.0
 10
105.1429471959364
 20
-136.748943299146
 30
0.0
 10
105.1429471959364
 20
-133.3599835777711
 30
0.0
 10
105.1429471959364
 20
-133.3599835777711
 30
0.0
 10
105.1429471959364
 20
-133.3599835777711
 30
0.0
 10
109.1447497154855
 20
-133.3599835777711
 30
0.0
 10
109.1447497154855
 20
-133.3599835777711
 30
0.0
 10
109.1447497154855
 20
-133.3599835777711
 30
0.0
 10
109.1447497154855
 20
-135.84805468826
 30
0.0
 10
109.1447497154855
 20
-135.84805468826
 30
0.0
 10
109.1447497154855
 20
-135.84805468826
 30
0.0
 10
108.279350570897
 20
-135.84805468826
 30
0.0
 10
108.279350570897
 20
-135.84805468826
 30
0.0
 10
108.279350570897
 20
-135.84805468826
 30
0.0
 10
108.279350570897
 20
-138.2633830209898
 30
0.0
 10
108.279350570897
 20
-138.2633830209898
 30
0.0
 10
108.279350570897
 20
-138.2633830209898
 30
0.0
 10
112.3893555274585
 20
-138.2633830209898
 30
0.0
 10
112.3893555274585
 20
-138.2633830209898
 30
0.0
 10
112.3893555274585
 20
-138.2633830209898
 30
0.0
 10
112.3893555274585
 20
-130.2239302452216
 30
0.0
 10
112.3893555274585
 20
-130.2239302452216
 30
0.0
 10
112.3893555274585
 20
-130.2239302452216
 30
0.0
 10
110.9110727259784
 20
-129.4663399676336
 30
0.0
 10
110.9110727259784
 20
-129.4663399676336
 30
0.0
 10
110.9110727259784
 20
-129.4663399676336
 30
0.0
 10
111.1635910528694
 20
-124.4196069133394
 30
0.0
 10
110.5865171787029
 20
-123.1218433025529
 30
0.0
 10
110.5865171787029
 20
-123.1218433025529
 30
0.0
 10
109.8654746970982
 20
-120.6341602476193
 30
0.0
 10
107.2699475410934
 20
-116.5245108042022
 30
0.0
 10
107.2699475410934
 20
-116.5245108042022
 30
0.0
 10
105.4313050880011
 20
-113.4955608049593
 30
0.0
 10
106.007990906622
 20
-112.4145085830076
 30
0.0
 10
106.007990906622
 20
-112.4145085830076
 30
0.0
 10
106.404513118728
 20
-111.837434694263
 30
0.0
 10
107.1255908781096
 20
-111.9094366386894
 30
0.0
 10
107.1255908781096
 20
-111.9094366386894
 30
0.0
 10
109.2529466571696
 20
-112.2343096941638
 30
0.0
 10
109.3611110837708
 20
-110.4676691390498
 30
0.0
 10
109.3611110837708
 20
-110.4676691390498
 30
0.0
 10
109.8296324757904
 20
-108.7371883061489
 30
0.0
 10
107.3422669836928
 20
-108.4126680284523
 30
0.0
 10
107.3422669836928
 20
-108.4126680284523
 30
0.0
 10
104.6743851073117
 20
-108.2325044173863
 30
0.0
 10
103.844828184031
 20
-110.8283844167374
 30
0.0
 10
103.844828184031
 20
-110.8283844167374
 30
0.0
 10
103.2323027519699
 20
-112.5946721940736
 30
0.0
 10
104.5662234434045
 20
-115.5867569155478
 30
0.0
 10
104.5662234434045
 20
-115.5867569155478
 30
0.0
 10
105.8636342436381
 20
-118.2907985815384
 30
0.0
 10
106.8730725512185
 20
-120.201795803283
 30
0.0
 10
106.8730725512185
 20
-120.201795803283
 30
0.0
 10
108.8198766682181
 20
-123.481853024685
 30
0.0
 10
108.8918786108256
 20
-124.4916088577661
 30
0.0
 10
108.8918786108256
 20
-124.4916088577661
 30
0.0
 10
109.5771141488994
 20
-127.8082138569369
 30
0.0
 10
106.4768678391043
 20
-130.079573578591
 30
0.0
 10
106.4768678391043
 20
-130.079573578591
 30
0.0
 10
105.4313050880011
 20
-131.3053352449517
 30
0.0
 10
102.6555790477047
 20
-131.3773371893778
 30
0.0
 10
102.6555790477047
 20
-131.3773371893778
 30
0.0
 10
90.32574908448704
 20
-131.4854988560174
 30
0.0
 10
90.32574908448704
 20
-131.4854988560174
 30
0.0
 10
90.32574908448704
 20
-131.4854988560174
 30
0.0
 10
88.52326635269443
 20
-130.2239302452216
 30
0.0
 10
87.9102091461126
 20
-129.3946908009846
 30
0.0
 10
87.9102091461126
 20
-129.3946908009846
 30
0.0
 10
87.40570165898366
 20
-128.7098080233781
 30
0.0
 10
86.6484641783024
 20
-129.2144919121407
 30
0.0
 10
86.6484641783024
 20
-129.2144919121407
 30
0.0
 10
84.59381589738751
 20
-131.5571833004439
 30
0.0
 10
84.37728090291178
 20
-131.5571833004439
 30
0.0
 10
84.37728090291178
 20
-131.5571833004439
 30
0.0
 10
73.0933664685662
 20
-131.666050522639
 30
0.0
 10
73.0933664685662
 20
-131.666050522639
 30
0.0
 10
73.0933664685662
 20
-131.666050522639
 30
0.0
 10
72.01178510727075
 20
-130.5122908007051
 30
0.0
 10
71.86760483317131
 20
-130.3320919118612
 30
0.0
 10
71.86760483317131
 20
-130.3320919118612
 30
0.0
 10
71.39890428957331
 20
-129.3584958009936
 30
0.0
 10
70.78602347187586
 20
-130.1154158008043
 30
0.0
 10
70.78602347187586
 20
-130.1154158008043
 30
0.0
 10
69.84862238467986
 20
-131.5213410782307
 30
0.0
 10
69.56008544759659
 20
-131.5933430226574
 30
0.0
 10
69.56008544759659
 20
-131.5933430226574
 30
0.0
 10
66.135318868303
 20
-131.5933430226574
 30
0.0
 10
66.135318868303
 20
-131.5933430226574
 30
0.0
 10
66.135318868303
 20
-131.5933430226574
 30
0.0
 10
64.22467447260316
 20
-131.2329805227473
 30
0.0
 10
64.22467447260316
 20
-129.7192110786815
 30
0.0
 10
64.22467447260316
 20
-129.7192110786815
 30
0.0
 10
64.29667641521068
 20
-127.6996994125195
 30
0.0
 10
66.31565886370215
 20
-127.6996994125195
 30
0.0
 10
66.31565886370215
 20
-127.6996994125195
 30
0.0
 10
67.64961744078114
 20
-128.0607321902071
 30
0.0
 10
67.72179577227305
 20
-126.7991635794113
 30
0.0
 10
67.72179577227305
 20
-126.7991635794113
 30
0.0
 10
67.90196109413564
 20
-125.7170530241263
 30
0.0
 10
66.06331692569549
 20
-125.7170530241263
 30
0.0
 10
66.06331692569549
 20
-125.7170530241263
 30
0.0
 10
64.29667641521068
 20
-125.7170530241263
 30
0.0
 10
64.29667641521068
 20
-125.7170530241263
 30
0.0
 10
64.29667641521068
 20
-125.7170530241263
 30
0.0
 10
62.2418517454114
 20
-126.1139280240271
 30
0.0
 10
62.2418517454114
 20
-127.8440560791501
 30
0.0
 10
62.2418517454114
 20
-127.8440560791501
 30
0.0
 10
62.27783507782673
 20
-136.8929471879989
 30
0.0
 10
62.27783507782673
 20
-136.8929471879989
 30
0.0
  0
HATCH
  5
48
330
1F
100
AcDbEntity
  8
_U+30EC_U+30A4_U+30E4_U+30FC 1
 62
   253
420
 11711154
100
AcDbHatch
 10
0.0
 20
0.0
 30
0.0
210
0.0
220
0.0
230
1.0
  2
SOLID
 70
     1
 71
     0
 91
        1
 92
        1
 93
        1
 72
     4
 94
        3
 73
     0
 74
     1
 95
      143
 96
      139
 40
0.0
 40
0.0
 40
0.0
 40
0.0
 40
1.0
 40
1.0
 40
1.0
 40
2.0
 40
2.0
 40
2.0
 40
3.0
 40
3.0
 40
3.0
 40
4.0
 40
4.0
 40
4.0
 40
5.0
 40
5.0
 40
5.0
 40
6.0
 40
6.0
 40
6.0
 40
7.0
 40
7.0
 40
7.0
 40
8.0
 40
8.0
 40
8.0
 40
9.0
 40
9.0
 40
9.0
 40
10.0
 40
10.0
 40
10.0
 40
11.0
 40
11.0
 40
11.0
 40
12.0
 40
12.0
 40
12.0
 40
13.0
 40
13.0
 40
13.0
 40
14.0
 40
14.0
 40
14.0
 40
15.0
 40
15.0
 40
15.0
 40
16.0
 40
16.0
 40
16.0
 40
17.0
 40
17.0
 40
17.0
 40
18.0
 40
18.0
 40
18.0
 40
19.0
 40
19.0
 40
19.0
 40
20.0
 40
20.0
 40
20.0
 40
21.0
 40
21.0
 40
21.0
 40
22.0
 40
22.0
 40
22.0
 40
23.0
 40
23.0
 40
23.0
 40
24.0
 40
24.0
 40
24.0
 40
25.0
 40
25.0
 40
25.0
 40
26.0
 40
26.0
 40
26.0
 40
27.0
 40
27.0
 40
27.0
 40
28.0
 40
28.0
 40
28.0
 40
29.0
 40
29.0
 40
29.0
 40
30.0
 40
30.0
 40
30.0
 40
31.0
 40
31.0
 40
31.0
 40
32.0
 40
32.0
 40
32.0
 40
33.0
 40
33.0
 40
33.0
 40
34.0
 40
34.0
 40
34.0
 40
35.0
 40
35.0
 40
35.0
 40
36.0
 40
36.0
 40
36.0
 40
37.0
 40
37.0
 40
37.0
 40
38.0
 40
38.0
 40
38.0
 40
39.0
 40
39.0
 40
39.0
 40
40.0
 40
40.0
 40
40.0
 40
41.0
 40
41.0
 40
41.0
 40
42.0
 40
42.0
 40
42.0
 40
43.0
 40
43.0
 40
43.0
 40
44.0
 40
44.0
 40
44.0
 40
45.0
 40
45.0
 40
45.0
 40
46.0
 40
46.0
 40
46.0
 40
46.0
 10
62.27783507782673
 20
-136.8929471879989
 10
62.27783507782673
 20
-136.8929471879989
 10
65.70277804600471
 20
-136.8929471879989
 10
65.70277804600471
 20
-136.8929471879989
 10
65.70277804600471
 20
-136.8929471879989
 10
65.70277804600471
 20
-135.3429827439421
 10
65.70277804600471
 20
-135.3429827439421
 10
65.70277804600471
 20
-135.3429827439421
 10
63.79195726142047
 20
-135.3429827439421
 10
63.79195726142047
 20
-135.3429827439421
 10
63.79195726142047
 20
-135.3429827439421
 10
63.79195726142047
 20
-134.0817316331459
 10
63.79195726142047
 20
-134.0817316331459
 10
63.79195726142047
 20
-134.0817316331459
 10
63.61179365490572
 20
-133.5039874666239
 10
64.76537695880869
 20
-133.5039874666239
 10
64.76537695880869
 20
-133.5039874666239
 10
103.4486234719168
 20
-133.5039874666239
 10
103.4486234719168
 20
-133.5039874666239
 10
103.4486234719168
 20
-133.5039874666239
 10
103.4486234719168
 20
-135.0908171884497
 10
103.4486234719168
 20
-135.0908171884497
 10
103.4486234719168
 20
-135.0908171884497
 10
101.7178277523486
 20
-135.0908171884497
 10
101.7178277523486
 20
-135.0908171884497
 10
101.7178277523486
 20
-135.0908171884497
 10
101.7178277523486
 20
-136.748943299146
 10
101.7178277523486
 20
-136.748943299146
 10
101.7178277523486
 20
-136.748943299146
 10
105.1429471959364
 20
-136.748943299146
 10
105.1429471959364
 20
-136.748943299146
 10
105.1429471959364
 20
-136.748943299146
 10
105.1429471959364
 20
-133.3599835777711
 10
105.1429471959364
 20
-133.3599835777711
 10
105.1429471959364
 20
-133.3599835777711
 10
109.1447497154855
 20
-133.3599835777711
 10
109.1447497154855
 20
-133.3599835777711
 10
109.1447497154855
 20
-133.3599835777711
 10
109.1447497154855
 20
-135.84805468826
 10
109.1447497154855
 20
-135.84805468826
 10
109.1447497154855
 20
-135.84805468826
 10
108.279350570897
 20
-135.84805468826
 10
108.279350570897
 20
-135.84805468826
 10
108.279350570897
 20
-135.84805468826
 10
108.279350570897
 20
-138.2633830209898
 10
108.279350570897
 20
-138.2633830209898
 10
108.279350570897
 20
-138.2633830209898
 10
112.3893555274585
 20
-138.2633830209898
 10
112.3893555274585
 20
-138.2633830209898
 10
112.3893555274585
 20
-138.2633830209898
 10
112.3893555274585
 20
-130.2239302452216
 10
112.3893555274585
 20
-130.2239302452216
 10
112.3893555274585
 20
-130.2239302452216
 10
110.9110727259784
 20
-129.4663399676336
 10
110.9110727259784
 20
-129.4663399676336
 10
110.9110727259784
 20
-129.4663399676336
 10
111.1635910528694
 20
-124.4196069133394
 10
110.5865171787029
 20
-123.1218433025529
 10
110.5865171787029
 20
-123.1218433025529
 10
109.8654746970982
 20
-120.6341602476193
 10
107.2699475410934
 20
-116.5245108042022
 10
107.2699475410934
 20
-116.5245108042022
 10
105.4313050880011
 20
-113.4955608049593
 10
106.007990906622
 20
-112.4145085830076
 10
106.007990906622
 20
-112.4145085830076
 10
106.404513118728
 20
-111.837434694263
 10
107.1255908781096
 20
-111.9094366386894
 10
107.1255908781096
 20
-111.9094366386894
 10
109.2529466571696
 20
-112.2343096941638
 10
109.3611110837708
 20
-110.4676691390498
 10
109.3611110837708
 20
-110.4676691390498
 10
109.8296324757904
 20
-108.7371883061489
 10
107.3422669836928
 20
-108.4126680284523
 10
107.3422669836928
 20
-108.4126680284523
 10
104.6743851073117
 20
-108.2325044173863
 10
103.844828184031
 20
-110.8283844167374
 10
103.844828184031
 20
-110.8283844167374
 10
103.2323027519699
 20
-112.5946721940736
 10
104.5662234434045
 20
-115.5867569155478
 10
104.5662234434045
 20
-115.5867569155478
 10
105.8636342436381
 20
-118.2907985815384
 10
106.8730725512185
 20
-120.201795803283
 10
106.8730725512185
 20
-120.201795803283
 10
108.8198766682181
 20
-123.481853024685
 10
108.8918786108256
 20
-124.4916088577661
 10
108.8918786108256
 20
-124.4916088577661
 10
109.5771141488994
 20
-127.8082138569369
 10
106.4768678391043
 20
-130.079573578591
 10
106.4768678391043
 20
-130.079573578591
 10
105.4313050880011
 20
-131.3053352449517
 10
102.6555790477047
 20
-131.3773371893778
 10
102.6555790477047
 20
-131.3773371893778
 10
90.32574908448704
 20
-131.4854988560174
 10
90.32574908448704
 20
-131.4854988560174
 10
90.32574908448704
 20
-131.4854988560174
 10
88.52326635269443
 20
-130.2239302452216
 10
87.9102091461126
 20
-129.3946908009846
 10
87.9102091461126
 20
-129.3946908009846
 10
87.40570165898366
 20
-128.7098080233781
 10
86.6484641783024
 20
-129.2144919121407
 10
86.6484641783024
 20
-129.2144919121407
 10
84.59381589738751
 20
-131.5571833004439
 10
84.37728090291178
 20
-131.5571833004439
 10
84.37728090291178
 20
-131.5571833004439
 10
73.0933664685662
 20
-131.666050522639
 10
73.0933664685662
 20
-131.666050522639
 10
73.0933664685662
 20
-131.666050522639
 10
72.01178510727075
 20
-130.5122908007051
 10
71.86760483317131
 20
-130.3320919118612
 10
71.86760483317131
 20
-130.3320919118612
 10
71.39890428957331
 20
-129.3584958009936
 10
70.78602347187586
 20
-130.1154158008043
 10
70.78602347187586
 20
-130.1154158008043
 10
69.84862238467986
 20
-131.5213410782307
 10
69.56008544759659
 20
-131.5933430226574
 10
69.56008544759659
 20
-131.5933430226574
 10
66.135318868303
 20
-131.5933430226574
 10
66.135318868303
 20
-131.5933430226574
 10
66.135318868303
 20
-131.5933430226574
 10
64.22467447260316
 20
-131.2329805227473
 10
64.22467447260316
 20
-129.7192110786815
 10
64.22467447260316
 20
-129.7192110786815
 10
64.29667641521068
 20
-127.6996994125195
 10
66.31565886370215
 20
-127.6996994125195
 10
66.31565886370215
 20
-127.6996994125195
 10
67.64961744078114
 20
-128.0607321902071
 10
67.72179577227305
 20
-126.7991635794113
 10
67.72179577227305
 20
-126.7991635794113
 10
67.90196109413564
 20
-125.7170530241263
 10
66.06331692569549
 20
-125.7170530241263
 10
66.06331692569549
 20
-125.7170530241263
 10
64.29667641521068
 20
-125.7170530241263
 10
64.29667641521068
 20
-125.7170530241263
 10
64.29667641521068
 20
-125.7170530241263
 10
62.2418517454114
 20
-126.1139280240271
 10
62.2418517454114
 20
-127.8440560791501
 10
62.2418517454114
 20
-127.8440560791501
 10
62.27783507782673
 20
-136.8929471879989
 10
62.27783507782673
 20
-136.8929471879989
 97
        0
 97
        0
 75
     2
 76
     1
 98
        0
  0
POLYLINE
  5
49
330
1F
100
AcDbEntity
  8
_U+30EC_U+30A4_U+30E4_U+30FC 1
 62
     7
420
 16777215
370
    25
100
AcDb2dPolyline
 66
     1
 10
0.0
 20
0.0
 30
0.0
  0
VERTEX
  5
4A
330
49
100
AcDbEntity
  8
_U+30EC_U+30A4_U+30E4_U+30FC 1
 62
     7
420
 16777215
370
    25
100
AcDbVertex
100
AcDb2dVertex
 10
103.700824298816
 20
-136.7851030213595
 30
0.0
  0
VERTEX
  5
4B
330
49
100
AcDbEntity
  8
_U+30EC_U+30A4_U+30E4_U+30FC 1
 62
     7
420
 16777215
370
    25
100
AcDbVertex
100
AcDb2dVertex
 10
103.700824298816
 20
-138.4435819098336
 30
0.0
  0
VERTEX
  5
4C
330
49
100
AcDbEntity
  8
_U+30EC_U+30A4_U+30E4_U+30FC 1
 62
     7
420
 16777215
370
    25
100
AcDbVertex
100
AcDb2dVertex
 10
97.57198330894046
 20
-138.4435819098336
 30
0.0
  0
VERTEX
  5
4D
330
49
100
AcDbEntity
  8
_U+30EC_U+30A4_U+30E4_U+30FC 1
 62
     7
420
 16777215
370
    25
100
AcDbVertex
100
AcDb2dVertex
 10
97.57198330894046
 20
-136.8929471879989
 30
0.0
  0
VERTEX
  5
4E
330
49
100
AcDbEntity
  8
_U+30EC_U+30A4_U+30E4_U+30FC 1
 62
     7
420
 16777215
370
    25
100
AcDbVertex
100
AcDb2dVertex
 10
93.28216789795141
 20
-136.8929471879989
 30
0.0
  0
VERTEX
  5
4F
330
49
100
AcDbEntity
  8
_U+30EC_U+30A4_U+30E4_U+30FC 1
 62
     7
420
 16777215
370
    25
100
AcDbVertex
100
AcDb2dVertex
 10
93.28216789795141
 20
-138.4435819098336
 30
0.0
  0
VERTEX
  5
50
330
49
100
AcDbEntity
  8
_U+30EC_U+30A4_U+30E4_U+30FC 1
 62
     7
420
 16777215
370
    25
100
AcDbVertex
100
AcDb2dVertex
 10
89.67684965659741
 20
-138.4435819098336
 30
0.0
  0
VERTEX
  5
51
330
49
100
AcDbEntity
  8
_U+30EC_U+30A4_U+30E4_U+30FC 1
 62
     7
420
 16777215
370
    25
100
AcDbVertex
100
AcDb2dVertex
 10
89.67684965659741
 20
-137.0014616324162
 30
0.0
  0
VERTEX
  5
52
330
49
100
AcDbEntity
  8
_U+30EC_U+30A4_U+30E4_U+30FC 1
 62
     7
420
 16777215
370
    25
100
AcDbVertex
100
AcDb2dVertex
 10
85.42287893179191
 20
-137.0014616324162
 30
0.0
  0
VERTEX
  5
53
330
49
100
AcDbEntity
  8
_U+30EC_U+30A4_U+30E4_U+30FC 1
 62
     7
420
 16777215
370
    25
100
AcDbVertex
100
AcDb2dVertex
 10
85.42287893179191
 20
-138.6237455208993
 30
0.0
  0
VERTEX
  5
54
330
49
100
AcDbEntity
  8
_U+30EC_U+30A4_U+30E4_U+30FC 1
 62
     7
420
 16777215
370
    25
100
AcDbVertex
100
AcDb2dVertex
 10
81.88991541081421
 20
-138.6237455208993
 30
0.0
  0
VERTEX
  5
55
330
49
100
AcDbEntity
  8
_U+30EC_U+30A4_U+30E4_U+30FC 1
 62
     7
420
 16777215
370
    25
100
AcDbVertex
100
AcDb2dVertex
 10
81.88991541081421
 20
-137.0014616324162
 30
0.0
  0
VERTEX
  5
56
330
49
100
AcDbEntity
  8
_U+30EC_U+30A4_U+30E4_U+30FC 1
 62
     7
420
 16777215
370
    25
100
AcDbVertex
100
AcDb2dVertex
 10
77.63573301934744
 20
-137.0014616324162
 30
0.0
  0
VERTEX
  5
57
330
49
100
AcDbEntity
  8
_U+30EC_U+30A4_U+30E4_U+30FC 1
 62
     7
420
 16777215
370
    25
100
AcDbVertex
100
AcDb2dVertex
 10
77.63573301934744
 20
-138.5155838542597
 30
0.0
  0
VERTEX
  5
58
330
49
100
AcDbEntity
  8
_U+30EC_U+30A4_U+30E4_U+30FC 1
 62
     7
420
 16777215
370
    25
100
AcDbVertex
100
AcDb2dVertex
 10
74.10280477614661
 20
-138.5155838542597
 30
0.0
  0
VERTEX
  5
59
330
49
100
AcDbEntity
  8
_U+30EC_U+30A4_U+30E4_U+30FC 1
 62
     7
420
 16777215
370
    25
100
AcDbVertex
100
AcDb2dVertex
 10
74.10280477614661
 20
-137.073463576843
 30
0.0
  0
VERTEX
  5
5A
330
49
100
AcDbEntity
  8
_U+30EC_U+30A4_U+30E4_U+30FC 1
 62
     7
420
 16777215
370
    25
100
AcDbVertex
100
AcDb2dVertex
 10
69.81260553810249
 20
-137.073463576843
 30
0.0
  0
VERTEX
  5
5B
330
49
100
AcDbEntity
  8
_U+30EC_U+30A4_U+30E4_U+30FC 1
 62
     7
420
 16777215
370
    25
100
AcDbVertex
100
AcDb2dVertex
 10
69.81260553810249
 20
-138.6595877431132
 30
0.0
  0
VERTEX
  5
5C
330
49
100
AcDbEntity
  8
_U+30EC_U+30A4_U+30E4_U+30FC 1
 62
     7
420
 16777215
370
    25
100
AcDbVertex
100
AcDb2dVertex
 10
63.79195726142047
 20
-138.6595877431132
 30
0.0
  0
VERTEX
  5
5D
330
49
100
AcDbEntity
  8
_U+30EC_U+30A4_U+30E4_U+30FC 1
 62
     7
420
 16777215
370
    25
100
AcDbVertex
100
AcDb2dVertex
 10
63.79195726142047
 20
-136.9291069102124
 30
0.0
  0
SEQEND
  5
5E
330
49
100
AcDbEntity
  8
_U+30EC_U+30A4_U+30E4_U+30FC 1
 62
     7
420
 16777215
370
    25
  0
INSERT
  5
60
330
1F
100
AcDbEntity
  8
_U+30EC_U+30A4_U+30E4_U+30FC 1
100
AcDbBlockReference
  2
block 2
 10
0.0
 20
0.0
 30
0.0
  0
INSERT
  5
7B
330
1F
100
AcDbEntity
  8
_U+30EC_U+30A4_U+30E4_U+30FC 1
100
AcDbBlockReference
  2
block 4
 10
0.0
 20
0.0
 30
0.0
  0
SPLINE
  5
E7
330
1F
100
AcDbEntity
  8
_U+30EC_U+30A4_U+30E4_U+30FC 1
 62
   179
420
  2234388
370
     9
100
AcDbSpline
210
0.0
220
0.0
230
1.0
 70
    11
 71
     3
 72
    17
 73
    13
 74
     0
 42
0.0000000001
 43
0.0000000001
 12
1.0
 22
0.0
 32
0.0
 13
1.0
 23
0.0
 33
0.0
 40
0.0
 40
0.0
 40
0.0
 40
0.0
 40
1.0
 40
1.0
 40
1.0
 40
2.0
 40
2.0
 40
2.0
 40
3.0
 40
3.0
 40
3.0
 40
4.0
 40
4.0
 40
4.0
 40
4.0
 10
112.5361110829771
 20
-147.6557738519747
 30
0.0
 10
112.5361110829771
 20
-147.6006346853223
 30
0.0
 10
112.4913083052104
 20
-147.5558671853331
 30
0.0
 10
112.436201575958
 20
-147.5558671853331
 30
0.0
 10
112.381062410698
 20
-147.5558671853331
 30
0.0
 10
112.3362949118401
 20
-147.6006346853223
 30
0.0
 10
112.3362949118401
 20
-147.6557738519747
 30
0.0
 10
112.3362949118401
 20
-147.7108777408503
 30
0.0
 10
112.381062410698
 20
-147.7556805186163
 30
0.0
 10
112.436201575958
 20
-147.7556805186163
 30
0.0
 10
112.4913083052104
 20
-147.7556805186163
 30
0.0
 10
112.5361110829771
 20
-147.7108777408503
 30
0.0
 10
112.5361110829771
 20
-147.6557738519747
 30
0.0
  0
SPLINE
  5
E8
330
1F
100
AcDbEntity
  8
_U+30EC_U+30A4_U+30E4_U+30FC 1
 62
   179
420
  2234388
370
     9
100
AcDbSpline
210
0.0
220
0.0
230
1.0
 70
    11
 71
     3
 72
    17
 73
    13
 74
     0
 42
0.0000000001
 43
0.0000000001
 12
1.0
 22
0.0
 32
0.0
 13
1.0
 23
0.0
 33
0.0
 40
0.0
 40
0.0
 40
0.0
 40
0.0
 40
1.0
 40
1.0
 40
1.0
 40
2.0
 40
2.0
 40
2.0
 40
3.0
 40
3.0
 40
3.0
 40
4.0
 40
4.0
 40
4.0
 40
4.0
 10
62.52315831770247
 20
-147.6557738519747
 30
0.0
 10
62.52315831770247
 20
-147.6006346853223
 30
0.0
 10
62.47835553993607
 20
-147.5558671853331
 30
0.0
 10
62.42325007411688
 20
-147.5558671853331
 30
0.0
 10
62.36775813108815
 20
-147.5558671853331
 30
0.0
 10
62.32299063223027
 20
-147.6006346853223
 30
0.0
 10
62.32299063223027
 20
-147.6557738519747
 30
0.0
 10
62.32299063223027
 20
-147.7108777408503
 30
0.0
 10
62.36775813108815
 20
-147.7556805186163
 30
0.0
 10
62.42325007411688
 20
-147.7556805186163
 30
0.0
 10
62.47835553993607
 20
-147.7556805186163
 30
0.0
 10
62.52315831770247
 20
-147.7108777408503
 30
0.0
 10
62.52315831770247
 20
-147.6557738519747
 30
0.0
  0
POLYLINE
  5
E9
330
1F
100
AcDbEntity
  8
_U+30EC_U+30A4_U+30E4_U+30FC 1
 62
   179
420
  2234388
370
     9
100
AcDb2dPolyline
 66
     1
 10
0.0
 20
0.0
 30
0.0
  0
VERTEX
  5
EA
330
E9
100
AcDbEntity
  8
_U+30EC_U+30A4_U+30E4_U+30FC 1
 62
   179
420
  2234388
370
     9
100
AcDbVertex
100
AcDb2dVertex
 10
62.42325007411688
 20
-147.6557738519747
 30
0.0
  0
VERTEX
  5
EB
330
E9
100
AcDbEntity
  8
_U+30EC_U+30A4_U+30E4_U+30FC 1
 62
   179
420
  2234388
370
     9
100
AcDbVertex
100
AcDb2dVertex
 10
112.4231135207363
 20
-147.6557738519747
 30
0.0
  0
SEQEND
  5
EC
330
E9
100
AcDbEntity
  8
_U+30EC_U+30A4_U+30E4_U+30FC 1
 62
   179
420
  2234388
370
     9
  0
POLYLINE
  5
ED
330
1F
100
AcDbEntity
  8
_U+30EC_U+30A4_U+30E4_U+30FC 1
 62
   179
420
  2234388
370
     9
100
AcDb2dPolyline
 66
     1
 10
0.0
 20
0.0
 30
0.0
  0
VERTEX
  5
EE
330
ED
100
AcDbEntity
  8
_U+30EC_U+30A4_U+30E4_U+30FC 1
 62
   179
420
  2234388
370
     9
100
AcDbVertex
100
AcDb2dVertex
 10
62.42325007411688
 20
-145.6010902413778
 30
0.0
  0
VERTEX
  5
EF
330
ED
100
AcDbEntity
  8
_U+30EC_U+30A4_U+30E4_U+30FC 1
 62
   179
420
  2234388
370
     9
100
AcDbVertex
100
AcDb2dVertex
 10
62.42325007411688
 20
-148.6555107961697
 30
0.0
  0
SEQEND
  5
F0
330
ED
100
AcDbEntity
  8
_U+30EC_U+30A4_U+30E4_U+30FC 1
 62
   179
420
  2234388
370
     9
  0
POLYLINE
  5
F1
330
1F
100
AcDbEntity
  8
_U+30EC_U+30A4_U+30E4_U+30FC 1
 62
   179
420
  2234388
370
     9
100
AcDb2dPolyline
 66
     1
 10
0.0
 20
0.0
 30
0.0
  0
VERTEX
  5
F2
330
F1
100
AcDbEntity
  8
_U+30EC_U+30A4_U+30E4_U+30FC 1
 62
   179
420
  2234388
370
     9
100
AcDbVertex
100
AcDb2dVertex
 10
112.436201575958
 20
-145.7954002413289
 30
0.0
  0
VERTEX
  5
F3
330
F1
100
AcDbEntity
  8
_U+30EC_U+30A4_U+30E4_U+30FC 1
 62
   179
420
  2234388
370
     9
100
AcDbVertex
100
AcDb2dVertex
 10
112.436201575958
 20
-148.6555107961697
 30
0.0
  0
SEQEND
  5
F4
330
F1
100
AcDbEntity
  8
_U+30EC_U+30A4_U+30E4_U+30FC 1
 62
   179
420
  2234388
370
     9
  0
INSERT
  5
F6
330
1F
100
AcDbEntity
  8
_U+30EC_U+30A4_U+30E4_U+30FC 1
100
AcDbBlockReference
  2
block 7
 10
0.0
 20
0.0
 30
0.0
  0
ENDSEC
  0
SECTION
  2
OBJECTS
  0
DICTIONARY
  5
C
330
0
100
AcDbDictionary
281
     1
  3
ACAD_GROUP
350
D
  3
ACAD_LAYOUT
350
1A
  3
ACAD_MATERIAL
350
3B
  3
ACAD_MLEADERSTYLE
350
FF
  3
ACAD_MLINESTYLE
350
17
  3
ACAD_PLOTSETTINGS
350
19
  3
ACAD_PLOTSTYLENAME
350
E
  3
ACAD_TABLESTYLE
350
FE
  3
ACAD_VISUALSTYLE
350
2A
  0
SUN
  5
3F
330
29
100
AcDbSun
 90
        1
290
     0
 63
     7
421
 16777215
 40
1.0
291
     1
 91
  2455826
 92
 54000000
292
     0
 70
     2
 71
   256
280
     1
  0
DICTIONARY
  5
D
102
{ACAD_REACTORS
330
C
102
}
330
C
100
AcDbDictionary
281
     1
  0
DICTIONARY
  5
1A
102
{ACAD_REACTORS
330
C
102
}
330
C
100
AcDbDictionary
281
     1
  3
Layout1
350
1E
  3
Layout2
350
26
  3
Model
350
22
  0
DICTIONARY
  5
3B
102
{ACAD_REACTORS
330
C
102
}
330
C
100
AcDbDictionary
281
     1
  3
ByBlock
350
3D
  3
ByLayer
350
3C
  3
Global
350
3E
  0
DICTIONARY
  5
FF
102
{ACAD_REACTORS
330
C
102
}
330
C
100
AcDbDictionary
281
     1
  0
DICTIONARY
  5
17
102
{ACAD_REACTORS
330
C
102
}
330
C
100
AcDbDictionary
281
     1
  3
Standard
350
18
  0
DICTIONARY
  5
19
102
{ACAD_REACTORS
330
C
102
}
330
C
100
AcDbDictionary
281
     1
  0
ACDBDICTIONARYWDFLT
  5
E
102
{ACAD_REACTORS
330
C
102
}
330
C
100
AcDbDictionary
281
     1
  3
Normal
350
F
100
AcDbDictionaryWithDefault
340
F
  0
DICTIONARY
  5
FE
102
{ACAD_REACTORS
330
C
102
}
330
C
100
AcDbDictionary
281
     1
  0
DICTIONARY
  5
2A
102
{ACAD_REACTORS
330
C
102
}
330
C
100
AcDbDictionary
281
     1
  3
2dWireframe
350
2F
  3
3D Hidden
350
31
  3
3dWireframe
350
30
  3
Basic
350
32
  3
Brighten
350
36
  3
ColorChange
350
3A
  3
Conceptual
350
34
  3
Dim
350
35
  3
Facepattern
350
39
  3
Flat
350
2B
  3
FlatWithEdges
350
2C
  3
Gouraud
350
2D
  3
GouraudWithEdges
350
2E
  3
Linepattern
350
38
  3
Realistic
350
33
  3
Thicken
350
37
  0
LAYOUT
  5
1E
102
{ACAD_REACTORS
330
1A
102
}
330
1A
100
AcDbPlotSettings
  1

  2
none_device
  4

  6

 40
0.0
 41
0.0
 42
0.0
 43
0.0
 44
0.0
 45
0.0
 46
0.0
 47
0.0
 48
0.0
 49
0.0
140
0.0
141
0.0
142
1.0
143
1.0
 70
   688
 72
     0
 73
     0
 74
     5
  7

 75
    16
 76
     0
 77
     2
 78
   300
147
1.0
148
0.0
149
0.0
100
AcDbLayout
  1
Layout1
 70
     1
 71
     1
 10
0.0
 20
0.0
 11
12.0
 21
9.0
 12
0.0
 22
0.0
 32
0.0
 14
1.000000000000000E+20
 24
1.000000000000000E+20
 34
1.000000000000000E+20
 15
-1.000000000000000E+20
 25
-1.000000000000000E+20
 35
-1.000000000000000E+20
146
0.0
 13
0.0
 23
0.0
 33
0.0
 16
1.0
 26
0.0
 36
0.0
 17
0.0
 27
1.0
 37
0.0
 76
     0
330
1B
  0
LAYOUT
  5
26
102
{ACAD_REACTORS
330
1A
102
}
330
1A
100
AcDbPlotSettings
  1

  2
none_device
  4

  6

 40
0.0
 41
0.0
 42
0.0
 43
0.0
 44
0.0
 45
0.0
 46
0.0
 47
0.0
 48
0.0
 49
0.0
140
0.0
141
0.0
142
1.0
143
1.0
 70
   688
 72
     0
 73
     0
 74
     5
  7

 75
    16
 76
     0
 77
     2
 78
   300
147
1.0
148
0.0
149
0.0
100
AcDbLayout
  1
Layout2
 70
     1
 71
     2
 10
0.0
 20
0.0
 11
0.0
 21
0.0
 12
0.0
 22
0.0
 32
0.0
 14
0.0
 24
0.0
 34
0.0
 15
0.0
 25
0.0
 35
0.0
146
0.0
 13
0.0
 23
0.0
 33
0.0
 16
1.0
 26
0.0
 36
0.0
 17
0.0
 27
1.0
 37
0.0
 76
     0
330
23
  0
LAYOUT
  5
22
102
{ACAD_REACTORS
330
1A
102
}
330
1A
100
AcDbPlotSettings
  1

  2
none_device
  4

  6

 40
0.0
 41
0.0
 42
0.0
 43
0.0
 44
0.0
 45
0.0
 46
0.0
 47
0.0
 48
0.0
 49
0.0
140
0.0
141
0.0
142
1.0
143
1.0
 70
  1712
 72
     0
 73
     0
 74
     0
  7

 75
     0
 76
     0
 77
     2
 78
   300
147
1.0
148
0.0
149
0.0
100
AcDbLayout
  1
Model
 70
     1
 71
     0
 10
0.0
 20
0.0
 11
12.0
 21
9.0
 12
0.0
 22
0.0
 32
0.0
 14
1.000000000000000E+20
 24
1.000000000000000E+20
 34
1.000000000000000E+20
 15
-1.000000000000000E+20
 25
-1.000000000000000E+20
 35
-1.000000000000000E+20
146
0.0
 13
0.0
 23
0.0
 33
0.0
 16
1.0
 26
0.0
 36
0.0
 17
0.0
 27
1.0
 37
0.0
 76
     0
330
1F
331
29
  0
MATERIAL
  5
3D
102
{ACAD_REACTORS
330
3B
102
}
330
3B
100
AcDbMaterial
  1
ByBlock
 72
     1
 94
      127
  0
MATERIAL
  5
3C
102
{ACAD_REACTORS
330
3B
102
}
330
3B
100
AcDbMaterial
  1
ByLayer
 72
     1
 94
      127
  0
MATERIAL
  5
3E
102
{ACAD_REACTORS
330
3B
102
}
330
3B
100
AcDbMaterial
  1
Global
 72
     1
 94
      127
  0
MLINESTYLE
  5
18
102
{ACAD_REACTORS
330
17
102
}
330
17
100
AcDbMlineStyle
  2
Standard
 70
     0
  3

 62
   256
 51
90.0
 52
90.0
 71
     2
 49
0.5
 62
   256
  6
BYLAYER
 49
-0.5
 62
   256
  6
BYLAYER
  0
ACDBPLACEHOLDER
  5
F
102
{ACAD_REACTORS
330
E
102
}
330
E
  0
VISUALSTYLE
  5
2F
102
{ACAD_REACTORS
330
2A
102
}
330
2A
100
AcDbVisualStyle
  2
2dWireframe
 70
     4
177
     2
291
     0
 71
     0
176
     1
 72
     2
176
     1
 73
     0
176
     1
 90
        0
176
     1
 40
-0.6
176
     1
 41
-30.0
176
     1
 62
     5
 63
     7
421
 16777215
176
     1
 74
     1
176
     1
 91
        4
176
     1
 64
     7
176
     1
 65
   257
176
     1
 75
     1
176
     1
175
     1
176
     1
 42
1.0
176
     1
 92
        0
176
     1
 66
   257
176
     1
 43
1.0
176
     1
 76
     1
176
     1
 77
     6
176
     1
 78
     2
176
     1
 67
     7
176
     1
 79
     5
176
     1
170
     0
176
     1
171
     0
176
     1
290
     0
176
     1
 93
        1
176
     1
 44
0.0
176
     1
173
     0
176
     1
  0
VISUALSTYLE
  5
31
102
{ACAD_REACTORS
330
2A
102
}
330
2A
100
AcDbVisualStyle
  2
3D Hidden
 70
     6
177
     2
291
     0
 71
     1
176
     1
 72
     2
176
     1
 73
     2
176
     1
 90
        0
176
     1
 40
-0.6
176
     1
 41
-30.0
176
     1
 62
     5
 63
     7
421
 16777215
176
     1
 74
     2
176
     1
 91
        2
176
     1
 64
     7
176
     1
 65
   257
176
     1
 75
     2
176
     1
175
     1
176
     1
 42
40.0
176
     1
 92
        0
176
     1
 66
   257
176
     1
 43
1.0
176
     1
 76
     1
176
     1
 77
     6
176
     1
 78
     2
176
     1
 67
     7
176
     1
 79
     3
176
     1
170
     0
176
     1
171
     0
176
     1
290
     0
176
     1
 93
        1
176
     1
 44
0.0
176
     1
173
     0
176
     1
  0
VISUALSTYLE
  5
30
102
{ACAD_REACTORS
330
2A
102
}
330
2A
100
AcDbVisualStyle
  2
3dWireframe
 70
     5
177
     2
291
     0
 71
     0
176
     1
 72
     2
176
     1
 73
     0
176
     1
 90
        0
176
     1
 40
-0.6
176
     1
 41
-30.0
176
     1
 62
     5
 63
     7
421
 16777215
176
     1
 74
     1
176
     1
 91
        4
176
     1
 64
     7
176
     1
 65
   257
176
     1
 75
     1
176
     1
175
     1
176
     1
 42
1.0
176
     1
 92
        0
176
     1
 66
   257
176
     1
 43
1.0
176
     1
 76
     1
176
     1
 77
     6
176
     1
 78
     2
176
     1
 67
     7
176
     1
 79
     5
176
     1
170
     0
176
     1
171
     0
176
     1
290
     0
176
     1
 93
        1
176
     1
 44
0.0
176
     1
173
     0
176
     1
  0
VISUALSTYLE
  5
32
102
{ACAD_REACTORS
330
2A
102
}
330
2A
100
AcDbVisualStyle
  2
Basic
 70
     7
177
     2
291
     1
 71
     1
176
     1
 72
     0
176
     1
 73
     1
176
     1
 90
        0
176
     1
 40
-0.6
176
     1
 41
-30.0
176
     1
 62
     5
 63
     7
421
 16777215
176
     1
 74
     0
176
     1
 91
        4
176
     1
 64
     7
176
     1
 65
   257
176
     1
 75
     1
176
     1
175
     1
176
     1
 42
1.0
176
     1
 92
        8
176
     1
 66
     7
176
     1
 43
1.0
176
     1
 76
     1
176
     1
 77
     6
176
     1
 78
     2
176
     1
 67
     7
176
     1
 79
     5
176
     1
170
     0
176
     1
171
     0
176
     1
290
     0
176
     1
 93
        1
176
     1
 44
0.0
176
     1
173
     0
176
     1
  0
VISUALSTYLE
  5
36
102
{ACAD_REACTORS
330
2A
102
}
330
2A
100
AcDbVisualStyle
  2
Brighten
 70
    12
177
     2
291
     1
 71
     2
176
     1
 72
     2
176
     1
 73
     0
176
     1
 90
        0
176
     1
 40
-0.6
176
     1
 41
-30.0
176
     1
 62
     5
 63
     7
421
 16777215
176
     1
 74
     1
176
     1
 91
        4
176
     1
 64
     7
176
     1
 65
   257
176
     1
 75
     1
176
     1
175
     1
176
     1
 42
1.0
176
     1
 92
        8
176
     1
 66
     7
176
     1
 43
1.0
176
     1
 76
     1
176
     1
 77
     6
176
     1
 78
     2
176
     1
 67
     7
176
     1
 79
     5
176
     1
170
     0
176
     1
171
     0
176
     1
290
     0
176
     1
 93
        1
176
     1
 44
50.0
176
     1
173
     0
176
     1
  0
VISUALSTYLE
  5
3A
102
{ACAD_REACTORS
330
2A
102
}
330
2A
100
AcDbVisualStyle
  2
ColorChange
 70
    16
177
     2
291
     1
 71
     2
176
     1
 72
     2
176
     1
 73
     3
176
     1
 90
        0
176
     1
 40
-0.6
176
     1
 41
-30.0
176
     1
 62
     5
 63
     8
421
  8421504
176
     1
 74
     1
176
     1
 91
        4
176
     1
 64
     7
176
     1
 65
   257
176
     1
 75
     1
176
     1
175
     1
176
     1
 42
1.0
176
     1
 92
        8
176
     1
 66
     8
424
  8421504
176
     1
 43
1.0
176
     1
 76
     1
176
     1
 77
     6
176
     1
 78
     2
176
     1
 67
     7
176
     1
 79
     5
176
     1
170
     0
176
     1
171
     0
176
     1
290
     0
176
     1
 93
        1
176
     1
 44
0.0
176
     1
173
     0
176
     1
  0
VISUALSTYLE
  5
34
102
{ACAD_REACTORS
330
2A
102
}
330
2A
100
AcDbVisualStyle
  2
Conceptual
 70
     9
177
     2
291
     0
 71
     3
176
     1
 72
     2
176
     1
 73
     0
176
     1
 90
        0
176
     1
 40
-0.6
176
     1
 41
-30.0
176
     1
 62
     5
 63
     7
421
 16777215
176
     1
 74
     2
176
     1
 91
        2
176
     1
 64
     7
176
     1
 65
   257
176
     1
 75
     1
176
     1
175
     1
176
     1
 42
40.0
176
     1
 92
        8
176
     1
 66
     7
176
     1
 43
1.0
176
     1
 76
     1
176
     1
 77
     6
176
     1
 78
     2
176
     1
 67
     7
176
     1
 79
     3
176
     1
170
     0
176
     1
171
     0
176
     1
290
     0
176
     1
 93
        1
176
     1
 44
0.0
176
     1
173
     0
176
     1
  0
VISUALSTYLE
  5
35
102
{ACAD_REACTORS
330
2A
102
}
330
2A
100
AcDbVisualStyle
  2
Dim
 70
    11
177
     2
291
     1
 71
     2
176
     1
 72
     2
176
     1
 73
     0
176
     1
 90
        0
176
     1
 40
-0.6
176
     1
 41
-30.0
176
     1
 62
     5
 63
     7
421
 16777215
176
     1
 74
     1
176
     1
 91
        4
176
     1
 64
     7
176
     1
 65
   257
176
     1
 75
     1
176
     1
175
     1
176
     1
 42
1.0
176
     1
 92
        8
176
     1
 66
     7
176
     1
 43
1.0
176
     1
 76
     1
176
     1
 77
     6
176
     1
 78
     2
176
     1
 67
     7
176
     1
 79
     5
176
     1
170
     0
176
     1
171
     0
176
     1
290
     0
176
     1
 93
        1
176
     1
 44
-50.0
176
     1
173
     0
176
     1
  0
VISUALSTYLE
  5
39
102
{ACAD_REACTORS
330
2A
102
}
330
2A
100
AcDbVisualStyle
  2
Facepattern
 70
    15
177
     2
291
     1
 71
     2
176
     1
 72
     2
176
     1
 73
     0
176
     1
 90
        0
176
     1
 40
-0.6
176
     1
 41
-30.0
176
     1
 62
     5
 63
     7
421
 16777215
176
     1
 74
     1
176
     1
 91
        4
176
     1
 64
     7
176
     1
 65
   257
176
     1
 75
     1
176
     1
175
     1
176
     1
 42
1.0
176
     1
 92
        8
176
     1
 66
     7
176
     1
 43
1.0
176
     1
 76
     1
176
     1
 77
     6
176
     1
 78
     2
176
     1
 67
     7
176
     1
 79
     5
176
     1
170
     0
176
     1
171
     0
176
     1
290
     0
176
     1
 93
        1
176
     1
 44
0.0
176
     1
173
     0
176
     1
  0
VISUALSTYLE
  5
2B
102
{ACAD_REACTORS
330
2A
102
}
330
2A
100
AcDbVisualStyle
  2
Flat
 70
     0
177
     2
291
     1
 71
     2
176
     1
 72
     1
176
     1
 73
     1
176
     1
 90
        2
176
     1
 40
-0.6
176
     1
 41
30.0
176
     1
 62
     5
 63
     7
421
 16777215
176
     1
 74
     0
176
     1
 91
        4
176
     1
 64
     7
176
     1
 65
   257
176
     1
 75
     1
176
     1
175
     1
176
     1
 42
1.0
176
     1
 92
        8
176
     1
 66
     7
176
     1
 43
1.0
176
     1
 76
     1
176
     1
 77
     6
176
     1
 78
     2
176
     1
 67
     7
176
     1
 79
     5
176
     1
170
     0
176
     1
171
     0
176
     1
290
     0
176
     1
 93
       13
176
     1
 44
0.0
176
     1
173
     0
176
     1
  0
VISUALSTYLE
  5
2C
102
{ACAD_REACTORS
330
2A
102
}
330
2A
100
AcDbVisualStyle
  2
FlatWithEdges
 70
     1
177
     2
291
     1
 71
     2
176
     1
 72
     1
176
     1
 73
     1
176
     1
 90
        2
176
     1
 40
-0.6
176
     1
 41
30.0
176
     1
 62
     5
 63
     7
421
 16777215
176
     1
 74
     1
176
     1
 91
        4
176
     1
 64
     7
176
     1
 65
   257
176
     1
 75
     1
176
     1
175
     1
176
     1
 42
1.0
176
     1
 92
        0
176
     1
 66
   257
176
     1
 43
1.0
176
     1
 76
     1
176
     1
 77
     6
176
     1
 78
     2
176
     1
 67
     7
176
     1
 79
     5
176
     1
170
     0
176
     1
171
     0
176
     1
290
     0
176
     1
 93
       13
176
     1
 44
0.0
176
     1
173
     0
176
     1
  0
VISUALSTYLE
  5
2D
102
{ACAD_REACTORS
330
2A
102
}
330
2A
100
AcDbVisualStyle
  2
Gouraud
 70
     2
177
     2
291
     1
 71
     2
176
     1
 72
     2
176
     1
 73
     1
176
     1
 90
        2
176
     1
 40
-0.6
176
     1
 41
30.0
176
     1
 62
     5
 63
     7
421
 16777215
176
     1
 74
     0
176
     1
 91
        4
176
     1
 64
     7
176
     1
 65
   257
176
     1
 75
     1
176
     1
175
     1
176
     1
 42
1.0
176
     1
 92
        0
176
     1
 66
     7
176
     1
 43
1.0
176
     1
 76
     1
176
     1
 77
     6
176
     1
 78
     2
176
     1
 67
     7
176
     1
 79
     5
176
     1
170
     0
176
     1
171
     0
176
     1
290
     0
176
     1
 93
       13
176
     1
 44
0.0
176
     1
173
     0
176
     1
  0
VISUALSTYLE
  5
2E
102
{ACAD_REACTORS
330
2A
102
}
330
2A
100
AcDbVisualStyle
  2
GouraudWithEdges
 70
     3
177
     2
291
     1
 71
     2
176
     1
 72
     2
176
     1
 73
     1
176
     1
 90
        2
176
     1
 40
-0.6
176
     1
 41
30.0
176
     1
 62
     5
 63
     7
421
 16777215
176
     1
 74
     1
176
     1
 91
        4
176
     1
 64
     7
176
     1
 65
   257
176
     1
 75
     1
176
     1
175
     1
176
     1
 42
1.0
176
     1
 92
        0
176
     1
 66
   257
176
     1
 43
1.0
176
     1
 76
     1
176
     1
 77
     6
176
     1
 78
     2
176
     1
 67
     7
176
     1
 79
     5
176
     1
170
     0
176
     1
171
     0
176
     1
290
     0
176
     1
 93
       13
176
     1
 44
0.0
176
     1
173
     0
176
     1
  0
VISUALSTYLE
  5
38
102
{ACAD_REACTORS
330
2A
102
}
330
2A
100
AcDbVisualStyle
  2
Linepattern
 70
    14
177
     2
291
     1
 71
     2
176
     1
 72
     2
176
     1
 73
     0
176
     1
 90
        0
176
     1
 40
-0.6
176
     1
 41
-30.0
176
     1
 62
     5
 63
     7
421
 16777215
176
     1
 74
     1
176
     1
 91
        4
176
     1
 64
     7
176
     1
 65
   257
176
     1
 75
     7
176
     1
175
     7
176
     1
 42
1.0
176
     1
 92
        8
176
     1
 66
     7
176
     1
 43
1.0
176
     1
 76
     1
176
     1
 77
     6
176
     1
 78
     2
176
     1
 67
     7
176
     1
 79
     5
176
     1
170
     0
176
     1
171
     0
176
     1
290
     0
176
     1
 93
        1
176
     1
 44
0.0
176
     1
173
     0
176
     1
  0
VISUALSTYLE
  5
33
102
{ACAD_REACTORS
330
2A
102
}
330
2A
100
AcDbVisualStyle
  2
Realistic
 70
     8
177
     2
291
     0
 71
     2
176
     1
 72
     2
176
     1
 73
     0
176
     1
 90
        0
176
     1
 40
-0.6
176
     1
 41
-30.0
176
     1
 62
     5
 63
     7
421
 16777215
176
     1
 74
     1
176
     1
 91
        0
176
     1
 64
     7
176
     1
 65
   257
176
     1
 75
     1
176
     1
175
     1
176
     1
 42
1.0
176
     1
 92
        8
176
     1
 66
     8
424
  7895160
176
     1
 43
1.0
176
     1
 76
     1
176
     1
 77
     6
176
     1
 78
     2
176
     1
 67
     7
176
     1
 79
     5
176
     1
170
     0
176
     1
171
     0
176
     1
290
     0
176
     1
 93
       13
176
     1
 44
0.0
176
     1
173
     0
176
     1
  0
VISUALSTYLE
  5
37
102
{ACAD_REACTORS
330
2A
102
}
330
2A
100
AcDbVisualStyle
  2
Thicken
 70
    13
177
     2
291
     1
 71
     2
176
     1
 72
     2
176
     1
 73
     0
176
     1
 90
        0
176
     1
 40
-0.6
176
     1
 41
-30.0
176
     1
 62
     5
 63
     7
421
 16777215
176
     1
 74
     1
176
     1
 91
        4
176
     1
 64
     7
176
     1
 65
   257
176
     1
 75
     1
176
     1
175
     1
176
     1
 42
1.0
176
     1
 92
       12
176
     1
 66
     7
176
     1
 43
1.0
176
     1
 76
     1
176
     1
 77
     6
176
     1
 78
     2
176
     1
 67
     7
176
     1
 79
     5
176
     1
170
     0
176
     1
171
     0
176
     1
290
     0
176
     1
 93
        1
176
     1
 44
0.0
176
     1
173
     0
176
     1
  0
ENDSEC
  0
EOF
