  0
SECTION
  2
HEADER
  9
$ACADVER
  1
AC1024
  9
$ACADMAINTVER
 70
     6
  9
$DWGCODEPAGE
  3
UNDEFINED
  9
$INSBASE
 10
0.0
 20
0.0
 30
0.0
  9
$EXTMIN
 10
1.000000000000000E+20
 20
1.000000000000000E+20
 30
1.000000000000000E+20
  9
$EXTMAX
 10
-1.000000000000000E+20
 20
-1.000000000000000E+20
 30
-1.000000000000000E+20
  9
$LIMMIN
 10
0.0
 20
0.0
  9
$LIMMAX
 10
12.0
 20
9.0
  9
$ORTHOMODE
 70
     0
  9
$REGENMODE
 70
     1
  9
$FILLMODE
 70
     1
  9
$QTEXTMODE
 70
     0
  9
$MIRRTEXT
 70
     1
  9
$LTSCALE
 40
1.0
  9
$ATTMODE
 70
     1
  9
$TEXTSIZE
 40
0.2
  9
$TRACEWID
 40
0.05
  9
$TEXTSTYLE
  7
Standard
  9
$CLAYER
  8
0
  9
$CELTYPE
  6
ByLayer
  9
$CECOLOR
 62
   256
  9
$CELTSCALE
 40
1.0
  9
$DISPSILH
 70
     0
  9
$DIMSCALE
 40
1.0
  9
$DIMASZ
 40
0.18
  9
$DIMEXO
 40
0.0625
  9
$DIMDLI
 40
0.38
  9
$DIMRND
 40
0.0
  9
$DIMDLE
 40
0.0
  9
$DIMEXE
 40
0.18
  9
$DIMTP
 40
0.0
  9
$DIMTM
 40
0.0
  9
$DIMTXT
 40
0.18
  9
$DIMCEN
 40
0.09
  9
$DIMTSZ
 40
0.0
  9
$DIMTOL
 70
     0
  9
$DIMLIM
 70
     0
  9
$DIMTIH
 70
     1
  9
$DIMTOH
 70
     1
  9
$DIMSE1
 70
     0
  9
$DIMSE2
 70
     0
  9
$DIMTAD
 70
     0
  9
$DIMZIN
 70
     0
  9
$DIMBLK
  1

  9
$DIMASO
 70
     1
  9
$DIMSHO
 70
     1
  9
$DIMPOST
  1

  9
$DIMAPOST
  1

  9
$DIMALT
 70
     0
  9
$DIMALTD
 70
     2
  9
$DIMALTF
 40
25.4
  9
$DIMLFAC
 40
1.0
  9
$DIMTOFL
 70
     0
  9
$DIMTVP
 40
0.0
  9
$DIMTIX
 70
     0
  9
$DIMSOXD
 70
     0
  9
$DIMSAH
 70
     0
  9
$DIMBLK1
  1

  9
$DIMBLK2
  1

  9
$DIMSTYLE
  2
Standard
  9
$DIMCLRD
 70
     0
  9
$DIMCLRE
 70
     0
  9
$DIMCLRT
 70
     0
  9
$DIMTFAC
 40
1.0
  9
$DIMGAP
 40
0.09
  9
$DIMJUST
 70
     0
  9
$DIMSD1
 70
     0
  9
$DIMSD2
 70
     0
  9
$DIMTOLJ
 70
     1
  9
$DIMTZIN
 70
     0
  9
$DIMALTZ
 70
     0
  9
$DIMALTTZ
 70
     0
  9
$DIMUPT
 70
     0
  9
$DIMDEC
 70
     4
  9
$DIMTDEC
 70
     4
  9
$DIMALTU
 70
     2
  9
$DIMALTTD
 70
     2
  9
$DIMTXSTY
  7
Standard
  9
$DIMAUNIT
 70
     0
  9
$DIMADEC
 70
     0
  9
$DIMALTRND
 40
0.0
  9
$DIMAZIN
 70
     0
  9
$DIMDSEP
 70
    46
  9
$DIMATFIT
 70
     3
  9
$DIMFRAC
 70
     0
  9
$DIMLDRBLK
  1

  9
$DIMLUNIT
 70
     2
  9
$DIMLWD
 70
    -2
  9
$DIMLWE
 70
    -2
  9
$DIMTMOVE
 70
     0
  9
$DIMFXL
 40
1.0
  9
$DIMFXLON
 70
     0
  9
$DIMJOGANG
 40
0.7853981633974483
  9
$DIMTFILL
 70
     0
  9
$DIMTFILLCLR
 70
     0
  9
$DIMARCSYM
 70
     0
  9
$DIMLTYPE
  6

  9
$DIMLTEX1
  6

  9
$DIMLTEX2
  6

  9
$DIMTXTDIRECTION
 70
     0
  9
$LUNITS
 70
     2
  9
$LUPREC
 70
     4
  9
$SKETCHINC
 40
0.1
  9
$FILLETRAD
 40
0.5
  9
$AUNITS
 70
     0
  9
$AUPREC
 70
     0
  9
$MENU
  1
.
  9
$ELEVATION
 40
0.0
  9
$PELEVATION
 40
0.0
  9
$THICKNESS
 40
0.0
  9
$LIMCHECK
 70
     0
  9
$CHAMFERA
 40
0.5
  9
$CHAMFERB
 40
0.5
  9
$CHAMFERC
 40
1.0
  9
$CHAMFERD
 40
0.0
  9
$SKPOLY
 70
     0
  9
$TDCREATE
 40
2458263.584942118
  9
$TDUCREATE
 40
2458263.209942129
  9
$TDUPDATE
 40
2458263.584942118
  9
$TDUUPDATE
 40
2458263.209942129
  9
$TDINDWG
 40
0.0000000116
  9
$TDUSRTIMER
 40
0.0000000116
  9
$USRTIMER
 70
     1
  9
$ANGBASE
 50
0.0
  9
$ANGDIR
 70
     0
  9
$PDMODE
 70
     0
  9
$PDSIZE
 40
0.0
  9
$PLINEWID
 40
0.0
  9
$SPLFRAME
 70
     0
  9
$SPLINETYPE
 70
     6
  9
$SPLINESEGS
 70
     8
  9
$HANDSEED
  5
F9
  9
$SURFTAB1
 70
     6
  9
$SURFTAB2
 70
     6
  9
$SURFTYPE
 70
     6
  9
$SURFU
 70
     6
  9
$SURFV
 70
     6
  9
$UCSBASE
  2

  9
$UCSNAME
  2

  9
$UCSORG
 10
0.0
 20
0.0
 30
0.0
  9
$UCSXDIR
 10
1.0
 20
0.0
 30
0.0
  9
$UCSYDIR
 10
0.0
 20
1.0
 30
0.0
  9
$UCSORTHOREF
  2

  9
$UCSORTHOVIEW
 70
     0
  9
$UCSORGTOP
 10
0.0
 20
0.0
 30
0.0
  9
$UCSORGBOTTOM
 10
0.0
 20
0.0
 30
0.0
  9
$UCSORGLEFT
 10
0.0
 20
0.0
 30
0.0
  9
$UCSORGRIGHT
 10
0.0
 20
0.0
 30
0.0
  9
$UCSORGFRONT
 10
0.0
 20
0.0
 30
0.0
  9
$UCSORGBACK
 10
0.0
 20
0.0
 30
0.0
  9
$PUCSBASE
  2

  9
$PUCSNAME
  2

  9
$PUCSORG
 10
0.0
 20
0.0
 30
0.0
  9
$PUCSXDIR
 10
1.0
 20
0.0
 30
0.0
  9
$PUCSYDIR
 10
0.0
 20
1.0
 30
0.0
  9
$PUCSORTHOREF
  2

  9
$PUCSORTHOVIEW
 70
     0
  9
$PUCSORGTOP
 10
0.0
 20
0.0
 30
0.0
  9
$PUCSORGBOTTOM
 10
0.0
 20
0.0
 30
0.0
  9
$PUCSORGLEFT
 10
0.0
 20
0.0
 30
0.0
  9
$PUCSORGRIGHT
 10
0.0
 20
0.0
 30
0.0
  9
$PUCSORGFRONT
 10
0.0
 20
0.0
 30
0.0
  9
$PUCSORGBACK
 10
0.0
 20
0.0
 30
0.0
  9
$USERI1
 70
     0
  9
$USERI2
 70
     0
  9
$USERI3
 70
     0
  9
$USERI4
 70
     0
  9
$USERI5
 70
     0
  9
$USERR1
 40
0.0
  9
$USERR2
 40
0.0
  9
$USERR3
 40
0.0
  9
$USERR4
 40
0.0
  9
$USERR5
 40
0.0
  9
$WORLDVIEW
 70
     1
  9
$SHADEDGE
 70
     3
  9
$SHADEDIF
 70
    70
  9
$TILEMODE
 70
     1
  9
$MAXACTVP
 70
    64
  9
$PINSBASE
 10
0.0
 20
0.0
 30
0.0
  9
$PLIMCHECK
 70
     0
  9
$PEXTMIN
 10
1.000000000000000E+20
 20
1.000000000000000E+20
 30
1.000000000000000E+20
  9
$PEXTMAX
 10
-1.000000000000000E+20
 20
-1.000000000000000E+20
 30
-1.000000000000000E+20
  9
$PLIMMIN
 10
0.0
 20
0.0
  9
$PLIMMAX
 10
12.0
 20
9.0
  9
$UNITMODE
 70
     0
  9
$VISRETAIN
 70
     1
  9
$PLINEGEN
 70
     0
  9
$PSLTSCALE
 70
     1
  9
$TREEDEPTH
 70
  3020
  9
$CMLSTYLE
  2
Standard
  9
$CMLJUST
 70
     0
  9
$CMLSCALE
 40
1.0
  9
$PROXYGRAPHICS
 70
     1
  9
$MEASUREMENT
 70
     0
  9
$CELWEIGHT
370
    -1
  9
$ENDCAPS
280
     0
  9
$JOINSTYLE
280
     0
  9
$LWDISPLAY
290
     1
  9
$INSUNITS
 70
     1
  9
$HYPERLINKBASE
  1

  9
$STYLESHEET
  1

  9
$XEDIT
290
     1
  9
$CEPSNTYPE
380
     0
  9
$PSTYLEMODE
290
     1
  9
$FINGERPRINTGUID
  2
{6BBD1854-4BB7-9F66-EB69-34C6FC9ADBF5}
  9
$VERSIONGUID
  2
{FAEB1C32-E019-11D5-929B-00C0DF256EC4}
  9
$EXTNAMES
290
     1
  9
$PSVPSCALE
 40
0.0
  9
$OLESTARTUP
290
     0
  9
$SORTENTS
280
   127
  9
$INDEXCTL
280
     0
  9
$HIDETEXT
280
     1
  9
$XCLIPFRAME
280
     2
  9
$HALOGAP
280
     0
  9
$OBSCOLOR
 70
   257
  9
$OBSLTYPE
280
     0
  9
$INTERSECTIONDISPLAY
280
     0
  9
$INTERSECTIONCOLOR
 70
   257
  9
$DIMASSOC
280
     2
  9
$PROJECTNAME
  1

  9
$CAMERADISPLAY
290
     0
  9
$LENSLENGTH
 40
50.0
  9
$CAMERAHEIGHT
 40
0.0
  9
$STEPSPERSEC
 40
2.0
  9
$STEPSIZE
 40
6.0
  9
$3DDWFPREC
 40
2.0
  9
$PSOLWIDTH
 40
0.25
  9
$PSOLHEIGHT
 40
4.0
  9
$LOFTANG1
 40
1.570796326794897
  9
$LOFTANG2
 40
1.570796326794897
  9
$LOFTMAG1
 40
0.0
  9
$LOFTMAG2
 40
0.0
  9
$LOFTPARAM
 70
     7
  9
$LOFTNORMALS
280
     1
  9
$LATITUDE
 40
37.795
  9
$LONGITUDE
 40
-122.394
  9
$NORTHDIRECTION
 40
0.0
  9
$TIMEZONE
 70
 -8000
  9
$LIGHTGLYPHDISPLAY
280
     1
  9
$TILEMODELIGHTSYNCH
280
     1
  9
$CMATERIAL
347
3C
  9
$SOLIDHIST
280
     1
  9
$SHOWHIST
280
     1
  9
$DWFFRAME
280
     2
  9
$DGNFRAME
280
     2
  9
$REALWORLDSCALE
290
     1
  9
$INTERFERECOLOR
 62
   256
  9
$CSHADOW
280
     0
  9
$SHADOWPLANELOCATION
 40
0.0
  0
ENDSEC
  0
SECTION
  2
CLASSES
  0
CLASS
  1
ACDBDICTIONARYWDFLT
  2
AcDbDictionaryWithDefault
  3
ObjectDBX Classes
 90
        0
 91
        4
280
     0
281
     0
  0
CLASS
  1
VISUALSTYLE
  2
AcDbVisualStyle
  3
ObjectDBX Classes
 90
     4095
 91
        4
280
     0
281
     0
  0
CLASS
  1
MATERIAL
  2
AcDbMaterial
  3
ObjectDBX Classes
 90
     1153
 91
        4
280
     0
281
     0
  0
CLASS
  1
SUN
  2
AcDbSun
  3
SCENEOE
 90
     1024
 91
        4
280
     0
281
     0
  0
ENDSEC
  0
SECTION
  2
TABLES
  0
TABLE
  2
VPORT
  5
8
330
0
100
AcDbSymbolTable
 70
     1
  0
VPORT
  5
29
330
8
100
AcDbSymbolTableRecord
100
AcDbViewportTableRecord
  2
*Active
 70
     0
 10
0.0
 20
0.0
 11
1.0
 21
1.0
 12
0.0
 22
0.0
 13
0.0
 23
0.0
 14
0.5
 24
0.5
 15
0.5
 25
0.5
 16
0.0
 26
0.0
 36
1.0
 17
105.0007777515277
 27
-148.5000416295416
 37
0.0
 40
297.0000832590831
 41
0.7070757462376333
 42
50.0
 43
0.0
 44
0.0
 50
0.0
 51
0.0
 71
     0
 72
   100
 73
     1
 74
     3
 75
     0
 76
     0
 77
     0
 78
     0
281
     0
 65
     1
110
0.0
120
0.0
130
0.0
111
1.0
121
0.0
131
0.0
112
0.0
122
1.0
132
0.0
 79
     0
146
0.0
 60
     3
 61
     5
292
     1
282
     1
141
0.0
142
0.0
 63
   250
361
3F
  0
ENDTAB
  0
TABLE
  2
LTYPE
  5
5
330
0
100
AcDbSymbolTable
 70
     1
  0
LTYPE
  5
14
330
5
100
AcDbSymbolTableRecord
100
AcDbLinetypeTableRecord
  2
ByBlock
 70
     0
  3

 72
    65
 73
     0
 40
0.0
  0
LTYPE
  5
15
330
5
100
AcDbSymbolTableRecord
100
AcDbLinetypeTableRecord
  2
ByLayer
 70
     0
  3

 72
    65
 73
     0
 40
0.0
  0
LTYPE
  5
16
330
5
100
AcDbSymbolTableRecord
100
AcDbLinetypeTableRecord
  2
Continuous
 70
     0
  3
Solid line
 72
    65
 73
     0
 40
0.0
  0
ENDTAB
  0
TABLE
  2
LAYER
  5
2
330
0
100
AcDbSymbolTable
 70
     2
  0
LAYER
  5
10
330
2
100
AcDbSymbolTableRecord
100
AcDbLayerTableRecord
  2
0
 70
     0
 62
     7
  6
Continuous
370
    -3
390
F
347
3E
  0
LAYER
  5
40
330
2
100
AcDbSymbolTableRecord
100
AcDbLayerTableRecord
  2
_U+30EC_U+30A4_U+30E4_U+30FC 1
 70
     0
 62
     7
  6
Continuous
370
    -3
390
F
347
3E
  0
ENDTAB
  0
TABLE
  2
STYLE
  5
3
330
0
100
AcDbSymbolTable
 70
     1
  0
STYLE
  5
11
330
3
100
AcDbSymbolTableRecord
100
AcDbTextStyleTableRecord
  2
Standard
 70
     0
 40
0.0
 41
1.0
 50
0.0
 71
     0
 42
0.2
  3
txt
  4

  0
ENDTAB
  0
TABLE
  2
VIEW
  5
6
330
0
100
AcDbSymbolTable
 70
     0
  0
ENDTAB
  0
TABLE
  2
UCS
  5
7
330
0
100
AcDbSymbolTable
 70
     0
  0
ENDTAB
  0
TABLE
  2
APPID
  5
9
330
0
100
AcDbSymbolTable
 70
     1
  0
APPID
  5
12
330
9
100
AcDbSymbolTableRecord
100
AcDbRegAppTableRecord
  2
ACAD
 70
     0
  0
ENDTAB
  0
TABLE
  2
DIMSTYLE
  5
A
330
0
100
AcDbSymbolTable
 70
     1
100
AcDbDimStyleTable
  0
DIMSTYLE
105
27
330
A
100
AcDbSymbolTableRecord
100
AcDbDimStyleTableRecord
  2
Standard
 70
     0
178
     0
340
11
  0
ENDTAB
  0
TABLE
  2
BLOCK_RECORD
  5
1
330
0
100
AcDbSymbolTable
 70
     5
  0
BLOCK_RECORD
  5
1F
330
1
100
AcDbSymbolTableRecord
100
AcDbBlockTableRecord
  2
*Model_Space
340
22
 70
     0
280
     1
281
     0
  0
BLOCK_RECORD
  5
1B
330
1
100
AcDbSymbolTableRecord
100
AcDbBlockTableRecord
  2
*Paper_Space
340
1E
 70
     0
280
     1
281
     0
  0
BLOCK_RECORD
  5
23
330
1
100
AcDbSymbolTableRecord
100
AcDbBlockTableRecord
  2
*Paper_Space0
340
26
 70
     0
280
     1
281
     0
  0
BLOCK_RECORD
  5
6A
330
1
100
AcDbSymbolTableRecord
100
AcDbBlockTableRecord
  2
block 2
340
0
102
{BLKREFS
331
6B
102
}
 70
     0
280
     1
281
     0
  0
BLOCK_RECORD
  5
81
330
1
100
AcDbSymbolTableRecord
100
AcDbBlockTableRecord
  2
block 3
340
0
102
{BLKREFS
331
82
102
}
 70
     0
280
     1
281
     0
  0
BLOCK_RECORD
  5
9D
330
1
100
AcDbSymbolTableRecord
100
AcDbBlockTableRecord
  2
block 4
340
0
102
{BLKREFS
331
9E
102
}
 70
     0
280
     1
281
     0
  0
BLOCK_RECORD
  5
EA
330
1
100
AcDbSymbolTableRecord
100
AcDbBlockTableRecord
  2
block 5
340
0
102
{BLKREFS
331
EB
102
}
 70
     0
280
     1
281
     0
  0
ENDTAB
  0
ENDSEC
  0
SECTION
  2
BLOCKS
  0
BLOCK
  5
20
330
1F
100
AcDbEntity
  8
0
100
AcDbBlockBegin
  2
*Model_Space
 70
     0
 10
0.0
 20
0.0
 30
0.0
  3
*Model_Space
  1

  0
ENDBLK
  5
21
330
1F
100
AcDbEntity
  8
0
100
AcDbBlockEnd
  0
BLOCK
  5
1C
330
1B
100
AcDbEntity
 67
     1
  8
0
100
AcDbBlockBegin
  2
*Paper_Space
 70
     0
 10
0.0
 20
0.0
 30
0.0
  3
*Paper_Space
  1

  0
ENDBLK
  5
1D
330
1B
100
AcDbEntity
 67
     1
  8
0
100
AcDbBlockEnd
  0
BLOCK
  5
24
330
23
100
AcDbEntity
  8
0
100
AcDbBlockBegin
  2
*Paper_Space0
 70
     0
 10
0.0
 20
0.0
 30
0.0
  3
*Paper_Space0
  1

  0
ENDBLK
  5
25
330
23
100
AcDbEntity
  8
0
100
AcDbBlockEnd
  0
BLOCK
  5
6C
330
6A
100
AcDbEntity
  8
0
100
AcDbBlockBegin
  2
block 2
 70
     0
 10
0.0
 20
0.0
 30
0.0
  3
block 2
  1

  0
SPLINE
  5
6E
330
6A
100
AcDbEntity
  8
_U+30EC_U+30A4_U+30E4_U+30FC 1
370
     0
100
AcDbSpline
210
0.0
220
0.0
230
1.0
 70
    11
 71
     3
 72
    62
 73
    58
 74
     0
 42
0.0000000001
 43
0.0000000001
 12
1.0
 22
0.0
 32
0.0
 13
1.0
 23
0.0
 33
0.0
 40
0.0
 40
0.0
 40
0.0
 40
0.0
 40
1.0
 40
1.0
 40
1.0
 40
2.0
 40
2.0
 40
2.0
 40
3.0
 40
3.0
 40
3.0
 40
4.0
 40
4.0
 40
4.0
 40
5.0
 40
5.0
 40
5.0
 40
6.0
 40
6.0
 40
6.0
 40
7.0
 40
7.0
 40
7.0
 40
8.0
 40
8.0
 40
8.0
 40
9.0
 40
9.0
 40
9.0
 40
10.0
 40
10.0
 40
10.0
 40
11.0
 40
11.0
 40
11.0
 40
12.0
 40
12.0
 40
12.0
 40
13.0
 40
13.0
 40
13.0
 40
14.0
 40
14.0
 40
14.0
 40
15.0
 40
15.0
 40
15.0
 40
16.0
 40
16.0
 40
16.0
 40
17.0
 40
17.0
 40
17.0
 40
18.0
 40
18.0
 40
18.0
 40
19.0
 40
19.0
 40
19.0
 40
19.0
 10
131.0004448457221
 20
-144.2494208081217
 30
0.0
 10
130.9170735349791
 20
-144.2494208081217
 30
0.0
 10
130.7262152450962
 20
-144.2282334708874
 30
0.0
 10
130.6170057182138
 20
-144.0420260599096
 30
0.0
 10
130.5522379230911
 20
-143.9298882018648
 30
0.0
 10
130.5484483180573
 20
-143.8304971971153
 30
0.0
 10
130.5450032225721
 20
-143.7459201029524
 30
0.0
 10
130.5450032225721
 20
-143.7459201029524
 30
0.0
 10
130.737239550649
 20
-143.7459201029524
 30
0.0
 10
130.737239550649
 20
-143.7459201029524
 30
0.0
 10
130.7393066079402
 20
-143.8199896558853
 30
0.0
 10
130.7486083657504
 20
-144.0547729132051
 30
0.0
 10
130.9966552406883
 20
-144.0547729132051
 30
0.0
 10
131.1168890731236
 20
-144.0547729132051
 30
0.0
 10
131.2505587779513
 20
-143.9850097296288
 30
0.0
 10
131.2505587779513
 20
-143.7564276441824
 30
0.0
 10
131.2505587779513
 20
-143.6401556715552
 30
0.0
 10
131.2167968421958
 20
-143.5914075704389
 30
0.0
 10
131.1892360783138
 20
-143.5597126919747
 30
0.0
 10
131.1244682831911
 20
-143.4856431390418
 30
0.0
 10
131.0224934568277
 20
-143.4730685405206
 30
0.0
 10
130.9742621200342
 20
-143.4730685405206
 30
0.0
 10
130.957725661705
 20
-143.4730685405206
 30
0.0
 10
130.9263752927893
 20
-143.4751355978118
 30
0.0
 10
130.9022596243925
 20
-143.4792697123941
 30
0.0
 10
130.9022596243925
 20
-143.4792697123941
 30
0.0
 10
130.9022596243925
 20
-143.2847940722517
 30
0.0
 10
130.9022596243925
 20
-143.2847940722517
 30
0.0
 10
130.9356770505994
 20
-143.2909952441252
 30
0.0
 10
130.9725395722916
 20
-143.2932345561906
 30
0.0
 10
130.978051725068
 20
-143.2932345561906
 30
0.0
 10
131.0355848196717
 20
-143.2932345561906
 30
0.0
 10
131.2095621416768
 20
-143.2720472189563
 30
0.0
 10
131.2095621416768
 20
-143.0350246495711
 30
0.0
 10
131.2095621416768
 20
-142.8574299773065
 30
0.0
 10
131.094840462018
 20
-142.8023084495425
 30
0.0
 10
130.998377788431
 20
-142.8023084495425
 30
0.0
 10
130.7668673718222
 20
-142.8023084495425
 30
0.0
 10
130.7596326713032
 20
-143.0350246495711
 30
0.0
 10
130.7558430662694
 20
-143.1070271452128
 30
0.0
 10
130.7558430662694
 20
-143.1070271452128
 30
0.0
 10
130.5780761392305
 20
-143.1070271452128
 30
0.0
 10
130.5780761392305
 20
-143.1070271452128
 30
0.0
 10
130.585655349298
 20
-142.9821424338725
 30
0.0
 10
130.6097710176948
 20
-142.6055934973347
 30
0.0
 10
131.0094020939838
 20
-142.6055934973347
 30
0.0
 10
131.205772536643
 20
-142.6055934973347
 30
0.0
 10
131.4169568898888
 20
-142.7325452659662
 30
0.0
 10
131.4169568898888
 20
-143.0286512229234
 30
0.0
 10
131.4169568898888
 20
-143.2148586339011
 30
0.0
 10
131.3335855791458
 20
-143.2973686707729
 30
0.0
 10
131.2464246633689
 20
-143.3586913704103
 30
0.0
 10
131.3001681529389
 20
-143.3862521342923
 30
0.0
 10
131.4596760739059
 20
-143.4666951138729
 30
0.0
 10
131.4596760739059
 20
-143.7438530456613
 30
0.0
 10
131.4596760739059
 20
-144.0823336770871
 30
0.0
 10
131.2429795678837
 20
-144.2494208081217
 30
0.0
 10
131.0004448457221
 20
-144.2494208081217
 30
0.0
  0
HATCH
  5
6F
330
6A
100
AcDbEntity
  8
_U+30EC_U+30A4_U+30E4_U+30FC 1
 62
   179
420
  2234388
100
AcDbHatch
 10
0.0
 20
0.0
 30
0.0
210
0.0
220
0.0
230
1.0
  2
SOLID
 70
     1
 71
     0
 91
        1
 92
        1
 93
        1
 72
     4
 94
        3
 73
     0
 74
     1
 95
       62
 96
       58
 40
0.0
 40
0.0
 40
0.0
 40
0.0
 40
1.0
 40
1.0
 40
1.0
 40
2.0
 40
2.0
 40
2.0
 40
3.0
 40
3.0
 40
3.0
 40
4.0
 40
4.0
 40
4.0
 40
5.0
 40
5.0
 40
5.0
 40
6.0
 40
6.0
 40
6.0
 40
7.0
 40
7.0
 40
7.0
 40
8.0
 40
8.0
 40
8.0
 40
9.0
 40
9.0
 40
9.0
 40
10.0
 40
10.0
 40
10.0
 40
11.0
 40
11.0
 40
11.0
 40
12.0
 40
12.0
 40
12.0
 40
13.0
 40
13.0
 40
13.0
 40
14.0
 40
14.0
 40
14.0
 40
15.0
 40
15.0
 40
15.0
 40
16.0
 40
16.0
 40
16.0
 40
17.0
 40
17.0
 40
17.0
 40
18.0
 40
18.0
 40
18.0
 40
19.0
 40
19.0
 40
19.0
 40
19.0
 10
131.0004448457221
 20
-144.2494208081217
 10
130.9170735349791
 20
-144.2494208081217
 10
130.7262152450962
 20
-144.2282334708874
 10
130.6170057182138
 20
-144.0420260599096
 10
130.5522379230911
 20
-143.9298882018648
 10
130.5484483180573
 20
-143.8304971971153
 10
130.5450032225721
 20
-143.7459201029524
 10
130.5450032225721
 20
-143.7459201029524
 10
130.737239550649
 20
-143.7459201029524
 10
130.737239550649
 20
-143.7459201029524
 10
130.7393066079402
 20
-143.8199896558853
 10
130.7486083657504
 20
-144.0547729132051
 10
130.9966552406883
 20
-144.0547729132051
 10
131.1168890731236
 20
-144.0547729132051
 10
131.2505587779513
 20
-143.9850097296288
 10
131.2505587779513
 20
-143.7564276441824
 10
131.2505587779513
 20
-143.6401556715552
 10
131.2167968421958
 20
-143.5914075704389
 10
131.1892360783138
 20
-143.5597126919747
 10
131.1244682831911
 20
-143.4856431390418
 10
131.0224934568277
 20
-143.4730685405206
 10
130.9742621200342
 20
-143.4730685405206
 10
130.957725661705
 20
-143.4730685405206
 10
130.9263752927893
 20
-143.4751355978118
 10
130.9022596243925
 20
-143.4792697123941
 10
130.9022596243925
 20
-143.4792697123941
 10
130.9022596243925
 20
-143.2847940722517
 10
130.9022596243925
 20
-143.2847940722517
 10
130.9356770505994
 20
-143.2909952441252
 10
130.9725395722916
 20
-143.2932345561906
 10
130.978051725068
 20
-143.2932345561906
 10
131.0355848196717
 20
-143.2932345561906
 10
131.2095621416768
 20
-143.2720472189563
 10
131.2095621416768
 20
-143.0350246495711
 10
131.2095621416768
 20
-142.8574299773065
 10
131.094840462018
 20
-142.8023084495425
 10
130.998377788431
 20
-142.8023084495425
 10
130.7668673718222
 20
-142.8023084495425
 10
130.7596326713032
 20
-143.0350246495711
 10
130.7558430662694
 20
-143.1070271452128
 10
130.7558430662694
 20
-143.1070271452128
 10
130.5780761392305
 20
-143.1070271452128
 10
130.5780761392305
 20
-143.1070271452128
 10
130.585655349298
 20
-142.9821424338725
 10
130.6097710176948
 20
-142.6055934973347
 10
131.0094020939838
 20
-142.6055934973347
 10
131.205772536643
 20
-142.6055934973347
 10
131.4169568898888
 20
-142.7325452659662
 10
131.4169568898888
 20
-143.0286512229234
 10
131.4169568898888
 20
-143.2148586339011
 10
131.3335855791458
 20
-143.2973686707729
 10
131.2464246633689
 20
-143.3586913704103
 10
131.3001681529389
 20
-143.3862521342923
 10
131.4596760739059
 20
-143.4666951138729
 10
131.4596760739059
 20
-143.7438530456613
 10
131.4596760739059
 20
-144.0823336770871
 10
131.2429795678837
 20
-144.2494208081217
 10
131.0004448457221
 20
-144.2494208081217
 97
        0
 97
        0
 75
     2
 76
     1
 98
        0
  0
SPLINE
  5
70
330
6A
100
AcDbEntity
  8
_U+30EC_U+30A4_U+30E4_U+30FC 1
370
     0
100
AcDbSpline
210
0.0
220
0.0
230
1.0
 70
    11
 71
     3
 72
    29
 73
    25
 74
     0
 42
0.0000000001
 43
0.0000000001
 12
1.0
 22
0.0
 32
0.0
 13
1.0
 23
0.0
 33
0.0
 40
0.0
 40
0.0
 40
0.0
 40
0.0
 40
1.0
 40
1.0
 40
1.0
 40
2.0
 40
2.0
 40
2.0
 40
3.0
 40
3.0
 40
3.0
 40
4.0
 40
4.0
 40
4.0
 40
5.0
 40
5.0
 40
5.0
 40
6.0
 40
6.0
 40
6.0
 40
7.0
 40
7.0
 40
7.0
 40
8.0
 40
8.0
 40
8.0
 40
8.0
 10
132.3867512689866
 20
-144.0208387226754
 30
0.0
 10
132.2923556526908
 20
-144.2303005281785
 30
0.0
 10
132.1404269417913
 20
-144.2494208081217
 30
0.0
 10
132.0384521154279
 20
-144.2494208081217
 30
0.0
 10
131.8978922196297
 20
-144.2494208081217
 30
0.0
 10
131.7735242726122
 20
-144.2029120190708
 30
0.0
 10
131.6904974714177
 20
-144.0208387226754
 30
0.0
 10
131.5998914601556
 20
-143.826363082533
 30
0.0
 10
131.5830104922779
 20
-143.5893405131478
 30
0.0
 10
131.5830104922779
 20
-143.4263874966955
 30
0.0
 10
131.5830104922779
 20
-143.2825547601863
 30
0.0
 10
131.5978244028644
 20
-143.0308905349888
 30
0.0
 10
131.6904974714177
 20
-142.8319362707156
 30
0.0
 10
131.7848930877135
 20
-142.6288478918601
 30
0.0
 10
131.9257974930602
 20
-142.6055934973347
 30
0.0
 10
132.0384521154279
 20
-142.6055934973347
 30
0.0
 10
132.1772894634835
 20
-142.6055934973347
 30
0.0
 10
132.3033799582436
 20
-142.6500352290944
 30
0.0
 10
132.3867512689866
 20
-142.8319362707156
 30
0.0
 10
132.473567675215
 20
-143.0245171083411
 30
0.0
 10
132.4942382481264
 20
-143.2529269390132
 30
0.0
 10
132.4942382481264
 20
-143.4263874966955
 30
0.0
 10
132.4942382481264
 20
-143.5977809970867
 30
0.0
 10
132.4756347325061
 20
-143.8284301398241
 30
0.0
 10
132.3867512689866
 20
-144.0208387226754
 30
0.0
  0
SPLINE
  5
71
330
6A
100
AcDbEntity
  8
_U+30EC_U+30A4_U+30E4_U+30FC 1
370
     0
100
AcDbSpline
210
0.0
220
0.0
230
1.0
 70
    11
 71
     3
 72
    17
 73
    13
 74
     0
 42
0.0000000001
 43
0.0000000001
 12
1.0
 22
0.0
 32
0.0
 13
1.0
 23
0.0
 33
0.0
 40
0.0
 40
0.0
 40
0.0
 40
0.0
 40
1.0
 40
1.0
 40
1.0
 40
2.0
 40
2.0
 40
2.0
 40
3.0
 40
3.0
 40
3.0
 40
4.0
 40
4.0
 40
4.0
 40
4.0
 10
132.0384521154279
 20
-142.7981743349602
 30
0.0
 10
131.8200330616631
 20
-142.7981743349602
 30
0.0
 10
131.7793809349371
 20
-143.081533438622
 30
0.0
 10
131.7793809349371
 20
-143.4263874966955
 30
0.0
 10
131.7793809349371
 20
-143.7459201029524
 30
0.0
 10
131.8107313038529
 20
-144.0547729132051
 30
0.0
 10
132.0384521154279
 20
-144.0547729132051
 30
0.0
 10
132.2551486214501
 20
-144.0547729132051
 30
0.0
 10
132.2978678054672
 20
-143.7733086120602
 30
0.0
 10
132.2978678054672
 20
-143.4263874966955
 30
0.0
 10
132.2978678054672
 20
-143.1070271452128
 30
0.0
 10
132.2644503792603
 20
-142.7981743349602
 30
0.0
 10
132.0384521154279
 20
-142.7981743349602
 30
0.0
  0
HATCH
  5
72
330
6A
100
AcDbEntity
  8
_U+30EC_U+30A4_U+30E4_U+30FC 1
 62
   179
420
  2234388
100
AcDbHatch
 10
0.0
 20
0.0
 30
0.0
210
0.0
220
0.0
230
1.0
  2
SOLID
 70
     1
 71
     0
 91
        2
 92
        1
 93
        1
 72
     4
 94
        3
 73
     0
 74
     1
 95
       29
 96
       25
 40
0.0
 40
0.0
 40
0.0
 40
0.0
 40
1.0
 40
1.0
 40
1.0
 40
2.0
 40
2.0
 40
2.0
 40
3.0
 40
3.0
 40
3.0
 40
4.0
 40
4.0
 40
4.0
 40
5.0
 40
5.0
 40
5.0
 40
6.0
 40
6.0
 40
6.0
 40
7.0
 40
7.0
 40
7.0
 40
8.0
 40
8.0
 40
8.0
 40
8.0
 10
132.3867512689866
 20
-144.0208387226754
 10
132.2923556526908
 20
-144.2303005281785
 10
132.1404269417913
 20
-144.2494208081217
 10
132.0384521154279
 20
-144.2494208081217
 10
131.8978922196297
 20
-144.2494208081217
 10
131.7735242726122
 20
-144.2029120190708
 10
131.6904974714177
 20
-144.0208387226754
 10
131.5998914601556
 20
-143.826363082533
 10
131.5830104922779
 20
-143.5893405131478
 10
131.5830104922779
 20
-143.4263874966955
 10
131.5830104922779
 20
-143.2825547601863
 10
131.5978244028644
 20
-143.0308905349888
 10
131.6904974714177
 20
-142.8319362707156
 10
131.7848930877135
 20
-142.6288478918601
 10
131.9257974930602
 20
-142.6055934973347
 10
132.0384521154279
 20
-142.6055934973347
 10
132.1772894634835
 20
-142.6055934973347
 10
132.3033799582436
 20
-142.6500352290944
 10
132.3867512689866
 20
-142.8319362707156
 10
132.473567675215
 20
-143.0245171083411
 10
132.4942382481264
 20
-143.2529269390132
 10
132.4942382481264
 20
-143.4263874966955
 10
132.4942382481264
 20
-143.5977809970867
 10
132.4756347325061
 20
-143.8284301398241
 10
132.3867512689866
 20
-144.0208387226754
 97
        0
 97
        0
 92
        1
 93
        1
 72
     4
 94
        3
 73
     0
 74
     1
 95
       17
 96
       13
 40
0.0
 40
0.0
 40
0.0
 40
0.0
 40
1.0
 40
1.0
 40
1.0
 40
2.0
 40
2.0
 40
2.0
 40
3.0
 40
3.0
 40
3.0
 40
4.0
 40
4.0
 40
4.0
 40
4.0
 10
132.0384521154279
 20
-142.7981743349602
 10
131.8200330616631
 20
-142.7981743349602
 10
131.7793809349371
 20
-143.081533438622
 10
131.7793809349371
 20
-143.4263874966955
 10
131.7793809349371
 20
-143.7459201029524
 10
131.8107313038529
 20
-144.0547729132051
 10
132.0384521154279
 20
-144.0547729132051
 10
132.2551486214501
 20
-144.0547729132051
 10
132.2978678054672
 20
-143.7733086120602
 10
132.2978678054672
 20
-143.4263874966955
 10
132.2978678054672
 20
-143.1070271452128
 10
132.2644503792603
 20
-142.7981743349602
 10
132.0384521154279
 20
-142.7981743349602
 97
        0
 97
        0
 75
     2
 76
     1
 98
        0
  0
ENDBLK
  5
6D
330
6A
100
AcDbEntity
  8
0
100
AcDbBlockEnd
  0
BLOCK
  5
83
330
81
100
AcDbEntity
  8
0
100
AcDbBlockBegin
  2
block 3
 70
     0
 10
0.0
 20
0.0
 30
0.0
  3
block 3
  1

  0
POLYLINE
  5
85
330
81
100
AcDbEntity
  8
_U+30EC_U+30A4_U+30E4_U+30FC 1
370
     0
100
AcDb2dPolyline
 66
     1
 10
0.0
 20
0.0
 30
0.0
  0
VERTEX
  5
86
330
85
100
AcDbEntity
  8
_U+30EC_U+30A4_U+30E4_U+30FC 1
370
     0
100
AcDbVertex
100
AcDb2dVertex
 10
97.88411998420953
 20
-161.6545599639267
 30
0.0
  0
VERTEX
  5
87
330
85
100
AcDbEntity
  8
_U+30EC_U+30A4_U+30E4_U+30FC 1
370
     0
100
AcDbVertex
100
AcDb2dVertex
 10
97.88411998420953
 20
-162.0014810792913
 30
0.0
  0
VERTEX
  5
88
330
85
100
AcDbEntity
  8
_U+30EC_U+30A4_U+30E4_U+30FC 1
370
     0
100
AcDbVertex
100
AcDb2dVertex
 10
97.69343394910095
 20
-162.0014810792913
 30
0.0
  0
VERTEX
  5
89
330
85
100
AcDbEntity
  8
_U+30EC_U+30A4_U+30E4_U+30FC 1
370
     0
100
AcDbVertex
100
AcDb2dVertex
 10
97.69343394910095
 20
-161.6545599639267
 30
0.0
  0
VERTEX
  5
8A
330
85
100
AcDbEntity
  8
_U+30EC_U+30A4_U+30E4_U+30FC 1
370
     0
100
AcDbVertex
100
AcDb2dVertex
 10
97.11930878648407
 20
-161.6545599639267
 30
0.0
  0
VERTEX
  5
8B
330
85
100
AcDbEntity
  8
_U+30EC_U+30A4_U+30E4_U+30FC 1
370
     0
100
AcDbVertex
100
AcDb2dVertex
 10
97.11930878648407
 20
-161.4302842478369
 30
0.0
  0
VERTEX
  5
8C
330
85
100
AcDbEntity
  8
_U+30EC_U+30A4_U+30E4_U+30FC 1
370
     0
100
AcDbVertex
100
AcDb2dVertex
 10
97.71376001246392
 20
-160.4573892828023
 30
0.0
  0
VERTEX
  5
8D
330
85
100
AcDbEntity
  8
_U+30EC_U+30A4_U+30E4_U+30FC 1
370
     0
100
AcDbVertex
100
AcDb2dVertex
 10
97.88411998420953
 20
-160.4573892828023
 30
0.0
  0
VERTEX
  5
8E
330
85
100
AcDbEntity
  8
_U+30EC_U+30A4_U+30E4_U+30FC 1
370
     0
100
AcDbVertex
100
AcDb2dVertex
 10
97.88411998420953
 20
-161.4557779544277
 30
0.0
  0
VERTEX
  5
8F
330
85
100
AcDbEntity
  8
_U+30EC_U+30A4_U+30E4_U+30FC 1
370
     0
100
AcDbVertex
100
AcDb2dVertex
 10
98.0656765162822
 20
-161.4557779544277
 30
0.0
  0
VERTEX
  5
90
330
85
100
AcDbEntity
  8
_U+30EC_U+30A4_U+30E4_U+30FC 1
370
     0
100
AcDbVertex
100
AcDb2dVertex
 10
98.0656765162822
 20
-161.6545599639267
 30
0.0
  0
VERTEX
  5
91
330
85
100
AcDbEntity
  8
_U+30EC_U+30A4_U+30E4_U+30FC 1
370
     0
100
AcDbVertex
100
AcDb2dVertex
 10
97.88411998420953
 20
-161.6545599639267
 30
0.0
  0
SEQEND
  5
92
330
85
100
AcDbEntity
  8
_U+30EC_U+30A4_U+30E4_U+30FC 1
370
     0
  0
POLYLINE
  5
93
330
81
100
AcDbEntity
  8
_U+30EC_U+30A4_U+30E4_U+30FC 1
370
     0
100
AcDb2dPolyline
 66
     1
 10
0.0
 20
0.0
 30
0.0
  0
VERTEX
  5
94
330
93
100
AcDbEntity
  8
_U+30EC_U+30A4_U+30E4_U+30FC 1
370
     0
100
AcDbVertex
100
AcDb2dVertex
 10
97.69343394910095
 20
-160.7998317740362
 30
0.0
  0
VERTEX
  5
95
330
93
100
AcDbEntity
  8
_U+30EC_U+30A4_U+30E4_U+30FC 1
370
     0
100
AcDbVertex
100
AcDb2dVertex
 10
97.29345836326344
 20
-161.4557779544277
 30
0.0
  0
VERTEX
  5
96
330
93
100
AcDbEntity
  8
_U+30EC_U+30A4_U+30E4_U+30FC 1
370
     0
100
AcDbVertex
100
AcDb2dVertex
 10
97.69343394910095
 20
-161.4557779544277
 30
0.0
  0
VERTEX
  5
97
330
93
100
AcDbEntity
  8
_U+30EC_U+30A4_U+30E4_U+30FC 1
370
     0
100
AcDbVertex
100
AcDb2dVertex
 10
97.69343394910095
 20
-160.7998317740362
 30
0.0
  0
SEQEND
  5
98
330
93
100
AcDbEntity
  8
_U+30EC_U+30A4_U+30E4_U+30FC 1
370
     0
  0
HATCH
  5
99
330
81
100
AcDbEntity
  8
_U+30EC_U+30A4_U+30E4_U+30FC 1
 62
   179
420
  2234388
100
AcDbHatch
 10
0.0
 20
0.0
 30
0.0
210
0.0
220
0.0
230
1.0
  2
SOLID
 70
     1
 71
     0
 91
        2
 92
        1
 93
       11
 72
     1
 10
97.88411998420953
 20
-161.6545599639267
 11
97.88411998420953
 21
-162.0014810792913
 72
     1
 10
97.88411998420953
 20
-162.0014810792913
 11
97.69343394910095
 21
-162.0014810792913
 72
     1
 10
97.69343394910095
 20
-162.0014810792913
 11
97.69343394910095
 21
-161.6545599639267
 72
     1
 10
97.69343394910095
 20
-161.6545599639267
 11
97.11930878648407
 21
-161.6545599639267
 72
     1
 10
97.11930878648407
 20
-161.6545599639267
 11
97.11930878648407
 21
-161.4302842478369
 72
     1
 10
97.11930878648407
 20
-161.4302842478369
 11
97.71376001246392
 21
-160.4573892828023
 72
     1
 10
97.71376001246392
 20
-160.4573892828023
 11
97.88411998420953
 21
-160.4573892828023
 72
     1
 10
97.88411998420953
 20
-160.4573892828023
 11
97.88411998420953
 21
-161.4557779544277
 72
     1
 10
97.88411998420953
 20
-161.4557779544277
 11
98.0656765162822
 21
-161.4557779544277
 72
     1
 10
98.0656765162822
 20
-161.4557779544277
 11
98.0656765162822
 21
-161.6545599639267
 72
     1
 10
98.0656765162822
 20
-161.6545599639267
 11
97.88411998420953
 21
-161.6545599639267
 97
        0
 92
        1
 93
        3
 72
     1
 10
97.69343394910095
 20
-160.7998317740362
 11
97.29345836326344
 21
-161.4557779544277
 72
     1
 10
97.29345836326344
 20
-161.4557779544277
 11
97.69343394910095
 21
-161.4557779544277
 72
     1
 10
97.69343394910095
 20
-161.4557779544277
 11
97.69343394910095
 21
-160.7998317740362
 97
        0
 75
     2
 76
     1
 98
        0
  0
SPLINE
  5
9A
330
81
100
AcDbEntity
  8
_U+30EC_U+30A4_U+30E4_U+30FC 1
370
     0
100
AcDbSpline
210
0.0
220
0.0
230
1.0
 70
    11
 71
     3
 72
    29
 73
    25
 74
     0
 42
0.0000000001
 43
0.0000000001
 12
1.0
 22
0.0
 32
0.0
 13
1.0
 23
0.0
 33
0.0
 40
0.0
 40
0.0
 40
0.0
 40
0.0
 40
1.0
 40
1.0
 40
1.0
 40
2.0
 40
2.0
 40
2.0
 40
3.0
 40
3.0
 40
3.0
 40
4.0
 40
4.0
 40
4.0
 40
5.0
 40
5.0
 40
5.0
 40
6.0
 40
6.0
 40
6.0
 40
7.0
 40
7.0
 40
7.0
 40
8.0
 40
8.0
 40
8.0
 40
8.0
 10
98.97242564799996
 20
-161.8237141522524
 30
0.0
 10
98.87785777692984
 20
-162.0331759577556
 30
0.0
 10
98.72610132080459
 20
-162.052468492473
 30
0.0
 10
98.6241264944412
 20
-162.052468492473
 30
0.0
 10
98.48356659864301
 20
-162.052468492473
 30
0.0
 10
98.35937090639975
 20
-162.0059597034221
 30
0.0
 10
98.27617185043096
 20
-161.8237141522524
 30
0.0
 10
98.18539358439463
 20
-161.6290662573358
 30
0.0
 10
98.16868487129116
 20
-161.3923881974991
 30
0.0
 10
98.16868487129116
 20
-161.2294351810468
 30
0.0
 10
98.16868487129116
 20
-161.0854301897634
 30
0.0
 10
98.18349878187774
 20
-160.8339382193401
 30
0.0
 10
98.27617185043096
 20
-160.6348117002927
 30
0.0
 10
98.37056746672681
 20
-160.4318955762115
 30
0.0
 10
98.51129961729926
 20
-160.4084689269118
 30
0.0
 10
98.6241264944412
 20
-160.4084689269118
 30
0.0
 10
98.76313609727103
 20
-160.4084689269118
 30
0.0
 10
98.88905433725691
 20
-160.4529106586715
 30
0.0
 10
98.97242564799996
 20
-160.6348117002927
 30
0.0
 10
99.0594143090025
 20
-160.8273925379182
 30
0.0
 10
99.07974037236549
 20
-161.0558023685902
 30
0.0
 10
99.07974037236549
 20
-161.2294351810468
 30
0.0
 10
99.07974037236549
 20
-161.4006564266637
 30
0.0
 10
99.06130911151939
 20
-161.6314778241755
 30
0.0
 10
98.97242564799996
 20
-161.8237141522524
 30
0.0
  0
SPLINE
  5
9B
330
81
100
AcDbEntity
  8
_U+30EC_U+30A4_U+30E4_U+30FC 1
370
     0
100
AcDbSpline
210
0.0
220
0.0
230
1.0
 70
    11
 71
     3
 72
    17
 73
    13
 74
     0
 42
0.0000000001
 43
0.0000000001
 12
1.0
 22
0.0
 32
0.0
 13
1.0
 23
0.0
 33
0.0
 40
0.0
 40
0.0
 40
0.0
 40
0.0
 40
1.0
 40
1.0
 40
1.0
 40
2.0
 40
2.0
 40
2.0
 40
3.0
 40
3.0
 40
3.0
 40
4.0
 40
4.0
 40
4.0
 40
4.0
 10
98.6241264944412
 20
-160.6010497645372
 30
0.0
 10
98.40570744067635
 20
-160.6010497645372
 30
0.0
 10
98.3650553139504
 20
-160.8845811229733
 30
0.0
 10
98.3650553139504
 20
-161.2294351810468
 30
0.0
 10
98.3650553139504
 20
-161.5487955325295
 30
0.0
 10
98.39640568286617
 20
-161.8578205975564
 30
0.0
 10
98.6241264944412
 20
-161.8578205975564
 30
0.0
 10
98.84082300046342
 20
-161.8578205975564
 30
0.0
 10
98.8835421844805
 20
-161.5763562964115
 30
0.0
 10
98.8835421844805
 20
-161.2294351810468
 30
0.0
 10
98.8835421844805
 20
-160.9100748295642
 30
0.0
 10
98.85012475827358
 20
-160.6010497645372
 30
0.0
 10
98.6241264944412
 20
-160.6010497645372
 30
0.0
  0
HATCH
  5
9C
330
81
100
AcDbEntity
  8
_U+30EC_U+30A4_U+30E4_U+30FC 1
 62
   179
420
  2234388
100
AcDbHatch
 10
0.0
 20
0.0
 30
0.0
210
0.0
220
0.0
230
1.0
  2
SOLID
 70
     1
 71
     0
 91
        2
 92
        1
 93
        1
 72
     4
 94
        3
 73
     0
 74
     1
 95
       29
 96
       25
 40
0.0
 40
0.0
 40
0.0
 40
0.0
 40
1.0
 40
1.0
 40
1.0
 40
2.0
 40
2.0
 40
2.0
 40
3.0
 40
3.0
 40
3.0
 40
4.0
 40
4.0
 40
4.0
 40
5.0
 40
5.0
 40
5.0
 40
6.0
 40
6.0
 40
6.0
 40
7.0
 40
7.0
 40
7.0
 40
8.0
 40
8.0
 40
8.0
 40
8.0
 10
98.97242564799996
 20
-161.8237141522524
 10
98.87785777692984
 20
-162.0331759577556
 10
98.72610132080459
 20
-162.052468492473
 10
98.6241264944412
 20
-162.052468492473
 10
98.48356659864301
 20
-162.052468492473
 10
98.35937090639975
 20
-162.0059597034221
 10
98.27617185043096
 20
-161.8237141522524
 10
98.18539358439463
 20
-161.6290662573358
 10
98.16868487129116
 20
-161.3923881974991
 10
98.16868487129116
 20
-161.2294351810468
 10
98.16868487129116
 20
-161.0854301897634
 10
98.18349878187774
 20
-160.8339382193401
 10
98.27617185043096
 20
-160.6348117002927
 10
98.37056746672681
 20
-160.4318955762115
 10
98.51129961729926
 20
-160.4084689269118
 10
98.6241264944412
 20
-160.4084689269118
 10
98.76313609727103
 20
-160.4084689269118
 10
98.88905433725691
 20
-160.4529106586715
 10
98.97242564799996
 20
-160.6348117002927
 10
99.0594143090025
 20
-160.8273925379182
 10
99.07974037236549
 20
-161.0558023685902
 10
99.07974037236549
 20
-161.2294351810468
 10
99.07974037236549
 20
-161.4006564266637
 10
99.06130911151939
 20
-161.6314778241755
 10
98.97242564799996
 20
-161.8237141522524
 97
        0
 97
        0
 92
        1
 93
        1
 72
     4
 94
        3
 73
     0
 74
     1
 95
       17
 96
       13
 40
0.0
 40
0.0
 40
0.0
 40
0.0
 40
1.0
 40
1.0
 40
1.0
 40
2.0
 40
2.0
 40
2.0
 40
3.0
 40
3.0
 40
3.0
 40
4.0
 40
4.0
 40
4.0
 40
4.0
 10
98.6241264944412
 20
-160.6010497645372
 10
98.40570744067635
 20
-160.6010497645372
 10
98.3650553139504
 20
-160.8845811229733
 10
98.3650553139504
 20
-161.2294351810468
 10
98.3650553139504
 20
-161.5487955325295
 10
98.39640568286617
 20
-161.8578205975564
 10
98.6241264944412
 20
-161.8578205975564
 10
98.84082300046342
 20
-161.8578205975564
 10
98.8835421844805
 20
-161.5763562964115
 10
98.8835421844805
 20
-161.2294351810468
 10
98.8835421844805
 20
-160.9100748295642
 10
98.85012475827358
 20
-160.6010497645372
 10
98.6241264944412
 20
-160.6010497645372
 97
        0
 97
        0
 75
     2
 76
     1
 98
        0
  0
ENDBLK
  5
84
330
81
100
AcDbEntity
  8
0
100
AcDbBlockEnd
  0
BLOCK
  5
9F
330
9D
100
AcDbEntity
  8
0
100
AcDbBlockBegin
  2
block 4
 70
     0
 10
0.0
 20
0.0
 30
0.0
  3
block 4
  1

  0
SPLINE
  5
A1
330
9D
100
AcDbEntity
  8
_U+30EC_U+30A4_U+30E4_U+30FC 1
370
     0
100
AcDbSpline
210
0.0
220
0.0
230
1.0
 70
    11
 71
     3
 72
    56
 73
    52
 74
     0
 42
0.0000000001
 43
0.0000000001
 12
1.0
 22
0.0
 32
0.0
 13
1.0
 23
0.0
 33
0.0
 40
0.0
 40
0.0
 40
0.0
 40
0.0
 40
1.0
 40
1.0
 40
1.0
 40
2.0
 40
2.0
 40
2.0
 40
3.0
 40
3.0
 40
3.0
 40
4.0
 40
4.0
 40
4.0
 40
5.0
 40
5.0
 40
5.0
 40
6.0
 40
6.0
 40
6.0
 40
7.0
 40
7.0
 40
7.0
 40
8.0
 40
8.0
 40
8.0
 40
9.0
 40
9.0
 40
9.0
 40
10.0
 40
10.0
 40
10.0
 40
11.0
 40
11.0
 40
11.0
 40
12.0
 40
12.0
 40
12.0
 40
13.0
 40
13.0
 40
13.0
 40
14.0
 40
14.0
 40
14.0
 40
15.0
 40
15.0
 40
15.0
 40
16.0
 40
16.0
 40
16.0
 40
17.0
 40
17.0
 40
17.0
 40
17.0
 10
97.22145586762173
 20
-143.7052679762265
 30
0.0
 10
97.05281844361875
 20
-143.3964151659738
 30
0.0
 10
96.82699243456062
 20
-143.1910874750529
 30
0.0
 10
96.74741072885135
 20
-143.1256306608332
 30
0.0
 10
96.48988984132892
 20
-143.464111292259
 30
0.0
 10
96.23633081361453
 20
-143.616384512707
 30
0.0
 10
96.06218123683516
 20
-143.7094020908088
 30
0.0
 10
96.06218123683516
 20
-143.7094020908088
 30
0.0
 10
95.92334388877958
 20
-143.5211276225399
 30
0.0
 10
95.92334388877958
 20
-143.5211276225399
 30
0.0
 10
96.01412215481592
 20
-143.485126374719
 30
0.0
 10
96.20119083966499
 20
-143.408989764495
 30
0.0
 10
96.40479598284325
 20
-143.2229546082915
 30
0.0
 10
96.63630639945204
 20
-143.0112534907229
 30
0.0
 10
96.79925941590436
 20
-142.7235880177045
 30
0.0
 10
96.90657414026988
 20
-142.4106010928696
 30
0.0
 10
96.90657414026988
 20
-142.4106010928696
 30
0.0
 10
96.57705075710574
 20
-142.4106010928696
 30
0.0
 10
96.57705075710574
 20
-142.4106010928696
 30
0.0
 10
96.44372556182657
 20
-142.4106010928696
 30
0.0
 10
96.26044648201128
 20
-142.4147352074519
 30
0.0
 10
96.12884383447474
 20
-142.433855487395
 30
0.0
 10
96.12884383447474
 20
-142.433855487395
 30
0.0
 10
96.12884383447474
 20
-142.2223266246007
 30
0.0
 10
96.12884383447474
 20
-142.2223266246007
 30
0.0
 10
96.18809947682104
 20
-142.2285277964741
 30
0.0
 10
96.41582028839605
 20
-142.2392075924784
 30
0.0
 10
96.4917846438458
 20
-142.2392075924784
 30
0.0
 10
96.4917846438458
 20
-142.2392075924784
 30
0.0
 10
96.7641194419548
 20
-142.2392075924784
 30
0.0
 10
96.7641194419548
 20
-142.2392075924784
 30
0.0
 10
96.94550371925321
 20
-142.2392075924784
 30
0.0
 10
96.96582978261618
 20
-142.2328341658307
 30
0.0
 10
96.98632810075343
 20
-142.2285277964741
 30
0.0
 10
97.02508542496248
 20
-142.2223266246007
 30
0.0
 10
97.05850285116941
 20
-142.1968329180098
 30
0.0
 10
97.0769341120155
 20
-142.1799519501321
 30
0.0
 10
97.0769341120155
 20
-142.1799519501321
 30
0.0
 10
97.21404891232844
 20
-142.3534125078144
 30
0.0
 10
97.21404891232844
 20
-142.3534125078144
 30
0.0
 10
97.17890893837888
 20
-142.3809732716964
 30
0.0
 10
97.16771237805183
 20
-142.3914808129264
 30
0.0
 10
97.12516544880899
 20
-142.4274820607473
 30
0.0
 10
97.0121663168928
 20
-142.6750121713625
 30
0.0
 10
96.94188636899369
 20
-142.8252183345194
 30
0.0
 10
96.85110810295737
 20
-142.9711181283197
 30
0.0
 10
97.12516544880899
 20
-143.1890204177618
 30
0.0
 10
97.32515324172775
 20
-143.474618833489
 30
0.0
 10
97.37148977600435
 20
-143.5528225010042
 30
0.0
 10
97.37148977600435
 20
-143.5528225010042
 30
0.0
 10
97.22145586762173
 20
-143.7052679762265
 30
0.0
 10
97.22145586762173
 20
-143.7052679762265
 30
0.0
  0
HATCH
  5
A2
330
9D
100
AcDbEntity
  8
_U+30EC_U+30A4_U+30E4_U+30FC 1
 62
   179
420
  2234388
100
AcDbHatch
 10
0.0
 20
0.0
 30
0.0
210
0.0
220
0.0
230
1.0
  2
SOLID
 70
     1
 71
     0
 91
        1
 92
        1
 93
        1
 72
     4
 94
        3
 73
     0
 74
     1
 95
       56
 96
       52
 40
0.0
 40
0.0
 40
0.0
 40
0.0
 40
1.0
 40
1.0
 40
1.0
 40
2.0
 40
2.0
 40
2.0
 40
3.0
 40
3.0
 40
3.0
 40
4.0
 40
4.0
 40
4.0
 40
5.0
 40
5.0
 40
5.0
 40
6.0
 40
6.0
 40
6.0
 40
7.0
 40
7.0
 40
7.0
 40
8.0
 40
8.0
 40
8.0
 40
9.0
 40
9.0
 40
9.0
 40
10.0
 40
10.0
 40
10.0
 40
11.0
 40
11.0
 40
11.0
 40
12.0
 40
12.0
 40
12.0
 40
13.0
 40
13.0
 40
13.0
 40
14.0
 40
14.0
 40
14.0
 40
15.0
 40
15.0
 40
15.0
 40
16.0
 40
16.0
 40
16.0
 40
17.0
 40
17.0
 40
17.0
 40
17.0
 10
97.22145586762173
 20
-143.7052679762265
 10
97.05281844361875
 20
-143.3964151659738
 10
96.82699243456062
 20
-143.1910874750529
 10
96.74741072885135
 20
-143.1256306608332
 10
96.48988984132892
 20
-143.464111292259
 10
96.23633081361453
 20
-143.616384512707
 10
96.06218123683516
 20
-143.7094020908088
 10
96.06218123683516
 20
-143.7094020908088
 10
95.92334388877958
 20
-143.5211276225399
 10
95.92334388877958
 20
-143.5211276225399
 10
96.01412215481592
 20
-143.485126374719
 10
96.20119083966499
 20
-143.408989764495
 10
96.40479598284325
 20
-143.2229546082915
 10
96.63630639945204
 20
-143.0112534907229
 10
96.79925941590436
 20
-142.7235880177045
 10
96.90657414026988
 20
-142.4106010928696
 10
96.90657414026988
 20
-142.4106010928696
 10
96.57705075710574
 20
-142.4106010928696
 10
96.57705075710574
 20
-142.4106010928696
 10
96.44372556182657
 20
-142.4106010928696
 10
96.26044648201128
 20
-142.4147352074519
 10
96.12884383447474
 20
-142.433855487395
 10
96.12884383447474
 20
-142.433855487395
 10
96.12884383447474
 20
-142.2223266246007
 10
96.12884383447474
 20
-142.2223266246007
 10
96.18809947682104
 20
-142.2285277964741
 10
96.41582028839605
 20
-142.2392075924784
 10
96.4917846438458
 20
-142.2392075924784
 10
96.4917846438458
 20
-142.2392075924784
 10
96.7641194419548
 20
-142.2392075924784
 10
96.7641194419548
 20
-142.2392075924784
 10
96.94550371925321
 20
-142.2392075924784
 10
96.96582978261618
 20
-142.2328341658307
 10
96.98632810075343
 20
-142.2285277964741
 10
97.02508542496248
 20
-142.2223266246007
 10
97.05850285116941
 20
-142.1968329180098
 10
97.0769341120155
 20
-142.1799519501321
 10
97.0769341120155
 20
-142.1799519501321
 10
97.21404891232844
 20
-142.3534125078144
 10
97.21404891232844
 20
-142.3534125078144
 10
97.17890893837888
 20
-142.3809732716964
 10
97.16771237805183
 20
-142.3914808129264
 10
97.12516544880899
 20
-142.4274820607473
 10
97.0121663168928
 20
-142.6750121713625
 10
96.94188636899369
 20
-142.8252183345194
 10
96.85110810295737
 20
-142.9711181283197
 10
97.12516544880899
 20
-143.1890204177618
 10
97.32515324172775
 20
-143.474618833489
 10
97.37148977600435
 20
-143.5528225010042
 10
97.37148977600435
 20
-143.5528225010042
 10
97.22145586762173
 20
-143.7052679762265
 10
97.22145586762173
 20
-143.7052679762265
 97
        0
 97
        0
 75
     2
 76
     1
 98
        0
  0
SPLINE
  5
A3
330
9D
100
AcDbEntity
  8
_U+30EC_U+30A4_U+30E4_U+30FC 1
370
     0
100
AcDbSpline
210
0.0
220
0.0
230
1.0
 70
    11
 71
     3
 72
    47
 73
    43
 74
     0
 42
0.0000000001
 43
0.0000000001
 12
1.0
 22
0.0
 32
0.0
 13
1.0
 23
0.0
 33
0.0
 40
0.0
 40
0.0
 40
0.0
 40
0.0
 40
1.0
 40
1.0
 40
1.0
 40
2.0
 40
2.0
 40
2.0
 40
3.0
 40
3.0
 40
3.0
 40
4.0
 40
4.0
 40
4.0
 40
5.0
 40
5.0
 40
5.0
 40
6.0
 40
6.0
 40
6.0
 40
7.0
 40
7.0
 40
7.0
 40
8.0
 40
8.0
 40
8.0
 40
9.0
 40
9.0
 40
9.0
 40
10.0
 40
10.0
 40
10.0
 40
11.0
 40
11.0
 40
11.0
 40
12.0
 40
12.0
 40
12.0
 40
13.0
 40
13.0
 40
13.0
 40
14.0
 40
14.0
 40
14.0
 40
14.0
 10
99.06027558287383
 20
-143.5550618130696
 30
0.0
 10
98.98258867968144
 20
-143.464111292259
 30
0.0
 10
98.87889130557542
 20
-143.3392265809187
 30
0.0
 10
98.72713484945017
 20
-143.1044433235989
 30
0.0
 10
98.64738088896664
 20
-142.9838649816151
 30
0.0
 10
98.4937296303245
 20
-142.74684241223
 30
0.0
 10
98.41966007739161
 20
-142.6326374968939
 30
0.0
 10
98.36402178530483
 20
-142.5459933454399
 30
0.0
 10
98.34559052445874
 20
-142.5204996388491
 30
0.0
 10
98.30476614295854
 20
-142.5204996388491
 30
0.0
 10
98.26600881874947
 20
-142.5204996388491
 30
0.0
 10
98.21588267943909
 20
-142.5649413706088
 30
0.0
 10
98.20106876885251
 20
-142.5818223384865
 30
0.0
 10
98.14370792902311
 20
-142.6453843501893
 30
0.0
 10
98.0160671412946
 20
-142.7976575706374
 30
0.0
 10
97.94372013610435
 20
-142.8822346648003
 30
0.0
 10
97.87895234098166
 20
-142.9563042177332
 30
0.0
 10
97.78266192216893
 20
-143.0853230436558
 30
0.0
 10
97.71978892956311
 20
-143.1636989659452
 30
0.0
 10
97.71978892956311
 20
-143.1636989659452
 30
0.0
 10
97.54925670304324
 20
-142.9902384082629
 30
0.0
 10
97.54925670304324
 20
-142.9902384082629
 30
0.0
 10
97.67534719780339
 20
-142.8906751487391
 30
0.0
 10
97.79937063527238
 20
-142.7575222082342
 30
0.0
 10
97.81418454585896
 20
-142.7404689855823
 30
0.0
 10
97.88825409879183
 20
-142.6579589487105
 30
0.0
 10
98.03088105188117
 20
-142.4972452443236
 30
0.0
 10
98.09564884700387
 20
-142.4211086340996
 30
0.0
 10
98.14181312650622
 20
-142.3661593611099
 30
0.0
 10
98.23069659002566
 20
-142.2877834388204
 30
0.0
 10
98.3140679007687
 20
-142.2877834388204
 30
0.0
 10
98.41776527487472
 20
-142.2877834388204
 30
0.0
 10
98.48253306999743
 20
-142.3871744435699
 30
0.0
 10
98.55488007518767
 20
-142.4972452443236
 30
0.0
 10
98.63446178089694
 20
-142.6157565290162
 30
0.0
 10
98.79741479734926
 20
-142.8589802702749
 30
0.0
 10
98.89370521616199
 20
-143.002813006784
 30
0.0
 10
98.94934350824877
 20
-143.0875623557212
 30
0.0
 10
99.0640651879076
 20
-143.2291557801649
 30
0.0
 10
99.2308078093937
 20
-143.3941758539084
 30
0.0
 10
99.2308078093937
 20
-143.3941758539084
 30
0.0
 10
99.06027558287383
 20
-143.5550618130696
 30
0.0
 10
99.06027558287383
 20
-143.5550618130696
 30
0.0
  0
SPLINE
  5
A4
330
9D
100
AcDbEntity
  8
_U+30EC_U+30A4_U+30E4_U+30FC 1
370
     0
100
AcDbSpline
210
0.0
220
0.0
230
1.0
 70
    11
 71
     3
 72
    17
 73
    13
 74
     0
 42
0.0000000001
 43
0.0000000001
 12
1.0
 22
0.0
 32
0.0
 13
1.0
 23
0.0
 33
0.0
 40
0.0
 40
0.0
 40
0.0
 40
0.0
 40
1.0
 40
1.0
 40
1.0
 40
2.0
 40
2.0
 40
2.0
 40
3.0
 40
3.0
 40
3.0
 40
4.0
 40
4.0
 40
4.0
 40
4.0
 10
99.01772865363098
 20
-142.5289401227879
 30
0.0
 10
98.92333303733514
 20
-142.4252427486819
 30
0.0
 10
98.85856524221245
 20
-142.378733959631
 30
0.0
 10
98.80671655515944
 20
-142.3429049665844
 30
0.0
 10
98.80671655515944
 20
-142.3429049665844
 30
0.0
 10
98.8881930633856
 20
-142.236968280413
 30
0.0
 10
98.8881930633856
 20
-142.236968280413
 30
0.0
 10
98.95485566102518
 20
-142.2793429548816
 30
0.0
 10
99.0158338511141
 20
-142.3280910559978
 30
0.0
 10
99.10299476689092
 20
-142.4190415768084
 30
0.0
 10
99.10299476689092
 20
-142.4190415768084
 30
0.0
 10
99.01772865363098
 20
-142.5289401227879
 30
0.0
 10
99.01772865363098
 20
-142.5289401227879
 30
0.0
  0
SPLINE
  5
A5
330
9D
100
AcDbEntity
  8
_U+30EC_U+30A4_U+30E4_U+30FC 1
370
     0
100
AcDbSpline
210
0.0
220
0.0
230
1.0
 70
    11
 71
     3
 72
    17
 73
    13
 74
     0
 42
0.0000000001
 43
0.0000000001
 12
1.0
 22
0.0
 32
0.0
 13
1.0
 23
0.0
 33
0.0
 40
0.0
 40
0.0
 40
0.0
 40
0.0
 40
1.0
 40
1.0
 40
1.0
 40
2.0
 40
2.0
 40
2.0
 40
3.0
 40
3.0
 40
3.0
 40
4.0
 40
4.0
 40
4.0
 40
4.0
 10
99.21771644654974
 20
-142.3851073862787
 30
0.0
 10
99.1104017221842
 20
-142.2517821909996
 30
0.0
 10
99.04925127732102
 20
-142.2137138858876
 30
0.0
 10
99.01411130337148
 20
-142.1926988034275
 30
0.0
 10
99.01411130337148
 20
-142.1926988034275
 30
0.0
 10
99.10109996437403
 20
-142.0869343720304
 30
0.0
 10
99.10109996437403
 20
-142.0869343720304
 30
0.0
 10
99.16965736453051
 20
-142.1334431610812
 30
0.0
 10
99.22891300687681
 20
-142.1820190074233
 30
0.0
 10
99.30849471258608
 20
-142.2752088402993
 30
0.0
 10
99.30849471258608
 20
-142.2752088402993
 30
0.0
 10
99.21771644654974
 20
-142.3851073862787
 30
0.0
 10
99.21771644654974
 20
-142.3851073862787
 30
0.0
  0
HATCH
  5
A6
330
9D
100
AcDbEntity
  8
_U+30EC_U+30A4_U+30E4_U+30FC 1
 62
   179
420
  2234388
100
AcDbHatch
 10
0.0
 20
0.0
 30
0.0
210
0.0
220
0.0
230
1.0
  2
SOLID
 70
     1
 71
     0
 91
        3
 92
        1
 93
        1
 72
     4
 94
        3
 73
     0
 74
     1
 95
       47
 96
       43
 40
0.0
 40
0.0
 40
0.0
 40
0.0
 40
1.0
 40
1.0
 40
1.0
 40
2.0
 40
2.0
 40
2.0
 40
3.0
 40
3.0
 40
3.0
 40
4.0
 40
4.0
 40
4.0
 40
5.0
 40
5.0
 40
5.0
 40
6.0
 40
6.0
 40
6.0
 40
7.0
 40
7.0
 40
7.0
 40
8.0
 40
8.0
 40
8.0
 40
9.0
 40
9.0
 40
9.0
 40
10.0
 40
10.0
 40
10.0
 40
11.0
 40
11.0
 40
11.0
 40
12.0
 40
12.0
 40
12.0
 40
13.0
 40
13.0
 40
13.0
 40
14.0
 40
14.0
 40
14.0
 40
14.0
 10
99.06027558287383
 20
-143.5550618130696
 10
98.98258867968144
 20
-143.464111292259
 10
98.87889130557542
 20
-143.3392265809187
 10
98.72713484945017
 20
-143.1044433235989
 10
98.64738088896664
 20
-142.9838649816151
 10
98.4937296303245
 20
-142.74684241223
 10
98.41966007739161
 20
-142.6326374968939
 10
98.36402178530483
 20
-142.5459933454399
 10
98.34559052445874
 20
-142.5204996388491
 10
98.30476614295854
 20
-142.5204996388491
 10
98.26600881874947
 20
-142.5204996388491
 10
98.21588267943909
 20
-142.5649413706088
 10
98.20106876885251
 20
-142.5818223384865
 10
98.14370792902311
 20
-142.6453843501893
 10
98.0160671412946
 20
-142.7976575706374
 10
97.94372013610435
 20
-142.8822346648003
 10
97.87895234098166
 20
-142.9563042177332
 10
97.78266192216893
 20
-143.0853230436558
 10
97.71978892956311
 20
-143.1636989659452
 10
97.71978892956311
 20
-143.1636989659452
 10
97.54925670304324
 20
-142.9902384082629
 10
97.54925670304324
 20
-142.9902384082629
 10
97.67534719780339
 20
-142.8906751487391
 10
97.79937063527238
 20
-142.7575222082342
 10
97.81418454585896
 20
-142.7404689855823
 10
97.88825409879183
 20
-142.6579589487105
 10
98.03088105188117
 20
-142.4972452443236
 10
98.09564884700387
 20
-142.4211086340996
 10
98.14181312650622
 20
-142.3661593611099
 10
98.23069659002566
 20
-142.2877834388204
 10
98.3140679007687
 20
-142.2877834388204
 10
98.41776527487472
 20
-142.2877834388204
 10
98.48253306999743
 20
-142.3871744435699
 10
98.55488007518767
 20
-142.4972452443236
 10
98.63446178089694
 20
-142.6157565290162
 10
98.79741479734926
 20
-142.8589802702749
 10
98.89370521616199
 20
-143.002813006784
 10
98.94934350824877
 20
-143.0875623557212
 10
99.0640651879076
 20
-143.2291557801649
 10
99.2308078093937
 20
-143.3941758539084
 10
99.2308078093937
 20
-143.3941758539084
 10
99.06027558287383
 20
-143.5550618130696
 10
99.06027558287383
 20
-143.5550618130696
 97
        0
 97
        0
 92
        1
 93
        1
 72
     4
 94
        3
 73
     0
 74
     1
 95
       17
 96
       13
 40
0.0
 40
0.0
 40
0.0
 40
0.0
 40
1.0
 40
1.0
 40
1.0
 40
2.0
 40
2.0
 40
2.0
 40
3.0
 40
3.0
 40
3.0
 40
4.0
 40
4.0
 40
4.0
 40
4.0
 10
99.01772865363098
 20
-142.5289401227879
 10
98.92333303733514
 20
-142.4252427486819
 10
98.85856524221245
 20
-142.378733959631
 10
98.80671655515944
 20
-142.3429049665844
 10
98.80671655515944
 20
-142.3429049665844
 10
98.8881930633856
 20
-142.236968280413
 10
98.8881930633856
 20
-142.236968280413
 10
98.95485566102518
 20
-142.2793429548816
 10
99.0158338511141
 20
-142.3280910559978
 10
99.10299476689092
 20
-142.4190415768084
 10
99.10299476689092
 20
-142.4190415768084
 10
99.01772865363098
 20
-142.5289401227879
 10
99.01772865363098
 20
-142.5289401227879
 97
        0
 97
        0
 92
        1
 93
        1
 72
     4
 94
        3
 73
     0
 74
     1
 95
       17
 96
       13
 40
0.0
 40
0.0
 40
0.0
 40
0.0
 40
1.0
 40
1.0
 40
1.0
 40
2.0
 40
2.0
 40
2.0
 40
3.0
 40
3.0
 40
3.0
 40
4.0
 40
4.0
 40
4.0
 40
4.0
 10
99.21771644654974
 20
-142.3851073862787
 10
99.1104017221842
 20
-142.2517821909996
 10
99.04925127732102
 20
-142.2137138858876
 10
99.01411130337148
 20
-142.1926988034275
 10
99.01411130337148
 20
-142.1926988034275
 10
99.10109996437403
 20
-142.0869343720304
 10
99.10109996437403
 20
-142.0869343720304
 10
99.16965736453051
 20
-142.1334431610812
 10
99.22891300687681
 20
-142.1820190074233
 10
99.30849471258608
 20
-142.2752088402993
 10
99.30849471258608
 20
-142.2752088402993
 10
99.21771644654974
 20
-142.3851073862787
 10
99.21771644654974
 20
-142.3851073862787
 97
        0
 97
        0
 75
     2
 76
     1
 98
        0
  0
SPLINE
  5
A7
330
9D
100
AcDbEntity
  8
_U+30EC_U+30A4_U+30E4_U+30FC 1
370
     0
100
AcDbSpline
210
0.0
220
0.0
230
1.0
 70
    11
 71
     3
 72
    35
 73
    31
 74
     0
 42
0.0000000001
 43
0.0000000001
 12
1.0
 22
0.0
 32
0.0
 13
1.0
 23
0.0
 33
0.0
 40
0.0
 40
0.0
 40
0.0
 40
0.0
 40
1.0
 40
1.0
 40
1.0
 40
2.0
 40
2.0
 40
2.0
 40
3.0
 40
3.0
 40
3.0
 40
4.0
 40
4.0
 40
4.0
 40
5.0
 40
5.0
 40
5.0
 40
6.0
 40
6.0
 40
6.0
 40
7.0
 40
7.0
 40
7.0
 40
8.0
 40
8.0
 40
8.0
 40
9.0
 40
9.0
 40
9.0
 40
10.0
 40
10.0
 40
10.0
 40
10.0
 10
99.65489906362795
 20
-142.2243936818918
 30
0.0
 10
99.65300426111106
 20
-142.2877834388204
 30
0.0
 10
99.65300426111106
 20
-142.4231756913908
 30
0.0
 10
99.65300426111106
 20
-142.4888047603847
 30
0.0
 10
99.65300426111106
 20
-142.4888047603847
 30
0.0
 10
99.65300426111106
 20
-142.7955905133462
 30
0.0
 10
99.65300426111106
 20
-142.7955905133462
 30
0.0
 10
99.65300426111106
 20
-142.8589802702749
 30
0.0
 10
99.66230601892123
 20
-143.0853230436558
 30
0.0
 10
99.66592336918075
 20
-143.1488850553586
 30
0.0
 10
99.66592336918075
 20
-143.1488850553586
 30
0.0
 10
99.45680607322608
 20
-143.1488850553586
 30
0.0
 10
99.45680607322608
 20
-143.1488850553586
 30
0.0
 10
99.46972518129577
 20
-143.0536281651915
 30
0.0
 10
99.47161998381266
 20
-142.8929144608045
 30
0.0
 10
99.47161998381266
 20
-142.7933512012808
 30
0.0
 10
99.47161998381266
 20
-142.7933512012808
 30
0.0
 10
99.47161998381266
 20
-142.4486693979816
 30
0.0
 10
99.47161998381266
 20
-142.4486693979816
 30
0.0
 10
99.47161998381266
 20
-142.3661593611099
 30
0.0
 10
99.46972518129577
 20
-142.1926988034275
 30
0.0
 10
99.465935576262
 20
-142.1143228811381
 30
0.0
 10
99.465935576262
 20
-142.1143228811381
 30
0.0
 10
99.65110945859418
 20
-142.1270697344335
 30
0.0
 10
99.65110945859418
 20
-142.1270697344335
 30
0.0
 10
99.69193384009438
 20
-142.1291367917247
 30
0.0
 10
99.70674775068096
 20
-142.1418836450201
 30
0.0
 10
99.70674775068096
 20
-142.1672050968367
 30
0.0
 10
99.70674775068096
 20
-142.188392434071
 30
0.0
 10
99.68073727976731
 20
-142.2075127140141
 30
0.0
 10
99.65489906362795
 20
-142.2243936818918
 30
0.0
  0
SPLINE
  5
A8
330
9D
100
AcDbEntity
  8
_U+30EC_U+30A4_U+30E4_U+30FC 1
370
     0
100
AcDbSpline
210
0.0
220
0.0
230
1.0
 70
    11
 71
     3
 72
    38
 73
    34
 74
     0
 42
0.0000000001
 43
0.0000000001
 12
1.0
 22
0.0
 32
0.0
 13
1.0
 23
0.0
 33
0.0
 40
0.0
 40
0.0
 40
0.0
 40
0.0
 40
1.0
 40
1.0
 40
1.0
 40
2.0
 40
2.0
 40
2.0
 40
3.0
 40
3.0
 40
3.0
 40
4.0
 40
4.0
 40
4.0
 40
5.0
 40
5.0
 40
5.0
 40
6.0
 40
6.0
 40
6.0
 40
7.0
 40
7.0
 40
7.0
 40
8.0
 40
8.0
 40
8.0
 40
9.0
 40
9.0
 40
9.0
 40
10.0
 40
10.0
 40
10.0
 40
11.0
 40
11.0
 40
11.0
 40
11.0
 10
100.4862006042187
 20
-142.1672050968367
 30
0.0
 10
100.4658745408558
 20
-142.1840860647144
 30
0.0
 10
100.4641519931131
 20
-142.1840860647144
 30
0.0
 10
100.4529554327861
 20
-142.198899975301
 30
0.0
 10
100.4493380825266
 20
-142.3005302921158
 30
0.0
 10
100.4436536749759
 20
-142.74684241223
 30
0.0
 10
100.4400363247164
 20
-142.8357258757494
 30
0.0
 10
100.4326293694231
 20
-142.9795586122586
 30
0.0
 10
100.4159206563196
 20
-143.3116658170367
 30
0.0
 10
100.193711997521
 20
-143.5423149597742
 30
0.0
 10
100.1640841763479
 20
-143.5740098382385
 30
0.0
 10
99.97891029401569
 20
-143.7602172492162
 30
0.0
 10
99.81595727756337
 20
-143.8322197448579
 30
0.0
 10
99.81595727756337
 20
-143.8322197448579
 30
0.0
 10
99.65851641388745
 20
-143.6437730218148
 30
0.0
 10
99.65851641388745
 20
-143.6437730218148
 30
0.0
 10
99.72517901152705
 20
-143.6291313660024
 30
0.0
 10
99.87159556965017
 20
-143.5972642327639
 30
0.0
 10
100.0436780891384
 20
-143.4238036750816
 30
0.0
 10
100.2639919454201
 20
-143.2059013856395
 30
0.0
 10
100.2639919454201
 20
-142.9414903071466
 30
0.0
 10
100.2639919454201
 20
-142.4295491180385
 30
0.0
 10
100.2639919454201
 20
-142.188392434071
 30
0.0
 10
100.2639919454201
 20
-142.1756455807756
 30
0.0
 10
100.2603745951606
 20
-142.0762545760261
 30
0.0
 10
100.2603745951606
 20
-142.0762545760261
 30
0.0
 10
100.4510606302692
 20
-142.0910684866127
 30
0.0
 10
100.4510606302692
 20
-142.0910684866127
 30
0.0
 10
100.4713866936322
 20
-142.0931355439038
 30
0.0
 10
100.5010145148053
 20
-142.0953748559692
 30
0.0
 10
100.5010145148053
 20
-142.1334431610812
 30
0.0
 10
100.5010145148053
 20
-142.1439507023112
 30
0.0
 10
100.4992919670627
 20
-142.1566975556067
 30
0.0
 10
100.4862006042187
 20
-142.1672050968367
 30
0.0
  0
HATCH
  5
A9
330
9D
100
AcDbEntity
  8
_U+30EC_U+30A4_U+30E4_U+30FC 1
 62
   179
420
  2234388
100
AcDbHatch
 10
0.0
 20
0.0
 30
0.0
210
0.0
220
0.0
230
1.0
  2
SOLID
 70
     1
 71
     0
 91
        2
 92
        1
 93
        1
 72
     4
 94
        3
 73
     0
 74
     1
 95
       35
 96
       31
 40
0.0
 40
0.0
 40
0.0
 40
0.0
 40
1.0
 40
1.0
 40
1.0
 40
2.0
 40
2.0
 40
2.0
 40
3.0
 40
3.0
 40
3.0
 40
4.0
 40
4.0
 40
4.0
 40
5.0
 40
5.0
 40
5.0
 40
6.0
 40
6.0
 40
6.0
 40
7.0
 40
7.0
 40
7.0
 40
8.0
 40
8.0
 40
8.0
 40
9.0
 40
9.0
 40
9.0
 40
10.0
 40
10.0
 40
10.0
 40
10.0
 10
99.65489906362795
 20
-142.2243936818918
 10
99.65300426111106
 20
-142.2877834388204
 10
99.65300426111106
 20
-142.4231756913908
 10
99.65300426111106
 20
-142.4888047603847
 10
99.65300426111106
 20
-142.4888047603847
 10
99.65300426111106
 20
-142.7955905133462
 10
99.65300426111106
 20
-142.7955905133462
 10
99.65300426111106
 20
-142.8589802702749
 10
99.66230601892123
 20
-143.0853230436558
 10
99.66592336918075
 20
-143.1488850553586
 10
99.66592336918075
 20
-143.1488850553586
 10
99.45680607322608
 20
-143.1488850553586
 10
99.45680607322608
 20
-143.1488850553586
 10
99.46972518129577
 20
-143.0536281651915
 10
99.47161998381266
 20
-142.8929144608045
 10
99.47161998381266
 20
-142.7933512012808
 10
99.47161998381266
 20
-142.7933512012808
 10
99.47161998381266
 20
-142.4486693979816
 10
99.47161998381266
 20
-142.4486693979816
 10
99.47161998381266
 20
-142.3661593611099
 10
99.46972518129577
 20
-142.1926988034275
 10
99.465935576262
 20
-142.1143228811381
 10
99.465935576262
 20
-142.1143228811381
 10
99.65110945859418
 20
-142.1270697344335
 10
99.65110945859418
 20
-142.1270697344335
 10
99.69193384009438
 20
-142.1291367917247
 10
99.70674775068096
 20
-142.1418836450201
 10
99.70674775068096
 20
-142.1672050968367
 10
99.70674775068096
 20
-142.188392434071
 10
99.68073727976731
 20
-142.2075127140141
 10
99.65489906362795
 20
-142.2243936818918
 97
        0
 97
        0
 92
        1
 93
        1
 72
     4
 94
        3
 73
     0
 74
     1
 95
       38
 96
       34
 40
0.0
 40
0.0
 40
0.0
 40
0.0
 40
1.0
 40
1.0
 40
1.0
 40
2.0
 40
2.0
 40
2.0
 40
3.0
 40
3.0
 40
3.0
 40
4.0
 40
4.0
 40
4.0
 40
5.0
 40
5.0
 40
5.0
 40
6.0
 40
6.0
 40
6.0
 40
7.0
 40
7.0
 40
7.0
 40
8.0
 40
8.0
 40
8.0
 40
9.0
 40
9.0
 40
9.0
 40
10.0
 40
10.0
 40
10.0
 40
11.0
 40
11.0
 40
11.0
 40
11.0
 10
100.4862006042187
 20
-142.1672050968367
 10
100.4658745408558
 20
-142.1840860647144
 10
100.4641519931131
 20
-142.1840860647144
 10
100.4529554327861
 20
-142.198899975301
 10
100.4493380825266
 20
-142.3005302921158
 10
100.4436536749759
 20
-142.74684241223
 10
100.4400363247164
 20
-142.8357258757494
 10
100.4326293694231
 20
-142.9795586122586
 10
100.4159206563196
 20
-143.3116658170367
 10
100.193711997521
 20
-143.5423149597742
 10
100.1640841763479
 20
-143.5740098382385
 10
99.97891029401569
 20
-143.7602172492162
 10
99.81595727756337
 20
-143.8322197448579
 10
99.81595727756337
 20
-143.8322197448579
 10
99.65851641388745
 20
-143.6437730218148
 10
99.65851641388745
 20
-143.6437730218148
 10
99.72517901152705
 20
-143.6291313660024
 10
99.87159556965017
 20
-143.5972642327639
 10
100.0436780891384
 20
-143.4238036750816
 10
100.2639919454201
 20
-143.2059013856395
 10
100.2639919454201
 20
-142.9414903071466
 10
100.2639919454201
 20
-142.4295491180385
 10
100.2639919454201
 20
-142.188392434071
 10
100.2639919454201
 20
-142.1756455807756
 10
100.2603745951606
 20
-142.0762545760261
 10
100.2603745951606
 20
-142.0762545760261
 10
100.4510606302692
 20
-142.0910684866127
 10
100.4510606302692
 20
-142.0910684866127
 10
100.4713866936322
 20
-142.0931355439038
 10
100.5010145148053
 20
-142.0953748559692
 10
100.5010145148053
 20
-142.1334431610812
 10
100.5010145148053
 20
-142.1439507023112
 10
100.4992919670627
 20
-142.1566975556067
 10
100.4862006042187
 20
-142.1672050968367
 97
        0
 97
        0
 75
     2
 76
     1
 98
        0
  0
SPLINE
  5
AA
330
9D
100
AcDbEntity
  8
_U+30EC_U+30A4_U+30E4_U+30FC 1
370
     0
100
AcDbSpline
210
0.0
220
0.0
230
1.0
 70
    11
 71
     3
 72
   104
 73
   100
 74
     0
 42
0.0000000001
 43
0.0000000001
 12
1.0
 22
0.0
 32
0.0
 13
1.0
 23
0.0
 33
0.0
 40
0.0
 40
0.0
 40
0.0
 40
0.0
 40
1.0
 40
1.0
 40
1.0
 40
2.0
 40
2.0
 40
2.0
 40
3.0
 40
3.0
 40
3.0
 40
4.0
 40
4.0
 40
4.0
 40
5.0
 40
5.0
 40
5.0
 40
6.0
 40
6.0
 40
6.0
 40
7.0
 40
7.0
 40
7.0
 40
8.0
 40
8.0
 40
8.0
 40
9.0
 40
9.0
 40
9.0
 40
10.0
 40
10.0
 40
10.0
 40
11.0
 40
11.0
 40
11.0
 40
12.0
 40
12.0
 40
12.0
 40
13.0
 40
13.0
 40
13.0
 40
14.0
 40
14.0
 40
14.0
 40
15.0
 40
15.0
 40
15.0
 40
16.0
 40
16.0
 40
16.0
 40
17.0
 40
17.0
 40
17.0
 40
18.0
 40
18.0
 40
18.0
 40
19.0
 40
19.0
 40
19.0
 40
20.0
 40
20.0
 40
20.0
 40
21.0
 40
21.0
 40
21.0
 40
22.0
 40
22.0
 40
22.0
 40
23.0
 40
23.0
 40
23.0
 40
24.0
 40
24.0
 40
24.0
 40
25.0
 40
25.0
 40
25.0
 40
26.0
 40
26.0
 40
26.0
 40
27.0
 40
27.0
 40
27.0
 40
28.0
 40
28.0
 40
28.0
 40
29.0
 40
29.0
 40
29.0
 40
30.0
 40
30.0
 40
30.0
 40
31.0
 40
31.0
 40
31.0
 40
32.0
 40
32.0
 40
32.0
 40
33.0
 40
33.0
 40
33.0
 40
33.0
 10
101.8177300092678
 20
-143.8067260382671
 30
0.0
 10
101.8177300092678
 20
-143.8067260382671
 30
0.0
 10
101.265997967305
 20
-143.8067260382671
 30
0.0
 10
101.265997967305
 20
-143.8067260382671
 30
0.0
 10
101.078929282456
 20
-143.8067260382671
 30
0.0
 10
100.88996579509
 20
-143.8110324076236
 30
0.0
 10
100.7030693650152
 20
-143.8258463182102
 30
0.0
 10
100.7030693650152
 20
-143.8258463182102
 30
0.0
 10
100.7030693650152
 20
-143.616384512707
 30
0.0
 10
100.7030693650152
 20
-143.616384512707
 30
0.0
 10
100.8141736944145
 20
-143.6248249966459
 30
0.0
 10
100.8344997577775
 20
-143.626892053937
 30
0.0
 10
101.0160562898502
 20
-143.6311984232936
 30
0.0
 10
101.0160562898502
 20
-143.6311984232936
 30
0.0
 10
101.0160562898502
 20
-143.0240003440183
 30
0.0
 10
101.0160562898502
 20
-143.0240003440183
 30
0.0
 10
101.0160562898502
 20
-142.9246093392688
 30
0.0
 10
101.0160562898502
 20
-142.8357258757494
 30
0.0
 10
101.0029649270062
 20
-142.5015516136802
 30
0.0
 10
101.0029649270062
 20
-142.5015516136802
 30
0.0
 10
101.2289631908386
 20
-142.5184325815579
 30
0.0
 10
101.2289631908386
 20
-142.5184325815579
 30
0.0
 10
101.2454996491678
 20
-142.5204996388491
 30
0.0
 10
101.2566962094949
 20
-142.5311794348533
 30
0.0
 10
101.2566962094949
 20
-142.5459933454399
 30
0.0
 10
101.2566962094949
 20
-142.5649413706088
 30
0.0
 10
101.2437771014252
 20
-142.5733818545476
 30
0.0
 10
101.2086371274756
 20
-142.5945691917819
 30
0.0
 10
101.2086371274756
 20
-142.6431450381239
 30
0.0
 10
101.2048475224419
 20
-142.8293524491017
 30
0.0
 10
101.2048475224419
 20
-143.0134928027883
 30
0.0
 10
101.2048475224419
 20
-143.0134928027883
 30
0.0
 10
101.2048475224419
 20
-143.6353325378759
 30
0.0
 10
101.2048475224419
 20
-143.6353325378759
 30
0.0
 10
101.2048475224419
 20
-143.6353325378759
 30
0.0
 10
101.265997967305
 20
-143.6353325378759
 30
0.0
 10
101.265997967305
 20
-143.6353325378759
 30
0.0
 10
101.265997967305
 20
-143.6353325378759
 30
0.0
 10
101.482522218553
 20
-143.6353325378759
 30
0.0
 10
101.482522218553
 20
-143.6353325378759
 30
0.0
 10
101.482522218553
 20
-143.6353325378759
 30
0.0
 10
101.482522218553
 20
-142.6431450381239
 30
0.0
 10
101.482522218553
 20
-142.6431450381239
 30
0.0
 10
101.482522218553
 20
-142.6285033823116
 30
0.0
 10
101.4807996708104
 20
-142.5713147972565
 30
0.0
 10
101.4807996708104
 20
-142.5585679439611
 30
0.0
 10
101.4770100657766
 20
-142.3554795651056
 30
0.0
 10
101.475287518034
 20
-142.0254394176187
 30
0.0
 10
101.475287518034
 20
-141.9980509085109
 30
0.0
 10
101.475287518034
 20
-141.9980509085109
 30
0.0
 10
101.6992187245752
 20
-142.0149318763886
 30
0.0
 10
101.6992187245752
 20
-142.0149318763886
 30
0.0
 10
101.703008329609
 20
-142.0149318763886
 30
0.0
 10
101.7271239980057
 20
-142.0169989336798
 30
0.0
 10
101.7271239980057
 20
-142.0361192136229
 30
0.0
 10
101.7271239980057
 20
-142.0509331242095
 30
0.0
 10
101.7140326351618
 20
-142.0614406654395
 30
0.0
 10
101.7085204823854
 20
-142.0657470347961
 30
0.0
 10
101.6974961768326
 20
-142.0741875187349
 30
0.0
 10
101.6769978586953
 20
-142.0910684866127
 30
0.0
 10
101.6751030561785
 20
-142.0931355439038
 30
0.0
 10
101.6695909034021
 20
-142.2180202552441
 30
0.0
 10
101.6585665978493
 20
-142.4612439965028
 30
0.0
 10
101.6659735531425
 20
-142.6410779808328
 30
0.0
 10
101.6659735531425
 20
-142.6410779808328
 30
0.0
 10
101.6678683556594
 20
-142.6875867698837
 30
0.0
 10
101.6678683556594
 20
-142.6875867698837
 30
0.0
 10
101.6678683556594
 20
-142.6875867698837
 30
0.0
 10
101.9178100331143
 20
-142.6875867698837
 30
0.0
 10
101.9178100331143
 20
-142.6875867698837
 30
0.0
 10
101.9713812679099
 20
-142.6875867698837
 30
0.0
 10
102.1880777739322
 20
-142.6834526553014
 30
0.0
 10
102.2437160660189
 20
-142.6791462859448
 30
0.0
 10
102.2437160660189
 20
-142.6791462859448
 30
0.0
 10
102.2437160660189
 20
-142.888608091448
 30
0.0
 10
102.2437160660189
 20
-142.888608091448
 30
0.0
 10
102.2270073529155
 20
-142.888608091448
 30
0.0
 10
102.2066812895525
 20
-142.8865410341568
 30
0.0
 10
102.1214151762926
 20
-142.8865410341568
 30
0.0
 10
102.0898925526025
 20
-142.8865410341568
 30
0.0
 10
101.9455430517706
 20
-142.8822346648003
 30
0.0
 10
101.9178100331143
 20
-142.8822346648003
 30
0.0
 10
101.9178100331143
 20
-142.8822346648003
 30
0.0
 10
101.6678683556594
 20
-142.8822346648003
 30
0.0
 10
101.6678683556594
 20
-142.8822346648003
 30
0.0
 10
101.6678683556594
 20
-142.8822346648003
 30
0.0
 10
101.6678683556594
 20
-143.6353325378759
 30
0.0
 10
101.6678683556594
 20
-143.6353325378759
 30
0.0
 10
101.6678683556594
 20
-143.6353325378759
 30
0.0
 10
101.8177300092678
 20
-143.6353325378759
 30
0.0
 10
101.8177300092678
 20
-143.6353325378759
 30
0.0
 10
102.0085882991506
 20
-143.6353325378759
 30
0.0
 10
102.1973795317423
 20
-143.6311984232936
 30
0.0
 10
102.3880655668509
 20
-143.616384512707
 30
0.0
 10
102.3880655668509
 20
-143.616384512707
 30
0.0
 10
102.3880655668509
 20
-143.8258463182102
 30
0.0
 10
102.3880655668509
 20
-143.8258463182102
 30
0.0
 10
102.1419134944298
 20
-143.8067260382671
 30
0.0
 10
101.8399508751477
 20
-143.8067260382671
 30
0.0
 10
101.8177300092678
 20
-143.8067260382671
 30
0.0
  0
HATCH
  5
AB
330
9D
100
AcDbEntity
  8
_U+30EC_U+30A4_U+30E4_U+30FC 1
 62
   179
420
  2234388
100
AcDbHatch
 10
0.0
 20
0.0
 30
0.0
210
0.0
220
0.0
230
1.0
  2
SOLID
 70
     1
 71
     0
 91
        1
 92
        1
 93
        1
 72
     4
 94
        3
 73
     0
 74
     1
 95
      104
 96
      100
 40
0.0
 40
0.0
 40
0.0
 40
0.0
 40
1.0
 40
1.0
 40
1.0
 40
2.0
 40
2.0
 40
2.0
 40
3.0
 40
3.0
 40
3.0
 40
4.0
 40
4.0
 40
4.0
 40
5.0
 40
5.0
 40
5.0
 40
6.0
 40
6.0
 40
6.0
 40
7.0
 40
7.0
 40
7.0
 40
8.0
 40
8.0
 40
8.0
 40
9.0
 40
9.0
 40
9.0
 40
10.0
 40
10.0
 40
10.0
 40
11.0
 40
11.0
 40
11.0
 40
12.0
 40
12.0
 40
12.0
 40
13.0
 40
13.0
 40
13.0
 40
14.0
 40
14.0
 40
14.0
 40
15.0
 40
15.0
 40
15.0
 40
16.0
 40
16.0
 40
16.0
 40
17.0
 40
17.0
 40
17.0
 40
18.0
 40
18.0
 40
18.0
 40
19.0
 40
19.0
 40
19.0
 40
20.0
 40
20.0
 40
20.0
 40
21.0
 40
21.0
 40
21.0
 40
22.0
 40
22.0
 40
22.0
 40
23.0
 40
23.0
 40
23.0
 40
24.0
 40
24.0
 40
24.0
 40
25.0
 40
25.0
 40
25.0
 40
26.0
 40
26.0
 40
26.0
 40
27.0
 40
27.0
 40
27.0
 40
28.0
 40
28.0
 40
28.0
 40
29.0
 40
29.0
 40
29.0
 40
30.0
 40
30.0
 40
30.0
 40
31.0
 40
31.0
 40
31.0
 40
32.0
 40
32.0
 40
32.0
 40
33.0
 40
33.0
 40
33.0
 40
33.0
 10
101.8177300092678
 20
-143.8067260382671
 10
101.8177300092678
 20
-143.8067260382671
 10
101.265997967305
 20
-143.8067260382671
 10
101.265997967305
 20
-143.8067260382671
 10
101.078929282456
 20
-143.8067260382671
 10
100.88996579509
 20
-143.8110324076236
 10
100.7030693650152
 20
-143.8258463182102
 10
100.7030693650152
 20
-143.8258463182102
 10
100.7030693650152
 20
-143.616384512707
 10
100.7030693650152
 20
-143.616384512707
 10
100.8141736944145
 20
-143.6248249966459
 10
100.8344997577775
 20
-143.626892053937
 10
101.0160562898502
 20
-143.6311984232936
 10
101.0160562898502
 20
-143.6311984232936
 10
101.0160562898502
 20
-143.0240003440183
 10
101.0160562898502
 20
-143.0240003440183
 10
101.0160562898502
 20
-142.9246093392688
 10
101.0160562898502
 20
-142.8357258757494
 10
101.0029649270062
 20
-142.5015516136802
 10
101.0029649270062
 20
-142.5015516136802
 10
101.2289631908386
 20
-142.5184325815579
 10
101.2289631908386
 20
-142.5184325815579
 10
101.2454996491678
 20
-142.5204996388491
 10
101.2566962094949
 20
-142.5311794348533
 10
101.2566962094949
 20
-142.5459933454399
 10
101.2566962094949
 20
-142.5649413706088
 10
101.2437771014252
 20
-142.5733818545476
 10
101.2086371274756
 20
-142.5945691917819
 10
101.2086371274756
 20
-142.6431450381239
 10
101.2048475224419
 20
-142.8293524491017
 10
101.2048475224419
 20
-143.0134928027883
 10
101.2048475224419
 20
-143.0134928027883
 10
101.2048475224419
 20
-143.6353325378759
 10
101.2048475224419
 20
-143.6353325378759
 10
101.2048475224419
 20
-143.6353325378759
 10
101.265997967305
 20
-143.6353325378759
 10
101.265997967305
 20
-143.6353325378759
 10
101.265997967305
 20
-143.6353325378759
 10
101.482522218553
 20
-143.6353325378759
 10
101.482522218553
 20
-143.6353325378759
 10
101.482522218553
 20
-143.6353325378759
 10
101.482522218553
 20
-142.6431450381239
 10
101.482522218553
 20
-142.6431450381239
 10
101.482522218553
 20
-142.6285033823116
 10
101.4807996708104
 20
-142.5713147972565
 10
101.4807996708104
 20
-142.5585679439611
 10
101.4770100657766
 20
-142.3554795651056
 10
101.475287518034
 20
-142.0254394176187
 10
101.475287518034
 20
-141.9980509085109
 10
101.475287518034
 20
-141.9980509085109
 10
101.6992187245752
 20
-142.0149318763886
 10
101.6992187245752
 20
-142.0149318763886
 10
101.703008329609
 20
-142.0149318763886
 10
101.7271239980057
 20
-142.0169989336798
 10
101.7271239980057
 20
-142.0361192136229
 10
101.7271239980057
 20
-142.0509331242095
 10
101.7140326351618
 20
-142.0614406654395
 10
101.7085204823854
 20
-142.0657470347961
 10
101.6974961768326
 20
-142.0741875187349
 10
101.6769978586953
 20
-142.0910684866127
 10
101.6751030561785
 20
-142.0931355439038
 10
101.6695909034021
 20
-142.2180202552441
 10
101.6585665978493
 20
-142.4612439965028
 10
101.6659735531425
 20
-142.6410779808328
 10
101.6659735531425
 20
-142.6410779808328
 10
101.6678683556594
 20
-142.6875867698837
 10
101.6678683556594
 20
-142.6875867698837
 10
101.6678683556594
 20
-142.6875867698837
 10
101.9178100331143
 20
-142.6875867698837
 10
101.9178100331143
 20
-142.6875867698837
 10
101.9713812679099
 20
-142.6875867698837
 10
102.1880777739322
 20
-142.6834526553014
 10
102.2437160660189
 20
-142.6791462859448
 10
102.2437160660189
 20
-142.6791462859448
 10
102.2437160660189
 20
-142.888608091448
 10
102.2437160660189
 20
-142.888608091448
 10
102.2270073529155
 20
-142.888608091448
 10
102.2066812895525
 20
-142.8865410341568
 10
102.1214151762926
 20
-142.8865410341568
 10
102.0898925526025
 20
-142.8865410341568
 10
101.9455430517706
 20
-142.8822346648003
 10
101.9178100331143
 20
-142.8822346648003
 10
101.9178100331143
 20
-142.8822346648003
 10
101.6678683556594
 20
-142.8822346648003
 10
101.6678683556594
 20
-142.8822346648003
 10
101.6678683556594
 20
-142.8822346648003
 10
101.6678683556594
 20
-143.6353325378759
 10
101.6678683556594
 20
-143.6353325378759
 10
101.6678683556594
 20
-143.6353325378759
 10
101.8177300092678
 20
-143.6353325378759
 10
101.8177300092678
 20
-143.6353325378759
 10
102.0085882991506
 20
-143.6353325378759
 10
102.1973795317423
 20
-143.6311984232936
 10
102.3880655668509
 20
-143.616384512707
 10
102.3880655668509
 20
-143.616384512707
 10
102.3880655668509
 20
-143.8258463182102
 10
102.3880655668509
 20
-143.8258463182102
 10
102.1419134944298
 20
-143.8067260382671
 10
101.8399508751477
 20
-143.8067260382671
 10
101.8177300092678
 20
-143.8067260382671
 97
        0
 97
        0
 75
     2
 76
     1
 98
        0
  0
SPLINE
  5
AC
330
9D
100
AcDbEntity
  8
_U+30EC_U+30A4_U+30E4_U+30FC 1
370
     0
100
AcDbSpline
210
0.0
220
0.0
230
1.0
 70
    11
 71
     3
 72
    80
 73
    76
 74
     0
 42
0.0000000001
 43
0.0000000001
 12
1.0
 22
0.0
 32
0.0
 13
1.0
 23
0.0
 33
0.0
 40
0.0
 40
0.0
 40
0.0
 40
0.0
 40
1.0
 40
1.0
 40
1.0
 40
2.0
 40
2.0
 40
2.0
 40
3.0
 40
3.0
 40
3.0
 40
4.0
 40
4.0
 40
4.0
 40
5.0
 40
5.0
 40
5.0
 40
6.0
 40
6.0
 40
6.0
 40
7.0
 40
7.0
 40
7.0
 40
8.0
 40
8.0
 40
8.0
 40
9.0
 40
9.0
 40
9.0
 40
10.0
 40
10.0
 40
10.0
 40
11.0
 40
11.0
 40
11.0
 40
12.0
 40
12.0
 40
12.0
 40
13.0
 40
13.0
 40
13.0
 40
14.0
 40
14.0
 40
14.0
 40
15.0
 40
15.0
 40
15.0
 40
16.0
 40
16.0
 40
16.0
 40
17.0
 40
17.0
 40
17.0
 40
18.0
 40
18.0
 40
18.0
 40
19.0
 40
19.0
 40
19.0
 40
20.0
 40
20.0
 40
20.0
 40
21.0
 40
21.0
 40
21.0
 40
22.0
 40
22.0
 40
22.0
 40
23.0
 40
23.0
 40
23.0
 40
24.0
 40
24.0
 40
24.0
 40
25.0
 40
25.0
 40
25.0
 40
25.0
 10
103.8253594032971
 20
-143.6184515699982
 30
0.0
 10
103.6643011893617
 20
-143.7622843065074
 30
0.0
 10
103.4772325045126
 20
-143.8130994649148
 30
0.0
 10
103.3957559962865
 20
-143.8363538594402
 30
0.0
 10
103.3957559962865
 20
-143.8363538594402
 30
0.0
 10
103.2920586221805
 20
-143.6417059645236
 30
0.0
 10
103.2920586221805
 20
-143.6417059645236
 30
0.0
 10
103.6939290105349
 20
-143.6036376594116
 30
0.0
 10
103.8753132878333
 20
-143.3201063009755
 30
0.0
 10
103.8753132878333
 20
-143.0515611079003
 30
0.0
 10
103.8753132878333
 20
-142.784910717342
 30
0.0
 10
103.6772202974314
 20
-142.5628743133176
 30
0.0
 10
103.4920464150992
 20
-142.5818223384865
 30
0.0
 10
103.4365803777867
 20
-142.7955905133462
 30
0.0
 10
103.379047283183
 20
-143.0071193761406
 30
0.0
 10
103.2605359984904
 20
-143.2313950922303
 30
0.0
 10
103.29567597244
 20
-143.2927177918678
 30
0.0
 10
103.3290933986469
 20
-143.3392265809187
 30
0.0
 10
103.3661281751133
 20
-143.3900417393261
 30
0.0
 10
103.3661281751133
 20
-143.3900417393261
 30
0.0
 10
103.2421047376443
 20
-143.540247902483
 30
0.0
 10
103.2421047376443
 20
-143.540247902483
 30
0.0
 10
103.2179890692476
 20
-143.502179597371
 30
0.0
 10
103.1938734008508
 20
-143.4682454068413
 30
0.0
 10
103.1551160766418
 20
-143.4026163378473
 30
0.0
 10
103.1254882554686
 20
-143.4408568977335
 30
0.0
 10
103.0402221422087
 20
-143.5571288703607
 30
0.0
 10
102.9346299655858
 20
-143.6248249966459
 30
0.0
 10
102.892083036343
 20
-143.6523857605279
 30
0.0
 10
102.8588378649103
 20
-143.6628933017579
 30
0.0
 10
102.8125013306337
 20
-143.6628933017579
 30
0.0
 10
102.6273274483015
 20
-143.6628933017579
 30
0.0
 10
102.579096111508
 20
-143.4598049229024
 30
0.0
 10
102.579096111508
 20
-143.3054646451632
 30
0.0
 10
102.579096111508
 20
-143.0472547385438
 30
0.0
 10
102.6976073962006
 20
-142.7912841439897
 30
0.0
 10
102.8476413045832
 20
-142.6431450381239
 30
0.0
 10
102.8106065281168
 20
-142.5120591549102
 30
0.0
 10
102.7902804647538
 20
-142.3830403289876
 30
0.0
 10
102.7699544013908
 20
-142.2243936818918
 30
0.0
 10
102.7699544013908
 20
-142.2243936818918
 30
0.0
 10
102.9458265259128
 20
-142.1566975556067
 30
0.0
 10
102.9458265259128
 20
-142.1566975556067
 30
0.0
 10
102.943931723396
 20
-142.2603949297127
 30
0.0
 10
102.9420369208791
 20
-142.3322251705801
 30
0.0
 10
102.9845838501219
 20
-142.5311794348533
 30
0.0
 10
103.1439195163147
 20
-142.4252427486819
 30
0.0
 10
103.2884412719209
 20
-142.4147352074519
 30
0.0
 10
103.3476969142672
 20
-142.4106010928696
 30
0.0
 10
103.3494194620099
 20
-142.3809732716964
 30
0.0
 10
103.3513142645268
 20
-142.3639200490445
 30
0.0
 10
103.3642333725964
 20
-142.2200873125353
 30
0.0
 10
103.3680229776302
 20
-142.1651380395455
 30
0.0
 10
103.3697455253728
 20
-142.1122558238469
 30
0.0
 10
103.3735351304066
 20
-142.0486938121441
 30
0.0
 10
103.3735351304066
 20
-142.0486938121441
 30
0.0
 10
103.5919541841715
 20
-142.1122558238469
 30
0.0
 10
103.5919541841715
 20
-142.1122558238469
 30
0.0
 10
103.6031507444985
 20
-142.1163899384293
 30
0.0
 10
103.606768094758
 20
-142.1270697344335
 30
0.0
 10
103.606768094758
 20
-142.1334431610812
 30
0.0
 10
103.606768094758
 20
-142.1544582435413
 30
0.0
 10
103.5754177258423
 20
-142.1863253767798
 30
0.0
 10
103.5642211655152
 20
-142.1968329180098
 30
0.0
 10
103.5475124524117
 20
-142.2497151337084
 30
0.0
 10
103.5457899046691
 20
-142.264529044295
 30
0.0
 10
103.5254638413061
 20
-142.4106010928696
 30
0.0
 10
103.5809298786187
 20
-142.4190415768084
 30
0.0
 10
103.6494872787751
 20
-142.4274820607473
 30
0.0
 10
103.7345811372608
 20
-142.4803642764459
 30
0.0
 10
103.919755019593
 20
-142.5925021344908
 30
0.0
 10
104.0475680620957
 20
-142.8209119651628
 30
0.0
 10
104.0475680620957
 20
-143.0768825597169
 30
0.0
 10
104.0475680620957
 20
-143.2313950922303
 30
0.0
 10
103.9995089800765
 20
-143.464111292259
 30
0.0
 10
103.8253594032971
 20
-143.6184515699982
 30
0.0
  0
SPLINE
  5
AD
330
9D
100
AcDbEntity
  8
_U+30EC_U+30A4_U+30E4_U+30FC 1
370
     0
100
AcDbSpline
210
0.0
220
0.0
230
1.0
 70
    11
 71
     3
 72
    17
 73
    13
 74
     0
 42
0.0000000001
 43
0.0000000001
 12
1.0
 22
0.0
 32
0.0
 13
1.0
 23
0.0
 33
0.0
 40
0.0
 40
0.0
 40
0.0
 40
0.0
 40
1.0
 40
1.0
 40
1.0
 40
2.0
 40
2.0
 40
2.0
 40
3.0
 40
3.0
 40
3.0
 40
4.0
 40
4.0
 40
4.0
 40
4.0
 10
102.90327959667
 20
-142.8314195063928
 30
0.0
 10
102.7623751913233
 20
-143.0134928027883
 30
0.0
 10
102.7458387329941
 20
-143.1678330805275
 30
0.0
 10
102.7458387329941
 20
-143.2610229134035
 30
0.0
 10
102.7458387329941
 20
-143.4429239550247
 30
0.0
 10
102.7920030124965
 20
-143.464111292259
 30
0.0
 10
102.8364447442562
 20
-143.464111292259
 30
0.0
 10
102.9050021444126
 20
-143.464111292259
 30
0.0
 10
103.0086995185187
 20
-143.3244126703321
 30
0.0
 10
103.067955160865
 20
-143.2398355761692
 30
0.0
 10
103.0217908813626
 20
-143.1445786860021
 30
0.0
 10
102.9828613023793
 20
-143.0641357064215
 30
0.0
 10
102.90327959667
 20
-142.8314195063928
 30
0.0
  0
SPLINE
  5
AE
330
9D
100
AcDbEntity
  8
_U+30EC_U+30A4_U+30E4_U+30FC 1
370
     0
100
AcDbSpline
210
0.0
220
0.0
230
1.0
 70
    11
 71
     3
 72
    14
 73
    10
 74
     0
 42
0.0000000001
 43
0.0000000001
 12
1.0
 22
0.0
 32
0.0
 13
1.0
 23
0.0
 33
0.0
 40
0.0
 40
0.0
 40
0.0
 40
0.0
 40
1.0
 40
1.0
 40
1.0
 40
2.0
 40
2.0
 40
2.0
 40
3.0
 40
3.0
 40
3.0
 40
3.0
 10
103.0290255818816
 20
-142.7067070498268
 30
0.0
 10
103.0662326131223
 20
-142.8293524491017
 30
0.0
 10
103.1142916951416
 20
-142.9478637337943
 30
0.0
 10
103.1699299872284
 20
-143.0600015918392
 30
0.0
 10
103.255023845714
 20
-142.8737941808614
 30
0.0
 10
103.2827568643703
 20
-142.7700968067554
 30
0.0
 10
103.3123846855434
 20
-142.586128707843
 30
0.0
 10
103.2643256035242
 20
-142.5925021344908
 30
0.0
 10
103.1606282294182
 20
-142.6030096757208
 30
0.0
 10
103.0290255818816
 20
-142.7067070498268
 30
0.0
  0
HATCH
  5
AF
330
9D
100
AcDbEntity
  8
_U+30EC_U+30A4_U+30E4_U+30FC 1
 62
   179
420
  2234388
100
AcDbHatch
 10
0.0
 20
0.0
 30
0.0
210
0.0
220
0.0
230
1.0
  2
SOLID
 70
     1
 71
     0
 91
        3
 92
        1
 93
        1
 72
     4
 94
        3
 73
     0
 74
     1
 95
       80
 96
       76
 40
0.0
 40
0.0
 40
0.0
 40
0.0
 40
1.0
 40
1.0
 40
1.0
 40
2.0
 40
2.0
 40
2.0
 40
3.0
 40
3.0
 40
3.0
 40
4.0
 40
4.0
 40
4.0
 40
5.0
 40
5.0
 40
5.0
 40
6.0
 40
6.0
 40
6.0
 40
7.0
 40
7.0
 40
7.0
 40
8.0
 40
8.0
 40
8.0
 40
9.0
 40
9.0
 40
9.0
 40
10.0
 40
10.0
 40
10.0
 40
11.0
 40
11.0
 40
11.0
 40
12.0
 40
12.0
 40
12.0
 40
13.0
 40
13.0
 40
13.0
 40
14.0
 40
14.0
 40
14.0
 40
15.0
 40
15.0
 40
15.0
 40
16.0
 40
16.0
 40
16.0
 40
17.0
 40
17.0
 40
17.0
 40
18.0
 40
18.0
 40
18.0
 40
19.0
 40
19.0
 40
19.0
 40
20.0
 40
20.0
 40
20.0
 40
21.0
 40
21.0
 40
21.0
 40
22.0
 40
22.0
 40
22.0
 40
23.0
 40
23.0
 40
23.0
 40
24.0
 40
24.0
 40
24.0
 40
25.0
 40
25.0
 40
25.0
 40
25.0
 10
103.8253594032971
 20
-143.6184515699982
 10
103.6643011893617
 20
-143.7622843065074
 10
103.4772325045126
 20
-143.8130994649148
 10
103.3957559962865
 20
-143.8363538594402
 10
103.3957559962865
 20
-143.8363538594402
 10
103.2920586221805
 20
-143.6417059645236
 10
103.2920586221805
 20
-143.6417059645236
 10
103.6939290105349
 20
-143.6036376594116
 10
103.8753132878333
 20
-143.3201063009755
 10
103.8753132878333
 20
-143.0515611079003
 10
103.8753132878333
 20
-142.784910717342
 10
103.6772202974314
 20
-142.5628743133176
 10
103.4920464150992
 20
-142.5818223384865
 10
103.4365803777867
 20
-142.7955905133462
 10
103.379047283183
 20
-143.0071193761406
 10
103.2605359984904
 20
-143.2313950922303
 10
103.29567597244
 20
-143.2927177918678
 10
103.3290933986469
 20
-143.3392265809187
 10
103.3661281751133
 20
-143.3900417393261
 10
103.3661281751133
 20
-143.3900417393261
 10
103.2421047376443
 20
-143.540247902483
 10
103.2421047376443
 20
-143.540247902483
 10
103.2179890692476
 20
-143.502179597371
 10
103.1938734008508
 20
-143.4682454068413
 10
103.1551160766418
 20
-143.4026163378473
 10
103.1254882554686
 20
-143.4408568977335
 10
103.0402221422087
 20
-143.5571288703607
 10
102.9346299655858
 20
-143.6248249966459
 10
102.892083036343
 20
-143.6523857605279
 10
102.8588378649103
 20
-143.6628933017579
 10
102.8125013306337
 20
-143.6628933017579
 10
102.6273274483015
 20
-143.6628933017579
 10
102.579096111508
 20
-143.4598049229024
 10
102.579096111508
 20
-143.3054646451632
 10
102.579096111508
 20
-143.0472547385438
 10
102.6976073962006
 20
-142.7912841439897
 10
102.8476413045832
 20
-142.6431450381239
 10
102.8106065281168
 20
-142.5120591549102
 10
102.7902804647538
 20
-142.3830403289876
 10
102.7699544013908
 20
-142.2243936818918
 10
102.7699544013908
 20
-142.2243936818918
 10
102.9458265259128
 20
-142.1566975556067
 10
102.9458265259128
 20
-142.1566975556067
 10
102.943931723396
 20
-142.2603949297127
 10
102.9420369208791
 20
-142.3322251705801
 10
102.9845838501219
 20
-142.5311794348533
 10
103.1439195163147
 20
-142.4252427486819
 10
103.2884412719209
 20
-142.4147352074519
 10
103.3476969142672
 20
-142.4106010928696
 10
103.3494194620099
 20
-142.3809732716964
 10
103.3513142645268
 20
-142.3639200490445
 10
103.3642333725964
 20
-142.2200873125353
 10
103.3680229776302
 20
-142.1651380395455
 10
103.3697455253728
 20
-142.1122558238469
 10
103.3735351304066
 20
-142.0486938121441
 10
103.3735351304066
 20
-142.0486938121441
 10
103.5919541841715
 20
-142.1122558238469
 10
103.5919541841715
 20
-142.1122558238469
 10
103.6031507444985
 20
-142.1163899384293
 10
103.606768094758
 20
-142.1270697344335
 10
103.606768094758
 20
-142.1334431610812
 10
103.606768094758
 20
-142.1544582435413
 10
103.5754177258423
 20
-142.1863253767798
 10
103.5642211655152
 20
-142.1968329180098
 10
103.5475124524117
 20
-142.2497151337084
 10
103.5457899046691
 20
-142.264529044295
 10
103.5254638413061
 20
-142.4106010928696
 10
103.5809298786187
 20
-142.4190415768084
 10
103.6494872787751
 20
-142.4274820607473
 10
103.7345811372608
 20
-142.4803642764459
 10
103.919755019593
 20
-142.5925021344908
 10
104.0475680620957
 20
-142.8209119651628
 10
104.0475680620957
 20
-143.0768825597169
 10
104.0475680620957
 20
-143.2313950922303
 10
103.9995089800765
 20
-143.464111292259
 10
103.8253594032971
 20
-143.6184515699982
 97
        0
 97
        0
 92
        1
 93
        1
 72
     4
 94
        3
 73
     0
 74
     1
 95
       17
 96
       13
 40
0.0
 40
0.0
 40
0.0
 40
0.0
 40
1.0
 40
1.0
 40
1.0
 40
2.0
 40
2.0
 40
2.0
 40
3.0
 40
3.0
 40
3.0
 40
4.0
 40
4.0
 40
4.0
 40
4.0
 10
102.90327959667
 20
-142.8314195063928
 10
102.7623751913233
 20
-143.0134928027883
 10
102.7458387329941
 20
-143.1678330805275
 10
102.7458387329941
 20
-143.2610229134035
 10
102.7458387329941
 20
-143.4429239550247
 10
102.7920030124965
 20
-143.464111292259
 10
102.8364447442562
 20
-143.464111292259
 10
102.9050021444126
 20
-143.464111292259
 10
103.0086995185187
 20
-143.3244126703321
 10
103.067955160865
 20
-143.2398355761692
 10
103.0217908813626
 20
-143.1445786860021
 10
102.9828613023793
 20
-143.0641357064215
 10
102.90327959667
 20
-142.8314195063928
 97
        0
 97
        0
 92
        1
 93
        1
 72
     4
 94
        3
 73
     0
 74
     1
 95
       14
 96
       10
 40
0.0
 40
0.0
 40
0.0
 40
0.0
 40
1.0
 40
1.0
 40
1.0
 40
2.0
 40
2.0
 40
2.0
 40
3.0
 40
3.0
 40
3.0
 40
3.0
 10
103.0290255818816
 20
-142.7067070498268
 10
103.0662326131223
 20
-142.8293524491017
 10
103.1142916951416
 20
-142.9478637337943
 10
103.1699299872284
 20
-143.0600015918392
 10
103.255023845714
 20
-142.8737941808614
 10
103.2827568643703
 20
-142.7700968067554
 10
103.3123846855434
 20
-142.586128707843
 10
103.2643256035242
 20
-142.5925021344908
 10
103.1606282294182
 20
-142.6030096757208
 10
103.0290255818816
 20
-142.7067070498268
 97
        0
 97
        0
 75
     2
 76
     1
 98
        0
  0
SPLINE
  5
B0
330
9D
100
AcDbEntity
  8
_U+30EC_U+30A4_U+30E4_U+30FC 1
370
     0
100
AcDbSpline
210
0.0
220
0.0
230
1.0
 70
    11
 71
     3
 72
    62
 73
    58
 74
     0
 42
0.0000000001
 43
0.0000000001
 12
1.0
 22
0.0
 32
0.0
 13
1.0
 23
0.0
 33
0.0
 40
0.0
 40
0.0
 40
0.0
 40
0.0
 40
1.0
 40
1.0
 40
1.0
 40
2.0
 40
2.0
 40
2.0
 40
3.0
 40
3.0
 40
3.0
 40
4.0
 40
4.0
 40
4.0
 40
5.0
 40
5.0
 40
5.0
 40
6.0
 40
6.0
 40
6.0
 40
7.0
 40
7.0
 40
7.0
 40
8.0
 40
8.0
 40
8.0
 40
9.0
 40
9.0
 40
9.0
 40
10.0
 40
10.0
 40
10.0
 40
11.0
 40
11.0
 40
11.0
 40
12.0
 40
12.0
 40
12.0
 40
13.0
 40
13.0
 40
13.0
 40
14.0
 40
14.0
 40
14.0
 40
15.0
 40
15.0
 40
15.0
 40
16.0
 40
16.0
 40
16.0
 40
17.0
 40
17.0
 40
17.0
 40
18.0
 40
18.0
 40
18.0
 40
19.0
 40
19.0
 40
19.0
 40
19.0
 10
105.2864243985916
 20
-143.654452817819
 30
0.0
 10
105.2921088061423
 20
-143.626892053937
 30
0.0
 10
105.2938313538849
 20
-143.6205186272893
 30
0.0
 10
105.2976209589187
 20
-143.5380085904176
 30
0.0
 10
105.2976209589187
 20
-143.5380085904176
 30
0.0
 10
104.8494140362877
 20
-143.5380085904176
 30
0.0
 10
104.8494140362877
 20
-143.5380085904176
 30
0.0
 10
104.4532280554839
 20
-143.5380085904176
 30
0.0
 10
104.4087863237242
 20
-143.5423149597742
 30
0.0
 10
104.2771836761876
 20
-143.5571288703607
 30
0.0
 10
104.2771836761876
 20
-143.5571288703607
 30
0.0
 10
104.2771836761876
 20
-143.3371595236275
 30
0.0
 10
104.2771836761876
 20
-143.3371595236275
 30
0.0
 10
104.3254150129812
 20
-143.3456000075664
 30
0.0
 10
104.3698567447409
 20
-143.3540404915053
 30
0.0
 10
104.543834066746
 20
-143.3540404915053
 30
0.0
 10
104.5882757985057
 20
-143.3540404915053
 30
0.0
 10
104.7865410436818
 20
-143.3583468608618
 30
0.0
 10
104.8252983678909
 20
-143.3583468608618
 30
0.0
 10
104.8252983678909
 20
-143.3583468608618
 30
0.0
 10
105.3105400669883
 20
-143.3583468608618
 30
0.0
 10
105.3105400669883
 20
-143.3583468608618
 30
0.0
 10
105.3105400669883
 20
-143.3583468608618
 30
0.0
 10
105.3105400669883
 20
-142.5373806067268
 30
0.0
 10
105.3105400669883
 20
-142.5373806067268
 30
0.0
 10
105.3105400669883
 20
-142.5373806067268
 30
0.0
 10
104.8013549542684
 20
-142.5373806067268
 30
0.0
 10
104.8013549542684
 20
-142.5373806067268
 30
0.0
 10
104.6661349564724
 20
-142.5373806067268
 30
0.0
 10
104.3956949608802
 20
-142.5437540333745
 30
0.0
 10
104.2699489756686
 20
-142.5565008866699
 30
0.0
 10
104.2699489756686
 20
-142.5565008866699
 30
0.0
 10
104.2699489756686
 20
-142.3385985972278
 30
0.0
 10
104.2699489756686
 20
-142.3385985972278
 30
0.0
 10
104.4124036739837
 20
-142.3513454505233
 30
0.0
 10
104.5550306270731
 20
-142.3554795651056
 30
0.0
 10
104.6976575801624
 20
-142.3554795651056
 30
0.0
 10
104.6976575801624
 20
-142.3554795651056
 30
0.0
 10
105.0902262107066
 20
-142.3554795651056
 30
0.0
 10
105.0902262107066
 20
-142.3554795651056
 30
0.0
 10
105.1587836108631
 20
-142.3554795651056
 30
0.0
 10
105.1827270244856
 20
-142.357718877171
 30
0.0
 10
105.2290635587622
 20
-142.3554795651056
 30
0.0
 10
105.2735052905219
 20
-142.3554795651056
 30
0.0
 10
105.4698757331811
 20
-142.3513454505233
 30
0.0
 10
105.5105278599071
 20
-142.3513454505233
 30
0.0
 10
105.4977810066117
 20
-142.4696844804416
 30
0.0
 10
105.4977810066117
 20
-142.6453843501893
 30
0.0
 10
105.4977810066117
 20
-142.7933512012808
 30
0.0
 10
105.4977810066117
 20
-142.7933512012808
 30
0.0
 10
105.4977810066117
 20
-143.2165811816438
 30
0.0
 10
105.4977810066117
 20
-143.2165811816438
 30
0.0
 10
105.4977810066117
 20
-143.2651570279858
 30
0.0
 10
105.4977810066117
 20
-143.5338744758353
 30
0.0
 10
105.5122504076497
 20
-143.654452817819
 30
0.0
 10
105.5122504076497
 20
-143.654452817819
 30
0.0
 10
105.2864243985916
 20
-143.654452817819
 30
0.0
 10
105.2864243985916
 20
-143.654452817819
 30
0.0
  0
SPLINE
  5
B1
330
9D
100
AcDbEntity
  8
_U+30EC_U+30A4_U+30E4_U+30FC 1
370
     0
100
AcDbSpline
210
0.0
220
0.0
230
1.0
 70
    11
 71
     3
 72
    17
 73
    13
 74
     0
 42
0.0000000001
 43
0.0000000001
 12
1.0
 22
0.0
 32
0.0
 13
1.0
 23
0.0
 33
0.0
 40
0.0
 40
0.0
 40
0.0
 40
0.0
 40
1.0
 40
1.0
 40
1.0
 40
2.0
 40
2.0
 40
2.0
 40
3.0
 40
3.0
 40
3.0
 40
4.0
 40
4.0
 40
4.0
 40
4.0
 10
105.4161322436112
 20
-142.3005302921158
 30
0.0
 10
105.3772026646279
 20
-142.2517821909996
 30
0.0
 10
105.2772948955557
 20
-142.1566975556067
 30
0.0
 10
105.2087374953992
 20
-142.1122558238469
 30
0.0
 10
105.2087374953992
 20
-142.1122558238469
 30
0.0
 10
105.2938313538849
 20
-141.9980509085109
 30
0.0
 10
105.2938313538849
 20
-141.9980509085109
 30
0.0
 10
105.3623887540413
 20
-142.0361192136229
 30
0.0
 10
105.4641913256305
 20
-142.1206963077858
 30
0.0
 10
105.5143174649409
 20
-142.1863253767798
 30
0.0
 10
105.5143174649409
 20
-142.1863253767798
 30
0.0
 10
105.4161322436112
 20
-142.3005302921158
 30
0.0
 10
105.4161322436112
 20
-142.3005302921158
 30
0.0
  0
SPLINE
  5
B2
330
9D
100
AcDbEntity
  8
_U+30EC_U+30A4_U+30E4_U+30FC 1
370
     0
100
AcDbSpline
210
0.0
220
0.0
230
1.0
 70
    11
 71
     3
 72
    17
 73
    13
 74
     0
 42
0.0000000001
 43
0.0000000001
 12
1.0
 22
0.0
 32
0.0
 13
1.0
 23
0.0
 33
0.0
 40
0.0
 40
0.0
 40
0.0
 40
0.0
 40
1.0
 40
1.0
 40
1.0
 40
2.0
 40
2.0
 40
2.0
 40
3.0
 40
3.0
 40
3.0
 40
4.0
 40
4.0
 40
4.0
 40
4.0
 10
105.7141330030854
 20
-142.2497151337084
 30
0.0
 10
105.6400634501525
 20
-142.160831670189
 30
0.0
 10
105.5901095656164
 20
-142.1143228811381
 30
0.0
 10
105.5012261020969
 20
-142.0466267548529
 30
0.0
 10
105.5012261020969
 20
-142.0466267548529
 30
0.0
 10
105.5901095656164
 20
-141.9344888968081
 30
0.0
 10
105.5901095656164
 20
-141.9344888968081
 30
0.0
 10
105.6845051819122
 20
-141.9853040552155
 30
0.0
 10
105.771666097689
 20
-142.0826280026738
 30
0.0
 10
105.812318224415
 20
-142.1398165877289
 30
0.0
 10
105.812318224415
 20
-142.1398165877289
 30
0.0
 10
105.7141330030854
 20
-142.2497151337084
 30
0.0
 10
105.7141330030854
 20
-142.2497151337084
 30
0.0
  0
HATCH
  5
B3
330
9D
100
AcDbEntity
  8
_U+30EC_U+30A4_U+30E4_U+30FC 1
 62
   179
420
  2234388
100
AcDbHatch
 10
0.0
 20
0.0
 30
0.0
210
0.0
220
0.0
230
1.0
  2
SOLID
 70
     1
 71
     0
 91
        3
 92
        1
 93
        1
 72
     4
 94
        3
 73
     0
 74
     1
 95
       62
 96
       58
 40
0.0
 40
0.0
 40
0.0
 40
0.0
 40
1.0
 40
1.0
 40
1.0
 40
2.0
 40
2.0
 40
2.0
 40
3.0
 40
3.0
 40
3.0
 40
4.0
 40
4.0
 40
4.0
 40
5.0
 40
5.0
 40
5.0
 40
6.0
 40
6.0
 40
6.0
 40
7.0
 40
7.0
 40
7.0
 40
8.0
 40
8.0
 40
8.0
 40
9.0
 40
9.0
 40
9.0
 40
10.0
 40
10.0
 40
10.0
 40
11.0
 40
11.0
 40
11.0
 40
12.0
 40
12.0
 40
12.0
 40
13.0
 40
13.0
 40
13.0
 40
14.0
 40
14.0
 40
14.0
 40
15.0
 40
15.0
 40
15.0
 40
16.0
 40
16.0
 40
16.0
 40
17.0
 40
17.0
 40
17.0
 40
18.0
 40
18.0
 40
18.0
 40
19.0
 40
19.0
 40
19.0
 40
19.0
 10
105.2864243985916
 20
-143.654452817819
 10
105.2921088061423
 20
-143.626892053937
 10
105.2938313538849
 20
-143.6205186272893
 10
105.2976209589187
 20
-143.5380085904176
 10
105.2976209589187
 20
-143.5380085904176
 10
104.8494140362877
 20
-143.5380085904176
 10
104.8494140362877
 20
-143.5380085904176
 10
104.4532280554839
 20
-143.5380085904176
 10
104.4087863237242
 20
-143.5423149597742
 10
104.2771836761876
 20
-143.5571288703607
 10
104.2771836761876
 20
-143.5571288703607
 10
104.2771836761876
 20
-143.3371595236275
 10
104.2771836761876
 20
-143.3371595236275
 10
104.3254150129812
 20
-143.3456000075664
 10
104.3698567447409
 20
-143.3540404915053
 10
104.543834066746
 20
-143.3540404915053
 10
104.5882757985057
 20
-143.3540404915053
 10
104.7865410436818
 20
-143.3583468608618
 10
104.8252983678909
 20
-143.3583468608618
 10
104.8252983678909
 20
-143.3583468608618
 10
105.3105400669883
 20
-143.3583468608618
 10
105.3105400669883
 20
-143.3583468608618
 10
105.3105400669883
 20
-143.3583468608618
 10
105.3105400669883
 20
-142.5373806067268
 10
105.3105400669883
 20
-142.5373806067268
 10
105.3105400669883
 20
-142.5373806067268
 10
104.8013549542684
 20
-142.5373806067268
 10
104.8013549542684
 20
-142.5373806067268
 10
104.6661349564724
 20
-142.5373806067268
 10
104.3956949608802
 20
-142.5437540333745
 10
104.2699489756686
 20
-142.5565008866699
 10
104.2699489756686
 20
-142.5565008866699
 10
104.2699489756686
 20
-142.3385985972278
 10
104.2699489756686
 20
-142.3385985972278
 10
104.4124036739837
 20
-142.3513454505233
 10
104.5550306270731
 20
-142.3554795651056
 10
104.6976575801624
 20
-142.3554795651056
 10
104.6976575801624
 20
-142.3554795651056
 10
105.0902262107066
 20
-142.3554795651056
 10
105.0902262107066
 20
-142.3554795651056
 10
105.1587836108631
 20
-142.3554795651056
 10
105.1827270244856
 20
-142.357718877171
 10
105.2290635587622
 20
-142.3554795651056
 10
105.2735052905219
 20
-142.3554795651056
 10
105.4698757331811
 20
-142.3513454505233
 10
105.5105278599071
 20
-142.3513454505233
 10
105.4977810066117
 20
-142.4696844804416
 10
105.4977810066117
 20
-142.6453843501893
 10
105.4977810066117
 20
-142.7933512012808
 10
105.4977810066117
 20
-142.7933512012808
 10
105.4977810066117
 20
-143.2165811816438
 10
105.4977810066117
 20
-143.2165811816438
 10
105.4977810066117
 20
-143.2651570279858
 10
105.4977810066117
 20
-143.5338744758353
 10
105.5122504076497
 20
-143.654452817819
 10
105.5122504076497
 20
-143.654452817819
 10
105.2864243985916
 20
-143.654452817819
 10
105.2864243985916
 20
-143.654452817819
 97
        0
 97
        0
 92
        1
 93
        1
 72
     4
 94
        3
 73
     0
 74
     1
 95
       17
 96
       13
 40
0.0
 40
0.0
 40
0.0
 40
0.0
 40
1.0
 40
1.0
 40
1.0
 40
2.0
 40
2.0
 40
2.0
 40
3.0
 40
3.0
 40
3.0
 40
4.0
 40
4.0
 40
4.0
 40
4.0
 10
105.4161322436112
 20
-142.3005302921158
 10
105.3772026646279
 20
-142.2517821909996
 10
105.2772948955557
 20
-142.1566975556067
 10
105.2087374953992
 20
-142.1122558238469
 10
105.2087374953992
 20
-142.1122558238469
 10
105.2938313538849
 20
-141.9980509085109
 10
105.2938313538849
 20
-141.9980509085109
 10
105.3623887540413
 20
-142.0361192136229
 10
105.4641913256305
 20
-142.1206963077858
 10
105.5143174649409
 20
-142.1863253767798
 10
105.5143174649409
 20
-142.1863253767798
 10
105.4161322436112
 20
-142.3005302921158
 10
105.4161322436112
 20
-142.3005302921158
 97
        0
 97
        0
 92
        1
 93
        1
 72
     4
 94
        3
 73
     0
 74
     1
 95
       17
 96
       13
 40
0.0
 40
0.0
 40
0.0
 40
0.0
 40
1.0
 40
1.0
 40
1.0
 40
2.0
 40
2.0
 40
2.0
 40
3.0
 40
3.0
 40
3.0
 40
4.0
 40
4.0
 40
4.0
 40
4.0
 10
105.7141330030854
 20
-142.2497151337084
 10
105.6400634501525
 20
-142.160831670189
 10
105.5901095656164
 20
-142.1143228811381
 10
105.5012261020969
 20
-142.0466267548529
 10
105.5012261020969
 20
-142.0466267548529
 10
105.5901095656164
 20
-141.9344888968081
 10
105.5901095656164
 20
-141.9344888968081
 10
105.6845051819122
 20
-141.9853040552155
 10
105.771666097689
 20
-142.0826280026738
 10
105.812318224415
 20
-142.1398165877289
 10
105.812318224415
 20
-142.1398165877289
 10
105.7141330030854
 20
-142.2497151337084
 10
105.7141330030854
 20
-142.2497151337084
 97
        0
 97
        0
 75
     2
 76
     1
 98
        0
  0
SPLINE
  5
B4
330
9D
100
AcDbEntity
  8
_U+30EC_U+30A4_U+30E4_U+30FC 1
370
     0
100
AcDbSpline
210
0.0
220
0.0
230
1.0
 70
    11
 71
     3
 72
    59
 73
    55
 74
     0
 42
0.0000000001
 43
0.0000000001
 12
1.0
 22
0.0
 32
0.0
 13
1.0
 23
0.0
 33
0.0
 40
0.0
 40
0.0
 40
0.0
 40
0.0
 40
1.0
 40
1.0
 40
1.0
 40
2.0
 40
2.0
 40
2.0
 40
3.0
 40
3.0
 40
3.0
 40
4.0
 40
4.0
 40
4.0
 40
5.0
 40
5.0
 40
5.0
 40
6.0
 40
6.0
 40
6.0
 40
7.0
 40
7.0
 40
7.0
 40
8.0
 40
8.0
 40
8.0
 40
9.0
 40
9.0
 40
9.0
 40
10.0
 40
10.0
 40
10.0
 40
11.0
 40
11.0
 40
11.0
 40
12.0
 40
12.0
 40
12.0
 40
13.0
 40
13.0
 40
13.0
 40
14.0
 40
14.0
 40
14.0
 40
15.0
 40
15.0
 40
15.0
 40
16.0
 40
16.0
 40
16.0
 40
17.0
 40
17.0
 40
17.0
 40
18.0
 40
18.0
 40
18.0
 40
18.0
 10
107.2682155764816
 20
-143.7474703959208
 30
0.0
 10
107.2478895131186
 20
-143.6565198751102
 30
0.0
 10
107.2347981502746
 20
-143.616384512707
 30
0.0
 10
107.1793321129621
 20
-143.4682454068413
 30
0.0
 10
106.8089843482978
 20
-143.5211276225399
 30
0.0
 10
106.6939181590904
 20
-143.5380085904176
 30
0.0
 10
106.3755913362533
 20
-143.5803832648862
 30
0.0
 10
106.3070339360969
 20
-143.588823748825
 30
0.0
 10
106.1013617356274
 20
-143.6184515699982
 30
0.0
 10
106.0517523606398
 20
-143.6417059645236
 30
0.0
 10
106.0014539665552
 20
-143.6671996711144
 30
0.0
 10
105.9959418137788
 20
-143.6692667284056
 30
0.0
 10
105.9828504509348
 20
-143.6692667284056
 30
0.0
 10
105.9663139926056
 20
-143.6692667284056
 30
0.0
 10
105.9683810498968
 20
-143.6628933017579
 30
0.0
 10
105.957356744344
 20
-143.6120781433505
 30
0.0
 10
105.957356744344
 20
-143.6120781433505
 30
0.0
 10
105.9125705030358
 20
-143.4069227072038
 30
0.0
 10
105.9125705030358
 20
-143.4069227072038
 30
0.0
 10
105.9738932026732
 20
-143.4112290765604
 30
0.0
 10
106.0293592399857
 20
-143.4112290765604
 30
0.0
 10
106.1998914665056
 20
-143.398482223265
 30
0.0
 10
106.2942870828014
 20
-143.1700723925929
 30
0.0
 10
106.5478461105158
 20
-142.3639200490445
 30
0.0
 10
106.5905652945329
 20
-142.1079494544904
 30
0.0
 10
106.5905652945329
 20
-142.1079494544904
 30
0.0
 10
106.7941704377112
 20
-142.1799519501321
 30
0.0
 10
106.7941704377112
 20
-142.1799519501321
 30
0.0
 10
106.8293104116607
 20
-142.1926988034275
 30
0.0
 10
106.8441243222473
 20
-142.1968329180098
 30
0.0
 10
106.8441243222473
 20
-142.2223266246007
 30
0.0
 10
106.8441243222473
 20
-142.254021503065
 30
0.0
 10
106.8200086538506
 20
-142.2603949297127
 30
0.0
 10
106.7924478899686
 20
-142.2665961015861
 30
0.0
 10
106.7590304637616
 20
-142.3513454505233
 30
0.0
 10
106.6718695479848
 20
-142.5585679439611
 30
0.0
 10
106.5736843266552
 20
-142.840032245106
 30
0.0
 10
106.4848008631357
 20
-143.09600283966
 30
0.0
 10
106.4754991053256
 20
-143.1233913487678
 30
0.0
 10
106.3776583935445
 20
-143.3836683126784
 30
0.0
 10
106.7311251903311
 20
-143.3497341221487
 30
0.0
 10
106.7700547693144
 20
-143.3476670648575
 30
0.0
 10
107.1087076555145
 20
-143.3032253330978
 30
0.0
 10
107.0976833499617
 20
-143.2820379958635
 30
0.0
 10
106.9846842180455
 20
-143.0620686491303
 30
0.0
 10
106.8737521434205
 20
-142.9457966765031
 30
0.0
 10
106.8737521434205
 20
-142.9457966765031
 30
0.0
 10
107.0367051598728
 20
-142.840032245106
 30
0.0
 10
107.0367051598728
 20
-142.840032245106
 30
0.0
 10
107.1479817440463
 20
-142.9626776443809
 30
0.0
 10
107.3402180721233
 20
-143.2842773079289
 30
0.0
 10
107.4459825035205
 20
-143.6460123338802
 30
0.0
 10
107.4459825035205
 20
-143.6460123338802
 30
0.0
 10
107.2682155764816
 20
-143.7474703959208
 30
0.0
 10
107.2682155764816
 20
-143.7474703959208
 30
0.0
  0
HATCH
  5
B5
330
9D
100
AcDbEntity
  8
_U+30EC_U+30A4_U+30E4_U+30FC 1
 62
   179
420
  2234388
100
AcDbHatch
 10
0.0
 20
0.0
 30
0.0
210
0.0
220
0.0
230
1.0
  2
SOLID
 70
     1
 71
     0
 91
        1
 92
        1
 93
        1
 72
     4
 94
        3
 73
     0
 74
     1
 95
       59
 96
       55
 40
0.0
 40
0.0
 40
0.0
 40
0.0
 40
1.0
 40
1.0
 40
1.0
 40
2.0
 40
2.0
 40
2.0
 40
3.0
 40
3.0
 40
3.0
 40
4.0
 40
4.0
 40
4.0
 40
5.0
 40
5.0
 40
5.0
 40
6.0
 40
6.0
 40
6.0
 40
7.0
 40
7.0
 40
7.0
 40
8.0
 40
8.0
 40
8.0
 40
9.0
 40
9.0
 40
9.0
 40
10.0
 40
10.0
 40
10.0
 40
11.0
 40
11.0
 40
11.0
 40
12.0
 40
12.0
 40
12.0
 40
13.0
 40
13.0
 40
13.0
 40
14.0
 40
14.0
 40
14.0
 40
15.0
 40
15.0
 40
15.0
 40
16.0
 40
16.0
 40
16.0
 40
17.0
 40
17.0
 40
17.0
 40
18.0
 40
18.0
 40
18.0
 40
18.0
 10
107.2682155764816
 20
-143.7474703959208
 10
107.2478895131186
 20
-143.6565198751102
 10
107.2347981502746
 20
-143.616384512707
 10
107.1793321129621
 20
-143.4682454068413
 10
106.8089843482978
 20
-143.5211276225399
 10
106.6939181590904
 20
-143.5380085904176
 10
106.3755913362533
 20
-143.5803832648862
 10
106.3070339360969
 20
-143.588823748825
 10
106.1013617356274
 20
-143.6184515699982
 10
106.0517523606398
 20
-143.6417059645236
 10
106.0014539665552
 20
-143.6671996711144
 10
105.9959418137788
 20
-143.6692667284056
 10
105.9828504509348
 20
-143.6692667284056
 10
105.9663139926056
 20
-143.6692667284056
 10
105.9683810498968
 20
-143.6628933017579
 10
105.957356744344
 20
-143.6120781433505
 10
105.957356744344
 20
-143.6120781433505
 10
105.9125705030358
 20
-143.4069227072038
 10
105.9125705030358
 20
-143.4069227072038
 10
105.9738932026732
 20
-143.4112290765604
 10
106.0293592399857
 20
-143.4112290765604
 10
106.1998914665056
 20
-143.398482223265
 10
106.2942870828014
 20
-143.1700723925929
 10
106.5478461105158
 20
-142.3639200490445
 10
106.5905652945329
 20
-142.1079494544904
 10
106.5905652945329
 20
-142.1079494544904
 10
106.7941704377112
 20
-142.1799519501321
 10
106.7941704377112
 20
-142.1799519501321
 10
106.8293104116607
 20
-142.1926988034275
 10
106.8441243222473
 20
-142.1968329180098
 10
106.8441243222473
 20
-142.2223266246007
 10
106.8441243222473
 20
-142.254021503065
 10
106.8200086538506
 20
-142.2603949297127
 10
106.7924478899686
 20
-142.2665961015861
 10
106.7590304637616
 20
-142.3513454505233
 10
106.6718695479848
 20
-142.5585679439611
 10
106.5736843266552
 20
-142.840032245106
 10
106.4848008631357
 20
-143.09600283966
 10
106.4754991053256
 20
-143.1233913487678
 10
106.3776583935445
 20
-143.3836683126784
 10
106.7311251903311
 20
-143.3497341221487
 10
106.7700547693144
 20
-143.3476670648575
 10
107.1087076555145
 20
-143.3032253330978
 10
107.0976833499617
 20
-143.2820379958635
 10
106.9846842180455
 20
-143.0620686491303
 10
106.8737521434205
 20
-142.9457966765031
 10
106.8737521434205
 20
-142.9457966765031
 10
107.0367051598728
 20
-142.840032245106
 10
107.0367051598728
 20
-142.840032245106
 10
107.1479817440463
 20
-142.9626776443809
 10
107.3402180721233
 20
-143.2842773079289
 10
107.4459825035205
 20
-143.6460123338802
 10
107.4459825035205
 20
-143.6460123338802
 10
107.2682155764816
 20
-143.7474703959208
 10
107.2682155764816
 20
-143.7474703959208
 97
        0
 97
        0
 75
     2
 76
     1
 98
        0
  0
SPLINE
  5
B6
330
9D
100
AcDbEntity
  8
_U+30EC_U+30A4_U+30E4_U+30FC 1
370
     0
100
AcDbSpline
210
0.0
220
0.0
230
1.0
 70
    11
 71
     3
 72
    23
 73
    19
 74
     0
 42
0.0000000001
 43
0.0000000001
 12
1.0
 22
0.0
 32
0.0
 13
1.0
 23
0.0
 33
0.0
 40
0.0
 40
0.0
 40
0.0
 40
0.0
 40
1.0
 40
1.0
 40
1.0
 40
2.0
 40
2.0
 40
2.0
 40
3.0
 40
3.0
 40
3.0
 40
4.0
 40
4.0
 40
4.0
 40
5.0
 40
5.0
 40
5.0
 40
6.0
 40
6.0
 40
6.0
 40
6.0
 10
108.2579915093938
 20
-143.956932201424
 30
0.0
 10
108.1136420085619
 20
-143.7645236185728
 30
0.0
 10
107.9100368653836
 20
-143.4894327440756
 30
0.0
 10
107.9100368653836
 20
-142.9414903071466
 30
0.0
 10
107.9100368653836
 20
-142.3935478702176
 30
0.0
 10
108.1136420085619
 20
-142.1186292504946
 30
0.0
 10
108.2579915093938
 20
-141.9260484128692
 30
0.0
 10
108.2579915093938
 20
-141.9260484128692
 30
0.0
 10
108.3561767307235
 20
-142.0254394176187
 30
0.0
 10
108.3561767307235
 20
-142.0254394176187
 30
0.0
 10
108.2338758409971
 20
-142.1926988034275
 30
0.0
 10
108.0485297038907
 20
-142.4486693979816
 30
0.0
 10
108.0485297038907
 20
-142.9414903071466
 30
0.0
 10
108.0485297038907
 20
-143.4344834710858
 30
0.0
 10
108.2338758409971
 20
-143.6904540656399
 30
0.0
 10
108.3561767307235
 20
-143.8575411966745
 30
0.0
 10
108.3561767307235
 20
-143.8575411966745
 30
0.0
 10
108.2579915093938
 20
-143.956932201424
 30
0.0
 10
108.2579915093938
 20
-143.956932201424
 30
0.0
  0
HATCH
  5
B7
330
9D
100
AcDbEntity
  8
_U+30EC_U+30A4_U+30E4_U+30FC 1
 62
   179
420
  2234388
100
AcDbHatch
 10
0.0
 20
0.0
 30
0.0
210
0.0
220
0.0
230
1.0
  2
SOLID
 70
     1
 71
     0
 91
        1
 92
        1
 93
        1
 72
     4
 94
        3
 73
     0
 74
     1
 95
       23
 96
       19
 40
0.0
 40
0.0
 40
0.0
 40
0.0
 40
1.0
 40
1.0
 40
1.0
 40
2.0
 40
2.0
 40
2.0
 40
3.0
 40
3.0
 40
3.0
 40
4.0
 40
4.0
 40
4.0
 40
5.0
 40
5.0
 40
5.0
 40
6.0
 40
6.0
 40
6.0
 40
6.0
 10
108.2579915093938
 20
-143.956932201424
 10
108.1136420085619
 20
-143.7645236185728
 10
107.9100368653836
 20
-143.4894327440756
 10
107.9100368653836
 20
-142.9414903071466
 10
107.9100368653836
 20
-142.3935478702176
 10
108.1136420085619
 20
-142.1186292504946
 10
108.2579915093938
 20
-141.9260484128692
 10
108.2579915093938
 20
-141.9260484128692
 10
108.3561767307235
 20
-142.0254394176187
 10
108.3561767307235
 20
-142.0254394176187
 10
108.2338758409971
 20
-142.1926988034275
 10
108.0485297038907
 20
-142.4486693979816
 10
108.0485297038907
 20
-142.9414903071466
 10
108.0485297038907
 20
-143.4344834710858
 10
108.2338758409971
 20
-143.6904540656399
 10
108.3561767307235
 20
-143.8575411966745
 10
108.3561767307235
 20
-143.8575411966745
 10
108.2579915093938
 20
-143.956932201424
 10
108.2579915093938
 20
-143.956932201424
 97
        0
 97
        0
 75
     2
 76
     1
 98
        0
  0
SPLINE
  5
B8
330
9D
100
AcDbEntity
  8
_U+30EC_U+30A4_U+30E4_U+30FC 1
370
     0
100
AcDbSpline
210
0.0
220
0.0
230
1.0
 70
    11
 71
     3
 72
    23
 73
    19
 74
     0
 42
0.0000000001
 43
0.0000000001
 12
1.0
 22
0.0
 32
0.0
 13
1.0
 23
0.0
 33
0.0
 40
0.0
 40
0.0
 40
0.0
 40
0.0
 40
1.0
 40
1.0
 40
1.0
 40
2.0
 40
2.0
 40
2.0
 40
3.0
 40
3.0
 40
3.0
 40
4.0
 40
4.0
 40
4.0
 40
5.0
 40
5.0
 40
5.0
 40
6.0
 40
6.0
 40
6.0
 40
6.0
 10
108.8898220213887
 20
-143.5550618130696
 30
0.0
 10
108.8491698946627
 20
-143.6417059645236
 30
0.0
 10
108.78440209954
 20
-143.7622843065074
 30
0.0
 10
108.701030788797
 20
-143.8616753112568
 30
0.0
 10
108.701030788797
 20
-143.8616753112568
 30
0.0
 10
108.5249864095007
 20
-143.7602172492162
 30
0.0
 10
108.5249864095007
 20
-143.7602172492162
 30
0.0
 10
108.6066351725011
 20
-143.6756401550533
 30
0.0
 10
108.687939425953
 20
-143.5931301181816
 30
0.0
 10
108.7564968261095
 20
-143.4026163378473
 30
0.0
 10
108.7564968261095
 20
-143.4026163378473
 30
0.0
 10
108.9194498425618
 20
-143.4894327440756
 30
0.0
 10
108.9194498425618
 20
-143.4894327440756
 30
0.0
 10
108.935986300891
 20
-143.4978732280144
 30
0.0
 10
108.9452880587012
 20
-143.5147541958922
 30
0.0
 10
108.9452880587012
 20
-143.5254339918964
 30
0.0
 10
108.9452880587012
 20
-143.5528225010042
 30
0.0
 10
108.9008463269415
 20
-143.5550618130696
 30
0.0
 10
108.8898220213887
 20
-143.5550618130696
 30
0.0
  0
SPLINE
  5
B9
330
9D
100
AcDbEntity
  8
_U+30EC_U+30A4_U+30E4_U+30FC 1
370
     0
100
AcDbSpline
210
0.0
220
0.0
230
1.0
 70
    11
 71
     3
 72
   116
 73
   112
 74
     0
 42
0.0000000001
 43
0.0000000001
 12
1.0
 22
0.0
 32
0.0
 13
1.0
 23
0.0
 33
0.0
 40
0.0
 40
0.0
 40
0.0
 40
0.0
 40
1.0
 40
1.0
 40
1.0
 40
2.0
 40
2.0
 40
2.0
 40
3.0
 40
3.0
 40
3.0
 40
4.0
 40
4.0
 40
4.0
 40
5.0
 40
5.0
 40
5.0
 40
6.0
 40
6.0
 40
6.0
 40
7.0
 40
7.0
 40
7.0
 40
8.0
 40
8.0
 40
8.0
 40
9.0
 40
9.0
 40
9.0
 40
10.0
 40
10.0
 40
10.0
 40
11.0
 40
11.0
 40
11.0
 40
12.0
 40
12.0
 40
12.0
 40
13.0
 40
13.0
 40
13.0
 40
14.0
 40
14.0
 40
14.0
 40
15.0
 40
15.0
 40
15.0
 40
16.0
 40
16.0
 40
16.0
 40
17.0
 40
17.0
 40
17.0
 40
18.0
 40
18.0
 40
18.0
 40
19.0
 40
19.0
 40
19.0
 40
20.0
 40
20.0
 40
20.0
 40
21.0
 40
21.0
 40
21.0
 40
22.0
 40
22.0
 40
22.0
 40
23.0
 40
23.0
 40
23.0
 40
24.0
 40
24.0
 40
24.0
 40
25.0
 40
25.0
 40
25.0
 40
26.0
 40
26.0
 40
26.0
 40
27.0
 40
27.0
 40
27.0
 40
28.0
 40
28.0
 40
28.0
 40
29.0
 40
29.0
 40
29.0
 40
30.0
 40
30.0
 40
30.0
 40
31.0
 40
31.0
 40
31.0
 40
32.0
 40
32.0
 40
32.0
 40
33.0
 40
33.0
 40
33.0
 40
34.0
 40
34.0
 40
34.0
 40
35.0
 40
35.0
 40
35.0
 40
36.0
 40
36.0
 40
36.0
 40
37.0
 40
37.0
 40
37.0
 40
37.0
 10
109.6639349769243
 20
-143.3772948860307
 30
0.0
 10
109.6639349769243
 20
-143.3772948860307
 30
0.0
 10
109.1082410751535
 20
-143.3772948860307
 30
0.0
 10
109.1082410751535
 20
-143.3772948860307
 30
0.0
 10
108.8732855630595
 20
-143.3772948860307
 30
0.0
 10
108.7027533365396
 20
-143.3772948860307
 30
0.0
 10
108.5528916829312
 20
-143.3878024272607
 30
0.0
 10
108.5528916829312
 20
-143.3878024272607
 30
0.0
 10
108.5528916829312
 20
-143.2017672710572
 30
0.0
 10
108.5528916829312
 20
-143.2017672710572
 30
0.0
 10
108.7899142523164
 20
-143.2186482389349
 30
0.0
 10
109.1047959796683
 20
-143.2186482389349
 30
0.0
 10
109.1082410751535
 20
-143.2186482389349
 30
0.0
 10
109.1082410751535
 20
-143.2186482389349
 30
0.0
 10
109.2990993650363
 20
-143.2186482389349
 30
0.0
 10
109.2990993650363
 20
-143.2186482389349
 30
0.0
 10
109.2990993650363
 20
-143.2186482389349
 30
0.0
 10
109.2990993650363
 20
-143.057934534548
 30
0.0
 10
109.2990993650363
 20
-143.057934534548
 30
0.0
 10
109.2990993650363
 20
-143.057934534548
 30
0.0
 10
109.1433810491031
 20
-143.057934534548
 30
0.0
 10
109.1433810491031
 20
-143.057934534548
 30
0.0
 10
109.06000973836
 20
-143.057934534548
 30
0.0
 10
108.8284993217512
 20
-143.0620686491303
 30
0.0
 10
108.6621012098136
 20
-143.068442075778
 30
0.0
 10
108.6621012098136
 20
-143.068442075778
 30
0.0
 10
108.6621012098136
 20
-142.8906751487391
 30
0.0
 10
108.6621012098136
 20
-142.8906751487391
 30
0.0
 10
108.811962863422
 20
-142.8970485753869
 30
0.0
 10
109.0303819171869
 20
-142.9034220020346
 30
0.0
 10
109.1433810491031
 20
-142.9034220020346
 30
0.0
 10
109.1433810491031
 20
-142.9034220020346
 30
0.0
 10
109.2990993650363
 20
-142.9034220020346
 30
0.0
 10
109.2990993650363
 20
-142.9034220020346
 30
0.0
 10
109.2990993650363
 20
-142.9034220020346
 30
0.0
 10
109.2990993650363
 20
-142.7659626921731
 30
0.0
 10
109.2990993650363
 20
-142.7659626921731
 30
0.0
 10
109.2990993650363
 20
-142.7659626921731
 30
0.0
 10
109.17679847531
 20
-142.7659626921731
 30
0.0
 10
109.17679847531
 20
-142.7659626921731
 30
0.0
 10
109.1488932018794
 20
-142.7659626921731
 30
0.0
 10
109.0248697644105
 20
-142.7723361188208
 30
0.0
 10
109.0007540960137
 20
-142.7723361188208
 30
0.0
 10
108.8546820474391
 20
-142.7723361188208
 30
0.0
 10
108.7988715005781
 20
-142.7764702334031
 30
0.0
 10
108.7341037054554
 20
-142.7807766027597
 30
0.0
 10
108.7396158582318
 20
-142.7046399925356
 30
0.0
 10
108.7454725205567
 20
-142.5606350012522
 30
0.0
 10
108.7454725205567
 20
-142.4803642764459
 30
0.0
 10
108.7454725205567
 20
-142.4803642764459
 30
0.0
 10
108.7454725205567
 20
-142.378733959631
 30
0.0
 10
108.7454725205567
 20
-142.378733959631
 30
0.0
 10
108.7454725205567
 20
-142.2285277964741
 30
0.0
 10
108.7437499728141
 20
-142.1926988034275
 30
0.0
 10
108.7341037054554
 20
-142.0381862709141
 30
0.0
 10
108.78440209954
 20
-142.0402533282052
 30
0.0
 10
109.0861924640479
 20
-142.0486938121441
 30
0.0
 10
109.2009141437067
 20
-142.0486938121441
 30
0.0
 10
109.2009141437067
 20
-142.0486938121441
 30
0.0
 10
109.5547254500419
 20
-142.0486938121441
 30
0.0
 10
109.5547254500419
 20
-142.0486938121441
 30
0.0
 10
109.7118218041693
 20
-142.0486938121441
 30
0.0
 10
109.9822617997614
 20
-142.0361192136229
 30
0.0
 10
110.0322156842975
 20
-142.0318128442664
 30
0.0
 10
110.0304931365549
 20
-142.0741875187349
 30
0.0
 10
110.0249809837785
 20
-142.2476480764172
 30
0.0
 10
110.0249809837785
 20
-142.292089808177
 30
0.0
 10
110.0249809837785
 20
-142.292089808177
 30
0.0
 10
110.0249809837785
 20
-142.5120591549102
 30
0.0
 10
110.0249809837785
 20
-142.5120591549102
 30
0.0
 10
110.0249809837785
 20
-142.6347045541851
 30
0.0
 10
110.0287705888123
 20
-142.7003336231791
 30
0.0
 10
110.0322156842975
 20
-142.7807766027597
 30
0.0
 10
109.8751193301701
 20
-142.7723361188208
 30
0.0
 10
109.6008897295442
 20
-142.7659626921731
 30
0.0
 10
109.5691948510799
 20
-142.7659626921731
 30
0.0
 10
109.5691948510799
 20
-142.7659626921731
 30
0.0
 10
109.4637749292313
 20
-142.7659626921731
 30
0.0
 10
109.4637749292313
 20
-142.7659626921731
 30
0.0
 10
109.4637749292313
 20
-142.7659626921731
 30
0.0
 10
109.4637749292313
 20
-142.9034220020346
 30
0.0
 10
109.4637749292313
 20
-142.9034220020346
 30
0.0
 10
109.4637749292313
 20
-142.9034220020346
 30
0.0
 10
109.625005397941
 20
-142.9034220020346
 30
0.0
 10
109.625005397941
 20
-142.9034220020346
 30
0.0
 10
109.728702772047
 20
-142.9034220020346
 30
0.0
 10
109.9488443735545
 20
-142.8992878874523
 30
0.0
 10
110.1083522945215
 20
-142.8906751487391
 30
0.0
 10
110.1083522945215
 20
-142.8906751487391
 30
0.0
 10
110.1083522945215
 20
-143.068442075778
 30
0.0
 10
110.1083522945215
 20
-143.068442075778
 30
0.0
 10
109.9602131886558
 20
-143.0620686491303
 30
0.0
 10
109.721468071528
 20
-143.057934534548
 30
0.0
 10
109.625005397941
 20
-143.057934534548
 30
0.0
 10
109.625005397941
 20
-143.057934534548
 30
0.0
 10
109.4637749292313
 20
-143.057934534548
 30
0.0
 10
109.4637749292313
 20
-143.057934534548
 30
0.0
 10
109.4637749292313
 20
-143.057934534548
 30
0.0
 10
109.4637749292313
 20
-143.2186482389349
 30
0.0
 10
109.4637749292313
 20
-143.2186482389349
 30
0.0
 10
109.4637749292313
 20
-143.2186482389349
 30
0.0
 10
109.6639349769243
 20
-143.2186482389349
 30
0.0
 10
109.6639349769243
 20
-143.2186482389349
 30
0.0
 10
109.8489366044822
 20
-143.2186482389349
 30
0.0
 10
110.0342827415887
 20
-143.2143418695784
 30
0.0
 10
110.2192843691466
 20
-143.2017672710572
 30
0.0
 10
110.2192843691466
 20
-143.2017672710572
 30
0.0
 10
110.2192843691466
 20
-143.3878024272607
 30
0.0
 10
110.2192843691466
 20
-143.3878024272607
 30
0.0
 10
110.1434922684711
 20
-143.3836683126784
 30
0.0
 10
109.9119818518623
 20
-143.3772948860307
 30
0.0
 10
109.6639349769243
 20
-143.3772948860307
 30
0.0
  0
POLYLINE
  5
BA
330
9D
100
AcDbEntity
  8
_U+30EC_U+30A4_U+30E4_U+30FC 1
370
     0
100
AcDb2dPolyline
 66
     1
 10
0.0
 20
0.0
 30
0.0
  0
VERTEX
  5
BB
330
BA
100
AcDbEntity
  8
_U+30EC_U+30A4_U+30E4_U+30FC 1
370
     0
100
AcDbVertex
100
AcDb2dVertex
 10
109.2990993650363
 20
-142.188392434071
 30
0.0
  0
VERTEX
  5
BC
330
BA
100
AcDbEntity
  8
_U+30EC_U+30A4_U+30E4_U+30FC 1
370
     0
100
AcDbVertex
100
AcDb2dVertex
 10
108.9194498425618
 20
-142.188392434071
 30
0.0
  0
VERTEX
  5
BD
330
BA
100
AcDbEntity
  8
_U+30EC_U+30A4_U+30E4_U+30FC 1
370
     0
100
AcDbVertex
100
AcDb2dVertex
 10
108.9194498425618
 20
-142.330158113289
 30
0.0
  0
VERTEX
  5
BE
330
BA
100
AcDbEntity
  8
_U+30EC_U+30A4_U+30E4_U+30FC 1
370
     0
100
AcDbVertex
100
AcDb2dVertex
 10
109.2990993650363
 20
-142.330158113289
 30
0.0
  0
VERTEX
  5
BF
330
BA
100
AcDbEntity
  8
_U+30EC_U+30A4_U+30E4_U+30FC 1
370
     0
100
AcDbVertex
100
AcDb2dVertex
 10
109.2990993650363
 20
-142.188392434071
 30
0.0
  0
SEQEND
  5
C0
330
BA
100
AcDbEntity
  8
_U+30EC_U+30A4_U+30E4_U+30FC 1
370
     0
  0
POLYLINE
  5
C1
330
9D
100
AcDbEntity
  8
_U+30EC_U+30A4_U+30E4_U+30FC 1
370
     0
100
AcDb2dPolyline
 66
     1
 10
0.0
 20
0.0
 30
0.0
  0
VERTEX
  5
C2
330
C1
100
AcDbEntity
  8
_U+30EC_U+30A4_U+30E4_U+30FC 1
370
     0
100
AcDbVertex
100
AcDb2dVertex
 10
109.2990993650363
 20
-142.4739908497982
 30
0.0
  0
VERTEX
  5
C3
330
C1
100
AcDbEntity
  8
_U+30EC_U+30A4_U+30E4_U+30FC 1
370
     0
100
AcDbVertex
100
AcDb2dVertex
 10
108.9194498425618
 20
-142.4739908497982
 30
0.0
  0
VERTEX
  5
C4
330
C1
100
AcDbEntity
  8
_U+30EC_U+30A4_U+30E4_U+30FC 1
370
     0
100
AcDbVertex
100
AcDb2dVertex
 10
108.9194498425618
 20
-142.6178235863074
 30
0.0
  0
VERTEX
  5
C5
330
C1
100
AcDbEntity
  8
_U+30EC_U+30A4_U+30E4_U+30FC 1
370
     0
100
AcDbVertex
100
AcDb2dVertex
 10
109.2990993650363
 20
-142.6178235863074
 30
0.0
  0
VERTEX
  5
C6
330
C1
100
AcDbEntity
  8
_U+30EC_U+30A4_U+30E4_U+30FC 1
370
     0
100
AcDbVertex
100
AcDb2dVertex
 10
109.2990993650363
 20
-142.4739908497982
 30
0.0
  0
SEQEND
  5
C7
330
C1
100
AcDbEntity
  8
_U+30EC_U+30A4_U+30E4_U+30FC 1
370
     0
  0
SPLINE
  5
C8
330
9D
100
AcDbEntity
  8
_U+30EC_U+30A4_U+30E4_U+30FC 1
370
     0
100
AcDbSpline
210
0.0
220
0.0
230
1.0
 70
    11
 71
     3
 72
    17
 73
    13
 74
     0
 42
0.0000000001
 43
0.0000000001
 12
1.0
 22
0.0
 32
0.0
 13
1.0
 23
0.0
 33
0.0
 40
0.0
 40
0.0
 40
0.0
 40
0.0
 40
1.0
 40
1.0
 40
1.0
 40
2.0
 40
2.0
 40
2.0
 40
3.0
 40
3.0
 40
3.0
 40
4.0
 40
4.0
 40
4.0
 40
4.0
 10
109.1544053546559
 20
-143.8554741393833
 30
0.0
 10
109.1378688963267
 20
-143.7517767652773
 30
0.0
 10
109.0917046168243
 20
-143.6311984232936
 30
0.0
 10
109.0269368217016
 20
-143.5318074185441
 30
0.0
 10
109.0269368217016
 20
-143.5318074185441
 30
0.0
 10
109.1619845647234
 20
-143.4429239550247
 30
0.0
 10
109.1619845647234
 20
-143.4429239550247
 30
0.0
 10
109.2267523598461
 20
-143.5275010491876
 30
0.0
 10
109.2915201549688
 20
-143.654452817819
 30
0.0
 10
109.3121907278803
 20
-143.758150191925
 30
0.0
 10
109.3121907278803
 20
-143.758150191925
 30
0.0
 10
109.1544053546559
 20
-143.8554741393833
 30
0.0
 10
109.1544053546559
 20
-143.8554741393833
 30
0.0
  0
SPLINE
  5
C9
330
9D
100
AcDbEntity
  8
_U+30EC_U+30A4_U+30E4_U+30FC 1
370
     0
100
AcDbSpline
210
0.0
220
0.0
230
1.0
 70
    11
 71
     3
 72
    17
 73
    13
 74
     0
 42
0.0000000001
 43
0.0000000001
 12
1.0
 22
0.0
 32
0.0
 13
1.0
 23
0.0
 33
0.0
 40
0.0
 40
0.0
 40
0.0
 40
0.0
 40
1.0
 40
1.0
 40
1.0
 40
2.0
 40
2.0
 40
2.0
 40
3.0
 40
3.0
 40
3.0
 40
4.0
 40
4.0
 40
4.0
 40
4.0
 10
109.5767740611475
 20
-143.8596082539657
 30
0.0
 10
109.5416340871979
 20
-143.6608262444667
 30
0.0
 10
109.4803113875605
 20
-143.5635022970084
 30
0.0
 10
109.4396592608345
 20
-143.5042466546621
 30
0.0
 10
109.4396592608345
 20
-143.5042466546621
 30
0.0
 10
109.5915879717341
 20
-143.4217366177904
 30
0.0
 10
109.5915879717341
 20
-143.4217366177904
 30
0.0
 10
109.6821939829961
 20
-143.5359415331264
 30
0.0
 10
109.7231906192706
 20
-143.6861476962833
 30
0.0
 10
109.735937472566
 20
-143.7517767652773
 30
0.0
 10
109.735937472566
 20
-143.7517767652773
 30
0.0
 10
109.5767740611475
 20
-143.8596082539657
 30
0.0
 10
109.5767740611475
 20
-143.8596082539657
 30
0.0
  0
POLYLINE
  5
CA
330
9D
100
AcDbEntity
  8
_U+30EC_U+30A4_U+30E4_U+30FC 1
370
     0
100
AcDb2dPolyline
 66
     1
 10
0.0
 20
0.0
 30
0.0
  0
VERTEX
  5
CB
330
CA
100
AcDbEntity
  8
_U+30EC_U+30A4_U+30E4_U+30FC 1
370
     0
100
AcDbVertex
100
AcDb2dVertex
 10
109.8472140567396
 20
-142.188392434071
 30
0.0
  0
VERTEX
  5
CC
330
CA
100
AcDbEntity
  8
_U+30EC_U+30A4_U+30E4_U+30FC 1
370
     0
100
AcDbVertex
100
AcDb2dVertex
 10
109.4637749292313
 20
-142.188392434071
 30
0.0
  0
VERTEX
  5
CD
330
CA
100
AcDbEntity
  8
_U+30EC_U+30A4_U+30E4_U+30FC 1
370
     0
100
AcDbVertex
100
AcDb2dVertex
 10
109.4637749292313
 20
-142.330158113289
 30
0.0
  0
VERTEX
  5
CE
330
CA
100
AcDbEntity
  8
_U+30EC_U+30A4_U+30E4_U+30FC 1
370
     0
100
AcDbVertex
100
AcDb2dVertex
 10
109.8472140567396
 20
-142.330158113289
 30
0.0
  0
VERTEX
  5
CF
330
CA
100
AcDbEntity
  8
_U+30EC_U+30A4_U+30E4_U+30FC 1
370
     0
100
AcDbVertex
100
AcDb2dVertex
 10
109.8472140567396
 20
-142.188392434071
 30
0.0
  0
SEQEND
  5
D0
330
CA
100
AcDbEntity
  8
_U+30EC_U+30A4_U+30E4_U+30FC 1
370
     0
  0
POLYLINE
  5
D1
330
9D
100
AcDbEntity
  8
_U+30EC_U+30A4_U+30E4_U+30FC 1
370
     0
100
AcDb2dPolyline
 66
     1
 10
0.0
 20
0.0
 30
0.0
  0
VERTEX
  5
D2
330
D1
100
AcDbEntity
  8
_U+30EC_U+30A4_U+30E4_U+30FC 1
370
     0
100
AcDbVertex
100
AcDb2dVertex
 10
109.8472140567396
 20
-142.4739908497982
 30
0.0
  0
VERTEX
  5
D3
330
D1
100
AcDbEntity
  8
_U+30EC_U+30A4_U+30E4_U+30FC 1
370
     0
100
AcDbVertex
100
AcDb2dVertex
 10
109.4637749292313
 20
-142.4739908497982
 30
0.0
  0
VERTEX
  5
D4
330
D1
100
AcDbEntity
  8
_U+30EC_U+30A4_U+30E4_U+30FC 1
370
     0
100
AcDbVertex
100
AcDb2dVertex
 10
109.4637749292313
 20
-142.6178235863074
 30
0.0
  0
VERTEX
  5
D5
330
D1
100
AcDbEntity
  8
_U+30EC_U+30A4_U+30E4_U+30FC 1
370
     0
100
AcDbVertex
100
AcDb2dVertex
 10
109.8472140567396
 20
-142.6178235863074
 30
0.0
  0
VERTEX
  5
D6
330
D1
100
AcDbEntity
  8
_U+30EC_U+30A4_U+30E4_U+30FC 1
370
     0
100
AcDbVertex
100
AcDb2dVertex
 10
109.8472140567396
 20
-142.4739908497982
 30
0.0
  0
SEQEND
  5
D7
330
D1
100
AcDbEntity
  8
_U+30EC_U+30A4_U+30E4_U+30FC 1
370
     0
  0
SPLINE
  5
D8
330
9D
100
AcDbEntity
  8
_U+30EC_U+30A4_U+30E4_U+30FC 1
370
     0
100
AcDbSpline
210
0.0
220
0.0
230
1.0
 70
    11
 71
     3
 72
    17
 73
    13
 74
     0
 42
0.0000000001
 43
0.0000000001
 12
1.0
 22
0.0
 32
0.0
 13
1.0
 23
0.0
 33
0.0
 40
0.0
 40
0.0
 40
0.0
 40
0.0
 40
1.0
 40
1.0
 40
1.0
 40
2.0
 40
2.0
 40
2.0
 40
3.0
 40
3.0
 40
3.0
 40
4.0
 40
4.0
 40
4.0
 40
4.0
 10
110.080447021091
 20
-143.8702880499699
 30
0.0
 10
110.0194688310021
 20
-143.7410969692731
 30
0.0
 10
109.9398871252928
 20
-143.6184515699982
 30
0.0
 10
109.8303330888619
 20
-143.5295681064787
 30
0.0
 10
109.8303330888619
 20
-143.5295681064787
 30
0.0
 10
109.9657253414322
 20
-143.4026163378473
 30
0.0
 10
109.9657253414322
 20
-143.4026163378473
 30
0.0
 10
109.969514946466
 20
-143.4048556499127
 30
0.0
 10
110.1341905106609
 20
-143.5423149597742
 30
0.0
 10
110.2251410314715
 20
-143.7369628546908
 30
0.0
 10
110.2251410314715
 20
-143.7369628546908
 30
0.0
 10
110.080447021091
 20
-143.8702880499699
 30
0.0
 10
110.080447021091
 20
-143.8702880499699
 30
0.0
  0
HATCH
  5
D9
330
9D
100
AcDbEntity
  8
_U+30EC_U+30A4_U+30E4_U+30FC 1
 62
   179
420
  2234388
100
AcDbHatch
 10
0.0
 20
0.0
 30
0.0
210
0.0
220
0.0
230
1.0
  2
SOLID
 70
     1
 71
     0
 91
        9
 92
        1
 93
        1
 72
     4
 94
        3
 73
     0
 74
     1
 95
       23
 96
       19
 40
0.0
 40
0.0
 40
0.0
 40
0.0
 40
1.0
 40
1.0
 40
1.0
 40
2.0
 40
2.0
 40
2.0
 40
3.0
 40
3.0
 40
3.0
 40
4.0
 40
4.0
 40
4.0
 40
5.0
 40
5.0
 40
5.0
 40
6.0
 40
6.0
 40
6.0
 40
6.0
 10
108.8898220213887
 20
-143.5550618130696
 10
108.8491698946627
 20
-143.6417059645236
 10
108.78440209954
 20
-143.7622843065074
 10
108.701030788797
 20
-143.8616753112568
 10
108.701030788797
 20
-143.8616753112568
 10
108.5249864095007
 20
-143.7602172492162
 10
108.5249864095007
 20
-143.7602172492162
 10
108.6066351725011
 20
-143.6756401550533
 10
108.687939425953
 20
-143.5931301181816
 10
108.7564968261095
 20
-143.4026163378473
 10
108.7564968261095
 20
-143.4026163378473
 10
108.9194498425618
 20
-143.4894327440756
 10
108.9194498425618
 20
-143.4894327440756
 10
108.935986300891
 20
-143.4978732280144
 10
108.9452880587012
 20
-143.5147541958922
 10
108.9452880587012
 20
-143.5254339918964
 10
108.9452880587012
 20
-143.5528225010042
 10
108.9008463269415
 20
-143.5550618130696
 10
108.8898220213887
 20
-143.5550618130696
 97
        0
 97
        0
 92
        1
 93
        1
 72
     4
 94
        3
 73
     0
 74
     1
 95
      116
 96
      112
 40
0.0
 40
0.0
 40
0.0
 40
0.0
 40
1.0
 40
1.0
 40
1.0
 40
2.0
 40
2.0
 40
2.0
 40
3.0
 40
3.0
 40
3.0
 40
4.0
 40
4.0
 40
4.0
 40
5.0
 40
5.0
 40
5.0
 40
6.0
 40
6.0
 40
6.0
 40
7.0
 40
7.0
 40
7.0
 40
8.0
 40
8.0
 40
8.0
 40
9.0
 40
9.0
 40
9.0
 40
10.0
 40
10.0
 40
10.0
 40
11.0
 40
11.0
 40
11.0
 40
12.0
 40
12.0
 40
12.0
 40
13.0
 40
13.0
 40
13.0
 40
14.0
 40
14.0
 40
14.0
 40
15.0
 40
15.0
 40
15.0
 40
16.0
 40
16.0
 40
16.0
 40
17.0
 40
17.0
 40
17.0
 40
18.0
 40
18.0
 40
18.0
 40
19.0
 40
19.0
 40
19.0
 40
20.0
 40
20.0
 40
20.0
 40
21.0
 40
21.0
 40
21.0
 40
22.0
 40
22.0
 40
22.0
 40
23.0
 40
23.0
 40
23.0
 40
24.0
 40
24.0
 40
24.0
 40
25.0
 40
25.0
 40
25.0
 40
26.0
 40
26.0
 40
26.0
 40
27.0
 40
27.0
 40
27.0
 40
28.0
 40
28.0
 40
28.0
 40
29.0
 40
29.0
 40
29.0
 40
30.0
 40
30.0
 40
30.0
 40
31.0
 40
31.0
 40
31.0
 40
32.0
 40
32.0
 40
32.0
 40
33.0
 40
33.0
 40
33.0
 40
34.0
 40
34.0
 40
34.0
 40
35.0
 40
35.0
 40
35.0
 40
36.0
 40
36.0
 40
36.0
 40
37.0
 40
37.0
 40
37.0
 40
37.0
 10
109.6639349769243
 20
-143.3772948860307
 10
109.6639349769243
 20
-143.3772948860307
 10
109.1082410751535
 20
-143.3772948860307
 10
109.1082410751535
 20
-143.3772948860307
 10
108.8732855630595
 20
-143.3772948860307
 10
108.7027533365396
 20
-143.3772948860307
 10
108.5528916829312
 20
-143.3878024272607
 10
108.5528916829312
 20
-143.3878024272607
 10
108.5528916829312
 20
-143.2017672710572
 10
108.5528916829312
 20
-143.2017672710572
 10
108.7899142523164
 20
-143.2186482389349
 10
109.1047959796683
 20
-143.2186482389349
 10
109.1082410751535
 20
-143.2186482389349
 10
109.1082410751535
 20
-143.2186482389349
 10
109.2990993650363
 20
-143.2186482389349
 10
109.2990993650363
 20
-143.2186482389349
 10
109.2990993650363
 20
-143.2186482389349
 10
109.2990993650363
 20
-143.057934534548
 10
109.2990993650363
 20
-143.057934534548
 10
109.2990993650363
 20
-143.057934534548
 10
109.1433810491031
 20
-143.057934534548
 10
109.1433810491031
 20
-143.057934534548
 10
109.06000973836
 20
-143.057934534548
 10
108.8284993217512
 20
-143.0620686491303
 10
108.6621012098136
 20
-143.068442075778
 10
108.6621012098136
 20
-143.068442075778
 10
108.6621012098136
 20
-142.8906751487391
 10
108.6621012098136
 20
-142.8906751487391
 10
108.811962863422
 20
-142.8970485753869
 10
109.0303819171869
 20
-142.9034220020346
 10
109.1433810491031
 20
-142.9034220020346
 10
109.1433810491031
 20
-142.9034220020346
 10
109.2990993650363
 20
-142.9034220020346
 10
109.2990993650363
 20
-142.9034220020346
 10
109.2990993650363
 20
-142.9034220020346
 10
109.2990993650363
 20
-142.7659626921731
 10
109.2990993650363
 20
-142.7659626921731
 10
109.2990993650363
 20
-142.7659626921731
 10
109.17679847531
 20
-142.7659626921731
 10
109.17679847531
 20
-142.7659626921731
 10
109.1488932018794
 20
-142.7659626921731
 10
109.0248697644105
 20
-142.7723361188208
 10
109.0007540960137
 20
-142.7723361188208
 10
108.8546820474391
 20
-142.7723361188208
 10
108.7988715005781
 20
-142.7764702334031
 10
108.7341037054554
 20
-142.7807766027597
 10
108.7396158582318
 20
-142.7046399925356
 10
108.7454725205567
 20
-142.5606350012522
 10
108.7454725205567
 20
-142.4803642764459
 10
108.7454725205567
 20
-142.4803642764459
 10
108.7454725205567
 20
-142.378733959631
 10
108.7454725205567
 20
-142.378733959631
 10
108.7454725205567
 20
-142.2285277964741
 10
108.7437499728141
 20
-142.1926988034275
 10
108.7341037054554
 20
-142.0381862709141
 10
108.78440209954
 20
-142.0402533282052
 10
109.0861924640479
 20
-142.0486938121441
 10
109.2009141437067
 20
-142.0486938121441
 10
109.2009141437067
 20
-142.0486938121441
 10
109.5547254500419
 20
-142.0486938121441
 10
109.5547254500419
 20
-142.0486938121441
 10
109.7118218041693
 20
-142.0486938121441
 10
109.9822617997614
 20
-142.0361192136229
 10
110.0322156842975
 20
-142.0318128442664
 10
110.0304931365549
 20
-142.0741875187349
 10
110.0249809837785
 20
-142.2476480764172
 10
110.0249809837785
 20
-142.292089808177
 10
110.0249809837785
 20
-142.292089808177
 10
110.0249809837785
 20
-142.5120591549102
 10
110.0249809837785
 20
-142.5120591549102
 10
110.0249809837785
 20
-142.6347045541851
 10
110.0287705888123
 20
-142.7003336231791
 10
110.0322156842975
 20
-142.7807766027597
 10
109.8751193301701
 20
-142.7723361188208
 10
109.6008897295442
 20
-142.7659626921731
 10
109.5691948510799
 20
-142.7659626921731
 10
109.5691948510799
 20
-142.7659626921731
 10
109.4637749292313
 20
-142.7659626921731
 10
109.4637749292313
 20
-142.7659626921731
 10
109.4637749292313
 20
-142.7659626921731
 10
109.4637749292313
 20
-142.9034220020346
 10
109.4637749292313
 20
-142.9034220020346
 10
109.4637749292313
 20
-142.9034220020346
 10
109.625005397941
 20
-142.9034220020346
 10
109.625005397941
 20
-142.9034220020346
 10
109.728702772047
 20
-142.9034220020346
 10
109.9488443735545
 20
-142.8992878874523
 10
110.1083522945215
 20
-142.8906751487391
 10
110.1083522945215
 20
-142.8906751487391
 10
110.1083522945215
 20
-143.068442075778
 10
110.1083522945215
 20
-143.068442075778
 10
109.9602131886558
 20
-143.0620686491303
 10
109.721468071528
 20
-143.057934534548
 10
109.625005397941
 20
-143.057934534548
 10
109.625005397941
 20
-143.057934534548
 10
109.4637749292313
 20
-143.057934534548
 10
109.4637749292313
 20
-143.057934534548
 10
109.4637749292313
 20
-143.057934534548
 10
109.4637749292313
 20
-143.2186482389349
 10
109.4637749292313
 20
-143.2186482389349
 10
109.4637749292313
 20
-143.2186482389349
 10
109.6639349769243
 20
-143.2186482389349
 10
109.6639349769243
 20
-143.2186482389349
 10
109.8489366044822
 20
-143.2186482389349
 10
110.0342827415887
 20
-143.2143418695784
 10
110.2192843691466
 20
-143.2017672710572
 10
110.2192843691466
 20
-143.2017672710572
 10
110.2192843691466
 20
-143.3878024272607
 10
110.2192843691466
 20
-143.3878024272607
 10
110.1434922684711
 20
-143.3836683126784
 10
109.9119818518623
 20
-143.3772948860307
 10
109.6639349769243
 20
-143.3772948860307
 97
        0
 97
        0
 92
        1
 93
        4
 72
     1
 10
109.2990993650363
 20
-142.188392434071
 11
108.9194498425618
 21
-142.188392434071
 72
     1
 10
108.9194498425618
 20
-142.188392434071
 11
108.9194498425618
 21
-142.330158113289
 72
     1
 10
108.9194498425618
 20
-142.330158113289
 11
109.2990993650363
 21
-142.330158113289
 72
     1
 10
109.2990993650363
 20
-142.330158113289
 11
109.2990993650363
 21
-142.188392434071
 97
        0
 92
        1
 93
        4
 72
     1
 10
109.2990993650363
 20
-142.4739908497982
 11
108.9194498425618
 21
-142.4739908497982
 72
     1
 10
108.9194498425618
 20
-142.4739908497982
 11
108.9194498425618
 21
-142.6178235863074
 72
     1
 10
108.9194498425618
 20
-142.6178235863074
 11
109.2990993650363
 21
-142.6178235863074
 72
     1
 10
109.2990993650363
 20
-142.6178235863074
 11
109.2990993650363
 21
-142.4739908497982
 97
        0
 92
        1
 93
        1
 72
     4
 94
        3
 73
     0
 74
     1
 95
       17
 96
       13
 40
0.0
 40
0.0
 40
0.0
 40
0.0
 40
1.0
 40
1.0
 40
1.0
 40
2.0
 40
2.0
 40
2.0
 40
3.0
 40
3.0
 40
3.0
 40
4.0
 40
4.0
 40
4.0
 40
4.0
 10
109.1544053546559
 20
-143.8554741393833
 10
109.1378688963267
 20
-143.7517767652773
 10
109.0917046168243
 20
-143.6311984232936
 10
109.0269368217016
 20
-143.5318074185441
 10
109.0269368217016
 20
-143.5318074185441
 10
109.1619845647234
 20
-143.4429239550247
 10
109.1619845647234
 20
-143.4429239550247
 10
109.2267523598461
 20
-143.5275010491876
 10
109.2915201549688
 20
-143.654452817819
 10
109.3121907278803
 20
-143.758150191925
 10
109.3121907278803
 20
-143.758150191925
 10
109.1544053546559
 20
-143.8554741393833
 10
109.1544053546559
 20
-143.8554741393833
 97
        0
 97
        0
 92
        1
 93
        1
 72
     4
 94
        3
 73
     0
 74
     1
 95
       17
 96
       13
 40
0.0
 40
0.0
 40
0.0
 40
0.0
 40
1.0
 40
1.0
 40
1.0
 40
2.0
 40
2.0
 40
2.0
 40
3.0
 40
3.0
 40
3.0
 40
4.0
 40
4.0
 40
4.0
 40
4.0
 10
109.5767740611475
 20
-143.8596082539657
 10
109.5416340871979
 20
-143.6608262444667
 10
109.4803113875605
 20
-143.5635022970084
 10
109.4396592608345
 20
-143.5042466546621
 10
109.4396592608345
 20
-143.5042466546621
 10
109.5915879717341
 20
-143.4217366177904
 10
109.5915879717341
 20
-143.4217366177904
 10
109.6821939829961
 20
-143.5359415331264
 10
109.7231906192706
 20
-143.6861476962833
 10
109.735937472566
 20
-143.7517767652773
 10
109.735937472566
 20
-143.7517767652773
 10
109.5767740611475
 20
-143.8596082539657
 10
109.5767740611475
 20
-143.8596082539657
 97
        0
 97
        0
 92
        1
 93
        4
 72
     1
 10
109.8472140567396
 20
-142.188392434071
 11
109.4637749292313
 21
-142.188392434071
 72
     1
 10
109.4637749292313
 20
-142.188392434071
 11
109.4637749292313
 21
-142.330158113289
 72
     1
 10
109.4637749292313
 20
-142.330158113289
 11
109.8472140567396
 21
-142.330158113289
 72
     1
 10
109.8472140567396
 20
-142.330158113289
 11
109.8472140567396
 21
-142.188392434071
 97
        0
 92
        1
 93
        4
 72
     1
 10
109.8472140567396
 20
-142.4739908497982
 11
109.4637749292313
 21
-142.4739908497982
 72
     1
 10
109.4637749292313
 20
-142.4739908497982
 11
109.4637749292313
 21
-142.6178235863074
 72
     1
 10
109.4637749292313
 20
-142.6178235863074
 11
109.8472140567396
 21
-142.6178235863074
 72
     1
 10
109.8472140567396
 20
-142.6178235863074
 11
109.8472140567396
 21
-142.4739908497982
 97
        0
 92
        1
 93
        1
 72
     4
 94
        3
 73
     0
 74
     1
 95
       17
 96
       13
 40
0.0
 40
0.0
 40
0.0
 40
0.0
 40
1.0
 40
1.0
 40
1.0
 40
2.0
 40
2.0
 40
2.0
 40
3.0
 40
3.0
 40
3.0
 40
4.0
 40
4.0
 40
4.0
 40
4.0
 10
110.080447021091
 20
-143.8702880499699
 10
110.0194688310021
 20
-143.7410969692731
 10
109.9398871252928
 20
-143.6184515699982
 10
109.8303330888619
 20
-143.5295681064787
 10
109.8303330888619
 20
-143.5295681064787
 10
109.9657253414322
 20
-143.4026163378473
 10
109.9657253414322
 20
-143.4026163378473
 10
109.969514946466
 20
-143.4048556499127
 10
110.1341905106609
 20
-143.5423149597742
 10
110.2251410314715
 20
-143.7369628546908
 10
110.2251410314715
 20
-143.7369628546908
 10
110.080447021091
 20
-143.8702880499699
 10
110.080447021091
 20
-143.8702880499699
 97
        0
 97
        0
 75
     2
 76
     1
 98
        0
  0
SPLINE
  5
DA
330
9D
100
AcDbEntity
  8
_U+30EC_U+30A4_U+30E4_U+30FC 1
370
     0
100
AcDbSpline
210
0.0
220
0.0
230
1.0
 70
    11
 71
     3
 72
    23
 73
    19
 74
     0
 42
0.0000000001
 43
0.0000000001
 12
1.0
 22
0.0
 32
0.0
 13
1.0
 23
0.0
 33
0.0
 40
0.0
 40
0.0
 40
0.0
 40
0.0
 40
1.0
 40
1.0
 40
1.0
 40
2.0
 40
2.0
 40
2.0
 40
3.0
 40
3.0
 40
3.0
 40
4.0
 40
4.0
 40
4.0
 40
5.0
 40
5.0
 40
5.0
 40
6.0
 40
6.0
 40
6.0
 40
6.0
 10
110.4159993213543
 20
-143.8575411966745
 30
0.0
 10
110.5386447206292
 20
-143.6904540656399
 30
0.0
 10
110.7236463481871
 20
-143.4344834710858
 30
0.0
 10
110.7236463481871
 20
-142.9414903071466
 30
0.0
 10
110.7236463481871
 20
-142.4486693979816
 30
0.0
 10
110.5386447206292
 20
-142.1926988034275
 30
0.0
 10
110.4159993213543
 20
-142.0254394176187
 30
0.0
 10
110.4159993213543
 20
-142.0254394176187
 30
0.0
 10
110.5145290522325
 20
-141.9260484128692
 30
0.0
 10
110.5145290522325
 20
-141.9260484128692
 30
0.0
 10
110.6571560053218
 20
-142.1186292504946
 30
0.0
 10
110.8624836962427
 20
-142.3935478702176
 30
0.0
 10
110.8624836962427
 20
-142.9414903071466
 30
0.0
 10
110.8624836962427
 20
-143.4894327440756
 30
0.0
 10
110.6571560053218
 20
-143.7645236185728
 30
0.0
 10
110.5145290522325
 20
-143.956932201424
 30
0.0
 10
110.5145290522325
 20
-143.956932201424
 30
0.0
 10
110.4159993213543
 20
-143.8575411966745
 30
0.0
 10
110.4159993213543
 20
-143.8575411966745
 30
0.0
  0
HATCH
  5
DB
330
9D
100
AcDbEntity
  8
_U+30EC_U+30A4_U+30E4_U+30FC 1
 62
   179
420
  2234388
100
AcDbHatch
 10
0.0
 20
0.0
 30
0.0
210
0.0
220
0.0
230
1.0
  2
SOLID
 70
     1
 71
     0
 91
        1
 92
        1
 93
        1
 72
     4
 94
        3
 73
     0
 74
     1
 95
       23
 96
       19
 40
0.0
 40
0.0
 40
0.0
 40
0.0
 40
1.0
 40
1.0
 40
1.0
 40
2.0
 40
2.0
 40
2.0
 40
3.0
 40
3.0
 40
3.0
 40
4.0
 40
4.0
 40
4.0
 40
5.0
 40
5.0
 40
5.0
 40
6.0
 40
6.0
 40
6.0
 40
6.0
 10
110.4159993213543
 20
-143.8575411966745
 10
110.5386447206292
 20
-143.6904540656399
 10
110.7236463481871
 20
-143.4344834710858
 10
110.7236463481871
 20
-142.9414903071466
 10
110.7236463481871
 20
-142.4486693979816
 10
110.5386447206292
 20
-142.1926988034275
 10
110.4159993213543
 20
-142.0254394176187
 10
110.4159993213543
 20
-142.0254394176187
 10
110.5145290522325
 20
-141.9260484128692
 10
110.5145290522325
 20
-141.9260484128692
 10
110.6571560053218
 20
-142.1186292504946
 10
110.8624836962427
 20
-142.3935478702176
 10
110.8624836962427
 20
-142.9414903071466
 10
110.8624836962427
 20
-143.4894327440756
 10
110.6571560053218
 20
-143.7645236185728
 10
110.5145290522325
 20
-143.956932201424
 10
110.5145290522325
 20
-143.956932201424
 10
110.4159993213543
 20
-143.8575411966745
 10
110.4159993213543
 20
-143.8575411966745
 97
        0
 97
        0
 75
     2
 76
     1
 98
        0
  0
ENDBLK
  5
A0
330
9D
100
AcDbEntity
  8
0
100
AcDbBlockEnd
  0
BLOCK
  5
EC
330
EA
100
AcDbEntity
  8
0
100
AcDbBlockBegin
  2
block 5
 70
     0
 10
0.0
 20
0.0
 30
0.0
  3
block 5
  1

  0
SPLINE
  5
EE
330
EA
100
AcDbEntity
  8
_U+30EC_U+30A4_U+30E4_U+30FC 1
370
     0
100
AcDbSpline
210
0.0
220
0.0
230
1.0
 70
    11
 71
     3
 72
    53
 73
    49
 74
     0
 42
0.0000000001
 43
0.0000000001
 12
1.0
 22
0.0
 32
0.0
 13
1.0
 23
0.0
 33
0.0
 40
0.0
 40
0.0
 40
0.0
 40
0.0
 40
1.0
 40
1.0
 40
1.0
 40
2.0
 40
2.0
 40
2.0
 40
3.0
 40
3.0
 40
3.0
 40
4.0
 40
4.0
 40
4.0
 40
5.0
 40
5.0
 40
5.0
 40
6.0
 40
6.0
 40
6.0
 40
7.0
 40
7.0
 40
7.0
 40
8.0
 40
8.0
 40
8.0
 40
9.0
 40
9.0
 40
9.0
 40
10.0
 40
10.0
 40
10.0
 40
11.0
 40
11.0
 40
11.0
 40
12.0
 40
12.0
 40
12.0
 40
13.0
 40
13.0
 40
13.0
 40
14.0
 40
14.0
 40
14.0
 40
15.0
 40
15.0
 40
15.0
 40
16.0
 40
16.0
 40
16.0
 40
16.0
 10
101.5750230323319
 20
-167.2266574017697
 30
0.0
 10
101.5064656321755
 20
-167.2266574017697
 30
0.0
 10
101.417582168656
 20
-167.2094319243435
 30
0.0
 10
101.3286987051366
 20
-167.1460421674149
 30
0.0
 10
101.1769422490113
 20
-167.0361436214354
 30
0.0
 10
101.158338733391
 20
-166.9048854834474
 30
0.0
 10
101.1416300202875
 20
-166.7970539947591
 30
0.0
 10
101.1416300202875
 20
-166.7970539947591
 30
0.0
 10
101.3361056604299
 20
-166.7970539947591
 30
0.0
 10
101.3361056604299
 20
-166.7970539947591
 30
0.0
 10
101.3843369972234
 20
-166.995836004258
 30
0.0
 10
101.4952690718484
 20
-167.0254638254311
 30
0.0
 10
101.5769178348488
 20
-167.0254638254311
 30
0.0
 10
101.6990464698009
 20
-167.0254638254311
 30
0.0
 10
101.8323716650801
 20
-166.9262450754559
 30
0.0
 10
101.8323716650801
 20
-166.693356620653
 30
0.0
 10
101.8323716650801
 20
-166.437386026099
 30
0.0
 10
101.6749308014042
 20
-166.3677950972969
 30
0.0
 10
101.5693386247813
 20
-166.3677950972969
 30
0.0
 10
101.541605606125
 20
-166.3677950972969
 30
0.0
 10
101.417582168656
 20
-166.3677950972969
 30
0.0
 10
101.3398952654636
 20
-166.4966416684453
 30
0.0
 10
101.3398952654636
 20
-166.4966416684453
 30
0.0
 10
101.1860717520472
 20
-166.4776936432764
 30
0.0
 10
101.1860717520472
 20
-166.4776936432764
 30
0.0
 10
101.1860717520472
 20
-166.4776936432764
 30
0.0
 10
101.2916639286701
 20
-165.6315781920991
 30
0.0
 10
101.2916639286701
 20
-165.6315781920991
 30
0.0
 10
101.2916639286701
 20
-165.6315781920991
 30
0.0
 10
101.9731038156526
 20
-165.6315781920991
 30
0.0
 10
101.9731038156526
 20
-165.6315781920991
 30
0.0
 10
101.9731038156526
 20
-165.6315781920991
 30
0.0
 10
101.9731038156526
 20
-165.8262260870157
 30
0.0
 10
101.9731038156526
 20
-165.8262260870157
 30
0.0
 10
101.9731038156526
 20
-165.8262260870157
 30
0.0
 10
101.4342908817595
 20
-165.8262260870157
 30
0.0
 10
101.4342908817595
 20
-165.8262260870157
 30
0.0
 10
101.4342908817595
 20
-165.8262260870157
 30
0.0
 10
101.3767577871558
 20
-166.2492838126043
 30
0.0
 10
101.3767577871558
 20
-166.2492838126043
 30
0.0
 10
101.4305012767257
 20
-166.2151773673004
 30
0.0
 10
101.502848281916
 20
-166.1752142596715
 30
0.0
 10
101.606545656022
 20
-166.1752142596715
 30
0.0
 10
101.8287543148206
 20
-166.1752142596715
 30
0.0
 10
102.0361490630326
 20
-166.361249415875
 30
0.0
 10
102.0361490630326
 20
-166.6744085954842
 30
0.0
 10
102.0361490630326
 20
-166.9917018896757
 30
0.0
 10
101.8397786203734
 20
-167.2266574017697
 30
0.0
 10
101.5750230323319
 20
-167.2266574017697
 30
0.0
  0
HATCH
  5
EF
330
EA
100
AcDbEntity
  8
_U+30EC_U+30A4_U+30E4_U+30FC 1
 62
   179
420
  2234388
100
AcDbHatch
 10
0.0
 20
0.0
 30
0.0
210
0.0
220
0.0
230
1.0
  2
SOLID
 70
     1
 71
     0
 91
        1
 92
        1
 93
        1
 72
     4
 94
        3
 73
     0
 74
     1
 95
       53
 96
       49
 40
0.0
 40
0.0
 40
0.0
 40
0.0
 40
1.0
 40
1.0
 40
1.0
 40
2.0
 40
2.0
 40
2.0
 40
3.0
 40
3.0
 40
3.0
 40
4.0
 40
4.0
 40
4.0
 40
5.0
 40
5.0
 40
5.0
 40
6.0
 40
6.0
 40
6.0
 40
7.0
 40
7.0
 40
7.0
 40
8.0
 40
8.0
 40
8.0
 40
9.0
 40
9.0
 40
9.0
 40
10.0
 40
10.0
 40
10.0
 40
11.0
 40
11.0
 40
11.0
 40
12.0
 40
12.0
 40
12.0
 40
13.0
 40
13.0
 40
13.0
 40
14.0
 40
14.0
 40
14.0
 40
15.0
 40
15.0
 40
15.0
 40
16.0
 40
16.0
 40
16.0
 40
16.0
 10
101.5750230323319
 20
-167.2266574017697
 10
101.5064656321755
 20
-167.2266574017697
 10
101.417582168656
 20
-167.2094319243435
 10
101.3286987051366
 20
-167.1460421674149
 10
101.1769422490113
 20
-167.0361436214354
 10
101.158338733391
 20
-166.9048854834474
 10
101.1416300202875
 20
-166.7970539947591
 10
101.1416300202875
 20
-166.7970539947591
 10
101.3361056604299
 20
-166.7970539947591
 10
101.3361056604299
 20
-166.7970539947591
 10
101.3843369972234
 20
-166.995836004258
 10
101.4952690718484
 20
-167.0254638254311
 10
101.5769178348488
 20
-167.0254638254311
 10
101.6990464698009
 20
-167.0254638254311
 10
101.8323716650801
 20
-166.9262450754559
 10
101.8323716650801
 20
-166.693356620653
 10
101.8323716650801
 20
-166.437386026099
 10
101.6749308014042
 20
-166.3677950972969
 10
101.5693386247813
 20
-166.3677950972969
 10
101.541605606125
 20
-166.3677950972969
 10
101.417582168656
 20
-166.3677950972969
 10
101.3398952654636
 20
-166.4966416684453
 10
101.3398952654636
 20
-166.4966416684453
 10
101.1860717520472
 20
-166.4776936432764
 10
101.1860717520472
 20
-166.4776936432764
 10
101.1860717520472
 20
-166.4776936432764
 10
101.2916639286701
 20
-165.6315781920991
 10
101.2916639286701
 20
-165.6315781920991
 10
101.2916639286701
 20
-165.6315781920991
 10
101.9731038156526
 20
-165.6315781920991
 10
101.9731038156526
 20
-165.6315781920991
 10
101.9731038156526
 20
-165.6315781920991
 10
101.9731038156526
 20
-165.8262260870157
 10
101.9731038156526
 20
-165.8262260870157
 10
101.9731038156526
 20
-165.8262260870157
 10
101.4342908817595
 20
-165.8262260870157
 10
101.4342908817595
 20
-165.8262260870157
 10
101.4342908817595
 20
-165.8262260870157
 10
101.3767577871558
 20
-166.2492838126043
 10
101.3767577871558
 20
-166.2492838126043
 10
101.4305012767257
 20
-166.2151773673004
 10
101.502848281916
 20
-166.1752142596715
 10
101.606545656022
 20
-166.1752142596715
 10
101.8287543148206
 20
-166.1752142596715
 10
102.0361490630326
 20
-166.361249415875
 10
102.0361490630326
 20
-166.6744085954842
 10
102.0361490630326
 20
-166.9917018896757
 10
101.8397786203734
 20
-167.2266574017697
 10
101.5750230323319
 20
-167.2266574017697
 97
        0
 97
        0
 75
     2
 76
     1
 98
        0
  0
SPLINE
  5
F0
330
EA
100
AcDbEntity
  8
_U+30EC_U+30A4_U+30E4_U+30FC 1
370
     0
100
AcDbSpline
210
0.0
220
0.0
230
1.0
 70
    11
 71
     3
 72
    29
 73
    25
 74
     0
 42
0.0000000001
 43
0.0000000001
 12
1.0
 22
0.0
 32
0.0
 13
1.0
 23
0.0
 33
0.0
 40
0.0
 40
0.0
 40
0.0
 40
0.0
 40
1.0
 40
1.0
 40
1.0
 40
2.0
 40
2.0
 40
2.0
 40
3.0
 40
3.0
 40
3.0
 40
4.0
 40
4.0
 40
4.0
 40
5.0
 40
5.0
 40
5.0
 40
6.0
 40
6.0
 40
6.0
 40
7.0
 40
7.0
 40
7.0
 40
8.0
 40
8.0
 40
8.0
 40
8.0
 10
102.9704589586324
 20
-166.9979030615492
 30
0.0
 10
102.8760633423366
 20
-167.2073648670523
 30
0.0
 10
102.7243068862113
 20
-167.2266574017697
 30
0.0
 10
102.6225043146222
 20
-167.2266574017697
 30
0.0
 10
102.4815999092754
 20
-167.2266574017697
 30
0.0
 10
102.3575764718064
 20
-167.1801486127189
 30
0.0
 10
102.2742051610634
 20
-166.9979030615492
 30
0.0
 10
102.1835991498013
 20
-166.8032551666325
 30
0.0
 10
102.1668904366979
 20
-166.5665771067959
 30
0.0
 10
102.1668904366979
 20
-166.4036240903436
 30
0.0
 10
102.1668904366979
 20
-166.2596190990601
 30
0.0
 10
102.1817043472844
 20
-166.0081271286369
 30
0.0
 10
102.2742051610634
 20
-165.8090006095894
 30
0.0
 10
102.3687730321335
 20
-165.6060844855082
 30
0.0
 10
102.509505182706
 20
-165.5826578362085
 30
0.0
 10
102.6225043146222
 20
-165.5826578362085
 30
0.0
 10
102.7613416626777
 20
-165.5826578362085
 30
0.0
 10
102.8872599026636
 20
-165.6270995679682
 30
0.0
 10
102.9704589586324
 20
-165.8090006095894
 30
0.0
 10
103.0576198744092
 20
-166.0015814472149
 30
0.0
 10
103.0779459377722
 20
-166.229991277887
 30
0.0
 10
103.0779459377722
 20
-166.4036240903436
 30
0.0
 10
103.0779459377722
 20
-166.5748453359605
 30
0.0
 10
103.0593424221518
 20
-166.8056667334722
 30
0.0
 10
102.9704589586324
 20
-166.9979030615492
 30
0.0
  0
SPLINE
  5
F1
330
EA
100
AcDbEntity
  8
_U+30EC_U+30A4_U+30E4_U+30FC 1
370
     0
100
AcDbSpline
210
0.0
220
0.0
230
1.0
 70
    11
 71
     3
 72
    17
 73
    13
 74
     0
 42
0.0000000001
 43
0.0000000001
 12
1.0
 22
0.0
 32
0.0
 13
1.0
 23
0.0
 33
0.0
 40
0.0
 40
0.0
 40
0.0
 40
0.0
 40
1.0
 40
1.0
 40
1.0
 40
2.0
 40
2.0
 40
2.0
 40
3.0
 40
3.0
 40
3.0
 40
4.0
 40
4.0
 40
4.0
 40
4.0
 10
102.6225043146222
 20
-165.775238673834
 30
0.0
 10
102.4039130060831
 20
-165.775238673834
 30
0.0
 10
102.3630886245828
 20
-166.05877003227
 30
0.0
 10
102.3630886245828
 20
-166.4036240903436
 30
0.0
 10
102.3630886245828
 20
-166.7229844418262
 30
0.0
 10
102.3946112482729
 20
-167.0320095068531
 30
0.0
 10
102.6225043146222
 20
-167.0320095068531
 30
0.0
 10
102.8390285658701
 20
-167.0320095068531
 30
0.0
 10
102.8815754951129
 20
-166.7505452057082
 30
0.0
 10
102.8815754951129
 20
-166.4036240903436
 30
0.0
 10
102.8815754951129
 20
-166.0842637388609
 30
0.0
 10
102.8483303236803
 20
-165.775238673834
 30
0.0
 10
102.6225043146222
 20
-165.775238673834
 30
0.0
  0
HATCH
  5
F2
330
EA
100
AcDbEntity
  8
_U+30EC_U+30A4_U+30E4_U+30FC 1
 62
   179
420
  2234388
100
AcDbHatch
 10
0.0
 20
0.0
 30
0.0
210
0.0
220
0.0
230
1.0
  2
SOLID
 70
     1
 71
     0
 91
        2
 92
        1
 93
        1
 72
     4
 94
        3
 73
     0
 74
     1
 95
       29
 96
       25
 40
0.0
 40
0.0
 40
0.0
 40
0.0
 40
1.0
 40
1.0
 40
1.0
 40
2.0
 40
2.0
 40
2.0
 40
3.0
 40
3.0
 40
3.0
 40
4.0
 40
4.0
 40
4.0
 40
5.0
 40
5.0
 40
5.0
 40
6.0
 40
6.0
 40
6.0
 40
7.0
 40
7.0
 40
7.0
 40
8.0
 40
8.0
 40
8.0
 40
8.0
 10
102.9704589586324
 20
-166.9979030615492
 10
102.8760633423366
 20
-167.2073648670523
 10
102.7243068862113
 20
-167.2266574017697
 10
102.6225043146222
 20
-167.2266574017697
 10
102.4815999092754
 20
-167.2266574017697
 10
102.3575764718064
 20
-167.1801486127189
 10
102.2742051610634
 20
-166.9979030615492
 10
102.1835991498013
 20
-166.8032551666325
 10
102.1668904366979
 20
-166.5665771067959
 10
102.1668904366979
 20
-166.4036240903436
 10
102.1668904366979
 20
-166.2596190990601
 10
102.1817043472844
 20
-166.0081271286369
 10
102.2742051610634
 20
-165.8090006095894
 10
102.3687730321335
 20
-165.6060844855082
 10
102.509505182706
 20
-165.5826578362085
 10
102.6225043146222
 20
-165.5826578362085
 10
102.7613416626777
 20
-165.5826578362085
 10
102.8872599026636
 20
-165.6270995679682
 10
102.9704589586324
 20
-165.8090006095894
 10
103.0576198744092
 20
-166.0015814472149
 10
103.0779459377722
 20
-166.229991277887
 10
103.0779459377722
 20
-166.4036240903436
 10
103.0779459377722
 20
-166.5748453359605
 10
103.0593424221518
 20
-166.8056667334722
 10
102.9704589586324
 20
-166.9979030615492
 97
        0
 97
        0
 92
        1
 93
        1
 72
     4
 94
        3
 73
     0
 74
     1
 95
       17
 96
       13
 40
0.0
 40
0.0
 40
0.0
 40
0.0
 40
1.0
 40
1.0
 40
1.0
 40
2.0
 40
2.0
 40
2.0
 40
3.0
 40
3.0
 40
3.0
 40
4.0
 40
4.0
 40
4.0
 40
4.0
 10
102.6225043146222
 20
-165.775238673834
 10
102.4039130060831
 20
-165.775238673834
 10
102.3630886245828
 20
-166.05877003227
 10
102.3630886245828
 20
-166.4036240903436
 10
102.3630886245828
 20
-166.7229844418262
 10
102.3946112482729
 20
-167.0320095068531
 10
102.6225043146222
 20
-167.0320095068531
 10
102.8390285658701
 20
-167.0320095068531
 10
102.8815754951129
 20
-166.7505452057082
 10
102.8815754951129
 20
-166.4036240903436
 10
102.8815754951129
 20
-166.0842637388609
 10
102.8483303236803
 20
-165.775238673834
 10
102.6225043146222
 20
-165.775238673834
 97
        0
 97
        0
 75
     2
 76
     1
 98
        0
  0
ENDBLK
  5
ED
330
EA
100
AcDbEntity
  8
0
100
AcDbBlockEnd
  0
ENDSEC
  0
SECTION
  2
ENTITIES
  0
SPLINE
  5
41
330
1F
100
AcDbEntity
  8
_U+30EC_U+30A4_U+30E4_U+30FC 1
370
     0
100
AcDbSpline
210
0.0
220
0.0
230
1.0
 70
    11
 71
     3
 72
    92
 73
    88
 74
     0
 42
0.0000000001
 43
0.0000000001
 12
1.0
 22
0.0
 32
0.0
 13
1.0
 23
0.0
 33
0.0
 40
0.0
 40
0.0
 40
0.0
 40
0.0
 40
1.0
 40
1.0
 40
1.0
 40
2.0
 40
2.0
 40
2.0
 40
3.0
 40
3.0
 40
3.0
 40
4.0
 40
4.0
 40
4.0
 40
5.0
 40
5.0
 40
5.0
 40
6.0
 40
6.0
 40
6.0
 40
7.0
 40
7.0
 40
7.0
 40
8.0
 40
8.0
 40
8.0
 40
9.0
 40
9.0
 40
9.0
 40
10.0
 40
10.0
 40
10.0
 40
11.0
 40
11.0
 40
11.0
 40
12.0
 40
12.0
 40
12.0
 40
13.0
 40
13.0
 40
13.0
 40
14.0
 40
14.0
 40
14.0
 40
15.0
 40
15.0
 40
15.0
 40
16.0
 40
16.0
 40
16.0
 40
17.0
 40
17.0
 40
17.0
 40
18.0
 40
18.0
 40
18.0
 40
19.0
 40
19.0
 40
19.0
 40
20.0
 40
20.0
 40
20.0
 40
21.0
 40
21.0
 40
21.0
 40
22.0
 40
22.0
 40
22.0
 40
23.0
 40
23.0
 40
23.0
 40
24.0
 40
24.0
 40
24.0
 40
25.0
 40
25.0
 40
25.0
 40
26.0
 40
26.0
 40
26.0
 40
27.0
 40
27.0
 40
27.0
 40
28.0
 40
28.0
 40
28.0
 40
29.0
 40
29.0
 40
29.0
 40
29.0
 10
78.0279191987683
 20
-158.8930144866439
 30
0.0
 10
78.0279191987683
 20
-158.8930144866439
 30
0.0
 10
84.04842272882514
 20
-158.8930144866439
 30
0.0
 10
84.04842272882514
 20
-158.8930144866439
 30
0.0
 10
84.04842272882514
 20
-158.8930144866439
 30
0.0
 10
84.04842272882514
 20
-157.3069355889285
 30
0.0
 10
84.04842272882514
 20
-157.3069355889285
 30
0.0
 10
84.04842272882514
 20
-157.3069355889285
 30
0.0
 10
88.33890696542342
 20
-157.3069355889285
 30
0.0
 10
88.33890696542342
 20
-157.3069355889285
 30
0.0
 10
88.33890696542342
 20
-157.3069355889285
 30
0.0
 10
88.33890696542342
 20
-158.7490956227476
 30
0.0
 10
88.33890696542342
 20
-158.7490956227476
 30
0.0
 10
88.33890696542342
 20
-158.7490956227476
 30
0.0
 10
91.88361953981394
 20
-158.7490956227476
 30
0.0
 10
91.88361953981394
 20
-158.7490956227476
 30
0.0
 10
91.88361953981394
 20
-158.7490956227476
 30
0.0
 10
91.88361953981394
 20
-157.2349761569803
 30
0.0
 10
91.88361953981394
 20
-157.2349761569803
 30
0.0
 10
91.88361953981394
 20
-157.2349761569803
 30
0.0
 10
96.08978506441103
 20
-157.2349761569803
 30
0.0
 10
96.08978506441103
 20
-157.2349761569803
 30
0.0
 10
96.08978506441103
 20
-157.2349761569803
 30
0.0
 10
96.08978506441103
 20
-158.8697385602717
 30
0.0
 10
96.08978506441103
 20
-158.8697385602717
 30
0.0
 10
96.08978506441103
 20
-158.8697385602717
 30
0.0
 10
99.6468461529315
 20
-158.8697385602717
 30
0.0
 10
99.6468461529315
 20
-158.8697385602717
 30
0.0
 10
99.6468461529315
 20
-158.8697385602717
 30
0.0
 10
99.6468461529315
 20
-157.2349761569803
 30
0.0
 10
99.6468461529315
 20
-157.2349761569803
 30
0.0
 10
99.6468461529315
 20
-157.2349761569803
 30
0.0
 10
103.9006401226115
 20
-157.2349761569803
 30
0.0
 10
103.9006401226115
 20
-157.2349761569803
 30
0.0
 10
103.9006401226115
 20
-157.2349761569803
 30
0.0
 10
103.9006401226115
 20
-158.6287971947721
 30
0.0
 10
103.9006401226115
 20
-158.6287971947721
 30
0.0
 10
103.9006401226115
 20
-158.6287971947721
 30
0.0
 10
107.5056741657641
 20
-158.6287971947721
 30
0.0
 10
107.5056741657641
 20
-158.6287971947721
 30
0.0
 10
107.5056741657641
 20
-158.6287971947721
 30
0.0
 10
107.5056741657641
 20
-157.1386642063208
 30
0.0
 10
107.5056741657641
 20
-157.1386642063208
 30
0.0
 10
107.5056741657641
 20
-157.1386642063208
 30
0.0
 10
111.7841651637044
 20
-157.1386642063208
 30
0.0
 10
111.7841651637044
 20
-157.1386642063208
 30
0.0
 10
111.7841651637044
 20
-157.1386642063208
 30
0.0
 10
111.7841651637044
 20
-158.6287971947721
 30
0.0
 10
111.7841651637044
 20
-158.6287971947721
 30
0.0
 10
111.7841651637044
 20
-158.6287971947721
 30
0.0
 10
117.9129738830787
 20
-158.6287971947721
 30
0.0
 10
117.9129738830787
 20
-158.6287971947721
 30
0.0
 10
117.9129738830787
 20
-158.6287971947721
 30
0.0
 10
117.9129738830787
 20
-156.9947238105777
 30
0.0
 10
117.9129738830787
 20
-156.9947238105777
 30
0.0
 10
117.9129738830787
 20
-156.9947238105777
 30
0.0
 10
115.9899807957909
 20
-156.9947238105777
 30
0.0
 10
115.9899807957909
 20
-156.9947238105777
 30
0.0
 10
115.9899807957909
 20
-156.9947238105777
 30
0.0
 10
115.9899807957909
 20
-155.3123329622027
 30
0.0
 10
115.9899807957909
 20
-155.3123329622027
 30
0.0
 10
115.9899807957909
 20
-155.3123329622027
 30
0.0
 10
117.7203553647214
 20
-155.3123329622027
 30
0.0
 10
117.7203553647214
 20
-155.3123329622027
 30
0.0
 10
117.7203553647214
 20
-155.3123329622027
 30
0.0
 10
117.7203553647214
 20
-153.749874500408
 30
0.0
 10
117.7203553647214
 20
-153.749874500408
 30
0.0
 10
117.7203553647214
 20
-153.749874500408
 30
0.0
 10
79.57837634746245
 20
-153.749874500408
 30
0.0
 10
79.57837634746245
 20
-153.749874500408
 30
0.0
 10
79.57837634746245
 20
-153.749874500408
 30
0.0
 10
78.01592326862944
 20
-153.557250599089
 30
0.0
 10
78.01592326862944
 20
-154.2786966573939
 30
0.0
 10
78.01592326862944
 20
-154.2786966573939
 30
0.0
 10
78.01592326862944
 20
-155.5285772994425
 30
0.0
 10
78.01592326862944
 20
-155.5285772994425
 30
0.0
 10
78.01592326862944
 20
-155.5285772994425
 30
0.0
 10
79.91457460312927
 20
-155.5285772994425
 30
0.0
 10
79.91457460312927
 20
-155.5285772994425
 30
0.0
 10
79.91457460312927
 20
-155.5285772994425
 30
0.0
 10
79.91457460312927
 20
-157.1386642063208
 30
0.0
 10
79.91457460312927
 20
-157.1386642063208
 30
0.0
 10
79.91457460312927
 20
-157.1386642063208
 30
0.0
 10
78.0402650214174
 20
-157.1386642063208
 30
0.0
 10
78.0402650214174
 20
-157.1386642063208
 30
0.0
 10
78.0402650214174
 20
-157.1386642063208
 30
0.0
 10
78.0279191987683
 20
-158.8930144866439
 30
0.0
 10
78.0279191987683
 20
-158.8930144866439
 30
0.0
  0
HATCH
  5
42
330
1F
100
AcDbEntity
  8
_U+30EC_U+30A4_U+30E4_U+30FC 1
 62
   179
420
  2234388
100
AcDbHatch
 10
0.0
 20
0.0
 30
0.0
210
0.0
220
0.0
230
1.0
  2
SOLID
 70
     1
 71
     0
 91
        1
 92
        1
 93
        1
 72
     4
 94
        3
 73
     0
 74
     1
 95
       92
 96
       88
 40
0.0
 40
0.0
 40
0.0
 40
0.0
 40
1.0
 40
1.0
 40
1.0
 40
2.0
 40
2.0
 40
2.0
 40
3.0
 40
3.0
 40
3.0
 40
4.0
 40
4.0
 40
4.0
 40
5.0
 40
5.0
 40
5.0
 40
6.0
 40
6.0
 40
6.0
 40
7.0
 40
7.0
 40
7.0
 40
8.0
 40
8.0
 40
8.0
 40
9.0
 40
9.0
 40
9.0
 40
10.0
 40
10.0
 40
10.0
 40
11.0
 40
11.0
 40
11.0
 40
12.0
 40
12.0
 40
12.0
 40
13.0
 40
13.0
 40
13.0
 40
14.0
 40
14.0
 40
14.0
 40
15.0
 40
15.0
 40
15.0
 40
16.0
 40
16.0
 40
16.0
 40
17.0
 40
17.0
 40
17.0
 40
18.0
 40
18.0
 40
18.0
 40
19.0
 40
19.0
 40
19.0
 40
20.0
 40
20.0
 40
20.0
 40
21.0
 40
21.0
 40
21.0
 40
22.0
 40
22.0
 40
22.0
 40
23.0
 40
23.0
 40
23.0
 40
24.0
 40
24.0
 40
24.0
 40
25.0
 40
25.0
 40
25.0
 40
26.0
 40
26.0
 40
26.0
 40
27.0
 40
27.0
 40
27.0
 40
28.0
 40
28.0
 40
28.0
 40
29.0
 40
29.0
 40
29.0
 40
29.0
 10
78.0279191987683
 20
-158.8930144866439
 10
78.0279191987683
 20
-158.8930144866439
 10
84.04842272882514
 20
-158.8930144866439
 10
84.04842272882514
 20
-158.8930144866439
 10
84.04842272882514
 20
-158.8930144866439
 10
84.04842272882514
 20
-157.3069355889285
 10
84.04842272882514
 20
-157.3069355889285
 10
84.04842272882514
 20
-157.3069355889285
 10
88.33890696542342
 20
-157.3069355889285
 10
88.33890696542342
 20
-157.3069355889285
 10
88.33890696542342
 20
-157.3069355889285
 10
88.33890696542342
 20
-158.7490956227476
 10
88.33890696542342
 20
-158.7490956227476
 10
88.33890696542342
 20
-158.7490956227476
 10
91.88361953981394
 20
-158.7490956227476
 10
91.88361953981394
 20
-158.7490956227476
 10
91.88361953981394
 20
-158.7490956227476
 10
91.88361953981394
 20
-157.2349761569803
 10
91.88361953981394
 20
-157.2349761569803
 10
91.88361953981394
 20
-157.2349761569803
 10
96.08978506441103
 20
-157.2349761569803
 10
96.08978506441103
 20
-157.2349761569803
 10
96.08978506441103
 20
-157.2349761569803
 10
96.08978506441103
 20
-158.8697385602717
 10
96.08978506441103
 20
-158.8697385602717
 10
96.08978506441103
 20
-158.8697385602717
 10
99.6468461529315
 20
-158.8697385602717
 10
99.6468461529315
 20
-158.8697385602717
 10
99.6468461529315
 20
-158.8697385602717
 10
99.6468461529315
 20
-157.2349761569803
 10
99.6468461529315
 20
-157.2349761569803
 10
99.6468461529315
 20
-157.2349761569803
 10
103.9006401226115
 20
-157.2349761569803
 10
103.9006401226115
 20
-157.2349761569803
 10
103.9006401226115
 20
-157.2349761569803
 10
103.9006401226115
 20
-158.6287971947721
 10
103.9006401226115
 20
-158.6287971947721
 10
103.9006401226115
 20
-158.6287971947721
 10
107.5056741657641
 20
-158.6287971947721
 10
107.5056741657641
 20
-158.6287971947721
 10
107.5056741657641
 20
-158.6287971947721
 10
107.5056741657641
 20
-157.1386642063208
 10
107.5056741657641
 20
-157.1386642063208
 10
107.5056741657641
 20
-157.1386642063208
 10
111.7841651637044
 20
-157.1386642063208
 10
111.7841651637044
 20
-157.1386642063208
 10
111.7841651637044
 20
-157.1386642063208
 10
111.7841651637044
 20
-158.6287971947721
 10
111.7841651637044
 20
-158.6287971947721
 10
111.7841651637044
 20
-158.6287971947721
 10
117.9129738830787
 20
-158.6287971947721
 10
117.9129738830787
 20
-158.6287971947721
 10
117.9129738830787
 20
-158.6287971947721
 10
117.9129738830787
 20
-156.9947238105777
 10
117.9129738830787
 20
-156.9947238105777
 10
117.9129738830787
 20
-156.9947238105777
 10
115.9899807957909
 20
-156.9947238105777
 10
115.9899807957909
 20
-156.9947238105777
 10
115.9899807957909
 20
-156.9947238105777
 10
115.9899807957909
 20
-155.3123329622027
 10
115.9899807957909
 20
-155.3123329622027
 10
115.9899807957909
 20
-155.3123329622027
 10
117.7203553647214
 20
-155.3123329622027
 10
117.7203553647214
 20
-155.3123329622027
 10
117.7203553647214
 20
-155.3123329622027
 10
117.7203553647214
 20
-153.749874500408
 10
117.7203553647214
 20
-153.749874500408
 10
117.7203553647214
 20
-153.749874500408
 10
79.57837634746245
 20
-153.749874500408
 10
79.57837634746245
 20
-153.749874500408
 10
79.57837634746245
 20
-153.749874500408
 10
78.01592326862944
 20
-153.557250599089
 10
78.01592326862944
 20
-154.2786966573939
 10
78.01592326862944
 20
-154.2786966573939
 10
78.01592326862944
 20
-155.5285772994425
 10
78.01592326862944
 20
-155.5285772994425
 10
78.01592326862944
 20
-155.5285772994425
 10
79.91457460312927
 20
-155.5285772994425
 10
79.91457460312927
 20
-155.5285772994425
 10
79.91457460312927
 20
-155.5285772994425
 10
79.91457460312927
 20
-157.1386642063208
 10
79.91457460312927
 20
-157.1386642063208
 10
79.91457460312927
 20
-157.1386642063208
 10
78.0402650214174
 20
-157.1386642063208
 10
78.0402650214174
 20
-157.1386642063208
 10
78.0402650214174
 20
-157.1386642063208
 10
78.0279191987683
 20
-158.8930144866439
 10
78.0279191987683
 20
-158.8930144866439
 97
        0
 97
        0
 75
     2
 76
     1
 98
        0
  0
SPLINE
  5
43
330
1F
100
AcDbEntity
  8
_U+30EC_U+30A4_U+30E4_U+30FC 1
370
     0
100
AcDbSpline
210
0.0
220
0.0
230
1.0
 70
    11
 71
     3
 72
   143
 73
   139
 74
     0
 42
0.0000000001
 43
0.0000000001
 12
1.0
 22
0.0
 32
0.0
 13
1.0
 23
0.0
 33
0.0
 40
0.0
 40
0.0
 40
0.0
 40
0.0
 40
1.0
 40
1.0
 40
1.0
 40
2.0
 40
2.0
 40
2.0
 40
3.0
 40
3.0
 40
3.0
 40
4.0
 40
4.0
 40
4.0
 40
5.0
 40
5.0
 40
5.0
 40
6.0
 40
6.0
 40
6.0
 40
7.0
 40
7.0
 40
7.0
 40
8.0
 40
8.0
 40
8.0
 40
9.0
 40
9.0
 40
9.0
 40
10.0
 40
10.0
 40
10.0
 40
11.0
 40
11.0
 40
11.0
 40
12.0
 40
12.0
 40
12.0
 40
13.0
 40
13.0
 40
13.0
 40
14.0
 40
14.0
 40
14.0
 40
15.0
 40
15.0
 40
15.0
 40
16.0
 40
16.0
 40
16.0
 40
17.0
 40
17.0
 40
17.0
 40
18.0
 40
18.0
 40
18.0
 40
19.0
 40
19.0
 40
19.0
 40
20.0
 40
20.0
 40
20.0
 40
21.0
 40
21.0
 40
21.0
 40
22.0
 40
22.0
 40
22.0
 40
23.0
 40
23.0
 40
23.0
 40
24.0
 40
24.0
 40
24.0
 40
25.0
 40
25.0
 40
25.0
 40
26.0
 40
26.0
 40
26.0
 40
27.0
 40
27.0
 40
27.0
 40
28.0
 40
28.0
 40
28.0
 40
29.0
 40
29.0
 40
29.0
 40
30.0
 40
30.0
 40
30.0
 40
31.0
 40
31.0
 40
31.0
 40
32.0
 40
32.0
 40
32.0
 40
33.0
 40
33.0
 40
33.0
 40
34.0
 40
34.0
 40
34.0
 40
35.0
 40
35.0
 40
35.0
 40
36.0
 40
36.0
 40
36.0
 40
37.0
 40
37.0
 40
37.0
 40
38.0
 40
38.0
 40
38.0
 40
39.0
 40
39.0
 40
39.0
 40
40.0
 40
40.0
 40
40.0
 40
41.0
 40
41.0
 40
41.0
 40
42.0
 40
42.0
 40
42.0
 40
43.0
 40
43.0
 40
43.0
 40
44.0
 40
44.0
 40
44.0
 40
45.0
 40
45.0
 40
45.0
 40
46.0
 40
46.0
 40
46.0
 40
46.0
 10
76.51379704152015
 20
-157.1264125855014
 30
0.0
 10
76.51379704152015
 20
-157.1264125855014
 30
0.0
 10
79.93856377192617
 20
-157.1264125855014
 30
0.0
 10
79.93856377192617
 20
-157.1264125855014
 30
0.0
 10
79.93856377192617
 20
-157.1264125855014
 30
0.0
 10
79.93856377192617
 20
-155.57631340376
 30
0.0
 10
79.93856377192617
 20
-155.57631340376
 30
0.0
 10
79.93856377192617
 20
-155.57631340376
 30
0.0
 10
78.0279191987683
 20
-155.57631340376
 30
0.0
 10
78.0279191987683
 20
-155.57631340376
 30
0.0
 10
78.0279191987683
 20
-155.57631340376
 30
0.0
 10
78.0279191987683
 20
-154.3151285421504
 30
0.0
 10
78.0279191987683
 20
-154.3151285421504
 30
0.0
 10
78.0279191987683
 20
-154.3151285421504
 30
0.0
 10
77.8476491945409
 20
-153.7376444114354
 30
0.0
 10
79.00123134333428
 20
-153.7376444114354
 30
0.0
 10
79.00123134333428
 20
-153.7376444114354
 30
0.0
 10
117.6843756487473
 20
-153.7376444114354
 30
0.0
 10
117.6843756487473
 20
-153.7376444114354
 30
0.0
 10
117.6843756487473
 20
-153.7376444114354
 30
0.0
 10
117.6843756487473
 20
-155.3244338600947
 30
0.0
 10
117.6843756487473
 20
-155.3244338600947
 30
0.0
 10
117.6843756487473
 20
-155.3244338600947
 30
0.0
 10
115.9536428751095
 20
-155.3244338600947
 30
0.0
 10
115.9536428751095
 20
-155.3244338600947
 30
0.0
 10
115.9536428751095
 20
-155.3244338600947
 30
0.0
 10
115.9536428751095
 20
-156.9824937216051
 30
0.0
 10
115.9536428751095
 20
-156.9824937216051
 30
0.0
 10
115.9536428751095
 20
-156.9824937216051
 30
0.0
 10
119.378765118742
 20
-156.9824937216051
 30
0.0
 10
119.378765118742
 20
-156.9824937216051
 30
0.0
 10
119.378765118742
 20
-156.9824937216051
 30
0.0
 10
119.378765118742
 20
-153.5933595061438
 30
0.0
 10
119.378765118742
 20
-153.5933595061438
 30
0.0
 10
119.378765118742
 20
-153.5933595061438
 30
0.0
 10
123.3806741617954
 20
-153.5933595061438
 30
0.0
 10
123.3806741617954
 20
-153.5933595061438
 30
0.0
 10
123.3806741617954
 20
-153.5933595061438
 30
0.0
 10
123.3806741617954
 20
-156.0814935929783
 30
0.0
 10
123.3806741617954
 20
-156.0814935929783
 30
0.0
 10
123.3806741617954
 20
-156.0814935929783
 30
0.0
 10
122.5153092395942
 20
-156.0814935929783
 30
0.0
 10
122.5153092395942
 20
-156.0814935929783
 30
0.0
 10
122.5153092395942
 20
-156.0814935929783
 30
0.0
 10
122.5153092395942
 20
-158.4969576969209
 30
0.0
 10
122.5153092395942
 20
-158.4969576969209
 30
0.0
 10
122.5153092395942
 20
-158.4969576969209
 30
0.0
 10
126.6251703806339
 20
-158.4969576969209
 30
0.0
 10
126.6251703806339
 20
-158.4969576969209
 30
0.0
 10
126.6251703806339
 20
-158.4969576969209
 30
0.0
 10
126.6251703806339
 20
-150.4575044043887
 30
0.0
 10
126.6251703806339
 20
-150.4575044043887
 30
0.0
 10
126.6251703806339
 20
-150.4575044043887
 30
0.0
 10
125.1470338296616
 20
-149.699755652408
 30
0.0
 10
125.1470338296616
 20
-149.699755652408
 30
0.0
 10
125.1470338296616
 20
-149.699755652408
 30
0.0
 10
125.3992686487988
 20
-144.6532505945333
 30
0.0
 10
124.8224789201426
 20
-143.3553969978526
 30
0.0
 10
124.8224789201426
 20
-143.3553969978526
 30
0.0
 10
124.101398903233
 20
-140.8676074205665
 30
0.0
 10
121.5060146875733
 20
-136.7580822072927
 30
0.0
 10
121.5060146875733
 20
-136.7580822072927
 30
0.0
 10
119.6673349293252
 20
-133.7291327248143
 30
0.0
 10
120.2437747654713
 20
-132.6478679749218
 30
0.0
 10
120.2437747654713
 20
-132.6478679749218
 30
0.0
 10
120.6402998728618
 20
-132.0710943951506
 30
0.0
 10
121.3613745068097
 20
-132.1430538270991
 30
0.0
 10
121.3613745068097
 20
-132.1430538270991
 30
0.0
 10
123.488624075641
 20
-132.4679693950514
 30
0.0
 10
123.5969292649585
 20
-130.7012598346749
 30
0.0
 10
123.5969292649585
 20
-130.7012598346749
 30
0.0
 10
124.0654191872589
 20
-128.9705299902726
 30
0.0
 10
121.5779795024831
 20
-128.6463249732638
 30
0.0
 10
121.5779795024831
 20
-128.6463249732638
 30
0.0
 10
118.9102751964416
 20
-128.4660603519981
 30
0.0
 10
118.0808953731762
 20
-131.0617890772064
 30
0.0
 10
118.0808953731762
 20
-131.0617890772064
 30
0.0
 10
117.4681205455841
 20
-132.8281541280343
 30
0.0
 10
118.8019753900858
 20
-135.8200473021995
 30
0.0
 10
118.8019753900858
 20
-135.8200473021995
 30
0.0
 10
120.0998451356516
 20
-138.5244472581206
 30
0.0
 10
121.1091396876725
 20
-140.4354417237887
 30
0.0
 10
121.1091396876725
 20
-140.4354417237887
 30
0.0
 10
123.0557639768044
 20
-143.7152156894404
 30
0.0
 10
123.1280840671862
 20
-144.7252315583286
 30
0.0
 10
123.1280840671862
 20
-144.7252315583286
 30
0.0
 10
123.81317898516
 20
-148.0416957908976
 30
0.0
 10
120.7126199632436
 20
-150.313219499097
 30
0.0
 10
120.7126199632436
 20
-150.313219499097
 30
0.0
 10
119.6673349293252
 20
-151.5387691542811
 30
0.0
 10
116.8913308169279
 20
-151.6107501180761
 30
0.0
 10
116.8913308169279
 20
-151.6107501180761
 30
0.0
 10
104.5617431803076
 20
-151.7190553073936
 30
0.0
 10
104.5617431803076
 20
-151.7190553073936
 30
0.0
 10
104.5617431803076
 20
-151.7190553073936
 30
0.0
 10
102.7590539039571
 20
-150.4575044043887
 30
0.0
 10
102.1462736934033
 20
-149.6281407300083
 30
0.0
 10
102.1462736934033
 20
-149.6281407300083
 30
0.0
 10
101.6418040551288
 20
-148.9433849386214
 30
0.0
 10
100.8843890467733
 20
-149.4478545768958
 30
0.0
 10
100.8843890467733
 20
-149.4478545768958
 30
0.0
 10
98.829809460834
 20
-151.7906486979464
 30
0.0
 10
98.61320446516062
 20
-151.7906486979464
 30
0.0
 10
98.61320446516062
 20
-151.7906486979464
 30
0.0
 10
87.3292571379306
 20
-151.8996644382078
 30
0.0
 10
87.3292571379306
 20
-151.8996644382078
 30
0.0
 10
87.3292571379306
 20
-151.8996644382078
 30
0.0
 10
86.24763980404708
 20
-150.7457297054234
 30
0.0
 10
86.10370748274654
 20
-150.5654650841577
 30
0.0
 10
86.10370748274654
 20
-150.5654650841577
 30
0.0
 10
85.63486497645506
 20
-149.5921394821875
 30
0.0
 10
85.02209014886303
 20
-150.3488547055226
 30
0.0
 10
85.02209014886303
 20
-150.3488547055226
 30
0.0
 10
84.08440782776091
 20
-151.7546689819724
 30
0.0
 10
83.79618790968789
 20
-151.8269944553158
 30
0.0
 10
83.79618790968789
 20
-151.8269944553158
 30
0.0
 10
80.37142117928188
 20
-151.8269944553158
 30
0.0
 10
80.37142117928188
 20
-151.8269944553158
 30
0.0
 10
80.37142117928188
 20
-151.8269944553158
 30
0.0
 10
78.46077660612401
 20
-151.4664652127844
 30
0.0
 10
78.46077660612401
 20
-149.9526902565657
 30
0.0
 10
78.46077660612401
 20
-149.9526902565657
 30
0.0
 10
78.5327441125147
 20
-147.9330245601847
 30
0.0
 10
80.55169118350928
 20
-147.9330245601847
 30
0.0
 10
80.55169118350928
 20
-147.9330245601847
 30
0.0
 10
81.88554333653003
 20
-148.2942858855067
 30
0.0
 10
81.9578634269118
 20
-147.0327349825018
 30
0.0
 10
81.9578634269118
 20
-147.0327349825018
 30
0.0
 10
82.13777815566728
 20
-145.950415172117
 30
0.0
 10
80.29910108890012
 20
-145.950415172117
 30
0.0
 10
80.29910108890012
 20
-145.950415172117
 30
0.0
 10
78.5327441125147
 20
-145.950415172117
 30
0.0
 10
78.5327441125147
 20
-145.950415172117
 30
0.0
 10
78.5327441125147
 20
-145.950415172117
 30
0.0
 10
76.47781194258438
 20
-146.3472901720178
 30
0.0
 10
76.47781194258438
 20
-148.0776755068717
 30
0.0
 10
76.47781194258438
 20
-148.0776755068717
 30
0.0
 10
76.51379704152015
 20
-157.1264125855014
 30
0.0
 10
76.51379704152015
 20
-157.1264125855014
 30
0.0
  0
HATCH
  5
44
330
1F
100
AcDbEntity
  8
_U+30EC_U+30A4_U+30E4_U+30FC 1
 62
     9
420
 13224394
100
AcDbHatch
 10
0.0
 20
0.0
 30
0.0
210
0.0
220
0.0
230
1.0
  2
SOLID
 70
     1
 71
     0
 91
        1
 92
        1
 93
        1
 72
     4
 94
        3
 73
     0
 74
     1
 95
      143
 96
      139
 40
0.0
 40
0.0
 40
0.0
 40
0.0
 40
1.0
 40
1.0
 40
1.0
 40
2.0
 40
2.0
 40
2.0
 40
3.0
 40
3.0
 40
3.0
 40
4.0
 40
4.0
 40
4.0
 40
5.0
 40
5.0
 40
5.0
 40
6.0
 40
6.0
 40
6.0
 40
7.0
 40
7.0
 40
7.0
 40
8.0
 40
8.0
 40
8.0
 40
9.0
 40
9.0
 40
9.0
 40
10.0
 40
10.0
 40
10.0
 40
11.0
 40
11.0
 40
11.0
 40
12.0
 40
12.0
 40
12.0
 40
13.0
 40
13.0
 40
13.0
 40
14.0
 40
14.0
 40
14.0
 40
15.0
 40
15.0
 40
15.0
 40
16.0
 40
16.0
 40
16.0
 40
17.0
 40
17.0
 40
17.0
 40
18.0
 40
18.0
 40
18.0
 40
19.0
 40
19.0
 40
19.0
 40
20.0
 40
20.0
 40
20.0
 40
21.0
 40
21.0
 40
21.0
 40
22.0
 40
22.0
 40
22.0
 40
23.0
 40
23.0
 40
23.0
 40
24.0
 40
24.0
 40
24.0
 40
25.0
 40
25.0
 40
25.0
 40
26.0
 40
26.0
 40
26.0
 40
27.0
 40
27.0
 40
27.0
 40
28.0
 40
28.0
 40
28.0
 40
29.0
 40
29.0
 40
29.0
 40
30.0
 40
30.0
 40
30.0
 40
31.0
 40
31.0
 40
31.0
 40
32.0
 40
32.0
 40
32.0
 40
33.0
 40
33.0
 40
33.0
 40
34.0
 40
34.0
 40
34.0
 40
35.0
 40
35.0
 40
35.0
 40
36.0
 40
36.0
 40
36.0
 40
37.0
 40
37.0
 40
37.0
 40
38.0
 40
38.0
 40
38.0
 40
39.0
 40
39.0
 40
39.0
 40
40.0
 40
40.0
 40
40.0
 40
41.0
 40
41.0
 40
41.0
 40
42.0
 40
42.0
 40
42.0
 40
43.0
 40
43.0
 40
43.0
 40
44.0
 40
44.0
 40
44.0
 40
45.0
 40
45.0
 40
45.0
 40
46.0
 40
46.0
 40
46.0
 40
46.0
 10
76.51379704152015
 20
-157.1264125855014
 10
76.51379704152015
 20
-157.1264125855014
 10
79.93856377192617
 20
-157.1264125855014
 10
79.93856377192617
 20
-157.1264125855014
 10
79.93856377192617
 20
-157.1264125855014
 10
79.93856377192617
 20
-155.57631340376
 10
79.93856377192617
 20
-155.57631340376
 10
79.93856377192617
 20
-155.57631340376
 10
78.0279191987683
 20
-155.57631340376
 10
78.0279191987683
 20
-155.57631340376
 10
78.0279191987683
 20
-155.57631340376
 10
78.0279191987683
 20
-154.3151285421504
 10
78.0279191987683
 20
-154.3151285421504
 10
78.0279191987683
 20
-154.3151285421504
 10
77.8476491945409
 20
-153.7376444114354
 10
79.00123134333428
 20
-153.7376444114354
 10
79.00123134333428
 20
-153.7376444114354
 10
117.6843756487473
 20
-153.7376444114354
 10
117.6843756487473
 20
-153.7376444114354
 10
117.6843756487473
 20
-153.7376444114354
 10
117.6843756487473
 20
-155.3244338600947
 10
117.6843756487473
 20
-155.3244338600947
 10
117.6843756487473
 20
-155.3244338600947
 10
115.9536428751095
 20
-155.3244338600947
 10
115.9536428751095
 20
-155.3244338600947
 10
115.9536428751095
 20
-155.3244338600947
 10
115.9536428751095
 20
-156.9824937216051
 10
115.9536428751095
 20
-156.9824937216051
 10
115.9536428751095
 20
-156.9824937216051
 10
119.378765118742
 20
-156.9824937216051
 10
119.378765118742
 20
-156.9824937216051
 10
119.378765118742
 20
-156.9824937216051
 10
119.378765118742
 20
-153.5933595061438
 10
119.378765118742
 20
-153.5933595061438
 10
119.378765118742
 20
-153.5933595061438
 10
123.3806741617954
 20
-153.5933595061438
 10
123.3806741617954
 20
-153.5933595061438
 10
123.3806741617954
 20
-153.5933595061438
 10
123.3806741617954
 20
-156.0814935929783
 10
123.3806741617954
 20
-156.0814935929783
 10
123.3806741617954
 20
-156.0814935929783
 10
122.5153092395942
 20
-156.0814935929783
 10
122.5153092395942
 20
-156.0814935929783
 10
122.5153092395942
 20
-156.0814935929783
 10
122.5153092395942
 20
-158.4969576969209
 10
122.5153092395942
 20
-158.4969576969209
 10
122.5153092395942
 20
-158.4969576969209
 10
126.6251703806339
 20
-158.4969576969209
 10
126.6251703806339
 20
-158.4969576969209
 10
126.6251703806339
 20
-158.4969576969209
 10
126.6251703806339
 20
-150.4575044043887
 10
126.6251703806339
 20
-150.4575044043887
 10
126.6251703806339
 20
-150.4575044043887
 10
125.1470338296616
 20
-149.699755652408
 10
125.1470338296616
 20
-149.699755652408
 10
125.1470338296616
 20
-149.699755652408
 10
125.3992686487988
 20
-144.6532505945333
 10
124.8224789201426
 20
-143.3553969978526
 10
124.8224789201426
 20
-143.3553969978526
 10
124.101398903233
 20
-140.8676074205665
 10
121.5060146875733
 20
-136.7580822072927
 10
121.5060146875733
 20
-136.7580822072927
 10
119.6673349293252
 20
-133.7291327248143
 10
120.2437747654713
 20
-132.6478679749218
 10
120.2437747654713
 20
-132.6478679749218
 10
120.6402998728618
 20
-132.0710943951506
 10
121.3613745068097
 20
-132.1430538270991
 10
121.3613745068097
 20
-132.1430538270991
 10
123.488624075641
 20
-132.4679693950514
 10
123.5969292649585
 20
-130.7012598346749
 10
123.5969292649585
 20
-130.7012598346749
 10
124.0654191872589
 20
-128.9705299902726
 10
121.5779795024831
 20
-128.6463249732638
 10
121.5779795024831
 20
-128.6463249732638
 10
118.9102751964416
 20
-128.4660603519981
 10
118.0808953731762
 20
-131.0617890772064
 10
118.0808953731762
 20
-131.0617890772064
 10
117.4681205455841
 20
-132.8281541280343
 10
118.8019753900858
 20
-135.8200473021995
 10
118.8019753900858
 20
-135.8200473021995
 10
120.0998451356516
 20
-138.5244472581206
 10
121.1091396876725
 20
-140.4354417237887
 10
121.1091396876725
 20
-140.4354417237887
 10
123.0557639768044
 20
-143.7152156894404
 10
123.1280840671862
 20
-144.7252315583286
 10
123.1280840671862
 20
-144.7252315583286
 10
123.81317898516
 20
-148.0416957908976
 10
120.7126199632436
 20
-150.313219499097
 10
120.7126199632436
 20
-150.313219499097
 10
119.6673349293252
 20
-151.5387691542811
 10
116.8913308169279
 20
-151.6107501180761
 10
116.8913308169279
 20
-151.6107501180761
 10
104.5617431803076
 20
-151.7190553073936
 10
104.5617431803076
 20
-151.7190553073936
 10
104.5617431803076
 20
-151.7190553073936
 10
102.7590539039571
 20
-150.4575044043887
 10
102.1462736934033
 20
-149.6281407300083
 10
102.1462736934033
 20
-149.6281407300083
 10
101.6418040551288
 20
-148.9433849386214
 10
100.8843890467733
 20
-149.4478545768958
 10
100.8843890467733
 20
-149.4478545768958
 10
98.829809460834
 20
-151.7906486979464
 10
98.61320446516062
 20
-151.7906486979464
 10
98.61320446516062
 20
-151.7906486979464
 10
87.3292571379306
 20
-151.8996644382078
 10
87.3292571379306
 20
-151.8996644382078
 10
87.3292571379306
 20
-151.8996644382078
 10
86.24763980404708
 20
-150.7457297054234
 10
86.10370748274654
 20
-150.5654650841577
 10
86.10370748274654
 20
-150.5654650841577
 10
85.63486497645506
 20
-149.5921394821875
 10
85.02209014886303
 20
-150.3488547055226
 10
85.02209014886303
 20
-150.3488547055226
 10
84.08440782776091
 20
-151.7546689819724
 10
83.79618790968789
 20
-151.8269944553158
 10
83.79618790968789
 20
-151.8269944553158
 10
80.37142117928188
 20
-151.8269944553158
 10
80.37142117928188
 20
-151.8269944553158
 10
80.37142117928188
 20
-151.8269944553158
 10
78.46077660612401
 20
-151.4664652127844
 10
78.46077660612401
 20
-149.9526902565657
 10
78.46077660612401
 20
-149.9526902565657
 10
78.5327441125147
 20
-147.9330245601847
 10
80.55169118350928
 20
-147.9330245601847
 10
80.55169118350928
 20
-147.9330245601847
 10
81.88554333653003
 20
-148.2942858855067
 10
81.9578634269118
 20
-147.0327349825018
 10
81.9578634269118
 20
-147.0327349825018
 10
82.13777815566728
 20
-145.950415172117
 10
80.29910108890012
 20
-145.950415172117
 10
80.29910108890012
 20
-145.950415172117
 10
78.5327441125147
 20
-145.950415172117
 10
78.5327441125147
 20
-145.950415172117
 10
78.5327441125147
 20
-145.950415172117
 10
76.47781194258438
 20
-146.3472901720178
 10
76.47781194258438
 20
-148.0776755068717
 10
76.47781194258438
 20
-148.0776755068717
 10
76.51379704152015
 20
-157.1264125855014
 10
76.51379704152015
 20
-157.1264125855014
 97
        0
 97
        0
 75
     2
 76
     1
 98
        0
  0
SPLINE
  5
45
330
1F
100
AcDbEntity
  8
_U+30EC_U+30A4_U+30E4_U+30FC 1
 62
   179
420
  2234388
370
    25
100
AcDbSpline
210
0.0
220
0.0
230
1.0
 70
    11
 71
     3
 72
   143
 73
   139
 74
     0
 42
0.0000000001
 43
0.0000000001
 12
1.0
 22
0.0
 32
0.0
 13
1.0
 23
0.0
 33
0.0
 40
0.0
 40
0.0
 40
0.0
 40
0.0
 40
1.0
 40
1.0
 40
1.0
 40
2.0
 40
2.0
 40
2.0
 40
3.0
 40
3.0
 40
3.0
 40
4.0
 40
4.0
 40
4.0
 40
5.0
 40
5.0
 40
5.0
 40
6.0
 40
6.0
 40
6.0
 40
7.0
 40
7.0
 40
7.0
 40
8.0
 40
8.0
 40
8.0
 40
9.0
 40
9.0
 40
9.0
 40
10.0
 40
10.0
 40
10.0
 40
11.0
 40
11.0
 40
11.0
 40
12.0
 40
12.0
 40
12.0
 40
13.0
 40
13.0
 40
13.0
 40
14.0
 40
14.0
 40
14.0
 40
15.0
 40
15.0
 40
15.0
 40
16.0
 40
16.0
 40
16.0
 40
17.0
 40
17.0
 40
17.0
 40
18.0
 40
18.0
 40
18.0
 40
19.0
 40
19.0
 40
19.0
 40
20.0
 40
20.0
 40
20.0
 40
21.0
 40
21.0
 40
21.0
 40
22.0
 40
22.0
 40
22.0
 40
23.0
 40
23.0
 40
23.0
 40
24.0
 40
24.0
 40
24.0
 40
25.0
 40
25.0
 40
25.0
 40
26.0
 40
26.0
 40
26.0
 40
27.0
 40
27.0
 40
27.0
 40
28.0
 40
28.0
 40
28.0
 40
29.0
 40
29.0
 40
29.0
 40
30.0
 40
30.0
 40
30.0
 40
31.0
 40
31.0
 40
31.0
 40
32.0
 40
32.0
 40
32.0
 40
33.0
 40
33.0
 40
33.0
 40
34.0
 40
34.0
 40
34.0
 40
35.0
 40
35.0
 40
35.0
 40
36.0
 40
36.0
 40
36.0
 40
37.0
 40
37.0
 40
37.0
 40
38.0
 40
38.0
 40
38.0
 40
39.0
 40
39.0
 40
39.0
 40
40.0
 40
40.0
 40
40.0
 40
41.0
 40
41.0
 40
41.0
 40
42.0
 40
42.0
 40
42.0
 40
43.0
 40
43.0
 40
43.0
 40
44.0
 40
44.0
 40
44.0
 40
45.0
 40
45.0
 40
45.0
 40
46.0
 40
46.0
 40
46.0
 40
46.0
 10
76.51379704152015
 20
-157.1264125855014
 30
0.0
 10
76.51379704152015
 20
-157.1264125855014
 30
0.0
 10
79.93856377192617
 20
-157.1264125855014
 30
0.0
 10
79.93856377192617
 20
-157.1264125855014
 30
0.0
 10
79.93856377192617
 20
-157.1264125855014
 30
0.0
 10
79.93856377192617
 20
-155.57631340376
 30
0.0
 10
79.93856377192617
 20
-155.57631340376
 30
0.0
 10
79.93856377192617
 20
-155.57631340376
 30
0.0
 10
78.0279191987683
 20
-155.57631340376
 30
0.0
 10
78.0279191987683
 20
-155.57631340376
 30
0.0
 10
78.0279191987683
 20
-155.57631340376
 30
0.0
 10
78.0279191987683
 20
-154.3151285421504
 30
0.0
 10
78.0279191987683
 20
-154.3151285421504
 30
0.0
 10
78.0279191987683
 20
-154.3151285421504
 30
0.0
 10
77.8476491945409
 20
-153.7376444114354
 30
0.0
 10
79.00123134333428
 20
-153.7376444114354
 30
0.0
 10
79.00123134333428
 20
-153.7376444114354
 30
0.0
 10
117.6843756487473
 20
-153.7376444114354
 30
0.0
 10
117.6843756487473
 20
-153.7376444114354
 30
0.0
 10
117.6843756487473
 20
-153.7376444114354
 30
0.0
 10
117.6843756487473
 20
-155.3244338600947
 30
0.0
 10
117.6843756487473
 20
-155.3244338600947
 30
0.0
 10
117.6843756487473
 20
-155.3244338600947
 30
0.0
 10
115.9536428751095
 20
-155.3244338600947
 30
0.0
 10
115.9536428751095
 20
-155.3244338600947
 30
0.0
 10
115.9536428751095
 20
-155.3244338600947
 30
0.0
 10
115.9536428751095
 20
-156.9824937216051
 30
0.0
 10
115.9536428751095
 20
-156.9824937216051
 30
0.0
 10
115.9536428751095
 20
-156.9824937216051
 30
0.0
 10
119.378765118742
 20
-156.9824937216051
 30
0.0
 10
119.378765118742
 20
-156.9824937216051
 30
0.0
 10
119.378765118742
 20
-156.9824937216051
 30
0.0
 10
119.378765118742
 20
-153.5933595061438
 30
0.0
 10
119.378765118742
 20
-153.5933595061438
 30
0.0
 10
119.378765118742
 20
-153.5933595061438
 30
0.0
 10
123.3806741617954
 20
-153.5933595061438
 30
0.0
 10
123.3806741617954
 20
-153.5933595061438
 30
0.0
 10
123.3806741617954
 20
-153.5933595061438
 30
0.0
 10
123.3806741617954
 20
-156.0814935929783
 30
0.0
 10
123.3806741617954
 20
-156.0814935929783
 30
0.0
 10
123.3806741617954
 20
-156.0814935929783
 30
0.0
 10
122.5153092395942
 20
-156.0814935929783
 30
0.0
 10
122.5153092395942
 20
-156.0814935929783
 30
0.0
 10
122.5153092395942
 20
-156.0814935929783
 30
0.0
 10
122.5153092395942
 20
-158.4969576969209
 30
0.0
 10
122.5153092395942
 20
-158.4969576969209
 30
0.0
 10
122.5153092395942
 20
-158.4969576969209
 30
0.0
 10
126.6251703806339
 20
-158.4969576969209
 30
0.0
 10
126.6251703806339
 20
-158.4969576969209
 30
0.0
 10
126.6251703806339
 20
-158.4969576969209
 30
0.0
 10
126.6251703806339
 20
-150.4575044043887
 30
0.0
 10
126.6251703806339
 20
-150.4575044043887
 30
0.0
 10
126.6251703806339
 20
-150.4575044043887
 30
0.0
 10
125.1470338296616
 20
-149.699755652408
 30
0.0
 10
125.1470338296616
 20
-149.699755652408
 30
0.0
 10
125.1470338296616
 20
-149.699755652408
 30
0.0
 10
125.3992686487988
 20
-144.6532505945333
 30
0.0
 10
124.8224789201426
 20
-143.3553969978526
 30
0.0
 10
124.8224789201426
 20
-143.3553969978526
 30
0.0
 10
124.101398903233
 20
-140.8676074205665
 30
0.0
 10
121.5060146875733
 20
-136.7580822072927
 30
0.0
 10
121.5060146875733
 20
-136.7580822072927
 30
0.0
 10
119.6673349293252
 20
-133.7291327248143
 30
0.0
 10
120.2437747654713
 20
-132.6478679749218
 30
0.0
 10
120.2437747654713
 20
-132.6478679749218
 30
0.0
 10
120.6402998728618
 20
-132.0710943951506
 30
0.0
 10
121.3613745068097
 20
-132.1430538270991
 30
0.0
 10
121.3613745068097
 20
-132.1430538270991
 30
0.0
 10
123.488624075641
 20
-132.4679693950514
 30
0.0
 10
123.5969292649585
 20
-130.7012598346749
 30
0.0
 10
123.5969292649585
 20
-130.7012598346749
 30
0.0
 10
124.0654191872589
 20
-128.9705299902726
 30
0.0
 10
121.5779795024831
 20
-128.6463249732638
 30
0.0
 10
121.5779795024831
 20
-128.6463249732638
 30
0.0
 10
118.9102751964416
 20
-128.4660603519981
 30
0.0
 10
118.0808953731762
 20
-131.0617890772064
 30
0.0
 10
118.0808953731762
 20
-131.0617890772064
 30
0.0
 10
117.4681205455841
 20
-132.8281541280343
 30
0.0
 10
118.8019753900858
 20
-135.8200473021995
 30
0.0
 10
118.8019753900858
 20
-135.8200473021995
 30
0.0
 10
120.0998451356516
 20
-138.5244472581206
 30
0.0
 10
121.1091396876725
 20
-140.4354417237887
 30
0.0
 10
121.1091396876725
 20
-140.4354417237887
 30
0.0
 10
123.0557639768044
 20
-143.7152156894404
 30
0.0
 10
123.1280840671862
 20
-144.7252315583286
 30
0.0
 10
123.1280840671862
 20
-144.7252315583286
 30
0.0
 10
123.81317898516
 20
-148.0416957908976
 30
0.0
 10
120.7126199632436
 20
-150.313219499097
 30
0.0
 10
120.7126199632436
 20
-150.313219499097
 30
0.0
 10
119.6673349293252
 20
-151.5387691542811
 30
0.0
 10
116.8913308169279
 20
-151.6107501180761
 30
0.0
 10
116.8913308169279
 20
-151.6107501180761
 30
0.0
 10
104.5617431803076
 20
-151.7190553073936
 30
0.0
 10
104.5617431803076
 20
-151.7190553073936
 30
0.0
 10
104.5617431803076
 20
-151.7190553073936
 30
0.0
 10
102.7590539039571
 20
-150.4575044043887
 30
0.0
 10
102.1462736934033
 20
-149.6281407300083
 30
0.0
 10
102.1462736934033
 20
-149.6281407300083
 30
0.0
 10
101.6418040551288
 20
-148.9433849386214
 30
0.0
 10
100.8843890467733
 20
-149.4478545768958
 30
0.0
 10
100.8843890467733
 20
-149.4478545768958
 30
0.0
 10
98.829809460834
 20
-151.7906486979464
 30
0.0
 10
98.61320446516062
 20
-151.7906486979464
 30
0.0
 10
98.61320446516062
 20
-151.7906486979464
 30
0.0
 10
87.3292571379306
 20
-151.8996644382078
 30
0.0
 10
87.3292571379306
 20
-151.8996644382078
 30
0.0
 10
87.3292571379306
 20
-151.8996644382078
 30
0.0
 10
86.24763980404708
 20
-150.7457297054234
 30
0.0
 10
86.10370748274654
 20
-150.5654650841577
 30
0.0
 10
86.10370748274654
 20
-150.5654650841577
 30
0.0
 10
85.63486497645506
 20
-149.5921394821875
 30
0.0
 10
85.02209014886303
 20
-150.3488547055226
 30
0.0
 10
85.02209014886303
 20
-150.3488547055226
 30
0.0
 10
84.08440782776091
 20
-151.7546689819724
 30
0.0
 10
83.79618790968789
 20
-151.8269944553158
 30
0.0
 10
83.79618790968789
 20
-151.8269944553158
 30
0.0
 10
80.37142117928188
 20
-151.8269944553158
 30
0.0
 10
80.37142117928188
 20
-151.8269944553158
 30
0.0
 10
80.37142117928188
 20
-151.8269944553158
 30
0.0
 10
78.46077660612401
 20
-151.4664652127844
 30
0.0
 10
78.46077660612401
 20
-149.9526902565657
 30
0.0
 10
78.46077660612401
 20
-149.9526902565657
 30
0.0
 10
78.5327441125147
 20
-147.9330245601847
 30
0.0
 10
80.55169118350928
 20
-147.9330245601847
 30
0.0
 10
80.55169118350928
 20
-147.9330245601847
 30
0.0
 10
81.88554333653003
 20
-148.2942858855067
 30
0.0
 10
81.9578634269118
 20
-147.0327349825018
 30
0.0
 10
81.9578634269118
 20
-147.0327349825018
 30
0.0
 10
82.13777815566728
 20
-145.950415172117
 30
0.0
 10
80.29910108890012
 20
-145.950415172117
 30
0.0
 10
80.29910108890012
 20
-145.950415172117
 30
0.0
 10
78.5327441125147
 20
-145.950415172117
 30
0.0
 10
78.5327441125147
 20
-145.950415172117
 30
0.0
 10
78.5327441125147
 20
-145.950415172117
 30
0.0
 10
76.47781194258438
 20
-146.3472901720178
 30
0.0
 10
76.47781194258438
 20
-148.0776755068717
 30
0.0
 10
76.47781194258438
 20
-148.0776755068717
 30
0.0
 10
76.51379704152015
 20
-157.1264125855014
 30
0.0
 10
76.51379704152015
 20
-157.1264125855014
 30
0.0
  0
POLYLINE
  5
46
330
1F
100
AcDbEntity
  8
_U+30EC_U+30A4_U+30E4_U+30FC 1
 62
   179
420
  2234388
370
    25
100
AcDb2dPolyline
 66
     1
 10
0.0
 20
0.0
 30
0.0
  0
VERTEX
  5
47
330
46
100
AcDbEntity
  8
_U+30EC_U+30A4_U+30E4_U+30FC 1
 62
   179
420
  2234388
370
    25
100
AcDbVertex
100
AcDb2dVertex
 10
117.9367504248886
 20
-157.0186026286599
 30
0.0
  0
VERTEX
  5
48
330
46
100
AcDbEntity
  8
_U+30EC_U+30A4_U+30E4_U+30FC 1
 62
   179
420
  2234388
370
    25
100
AcDbVertex
100
AcDb2dVertex
 10
117.9367504248886
 20
-158.6770285315656
 30
0.0
  0
VERTEX
  5
49
330
46
100
AcDbEntity
  8
_U+30EC_U+30A4_U+30E4_U+30FC 1
 62
   179
420
  2234388
370
    25
100
AcDbVertex
100
AcDb2dVertex
 10
111.8079417055143
 20
-158.6770285315656
 30
0.0
  0
VERTEX
  5
4A
330
46
100
AcDbEntity
  8
_U+30EC_U+30A4_U+30E4_U+30FC 1
 62
   179
420
  2234388
370
    25
100
AcDbVertex
100
AcDb2dVertex
 10
111.8079417055143
 20
-157.1265633084289
 30
0.0
  0
VERTEX
  5
4B
330
46
100
AcDbEntity
  8
_U+30EC_U+30A4_U+30E4_U+30FC 1
 62
   179
420
  2234388
370
    25
100
AcDbVertex
100
AcDb2dVertex
 10
107.5181626368981
 20
-157.1265633084289
 30
0.0
  0
VERTEX
  5
4C
330
46
100
AcDbEntity
  8
_U+30EC_U+30A4_U+30E4_U+30FC 1
 62
   179
420
  2234388
370
    25
100
AcDbVertex
100
AcDb2dVertex
 10
107.5181626368981
 20
-158.6770285315656
 30
0.0
  0
VERTEX
  5
4D
330
46
100
AcDbEntity
  8
_U+30EC_U+30A4_U+30E4_U+30FC 1
 62
   179
420
  2234388
370
    25
100
AcDbVertex
100
AcDb2dVertex
 10
103.9127733182737
 20
-158.6770285315656
 30
0.0
  0
VERTEX
  5
4E
330
46
100
AcDbEntity
  8
_U+30EC_U+30A4_U+30E4_U+30FC 1
 62
   179
420
  2234388
370
    25
100
AcDbVertex
100
AcDb2dVertex
 10
103.9127733182737
 20
-157.2348684977464
 30
0.0
  0
VERTEX
  5
4F
330
46
100
AcDbEntity
  8
_U+30EC_U+30A4_U+30E4_U+30FC 1
 62
   179
420
  2234388
370
    25
100
AcDbVertex
100
AcDb2dVertex
 10
99.65862407312137
 20
-157.2348684977464
 30
0.0
  0
VERTEX
  5
50
330
46
100
AcDbEntity
  8
_U+30EC_U+30A4_U+30E4_U+30FC 1
 62
   179
420
  2234388
370
    25
100
AcDbVertex
100
AcDb2dVertex
 10
99.65862407312137
 20
-158.8572931528313
 30
0.0
  0
VERTEX
  5
51
330
46
100
AcDbEntity
  8
_U+30EC_U+30A4_U+30E4_U+30FC 1
 62
   179
420
  2234388
370
    25
100
AcDbVertex
100
AcDb2dVertex
 10
96.12591012035058
 20
-158.8572931528313
 30
0.0
  0
VERTEX
  5
52
330
46
100
AcDbEntity
  8
_U+30EC_U+30A4_U+30E4_U+30FC 1
 62
   179
420
  2234388
370
    25
100
AcDbVertex
100
AcDb2dVertex
 10
96.12591012035058
 20
-157.2348684977464
 30
0.0
  0
VERTEX
  5
53
330
46
100
AcDbEntity
  8
_U+30EC_U+30A4_U+30E4_U+30FC 1
 62
   179
420
  2234388
370
    25
100
AcDbVertex
100
AcDb2dVertex
 10
91.87176087519829
 20
-157.2348684977464
 30
0.0
  0
VERTEX
  5
54
330
46
100
AcDbEntity
  8
_U+30EC_U+30A4_U+30E4_U+30FC 1
 62
   179
420
  2234388
370
    25
100
AcDbVertex
100
AcDb2dVertex
 10
91.87176087519829
 20
-158.7489879635137
 30
0.0
  0
VERTEX
  5
55
330
46
100
AcDbEntity
  8
_U+30EC_U+30A4_U+30E4_U+30FC 1
 62
   179
420
  2234388
370
    25
100
AcDbVertex
100
AcDb2dVertex
 10
88.33869433843644
 20
-158.7489879635137
 30
0.0
  0
VERTEX
  5
56
330
46
100
AcDbEntity
  8
_U+30EC_U+30A4_U+30E4_U+30FC 1
 62
   179
420
  2234388
370
    25
100
AcDbVertex
100
AcDb2dVertex
 10
88.33869433843644
 20
-157.3068279296946
 30
0.0
  0
VERTEX
  5
57
330
46
100
AcDbEntity
  8
_U+30EC_U+30A4_U+30E4_U+30FC 1
 62
   179
420
  2234388
370
    25
100
AcDbVertex
100
AcDb2dVertex
 10
84.04856537731007
 20
-157.3068279296946
 30
0.0
  0
VERTEX
  5
58
330
46
100
AcDbEntity
  8
_U+30EC_U+30A4_U+30E4_U+30FC 1
 62
   179
420
  2234388
370
    25
100
AcDbVertex
100
AcDb2dVertex
 10
84.04856537731007
 20
-158.8929283592568
 30
0.0
  0
VERTEX
  5
59
330
46
100
AcDbEntity
  8
_U+30EC_U+30A4_U+30E4_U+30FC 1
 62
   179
420
  2234388
370
    25
100
AcDbVertex
100
AcDb2dVertex
 10
78.0280591557724
 20
-158.8929283592568
 30
0.0
  0
VERTEX
  5
5A
330
46
100
AcDbEntity
  8
_U+30EC_U+30A4_U+30E4_U+30FC 1
 62
   179
420
  2234388
370
    25
100
AcDbVertex
100
AcDb2dVertex
 10
78.0280591557724
 20
-157.1625430244029
 30
0.0
  0
SEQEND
  5
5B
330
46
100
AcDbEntity
  8
_U+30EC_U+30A4_U+30E4_U+30FC 1
 62
   179
420
  2234388
370
    25
  0
SPLINE
  5
5C
330
1F
100
AcDbEntity
  8
_U+30EC_U+30A4_U+30E4_U+30FC 1
 62
   179
420
  2234388
370
     9
100
AcDbSpline
210
0.0
220
0.0
230
1.0
 70
    11
 71
     3
 72
    17
 73
    13
 74
     0
 42
0.0000000001
 43
0.0000000001
 12
1.0
 22
0.0
 32
0.0
 13
1.0
 23
0.0
 33
0.0
 40
0.0
 40
0.0
 40
0.0
 40
0.0
 40
1.0
 40
1.0
 40
1.0
 40
2.0
 40
2.0
 40
2.0
 40
3.0
 40
3.0
 40
3.0
 40
4.0
 40
4.0
 40
4.0
 40
4.0
 10
129.9560318515985
 20
-128.5541256053401
 30
0.0
 10
129.9560318515985
 20
-128.609161005717
 30
0.0
 10
130.0008342417918
 20
-128.6539687788717
 30
0.0
 10
130.055864259207
 20
-128.6539687788717
 30
0.0
 10
130.1108996595838
 20
-128.6539687788717
 30
0.0
 10
130.1557020497771
 20
-128.609161005717
 30
0.0
 10
130.1557020497771
 20
-128.5541256053401
 30
0.0
 10
130.1557020497771
 20
-128.4984011858662
 30
0.0
 10
130.1108996595838
 20
-128.4535934127108
 30
0.0
 10
130.055864259207
 20
-128.4535934127108
 30
0.0
 10
130.0008342417918
 20
-128.4535934127108
 30
0.0
 10
129.9560318515985
 20
-128.4984011858662
 30
0.0
 10
129.9560318515985
 20
-128.5541256053401
 30
0.0
  0
SPLINE
  5
5D
330
1F
100
AcDbEntity
  8
_U+30EC_U+30A4_U+30E4_U+30FC 1
 62
   179
420
  2234388
370
     9
100
AcDbSpline
210
0.0
220
0.0
230
1.0
 70
    11
 71
     3
 72
    17
 73
    13
 74
     0
 42
0.0000000001
 43
0.0000000001
 12
1.0
 22
0.0
 32
0.0
 13
1.0
 23
0.0
 33
0.0
 40
0.0
 40
0.0
 40
0.0
 40
0.0
 40
1.0
 40
1.0
 40
1.0
 40
2.0
 40
2.0
 40
2.0
 40
3.0
 40
3.0
 40
3.0
 40
4.0
 40
4.0
 40
4.0
 40
4.0
 10
129.9560318515985
 20
-158.5471914954652
 30
0.0
 10
129.9560318515985
 20
-158.6022268958421
 30
0.0
 10
130.0008342417918
 20
-158.6470346689971
 30
0.0
 10
130.055864259207
 20
-158.6470346689971
 30
0.0
 10
130.1108996595838
 20
-158.6470346689971
 30
0.0
 10
130.1557020497771
 20
-158.6022268958421
 30
0.0
 10
130.1557020497771
 20
-158.5471914954652
 30
0.0
 10
130.1557020497771
 20
-158.4921776269351
 30
0.0
 10
130.1108996595838
 20
-158.4473698537801
 30
0.0
 10
130.055864259207
 20
-158.4473698537801
 30
0.0
 10
130.0008342417918
 20
-158.4473698537801
 30
0.0
 10
129.9560318515985
 20
-158.4921776269351
 30
0.0
 10
129.9560318515985
 20
-158.5471914954652
 30
0.0
  0
POLYLINE
  5
5E
330
1F
100
AcDbEntity
  8
_U+30EC_U+30A4_U+30E4_U+30FC 1
 62
   179
420
  2234388
370
     9
100
AcDb2dPolyline
 66
     1
 10
0.0
 20
0.0
 30
0.0
  0
VERTEX
  5
5F
330
5E
100
AcDbEntity
  8
_U+30EC_U+30A4_U+30E4_U+30FC 1
 62
   179
420
  2234388
370
     9
100
AcDbVertex
100
AcDb2dVertex
 10
130.0559019399388
 20
-128.5473000099096
 30
0.0
  0
VERTEX
  5
60
330
5E
100
AcDbEntity
  8
_U+30EC_U+30A4_U+30E4_U+30FC 1
 62
   179
420
  2234388
370
     9
100
AcDbVertex
100
AcDb2dVertex
 10
130.0559019399388
 20
-158.5471699636184
 30
0.0
  0
SEQEND
  5
61
330
5E
100
AcDbEntity
  8
_U+30EC_U+30A4_U+30E4_U+30FC 1
 62
   179
420
  2234388
370
     9
  0
POLYLINE
  5
62
330
1F
100
AcDbEntity
  8
_U+30EC_U+30A4_U+30E4_U+30FC 1
 62
   179
420
  2234388
370
     9
100
AcDb2dPolyline
 66
     1
 10
0.0
 20
0.0
 30
0.0
  0
VERTEX
  5
63
330
62
100
AcDbEntity
  8
_U+30EC_U+30A4_U+30E4_U+30FC 1
 62
   179
420
  2234388
370
     9
100
AcDbVertex
100
AcDb2dVertex
 10
127.9943406526802
 20
-128.5541256053401
 30
0.0
  0
VERTEX
  5
64
330
62
100
AcDbEntity
  8
_U+30EC_U+30A4_U+30E4_U+30FC 1
 62
   179
420
  2234388
370
     9
100
AcDbVertex
100
AcDb2dVertex
 10
131.0557440112221
 20
-128.5541256053401
 30
0.0
  0
SEQEND
  5
65
330
62
100
AcDbEntity
  8
_U+30EC_U+30A4_U+30E4_U+30FC 1
 62
   179
420
  2234388
370
     9
  0
POLYLINE
  5
66
330
1F
100
AcDbEntity
  8
_U+30EC_U+30A4_U+30E4_U+30FC 1
 62
   179
420
  2234388
370
     9
100
AcDb2dPolyline
 66
     1
 10
0.0
 20
0.0
 30
0.0
  0
VERTEX
  5
67
330
66
100
AcDbEntity
  8
_U+30EC_U+30A4_U+30E4_U+30FC 1
 62
   179
420
  2234388
370
     9
100
AcDbVertex
100
AcDb2dVertex
 10
128.1962340140393
 20
-158.5471914954652
 30
0.0
  0
VERTEX
  5
68
330
66
100
AcDbEntity
  8
_U+30EC_U+30A4_U+30E4_U+30FC 1
 62
   179
420
  2234388
370
     9
100
AcDbVertex
100
AcDb2dVertex
 10
131.0554963949841
 20
-158.5471914954652
 30
0.0
  0
SEQEND
  5
69
330
66
100
AcDbEntity
  8
_U+30EC_U+30A4_U+30E4_U+30FC 1
 62
   179
420
  2234388
370
     9
  0
INSERT
  5
6B
330
1F
100
AcDbEntity
  8
_U+30EC_U+30A4_U+30E4_U+30FC 1
100
AcDbBlockReference
  2
block 2
 10
0.0
 20
0.0
 30
0.0
  0
SPLINE
  5
73
330
1F
100
AcDbEntity
  8
_U+30EC_U+30A4_U+30E4_U+30FC 1
 62
   179
420
  2234388
370
     9
100
AcDbSpline
210
0.0
220
0.0
230
1.0
 70
    11
 71
     3
 72
    17
 73
    13
 74
     0
 42
0.0000000001
 43
0.0000000001
 12
1.0
 22
0.0
 32
0.0
 13
1.0
 23
0.0
 33
0.0
 40
0.0
 40
0.0
 40
0.0
 40
0.0
 40
1.0
 40
1.0
 40
1.0
 40
2.0
 40
2.0
 40
2.0
 40
3.0
 40
3.0
 40
3.0
 40
4.0
 40
4.0
 40
4.0
 40
4.0
 10
117.9768965532152
 20
-162.7150464816737
 30
0.0
 10
117.9768965532152
 20
-162.6600326131436
 30
0.0
 10
117.9320887800602
 20
-162.6152248399886
 30
0.0
 10
117.877058762645
 20
-162.6152248399886
 30
0.0
 10
117.8220233622681
 20
-162.6152248399886
 30
0.0
 10
117.7772209720748
 20
-162.6600326131436
 30
0.0
 10
117.7772209720748
 20
-162.7150464816737
 30
0.0
 10
117.7772209720748
 20
-162.7700818820505
 30
0.0
 10
117.8220233622681
 20
-162.8148896552056
 30
0.0
 10
117.877058762645
 20
-162.8148896552056
 30
0.0
 10
117.9320887800602
 20
-162.8148896552056
 30
0.0
 10
117.9768965532152
 20
-162.7700818820505
 30
0.0
 10
117.9768965532152
 20
-162.7150464816737
 30
0.0
  0
SPLINE
  5
74
330
1F
100
AcDbEntity
  8
_U+30EC_U+30A4_U+30E4_U+30FC 1
 62
   179
420
  2234388
370
     9
100
AcDbSpline
210
0.0
220
0.0
230
1.0
 70
    11
 71
     3
 72
    17
 73
    13
 74
     0
 42
0.0000000001
 43
0.0000000001
 12
1.0
 22
0.0
 32
0.0
 13
1.0
 23
0.0
 33
0.0
 40
0.0
 40
0.0
 40
0.0
 40
0.0
 40
1.0
 40
1.0
 40
1.0
 40
2.0
 40
2.0
 40
2.0
 40
3.0
 40
3.0
 40
3.0
 40
4.0
 40
4.0
 40
4.0
 40
4.0
 10
78.05257854629632
 20
-162.7150464816737
 30
0.0
 10
78.05257854629632
 20
-162.6600326131436
 30
0.0
 10
78.00777346462213
 20
-162.6152248399886
 30
0.0
 10
77.95274075572613
 20
-162.6152248399886
 30
0.0
 10
77.89735546283936
 20
-162.6152248399886
 30
0.0
 10
77.85255307264569
 20
-162.6600326131436
 30
0.0
 10
77.85255307264569
 20
-162.7150464816737
 30
0.0
 10
77.85255307264569
 20
-162.7700818820505
 30
0.0
 10
77.89735546283936
 20
-162.8148896552056
 30
0.0
 10
77.95274075572613
 20
-162.8148896552056
 30
0.0
 10
78.00777346462213
 20
-162.8148896552056
 30
0.0
 10
78.05257854629632
 20
-162.7700818820505
 30
0.0
 10
78.05257854629632
 20
-162.7150464816737
 30
0.0
  0
POLYLINE
  5
75
330
1F
100
AcDbEntity
  8
_U+30EC_U+30A4_U+30E4_U+30FC 1
 62
   179
420
  2234388
370
     9
100
AcDb2dPolyline
 66
     1
 10
0.0
 20
0.0
 30
0.0
  0
VERTEX
  5
76
330
75
100
AcDbEntity
  8
_U+30EC_U+30A4_U+30E4_U+30FC 1
 62
   179
420
  2234388
370
     9
100
AcDbVertex
100
AcDb2dVertex
 10
77.95267077722407
 20
-162.7150464816737
 30
0.0
  0
VERTEX
  5
77
330
75
100
AcDbEntity
  8
_U+30EC_U+30A4_U+30E4_U+30FC 1
 62
   179
420
  2234388
370
     9
100
AcDbVertex
100
AcDb2dVertex
 10
117.9527324381632
 20
-162.7150464816737
 30
0.0
  0
SEQEND
  5
78
330
75
100
AcDbEntity
  8
_U+30EC_U+30A4_U+30E4_U+30FC 1
 62
   179
420
  2234388
370
     9
  0
POLYLINE
  5
79
330
1F
100
AcDbEntity
  8
_U+30EC_U+30A4_U+30E4_U+30FC 1
 62
   179
420
  2234388
370
     9
100
AcDb2dPolyline
 66
     1
 10
0.0
 20
0.0
 30
0.0
  0
VERTEX
  5
7A
330
79
100
AcDbEntity
  8
_U+30EC_U+30A4_U+30E4_U+30FC 1
 62
   179
420
  2234388
370
     9
100
AcDbVertex
100
AcDb2dVertex
 10
77.95267077722407
 20
-160.6604130661175
 30
0.0
  0
VERTEX
  5
7B
330
79
100
AcDbEntity
  8
_U+30EC_U+30A4_U+30E4_U+30FC 1
 62
   179
420
  2234388
370
     9
100
AcDbVertex
100
AcDb2dVertex
 10
77.95267077722407
 20
-163.7147701277996
 30
0.0
  0
SEQEND
  5
7C
330
79
100
AcDbEntity
  8
_U+30EC_U+30A4_U+30E4_U+30FC 1
 62
   179
420
  2234388
370
     9
  0
POLYLINE
  5
7D
330
1F
100
AcDbEntity
  8
_U+30EC_U+30A4_U+30E4_U+30FC 1
 62
   179
420
  2234388
370
     9
100
AcDb2dPolyline
 66
     1
 10
0.0
 20
0.0
 30
0.0
  0
VERTEX
  5
7E
330
7D
100
AcDbEntity
  8
_U+30EC_U+30A4_U+30E4_U+30FC 1
 62
   179
420
  2234388
370
     9
100
AcDbVertex
100
AcDb2dVertex
 10
117.876988784143
 20
-160.854673387792
 30
0.0
  0
VERTEX
  5
7F
330
7D
100
AcDbEntity
  8
_U+30EC_U+30A4_U+30E4_U+30FC 1
 62
   179
420
  2234388
370
     9
100
AcDbVertex
100
AcDb2dVertex
 10
117.876988784143
 20
-163.7146624685657
 30
0.0
  0
SEQEND
  5
80
330
7D
100
AcDbEntity
  8
_U+30EC_U+30A4_U+30E4_U+30FC 1
 62
   179
420
  2234388
370
     9
  0
INSERT
  5
82
330
1F
100
AcDbEntity
  8
_U+30EC_U+30A4_U+30E4_U+30FC 1
100
AcDbBlockReference
  2
block 3
 10
0.0
 20
0.0
 30
0.0
  0
INSERT
  5
9E
330
1F
100
AcDbEntity
  8
_U+30EC_U+30A4_U+30E4_U+30FC 1
100
AcDbBlockReference
  2
block 4
 10
0.0
 20
0.0
 30
0.0
  0
SPLINE
  5
DC
330
1F
100
AcDbEntity
  8
_U+30EC_U+30A4_U+30E4_U+30FC 1
 62
   179
420
  2234388
370
     9
100
AcDbSpline
210
0.0
220
0.0
230
1.0
 70
    11
 71
     3
 72
    17
 73
    13
 74
     0
 42
0.0000000001
 43
0.0000000001
 12
1.0
 22
0.0
 32
0.0
 13
1.0
 23
0.0
 33
0.0
 40
0.0
 40
0.0
 40
0.0
 40
0.0
 40
1.0
 40
1.0
 40
1.0
 40
2.0
 40
2.0
 40
2.0
 40
3.0
 40
3.0
 40
3.0
 40
4.0
 40
4.0
 40
4.0
 40
4.0
 10
126.7720692211689
 20
-167.8892353909704
 30
0.0
 10
126.7720692211689
 20
-167.8342215224403
 30
0.0
 10
126.7272614480138
 20
-167.7894137492853
 30
0.0
 10
126.6722314305987
 20
-167.7894137492853
 30
0.0
 10
126.6171960302218
 20
-167.7894137492853
 30
0.0
 10
126.5723936400285
 20
-167.8342215224403
 30
0.0
 10
126.5723936400285
 20
-167.8892353909704
 30
0.0
 10
126.5723936400285
 20
-167.9442707913473
 30
0.0
 10
126.6171960302218
 20
-167.9890785645023
 30
0.0
 10
126.6722314305987
 20
-167.9890785645023
 30
0.0
 10
126.7272614480138
 20
-167.9890785645023
 30
0.0
 10
126.7720692211689
 20
-167.9442707913473
 30
0.0
 10
126.7720692211689
 20
-167.8892353909704
 30
0.0
  0
SPLINE
  5
DD
330
1F
100
AcDbEntity
  8
_U+30EC_U+30A4_U+30E4_U+30FC 1
 62
   179
420
  2234388
370
     9
100
AcDbSpline
210
0.0
220
0.0
230
1.0
 70
    11
 71
     3
 72
    17
 73
    13
 74
     0
 42
0.0000000001
 43
0.0000000001
 12
1.0
 22
0.0
 32
0.0
 13
1.0
 23
0.0
 33
0.0
 40
0.0
 40
0.0
 40
0.0
 40
0.0
 40
1.0
 40
1.0
 40
1.0
 40
2.0
 40
2.0
 40
2.0
 40
3.0
 40
3.0
 40
3.0
 40
4.0
 40
4.0
 40
4.0
 40
4.0
 10
76.75911744635927
 20
-167.8892353909704
 30
0.0
 10
76.75911744635927
 20
-167.8342215224403
 30
0.0
 10
76.71431236468509
 20
-167.7894137492853
 30
0.0
 10
76.65927965578906
 20
-167.7894137492853
 30
0.0
 10
76.6038943629023
 20
-167.7894137492853
 30
0.0
 10
76.55909197270864
 20
-167.8342215224403
 30
0.0
 10
76.55909197270864
 20
-167.8892353909704
 30
0.0
 10
76.55909197270864
 20
-167.9442707913473
 30
0.0
 10
76.6038943629023
 20
-167.9890785645023
 30
0.0
 10
76.65927965578906
 20
-167.9890785645023
 30
0.0
 10
76.71431236468509
 20
-167.9890785645023
 30
0.0
 10
76.75911744635927
 20
-167.9442707913473
 30
0.0
 10
76.75911744635927
 20
-167.8892353909704
 30
0.0
  0
POLYLINE
  5
DE
330
1F
100
AcDbEntity
  8
_U+30EC_U+30A4_U+30E4_U+30FC 1
 62
   179
420
  2234388
370
     9
100
AcDb2dPolyline
 66
     1
 10
0.0
 20
0.0
 30
0.0
  0
VERTEX
  5
DF
330
DE
100
AcDbEntity
  8
_U+30EC_U+30A4_U+30E4_U+30FC 1
 62
   179
420
  2234388
370
     9
100
AcDbVertex
100
AcDb2dVertex
 10
76.65920967728702
 20
-167.8892353909704
 30
0.0
  0
VERTEX
  5
E0
330
DE
100
AcDbEntity
  8
_U+30EC_U+30A4_U+30E4_U+30FC 1
 62
   179
420
  2234388
370
     9
100
AcDbVertex
100
AcDb2dVertex
 10
126.6591077699845
 20
-167.8892353909704
 30
0.0
  0
SEQEND
  5
E1
330
DE
100
AcDbEntity
  8
_U+30EC_U+30A4_U+30E4_U+30FC 1
 62
   179
420
  2234388
370
     9
  0
POLYLINE
  5
E2
330
1F
100
AcDbEntity
  8
_U+30EC_U+30A4_U+30E4_U+30FC 1
 62
   179
420
  2234388
370
     9
100
AcDb2dPolyline
 66
     1
 10
0.0
 20
0.0
 30
0.0
  0
VERTEX
  5
E3
330
E2
100
AcDbEntity
  8
_U+30EC_U+30A4_U+30E4_U+30FC 1
 62
   179
420
  2234388
370
     9
100
AcDbVertex
100
AcDb2dVertex
 10
76.65920967728702
 20
-165.8346019754142
 30
0.0
  0
VERTEX
  5
E4
330
E2
100
AcDbEntity
  8
_U+30EC_U+30A4_U+30E4_U+30FC 1
 62
   179
420
  2234388
370
     9
100
AcDbVertex
100
AcDb2dVertex
 10
76.65920967728702
 20
-168.8889590370964
 30
0.0
  0
SEQEND
  5
E5
330
E2
100
AcDbEntity
  8
_U+30EC_U+30A4_U+30E4_U+30FC 1
 62
   179
420
  2234388
370
     9
  0
POLYLINE
  5
E6
330
1F
100
AcDbEntity
  8
_U+30EC_U+30A4_U+30E4_U+30FC 1
 62
   179
420
  2234388
370
     9
100
AcDb2dPolyline
 66
     1
 10
0.0
 20
0.0
 30
0.0
  0
VERTEX
  5
E7
330
E6
100
AcDbEntity
  8
_U+30EC_U+30A4_U+30E4_U+30FC 1
 62
   179
420
  2234388
370
     9
100
AcDbVertex
100
AcDb2dVertex
 10
126.6721291543264
 20
-166.0288622970887
 30
0.0
  0
VERTEX
  5
E8
330
E6
100
AcDbEntity
  8
_U+30EC_U+30A4_U+30E4_U+30FC 1
 62
   179
420
  2234388
370
     9
100
AcDbVertex
100
AcDb2dVertex
 10
126.6721291543264
 20
-168.8888513778624
 30
0.0
  0
SEQEND
  5
E9
330
E6
100
AcDbEntity
  8
_U+30EC_U+30A4_U+30E4_U+30FC 1
 62
   179
420
  2234388
370
     9
  0
INSERT
  5
EB
330
1F
100
AcDbEntity
  8
_U+30EC_U+30A4_U+30E4_U+30FC 1
100
AcDbBlockReference
  2
block 5
 10
0.0
 20
0.0
 30
0.0
  0
POLYLINE
  5
F3
330
1F
100
AcDbEntity
  8
_U+30EC_U+30A4_U+30E4_U+30FC 1
 62
   179
420
  2234388
370
     9
100
AcDb2dPolyline
 66
     1
 10
0.0
 20
0.0
 30
0.0
  0
VERTEX
  5
F4
330
F3
100
AcDbEntity
  8
_U+30EC_U+30A4_U+30E4_U+30FC 1
 62
   179
420
  2234388
370
     9
100
AcDbVertex
100
AcDb2dVertex
 10
90.25956923029699
 20
-155.7180144874377
 30
0.0
  0
VERTEX
  5
F5
330
F3
100
AcDbEntity
  8
_U+30EC_U+30A4_U+30E4_U+30FC 1
 62
   179
420
  2234388
370
     9
100
AcDbVertex
100
AcDb2dVertex
 10
97.40331922851105
 20
-144.9582922679057
 30
0.0
  0
SEQEND
  5
F6
330
F3
100
AcDbEntity
  8
_U+30EC_U+30A4_U+30E4_U+30FC 1
 62
   179
420
  2234388
370
     9
  0
ENDSEC
  0
SECTION
  2
OBJECTS
  0
DICTIONARY
  5
C
330
0
100
AcDbDictionary
281
     1
  3
ACAD_GROUP
350
D
  3
ACAD_LAYOUT
350
1A
  3
ACAD_MATERIAL
350
3B
  3
ACAD_MLEADERSTYLE
350
F8
  3
ACAD_MLINESTYLE
350
17
  3
ACAD_PLOTSETTINGS
350
19
  3
ACAD_PLOTSTYLENAME
350
E
  3
ACAD_TABLESTYLE
350
F7
  3
ACAD_VISUALSTYLE
350
2A
  0
SUN
  5
3F
330
29
100
AcDbSun
 90
        1
290
     0
 63
     7
421
 16777215
 40
1.0
291
     1
 91
  2455826
 92
 54000000
292
     0
 70
     2
 71
   256
280
     1
  0
DICTIONARY
  5
D
102
{ACAD_REACTORS
330
C
102
}
330
C
100
AcDbDictionary
281
     1
  0
DICTIONARY
  5
1A
102
{ACAD_REACTORS
330
C
102
}
330
C
100
AcDbDictionary
281
     1
  3
Layout1
350
1E
  3
Layout2
350
26
  3
Model
350
22
  0
DICTIONARY
  5
3B
102
{ACAD_REACTORS
330
C
102
}
330
C
100
AcDbDictionary
281
     1
  3
ByBlock
350
3D
  3
ByLayer
350
3C
  3
Global
350
3E
  0
DICTIONARY
  5
F8
102
{ACAD_REACTORS
330
C
102
}
330
C
100
AcDbDictionary
281
     1
  0
DICTIONARY
  5
17
102
{ACAD_REACTORS
330
C
102
}
330
C
100
AcDbDictionary
281
     1
  3
Standard
350
18
  0
DICTIONARY
  5
19
102
{ACAD_REACTORS
330
C
102
}
330
C
100
AcDbDictionary
281
     1
  0
ACDBDICTIONARYWDFLT
  5
E
102
{ACAD_REACTORS
330
C
102
}
330
C
100
AcDbDictionary
281
     1
  3
Normal
350
F
100
AcDbDictionaryWithDefault
340
F
  0
DICTIONARY
  5
F7
102
{ACAD_REACTORS
330
C
102
}
330
C
100
AcDbDictionary
281
     1
  0
DICTIONARY
  5
2A
102
{ACAD_REACTORS
330
C
102
}
330
C
100
AcDbDictionary
281
     1
  3
2dWireframe
350
2F
  3
3D Hidden
350
31
  3
3dWireframe
350
30
  3
Basic
350
32
  3
Brighten
350
36
  3
ColorChange
350
3A
  3
Conceptual
350
34
  3
Dim
350
35
  3
Facepattern
350
39
  3
Flat
350
2B
  3
FlatWithEdges
350
2C
  3
Gouraud
350
2D
  3
GouraudWithEdges
350
2E
  3
Linepattern
350
38
  3
Realistic
350
33
  3
Thicken
350
37
  0
LAYOUT
  5
1E
102
{ACAD_REACTORS
330
1A
102
}
330
1A
100
AcDbPlotSettings
  1

  2
none_device
  4

  6

 40
0.0
 41
0.0
 42
0.0
 43
0.0
 44
0.0
 45
0.0
 46
0.0
 47
0.0
 48
0.0
 49
0.0
140
0.0
141
0.0
142
1.0
143
1.0
 70
   688
 72
     0
 73
     0
 74
     5
  7

 75
    16
 76
     0
 77
     2
 78
   300
147
1.0
148
0.0
149
0.0
100
AcDbLayout
  1
Layout1
 70
     1
 71
     1
 10
0.0
 20
0.0
 11
12.0
 21
9.0
 12
0.0
 22
0.0
 32
0.0
 14
1.000000000000000E+20
 24
1.000000000000000E+20
 34
1.000000000000000E+20
 15
-1.000000000000000E+20
 25
-1.000000000000000E+20
 35
-1.000000000000000E+20
146
0.0
 13
0.0
 23
0.0
 33
0.0
 16
1.0
 26
0.0
 36
0.0
 17
0.0
 27
1.0
 37
0.0
 76
     0
330
1B
  0
LAYOUT
  5
26
102
{ACAD_REACTORS
330
1A
102
}
330
1A
100
AcDbPlotSettings
  1

  2
none_device
  4

  6

 40
0.0
 41
0.0
 42
0.0
 43
0.0
 44
0.0
 45
0.0
 46
0.0
 47
0.0
 48
0.0
 49
0.0
140
0.0
141
0.0
142
1.0
143
1.0
 70
   688
 72
     0
 73
     0
 74
     5
  7

 75
    16
 76
     0
 77
     2
 78
   300
147
1.0
148
0.0
149
0.0
100
AcDbLayout
  1
Layout2
 70
     1
 71
     2
 10
0.0
 20
0.0
 11
0.0
 21
0.0
 12
0.0
 22
0.0
 32
0.0
 14
0.0
 24
0.0
 34
0.0
 15
0.0
 25
0.0
 35
0.0
146
0.0
 13
0.0
 23
0.0
 33
0.0
 16
1.0
 26
0.0
 36
0.0
 17
0.0
 27
1.0
 37
0.0
 76
     0
330
23
  0
LAYOUT
  5
22
102
{ACAD_REACTORS
330
1A
102
}
330
1A
100
AcDbPlotSettings
  1

  2
none_device
  4

  6

 40
0.0
 41
0.0
 42
0.0
 43
0.0
 44
0.0
 45
0.0
 46
0.0
 47
0.0
 48
0.0
 49
0.0
140
0.0
141
0.0
142
1.0
143
1.0
 70
  1712
 72
     0
 73
     0
 74
     0
  7

 75
     0
 76
     0
 77
     2
 78
   300
147
1.0
148
0.0
149
0.0
100
AcDbLayout
  1
Model
 70
     1
 71
     0
 10
0.0
 20
0.0
 11
12.0
 21
9.0
 12
0.0
 22
0.0
 32
0.0
 14
1.000000000000000E+20
 24
1.000000000000000E+20
 34
1.000000000000000E+20
 15
-1.000000000000000E+20
 25
-1.000000000000000E+20
 35
-1.000000000000000E+20
146
0.0
 13
0.0
 23
0.0
 33
0.0
 16
1.0
 26
0.0
 36
0.0
 17
0.0
 27
1.0
 37
0.0
 76
     0
330
1F
331
29
  0
MATERIAL
  5
3D
102
{ACAD_REACTORS
330
3B
102
}
330
3B
100
AcDbMaterial
  1
ByBlock
 72
     1
 94
      127
  0
MATERIAL
  5
3C
102
{ACAD_REACTORS
330
3B
102
}
330
3B
100
AcDbMaterial
  1
ByLayer
 72
     1
 94
      127
  0
MATERIAL
  5
3E
102
{ACAD_REACTORS
330
3B
102
}
330
3B
100
AcDbMaterial
  1
Global
 72
     1
 94
      127
  0
MLINESTYLE
  5
18
102
{ACAD_REACTORS
330
17
102
}
330
17
100
AcDbMlineStyle
  2
Standard
 70
     0
  3

 62
   256
 51
90.0
 52
90.0
 71
     2
 49
0.5
 62
   256
  6
BYLAYER
 49
-0.5
 62
   256
  6
BYLAYER
  0
ACDBPLACEHOLDER
  5
F
102
{ACAD_REACTORS
330
E
102
}
330
E
  0
VISUALSTYLE
  5
2F
102
{ACAD_REACTORS
330
2A
102
}
330
2A
100
AcDbVisualStyle
  2
2dWireframe
 70
     4
177
     2
291
     0
 71
     0
176
     1
 72
     2
176
     1
 73
     0
176
     1
 90
        0
176
     1
 40
-0.6
176
     1
 41
-30.0
176
     1
 62
     5
 63
     7
421
 16777215
176
     1
 74
     1
176
     1
 91
        4
176
     1
 64
     7
176
     1
 65
   257
176
     1
 75
     1
176
     1
175
     1
176
     1
 42
1.0
176
     1
 92
        0
176
     1
 66
   257
176
     1
 43
1.0
176
     1
 76
     1
176
     1
 77
     6
176
     1
 78
     2
176
     1
 67
     7
176
     1
 79
     5
176
     1
170
     0
176
     1
171
     0
176
     1
290
     0
176
     1
 93
        1
176
     1
 44
0.0
176
     1
173
     0
176
     1
  0
VISUALSTYLE
  5
31
102
{ACAD_REACTORS
330
2A
102
}
330
2A
100
AcDbVisualStyle
  2
3D Hidden
 70
     6
177
     2
291
     0
 71
     1
176
     1
 72
     2
176
     1
 73
     2
176
     1
 90
        0
176
     1
 40
-0.6
176
     1
 41
-30.0
176
     1
 62
     5
 63
     7
421
 16777215
176
     1
 74
     2
176
     1
 91
        2
176
     1
 64
     7
176
     1
 65
   257
176
     1
 75
     2
176
     1
175
     1
176
     1
 42
40.0
176
     1
 92
        0
176
     1
 66
   257
176
     1
 43
1.0
176
     1
 76
     1
176
     1
 77
     6
176
     1
 78
     2
176
     1
 67
     7
176
     1
 79
     3
176
     1
170
     0
176
     1
171
     0
176
     1
290
     0
176
     1
 93
        1
176
     1
 44
0.0
176
     1
173
     0
176
     1
  0
VISUALSTYLE
  5
30
102
{ACAD_REACTORS
330
2A
102
}
330
2A
100
AcDbVisualStyle
  2
3dWireframe
 70
     5
177
     2
291
     0
 71
     0
176
     1
 72
     2
176
     1
 73
     0
176
     1
 90
        0
176
     1
 40
-0.6
176
     1
 41
-30.0
176
     1
 62
     5
 63
     7
421
 16777215
176
     1
 74
     1
176
     1
 91
        4
176
     1
 64
     7
176
     1
 65
   257
176
     1
 75
     1
176
     1
175
     1
176
     1
 42
1.0
176
     1
 92
        0
176
     1
 66
   257
176
     1
 43
1.0
176
     1
 76
     1
176
     1
 77
     6
176
     1
 78
     2
176
     1
 67
     7
176
     1
 79
     5
176
     1
170
     0
176
     1
171
     0
176
     1
290
     0
176
     1
 93
        1
176
     1
 44
0.0
176
     1
173
     0
176
     1
  0
VISUALSTYLE
  5
32
102
{ACAD_REACTORS
330
2A
102
}
330
2A
100
AcDbVisualStyle
  2
Basic
 70
     7
177
     2
291
     1
 71
     1
176
     1
 72
     0
176
     1
 73
     1
176
     1
 90
        0
176
     1
 40
-0.6
176
     1
 41
-30.0
176
     1
 62
     5
 63
     7
421
 16777215
176
     1
 74
     0
176
     1
 91
        4
176
     1
 64
     7
176
     1
 65
   257
176
     1
 75
     1
176
     1
175
     1
176
     1
 42
1.0
176
     1
 92
        8
176
     1
 66
     7
176
     1
 43
1.0
176
     1
 76
     1
176
     1
 77
     6
176
     1
 78
     2
176
     1
 67
     7
176
     1
 79
     5
176
     1
170
     0
176
     1
171
     0
176
     1
290
     0
176
     1
 93
        1
176
     1
 44
0.0
176
     1
173
     0
176
     1
  0
VISUALSTYLE
  5
36
102
{ACAD_REACTORS
330
2A
102
}
330
2A
100
AcDbVisualStyle
  2
Brighten
 70
    12
177
     2
291
     1
 71
     2
176
     1
 72
     2
176
     1
 73
     0
176
     1
 90
        0
176
     1
 40
-0.6
176
     1
 41
-30.0
176
     1
 62
     5
 63
     7
421
 16777215
176
     1
 74
     1
176
     1
 91
        4
176
     1
 64
     7
176
     1
 65
   257
176
     1
 75
     1
176
     1
175
     1
176
     1
 42
1.0
176
     1
 92
        8
176
     1
 66
     7
176
     1
 43
1.0
176
     1
 76
     1
176
     1
 77
     6
176
     1
 78
     2
176
     1
 67
     7
176
     1
 79
     5
176
     1
170
     0
176
     1
171
     0
176
     1
290
     0
176
     1
 93
        1
176
     1
 44
50.0
176
     1
173
     0
176
     1
  0
VISUALSTYLE
  5
3A
102
{ACAD_REACTORS
330
2A
102
}
330
2A
100
AcDbVisualStyle
  2
ColorChange
 70
    16
177
     2
291
     1
 71
     2
176
     1
 72
     2
176
     1
 73
     3
176
     1
 90
        0
176
     1
 40
-0.6
176
     1
 41
-30.0
176
     1
 62
     5
 63
     8
421
  8421504
176
     1
 74
     1
176
     1
 91
        4
176
     1
 64
     7
176
     1
 65
   257
176
     1
 75
     1
176
     1
175
     1
176
     1
 42
1.0
176
     1
 92
        8
176
     1
 66
     8
424
  8421504
176
     1
 43
1.0
176
     1
 76
     1
176
     1
 77
     6
176
     1
 78
     2
176
     1
 67
     7
176
     1
 79
     5
176
     1
170
     0
176
     1
171
     0
176
     1
290
     0
176
     1
 93
        1
176
     1
 44
0.0
176
     1
173
     0
176
     1
  0
VISUALSTYLE
  5
34
102
{ACAD_REACTORS
330
2A
102
}
330
2A
100
AcDbVisualStyle
  2
Conceptual
 70
     9
177
     2
291
     0
 71
     3
176
     1
 72
     2
176
     1
 73
     0
176
     1
 90
        0
176
     1
 40
-0.6
176
     1
 41
-30.0
176
     1
 62
     5
 63
     7
421
 16777215
176
     1
 74
     2
176
     1
 91
        2
176
     1
 64
     7
176
     1
 65
   257
176
     1
 75
     1
176
     1
175
     1
176
     1
 42
40.0
176
     1
 92
        8
176
     1
 66
     7
176
     1
 43
1.0
176
     1
 76
     1
176
     1
 77
     6
176
     1
 78
     2
176
     1
 67
     7
176
     1
 79
     3
176
     1
170
     0
176
     1
171
     0
176
     1
290
     0
176
     1
 93
        1
176
     1
 44
0.0
176
     1
173
     0
176
     1
  0
VISUALSTYLE
  5
35
102
{ACAD_REACTORS
330
2A
102
}
330
2A
100
AcDbVisualStyle
  2
Dim
 70
    11
177
     2
291
     1
 71
     2
176
     1
 72
     2
176
     1
 73
     0
176
     1
 90
        0
176
     1
 40
-0.6
176
     1
 41
-30.0
176
     1
 62
     5
 63
     7
421
 16777215
176
     1
 74
     1
176
     1
 91
        4
176
     1
 64
     7
176
     1
 65
   257
176
     1
 75
     1
176
     1
175
     1
176
     1
 42
1.0
176
     1
 92
        8
176
     1
 66
     7
176
     1
 43
1.0
176
     1
 76
     1
176
     1
 77
     6
176
     1
 78
     2
176
     1
 67
     7
176
     1
 79
     5
176
     1
170
     0
176
     1
171
     0
176
     1
290
     0
176
     1
 93
        1
176
     1
 44
-50.0
176
     1
173
     0
176
     1
  0
VISUALSTYLE
  5
39
102
{ACAD_REACTORS
330
2A
102
}
330
2A
100
AcDbVisualStyle
  2
Facepattern
 70
    15
177
     2
291
     1
 71
     2
176
     1
 72
     2
176
     1
 73
     0
176
     1
 90
        0
176
     1
 40
-0.6
176
     1
 41
-30.0
176
     1
 62
     5
 63
     7
421
 16777215
176
     1
 74
     1
176
     1
 91
        4
176
     1
 64
     7
176
     1
 65
   257
176
     1
 75
     1
176
     1
175
     1
176
     1
 42
1.0
176
     1
 92
        8
176
     1
 66
     7
176
     1
 43
1.0
176
     1
 76
     1
176
     1
 77
     6
176
     1
 78
     2
176
     1
 67
     7
176
     1
 79
     5
176
     1
170
     0
176
     1
171
     0
176
     1
290
     0
176
     1
 93
        1
176
     1
 44
0.0
176
     1
173
     0
176
     1
  0
VISUALSTYLE
  5
2B
102
{ACAD_REACTORS
330
2A
102
}
330
2A
100
AcDbVisualStyle
  2
Flat
 70
     0
177
     2
291
     1
 71
     2
176
     1
 72
     1
176
     1
 73
     1
176
     1
 90
        2
176
     1
 40
-0.6
176
     1
 41
30.0
176
     1
 62
     5
 63
     7
421
 16777215
176
     1
 74
     0
176
     1
 91
        4
176
     1
 64
     7
176
     1
 65
   257
176
     1
 75
     1
176
     1
175
     1
176
     1
 42
1.0
176
     1
 92
        8
176
     1
 66
     7
176
     1
 43
1.0
176
     1
 76
     1
176
     1
 77
     6
176
     1
 78
     2
176
     1
 67
     7
176
     1
 79
     5
176
     1
170
     0
176
     1
171
     0
176
     1
290
     0
176
     1
 93
       13
176
     1
 44
0.0
176
     1
173
     0
176
     1
  0
VISUALSTYLE
  5
2C
102
{ACAD_REACTORS
330
2A
102
}
330
2A
100
AcDbVisualStyle
  2
FlatWithEdges
 70
     1
177
     2
291
     1
 71
     2
176
     1
 72
     1
176
     1
 73
     1
176
     1
 90
        2
176
     1
 40
-0.6
176
     1
 41
30.0
176
     1
 62
     5
 63
     7
421
 16777215
176
     1
 74
     1
176
     1
 91
        4
176
     1
 64
     7
176
     1
 65
   257
176
     1
 75
     1
176
     1
175
     1
176
     1
 42
1.0
176
     1
 92
        0
176
     1
 66
   257
176
     1
 43
1.0
176
     1
 76
     1
176
     1
 77
     6
176
     1
 78
     2
176
     1
 67
     7
176
     1
 79
     5
176
     1
170
     0
176
     1
171
     0
176
     1
290
     0
176
     1
 93
       13
176
     1
 44
0.0
176
     1
173
     0
176
     1
  0
VISUALSTYLE
  5
2D
102
{ACAD_REACTORS
330
2A
102
}
330
2A
100
AcDbVisualStyle
  2
Gouraud
 70
     2
177
     2
291
     1
 71
     2
176
     1
 72
     2
176
     1
 73
     1
176
     1
 90
        2
176
     1
 40
-0.6
176
     1
 41
30.0
176
     1
 62
     5
 63
     7
421
 16777215
176
     1
 74
     0
176
     1
 91
        4
176
     1
 64
     7
176
     1
 65
   257
176
     1
 75
     1
176
     1
175
     1
176
     1
 42
1.0
176
     1
 92
        0
176
     1
 66
     7
176
     1
 43
1.0
176
     1
 76
     1
176
     1
 77
     6
176
     1
 78
     2
176
     1
 67
     7
176
     1
 79
     5
176
     1
170
     0
176
     1
171
     0
176
     1
290
     0
176
     1
 93
       13
176
     1
 44
0.0
176
     1
173
     0
176
     1
  0
VISUALSTYLE
  5
2E
102
{ACAD_REACTORS
330
2A
102
}
330
2A
100
AcDbVisualStyle
  2
GouraudWithEdges
 70
     3
177
     2
291
     1
 71
     2
176
     1
 72
     2
176
     1
 73
     1
176
     1
 90
        2
176
     1
 40
-0.6
176
     1
 41
30.0
176
     1
 62
     5
 63
     7
421
 16777215
176
     1
 74
     1
176
     1
 91
        4
176
     1
 64
     7
176
     1
 65
   257
176
     1
 75
     1
176
     1
175
     1
176
     1
 42
1.0
176
     1
 92
        0
176
     1
 66
   257
176
     1
 43
1.0
176
     1
 76
     1
176
     1
 77
     6
176
     1
 78
     2
176
     1
 67
     7
176
     1
 79
     5
176
     1
170
     0
176
     1
171
     0
176
     1
290
     0
176
     1
 93
       13
176
     1
 44
0.0
176
     1
173
     0
176
     1
  0
VISUALSTYLE
  5
38
102
{ACAD_REACTORS
330
2A
102
}
330
2A
100
AcDbVisualStyle
  2
Linepattern
 70
    14
177
     2
291
     1
 71
     2
176
     1
 72
     2
176
     1
 73
     0
176
     1
 90
        0
176
     1
 40
-0.6
176
     1
 41
-30.0
176
     1
 62
     5
 63
     7
421
 16777215
176
     1
 74
     1
176
     1
 91
        4
176
     1
 64
     7
176
     1
 65
   257
176
     1
 75
     7
176
     1
175
     7
176
     1
 42
1.0
176
     1
 92
        8
176
     1
 66
     7
176
     1
 43
1.0
176
     1
 76
     1
176
     1
 77
     6
176
     1
 78
     2
176
     1
 67
     7
176
     1
 79
     5
176
     1
170
     0
176
     1
171
     0
176
     1
290
     0
176
     1
 93
        1
176
     1
 44
0.0
176
     1
173
     0
176
     1
  0
VISUALSTYLE
  5
33
102
{ACAD_REACTORS
330
2A
102
}
330
2A
100
AcDbVisualStyle
  2
Realistic
 70
     8
177
     2
291
     0
 71
     2
176
     1
 72
     2
176
     1
 73
     0
176
     1
 90
        0
176
     1
 40
-0.6
176
     1
 41
-30.0
176
     1
 62
     5
 63
     7
421
 16777215
176
     1
 74
     1
176
     1
 91
        0
176
     1
 64
     7
176
     1
 65
   257
176
     1
 75
     1
176
     1
175
     1
176
     1
 42
1.0
176
     1
 92
        8
176
     1
 66
     8
424
  7895160
176
     1
 43
1.0
176
     1
 76
     1
176
     1
 77
     6
176
     1
 78
     2
176
     1
 67
     7
176
     1
 79
     5
176
     1
170
     0
176
     1
171
     0
176
     1
290
     0
176
     1
 93
       13
176
     1
 44
0.0
176
     1
173
     0
176
     1
  0
VISUALSTYLE
  5
37
102
{ACAD_REACTORS
330
2A
102
}
330
2A
100
AcDbVisualStyle
  2
Thicken
 70
    13
177
     2
291
     1
 71
     2
176
     1
 72
     2
176
     1
 73
     0
176
     1
 90
        0
176
     1
 40
-0.6
176
     1
 41
-30.0
176
     1
 62
     5
 63
     7
421
 16777215
176
     1
 74
     1
176
     1
 91
        4
176
     1
 64
     7
176
     1
 65
   257
176
     1
 75
     1
176
     1
175
     1
176
     1
 42
1.0
176
     1
 92
       12
176
     1
 66
     7
176
     1
 43
1.0
176
     1
 76
     1
176
     1
 77
     6
176
     1
 78
     2
176
     1
 67
     7
176
     1
 79
     5
176
     1
170
     0
176
     1
171
     0
176
     1
290
     0
176
     1
 93
        1
176
     1
 44
0.0
176
     1
173
     0
176
     1
  0
ENDSEC
  0
EOF
