  0
SECTION
  2
HEADER
  9
$ACADVER
  1
AC1024
  9
$ACADMAINTVER
 70
     6
  9
$DWGCODEPAGE
  3
UNDEFINED
  9
$INSBASE
 10
0.0
 20
0.0
 30
0.0
  9
$EXTMIN
 10
1.000000000000000E+20
 20
1.000000000000000E+20
 30
1.000000000000000E+20
  9
$EXTMAX
 10
-1.000000000000000E+20
 20
-1.000000000000000E+20
 30
-1.000000000000000E+20
  9
$LIMMIN
 10
0.0
 20
0.0
  9
$LIMMAX
 10
12.0
 20
9.0
  9
$ORTHOMODE
 70
     0
  9
$REGENMODE
 70
     1
  9
$FILLMODE
 70
     1
  9
$QTEXTMODE
 70
     0
  9
$MIRRTEXT
 70
     1
  9
$LTSCALE
 40
1.0
  9
$ATTMODE
 70
     1
  9
$TEXTSIZE
 40
0.2
  9
$TRACEWID
 40
0.05
  9
$TEXTSTYLE
  7
Standard
  9
$CLAYER
  8
0
  9
$CELTYPE
  6
ByLayer
  9
$CECOLOR
 62
   256
  9
$CELTSCALE
 40
1.0
  9
$DISPSILH
 70
     0
  9
$DIMSCALE
 40
1.0
  9
$DIMASZ
 40
0.18
  9
$DIMEXO
 40
0.0625
  9
$DIMDLI
 40
0.38
  9
$DIMRND
 40
0.0
  9
$DIMDLE
 40
0.0
  9
$DIMEXE
 40
0.18
  9
$DIMTP
 40
0.0
  9
$DIMTM
 40
0.0
  9
$DIMTXT
 40
0.18
  9
$DIMCEN
 40
0.09
  9
$DIMTSZ
 40
0.0
  9
$DIMTOL
 70
     0
  9
$DIMLIM
 70
     0
  9
$DIMTIH
 70
     1
  9
$DIMTOH
 70
     1
  9
$DIMSE1
 70
     0
  9
$DIMSE2
 70
     0
  9
$DIMTAD
 70
     0
  9
$DIMZIN
 70
     0
  9
$DIMBLK
  1

  9
$DIMASO
 70
     1
  9
$DIMSHO
 70
     1
  9
$DIMPOST
  1

  9
$DIMAPOST
  1

  9
$DIMALT
 70
     0
  9
$DIMALTD
 70
     2
  9
$DIMALTF
 40
25.4
  9
$DIMLFAC
 40
1.0
  9
$DIMTOFL
 70
     0
  9
$DIMTVP
 40
0.0
  9
$DIMTIX
 70
     0
  9
$DIMSOXD
 70
     0
  9
$DIMSAH
 70
     0
  9
$DIMBLK1
  1

  9
$DIMBLK2
  1

  9
$DIMSTYLE
  2
Standard
  9
$DIMCLRD
 70
     0
  9
$DIMCLRE
 70
     0
  9
$DIMCLRT
 70
     0
  9
$DIMTFAC
 40
1.0
  9
$DIMGAP
 40
0.09
  9
$DIMJUST
 70
     0
  9
$DIMSD1
 70
     0
  9
$DIMSD2
 70
     0
  9
$DIMTOLJ
 70
     1
  9
$DIMTZIN
 70
     0
  9
$DIMALTZ
 70
     0
  9
$DIMALTTZ
 70
     0
  9
$DIMUPT
 70
     0
  9
$DIMDEC
 70
     4
  9
$DIMTDEC
 70
     4
  9
$DIMALTU
 70
     2
  9
$DIMALTTD
 70
     2
  9
$DIMTXSTY
  7
Standard
  9
$DIMAUNIT
 70
     0
  9
$DIMADEC
 70
     0
  9
$DIMALTRND
 40
0.0
  9
$DIMAZIN
 70
     0
  9
$DIMDSEP
 70
    46
  9
$DIMATFIT
 70
     3
  9
$DIMFRAC
 70
     0
  9
$DIMLDRBLK
  1

  9
$DIMLUNIT
 70
     2
  9
$DIMLWD
 70
    -2
  9
$DIMLWE
 70
    -2
  9
$DIMTMOVE
 70
     0
  9
$DIMFXL
 40
1.0
  9
$DIMFXLON
 70
     0
  9
$DIMJOGANG
 40
0.7853981633974483
  9
$DIMTFILL
 70
     0
  9
$DIMTFILLCLR
 70
     0
  9
$DIMARCSYM
 70
     0
  9
$DIMLTYPE
  6

  9
$DIMLTEX1
  6

  9
$DIMLTEX2
  6

  9
$DIMTXTDIRECTION
 70
     0
  9
$LUNITS
 70
     2
  9
$LUPREC
 70
     4
  9
$SKETCHINC
 40
0.1
  9
$FILLETRAD
 40
0.5
  9
$AUNITS
 70
     0
  9
$AUPREC
 70
     0
  9
$MENU
  1
.
  9
$ELEVATION
 40
0.0
  9
$PELEVATION
 40
0.0
  9
$THICKNESS
 40
0.0
  9
$LIMCHECK
 70
     0
  9
$CHAMFERA
 40
0.5
  9
$CHAMFERB
 40
0.5
  9
$CHAMFERC
 40
1.0
  9
$CHAMFERD
 40
0.0
  9
$SKPOLY
 70
     0
  9
$TDCREATE
 40
2458270.5892361
  9
$TDUCREATE
 40
2458270.214236111
  9
$TDUPDATE
 40
2458270.5892361
  9
$TDUUPDATE
 40
2458270.214236111
  9
$TDINDWG
 40
0.0000000116
  9
$TDUSRTIMER
 40
0.0000000116
  9
$USRTIMER
 70
     1
  9
$ANGBASE
 50
0.0
  9
$ANGDIR
 70
     0
  9
$PDMODE
 70
     0
  9
$PDSIZE
 40
0.0
  9
$PLINEWID
 40
0.0
  9
$SPLFRAME
 70
     0
  9
$SPLINETYPE
 70
     6
  9
$SPLINESEGS
 70
     8
  9
$HANDSEED
  5
A2
  9
$SURFTAB1
 70
     6
  9
$SURFTAB2
 70
     6
  9
$SURFTYPE
 70
     6
  9
$SURFU
 70
     6
  9
$SURFV
 70
     6
  9
$UCSBASE
  2

  9
$UCSNAME
  2

  9
$UCSORG
 10
0.0
 20
0.0
 30
0.0
  9
$UCSXDIR
 10
1.0
 20
0.0
 30
0.0
  9
$UCSYDIR
 10
0.0
 20
1.0
 30
0.0
  9
$UCSORTHOREF
  2

  9
$UCSORTHOVIEW
 70
     0
  9
$UCSORGTOP
 10
0.0
 20
0.0
 30
0.0
  9
$UCSORGBOTTOM
 10
0.0
 20
0.0
 30
0.0
  9
$UCSORGLEFT
 10
0.0
 20
0.0
 30
0.0
  9
$UCSORGRIGHT
 10
0.0
 20
0.0
 30
0.0
  9
$UCSORGFRONT
 10
0.0
 20
0.0
 30
0.0
  9
$UCSORGBACK
 10
0.0
 20
0.0
 30
0.0
  9
$PUCSBASE
  2

  9
$PUCSNAME
  2

  9
$PUCSORG
 10
0.0
 20
0.0
 30
0.0
  9
$PUCSXDIR
 10
1.0
 20
0.0
 30
0.0
  9
$PUCSYDIR
 10
0.0
 20
1.0
 30
0.0
  9
$PUCSORTHOREF
  2

  9
$PUCSORTHOVIEW
 70
     0
  9
$PUCSORGTOP
 10
0.0
 20
0.0
 30
0.0
  9
$PUCSORGBOTTOM
 10
0.0
 20
0.0
 30
0.0
  9
$PUCSORGLEFT
 10
0.0
 20
0.0
 30
0.0
  9
$PUCSORGRIGHT
 10
0.0
 20
0.0
 30
0.0
  9
$PUCSORGFRONT
 10
0.0
 20
0.0
 30
0.0
  9
$PUCSORGBACK
 10
0.0
 20
0.0
 30
0.0
  9
$USERI1
 70
     0
  9
$USERI2
 70
     0
  9
$USERI3
 70
     0
  9
$USERI4
 70
     0
  9
$USERI5
 70
     0
  9
$USERR1
 40
0.0
  9
$USERR2
 40
0.0
  9
$USERR3
 40
0.0
  9
$USERR4
 40
0.0
  9
$USERR5
 40
0.0
  9
$WORLDVIEW
 70
     1
  9
$SHADEDGE
 70
     3
  9
$SHADEDIF
 70
    70
  9
$TILEMODE
 70
     1
  9
$MAXACTVP
 70
    64
  9
$PINSBASE
 10
0.0
 20
0.0
 30
0.0
  9
$PLIMCHECK
 70
     0
  9
$PEXTMIN
 10
1.000000000000000E+20
 20
1.000000000000000E+20
 30
1.000000000000000E+20
  9
$PEXTMAX
 10
-1.000000000000000E+20
 20
-1.000000000000000E+20
 30
-1.000000000000000E+20
  9
$PLIMMIN
 10
0.0
 20
0.0
  9
$PLIMMAX
 10
12.0
 20
9.0
  9
$UNITMODE
 70
     0
  9
$VISRETAIN
 70
     1
  9
$PLINEGEN
 70
     0
  9
$PSLTSCALE
 70
     1
  9
$TREEDEPTH
 70
  3020
  9
$CMLSTYLE
  2
Standard
  9
$CMLJUST
 70
     0
  9
$CMLSCALE
 40
1.0
  9
$PROXYGRAPHICS
 70
     1
  9
$MEASUREMENT
 70
     0
  9
$CELWEIGHT
370
    -1
  9
$ENDCAPS
280
     0
  9
$JOINSTYLE
280
     0
  9
$LWDISPLAY
290
     1
  9
$INSUNITS
 70
     1
  9
$HYPERLINKBASE
  1

  9
$STYLESHEET
  1

  9
$XEDIT
290
     1
  9
$CEPSNTYPE
380
     0
  9
$PSTYLEMODE
290
     1
  9
$FINGERPRINTGUID
  2
{F25E0C79-5FF5-2FA2-C8FB-B94192538724}
  9
$VERSIONGUID
  2
{FAEB1C32-E019-11D5-929B-00C0DF256EC4}
  9
$EXTNAMES
290
     1
  9
$PSVPSCALE
 40
0.0
  9
$OLESTARTUP
290
     0
  9
$SORTENTS
280
   127
  9
$INDEXCTL
280
     0
  9
$HIDETEXT
280
     1
  9
$XCLIPFRAME
280
     2
  9
$HALOGAP
280
     0
  9
$OBSCOLOR
 70
   257
  9
$OBSLTYPE
280
     0
  9
$INTERSECTIONDISPLAY
280
     0
  9
$INTERSECTIONCOLOR
 70
   257
  9
$DIMASSOC
280
     2
  9
$PROJECTNAME
  1

  9
$CAMERADISPLAY
290
     0
  9
$LENSLENGTH
 40
50.0
  9
$CAMERAHEIGHT
 40
0.0
  9
$STEPSPERSEC
 40
2.0
  9
$STEPSIZE
 40
6.0
  9
$3DDWFPREC
 40
2.0
  9
$PSOLWIDTH
 40
0.25
  9
$PSOLHEIGHT
 40
4.0
  9
$LOFTANG1
 40
1.570796326794897
  9
$LOFTANG2
 40
1.570796326794897
  9
$LOFTMAG1
 40
0.0
  9
$LOFTMAG2
 40
0.0
  9
$LOFTPARAM
 70
     7
  9
$LOFTNORMALS
280
     1
  9
$LATITUDE
 40
37.795
  9
$LONGITUDE
 40
-122.394
  9
$NORTHDIRECTION
 40
0.0
  9
$TIMEZONE
 70
 -8000
  9
$LIGHTGLYPHDISPLAY
280
     1
  9
$TILEMODELIGHTSYNCH
280
     1
  9
$CMATERIAL
347
3C
  9
$SOLIDHIST
280
     1
  9
$SHOWHIST
280
     1
  9
$DWFFRAME
280
     2
  9
$DGNFRAME
280
     2
  9
$REALWORLDSCALE
290
     1
  9
$INTERFERECOLOR
 62
   256
  9
$CSHADOW
280
     0
  9
$SHADOWPLANELOCATION
 40
0.0
  0
ENDSEC
  0
SECTION
  2
CLASSES
  0
CLASS
  1
ACDBDICTIONARYWDFLT
  2
AcDbDictionaryWithDefault
  3
ObjectDBX Classes
 90
        0
 91
        4
280
     0
281
     0
  0
CLASS
  1
VISUALSTYLE
  2
AcDbVisualStyle
  3
ObjectDBX Classes
 90
     4095
 91
        4
280
     0
281
     0
  0
CLASS
  1
MATERIAL
  2
AcDbMaterial
  3
ObjectDBX Classes
 90
     1153
 91
        4
280
     0
281
     0
  0
CLASS
  1
SUN
  2
AcDbSun
  3
SCENEOE
 90
     1024
 91
        4
280
     0
281
     0
  0
ENDSEC
  0
SECTION
  2
TABLES
  0
TABLE
  2
VPORT
  5
8
330
0
100
AcDbSymbolTable
 70
     1
  0
VPORT
  5
29
330
8
100
AcDbSymbolTableRecord
100
AcDbViewportTableRecord
  2
*Active
 70
     0
 10
0.0
 20
0.0
 11
1.0
 21
1.0
 12
0.0
 22
0.0
 13
0.0
 23
0.0
 14
0.5
 24
0.5
 15
0.5
 25
0.5
 16
0.0
 26
0.0
 36
1.0
 17
105.0007777515277
 27
-148.5000416295416
 37
0.0
 40
297.0000832590831
 41
0.7070757462376333
 42
50.0
 43
0.0
 44
0.0
 50
0.0
 51
0.0
 71
     0
 72
   100
 73
     1
 74
     3
 75
     0
 76
     0
 77
     0
 78
     0
281
     0
 65
     1
110
0.0
120
0.0
130
0.0
111
1.0
121
0.0
131
0.0
112
0.0
122
1.0
132
0.0
 79
     0
146
0.0
 60
     3
 61
     5
292
     1
282
     1
141
0.0
142
0.0
 63
   250
361
3F
  0
ENDTAB
  0
TABLE
  2
LTYPE
  5
5
330
0
100
AcDbSymbolTable
 70
     1
  0
LTYPE
  5
14
330
5
100
AcDbSymbolTableRecord
100
AcDbLinetypeTableRecord
  2
ByBlock
 70
     0
  3

 72
    65
 73
     0
 40
0.0
  0
LTYPE
  5
15
330
5
100
AcDbSymbolTableRecord
100
AcDbLinetypeTableRecord
  2
ByLayer
 70
     0
  3

 72
    65
 73
     0
 40
0.0
  0
LTYPE
  5
16
330
5
100
AcDbSymbolTableRecord
100
AcDbLinetypeTableRecord
  2
Continuous
 70
     0
  3
Solid line
 72
    65
 73
     0
 40
0.0
  0
ENDTAB
  0
TABLE
  2
LAYER
  5
2
330
0
100
AcDbSymbolTable
 70
     2
  0
LAYER
  5
10
330
2
100
AcDbSymbolTableRecord
100
AcDbLayerTableRecord
  2
0
 70
     0
 62
     7
  6
Continuous
370
    -3
390
F
347
3E
  0
LAYER
  5
40
330
2
100
AcDbSymbolTableRecord
100
AcDbLayerTableRecord
  2
_U+30EC_U+30A4_U+30E4_U+30FC 1
 70
     0
 62
     7
  6
Continuous
370
    -3
390
F
347
3E
  0
ENDTAB
  0
TABLE
  2
STYLE
  5
3
330
0
100
AcDbSymbolTable
 70
     1
  0
STYLE
  5
11
330
3
100
AcDbSymbolTableRecord
100
AcDbTextStyleTableRecord
  2
Standard
 70
     0
 40
0.0
 41
1.0
 50
0.0
 71
     0
 42
0.2
  3
txt
  4

  0
ENDTAB
  0
TABLE
  2
VIEW
  5
6
330
0
100
AcDbSymbolTable
 70
     0
  0
ENDTAB
  0
TABLE
  2
UCS
  5
7
330
0
100
AcDbSymbolTable
 70
     0
  0
ENDTAB
  0
TABLE
  2
APPID
  5
9
330
0
100
AcDbSymbolTable
 70
     1
  0
APPID
  5
12
330
9
100
AcDbSymbolTableRecord
100
AcDbRegAppTableRecord
  2
ACAD
 70
     0
  0
ENDTAB
  0
TABLE
  2
DIMSTYLE
  5
A
330
0
100
AcDbSymbolTable
 70
     1
100
AcDbDimStyleTable
  0
DIMSTYLE
105
27
330
A
100
AcDbSymbolTableRecord
100
AcDbDimStyleTableRecord
  2
Standard
 70
     0
178
     0
340
11
  0
ENDTAB
  0
TABLE
  2
BLOCK_RECORD
  5
1
330
0
100
AcDbSymbolTable
 70
     4
  0
BLOCK_RECORD
  5
1F
330
1
100
AcDbSymbolTableRecord
100
AcDbBlockTableRecord
  2
*Model_Space
340
22
 70
     0
280
     1
281
     0
  0
BLOCK_RECORD
  5
1B
330
1
100
AcDbSymbolTableRecord
100
AcDbBlockTableRecord
  2
*Paper_Space
340
1E
 70
     0
280
     1
281
     0
  0
BLOCK_RECORD
  5
23
330
1
100
AcDbSymbolTableRecord
100
AcDbBlockTableRecord
  2
*Paper_Space0
340
26
 70
     0
280
     1
281
     0
  0
BLOCK_RECORD
  5
57
330
1
100
AcDbSymbolTableRecord
100
AcDbBlockTableRecord
  2
block 2
340
0
102
{BLKREFS
331
58
102
}
 70
     0
280
     1
281
     0
  0
BLOCK_RECORD
  5
68
330
1
100
AcDbSymbolTableRecord
100
AcDbBlockTableRecord
  2
block 3
340
0
102
{BLKREFS
331
69
102
}
 70
     0
280
     1
281
     0
  0
BLOCK_RECORD
  5
90
330
1
100
AcDbSymbolTableRecord
100
AcDbBlockTableRecord
  2
block 4
340
0
102
{BLKREFS
331
91
102
}
 70
     0
280
     1
281
     0
  0
ENDTAB
  0
ENDSEC
  0
SECTION
  2
BLOCKS
  0
BLOCK
  5
20
330
1F
100
AcDbEntity
  8
0
100
AcDbBlockBegin
  2
*Model_Space
 70
     0
 10
0.0
 20
0.0
 30
0.0
  3
*Model_Space
  1

  0
ENDBLK
  5
21
330
1F
100
AcDbEntity
  8
0
100
AcDbBlockEnd
  0
BLOCK
  5
1C
330
1B
100
AcDbEntity
 67
     1
  8
0
100
AcDbBlockBegin
  2
*Paper_Space
 70
     0
 10
0.0
 20
0.0
 30
0.0
  3
*Paper_Space
  1

  0
ENDBLK
  5
1D
330
1B
100
AcDbEntity
 67
     1
  8
0
100
AcDbBlockEnd
  0
BLOCK
  5
24
330
23
100
AcDbEntity
  8
0
100
AcDbBlockBegin
  2
*Paper_Space0
 70
     0
 10
0.0
 20
0.0
 30
0.0
  3
*Paper_Space0
  1

  0
ENDBLK
  5
25
330
23
100
AcDbEntity
  8
0
100
AcDbBlockEnd
  0
BLOCK
  5
59
330
57
100
AcDbEntity
  8
0
100
AcDbBlockBegin
  2
block 2
 70
     0
 10
0.0
 20
0.0
 30
0.0
  3
block 2
  1

  0
SPLINE
  5
5B
330
57
100
AcDbEntity
  8
_U+30EC_U+30A4_U+30E4_U+30FC 1
370
     0
100
AcDbSpline
210
0.0
220
0.0
230
1.0
 70
    11
 71
     3
 72
    26
 73
    22
 74
     0
 42
0.0000000001
 43
0.0000000001
 12
1.0
 22
0.0
 32
0.0
 13
1.0
 23
0.0
 33
0.0
 40
0.0
 40
0.0
 40
0.0
 40
0.0
 40
1.0
 40
1.0
 40
1.0
 40
2.0
 40
2.0
 40
2.0
 40
3.0
 40
3.0
 40
3.0
 40
4.0
 40
4.0
 40
4.0
 40
5.0
 40
5.0
 40
5.0
 40
6.0
 40
6.0
 40
6.0
 40
7.0
 40
7.0
 40
7.0
 40
7.0
 10
103.7245903603536
 20
-164.9294677322052
 30
0.0
 10
103.7245903603536
 20
-164.9294677322052
 30
0.0
 10
103.7245903603536
 20
-164.2552625457417
 30
0.0
 10
103.7245903603536
 20
-164.2552625457417
 30
0.0
 10
103.7245903603536
 20
-164.2552625457417
 30
0.0
 10
103.5230522744665
 20
-164.2552625457417
 30
0.0
 10
103.5230522744665
 20
-164.2552625457417
 30
0.0
 10
103.5230522744665
 20
-164.2552625457417
 30
0.0
 10
103.5230522744665
 20
-164.1646565344797
 30
0.0
 10
103.5230522744665
 20
-164.1646565344797
 30
0.0
 10
103.7259683985477
 20
-164.155699286218
 30
0.0
 10
103.754390436301
 20
-164.0561360266943
 30
0.0
 10
103.7724771875986
 20
-163.9865450978922
 30
0.0
 10
103.7724771875986
 20
-163.9865450978922
 30
0.0
 10
103.8617051606665
 20
-163.9865450978922
 30
0.0
 10
103.8617051606665
 20
-163.9865450978922
 30
0.0
 10
103.8617051606665
 20
-163.9865450978922
 30
0.0
 10
103.8617051606665
 20
-164.9294677322052
 30
0.0
 10
103.8617051606665
 20
-164.9294677322052
 30
0.0
 10
103.8617051606665
 20
-164.9294677322052
 30
0.0
 10
103.7245903603536
 20
-164.9294677322052
 30
0.0
 10
103.7245903603536
 20
-164.9294677322052
 30
0.0
  0
HATCH
  5
5C
330
57
100
AcDbEntity
  8
_U+30EC_U+30A4_U+30E4_U+30FC 1
 62
   179
420
  2234388
100
AcDbHatch
 10
0.0
 20
0.0
 30
0.0
210
0.0
220
0.0
230
1.0
  2
SOLID
 70
     1
 71
     0
 91
        1
 92
        1
 93
        1
 72
     4
 94
        3
 73
     0
 74
     1
 95
       26
 96
       22
 40
0.0
 40
0.0
 40
0.0
 40
0.0
 40
1.0
 40
1.0
 40
1.0
 40
2.0
 40
2.0
 40
2.0
 40
3.0
 40
3.0
 40
3.0
 40
4.0
 40
4.0
 40
4.0
 40
5.0
 40
5.0
 40
5.0
 40
6.0
 40
6.0
 40
6.0
 40
7.0
 40
7.0
 40
7.0
 40
7.0
 10
103.7245903603536
 20
-164.9294677322052
 10
103.7245903603536
 20
-164.9294677322052
 10
103.7245903603536
 20
-164.2552625457417
 10
103.7245903603536
 20
-164.2552625457417
 10
103.7245903603536
 20
-164.2552625457417
 10
103.5230522744665
 20
-164.2552625457417
 10
103.5230522744665
 20
-164.2552625457417
 10
103.5230522744665
 20
-164.2552625457417
 10
103.5230522744665
 20
-164.1646565344797
 10
103.5230522744665
 20
-164.1646565344797
 10
103.7259683985477
 20
-164.155699286218
 10
103.754390436301
 20
-164.0561360266943
 10
103.7724771875986
 20
-163.9865450978922
 10
103.7724771875986
 20
-163.9865450978922
 10
103.8617051606665
 20
-163.9865450978922
 10
103.8617051606665
 20
-163.9865450978922
 10
103.8617051606665
 20
-163.9865450978922
 10
103.8617051606665
 20
-164.9294677322052
 10
103.8617051606665
 20
-164.9294677322052
 10
103.8617051606665
 20
-164.9294677322052
 10
103.7245903603536
 20
-164.9294677322052
 10
103.7245903603536
 20
-164.9294677322052
 97
        0
 97
        0
 75
     2
 76
     1
 98
        0
  0
SPLINE
  5
5D
330
57
100
AcDbEntity
  8
_U+30EC_U+30A4_U+30E4_U+30FC 1
370
     0
100
AcDbSpline
210
0.0
220
0.0
230
1.0
 70
    11
 71
     3
 72
    29
 73
    25
 74
     0
 42
0.0000000001
 43
0.0000000001
 12
1.0
 22
0.0
 32
0.0
 13
1.0
 23
0.0
 33
0.0
 40
0.0
 40
0.0
 40
0.0
 40
0.0
 40
1.0
 40
1.0
 40
1.0
 40
2.0
 40
2.0
 40
2.0
 40
3.0
 40
3.0
 40
3.0
 40
4.0
 40
4.0
 40
4.0
 40
5.0
 40
5.0
 40
5.0
 40
6.0
 40
6.0
 40
6.0
 40
7.0
 40
7.0
 40
7.0
 40
8.0
 40
8.0
 40
8.0
 40
8.0
 10
104.4735541188469
 20
-164.9604735915724
 30
0.0
 10
104.3107733571688
 20
-164.9604735915724
 30
0.0
 10
104.1557440603326
 20
-164.8764132617323
 30
0.0
 10
104.1557440603326
 20
-164.6631618511953
 30
0.0
 10
104.1557440603326
 20
-164.5070990257135
 30
0.0
 10
104.2423882117866
 20
-164.4488769120128
 30
0.0
 10
104.3068114973608
 20
-164.4113253712236
 30
0.0
 10
104.2306748871368
 20
-164.3751518686284
 30
0.0
 10
104.1841660980859
 20
-164.3055609398264
 30
0.0
 10
104.1841660980859
 20
-164.2073757184968
 30
0.0
 10
104.1841660980859
 20
-164.0392550588166
 30
0.0
 10
104.305605713941
 20
-163.9565727671706
 30
0.0
 10
104.4735541188469
 20
-163.9565727671706
 30
0.0
 10
104.6466701669807
 20
-163.9565727671706
 30
0.0
 10
104.7629421396079
 20
-164.0444227020445
 30
0.0
 10
104.7629421396079
 20
-164.2073757184968
 30
0.0
 10
104.7629421396079
 20
-164.3055609398264
 30
0.0
 10
104.7150553123629
 20
-164.3751518686284
 30
0.0
 10
104.6389187021389
 20
-164.4113253712236
 30
0.0
 10
104.6931789560316
 20
-164.4423312305908
 30
0.0
 10
104.7901583939414
 20
-164.5005533442915
 30
0.0
 10
104.7901583939414
 20
-164.6607502843557
 30
0.0
 10
104.7901583939414
 20
-164.8895046245762
 30
0.0
 10
104.6196261674215
 20
-164.9604735915724
 30
0.0
 10
104.4735541188469
 20
-164.9604735915724
 30
0.0
  0
SPLINE
  5
5E
330
57
100
AcDbEntity
  8
_U+30EC_U+30A4_U+30E4_U+30FC 1
370
     0
100
AcDbSpline
210
0.0
220
0.0
230
1.0
 70
    11
 71
     3
 72
    17
 73
    13
 74
     0
 42
0.0000000001
 43
0.0000000001
 12
1.0
 22
0.0
 32
0.0
 13
1.0
 23
0.0
 33
0.0
 40
0.0
 40
0.0
 40
0.0
 40
0.0
 40
1.0
 40
1.0
 40
1.0
 40
2.0
 40
2.0
 40
2.0
 40
3.0
 40
3.0
 40
3.0
 40
4.0
 40
4.0
 40
4.0
 40
4.0
 10
104.4735541188469
 20
-164.4771266949918
 30
0.0
 10
104.385704183973
 20
-164.4771266949918
 30
0.0
 10
104.2926866058713
 20
-164.5301811654647
 30
0.0
 10
104.2926866058713
 20
-164.6542046029337
 30
0.0
 10
104.2926866058713
 20
-164.7796060785968
 30
0.0
 10
104.3702012542894
 20
-164.8416177973313
 30
0.0
 10
104.4735541188469
 20
-164.8416177973313
 30
0.0
 10
104.5872422698601
 20
-164.8416177973313
 30
0.0
 10
104.6544216318225
 20
-164.7665147157528
 30
0.0
 10
104.6544216318225
 20
-164.658338717516
 30
0.0
 10
104.6544216318225
 20
-164.5226019553971
 30
0.0
 10
104.5548583722988
 20
-164.4771266949918
 30
0.0
 10
104.4735541188469
 20
-164.4771266949918
 30
0.0
  0
SPLINE
  5
5F
330
57
100
AcDbEntity
  8
_U+30EC_U+30A4_U+30E4_U+30FC 1
370
     0
100
AcDbSpline
210
0.0
220
0.0
230
1.0
 70
    11
 71
     3
 72
    17
 73
    13
 74
     0
 42
0.0000000001
 43
0.0000000001
 12
1.0
 22
0.0
 32
0.0
 13
1.0
 23
0.0
 33
0.0
 40
0.0
 40
0.0
 40
0.0
 40
0.0
 40
1.0
 40
1.0
 40
1.0
 40
2.0
 40
2.0
 40
2.0
 40
3.0
 40
3.0
 40
3.0
 40
4.0
 40
4.0
 40
4.0
 40
4.0
 10
104.4735541188469
 20
-164.0740505232176
 30
0.0
 10
104.3727850759033
 20
-164.0740505232176
 30
0.0
 10
104.3211086436246
 20
-164.1322726369183
 30
0.0
 10
104.3211086436246
 20
-164.2149549285643
 30
0.0
 10
104.3211086436246
 20
-164.2900580101428
 30
0.0
 10
104.3650336110615
 20
-164.362405015333
 30
0.0
 10
104.4735541188469
 20
-164.362405015333
 30
0.0
 10
104.5820746266323
 20
-164.362405015333
 30
0.0
 10
104.6259995940692
 20
-164.2900580101428
 30
0.0
 10
104.6259995940692
 20
-164.2149549285643
 30
0.0
 10
104.6259995940692
 20
-164.1322726369183
 30
0.0
 10
104.5731173783706
 20
-164.0740505232176
 30
0.0
 10
104.4735541188469
 20
-164.0740505232176
 30
0.0
  0
HATCH
  5
60
330
57
100
AcDbEntity
  8
_U+30EC_U+30A4_U+30E4_U+30FC 1
 62
   179
420
  2234388
100
AcDbHatch
 10
0.0
 20
0.0
 30
0.0
210
0.0
220
0.0
230
1.0
  2
SOLID
 70
     1
 71
     0
 91
        3
 92
        1
 93
        1
 72
     4
 94
        3
 73
     0
 74
     1
 95
       29
 96
       25
 40
0.0
 40
0.0
 40
0.0
 40
0.0
 40
1.0
 40
1.0
 40
1.0
 40
2.0
 40
2.0
 40
2.0
 40
3.0
 40
3.0
 40
3.0
 40
4.0
 40
4.0
 40
4.0
 40
5.0
 40
5.0
 40
5.0
 40
6.0
 40
6.0
 40
6.0
 40
7.0
 40
7.0
 40
7.0
 40
8.0
 40
8.0
 40
8.0
 40
8.0
 10
104.4735541188469
 20
-164.9604735915724
 10
104.3107733571688
 20
-164.9604735915724
 10
104.1557440603326
 20
-164.8764132617323
 10
104.1557440603326
 20
-164.6631618511953
 10
104.1557440603326
 20
-164.5070990257135
 10
104.2423882117866
 20
-164.4488769120128
 10
104.3068114973608
 20
-164.4113253712236
 10
104.2306748871368
 20
-164.3751518686284
 10
104.1841660980859
 20
-164.3055609398264
 10
104.1841660980859
 20
-164.2073757184968
 10
104.1841660980859
 20
-164.0392550588166
 10
104.305605713941
 20
-163.9565727671706
 10
104.4735541188469
 20
-163.9565727671706
 10
104.6466701669807
 20
-163.9565727671706
 10
104.7629421396079
 20
-164.0444227020445
 10
104.7629421396079
 20
-164.2073757184968
 10
104.7629421396079
 20
-164.3055609398264
 10
104.7150553123629
 20
-164.3751518686284
 10
104.6389187021389
 20
-164.4113253712236
 10
104.6931789560316
 20
-164.4423312305908
 10
104.7901583939414
 20
-164.5005533442915
 10
104.7901583939414
 20
-164.6607502843557
 10
104.7901583939414
 20
-164.8895046245762
 10
104.6196261674215
 20
-164.9604735915724
 10
104.4735541188469
 20
-164.9604735915724
 97
        0
 97
        0
 92
        1
 93
        1
 72
     4
 94
        3
 73
     0
 74
     1
 95
       17
 96
       13
 40
0.0
 40
0.0
 40
0.0
 40
0.0
 40
1.0
 40
1.0
 40
1.0
 40
2.0
 40
2.0
 40
2.0
 40
3.0
 40
3.0
 40
3.0
 40
4.0
 40
4.0
 40
4.0
 40
4.0
 10
104.4735541188469
 20
-164.4771266949918
 10
104.385704183973
 20
-164.4771266949918
 10
104.2926866058713
 20
-164.5301811654647
 10
104.2926866058713
 20
-164.6542046029337
 10
104.2926866058713
 20
-164.7796060785968
 10
104.3702012542894
 20
-164.8416177973313
 10
104.4735541188469
 20
-164.8416177973313
 10
104.5872422698601
 20
-164.8416177973313
 10
104.6544216318225
 20
-164.7665147157528
 10
104.6544216318225
 20
-164.658338717516
 10
104.6544216318225
 20
-164.5226019553971
 10
104.5548583722988
 20
-164.4771266949918
 10
104.4735541188469
 20
-164.4771266949918
 97
        0
 97
        0
 92
        1
 93
        1
 72
     4
 94
        3
 73
     0
 74
     1
 95
       17
 96
       13
 40
0.0
 40
0.0
 40
0.0
 40
0.0
 40
1.0
 40
1.0
 40
1.0
 40
2.0
 40
2.0
 40
2.0
 40
3.0
 40
3.0
 40
3.0
 40
4.0
 40
4.0
 40
4.0
 40
4.0
 10
104.4735541188469
 20
-164.0740505232176
 10
104.3727850759033
 20
-164.0740505232176
 10
104.3211086436246
 20
-164.1322726369183
 10
104.3211086436246
 20
-164.2149549285643
 10
104.3211086436246
 20
-164.2900580101428
 10
104.3650336110615
 20
-164.362405015333
 10
104.4735541188469
 20
-164.362405015333
 10
104.5820746266323
 20
-164.362405015333
 10
104.6259995940692
 20
-164.2900580101428
 10
104.6259995940692
 20
-164.2149549285643
 10
104.6259995940692
 20
-164.1322726369183
 10
104.5731173783706
 20
-164.0740505232176
 10
104.4735541188469
 20
-164.0740505232176
 97
        0
 97
        0
 75
     2
 76
     1
 98
        0
  0
SPLINE
  5
61
330
57
100
AcDbEntity
  8
_U+30EC_U+30A4_U+30E4_U+30FC 1
370
     0
100
AcDbSpline
210
0.0
220
0.0
230
1.0
 70
    11
 71
     3
 72
    44
 73
    40
 74
     0
 42
0.0000000001
 43
0.0000000001
 12
1.0
 22
0.0
 32
0.0
 13
1.0
 23
0.0
 33
0.0
 40
0.0
 40
0.0
 40
0.0
 40
0.0
 40
1.0
 40
1.0
 40
1.0
 40
2.0
 40
2.0
 40
2.0
 40
3.0
 40
3.0
 40
3.0
 40
4.0
 40
4.0
 40
4.0
 40
5.0
 40
5.0
 40
5.0
 40
6.0
 40
6.0
 40
6.0
 40
7.0
 40
7.0
 40
7.0
 40
8.0
 40
8.0
 40
8.0
 40
9.0
 40
9.0
 40
9.0
 40
10.0
 40
10.0
 40
10.0
 40
11.0
 40
11.0
 40
11.0
 40
12.0
 40
12.0
 40
12.0
 40
13.0
 40
13.0
 40
13.0
 40
13.0
 10
105.5067382548733
 20
-164.9294677322052
 30
0.0
 10
105.4922688538353
 20
-164.9022514778717
 30
0.0
 10
105.4795220005398
 20
-164.8698675803103
 30
0.0
 10
105.4781439623457
 20
-164.7293076845121
 30
0.0
 10
105.4757323955061
 20
-164.5804795595493
 30
0.0
 10
105.439558892911
 20
-164.5381048850808
 30
0.0
 10
105.3310383851256
 20
-164.5381048850808
 30
0.0
 10
105.3310383851256
 20
-164.5381048850808
 30
0.0
 10
105.0816134719935
 20
-164.5381048850808
 30
0.0
 10
105.0816134719935
 20
-164.5381048850808
 30
0.0
 10
105.0816134719935
 20
-164.5381048850808
 30
0.0
 10
105.0816134719935
 20
-164.9294677322052
 30
0.0
 10
105.0816134719935
 20
-164.9294677322052
 30
0.0
 10
105.0816134719935
 20
-164.9294677322052
 30
0.0
 10
104.9382974998071
 20
-164.9294677322052
 30
0.0
 10
104.9382974998071
 20
-164.9294677322052
 30
0.0
 10
104.9382974998071
 20
-164.9294677322052
 30
0.0
 10
104.9382974998071
 20
-163.9865450978922
 30
0.0
 10
104.9382974998071
 20
-163.9865450978922
 30
0.0
 10
104.9382974998071
 20
-163.9865450978922
 30
0.0
 10
105.350330919843
 20
-163.9865450978922
 30
0.0
 10
105.350330919843
 20
-163.9865450978922
 30
0.0
 10
105.5377441142406
 20
-163.9865450978922
 30
0.0
 10
105.639718940604
 20
-164.0909314910953
 30
0.0
 10
105.639718940604
 20
-164.2473388261257
 30
0.0
 10
105.639718940604
 20
-164.2783446854929
 30
0.0
 10
105.6345512973761
 20
-164.3286430795776
 30
0.0
 10
105.6073350430426
 20
-164.3779079450166
 30
0.0
 10
105.5711615404475
 20
-164.4412977019452
 30
0.0
 10
105.5311984328186
 20
-164.4526665170466
 30
0.0
 10
105.4936468920294
 20
-164.4630018035023
 30
0.0
 10
105.5777072218695
 20
-164.4888400196417
 30
0.0
 10
105.6190483676925
 20
-164.5184678408148
 30
0.0
 10
105.6218044440807
 20
-164.7110486784403
 30
0.0
 10
105.6242160109203
 20
-164.8764132617323
 30
0.0
 10
105.6462646220259
 20
-164.8960503059982
 30
0.0
 10
105.6876057678489
 20
-164.9294677322052
 30
0.0
 10
105.6876057678489
 20
-164.9294677322052
 30
0.0
 10
105.5067382548733
 20
-164.9294677322052
 30
0.0
 10
105.5067382548733
 20
-164.9294677322052
 30
0.0
  0
SPLINE
  5
62
330
57
100
AcDbEntity
  8
_U+30EC_U+30A4_U+30E4_U+30FC 1
370
     0
100
AcDbSpline
210
0.0
220
0.0
230
1.0
 70
    11
 71
     3
 72
    20
 73
    16
 74
     0
 42
0.0000000001
 43
0.0000000001
 12
1.0
 22
0.0
 32
0.0
 13
1.0
 23
0.0
 33
0.0
 40
0.0
 40
0.0
 40
0.0
 40
0.0
 40
1.0
 40
1.0
 40
1.0
 40
2.0
 40
2.0
 40
2.0
 40
3.0
 40
3.0
 40
3.0
 40
4.0
 40
4.0
 40
4.0
 40
5.0
 40
5.0
 40
5.0
 40
5.0
 10
105.3529147414569
 20
-164.1153916690406
 30
0.0
 10
105.3529147414569
 20
-164.1153916690406
 30
0.0
 10
105.0816134719935
 20
-164.1153916690406
 30
0.0
 10
105.0816134719935
 20
-164.1153916690406
 30
0.0
 10
105.0816134719935
 20
-164.1153916690406
 30
0.0
 10
105.0816134719935
 20
-164.4089138043839
 30
0.0
 10
105.0816134719935
 20
-164.4089138043839
 30
0.0
 10
105.0816134719935
 20
-164.4089138043839
 30
0.0
 10
105.3517089580371
 20
-164.4089138043839
 30
0.0
 10
105.3517089580371
 20
-164.4089138043839
 30
0.0
 10
105.4123426385775
 20
-164.4089138043839
 30
0.0
 10
105.4950249302235
 20
-164.362405015333
 30
0.0
 10
105.4950249302235
 20
-164.2576741125814
 30
0.0
 10
105.4950249302235
 20
-164.2097872853365
 30
0.0
 10
105.474354357312
 20
-164.1153916690406
 30
0.0
 10
105.3529147414569
 20
-164.1153916690406
 30
0.0
  0
HATCH
  5
63
330
57
100
AcDbEntity
  8
_U+30EC_U+30A4_U+30E4_U+30FC 1
 62
   179
420
  2234388
100
AcDbHatch
 10
0.0
 20
0.0
 30
0.0
210
0.0
220
0.0
230
1.0
  2
SOLID
 70
     1
 71
     0
 91
        2
 92
        1
 93
        1
 72
     4
 94
        3
 73
     0
 74
     1
 95
       44
 96
       40
 40
0.0
 40
0.0
 40
0.0
 40
0.0
 40
1.0
 40
1.0
 40
1.0
 40
2.0
 40
2.0
 40
2.0
 40
3.0
 40
3.0
 40
3.0
 40
4.0
 40
4.0
 40
4.0
 40
5.0
 40
5.0
 40
5.0
 40
6.0
 40
6.0
 40
6.0
 40
7.0
 40
7.0
 40
7.0
 40
8.0
 40
8.0
 40
8.0
 40
9.0
 40
9.0
 40
9.0
 40
10.0
 40
10.0
 40
10.0
 40
11.0
 40
11.0
 40
11.0
 40
12.0
 40
12.0
 40
12.0
 40
13.0
 40
13.0
 40
13.0
 40
13.0
 10
105.5067382548733
 20
-164.9294677322052
 10
105.4922688538353
 20
-164.9022514778717
 10
105.4795220005398
 20
-164.8698675803103
 10
105.4781439623457
 20
-164.7293076845121
 10
105.4757323955061
 20
-164.5804795595493
 10
105.439558892911
 20
-164.5381048850808
 10
105.3310383851256
 20
-164.5381048850808
 10
105.3310383851256
 20
-164.5381048850808
 10
105.0816134719935
 20
-164.5381048850808
 10
105.0816134719935
 20
-164.5381048850808
 10
105.0816134719935
 20
-164.5381048850808
 10
105.0816134719935
 20
-164.9294677322052
 10
105.0816134719935
 20
-164.9294677322052
 10
105.0816134719935
 20
-164.9294677322052
 10
104.9382974998071
 20
-164.9294677322052
 10
104.9382974998071
 20
-164.9294677322052
 10
104.9382974998071
 20
-164.9294677322052
 10
104.9382974998071
 20
-163.9865450978922
 10
104.9382974998071
 20
-163.9865450978922
 10
104.9382974998071
 20
-163.9865450978922
 10
105.350330919843
 20
-163.9865450978922
 10
105.350330919843
 20
-163.9865450978922
 10
105.5377441142406
 20
-163.9865450978922
 10
105.639718940604
 20
-164.0909314910953
 10
105.639718940604
 20
-164.2473388261257
 10
105.639718940604
 20
-164.2783446854929
 10
105.6345512973761
 20
-164.3286430795776
 10
105.6073350430426
 20
-164.3779079450166
 10
105.5711615404475
 20
-164.4412977019452
 10
105.5311984328186
 20
-164.4526665170466
 10
105.4936468920294
 20
-164.4630018035023
 10
105.5777072218695
 20
-164.4888400196417
 10
105.6190483676925
 20
-164.5184678408148
 10
105.6218044440807
 20
-164.7110486784403
 10
105.6242160109203
 20
-164.8764132617323
 10
105.6462646220259
 20
-164.8960503059982
 10
105.6876057678489
 20
-164.9294677322052
 10
105.6876057678489
 20
-164.9294677322052
 10
105.5067382548733
 20
-164.9294677322052
 10
105.5067382548733
 20
-164.9294677322052
 97
        0
 97
        0
 92
        1
 93
        1
 72
     4
 94
        3
 73
     0
 74
     1
 95
       20
 96
       16
 40
0.0
 40
0.0
 40
0.0
 40
0.0
 40
1.0
 40
1.0
 40
1.0
 40
2.0
 40
2.0
 40
2.0
 40
3.0
 40
3.0
 40
3.0
 40
4.0
 40
4.0
 40
4.0
 40
5.0
 40
5.0
 40
5.0
 40
5.0
 10
105.3529147414569
 20
-164.1153916690406
 10
105.3529147414569
 20
-164.1153916690406
 10
105.0816134719935
 20
-164.1153916690406
 10
105.0816134719935
 20
-164.1153916690406
 10
105.0816134719935
 20
-164.1153916690406
 10
105.0816134719935
 20
-164.4089138043839
 10
105.0816134719935
 20
-164.4089138043839
 10
105.0816134719935
 20
-164.4089138043839
 10
105.3517089580371
 20
-164.4089138043839
 10
105.3517089580371
 20
-164.4089138043839
 10
105.4123426385775
 20
-164.4089138043839
 10
105.4950249302235
 20
-164.362405015333
 10
105.4950249302235
 20
-164.2576741125814
 10
105.4950249302235
 20
-164.2097872853365
 10
105.474354357312
 20
-164.1153916690406
 10
105.3529147414569
 20
-164.1153916690406
 97
        0
 97
        0
 75
     2
 76
     1
 98
        0
  0
ENDBLK
  5
5A
330
57
100
AcDbEntity
  8
0
100
AcDbBlockEnd
  0
BLOCK
  5
6A
330
68
100
AcDbEntity
  8
0
100
AcDbBlockBegin
  2
block 3
 70
     0
 10
0.0
 20
0.0
 30
0.0
  3
block 3
  1

  0
SPLINE
  5
6C
330
68
100
AcDbEntity
  8
_U+30EC_U+30A4_U+30E4_U+30FC 1
370
     0
100
AcDbSpline
210
0.0
220
0.0
230
1.0
 70
    11
 71
     3
 72
    62
 73
    58
 74
     0
 42
0.0000000001
 43
0.0000000001
 12
1.0
 22
0.0
 32
0.0
 13
1.0
 23
0.0
 33
0.0
 40
0.0
 40
0.0
 40
0.0
 40
0.0
 40
1.0
 40
1.0
 40
1.0
 40
2.0
 40
2.0
 40
2.0
 40
3.0
 40
3.0
 40
3.0
 40
4.0
 40
4.0
 40
4.0
 40
5.0
 40
5.0
 40
5.0
 40
6.0
 40
6.0
 40
6.0
 40
7.0
 40
7.0
 40
7.0
 40
8.0
 40
8.0
 40
8.0
 40
9.0
 40
9.0
 40
9.0
 40
10.0
 40
10.0
 40
10.0
 40
11.0
 40
11.0
 40
11.0
 40
12.0
 40
12.0
 40
12.0
 40
13.0
 40
13.0
 40
13.0
 40
14.0
 40
14.0
 40
14.0
 40
15.0
 40
15.0
 40
15.0
 40
16.0
 40
16.0
 40
16.0
 40
17.0
 40
17.0
 40
17.0
 40
18.0
 40
18.0
 40
18.0
 40
19.0
 40
19.0
 40
19.0
 40
19.0
 10
100.5366712530776
 20
-134.9693670995042
 30
0.0
 10
100.4786213941512
 20
-134.9693670995042
 30
0.0
 10
100.3454684536463
 20
-134.9564479914345
 30
0.0
 10
100.269159588648
 20
-134.8427598404213
 30
0.0
 10
100.2240288377912
 20
-134.7742024402648
 30
0.0
 10
100.2214450161773
 20
-134.7135687597244
 30
0.0
 10
100.2188611945633
 20
-134.6618923274457
 30
0.0
 10
100.2188611945633
 20
-134.6618923274457
 30
0.0
 10
100.3532199184881
 20
-134.6618923274457
 30
0.0
 10
100.3532199184881
 20
-134.6618923274457
 30
0.0
 10
100.3545979566822
 20
-134.7070230783024
 30
0.0
 10
100.3609713833299
 20
-134.8505113052631
 30
0.0
 10
100.5340874314637
 20
-134.8505113052631
 30
0.0
 10
100.6181477613038
 20
-134.8505113052631
 30
0.0
 10
100.7111653394055
 20
-134.8079643760202
 30
0.0
 10
100.7111653394055
 20
-134.6684380088676
 30
0.0
 10
100.7111653394055
 20
-134.5972967870972
 30
0.0
 10
100.6877386901058
 20
-134.5674967111498
 30
0.0
 10
100.6684461553885
 20
-134.5482041764324
 30
0.0
 10
100.6233154045317
 20
-134.5030734255756
 30
0.0
 10
100.5521741827613
 20
-134.4951497059596
 30
0.0
 10
100.5185845017801
 20
-134.4951497059596
 30
0.0
 10
100.5068711771302
 20
-134.4951497059596
 30
0.0
 10
100.4849948207989
 20
-134.4965277441536
 30
0.0
 10
100.4682861076954
 20
-134.4991115657676
 30
0.0
 10
100.4682861076954
 20
-134.4991115657676
 30
0.0
 10
100.4682861076954
 20
-134.3802557715265
 30
0.0
 10
100.4682861076954
 20
-134.3802557715265
 30
0.0
 10
100.4913682474466
 20
-134.3842176313345
 30
0.0
 10
100.517206463586
 20
-134.3854234147543
 30
0.0
 10
100.521168323394
 20
-134.3854234147543
 30
0.0
 10
100.5613036857972
 20
-134.3854234147543
 30
0.0
 10
100.682571046878
 20
-134.3725043066846
 30
0.0
 10
100.682571046878
 20
-134.2278102963042
 30
0.0
 10
100.682571046878
 20
-134.1192897885188
 30
0.0
 10
100.6026448316202
 20
-134.0857001075376
 30
0.0
 10
100.5354654696578
 20
-134.0857001075376
 30
0.0
 10
100.3738904913996
 20
-134.0857001075376
 30
0.0
 10
100.3687228481717
 20
-134.2278102963042
 30
0.0
 10
100.3661390265578
 20
-134.2717352637411
 30
0.0
 10
100.3661390265578
 20
-134.2717352637411
 30
0.0
 10
100.2421155890888
 20
-134.2717352637411
 30
0.0
 10
100.2421155890888
 20
-134.2717352637411
 30
0.0
 10
100.2472832323167
 20
-134.1954263987428
 30
0.0
 10
100.2639919454201
 20
-133.9656385298767
 30
0.0
 10
100.5430446797254
 20
-133.9656385298767
 30
0.0
 10
100.6801594800383
 20
-133.9656385298767
 30
0.0
 10
100.8272650572585
 20
-134.0431531782948
 30
0.0
 10
100.8272650572585
 20
-134.2240206912704
 30
0.0
 10
100.8272650572585
 20
-134.3377088422836
 30
0.0
 10
100.769215198332
 20
-134.3880072363683
 30
0.0
 10
100.7084092630173
 20
-134.4255587771575
 30
0.0
 10
100.7459608038066
 20
-134.442267490261
 30
0.0
 10
100.8570651332059
 20
-134.4913601009258
 30
0.0
 10
100.8570651332059
 20
-134.6605142892516
 30
0.0
 10
100.8570651332059
 20
-134.8672200183665
 30
0.0
 10
100.7059976961777
 20
-134.9693670995042
 30
0.0
 10
100.5366712530776
 20
-134.9693670995042
 30
0.0
  0
HATCH
  5
6D
330
68
100
AcDbEntity
  8
_U+30EC_U+30A4_U+30E4_U+30FC 1
 62
   179
420
  2234388
100
AcDbHatch
 10
0.0
 20
0.0
 30
0.0
210
0.0
220
0.0
230
1.0
  2
SOLID
 70
     1
 71
     0
 91
        1
 92
        1
 93
        1
 72
     4
 94
        3
 73
     0
 74
     1
 95
       62
 96
       58
 40
0.0
 40
0.0
 40
0.0
 40
0.0
 40
1.0
 40
1.0
 40
1.0
 40
2.0
 40
2.0
 40
2.0
 40
3.0
 40
3.0
 40
3.0
 40
4.0
 40
4.0
 40
4.0
 40
5.0
 40
5.0
 40
5.0
 40
6.0
 40
6.0
 40
6.0
 40
7.0
 40
7.0
 40
7.0
 40
8.0
 40
8.0
 40
8.0
 40
9.0
 40
9.0
 40
9.0
 40
10.0
 40
10.0
 40
10.0
 40
11.0
 40
11.0
 40
11.0
 40
12.0
 40
12.0
 40
12.0
 40
13.0
 40
13.0
 40
13.0
 40
14.0
 40
14.0
 40
14.0
 40
15.0
 40
15.0
 40
15.0
 40
16.0
 40
16.0
 40
16.0
 40
17.0
 40
17.0
 40
17.0
 40
18.0
 40
18.0
 40
18.0
 40
19.0
 40
19.0
 40
19.0
 40
19.0
 10
100.5366712530776
 20
-134.9693670995042
 10
100.4786213941512
 20
-134.9693670995042
 10
100.3454684536463
 20
-134.9564479914345
 10
100.269159588648
 20
-134.8427598404213
 10
100.2240288377912
 20
-134.7742024402648
 10
100.2214450161773
 20
-134.7135687597244
 10
100.2188611945633
 20
-134.6618923274457
 10
100.2188611945633
 20
-134.6618923274457
 10
100.3532199184881
 20
-134.6618923274457
 10
100.3532199184881
 20
-134.6618923274457
 10
100.3545979566822
 20
-134.7070230783024
 10
100.3609713833299
 20
-134.8505113052631
 10
100.5340874314637
 20
-134.8505113052631
 10
100.6181477613038
 20
-134.8505113052631
 10
100.7111653394055
 20
-134.8079643760202
 10
100.7111653394055
 20
-134.6684380088676
 10
100.7111653394055
 20
-134.5972967870972
 10
100.6877386901058
 20
-134.5674967111498
 10
100.6684461553885
 20
-134.5482041764324
 10
100.6233154045317
 20
-134.5030734255756
 10
100.5521741827613
 20
-134.4951497059596
 10
100.5185845017801
 20
-134.4951497059596
 10
100.5068711771302
 20
-134.4951497059596
 10
100.4849948207989
 20
-134.4965277441536
 10
100.4682861076954
 20
-134.4991115657676
 10
100.4682861076954
 20
-134.4991115657676
 10
100.4682861076954
 20
-134.3802557715265
 10
100.4682861076954
 20
-134.3802557715265
 10
100.4913682474466
 20
-134.3842176313345
 10
100.517206463586
 20
-134.3854234147543
 10
100.521168323394
 20
-134.3854234147543
 10
100.5613036857972
 20
-134.3854234147543
 10
100.682571046878
 20
-134.3725043066846
 10
100.682571046878
 20
-134.2278102963042
 10
100.682571046878
 20
-134.1192897885188
 10
100.6026448316202
 20
-134.0857001075376
 10
100.5354654696578
 20
-134.0857001075376
 10
100.3738904913996
 20
-134.0857001075376
 10
100.3687228481717
 20
-134.2278102963042
 10
100.3661390265578
 20
-134.2717352637411
 10
100.3661390265578
 20
-134.2717352637411
 10
100.2421155890888
 20
-134.2717352637411
 10
100.2421155890888
 20
-134.2717352637411
 10
100.2472832323167
 20
-134.1954263987428
 10
100.2639919454201
 20
-133.9656385298767
 10
100.5430446797254
 20
-133.9656385298767
 10
100.6801594800383
 20
-133.9656385298767
 10
100.8272650572585
 20
-134.0431531782948
 10
100.8272650572585
 20
-134.2240206912704
 10
100.8272650572585
 20
-134.3377088422836
 10
100.769215198332
 20
-134.3880072363683
 10
100.7084092630173
 20
-134.4255587771575
 10
100.7459608038066
 20
-134.442267490261
 10
100.8570651332059
 20
-134.4913601009258
 10
100.8570651332059
 20
-134.6605142892516
 10
100.8570651332059
 20
-134.8672200183665
 10
100.7059976961777
 20
-134.9693670995042
 10
100.5366712530776
 20
-134.9693670995042
 97
        0
 97
        0
 75
     2
 76
     1
 98
        0
  0
POLYLINE
  5
6E
330
68
100
AcDbEntity
  8
_U+30EC_U+30A4_U+30E4_U+30FC 1
370
     0
100
AcDb2dPolyline
 66
     1
 10
0.0
 20
0.0
 30
0.0
  0
VERTEX
  5
6F
330
6E
100
AcDbEntity
  8
_U+30EC_U+30A4_U+30E4_U+30FC 1
370
     0
100
AcDbVertex
100
AcDb2dVertex
 10
100.9922851310019
 20
-134.9383612401369
 30
0.0
  0
VERTEX
  5
70
330
6E
100
AcDbEntity
  8
_U+30EC_U+30A4_U+30E4_U+30FC 1
370
     0
100
AcDbVertex
100
AcDb2dVertex
 10
100.9922851310019
 20
-134.7845377267205
 30
0.0
  0
VERTEX
  5
71
330
6E
100
AcDbEntity
  8
_U+30EC_U+30A4_U+30E4_U+30FC 1
370
     0
100
AcDbVertex
100
AcDb2dVertex
 10
101.1459363896441
 20
-134.7845377267205
 30
0.0
  0
VERTEX
  5
72
330
6E
100
AcDbEntity
  8
_U+30EC_U+30A4_U+30E4_U+30FC 1
370
     0
100
AcDbVertex
100
AcDb2dVertex
 10
101.1459363896441
 20
-134.9383612401369
 30
0.0
  0
VERTEX
  5
73
330
6E
100
AcDbEntity
  8
_U+30EC_U+30A4_U+30E4_U+30FC 1
370
     0
100
AcDbVertex
100
AcDb2dVertex
 10
100.9922851310019
 20
-134.9383612401369
 30
0.0
  0
SEQEND
  5
74
330
6E
100
AcDbEntity
  8
_U+30EC_U+30A4_U+30E4_U+30FC 1
370
     0
  0
HATCH
  5
75
330
68
100
AcDbEntity
  8
_U+30EC_U+30A4_U+30E4_U+30FC 1
 62
   179
420
  2234388
100
AcDbHatch
 10
0.0
 20
0.0
 30
0.0
210
0.0
220
0.0
230
1.0
  2
SOLID
 70
     1
 71
     0
 91
        1
 92
        1
 93
        4
 72
     1
 10
100.9922851310019
 20
-134.9383612401369
 11
100.9922851310019
 21
-134.7845377267205
 72
     1
 10
100.9922851310019
 20
-134.7845377267205
 11
101.1459363896441
 21
-134.7845377267205
 72
     1
 10
101.1459363896441
 20
-134.7845377267205
 11
101.1459363896441
 21
-134.9383612401369
 72
     1
 10
101.1459363896441
 20
-134.9383612401369
 11
100.9922851310019
 21
-134.9383612401369
 97
        0
 75
     2
 76
     1
 98
        0
  0
SPLINE
  5
76
330
68
100
AcDbEntity
  8
_U+30EC_U+30A4_U+30E4_U+30FC 1
370
     0
100
AcDbSpline
210
0.0
220
0.0
230
1.0
 70
    11
 71
     3
 72
    53
 73
    49
 74
     0
 42
0.0000000001
 43
0.0000000001
 12
1.0
 22
0.0
 32
0.0
 13
1.0
 23
0.0
 33
0.0
 40
0.0
 40
0.0
 40
0.0
 40
0.0
 40
1.0
 40
1.0
 40
1.0
 40
2.0
 40
2.0
 40
2.0
 40
3.0
 40
3.0
 40
3.0
 40
4.0
 40
4.0
 40
4.0
 40
5.0
 40
5.0
 40
5.0
 40
6.0
 40
6.0
 40
6.0
 40
7.0
 40
7.0
 40
7.0
 40
8.0
 40
8.0
 40
8.0
 40
9.0
 40
9.0
 40
9.0
 40
10.0
 40
10.0
 40
10.0
 40
11.0
 40
11.0
 40
11.0
 40
12.0
 40
12.0
 40
12.0
 40
13.0
 40
13.0
 40
13.0
 40
14.0
 40
14.0
 40
14.0
 40
15.0
 40
15.0
 40
15.0
 40
16.0
 40
16.0
 40
16.0
 40
16.0
 10
101.5844970449164
 20
-134.9693670995042
 30
0.0
 10
101.5366102176714
 20
-134.9693670995042
 30
0.0
 10
101.4745984989369
 20
-134.9590318130485
 30
0.0
 10
101.4125867802024
 20
-134.9202744888394
 30
0.0
 10
101.306650094031
 20
-134.853095126877
 30
0.0
 10
101.2937309859613
 20
-134.772996656845
 30
0.0
 10
101.2820176613114
 20
-134.7070230783024
 30
0.0
 10
101.2820176613114
 20
-134.7070230783024
 30
0.0
 10
101.4177544234303
 20
-134.7070230783024
 30
0.0
 10
101.4177544234303
 20
-134.7070230783024
 30
0.0
 10
101.4513441044115
 20
-134.8286349489318
 30
0.0
 10
101.5288587528296
 20
-134.846549445455
 30
0.0
 10
101.5857028283362
 20
-134.846549445455
 30
0.0
 10
101.6709689415962
 20
-134.846549445455
 30
0.0
 10
101.7639865196979
 20
-134.7859157649146
 30
0.0
 10
101.7639865196979
 20
-134.6438055761481
 30
0.0
 10
101.7639865196979
 20
-134.487570495892
 30
0.0
 10
101.6540879737184
 20
-134.4448513118749
 30
0.0
 10
101.5805351851083
 20
-134.4448513118749
 30
0.0
 10
101.5610703956167
 20
-134.4448513118749
 30
0.0
 10
101.4745984989369
 20
-134.4448513118749
 30
0.0
 10
101.4203382450442
 20
-134.5237439984871
 30
0.0
 10
101.4203382450442
 20
-134.5237439984871
 30
0.0
 10
101.3130235206787
 20
-134.5120306738373
 30
0.0
 10
101.3130235206787
 20
-134.5120306738373
 30
0.0
 10
101.3130235206787
 20
-134.5120306738373
 30
0.0
 10
101.386748564063
 20
-133.9952663510498
 30
0.0
 10
101.386748564063
 20
-133.9952663510498
 30
0.0
 10
101.386748564063
 20
-133.9952663510498
 30
0.0
 10
101.8621717410275
 20
-133.9952663510498
 30
0.0
 10
101.8621717410275
 20
-133.9952663510498
 30
0.0
 10
101.8621717410275
 20
-133.9952663510498
 30
0.0
 10
101.8621717410275
 20
-134.1141221452909
 30
0.0
 10
101.8621717410275
 20
-134.1141221452909
 30
0.0
 10
101.8621717410275
 20
-134.1141221452909
 30
0.0
 10
101.4863118235868
 20
-134.1141221452909
 30
0.0
 10
101.4863118235868
 20
-134.1141221452909
 30
0.0
 10
101.4863118235868
 20
-134.1141221452909
 30
0.0
 10
101.4461764611836
 20
-134.3725043066846
 30
0.0
 10
101.4461764611836
 20
-134.3725043066846
 30
0.0
 10
101.4835557471986
 20
-134.3518337337732
 30
0.0
 10
101.5340263960575
 20
-134.3273735558279
 30
0.0
 10
101.6063734012477
 20
-134.3273735558279
 30
0.0
 10
101.761402698084
 20
-134.3273735558279
 30
0.0
 10
101.9060967084644
 20
-134.4410617068411
 30
0.0
 10
101.9060967084644
 20
-134.6322645062725
 30
0.0
 10
101.9060967084644
 20
-134.8258788725435
 30
0.0
 10
101.7691541629258
 20
-134.9693670995042
 30
0.0
 10
101.5844970449164
 20
-134.9693670995042
 30
0.0
  0
HATCH
  5
77
330
68
100
AcDbEntity
  8
_U+30EC_U+30A4_U+30E4_U+30FC 1
 62
   179
420
  2234388
100
AcDbHatch
 10
0.0
 20
0.0
 30
0.0
210
0.0
220
0.0
230
1.0
  2
SOLID
 70
     1
 71
     0
 91
        1
 92
        1
 93
        1
 72
     4
 94
        3
 73
     0
 74
     1
 95
       53
 96
       49
 40
0.0
 40
0.0
 40
0.0
 40
0.0
 40
1.0
 40
1.0
 40
1.0
 40
2.0
 40
2.0
 40
2.0
 40
3.0
 40
3.0
 40
3.0
 40
4.0
 40
4.0
 40
4.0
 40
5.0
 40
5.0
 40
5.0
 40
6.0
 40
6.0
 40
6.0
 40
7.0
 40
7.0
 40
7.0
 40
8.0
 40
8.0
 40
8.0
 40
9.0
 40
9.0
 40
9.0
 40
10.0
 40
10.0
 40
10.0
 40
11.0
 40
11.0
 40
11.0
 40
12.0
 40
12.0
 40
12.0
 40
13.0
 40
13.0
 40
13.0
 40
14.0
 40
14.0
 40
14.0
 40
15.0
 40
15.0
 40
15.0
 40
16.0
 40
16.0
 40
16.0
 40
16.0
 10
101.5844970449164
 20
-134.9693670995042
 10
101.5366102176714
 20
-134.9693670995042
 10
101.4745984989369
 20
-134.9590318130485
 10
101.4125867802024
 20
-134.9202744888394
 10
101.306650094031
 20
-134.853095126877
 10
101.2937309859613
 20
-134.772996656845
 10
101.2820176613114
 20
-134.7070230783024
 10
101.2820176613114
 20
-134.7070230783024
 10
101.4177544234303
 20
-134.7070230783024
 10
101.4177544234303
 20
-134.7070230783024
 10
101.4513441044115
 20
-134.8286349489318
 10
101.5288587528296
 20
-134.846549445455
 10
101.5857028283362
 20
-134.846549445455
 10
101.6709689415962
 20
-134.846549445455
 10
101.7639865196979
 20
-134.7859157649146
 10
101.7639865196979
 20
-134.6438055761481
 10
101.7639865196979
 20
-134.487570495892
 10
101.6540879737184
 20
-134.4448513118749
 10
101.5805351851083
 20
-134.4448513118749
 10
101.5610703956167
 20
-134.4448513118749
 10
101.4745984989369
 20
-134.4448513118749
 10
101.4203382450442
 20
-134.5237439984871
 10
101.4203382450442
 20
-134.5237439984871
 10
101.3130235206787
 20
-134.5120306738373
 10
101.3130235206787
 20
-134.5120306738373
 10
101.3130235206787
 20
-134.5120306738373
 10
101.386748564063
 20
-133.9952663510498
 10
101.386748564063
 20
-133.9952663510498
 10
101.386748564063
 20
-133.9952663510498
 10
101.8621717410275
 20
-133.9952663510498
 10
101.8621717410275
 20
-133.9952663510498
 10
101.8621717410275
 20
-133.9952663510498
 10
101.8621717410275
 20
-134.1141221452909
 10
101.8621717410275
 20
-134.1141221452909
 10
101.8621717410275
 20
-134.1141221452909
 10
101.4863118235868
 20
-134.1141221452909
 10
101.4863118235868
 20
-134.1141221452909
 10
101.4863118235868
 20
-134.1141221452909
 10
101.4461764611836
 20
-134.3725043066846
 10
101.4461764611836
 20
-134.3725043066846
 10
101.4835557471986
 20
-134.3518337337732
 10
101.5340263960575
 20
-134.3273735558279
 10
101.6063734012477
 20
-134.3273735558279
 10
101.761402698084
 20
-134.3273735558279
 10
101.9060967084644
 20
-134.4410617068411
 10
101.9060967084644
 20
-134.6322645062725
 10
101.9060967084644
 20
-134.8258788725435
 10
101.7691541629258
 20
-134.9693670995042
 10
101.5844970449164
 20
-134.9693670995042
 97
        0
 97
        0
 75
     2
 76
     1
 98
        0
  0
ENDBLK
  5
6B
330
68
100
AcDbEntity
  8
0
100
AcDbBlockEnd
  0
BLOCK
  5
92
330
90
100
AcDbEntity
  8
0
100
AcDbBlockBegin
  2
block 4
 70
     0
 10
0.0
 20
0.0
 30
0.0
  3
block 4
  1

  0
SPLINE
  5
94
330
90
100
AcDbEntity
  8
_U+30EC_U+30A4_U+30E4_U+30FC 1
370
     0
100
AcDbSpline
210
0.0
220
0.0
230
1.0
 70
    11
 71
     3
 72
    26
 73
    22
 74
     0
 42
0.0000000001
 43
0.0000000001
 12
1.0
 22
0.0
 32
0.0
 13
1.0
 23
0.0
 33
0.0
 40
0.0
 40
0.0
 40
0.0
 40
0.0
 40
1.0
 40
1.0
 40
1.0
 40
2.0
 40
2.0
 40
2.0
 40
3.0
 40
3.0
 40
3.0
 40
4.0
 40
4.0
 40
4.0
 40
5.0
 40
5.0
 40
5.0
 40
6.0
 40
6.0
 40
6.0
 40
7.0
 40
7.0
 40
7.0
 40
7.0
 10
106.4221001253042
 20
-153.4252603783104
 30
0.0
 10
106.4221001253042
 20
-153.4252603783104
 30
0.0
 10
105.7478949388408
 20
-153.4252603783104
 30
0.0
 10
105.7478949388408
 20
-153.4252603783104
 30
0.0
 10
105.7478949388408
 20
-153.4252603783104
 30
0.0
 10
105.7478949388408
 20
-153.6267984641975
 30
0.0
 10
105.7478949388408
 20
-153.6267984641975
 30
0.0
 10
105.7478949388408
 20
-153.6267984641975
 30
0.0
 10
105.6572889275787
 20
-153.6267984641975
 30
0.0
 10
105.6572889275787
 20
-153.6267984641975
 30
0.0
 10
105.6483316793171
 20
-153.4238823401163
 30
0.0
 10
105.5487684197934
 20
-153.3956325571372
 30
0.0
 10
105.4790052362171
 20
-153.3773735510654
 30
0.0
 10
105.4790052362171
 20
-153.3773735510654
 30
0.0
 10
105.4790052362171
 20
-153.2881455779974
 30
0.0
 10
105.4790052362171
 20
-153.2881455779974
 30
0.0
 10
105.4790052362171
 20
-153.2881455779974
 30
0.0
 10
106.4221001253042
 20
-153.2881455779974
 30
0.0
 10
106.4221001253042
 20
-153.2881455779974
 30
0.0
 10
106.4221001253042
 20
-153.2881455779974
 30
0.0
 10
106.4221001253042
 20
-153.4252603783104
 30
0.0
 10
106.4221001253042
 20
-153.4252603783104
 30
0.0
  0
HATCH
  5
95
330
90
100
AcDbEntity
  8
_U+30EC_U+30A4_U+30E4_U+30FC 1
 62
   179
420
  2234388
100
AcDbHatch
 10
0.0
 20
0.0
 30
0.0
210
0.0
220
0.0
230
1.0
  2
SOLID
 70
     1
 71
     0
 91
        1
 92
        1
 93
        1
 72
     4
 94
        3
 73
     0
 74
     1
 95
       26
 96
       22
 40
0.0
 40
0.0
 40
0.0
 40
0.0
 40
1.0
 40
1.0
 40
1.0
 40
2.0
 40
2.0
 40
2.0
 40
3.0
 40
3.0
 40
3.0
 40
4.0
 40
4.0
 40
4.0
 40
5.0
 40
5.0
 40
5.0
 40
6.0
 40
6.0
 40
6.0
 40
7.0
 40
7.0
 40
7.0
 40
7.0
 10
106.4221001253042
 20
-153.4252603783104
 10
106.4221001253042
 20
-153.4252603783104
 10
105.7478949388408
 20
-153.4252603783104
 10
105.7478949388408
 20
-153.4252603783104
 10
105.7478949388408
 20
-153.4252603783104
 10
105.7478949388408
 20
-153.6267984641975
 10
105.7478949388408
 20
-153.6267984641975
 10
105.7478949388408
 20
-153.6267984641975
 10
105.6572889275787
 20
-153.6267984641975
 10
105.6572889275787
 20
-153.6267984641975
 10
105.6483316793171
 20
-153.4238823401163
 10
105.5487684197934
 20
-153.3956325571372
 10
105.4790052362171
 20
-153.3773735510654
 10
105.4790052362171
 20
-153.3773735510654
 10
105.4790052362171
 20
-153.2881455779974
 10
105.4790052362171
 20
-153.2881455779974
 10
105.4790052362171
 20
-153.2881455779974
 10
106.4221001253042
 20
-153.2881455779974
 10
106.4221001253042
 20
-153.2881455779974
 10
106.4221001253042
 20
-153.2881455779974
 10
106.4221001253042
 20
-153.4252603783104
 10
106.4221001253042
 20
-153.4252603783104
 97
        0
 97
        0
 75
     2
 76
     1
 98
        0
  0
SPLINE
  5
96
330
90
100
AcDbEntity
  8
_U+30EC_U+30A4_U+30E4_U+30FC 1
370
     0
100
AcDbSpline
210
0.0
220
0.0
230
1.0
 70
    11
 71
     3
 72
    29
 73
    25
 74
     0
 42
0.0000000001
 43
0.0000000001
 12
1.0
 22
0.0
 32
0.0
 13
1.0
 23
0.0
 33
0.0
 40
0.0
 40
0.0
 40
0.0
 40
0.0
 40
1.0
 40
1.0
 40
1.0
 40
2.0
 40
2.0
 40
2.0
 40
3.0
 40
3.0
 40
3.0
 40
4.0
 40
4.0
 40
4.0
 40
5.0
 40
5.0
 40
5.0
 40
6.0
 40
6.0
 40
6.0
 40
7.0
 40
7.0
 40
7.0
 40
8.0
 40
8.0
 40
8.0
 40
8.0
 10
106.3135796175188
 20
-152.4337618976554
 30
0.0
 10
106.4413926600216
 20
-152.4995632214237
 30
0.0
 10
106.4531059846715
 20
-152.6053276528209
 30
0.0
 10
106.4531059846715
 20
-152.676296619817
 30
0.0
 10
106.4531059846715
 20
-152.7748263506952
 30
0.0
 10
106.4245116921439
 20
-152.8612982473749
 30
0.0
 10
106.3135796175188
 20
-152.9195203610757
 30
0.0
 10
106.1947238232777
 20
-152.9825656084558
 30
0.0
 10
106.0500298128972
 20
-152.9942789331056
 30
0.0
 10
105.9504665533735
 20
-152.9942789331056
 30
0.0
 10
105.8626166184996
 20
-152.9942789331056
 30
0.0
 10
105.7089653598575
 20
-152.9839436466499
 30
0.0
 10
105.5873534892282
 20
-152.9195203610757
 30
0.0
 10
105.4635023065334
 20
-152.8533745277589
 30
0.0
 10
105.4492051602696
 20
-152.7551893064293
 30
0.0
 10
105.4492051602696
 20
-152.676296619817
 30
0.0
 10
105.4492051602696
 20
-152.5794894366815
 30
0.0
 10
105.4764214146031
 20
-152.4916395018076
 30
0.0
 10
105.5873534892282
 20
-152.4337618976554
 30
0.0
 10
105.7051757548237
 20
-152.3727837075665
 30
0.0
 10
105.8447021219763
 20
-152.358658816077
 30
0.0
 10
105.9504665533735
 20
-152.358658816077
 30
0.0
 10
106.0551974561251
 20
-152.358658816077
 30
0.0
 10
106.1961018614718
 20
-152.371750178921
 30
0.0
 10
106.3135796175188
 20
-152.4337618976554
 30
0.0
  0
SPLINE
  5
97
330
90
100
AcDbEntity
  8
_U+30EC_U+30A4_U+30E4_U+30FC 1
370
     0
100
AcDbSpline
210
0.0
220
0.0
230
1.0
 70
    11
 71
     3
 72
    17
 73
    13
 74
     0
 42
0.0000000001
 43
0.0000000001
 12
1.0
 22
0.0
 32
0.0
 13
1.0
 23
0.0
 33
0.0
 40
0.0
 40
0.0
 40
0.0
 40
0.0
 40
1.0
 40
1.0
 40
1.0
 40
2.0
 40
2.0
 40
2.0
 40
3.0
 40
3.0
 40
3.0
 40
4.0
 40
4.0
 40
4.0
 40
4.0
 10
105.5666829163167
 20
-152.676296619817
 30
0.0
 10
105.5666829163167
 20
-152.8289143498136
 30
0.0
 10
105.7399712192247
 20
-152.8575086423412
 30
0.0
 10
105.9504665533735
 20
-152.8575086423412
 30
0.0
 10
106.1454589578386
 20
-152.8575086423412
 30
0.0
 10
106.3342501904303
 20
-152.8354600312356
 30
0.0
 10
106.3342501904303
 20
-152.676296619817
 30
0.0
 10
106.3342501904303
 20
-152.5254014375631
 30
0.0
 10
106.1623399257164
 20
-152.49577361639
 30
0.0
 10
105.9504665533735
 20
-152.49577361639
 30
0.0
 10
105.7554741489084
 20
-152.49577361639
 30
0.0
 10
105.5666829163167
 20
-152.5188557561411
 30
0.0
 10
105.5666829163167
 20
-152.676296619817
 30
0.0
  0
HATCH
  5
98
330
90
100
AcDbEntity
  8
_U+30EC_U+30A4_U+30E4_U+30FC 1
 62
   179
420
  2234388
100
AcDbHatch
 10
0.0
 20
0.0
 30
0.0
210
0.0
220
0.0
230
1.0
  2
SOLID
 70
     1
 71
     0
 91
        2
 92
        1
 93
        1
 72
     4
 94
        3
 73
     0
 74
     1
 95
       29
 96
       25
 40
0.0
 40
0.0
 40
0.0
 40
0.0
 40
1.0
 40
1.0
 40
1.0
 40
2.0
 40
2.0
 40
2.0
 40
3.0
 40
3.0
 40
3.0
 40
4.0
 40
4.0
 40
4.0
 40
5.0
 40
5.0
 40
5.0
 40
6.0
 40
6.0
 40
6.0
 40
7.0
 40
7.0
 40
7.0
 40
8.0
 40
8.0
 40
8.0
 40
8.0
 10
106.3135796175188
 20
-152.4337618976554
 10
106.4413926600216
 20
-152.4995632214237
 10
106.4531059846715
 20
-152.6053276528209
 10
106.4531059846715
 20
-152.676296619817
 10
106.4531059846715
 20
-152.7748263506952
 10
106.4245116921439
 20
-152.8612982473749
 10
106.3135796175188
 20
-152.9195203610757
 10
106.1947238232777
 20
-152.9825656084558
 10
106.0500298128972
 20
-152.9942789331056
 10
105.9504665533735
 20
-152.9942789331056
 10
105.8626166184996
 20
-152.9942789331056
 10
105.7089653598575
 20
-152.9839436466499
 10
105.5873534892282
 20
-152.9195203610757
 10
105.4635023065334
 20
-152.8533745277589
 10
105.4492051602696
 20
-152.7551893064293
 10
105.4492051602696
 20
-152.676296619817
 10
105.4492051602696
 20
-152.5794894366815
 10
105.4764214146031
 20
-152.4916395018076
 10
105.5873534892282
 20
-152.4337618976554
 10
105.7051757548237
 20
-152.3727837075665
 10
105.8447021219763
 20
-152.358658816077
 10
105.9504665533735
 20
-152.358658816077
 10
106.0551974561251
 20
-152.358658816077
 10
106.1961018614718
 20
-152.371750178921
 10
106.3135796175188
 20
-152.4337618976554
 97
        0
 97
        0
 92
        1
 93
        1
 72
     4
 94
        3
 73
     0
 74
     1
 95
       17
 96
       13
 40
0.0
 40
0.0
 40
0.0
 40
0.0
 40
1.0
 40
1.0
 40
1.0
 40
2.0
 40
2.0
 40
2.0
 40
3.0
 40
3.0
 40
3.0
 40
4.0
 40
4.0
 40
4.0
 40
4.0
 10
105.5666829163167
 20
-152.676296619817
 10
105.5666829163167
 20
-152.8289143498136
 10
105.7399712192247
 20
-152.8575086423412
 10
105.9504665533735
 20
-152.8575086423412
 10
106.1454589578386
 20
-152.8575086423412
 10
106.3342501904303
 20
-152.8354600312356
 10
106.3342501904303
 20
-152.676296619817
 10
106.3342501904303
 20
-152.5254014375631
 10
106.1623399257164
 20
-152.49577361639
 10
105.9504665533735
 20
-152.49577361639
 10
105.7554741489084
 20
-152.49577361639
 10
105.5666829163167
 20
-152.5188557561411
 10
105.5666829163167
 20
-152.676296619817
 97
        0
 97
        0
 75
     2
 76
     1
 98
        0
  0
SPLINE
  5
99
330
90
100
AcDbEntity
  8
_U+30EC_U+30A4_U+30E4_U+30FC 1
370
     0
100
AcDbSpline
210
0.0
220
0.0
230
1.0
 70
    11
 71
     3
 72
    29
 73
    25
 74
     0
 42
0.0000000001
 43
0.0000000001
 12
1.0
 22
0.0
 32
0.0
 13
1.0
 23
0.0
 33
0.0
 40
0.0
 40
0.0
 40
0.0
 40
0.0
 40
1.0
 40
1.0
 40
1.0
 40
2.0
 40
2.0
 40
2.0
 40
3.0
 40
3.0
 40
3.0
 40
4.0
 40
4.0
 40
4.0
 40
5.0
 40
5.0
 40
5.0
 40
6.0
 40
6.0
 40
6.0
 40
7.0
 40
7.0
 40
7.0
 40
8.0
 40
8.0
 40
8.0
 40
8.0
 10
106.3135796175188
 20
-151.7144259603353
 30
0.0
 10
106.4413926600216
 20
-151.7802272841036
 30
0.0
 10
106.4531059846715
 20
-151.8859917155007
 30
0.0
 10
106.4531059846715
 20
-151.9569606824969
 30
0.0
 10
106.4531059846715
 20
-152.055490413375
 30
0.0
 10
106.4245116921439
 20
-152.1419623100548
 30
0.0
 10
106.3135796175188
 20
-152.2001844237555
 30
0.0
 10
106.1947238232777
 20
-152.2632296711356
 30
0.0
 10
106.0500298128972
 20
-152.2749429957854
 30
0.0
 10
105.9504665533735
 20
-152.2749429957854
 30
0.0
 10
105.8626166184996
 20
-152.2749429957854
 30
0.0
 10
105.7089653598575
 20
-152.2646077093297
 30
0.0
 10
105.5873534892282
 20
-152.2001844237555
 30
0.0
 10
105.4635023065334
 20
-152.1340385904387
 30
0.0
 10
105.4492051602696
 20
-152.0358533691091
 30
0.0
 10
105.4492051602696
 20
-151.9569606824969
 30
0.0
 10
105.4492051602696
 20
-151.8601534993614
 30
0.0
 10
105.4764214146031
 20
-151.7723035644875
 30
0.0
 10
105.5873534892282
 20
-151.7144259603353
 30
0.0
 10
105.7051757548237
 20
-151.6534477702464
 30
0.0
 10
105.8447021219763
 20
-151.6393228787568
 30
0.0
 10
105.9504665533735
 20
-151.6393228787568
 30
0.0
 10
106.0551974561251
 20
-151.6393228787568
 30
0.0
 10
106.1961018614718
 20
-151.6524142416008
 30
0.0
 10
106.3135796175188
 20
-151.7144259603353
 30
0.0
  0
SPLINE
  5
9A
330
90
100
AcDbEntity
  8
_U+30EC_U+30A4_U+30E4_U+30FC 1
370
     0
100
AcDbSpline
210
0.0
220
0.0
230
1.0
 70
    11
 71
     3
 72
    17
 73
    13
 74
     0
 42
0.0000000001
 43
0.0000000001
 12
1.0
 22
0.0
 32
0.0
 13
1.0
 23
0.0
 33
0.0
 40
0.0
 40
0.0
 40
0.0
 40
0.0
 40
1.0
 40
1.0
 40
1.0
 40
2.0
 40
2.0
 40
2.0
 40
3.0
 40
3.0
 40
3.0
 40
4.0
 40
4.0
 40
4.0
 40
4.0
 10
105.5666829163167
 20
-151.9569606824969
 30
0.0
 10
105.5666829163167
 20
-152.1095784124934
 30
0.0
 10
105.7399712192247
 20
-152.138172705021
 30
0.0
 10
105.9504665533735
 20
-152.138172705021
 30
0.0
 10
106.1454589578386
 20
-152.138172705021
 30
0.0
 10
106.3342501904303
 20
-152.1161240939154
 30
0.0
 10
106.3342501904303
 20
-151.9569606824969
 30
0.0
 10
106.3342501904303
 20
-151.8060655002429
 30
0.0
 10
106.1623399257164
 20
-151.7764376790698
 30
0.0
 10
105.9504665533735
 20
-151.7764376790698
 30
0.0
 10
105.7554741489084
 20
-151.7764376790698
 30
0.0
 10
105.5666829163167
 20
-151.799519818821
 30
0.0
 10
105.5666829163167
 20
-151.9569606824969
 30
0.0
  0
HATCH
  5
9B
330
90
100
AcDbEntity
  8
_U+30EC_U+30A4_U+30E4_U+30FC 1
 62
   179
420
  2234388
100
AcDbHatch
 10
0.0
 20
0.0
 30
0.0
210
0.0
220
0.0
230
1.0
  2
SOLID
 70
     1
 71
     0
 91
        2
 92
        1
 93
        1
 72
     4
 94
        3
 73
     0
 74
     1
 95
       29
 96
       25
 40
0.0
 40
0.0
 40
0.0
 40
0.0
 40
1.0
 40
1.0
 40
1.0
 40
2.0
 40
2.0
 40
2.0
 40
3.0
 40
3.0
 40
3.0
 40
4.0
 40
4.0
 40
4.0
 40
5.0
 40
5.0
 40
5.0
 40
6.0
 40
6.0
 40
6.0
 40
7.0
 40
7.0
 40
7.0
 40
8.0
 40
8.0
 40
8.0
 40
8.0
 10
106.3135796175188
 20
-151.7144259603353
 10
106.4413926600216
 20
-151.7802272841036
 10
106.4531059846715
 20
-151.8859917155007
 10
106.4531059846715
 20
-151.9569606824969
 10
106.4531059846715
 20
-152.055490413375
 10
106.4245116921439
 20
-152.1419623100548
 10
106.3135796175188
 20
-152.2001844237555
 10
106.1947238232777
 20
-152.2632296711356
 10
106.0500298128972
 20
-152.2749429957854
 10
105.9504665533735
 20
-152.2749429957854
 10
105.8626166184996
 20
-152.2749429957854
 10
105.7089653598575
 20
-152.2646077093297
 10
105.5873534892282
 20
-152.2001844237555
 10
105.4635023065334
 20
-152.1340385904387
 10
105.4492051602696
 20
-152.0358533691091
 10
105.4492051602696
 20
-151.9569606824969
 10
105.4492051602696
 20
-151.8601534993614
 10
105.4764214146031
 20
-151.7723035644875
 10
105.5873534892282
 20
-151.7144259603353
 10
105.7051757548237
 20
-151.6534477702464
 10
105.8447021219763
 20
-151.6393228787568
 10
105.9504665533735
 20
-151.6393228787568
 10
106.0551974561251
 20
-151.6393228787568
 10
106.1961018614718
 20
-151.6524142416008
 10
106.3135796175188
 20
-151.7144259603353
 97
        0
 97
        0
 92
        1
 93
        1
 72
     4
 94
        3
 73
     0
 74
     1
 95
       17
 96
       13
 40
0.0
 40
0.0
 40
0.0
 40
0.0
 40
1.0
 40
1.0
 40
1.0
 40
2.0
 40
2.0
 40
2.0
 40
3.0
 40
3.0
 40
3.0
 40
4.0
 40
4.0
 40
4.0
 40
4.0
 10
105.5666829163167
 20
-151.9569606824969
 10
105.5666829163167
 20
-152.1095784124934
 10
105.7399712192247
 20
-152.138172705021
 10
105.9504665533735
 20
-152.138172705021
 10
106.1454589578386
 20
-152.138172705021
 10
106.3342501904303
 20
-152.1161240939154
 10
106.3342501904303
 20
-151.9569606824969
 10
106.3342501904303
 20
-151.8060655002429
 10
106.1623399257164
 20
-151.7764376790698
 10
105.9504665533735
 20
-151.7764376790698
 10
105.7554741489084
 20
-151.7764376790698
 10
105.5666829163167
 20
-151.799519818821
 10
105.5666829163167
 20
-151.9569606824969
 97
        0
 97
        0
 75
     2
 76
     1
 98
        0
  0
ENDBLK
  5
93
330
90
100
AcDbEntity
  8
0
100
AcDbBlockEnd
  0
ENDSEC
  0
SECTION
  2
ENTITIES
  0
POLYLINE
  5
41
330
1F
100
AcDbEntity
  8
_U+30EC_U+30A4_U+30E4_U+30FC 1
370
     0
100
AcDb2dPolyline
 66
     1
 10
0.0
 20
0.0
 30
0.0
  0
VERTEX
  5
42
330
41
100
AcDbEntity
  8
_U+30EC_U+30A4_U+30E4_U+30FC 1
370
     0
100
AcDbVertex
100
AcDb2dVertex
 10
126.258236621547
 20
-168.0753939589449
 30
0.0
  0
VERTEX
  5
43
330
41
100
AcDbEntity
  8
_U+30EC_U+30A4_U+30E4_U+30FC 1
370
     0
100
AcDbVertex
100
AcDb2dVertex
 10
80.83205702864184
 20
-168.0753939589449
 30
0.0
  0
VERTEX
  5
44
330
41
100
AcDbEntity
  8
_U+30EC_U+30A4_U+30E4_U+30FC 1
370
     0
100
AcDbVertex
100
AcDb2dVertex
 10
80.83205702864184
 20
-133.7641306494098
 30
0.0
  0
VERTEX
  5
45
330
41
100
AcDbEntity
  8
_U+30EC_U+30A4_U+30E4_U+30FC 1
370
     0
100
AcDbVertex
100
AcDb2dVertex
 10
126.258236621547
 20
-133.7641306494098
 30
0.0
  0
VERTEX
  5
46
330
41
100
AcDbEntity
  8
_U+30EC_U+30A4_U+30E4_U+30FC 1
370
     0
100
AcDbVertex
100
AcDb2dVertex
 10
126.258236621547
 20
-168.0753939589449
 30
0.0
  0
SEQEND
  5
47
330
41
100
AcDbEntity
  8
_U+30EC_U+30A4_U+30E4_U+30FC 1
370
     0
  0
SPLINE
  5
48
330
1F
100
AcDbEntity
  8
_U+30EC_U+30A4_U+30E4_U+30FC 1
370
     0
100
AcDbSpline
210
0.0
220
0.0
230
1.0
 70
    11
 71
     3
 72
    23
 73
    19
 74
     0
 42
0.0000000001
 43
0.0000000001
 12
1.0
 22
0.0
 32
0.0
 13
1.0
 23
0.0
 33
0.0
 40
0.0
 40
0.0
 40
0.0
 40
0.0
 40
1.0
 40
1.0
 40
1.0
 40
2.0
 40
2.0
 40
2.0
 40
3.0
 40
3.0
 40
3.0
 40
4.0
 40
4.0
 40
4.0
 40
5.0
 40
5.0
 40
5.0
 40
6.0
 40
6.0
 40
6.0
 40
6.0
 10
101.5032082613819
 20
-164.5484964365393
 30
0.0
 10
101.5032082613819
 20
-166.4888507879869
 30
0.0
 10
103.2629115406268
 20
-167.3507063967267
 30
0.0
 10
104.311878503904
 20
-167.3507063967267
 30
0.0
 10
104.5220613555355
 20
-167.3507063967267
 30
0.0
 10
104.6063476460325
 20
-167.819787365454
 30
0.0
 10
104.6063476460325
 20
-167.9377039648042
 30
0.0
 10
104.6063476460325
 20
-167.9377039648042
 30
0.0
 10
100.6648517651652
 20
-167.9377039648042
 30
0.0
 10
100.6648517651652
 20
-167.9377039648042
 30
0.0
 10
100.6648517651652
 20
-167.9377039648042
 30
0.0
 10
100.6648517651652
 20
-137.3850749318286
 30
0.0
 10
100.6648517651652
 20
-137.3850749318286
 30
0.0
 10
101.4708673775165
 20
-137.3850749318286
 30
0.0
 10
101.5032082613819
 20
-137.9354225682506
 30
0.0
 10
101.5032082613819
 20
-137.9354225682506
 30
0.0
 10
101.5032082613819
 20
-137.9354225682506
 30
0.0
 10
101.5032082613819
 20
-164.5484964365393
 30
0.0
 10
101.5032082613819
 20
-164.5484964365393
 30
0.0
  0
HATCH
  5
49
330
1F
100
AcDbEntity
  8
_U+30EC_U+30A4_U+30E4_U+30FC 1
 62
     9
420
 13224394
100
AcDbHatch
 10
0.0
 20
0.0
 30
0.0
210
0.0
220
0.0
230
1.0
  2
SOLID
 70
     1
 71
     0
 91
        1
 92
        1
 93
        1
 72
     4
 94
        3
 73
     0
 74
     1
 95
       23
 96
       19
 40
0.0
 40
0.0
 40
0.0
 40
0.0
 40
1.0
 40
1.0
 40
1.0
 40
2.0
 40
2.0
 40
2.0
 40
3.0
 40
3.0
 40
3.0
 40
4.0
 40
4.0
 40
4.0
 40
5.0
 40
5.0
 40
5.0
 40
6.0
 40
6.0
 40
6.0
 40
6.0
 10
101.5032082613819
 20
-164.5484964365393
 10
101.5032082613819
 20
-166.4888507879869
 10
103.2629115406268
 20
-167.3507063967267
 10
104.311878503904
 20
-167.3507063967267
 10
104.5220613555355
 20
-167.3507063967267
 10
104.6063476460325
 20
-167.819787365454
 10
104.6063476460325
 20
-167.9377039648042
 10
104.6063476460325
 20
-167.9377039648042
 10
100.6648517651652
 20
-167.9377039648042
 10
100.6648517651652
 20
-167.9377039648042
 10
100.6648517651652
 20
-167.9377039648042
 10
100.6648517651652
 20
-137.3850749318286
 10
100.6648517651652
 20
-137.3850749318286
 10
101.4708673775165
 20
-137.3850749318286
 10
101.5032082613819
 20
-137.9354225682506
 10
101.5032082613819
 20
-137.9354225682506
 10
101.5032082613819
 20
-137.9354225682506
 10
101.5032082613819
 20
-164.5484964365393
 10
101.5032082613819
 20
-164.5484964365393
 97
        0
 97
        0
 75
     2
 76
     1
 98
        0
  0
SPLINE
  5
4A
330
1F
100
AcDbEntity
  8
_U+30EC_U+30A4_U+30E4_U+30FC 1
 62
   179
420
  2234388
370
    25
100
AcDbSpline
210
0.0
220
0.0
230
1.0
 70
    11
 71
     3
 72
    23
 73
    19
 74
     0
 42
0.0000000001
 43
0.0000000001
 12
1.0
 22
0.0
 32
0.0
 13
1.0
 23
0.0
 33
0.0
 40
0.0
 40
0.0
 40
0.0
 40
0.0
 40
1.0
 40
1.0
 40
1.0
 40
2.0
 40
2.0
 40
2.0
 40
3.0
 40
3.0
 40
3.0
 40
4.0
 40
4.0
 40
4.0
 40
5.0
 40
5.0
 40
5.0
 40
6.0
 40
6.0
 40
6.0
 40
6.0
 10
101.5032082613819
 20
-164.5484964365393
 30
0.0
 10
101.5032082613819
 20
-166.4888507879869
 30
0.0
 10
103.2629115406268
 20
-167.3507063967267
 30
0.0
 10
104.311878503904
 20
-167.3507063967267
 30
0.0
 10
104.5220613555355
 20
-167.3507063967267
 30
0.0
 10
104.6063476460325
 20
-167.819787365454
 30
0.0
 10
104.6063476460325
 20
-167.9377039648042
 30
0.0
 10
104.6063476460325
 20
-167.9377039648042
 30
0.0
 10
100.6648517651652
 20
-167.9377039648042
 30
0.0
 10
100.6648517651652
 20
-167.9377039648042
 30
0.0
 10
100.6648517651652
 20
-167.9377039648042
 30
0.0
 10
100.6648517651652
 20
-137.3850749318286
 30
0.0
 10
100.6648517651652
 20
-137.3850749318286
 30
0.0
 10
101.4708673775165
 20
-137.3850749318286
 30
0.0
 10
101.5032082613819
 20
-137.9354225682506
 30
0.0
 10
101.5032082613819
 20
-137.9354225682506
 30
0.0
 10
101.5032082613819
 20
-137.9354225682506
 30
0.0
 10
101.5032082613819
 20
-164.5484964365393
 30
0.0
 10
101.5032082613819
 20
-164.5484964365393
 30
0.0
  0
POLYLINE
  5
4B
330
1F
100
AcDbEntity
  8
_U+30EC_U+30A4_U+30E4_U+30FC 1
 62
   179
420
  2234388
370
     9
100
AcDb2dPolyline
 66
     1
 10
0.0
 20
0.0
 30
0.0
  0
VERTEX
  5
4C
330
4B
100
AcDbEntity
  8
_U+30EC_U+30A4_U+30E4_U+30FC 1
 62
   179
420
  2234388
370
     9
100
AcDbVertex
100
AcDb2dVertex
 10
103.6294240145722
 20
-165.0306229652149
 30
0.0
  0
VERTEX
  5
4D
330
4B
100
AcDbEntity
  8
_U+30EC_U+30A4_U+30E4_U+30FC 1
 62
   179
420
  2234388
370
     9
100
AcDbVertex
100
AcDb2dVertex
 10
102.4038979298178
 20
-166.258517381579
 30
0.0
  0
SEQEND
  5
4E
330
4B
100
AcDbEntity
  8
_U+30EC_U+30A4_U+30E4_U+30FC 1
 62
   179
420
  2234388
370
     9
  0
POLYLINE
  5
4F
330
1F
100
AcDbEntity
  8
_U+30EC_U+30A4_U+30E4_U+30FC 1
 62
   179
420
  2234388
370
     9
100
AcDb2dPolyline
 66
     1
 10
0.0
 20
0.0
 30
0.0
  0
VERTEX
  5
50
330
4F
100
AcDbEntity
  8
_U+30EC_U+30A4_U+30E4_U+30FC 1
 62
   179
420
  2234388
370
     9
100
AcDbVertex
100
AcDb2dVertex
 10
102.7707196026116
 20
-165.6236597788958
 30
0.0
  0
VERTEX
  5
51
330
4F
100
AcDbEntity
  8
_U+30EC_U+30A4_U+30E4_U+30FC 1
 62
   179
420
  2234388
370
     9
100
AcDbVertex
100
AcDb2dVertex
 10
102.4040295037956
 20
-166.258517381579
 30
0.0
  0
SEQEND
  5
52
330
4F
100
AcDbEntity
  8
_U+30EC_U+30A4_U+30E4_U+30FC 1
 62
   179
420
  2234388
370
     9
  0
POLYLINE
  5
53
330
1F
100
AcDbEntity
  8
_U+30EC_U+30A4_U+30E4_U+30FC 1
 62
   179
420
  2234388
370
     9
100
AcDb2dPolyline
 66
     1
 10
0.0
 20
0.0
 30
0.0
  0
VERTEX
  5
54
330
53
100
AcDbEntity
  8
_U+30EC_U+30A4_U+30E4_U+30FC 1
 62
   179
420
  2234388
370
     9
100
AcDbVertex
100
AcDb2dVertex
 10
103.0389331573713
 20
-165.8918470188597
 30
0.0
  0
VERTEX
  5
55
330
53
100
AcDbEntity
  8
_U+30EC_U+30A4_U+30E4_U+30FC 1
 62
   179
420
  2234388
370
     9
100
AcDbVertex
100
AcDb2dVertex
 10
102.404075554688
 20
-166.2585371176753
 30
0.0
  0
SEQEND
  5
56
330
53
100
AcDbEntity
  8
_U+30EC_U+30A4_U+30E4_U+30FC 1
 62
   179
420
  2234388
370
     9
  0
INSERT
  5
58
330
1F
100
AcDbEntity
  8
_U+30EC_U+30A4_U+30E4_U+30FC 1
100
AcDbBlockReference
  2
block 2
 10
0.0
 20
0.0
 30
0.0
  0
POLYLINE
  5
64
330
1F
100
AcDbEntity
  8
_U+30EC_U+30A4_U+30E4_U+30FC 1
 62
   179
420
  2234388
370
     9
100
AcDb2dPolyline
 66
     1
 10
0.0
 20
0.0
 30
0.0
  0
VERTEX
  5
65
330
64
100
AcDbEntity
  8
_U+30EC_U+30A4_U+30E4_U+30FC 1
 62
   179
420
  2234388
370
     9
100
AcDbVertex
100
AcDb2dVertex
 10
100.6017554638729
 20
-135.9578130448486
 30
0.0
  0
VERTEX
  5
66
330
64
100
AcDbEntity
  8
_U+30EC_U+30A4_U+30E4_U+30FC 1
 62
   179
420
  2234388
370
     9
100
AcDbVertex
100
AcDb2dVertex
 10
101.5373319726535
 20
-135.9578130448486
 30
0.0
  0
SEQEND
  5
67
330
64
100
AcDbEntity
  8
_U+30EC_U+30A4_U+30E4_U+30FC 1
 62
   179
420
  2234388
370
     9
  0
INSERT
  5
69
330
1F
100
AcDbEntity
  8
_U+30EC_U+30A4_U+30E4_U+30FC 1
100
AcDbBlockReference
  2
block 3
 10
0.0
 20
0.0
 30
0.0
  0
POLYLINE
  5
78
330
1F
100
AcDbEntity
  8
_U+30EC_U+30A4_U+30E4_U+30FC 1
 62
   179
420
  2234388
370
     9
100
AcDb2dPolyline
 66
     1
 10
0.0
 20
0.0
 30
0.0
  0
VERTEX
  5
79
330
78
100
AcDbEntity
  8
_U+30EC_U+30A4_U+30E4_U+30FC 1
 62
   179
420
  2234388
370
     9
100
AcDbVertex
100
AcDb2dVertex
 10
100.6017554638729
 20
-135.2011179382624
 30
0.0
  0
VERTEX
  5
7A
330
78
100
AcDbEntity
  8
_U+30EC_U+30A4_U+30E4_U+30FC 1
 62
   179
420
  2234388
370
     9
100
AcDbVertex
100
AcDb2dVertex
 10
100.6017554638729
 20
-136.9142637652864
 30
0.0
  0
SEQEND
  5
7B
330
78
100
AcDbEntity
  8
_U+30EC_U+30A4_U+30E4_U+30FC 1
 62
   179
420
  2234388
370
     9
  0
POLYLINE
  5
7C
330
1F
100
AcDbEntity
  8
_U+30EC_U+30A4_U+30E4_U+30FC 1
 62
   179
420
  2234388
370
     9
100
AcDb2dPolyline
 66
     1
 10
0.0
 20
0.0
 30
0.0
  0
VERTEX
  5
7D
330
7C
100
AcDbEntity
  8
_U+30EC_U+30A4_U+30E4_U+30FC 1
 62
   179
420
  2234388
370
     9
100
AcDbVertex
100
AcDb2dVertex
 10
101.5377201158899
 20
-135.2011179382624
 30
0.0
  0
VERTEX
  5
7E
330
7C
100
AcDbEntity
  8
_U+30EC_U+30A4_U+30E4_U+30FC 1
 62
   179
420
  2234388
370
     9
100
AcDbVertex
100
AcDb2dVertex
 10
101.5377201158899
 20
-136.9142637652864
 30
0.0
  0
SEQEND
  5
7F
330
7C
100
AcDbEntity
  8
_U+30EC_U+30A4_U+30E4_U+30FC 1
 62
   179
420
  2234388
370
     9
  0
SPLINE
  5
80
330
1F
100
AcDbEntity
  8
_U+30EC_U+30A4_U+30E4_U+30FC 1
370
     0
100
AcDbSpline
210
0.0
220
0.0
230
1.0
 70
    11
 71
     3
 72
    17
 73
    13
 74
     0
 42
0.0000000001
 43
0.0000000001
 12
1.0
 22
0.0
 32
0.0
 13
1.0
 23
0.0
 33
0.0
 40
0.0
 40
0.0
 40
0.0
 40
0.0
 40
1.0
 40
1.0
 40
1.0
 40
2.0
 40
2.0
 40
2.0
 40
3.0
 40
3.0
 40
3.0
 40
4.0
 40
4.0
 40
4.0
 40
4.0
 10
100.6935480498322
 20
-135.9577077856663
 30
0.0
 10
100.6935480498322
 20
-136.0083769247081
 30
0.0
 10
100.6523719733238
 20
-136.0495464225183
 30
0.0
 10
100.6017094129805
 20
-136.0495464225183
 30
0.0
 10
100.5512705283999
 20
-136.0495464225183
 30
0.0
 10
100.5098773548277
 20
-136.0083769247081
 30
0.0
 10
100.5098773548277
 20
-135.9577077856663
 30
0.0
 10
100.5098773548277
 20
-135.9072754797849
 30
0.0
 10
100.5512705283999
 20
-135.8660928245776
 30
0.0
 10
100.6017094129805
 20
-135.8660928245776
 30
0.0
 10
100.6523719733238
 20
-135.8660928245776
 30
0.0
 10
100.6935480498322
 20
-135.9072754797849
 30
0.0
 10
100.6935480498322
 20
-135.9577077856663
 30
0.0
  0
HATCH
  5
81
330
1F
100
AcDbEntity
  8
_U+30EC_U+30A4_U+30E4_U+30FC 1
 62
   179
420
  2234388
100
AcDbHatch
 10
0.0
 20
0.0
 30
0.0
210
0.0
220
0.0
230
1.0
  2
SOLID
 70
     1
 71
     0
 91
        1
 92
        1
 93
        2
 72
     4
 94
        3
 73
     0
 74
     0
 95
       17
 96
       13
 40
0.0
 40
0.0
 40
0.0
 40
0.0
 40
0.3527777776895833
 40
0.3527777776895833
 40
0.3527777776895833
 40
0.7055555553791667
 40
0.7055555553791667
 40
0.7055555553791667
 40
1.05833333306875
 40
1.05833333306875
 40
1.05833333306875
 40
1.411111110758333
 40
1.411111110758333
 40
1.411111110758333
 40
1.411111110758333
 10
100.6935480498322
 20
-135.9577077856663
 10
100.6935480498322
 20
-136.0083769247081
 10
100.6523719733238
 20
-136.0495464225183
 10
100.6017094129805
 20
-136.0495464225183
 10
100.5512705283999
 20
-136.0495464225183
 10
100.5098773548277
 20
-136.0083769247081
 10
100.5098773548277
 20
-135.9577077856663
 10
100.5098773548277
 20
-135.9072754797849
 10
100.5512705283999
 20
-135.8660928245776
 10
100.6017094129805
 20
-135.8660928245776
 10
100.6523719733238
 20
-135.8660928245776
 10
100.6935480498322
 20
-135.9072754797849
 10
100.6935480498322
 20
-135.9577077856663
 97
        0
 72
     1
 10
100.6935480498322
 20
-135.9577077856663
 11
100.6935480498322
 21
-135.9577077856663
 97
        0
 75
     2
 76
     1
 98
        0
  0
SPLINE
  5
82
330
1F
100
AcDbEntity
  8
_U+30EC_U+30A4_U+30E4_U+30FC 1
370
     0
100
AcDbSpline
210
0.0
220
0.0
230
1.0
 70
    11
 71
     3
 72
    17
 73
    13
 74
     0
 42
0.0000000001
 43
0.0000000001
 12
1.0
 22
0.0
 32
0.0
 13
1.0
 23
0.0
 33
0.0
 40
0.0
 40
0.0
 40
0.0
 40
0.0
 40
1.0
 40
1.0
 40
1.0
 40
2.0
 40
2.0
 40
2.0
 40
3.0
 40
3.0
 40
3.0
 40
4.0
 40
4.0
 40
4.0
 40
4.0
 10
101.6290785077206
 20
-135.9577077856663
 30
0.0
 10
101.6290785077206
 20
-136.0083769247081
 30
0.0
 10
101.5883300466416
 20
-136.0495464225183
 30
0.0
 10
101.537239870869
 20
-136.0495464225183
 30
0.0
 10
101.4868009862887
 20
-136.0495464225183
 30
0.0
 10
101.4458420068447
 20
-136.0083769247081
 30
0.0
 10
101.4458420068447
 20
-135.9577077856663
 30
0.0
 10
101.4458420068447
 20
-135.9072754797849
 30
0.0
 10
101.4868009862887
 20
-135.8660928245776
 30
0.0
 10
101.537239870869
 20
-135.8660928245776
 30
0.0
 10
101.5883300466416
 20
-135.8660928245776
 30
0.0
 10
101.6290785077206
 20
-135.9072754797849
 30
0.0
 10
101.6290785077206
 20
-135.9577077856663
 30
0.0
  0
HATCH
  5
83
330
1F
100
AcDbEntity
  8
_U+30EC_U+30A4_U+30E4_U+30FC 1
 62
   179
420
  2234388
100
AcDbHatch
 10
0.0
 20
0.0
 30
0.0
210
0.0
220
0.0
230
1.0
  2
SOLID
 70
     1
 71
     0
 91
        1
 92
        1
 93
        2
 72
     4
 94
        3
 73
     0
 74
     0
 95
       17
 96
       13
 40
0.0
 40
0.0
 40
0.0
 40
0.0
 40
0.3527777776895833
 40
0.3527777776895833
 40
0.3527777776895833
 40
0.7055555553791667
 40
0.7055555553791667
 40
0.7055555553791667
 40
1.05833333306875
 40
1.05833333306875
 40
1.05833333306875
 40
1.411111110758333
 40
1.411111110758333
 40
1.411111110758333
 40
1.411111110758333
 10
101.6290785077206
 20
-135.9577077856663
 10
101.6290785077206
 20
-136.0083769247081
 10
101.5883300466416
 20
-136.0495464225183
 10
101.537239870869
 20
-136.0495464225183
 10
101.4868009862887
 20
-136.0495464225183
 10
101.4458420068447
 20
-136.0083769247081
 10
101.4458420068447
 20
-135.9577077856663
 10
101.4458420068447
 20
-135.9072754797849
 10
101.4868009862887
 20
-135.8660928245776
 10
101.537239870869
 20
-135.8660928245776
 10
101.5883300466416
 20
-135.8660928245776
 10
101.6290785077206
 20
-135.9072754797849
 10
101.6290785077206
 20
-135.9577077856663
 97
        0
 72
     1
 10
101.6290785077206
 20
-135.9577077856663
 11
101.6290785077206
 21
-135.9577077856663
 97
        0
 75
     2
 76
     1
 98
        0
  0
POLYLINE
  5
84
330
1F
100
AcDbEntity
  8
_U+30EC_U+30A4_U+30E4_U+30FC 1
 62
   179
420
  2234388
370
     9
100
AcDb2dPolyline
 66
     1
 10
0.0
 20
0.0
 30
0.0
  0
VERTEX
  5
85
330
84
100
AcDbEntity
  8
_U+30EC_U+30A4_U+30E4_U+30FC 1
 62
   179
420
  2234388
370
     9
100
AcDbVertex
100
AcDb2dVertex
 10
105.2299951457652
 20
-168.0008200021937
 30
0.0
  0
VERTEX
  5
86
330
84
100
AcDbEntity
  8
_U+30EC_U+30A4_U+30E4_U+30FC 1
 62
   179
420
  2234388
370
     9
100
AcDbVertex
100
AcDb2dVertex
 10
107.6549496166786
 20
-168.0008200021937
 30
0.0
  0
SEQEND
  5
87
330
84
100
AcDbEntity
  8
_U+30EC_U+30A4_U+30E4_U+30FC 1
 62
   179
420
  2234388
370
     9
  0
POLYLINE
  5
88
330
1F
100
AcDbEntity
  8
_U+30EC_U+30A4_U+30E4_U+30FC 1
 62
   179
420
  2234388
370
     9
100
AcDb2dPolyline
 66
     1
 10
0.0
 20
0.0
 30
0.0
  0
VERTEX
  5
89
330
88
100
AcDbEntity
  8
_U+30EC_U+30A4_U+30E4_U+30FC 1
 62
   179
420
  2234388
370
     9
100
AcDbVertex
100
AcDb2dVertex
 10
103.3968077996413
 20
-137.3533524456607
 30
0.0
  0
VERTEX
  5
8A
330
88
100
AcDbEntity
  8
_U+30EC_U+30A4_U+30E4_U+30FC 1
 62
   179
420
  2234388
370
     9
100
AcDbVertex
100
AcDb2dVertex
 10
107.6549759314747
 20
-137.3533524456607
 30
0.0
  0
SEQEND
  5
8B
330
88
100
AcDbEntity
  8
_U+30EC_U+30A4_U+30E4_U+30FC 1
 62
   179
420
  2234388
370
     9
  0
POLYLINE
  5
8C
330
1F
100
AcDbEntity
  8
_U+30EC_U+30A4_U+30E4_U+30FC 1
 62
   179
420
  2234388
370
     9
100
AcDb2dPolyline
 66
     1
 10
0.0
 20
0.0
 30
0.0
  0
VERTEX
  5
8D
330
8C
100
AcDbEntity
  8
_U+30EC_U+30A4_U+30E4_U+30FC 1
 62
   179
420
  2234388
370
     9
100
AcDbVertex
100
AcDb2dVertex
 10
106.6832231573613
 20
-137.3533524456607
 30
0.0
  0
VERTEX
  5
8E
330
8C
100
AcDbEntity
  8
_U+30EC_U+30A4_U+30E4_U+30FC 1
 62
   179
420
  2234388
370
     9
100
AcDbVertex
100
AcDb2dVertex
 10
106.6832231573613
 20
-168.0008397382906
 30
0.0
  0
SEQEND
  5
8F
330
8C
100
AcDbEntity
  8
_U+30EC_U+30A4_U+30E4_U+30FC 1
 62
   179
420
  2234388
370
     9
  0
INSERT
  5
91
330
1F
100
AcDbEntity
  8
_U+30EC_U+30A4_U+30E4_U+30FC 1
100
AcDbBlockReference
  2
block 4
 10
0.0
 20
0.0
 30
0.0
  0
SPLINE
  5
9C
330
1F
100
AcDbEntity
  8
_U+30EC_U+30A4_U+30E4_U+30FC 1
370
     0
100
AcDbSpline
210
0.0
220
0.0
230
1.0
 70
    11
 71
     3
 72
    17
 73
    13
 74
     0
 42
0.0000000001
 43
0.0000000001
 12
1.0
 22
0.0
 32
0.0
 13
1.0
 23
0.0
 33
0.0
 40
0.0
 40
0.0
 40
0.0
 40
0.0
 40
1.0
 40
1.0
 40
1.0
 40
2.0
 40
2.0
 40
2.0
 40
3.0
 40
3.0
 40
3.0
 40
4.0
 40
4.0
 40
4.0
 40
4.0
 10
106.7749960072239
 20
-168.0006094838278
 30
0.0
 10
106.7749960072239
 20
-168.0514891412365
 30
0.0
 10
106.7338199307155
 20
-168.0924481206798
 30
0.0
 10
106.6831573703726
 20
-168.0924481206798
 30
0.0
 10
106.632718485792
 20
-168.0924481206798
 30
0.0
 10
106.5913253122192
 20
-168.0514891412365
 30
0.0
 10
106.5913253122192
 20
-168.0006094838278
 30
0.0
 10
106.5913253122192
 20
-167.9501705992479
 30
0.0
 10
106.632718485792
 20
-167.9092116198039
 30
0.0
 10
106.6831573703726
 20
-167.9092116198039
 30
0.0
 10
106.7338199307155
 20
-167.9092116198039
 30
0.0
 10
106.7749960072239
 20
-167.9501705992479
 30
0.0
 10
106.7749960072239
 20
-168.0006094838278
 30
0.0
  0
HATCH
  5
9D
330
1F
100
AcDbEntity
  8
_U+30EC_U+30A4_U+30E4_U+30FC 1
 62
   179
420
  2234388
100
AcDbHatch
 10
0.0
 20
0.0
 30
0.0
210
0.0
220
0.0
230
1.0
  2
SOLID
 70
     1
 71
     0
 91
        1
 92
        1
 93
        2
 72
     4
 94
        3
 73
     0
 74
     0
 95
       17
 96
       13
 40
0.0
 40
0.0
 40
0.0
 40
0.0
 40
0.3527777776895833
 40
0.3527777776895833
 40
0.3527777776895833
 40
0.7055555553791667
 40
0.7055555553791667
 40
0.7055555553791667
 40
1.05833333306875
 40
1.05833333306875
 40
1.05833333306875
 40
1.411111110758333
 40
1.411111110758333
 40
1.411111110758333
 40
1.411111110758333
 10
106.7749960072239
 20
-168.0006094838278
 10
106.7749960072239
 20
-168.0514891412365
 10
106.7338199307155
 20
-168.0924481206798
 10
106.6831573703726
 20
-168.0924481206798
 10
106.632718485792
 20
-168.0924481206798
 10
106.5913253122192
 20
-168.0514891412365
 10
106.5913253122192
 20
-168.0006094838278
 10
106.5913253122192
 20
-167.9501705992479
 10
106.632718485792
 20
-167.9092116198039
 10
106.6831573703726
 20
-167.9092116198039
 10
106.7338199307155
 20
-167.9092116198039
 10
106.7749960072239
 20
-167.9501705992479
 10
106.7749960072239
 20
-168.0006094838278
 97
        0
 72
     1
 10
106.7749960072239
 20
-168.0006094838278
 11
106.7749960072239
 21
-168.0006094838278
 97
        0
 75
     2
 76
     1
 98
        0
  0
SPLINE
  5
9E
330
1F
100
AcDbEntity
  8
_U+30EC_U+30A4_U+30E4_U+30FC 1
370
     0
100
AcDbSpline
210
0.0
220
0.0
230
1.0
 70
    11
 71
     3
 72
    17
 73
    13
 74
     0
 42
0.0000000001
 43
0.0000000001
 12
1.0
 22
0.0
 32
0.0
 13
1.0
 23
0.0
 33
0.0
 40
0.0
 40
0.0
 40
0.0
 40
0.0
 40
1.0
 40
1.0
 40
1.0
 40
2.0
 40
2.0
 40
2.0
 40
3.0
 40
3.0
 40
3.0
 40
4.0
 40
4.0
 40
4.0
 40
4.0
 10
106.7749960072239
 20
-137.3249193089506
 30
0.0
 10
106.7749960072239
 20
-137.3757989663579
 30
0.0
 10
106.7338199307155
 20
-137.4167579458022
 30
0.0
 10
106.6831573703726
 20
-137.4167579458022
 30
0.0
 10
106.632718485792
 20
-137.4167579458022
 30
0.0
 10
106.5913253122192
 20
-137.3757989663579
 30
0.0
 10
106.5913253122192
 20
-137.3249193089506
 30
0.0
 10
106.5913253122192
 20
-137.2744870030691
 30
0.0
 10
106.632718485792
 20
-137.2335280236252
 30
0.0
 10
106.6831573703726
 20
-137.2335280236252
 30
0.0
 10
106.7338199307155
 20
-137.2335280236252
 30
0.0
 10
106.7749960072239
 20
-137.2744870030691
 30
0.0
 10
106.7749960072239
 20
-137.3249193089506
 30
0.0
  0
HATCH
  5
9F
330
1F
100
AcDbEntity
  8
_U+30EC_U+30A4_U+30E4_U+30FC 1
 62
   179
420
  2234388
100
AcDbHatch
 10
0.0
 20
0.0
 30
0.0
210
0.0
220
0.0
230
1.0
  2
SOLID
 70
     1
 71
     0
 91
        1
 92
        1
 93
        2
 72
     4
 94
        3
 73
     0
 74
     0
 95
       17
 96
       13
 40
0.0
 40
0.0
 40
0.0
 40
0.0
 40
0.3527777776895833
 40
0.3527777776895833
 40
0.3527777776895833
 40
0.7055555553791667
 40
0.7055555553791667
 40
0.7055555553791667
 40
1.05833333306875
 40
1.05833333306875
 40
1.05833333306875
 40
1.411111110758333
 40
1.411111110758333
 40
1.411111110758333
 40
1.411111110758333
 10
106.7749960072239
 20
-137.3249193089506
 10
106.7749960072239
 20
-137.3757989663579
 10
106.7338199307155
 20
-137.4167579458022
 10
106.6831573703726
 20
-137.4167579458022
 10
106.632718485792
 20
-137.4167579458022
 10
106.5913253122192
 20
-137.3757989663579
 10
106.5913253122192
 20
-137.3249193089506
 10
106.5913253122192
 20
-137.2744870030691
 10
106.632718485792
 20
-137.2335280236252
 10
106.6831573703726
 20
-137.2335280236252
 10
106.7338199307155
 20
-137.2335280236252
 10
106.7749960072239
 20
-137.2744870030691
 10
106.7749960072239
 20
-137.3249193089506
 97
        0
 72
     1
 10
106.7749960072239
 20
-137.3249193089506
 11
106.7749960072239
 21
-137.3249193089506
 97
        0
 75
     2
 76
     1
 98
        0
  0
ENDSEC
  0
SECTION
  2
OBJECTS
  0
DICTIONARY
  5
C
330
0
100
AcDbDictionary
281
     1
  3
ACAD_GROUP
350
D
  3
ACAD_LAYOUT
350
1A
  3
ACAD_MATERIAL
350
3B
  3
ACAD_MLEADERSTYLE
350
A1
  3
ACAD_MLINESTYLE
350
17
  3
ACAD_PLOTSETTINGS
350
19
  3
ACAD_PLOTSTYLENAME
350
E
  3
ACAD_TABLESTYLE
350
A0
  3
ACAD_VISUALSTYLE
350
2A
  0
SUN
  5
3F
330
29
100
AcDbSun
 90
        1
290
     0
 63
     7
421
 16777215
 40
1.0
291
     1
 91
  2455826
 92
 54000000
292
     0
 70
     2
 71
   256
280
     1
  0
DICTIONARY
  5
D
102
{ACAD_REACTORS
330
C
102
}
330
C
100
AcDbDictionary
281
     1
  0
DICTIONARY
  5
1A
102
{ACAD_REACTORS
330
C
102
}
330
C
100
AcDbDictionary
281
     1
  3
Layout1
350
1E
  3
Layout2
350
26
  3
Model
350
22
  0
DICTIONARY
  5
3B
102
{ACAD_REACTORS
330
C
102
}
330
C
100
AcDbDictionary
281
     1
  3
ByBlock
350
3D
  3
ByLayer
350
3C
  3
Global
350
3E
  0
DICTIONARY
  5
A1
102
{ACAD_REACTORS
330
C
102
}
330
C
100
AcDbDictionary
281
     1
  0
DICTIONARY
  5
17
102
{ACAD_REACTORS
330
C
102
}
330
C
100
AcDbDictionary
281
     1
  3
Standard
350
18
  0
DICTIONARY
  5
19
102
{ACAD_REACTORS
330
C
102
}
330
C
100
AcDbDictionary
281
     1
  0
ACDBDICTIONARYWDFLT
  5
E
102
{ACAD_REACTORS
330
C
102
}
330
C
100
AcDbDictionary
281
     1
  3
Normal
350
F
100
AcDbDictionaryWithDefault
340
F
  0
DICTIONARY
  5
A0
102
{ACAD_REACTORS
330
C
102
}
330
C
100
AcDbDictionary
281
     1
  0
DICTIONARY
  5
2A
102
{ACAD_REACTORS
330
C
102
}
330
C
100
AcDbDictionary
281
     1
  3
2dWireframe
350
2F
  3
3D Hidden
350
31
  3
3dWireframe
350
30
  3
Basic
350
32
  3
Brighten
350
36
  3
ColorChange
350
3A
  3
Conceptual
350
34
  3
Dim
350
35
  3
Facepattern
350
39
  3
Flat
350
2B
  3
FlatWithEdges
350
2C
  3
Gouraud
350
2D
  3
GouraudWithEdges
350
2E
  3
Linepattern
350
38
  3
Realistic
350
33
  3
Thicken
350
37
  0
LAYOUT
  5
1E
102
{ACAD_REACTORS
330
1A
102
}
330
1A
100
AcDbPlotSettings
  1

  2
none_device
  4

  6

 40
0.0
 41
0.0
 42
0.0
 43
0.0
 44
0.0
 45
0.0
 46
0.0
 47
0.0
 48
0.0
 49
0.0
140
0.0
141
0.0
142
1.0
143
1.0
 70
   688
 72
     0
 73
     0
 74
     5
  7

 75
    16
 76
     0
 77
     2
 78
   300
147
1.0
148
0.0
149
0.0
100
AcDbLayout
  1
Layout1
 70
     1
 71
     1
 10
0.0
 20
0.0
 11
12.0
 21
9.0
 12
0.0
 22
0.0
 32
0.0
 14
1.000000000000000E+20
 24
1.000000000000000E+20
 34
1.000000000000000E+20
 15
-1.000000000000000E+20
 25
-1.000000000000000E+20
 35
-1.000000000000000E+20
146
0.0
 13
0.0
 23
0.0
 33
0.0
 16
1.0
 26
0.0
 36
0.0
 17
0.0
 27
1.0
 37
0.0
 76
     0
330
1B
  0
LAYOUT
  5
26
102
{ACAD_REACTORS
330
1A
102
}
330
1A
100
AcDbPlotSettings
  1

  2
none_device
  4

  6

 40
0.0
 41
0.0
 42
0.0
 43
0.0
 44
0.0
 45
0.0
 46
0.0
 47
0.0
 48
0.0
 49
0.0
140
0.0
141
0.0
142
1.0
143
1.0
 70
   688
 72
     0
 73
     0
 74
     5
  7

 75
    16
 76
     0
 77
     2
 78
   300
147
1.0
148
0.0
149
0.0
100
AcDbLayout
  1
Layout2
 70
     1
 71
     2
 10
0.0
 20
0.0
 11
0.0
 21
0.0
 12
0.0
 22
0.0
 32
0.0
 14
0.0
 24
0.0
 34
0.0
 15
0.0
 25
0.0
 35
0.0
146
0.0
 13
0.0
 23
0.0
 33
0.0
 16
1.0
 26
0.0
 36
0.0
 17
0.0
 27
1.0
 37
0.0
 76
     0
330
23
  0
LAYOUT
  5
22
102
{ACAD_REACTORS
330
1A
102
}
330
1A
100
AcDbPlotSettings
  1

  2
none_device
  4

  6

 40
0.0
 41
0.0
 42
0.0
 43
0.0
 44
0.0
 45
0.0
 46
0.0
 47
0.0
 48
0.0
 49
0.0
140
0.0
141
0.0
142
1.0
143
1.0
 70
  1712
 72
     0
 73
     0
 74
     0
  7

 75
     0
 76
     0
 77
     2
 78
   300
147
1.0
148
0.0
149
0.0
100
AcDbLayout
  1
Model
 70
     1
 71
     0
 10
0.0
 20
0.0
 11
12.0
 21
9.0
 12
0.0
 22
0.0
 32
0.0
 14
1.000000000000000E+20
 24
1.000000000000000E+20
 34
1.000000000000000E+20
 15
-1.000000000000000E+20
 25
-1.000000000000000E+20
 35
-1.000000000000000E+20
146
0.0
 13
0.0
 23
0.0
 33
0.0
 16
1.0
 26
0.0
 36
0.0
 17
0.0
 27
1.0
 37
0.0
 76
     0
330
1F
331
29
  0
MATERIAL
  5
3D
102
{ACAD_REACTORS
330
3B
102
}
330
3B
100
AcDbMaterial
  1
ByBlock
 72
     1
 94
      127
  0
MATERIAL
  5
3C
102
{ACAD_REACTORS
330
3B
102
}
330
3B
100
AcDbMaterial
  1
ByLayer
 72
     1
 94
      127
  0
MATERIAL
  5
3E
102
{ACAD_REACTORS
330
3B
102
}
330
3B
100
AcDbMaterial
  1
Global
 72
     1
 94
      127
  0
MLINESTYLE
  5
18
102
{ACAD_REACTORS
330
17
102
}
330
17
100
AcDbMlineStyle
  2
Standard
 70
     0
  3

 62
   256
 51
90.0
 52
90.0
 71
     2
 49
0.5
 62
   256
  6
BYLAYER
 49
-0.5
 62
   256
  6
BYLAYER
  0
ACDBPLACEHOLDER
  5
F
102
{ACAD_REACTORS
330
E
102
}
330
E
  0
VISUALSTYLE
  5
2F
102
{ACAD_REACTORS
330
2A
102
}
330
2A
100
AcDbVisualStyle
  2
2dWireframe
 70
     4
177
     2
291
     0
 71
     0
176
     1
 72
     2
176
     1
 73
     0
176
     1
 90
        0
176
     1
 40
-0.6
176
     1
 41
-30.0
176
     1
 62
     5
 63
     7
421
 16777215
176
     1
 74
     1
176
     1
 91
        4
176
     1
 64
     7
176
     1
 65
   257
176
     1
 75
     1
176
     1
175
     1
176
     1
 42
1.0
176
     1
 92
        0
176
     1
 66
   257
176
     1
 43
1.0
176
     1
 76
     1
176
     1
 77
     6
176
     1
 78
     2
176
     1
 67
     7
176
     1
 79
     5
176
     1
170
     0
176
     1
171
     0
176
     1
290
     0
176
     1
 93
        1
176
     1
 44
0.0
176
     1
173
     0
176
     1
  0
VISUALSTYLE
  5
31
102
{ACAD_REACTORS
330
2A
102
}
330
2A
100
AcDbVisualStyle
  2
3D Hidden
 70
     6
177
     2
291
     0
 71
     1
176
     1
 72
     2
176
     1
 73
     2
176
     1
 90
        0
176
     1
 40
-0.6
176
     1
 41
-30.0
176
     1
 62
     5
 63
     7
421
 16777215
176
     1
 74
     2
176
     1
 91
        2
176
     1
 64
     7
176
     1
 65
   257
176
     1
 75
     2
176
     1
175
     1
176
     1
 42
40.0
176
     1
 92
        0
176
     1
 66
   257
176
     1
 43
1.0
176
     1
 76
     1
176
     1
 77
     6
176
     1
 78
     2
176
     1
 67
     7
176
     1
 79
     3
176
     1
170
     0
176
     1
171
     0
176
     1
290
     0
176
     1
 93
        1
176
     1
 44
0.0
176
     1
173
     0
176
     1
  0
VISUALSTYLE
  5
30
102
{ACAD_REACTORS
330
2A
102
}
330
2A
100
AcDbVisualStyle
  2
3dWireframe
 70
     5
177
     2
291
     0
 71
     0
176
     1
 72
     2
176
     1
 73
     0
176
     1
 90
        0
176
     1
 40
-0.6
176
     1
 41
-30.0
176
     1
 62
     5
 63
     7
421
 16777215
176
     1
 74
     1
176
     1
 91
        4
176
     1
 64
     7
176
     1
 65
   257
176
     1
 75
     1
176
     1
175
     1
176
     1
 42
1.0
176
     1
 92
        0
176
     1
 66
   257
176
     1
 43
1.0
176
     1
 76
     1
176
     1
 77
     6
176
     1
 78
     2
176
     1
 67
     7
176
     1
 79
     5
176
     1
170
     0
176
     1
171
     0
176
     1
290
     0
176
     1
 93
        1
176
     1
 44
0.0
176
     1
173
     0
176
     1
  0
VISUALSTYLE
  5
32
102
{ACAD_REACTORS
330
2A
102
}
330
2A
100
AcDbVisualStyle
  2
Basic
 70
     7
177
     2
291
     1
 71
     1
176
     1
 72
     0
176
     1
 73
     1
176
     1
 90
        0
176
     1
 40
-0.6
176
     1
 41
-30.0
176
     1
 62
     5
 63
     7
421
 16777215
176
     1
 74
     0
176
     1
 91
        4
176
     1
 64
     7
176
     1
 65
   257
176
     1
 75
     1
176
     1
175
     1
176
     1
 42
1.0
176
     1
 92
        8
176
     1
 66
     7
176
     1
 43
1.0
176
     1
 76
     1
176
     1
 77
     6
176
     1
 78
     2
176
     1
 67
     7
176
     1
 79
     5
176
     1
170
     0
176
     1
171
     0
176
     1
290
     0
176
     1
 93
        1
176
     1
 44
0.0
176
     1
173
     0
176
     1
  0
VISUALSTYLE
  5
36
102
{ACAD_REACTORS
330
2A
102
}
330
2A
100
AcDbVisualStyle
  2
Brighten
 70
    12
177
     2
291
     1
 71
     2
176
     1
 72
     2
176
     1
 73
     0
176
     1
 90
        0
176
     1
 40
-0.6
176
     1
 41
-30.0
176
     1
 62
     5
 63
     7
421
 16777215
176
     1
 74
     1
176
     1
 91
        4
176
     1
 64
     7
176
     1
 65
   257
176
     1
 75
     1
176
     1
175
     1
176
     1
 42
1.0
176
     1
 92
        8
176
     1
 66
     7
176
     1
 43
1.0
176
     1
 76
     1
176
     1
 77
     6
176
     1
 78
     2
176
     1
 67
     7
176
     1
 79
     5
176
     1
170
     0
176
     1
171
     0
176
     1
290
     0
176
     1
 93
        1
176
     1
 44
50.0
176
     1
173
     0
176
     1
  0
VISUALSTYLE
  5
3A
102
{ACAD_REACTORS
330
2A
102
}
330
2A
100
AcDbVisualStyle
  2
ColorChange
 70
    16
177
     2
291
     1
 71
     2
176
     1
 72
     2
176
     1
 73
     3
176
     1
 90
        0
176
     1
 40
-0.6
176
     1
 41
-30.0
176
     1
 62
     5
 63
     8
421
  8421504
176
     1
 74
     1
176
     1
 91
        4
176
     1
 64
     7
176
     1
 65
   257
176
     1
 75
     1
176
     1
175
     1
176
     1
 42
1.0
176
     1
 92
        8
176
     1
 66
     8
424
  8421504
176
     1
 43
1.0
176
     1
 76
     1
176
     1
 77
     6
176
     1
 78
     2
176
     1
 67
     7
176
     1
 79
     5
176
     1
170
     0
176
     1
171
     0
176
     1
290
     0
176
     1
 93
        1
176
     1
 44
0.0
176
     1
173
     0
176
     1
  0
VISUALSTYLE
  5
34
102
{ACAD_REACTORS
330
2A
102
}
330
2A
100
AcDbVisualStyle
  2
Conceptual
 70
     9
177
     2
291
     0
 71
     3
176
     1
 72
     2
176
     1
 73
     0
176
     1
 90
        0
176
     1
 40
-0.6
176
     1
 41
-30.0
176
     1
 62
     5
 63
     7
421
 16777215
176
     1
 74
     2
176
     1
 91
        2
176
     1
 64
     7
176
     1
 65
   257
176
     1
 75
     1
176
     1
175
     1
176
     1
 42
40.0
176
     1
 92
        8
176
     1
 66
     7
176
     1
 43
1.0
176
     1
 76
     1
176
     1
 77
     6
176
     1
 78
     2
176
     1
 67
     7
176
     1
 79
     3
176
     1
170
     0
176
     1
171
     0
176
     1
290
     0
176
     1
 93
        1
176
     1
 44
0.0
176
     1
173
     0
176
     1
  0
VISUALSTYLE
  5
35
102
{ACAD_REACTORS
330
2A
102
}
330
2A
100
AcDbVisualStyle
  2
Dim
 70
    11
177
     2
291
     1
 71
     2
176
     1
 72
     2
176
     1
 73
     0
176
     1
 90
        0
176
     1
 40
-0.6
176
     1
 41
-30.0
176
     1
 62
     5
 63
     7
421
 16777215
176
     1
 74
     1
176
     1
 91
        4
176
     1
 64
     7
176
     1
 65
   257
176
     1
 75
     1
176
     1
175
     1
176
     1
 42
1.0
176
     1
 92
        8
176
     1
 66
     7
176
     1
 43
1.0
176
     1
 76
     1
176
     1
 77
     6
176
     1
 78
     2
176
     1
 67
     7
176
     1
 79
     5
176
     1
170
     0
176
     1
171
     0
176
     1
290
     0
176
     1
 93
        1
176
     1
 44
-50.0
176
     1
173
     0
176
     1
  0
VISUALSTYLE
  5
39
102
{ACAD_REACTORS
330
2A
102
}
330
2A
100
AcDbVisualStyle
  2
Facepattern
 70
    15
177
     2
291
     1
 71
     2
176
     1
 72
     2
176
     1
 73
     0
176
     1
 90
        0
176
     1
 40
-0.6
176
     1
 41
-30.0
176
     1
 62
     5
 63
     7
421
 16777215
176
     1
 74
     1
176
     1
 91
        4
176
     1
 64
     7
176
     1
 65
   257
176
     1
 75
     1
176
     1
175
     1
176
     1
 42
1.0
176
     1
 92
        8
176
     1
 66
     7
176
     1
 43
1.0
176
     1
 76
     1
176
     1
 77
     6
176
     1
 78
     2
176
     1
 67
     7
176
     1
 79
     5
176
     1
170
     0
176
     1
171
     0
176
     1
290
     0
176
     1
 93
        1
176
     1
 44
0.0
176
     1
173
     0
176
     1
  0
VISUALSTYLE
  5
2B
102
{ACAD_REACTORS
330
2A
102
}
330
2A
100
AcDbVisualStyle
  2
Flat
 70
     0
177
     2
291
     1
 71
     2
176
     1
 72
     1
176
     1
 73
     1
176
     1
 90
        2
176
     1
 40
-0.6
176
     1
 41
30.0
176
     1
 62
     5
 63
     7
421
 16777215
176
     1
 74
     0
176
     1
 91
        4
176
     1
 64
     7
176
     1
 65
   257
176
     1
 75
     1
176
     1
175
     1
176
     1
 42
1.0
176
     1
 92
        8
176
     1
 66
     7
176
     1
 43
1.0
176
     1
 76
     1
176
     1
 77
     6
176
     1
 78
     2
176
     1
 67
     7
176
     1
 79
     5
176
     1
170
     0
176
     1
171
     0
176
     1
290
     0
176
     1
 93
       13
176
     1
 44
0.0
176
     1
173
     0
176
     1
  0
VISUALSTYLE
  5
2C
102
{ACAD_REACTORS
330
2A
102
}
330
2A
100
AcDbVisualStyle
  2
FlatWithEdges
 70
     1
177
     2
291
     1
 71
     2
176
     1
 72
     1
176
     1
 73
     1
176
     1
 90
        2
176
     1
 40
-0.6
176
     1
 41
30.0
176
     1
 62
     5
 63
     7
421
 16777215
176
     1
 74
     1
176
     1
 91
        4
176
     1
 64
     7
176
     1
 65
   257
176
     1
 75
     1
176
     1
175
     1
176
     1
 42
1.0
176
     1
 92
        0
176
     1
 66
   257
176
     1
 43
1.0
176
     1
 76
     1
176
     1
 77
     6
176
     1
 78
     2
176
     1
 67
     7
176
     1
 79
     5
176
     1
170
     0
176
     1
171
     0
176
     1
290
     0
176
     1
 93
       13
176
     1
 44
0.0
176
     1
173
     0
176
     1
  0
VISUALSTYLE
  5
2D
102
{ACAD_REACTORS
330
2A
102
}
330
2A
100
AcDbVisualStyle
  2
Gouraud
 70
     2
177
     2
291
     1
 71
     2
176
     1
 72
     2
176
     1
 73
     1
176
     1
 90
        2
176
     1
 40
-0.6
176
     1
 41
30.0
176
     1
 62
     5
 63
     7
421
 16777215
176
     1
 74
     0
176
     1
 91
        4
176
     1
 64
     7
176
     1
 65
   257
176
     1
 75
     1
176
     1
175
     1
176
     1
 42
1.0
176
     1
 92
        0
176
     1
 66
     7
176
     1
 43
1.0
176
     1
 76
     1
176
     1
 77
     6
176
     1
 78
     2
176
     1
 67
     7
176
     1
 79
     5
176
     1
170
     0
176
     1
171
     0
176
     1
290
     0
176
     1
 93
       13
176
     1
 44
0.0
176
     1
173
     0
176
     1
  0
VISUALSTYLE
  5
2E
102
{ACAD_REACTORS
330
2A
102
}
330
2A
100
AcDbVisualStyle
  2
GouraudWithEdges
 70
     3
177
     2
291
     1
 71
     2
176
     1
 72
     2
176
     1
 73
     1
176
     1
 90
        2
176
     1
 40
-0.6
176
     1
 41
30.0
176
     1
 62
     5
 63
     7
421
 16777215
176
     1
 74
     1
176
     1
 91
        4
176
     1
 64
     7
176
     1
 65
   257
176
     1
 75
     1
176
     1
175
     1
176
     1
 42
1.0
176
     1
 92
        0
176
     1
 66
   257
176
     1
 43
1.0
176
     1
 76
     1
176
     1
 77
     6
176
     1
 78
     2
176
     1
 67
     7
176
     1
 79
     5
176
     1
170
     0
176
     1
171
     0
176
     1
290
     0
176
     1
 93
       13
176
     1
 44
0.0
176
     1
173
     0
176
     1
  0
VISUALSTYLE
  5
38
102
{ACAD_REACTORS
330
2A
102
}
330
2A
100
AcDbVisualStyle
  2
Linepattern
 70
    14
177
     2
291
     1
 71
     2
176
     1
 72
     2
176
     1
 73
     0
176
     1
 90
        0
176
     1
 40
-0.6
176
     1
 41
-30.0
176
     1
 62
     5
 63
     7
421
 16777215
176
     1
 74
     1
176
     1
 91
        4
176
     1
 64
     7
176
     1
 65
   257
176
     1
 75
     7
176
     1
175
     7
176
     1
 42
1.0
176
     1
 92
        8
176
     1
 66
     7
176
     1
 43
1.0
176
     1
 76
     1
176
     1
 77
     6
176
     1
 78
     2
176
     1
 67
     7
176
     1
 79
     5
176
     1
170
     0
176
     1
171
     0
176
     1
290
     0
176
     1
 93
        1
176
     1
 44
0.0
176
     1
173
     0
176
     1
  0
VISUALSTYLE
  5
33
102
{ACAD_REACTORS
330
2A
102
}
330
2A
100
AcDbVisualStyle
  2
Realistic
 70
     8
177
     2
291
     0
 71
     2
176
     1
 72
     2
176
     1
 73
     0
176
     1
 90
        0
176
     1
 40
-0.6
176
     1
 41
-30.0
176
     1
 62
     5
 63
     7
421
 16777215
176
     1
 74
     1
176
     1
 91
        0
176
     1
 64
     7
176
     1
 65
   257
176
     1
 75
     1
176
     1
175
     1
176
     1
 42
1.0
176
     1
 92
        8
176
     1
 66
     8
424
  7895160
176
     1
 43
1.0
176
     1
 76
     1
176
     1
 77
     6
176
     1
 78
     2
176
     1
 67
     7
176
     1
 79
     5
176
     1
170
     0
176
     1
171
     0
176
     1
290
     0
176
     1
 93
       13
176
     1
 44
0.0
176
     1
173
     0
176
     1
  0
VISUALSTYLE
  5
37
102
{ACAD_REACTORS
330
2A
102
}
330
2A
100
AcDbVisualStyle
  2
Thicken
 70
    13
177
     2
291
     1
 71
     2
176
     1
 72
     2
176
     1
 73
     0
176
     1
 90
        0
176
     1
 40
-0.6
176
     1
 41
-30.0
176
     1
 62
     5
 63
     7
421
 16777215
176
     1
 74
     1
176
     1
 91
        4
176
     1
 64
     7
176
     1
 65
   257
176
     1
 75
     1
176
     1
175
     1
176
     1
 42
1.0
176
     1
 92
       12
176
     1
 66
     7
176
     1
 43
1.0
176
     1
 76
     1
176
     1
 77
     6
176
     1
 78
     2
176
     1
 67
     7
176
     1
 79
     5
176
     1
170
     0
176
     1
171
     0
176
     1
290
     0
176
     1
 93
        1
176
     1
 44
0.0
176
     1
173
     0
176
     1
  0
ENDSEC
  0
EOF
