  0
SECTION
  2
HEADER
  9
$ACADVER
  1
AC1024
  9
$ACADMAINTVER
 70
     6
  9
$DWGCODEPAGE
  3
UNDEFINED
  9
$INSBASE
 10
0.0
 20
0.0
 30
0.0
  9
$EXTMIN
 10
1.000000000000000E+20
 20
1.000000000000000E+20
 30
1.000000000000000E+20
  9
$EXTMAX
 10
-1.000000000000000E+20
 20
-1.000000000000000E+20
 30
-1.000000000000000E+20
  9
$LIMMIN
 10
0.0
 20
0.0
  9
$LIMMAX
 10
12.0
 20
9.0
  9
$ORTHOMODE
 70
     0
  9
$REGENMODE
 70
     1
  9
$FILLMODE
 70
     1
  9
$QTEXTMODE
 70
     0
  9
$MIRRTEXT
 70
     1
  9
$LTSCALE
 40
1.0
  9
$ATTMODE
 70
     1
  9
$TEXTSIZE
 40
0.2
  9
$TRACEWID
 40
0.05
  9
$TEXTSTYLE
  7
Standard
  9
$CLAYER
  8
0
  9
$CELTYPE
  6
ByLayer
  9
$CECOLOR
 62
   256
  9
$CELTSCALE
 40
1.0
  9
$DISPSILH
 70
     0
  9
$DIMSCALE
 40
1.0
  9
$DIMASZ
 40
0.18
  9
$DIMEXO
 40
0.0625
  9
$DIMDLI
 40
0.38
  9
$DIMRND
 40
0.0
  9
$DIMDLE
 40
0.0
  9
$DIMEXE
 40
0.18
  9
$DIMTP
 40
0.0
  9
$DIMTM
 40
0.0
  9
$DIMTXT
 40
0.18
  9
$DIMCEN
 40
0.09
  9
$DIMTSZ
 40
0.0
  9
$DIMTOL
 70
     0
  9
$DIMLIM
 70
     0
  9
$DIMTIH
 70
     1
  9
$DIMTOH
 70
     1
  9
$DIMSE1
 70
     0
  9
$DIMSE2
 70
     0
  9
$DIMTAD
 70
     0
  9
$DIMZIN
 70
     0
  9
$DIMBLK
  1

  9
$DIMASO
 70
     1
  9
$DIMSHO
 70
     1
  9
$DIMPOST
  1

  9
$DIMAPOST
  1

  9
$DIMALT
 70
     0
  9
$DIMALTD
 70
     2
  9
$DIMALTF
 40
25.4
  9
$DIMLFAC
 40
1.0
  9
$DIMTOFL
 70
     0
  9
$DIMTVP
 40
0.0
  9
$DIMTIX
 70
     0
  9
$DIMSOXD
 70
     0
  9
$DIMSAH
 70
     0
  9
$DIMBLK1
  1

  9
$DIMBLK2
  1

  9
$DIMSTYLE
  2
Standard
  9
$DIMCLRD
 70
     0
  9
$DIMCLRE
 70
     0
  9
$DIMCLRT
 70
     0
  9
$DIMTFAC
 40
1.0
  9
$DIMGAP
 40
0.09
  9
$DIMJUST
 70
     0
  9
$DIMSD1
 70
     0
  9
$DIMSD2
 70
     0
  9
$DIMTOLJ
 70
     1
  9
$DIMTZIN
 70
     0
  9
$DIMALTZ
 70
     0
  9
$DIMALTTZ
 70
     0
  9
$DIMUPT
 70
     0
  9
$DIMDEC
 70
     4
  9
$DIMTDEC
 70
     4
  9
$DIMALTU
 70
     2
  9
$DIMALTTD
 70
     2
  9
$DIMTXSTY
  7
Standard
  9
$DIMAUNIT
 70
     0
  9
$DIMADEC
 70
     0
  9
$DIMALTRND
 40
0.0
  9
$DIMAZIN
 70
     0
  9
$DIMDSEP
 70
    46
  9
$DIMATFIT
 70
     3
  9
$DIMFRAC
 70
     0
  9
$DIMLDRBLK
  1

  9
$DIMLUNIT
 70
     2
  9
$DIMLWD
 70
    -2
  9
$DIMLWE
 70
    -2
  9
$DIMTMOVE
 70
     0
  9
$DIMFXL
 40
1.0
  9
$DIMFXLON
 70
     0
  9
$DIMJOGANG
 40
0.7853981633974483
  9
$DIMTFILL
 70
     0
  9
$DIMTFILLCLR
 70
     0
  9
$DIMARCSYM
 70
     0
  9
$DIMLTYPE
  6

  9
$DIMLTEX1
  6

  9
$DIMLTEX2
  6

  9
$DIMTXTDIRECTION
 70
     0
  9
$LUNITS
 70
     2
  9
$LUPREC
 70
     4
  9
$SKETCHINC
 40
0.1
  9
$FILLETRAD
 40
0.5
  9
$AUNITS
 70
     0
  9
$AUPREC
 70
     0
  9
$MENU
  1
.
  9
$ELEVATION
 40
0.0
  9
$PELEVATION
 40
0.0
  9
$THICKNESS
 40
0.0
  9
$LIMCHECK
 70
     0
  9
$CHAMFERA
 40
0.5
  9
$CHAMFERB
 40
0.5
  9
$CHAMFERC
 40
1.0
  9
$CHAMFERD
 40
0.0
  9
$SKPOLY
 70
     0
  9
$TDCREATE
 40
2458270.589189815
  9
$TDUCREATE
 40
2458270.214189815
  9
$TDUPDATE
 40
2458270.589189815
  9
$TDUUPDATE
 40
2458270.214189815
  9
$TDINDWG
 40
0.0000000116
  9
$TDUSRTIMER
 40
0.0000000116
  9
$USRTIMER
 70
     1
  9
$ANGBASE
 50
0.0
  9
$ANGDIR
 70
     0
  9
$PDMODE
 70
     0
  9
$PDSIZE
 40
0.0
  9
$PLINEWID
 40
0.0
  9
$SPLFRAME
 70
     0
  9
$SPLINETYPE
 70
     6
  9
$SPLINESEGS
 70
     8
  9
$HANDSEED
  5
CE
  9
$SURFTAB1
 70
     6
  9
$SURFTAB2
 70
     6
  9
$SURFTYPE
 70
     6
  9
$SURFU
 70
     6
  9
$SURFV
 70
     6
  9
$UCSBASE
  2

  9
$UCSNAME
  2

  9
$UCSORG
 10
0.0
 20
0.0
 30
0.0
  9
$UCSXDIR
 10
1.0
 20
0.0
 30
0.0
  9
$UCSYDIR
 10
0.0
 20
1.0
 30
0.0
  9
$UCSORTHOREF
  2

  9
$UCSORTHOVIEW
 70
     0
  9
$UCSORGTOP
 10
0.0
 20
0.0
 30
0.0
  9
$UCSORGBOTTOM
 10
0.0
 20
0.0
 30
0.0
  9
$UCSORGLEFT
 10
0.0
 20
0.0
 30
0.0
  9
$UCSORGRIGHT
 10
0.0
 20
0.0
 30
0.0
  9
$UCSORGFRONT
 10
0.0
 20
0.0
 30
0.0
  9
$UCSORGBACK
 10
0.0
 20
0.0
 30
0.0
  9
$PUCSBASE
  2

  9
$PUCSNAME
  2

  9
$PUCSORG
 10
0.0
 20
0.0
 30
0.0
  9
$PUCSXDIR
 10
1.0
 20
0.0
 30
0.0
  9
$PUCSYDIR
 10
0.0
 20
1.0
 30
0.0
  9
$PUCSORTHOREF
  2

  9
$PUCSORTHOVIEW
 70
     0
  9
$PUCSORGTOP
 10
0.0
 20
0.0
 30
0.0
  9
$PUCSORGBOTTOM
 10
0.0
 20
0.0
 30
0.0
  9
$PUCSORGLEFT
 10
0.0
 20
0.0
 30
0.0
  9
$PUCSORGRIGHT
 10
0.0
 20
0.0
 30
0.0
  9
$PUCSORGFRONT
 10
0.0
 20
0.0
 30
0.0
  9
$PUCSORGBACK
 10
0.0
 20
0.0
 30
0.0
  9
$USERI1
 70
     0
  9
$USERI2
 70
     0
  9
$USERI3
 70
     0
  9
$USERI4
 70
     0
  9
$USERI5
 70
     0
  9
$USERR1
 40
0.0
  9
$USERR2
 40
0.0
  9
$USERR3
 40
0.0
  9
$USERR4
 40
0.0
  9
$USERR5
 40
0.0
  9
$WORLDVIEW
 70
     1
  9
$SHADEDGE
 70
     3
  9
$SHADEDIF
 70
    70
  9
$TILEMODE
 70
     1
  9
$MAXACTVP
 70
    64
  9
$PINSBASE
 10
0.0
 20
0.0
 30
0.0
  9
$PLIMCHECK
 70
     0
  9
$PEXTMIN
 10
1.000000000000000E+20
 20
1.000000000000000E+20
 30
1.000000000000000E+20
  9
$PEXTMAX
 10
-1.000000000000000E+20
 20
-1.000000000000000E+20
 30
-1.000000000000000E+20
  9
$PLIMMIN
 10
0.0
 20
0.0
  9
$PLIMMAX
 10
12.0
 20
9.0
  9
$UNITMODE
 70
     0
  9
$VISRETAIN
 70
     1
  9
$PLINEGEN
 70
     0
  9
$PSLTSCALE
 70
     1
  9
$TREEDEPTH
 70
  3020
  9
$CMLSTYLE
  2
Standard
  9
$CMLJUST
 70
     0
  9
$CMLSCALE
 40
1.0
  9
$PROXYGRAPHICS
 70
     1
  9
$MEASUREMENT
 70
     0
  9
$CELWEIGHT
370
    -1
  9
$ENDCAPS
280
     0
  9
$JOINSTYLE
280
     0
  9
$LWDISPLAY
290
     1
  9
$INSUNITS
 70
     1
  9
$HYPERLINKBASE
  1

  9
$STYLESHEET
  1

  9
$XEDIT
290
     1
  9
$CEPSNTYPE
380
     0
  9
$PSTYLEMODE
290
     1
  9
$FINGERPRINTGUID
  2
{46E599FE-3AF0-FEB8-127D-94D4A4FB2EF7}
  9
$VERSIONGUID
  2
{FAEB1C32-E019-11D5-929B-00C0DF256EC4}
  9
$EXTNAMES
290
     1
  9
$PSVPSCALE
 40
0.0
  9
$OLESTARTUP
290
     0
  9
$SORTENTS
280
   127
  9
$INDEXCTL
280
     0
  9
$HIDETEXT
280
     1
  9
$XCLIPFRAME
280
     2
  9
$HALOGAP
280
     0
  9
$OBSCOLOR
 70
   257
  9
$OBSLTYPE
280
     0
  9
$INTERSECTIONDISPLAY
280
     0
  9
$INTERSECTIONCOLOR
 70
   257
  9
$DIMASSOC
280
     2
  9
$PROJECTNAME
  1

  9
$CAMERADISPLAY
290
     0
  9
$LENSLENGTH
 40
50.0
  9
$CAMERAHEIGHT
 40
0.0
  9
$STEPSPERSEC
 40
2.0
  9
$STEPSIZE
 40
6.0
  9
$3DDWFPREC
 40
2.0
  9
$PSOLWIDTH
 40
0.25
  9
$PSOLHEIGHT
 40
4.0
  9
$LOFTANG1
 40
1.570796326794897
  9
$LOFTANG2
 40
1.570796326794897
  9
$LOFTMAG1
 40
0.0
  9
$LOFTMAG2
 40
0.0
  9
$LOFTPARAM
 70
     7
  9
$LOFTNORMALS
280
     1
  9
$LATITUDE
 40
37.795
  9
$LONGITUDE
 40
-122.394
  9
$NORTHDIRECTION
 40
0.0
  9
$TIMEZONE
 70
 -8000
  9
$LIGHTGLYPHDISPLAY
280
     1
  9
$TILEMODELIGHTSYNCH
280
     1
  9
$CMATERIAL
347
3C
  9
$SOLIDHIST
280
     1
  9
$SHOWHIST
280
     1
  9
$DWFFRAME
280
     2
  9
$DGNFRAME
280
     2
  9
$REALWORLDSCALE
290
     1
  9
$INTERFERECOLOR
 62
   256
  9
$CSHADOW
280
     0
  9
$SHADOWPLANELOCATION
 40
0.0
  0
ENDSEC
  0
SECTION
  2
CLASSES
  0
CLASS
  1
ACDBDICTIONARYWDFLT
  2
AcDbDictionaryWithDefault
  3
ObjectDBX Classes
 90
        0
 91
        4
280
     0
281
     0
  0
CLASS
  1
VISUALSTYLE
  2
AcDbVisualStyle
  3
ObjectDBX Classes
 90
     4095
 91
        4
280
     0
281
     0
  0
CLASS
  1
MATERIAL
  2
AcDbMaterial
  3
ObjectDBX Classes
 90
     1153
 91
        4
280
     0
281
     0
  0
CLASS
  1
SUN
  2
AcDbSun
  3
SCENEOE
 90
     1024
 91
        4
280
     0
281
     0
  0
ENDSEC
  0
SECTION
  2
TABLES
  0
TABLE
  2
VPORT
  5
8
330
0
100
AcDbSymbolTable
 70
     1
  0
VPORT
  5
29
330
8
100
AcDbSymbolTableRecord
100
AcDbViewportTableRecord
  2
*Active
 70
     0
 10
0.0
 20
0.0
 11
1.0
 21
1.0
 12
0.0
 22
0.0
 13
0.0
 23
0.0
 14
0.5
 24
0.5
 15
0.5
 25
0.5
 16
0.0
 26
0.0
 36
1.0
 17
105.0007777515277
 27
-148.5000416295416
 37
0.0
 40
297.0000832590831
 41
0.7070757462376333
 42
50.0
 43
0.0
 44
0.0
 50
0.0
 51
0.0
 71
     0
 72
   100
 73
     1
 74
     3
 75
     0
 76
     0
 77
     0
 78
     0
281
     0
 65
     1
110
0.0
120
0.0
130
0.0
111
1.0
121
0.0
131
0.0
112
0.0
122
1.0
132
0.0
 79
     0
146
0.0
 60
     3
 61
     5
292
     1
282
     1
141
0.0
142
0.0
 63
   250
361
3F
  0
ENDTAB
  0
TABLE
  2
LTYPE
  5
5
330
0
100
AcDbSymbolTable
 70
     1
  0
LTYPE
  5
14
330
5
100
AcDbSymbolTableRecord
100
AcDbLinetypeTableRecord
  2
ByBlock
 70
     0
  3

 72
    65
 73
     0
 40
0.0
  0
LTYPE
  5
15
330
5
100
AcDbSymbolTableRecord
100
AcDbLinetypeTableRecord
  2
ByLayer
 70
     0
  3

 72
    65
 73
     0
 40
0.0
  0
LTYPE
  5
16
330
5
100
AcDbSymbolTableRecord
100
AcDbLinetypeTableRecord
  2
Continuous
 70
     0
  3
Solid line
 72
    65
 73
     0
 40
0.0
  0
ENDTAB
  0
TABLE
  2
LAYER
  5
2
330
0
100
AcDbSymbolTable
 70
     2
  0
LAYER
  5
10
330
2
100
AcDbSymbolTableRecord
100
AcDbLayerTableRecord
  2
0
 70
     0
 62
     7
  6
Continuous
370
    -3
390
F
347
3E
  0
LAYER
  5
40
330
2
100
AcDbSymbolTableRecord
100
AcDbLayerTableRecord
  2
_U+30EC_U+30A4_U+30E4_U+30FC 1
 70
     0
 62
     7
  6
Continuous
370
    -3
390
F
347
3E
  0
ENDTAB
  0
TABLE
  2
STYLE
  5
3
330
0
100
AcDbSymbolTable
 70
     1
  0
STYLE
  5
11
330
3
100
AcDbSymbolTableRecord
100
AcDbTextStyleTableRecord
  2
Standard
 70
     0
 40
0.0
 41
1.0
 50
0.0
 71
     0
 42
0.2
  3
txt
  4

  0
ENDTAB
  0
TABLE
  2
VIEW
  5
6
330
0
100
AcDbSymbolTable
 70
     0
  0
ENDTAB
  0
TABLE
  2
UCS
  5
7
330
0
100
AcDbSymbolTable
 70
     0
  0
ENDTAB
  0
TABLE
  2
APPID
  5
9
330
0
100
AcDbSymbolTable
 70
     1
  0
APPID
  5
12
330
9
100
AcDbSymbolTableRecord
100
AcDbRegAppTableRecord
  2
ACAD
 70
     0
  0
ENDTAB
  0
TABLE
  2
DIMSTYLE
  5
A
330
0
100
AcDbSymbolTable
 70
     1
100
AcDbDimStyleTable
  0
DIMSTYLE
105
27
330
A
100
AcDbSymbolTableRecord
100
AcDbDimStyleTableRecord
  2
Standard
 70
     0
178
     0
340
11
  0
ENDTAB
  0
TABLE
  2
BLOCK_RECORD
  5
1
330
0
100
AcDbSymbolTable
 70
     7
  0
BLOCK_RECORD
  5
1F
330
1
100
AcDbSymbolTableRecord
100
AcDbBlockTableRecord
  2
*Model_Space
340
22
 70
     0
280
     1
281
     0
  0
BLOCK_RECORD
  5
1B
330
1
100
AcDbSymbolTableRecord
100
AcDbBlockTableRecord
  2
*Paper_Space
340
1E
 70
     0
280
     1
281
     0
  0
BLOCK_RECORD
  5
23
330
1
100
AcDbSymbolTableRecord
100
AcDbBlockTableRecord
  2
*Paper_Space0
340
26
 70
     0
280
     1
281
     0
  0
BLOCK_RECORD
  5
41
330
1
100
AcDbSymbolTableRecord
100
AcDbBlockTableRecord
  2
block 2
340
0
102
{BLKREFS
331
42
102
}
 70
     0
280
     1
281
     0
  0
BLOCK_RECORD
  5
55
330
1
100
AcDbSymbolTableRecord
100
AcDbBlockTableRecord
  2
block 3
340
0
102
{BLKREFS
331
56
102
}
 70
     0
280
     1
281
     0
  0
BLOCK_RECORD
  5
65
330
1
100
AcDbSymbolTableRecord
100
AcDbBlockTableRecord
  2
block 4
340
0
102
{BLKREFS
331
66
102
}
 70
     0
280
     1
281
     0
  0
BLOCK_RECORD
  5
7A
330
1
100
AcDbSymbolTableRecord
100
AcDbBlockTableRecord
  2
block 5
340
0
102
{BLKREFS
331
7B
102
}
 70
     0
280
     1
281
     0
  0
BLOCK_RECORD
  5
94
330
1
100
AcDbSymbolTableRecord
100
AcDbBlockTableRecord
  2
block 6
340
0
102
{BLKREFS
331
95
102
}
 70
     0
280
     1
281
     0
  0
BLOCK_RECORD
  5
B6
330
1
100
AcDbSymbolTableRecord
100
AcDbBlockTableRecord
  2
block 7
340
0
102
{BLKREFS
331
B7
102
}
 70
     0
280
     1
281
     0
  0
ENDTAB
  0
ENDSEC
  0
SECTION
  2
BLOCKS
  0
BLOCK
  5
20
330
1F
100
AcDbEntity
  8
0
100
AcDbBlockBegin
  2
*Model_Space
 70
     0
 10
0.0
 20
0.0
 30
0.0
  3
*Model_Space
  1

  0
ENDBLK
  5
21
330
1F
100
AcDbEntity
  8
0
100
AcDbBlockEnd
  0
BLOCK
  5
1C
330
1B
100
AcDbEntity
 67
     1
  8
0
100
AcDbBlockBegin
  2
*Paper_Space
 70
     0
 10
0.0
 20
0.0
 30
0.0
  3
*Paper_Space
  1

  0
ENDBLK
  5
1D
330
1B
100
AcDbEntity
 67
     1
  8
0
100
AcDbBlockEnd
  0
BLOCK
  5
24
330
23
100
AcDbEntity
  8
0
100
AcDbBlockBegin
  2
*Paper_Space0
 70
     0
 10
0.0
 20
0.0
 30
0.0
  3
*Paper_Space0
  1

  0
ENDBLK
  5
25
330
23
100
AcDbEntity
  8
0
100
AcDbBlockEnd
  0
BLOCK
  5
43
330
41
100
AcDbEntity
  8
0
100
AcDbBlockBegin
  2
block 2
 70
     0
 10
0.0
 20
0.0
 30
0.0
  3
block 2
  1

  0
POLYLINE
  5
45
330
41
100
AcDbEntity
  8
_U+30EC_U+30A4_U+30E4_U+30FC 1
 62
   179
420
  2234388
370
     5
100
AcDb2dPolyline
 66
     1
 10
0.0
 20
0.0
 30
0.0
  0
VERTEX
  5
46
330
45
100
AcDbEntity
  8
_U+30EC_U+30A4_U+30E4_U+30FC 1
 62
   179
420
  2234388
370
     5
100
AcDbVertex
100
AcDb2dVertex
 10
107.9924287846336
 20
-165.6707327968133
 30
0.0
  0
VERTEX
  5
47
330
45
100
AcDbEntity
  8
_U+30EC_U+30A4_U+30E4_U+30FC 1
 62
   179
420
  2234388
370
     5
100
AcDbVertex
100
AcDb2dVertex
 10
109.6642054322469
 20
-165.6707327968133
 30
0.0
  0
SEQEND
  5
48
330
45
100
AcDbEntity
  8
_U+30EC_U+30A4_U+30E4_U+30FC 1
 62
   179
420
  2234388
370
     5
  0
POLYLINE
  5
49
330
41
100
AcDbEntity
  8
_U+30EC_U+30A4_U+30E4_U+30FC 1
 62
   179
420
  2234388
370
     5
100
AcDb2dPolyline
 66
     1
 10
0.0
 20
0.0
 30
0.0
  0
VERTEX
  5
4A
330
49
100
AcDbEntity
  8
_U+30EC_U+30A4_U+30E4_U+30FC 1
 62
   179
420
  2234388
370
     5
100
AcDbVertex
100
AcDb2dVertex
 10
101.5026085053398
 20
-133.0013747664446
 30
0.0
  0
VERTEX
  5
4B
330
49
100
AcDbEntity
  8
_U+30EC_U+30A4_U+30E4_U+30FC 1
 62
   179
420
  2234388
370
     5
100
AcDbVertex
100
AcDb2dVertex
 10
109.6642651319085
 20
-133.0013747664446
 30
0.0
  0
SEQEND
  5
4C
330
49
100
AcDbEntity
  8
_U+30EC_U+30A4_U+30E4_U+30FC 1
 62
   179
420
  2234388
370
     5
  0
POLYLINE
  5
4D
330
41
100
AcDbEntity
  8
_U+30EC_U+30A4_U+30E4_U+30FC 1
 62
   179
420
  2234388
370
     5
100
AcDb2dPolyline
 66
     1
 10
0.0
 20
0.0
 30
0.0
  0
VERTEX
  5
4E
330
4D
100
AcDbEntity
  8
_U+30EC_U+30A4_U+30E4_U+30FC 1
 62
   179
420
  2234388
370
     5
100
AcDbVertex
100
AcDb2dVertex
 10
100.779582391811
 20
-131.6588768700696
 30
0.0
  0
VERTEX
  5
4F
330
4D
100
AcDbEntity
  8
_U+30EC_U+30A4_U+30E4_U+30FC 1
 62
   179
420
  2234388
370
     5
100
AcDbVertex
100
AcDb2dVertex
 10
101.2789981551546
 20
-131.6588768700696
 30
0.0
  0
SEQEND
  5
50
330
4D
100
AcDbEntity
  8
_U+30EC_U+30A4_U+30E4_U+30FC 1
 62
   179
420
  2234388
370
     5
  0
POLYLINE
  5
51
330
41
100
AcDbEntity
  8
_U+30EC_U+30A4_U+30E4_U+30FC 1
 62
   179
420
  2234388
370
     5
100
AcDb2dPolyline
 66
     1
 10
0.0
 20
0.0
 30
0.0
  0
VERTEX
  5
52
330
51
100
AcDbEntity
  8
_U+30EC_U+30A4_U+30E4_U+30FC 1
 62
   179
420
  2234388
370
     5
100
AcDbVertex
100
AcDb2dVertex
 10
101.2688597479153
 20
-131.6588768700696
 30
0.0
  0
VERTEX
  5
53
330
51
100
AcDbEntity
  8
_U+30EC_U+30A4_U+30E4_U+30FC 1
 62
   179
420
  2234388
370
     5
100
AcDbVertex
100
AcDb2dVertex
 10
107.7926842521139
 20
-131.6588768700696
 30
0.0
  0
SEQEND
  5
54
330
51
100
AcDbEntity
  8
_U+30EC_U+30A4_U+30E4_U+30FC 1
 62
   179
420
  2234388
370
     5
  0
INSERT
  5
56
330
41
100
AcDbEntity
  8
_U+30EC_U+30A4_U+30E4_U+30FC 1
100
AcDbBlockReference
  2
block 3
 10
0.0
 20
0.0
 30
0.0
  0
INSERT
  5
66
330
41
100
AcDbEntity
  8
_U+30EC_U+30A4_U+30E4_U+30FC 1
100
AcDbBlockReference
  2
block 4
 10
0.0
 20
0.0
 30
0.0
  0
POLYLINE
  5
6E
330
41
100
AcDbEntity
  8
_U+30EC_U+30A4_U+30E4_U+30FC 1
 62
   179
420
  2234388
370
     5
100
AcDb2dPolyline
 66
     1
 10
0.0
 20
0.0
 30
0.0
  0
VERTEX
  5
6F
330
6E
100
AcDbEntity
  8
_U+30EC_U+30A4_U+30E4_U+30FC 1
 62
   179
420
  2234388
370
     5
100
AcDbVertex
100
AcDb2dVertex
 10
100.779582391811
 20
-131.254948959602
 30
0.0
  0
VERTEX
  5
70
330
6E
100
AcDbEntity
  8
_U+30EC_U+30A4_U+30E4_U+30FC 1
 62
   179
420
  2234388
370
     5
100
AcDbVertex
100
AcDb2dVertex
 10
100.779582391811
 20
-132.6985429652995
 30
0.0
  0
SEQEND
  5
71
330
6E
100
AcDbEntity
  8
_U+30EC_U+30A4_U+30E4_U+30FC 1
 62
   179
420
  2234388
370
     5
  0
POLYLINE
  5
72
330
41
100
AcDbEntity
  8
_U+30EC_U+30A4_U+30E4_U+30FC 1
 62
   179
420
  2234388
370
     5
100
AcDb2dPolyline
 66
     1
 10
0.0
 20
0.0
 30
0.0
  0
VERTEX
  5
73
330
72
100
AcDbEntity
  8
_U+30EC_U+30A4_U+30E4_U+30FC 1
 62
   179
420
  2234388
370
     5
100
AcDbVertex
100
AcDb2dVertex
 10
101.2792053480978
 20
-131.254948959602
 30
0.0
  0
VERTEX
  5
74
330
72
100
AcDbEntity
  8
_U+30EC_U+30A4_U+30E4_U+30FC 1
 62
   179
420
  2234388
370
     5
100
AcDbVertex
100
AcDb2dVertex
 10
101.2792053480978
 20
-132.6985429652995
 30
0.0
  0
SEQEND
  5
75
330
72
100
AcDbEntity
  8
_U+30EC_U+30A4_U+30E4_U+30FC 1
 62
   179
420
  2234388
370
     5
  0
POLYLINE
  5
76
330
41
100
AcDbEntity
  8
_U+30EC_U+30A4_U+30E4_U+30FC 1
 62
   179
420
  2234388
370
     5
100
AcDb2dPolyline
 66
     1
 10
0.0
 20
0.0
 30
0.0
  0
VERTEX
  5
77
330
76
100
AcDbEntity
  8
_U+30EC_U+30A4_U+30E4_U+30FC 1
 62
   179
420
  2234388
370
     5
100
AcDbVertex
100
AcDb2dVertex
 10
109.1455172134369
 20
-133.0013747664446
 30
0.0
  0
VERTEX
  5
78
330
76
100
AcDbEntity
  8
_U+30EC_U+30A4_U+30E4_U+30FC 1
 62
   179
420
  2234388
370
     5
100
AcDbVertex
100
AcDb2dVertex
 10
109.1455172134369
 20
-165.6706730971517
 30
0.0
  0
SEQEND
  5
79
330
76
100
AcDbEntity
  8
_U+30EC_U+30A4_U+30E4_U+30FC 1
 62
   179
420
  2234388
370
     5
  0
INSERT
  5
7B
330
41
100
AcDbEntity
  8
_U+30EC_U+30A4_U+30E4_U+30FC 1
100
AcDbBlockReference
  2
block 5
 10
0.0
 20
0.0
 30
0.0
  0
SPLINE
  5
86
330
41
100
AcDbEntity
  8
_U+30EC_U+30A4_U+30E4_U+30FC 1
370
     0
100
AcDbSpline
210
0.0
220
0.0
230
1.0
 70
    11
 71
     3
 72
    17
 73
    13
 74
     0
 42
0.0000000001
 43
0.0000000001
 12
1.0
 22
0.0
 32
0.0
 13
1.0
 23
0.0
 33
0.0
 40
0.0
 40
0.0
 40
0.0
 40
0.0
 40
1.0
 40
1.0
 40
1.0
 40
2.0
 40
2.0
 40
2.0
 40
3.0
 40
3.0
 40
3.0
 40
4.0
 40
4.0
 40
4.0
 40
4.0
 10
100.8285817670154
 20
-131.6588417526215
 30
0.0
 10
100.8285817670154
 20
-131.6858892110765
 30
0.0
 10
100.8068300197198
 20
-131.7078657100394
 30
0.0
 10
100.7795578095975
 20
-131.7078657100394
 30
0.0
 10
100.7526332622105
 20
-131.7078657100394
 30
0.0
 10
100.7307691390811
 20
-131.6858892110765
 30
0.0
 10
100.7307691390811
 20
-131.6588417526215
 30
0.0
 10
100.7307691390811
 20
-131.6319207169794
 30
0.0
 10
100.7526332622105
 20
-131.6099371945268
 30
0.0
 10
100.7795578095975
 20
-131.6099371945268
 30
0.0
 10
100.8068300197198
 20
-131.6099371945268
 30
0.0
 10
100.8285817670154
 20
-131.6319207169794
 30
0.0
 10
100.8285817670154
 20
-131.6588417526215
 30
0.0
  0
HATCH
  5
87
330
41
100
AcDbEntity
  8
_U+30EC_U+30A4_U+30E4_U+30FC 1
 62
   179
420
  2234388
100
AcDbHatch
 10
0.0
 20
0.0
 30
0.0
210
0.0
220
0.0
230
1.0
  2
SOLID
 70
     1
 71
     0
 91
        1
 92
        1
 93
        2
 72
     4
 94
        3
 73
     0
 74
     0
 95
       17
 96
       13
 40
0.0
 40
0.0
 40
0.0
 40
0.0
 40
0.3527777776895833
 40
0.3527777776895833
 40
0.3527777776895833
 40
0.7055555553791667
 40
0.7055555553791667
 40
0.7055555553791667
 40
1.05833333306875
 40
1.05833333306875
 40
1.05833333306875
 40
1.411111110758333
 40
1.411111110758333
 40
1.411111110758333
 40
1.411111110758333
 10
100.8285817670154
 20
-131.6588417526215
 10
100.8285817670154
 20
-131.6858892110765
 10
100.8068300197198
 20
-131.7078657100394
 10
100.7795578095975
 20
-131.7078657100394
 10
100.7526332622105
 20
-131.7078657100394
 10
100.7307691390811
 20
-131.6858892110765
 10
100.7307691390811
 20
-131.6588417526215
 10
100.7307691390811
 20
-131.6319207169794
 10
100.7526332622105
 20
-131.6099371945268
 10
100.7795578095975
 20
-131.6099371945268
 10
100.8068300197198
 20
-131.6099371945268
 10
100.8285817670154
 20
-131.6319207169794
 10
100.8285817670154
 20
-131.6588417526215
 97
        0
 72
     1
 10
100.8285817670154
 20
-131.6588417526215
 11
100.8285817670154
 21
-131.6588417526215
 97
        0
 75
     2
 76
     1
 98
        0
  0
SPLINE
  5
88
330
41
100
AcDbEntity
  8
_U+30EC_U+30A4_U+30E4_U+30FC 1
370
     0
100
AcDbSpline
210
0.0
220
0.0
230
1.0
 70
    11
 71
     3
 72
    17
 73
    13
 74
     0
 42
0.0000000001
 43
0.0000000001
 12
1.0
 22
0.0
 32
0.0
 13
1.0
 23
0.0
 33
0.0
 40
0.0
 40
0.0
 40
0.0
 40
0.0
 40
1.0
 40
1.0
 40
1.0
 40
2.0
 40
2.0
 40
2.0
 40
3.0
 40
3.0
 40
3.0
 40
4.0
 40
4.0
 40
4.0
 40
4.0
 10
101.3279729481455
 20
-131.6588417526215
 30
0.0
 10
101.3279729481455
 20
-131.6858892110765
 30
0.0
 10
101.3062212008499
 20
-131.7078657100394
 30
0.0
 10
101.2789489907276
 20
-131.7078657100394
 30
0.0
 10
101.2520244433403
 20
-131.7078657100394
 30
0.0
 10
101.2301603202112
 20
-131.6858892110765
 30
0.0
 10
101.2301603202112
 20
-131.6588417526215
 30
0.0
 10
101.2301603202112
 20
-131.6319207169794
 30
0.0
 10
101.2520244433403
 20
-131.6099371945268
 30
0.0
 10
101.2789489907276
 20
-131.6099371945268
 30
0.0
 10
101.3062212008499
 20
-131.6099371945268
 30
0.0
 10
101.3279729481455
 20
-131.6319207169794
 30
0.0
 10
101.3279729481455
 20
-131.6588417526215
 30
0.0
  0
HATCH
  5
89
330
41
100
AcDbEntity
  8
_U+30EC_U+30A4_U+30E4_U+30FC 1
 62
   179
420
  2234388
100
AcDbHatch
 10
0.0
 20
0.0
 30
0.0
210
0.0
220
0.0
230
1.0
  2
SOLID
 70
     1
 71
     0
 91
        1
 92
        1
 93
        2
 72
     4
 94
        3
 73
     0
 74
     0
 95
       17
 96
       13
 40
0.0
 40
0.0
 40
0.0
 40
0.0
 40
0.3527777776895833
 40
0.3527777776895833
 40
0.3527777776895833
 40
0.7055555553791667
 40
0.7055555553791667
 40
0.7055555553791667
 40
1.05833333306875
 40
1.05833333306875
 40
1.05833333306875
 40
1.411111110758333
 40
1.411111110758333
 40
1.411111110758333
 40
1.411111110758333
 10
101.3279729481455
 20
-131.6588417526215
 10
101.3279729481455
 20
-131.6858892110765
 10
101.3062212008499
 20
-131.7078657100394
 10
101.2789489907276
 20
-131.7078657100394
 10
101.2520244433403
 20
-131.7078657100394
 10
101.2301603202112
 20
-131.6858892110765
 10
101.2301603202112
 20
-131.6588417526215
 10
101.2301603202112
 20
-131.6319207169794
 10
101.2520244433403
 20
-131.6099371945268
 10
101.2789489907276
 20
-131.6099371945268
 10
101.3062212008499
 20
-131.6099371945268
 10
101.3279729481455
 20
-131.6319207169794
 10
101.3279729481455
 20
-131.6588417526215
 97
        0
 72
     1
 10
101.3279729481455
 20
-131.6588417526215
 11
101.3279729481455
 21
-131.6588417526215
 97
        0
 75
     2
 76
     1
 98
        0
  0
SPLINE
  5
8A
330
41
100
AcDbEntity
  8
_U+30EC_U+30A4_U+30E4_U+30FC 1
370
     0
100
AcDbSpline
210
0.0
220
0.0
230
1.0
 70
    11
 71
     3
 72
    17
 73
    13
 74
     0
 42
0.0000000001
 43
0.0000000001
 12
1.0
 22
0.0
 32
0.0
 13
1.0
 23
0.0
 33
0.0
 40
0.0
 40
0.0
 40
0.0
 40
0.0
 40
1.0
 40
1.0
 40
1.0
 40
2.0
 40
2.0
 40
2.0
 40
3.0
 40
3.0
 40
3.0
 40
4.0
 40
4.0
 40
4.0
 40
4.0
 10
107.8518431050266
 20
-131.6588417526215
 30
0.0
 10
107.8518431050266
 20
-131.6858892110765
 30
0.0
 10
107.830091357731
 20
-131.7078657100394
 30
0.0
 10
107.802819147609
 20
-131.7078657100394
 30
0.0
 10
107.775894600222
 20
-131.7078657100394
 30
0.0
 10
107.7540304770923
 20
-131.6858892110765
 30
0.0
 10
107.7540304770923
 20
-131.6588417526215
 30
0.0
 10
107.7540304770923
 20
-131.6319207169794
 30
0.0
 10
107.775894600222
 20
-131.6099371945268
 30
0.0
 10
107.802819147609
 20
-131.6099371945268
 30
0.0
 10
107.830091357731
 20
-131.6099371945268
 30
0.0
 10
107.8518431050266
 20
-131.6319207169794
 30
0.0
 10
107.8518431050266
 20
-131.6588417526215
 30
0.0
  0
HATCH
  5
8B
330
41
100
AcDbEntity
  8
_U+30EC_U+30A4_U+30E4_U+30FC 1
 62
   179
420
  2234388
100
AcDbHatch
 10
0.0
 20
0.0
 30
0.0
210
0.0
220
0.0
230
1.0
  2
SOLID
 70
     1
 71
     0
 91
        1
 92
        1
 93
        2
 72
     4
 94
        3
 73
     0
 74
     0
 95
       17
 96
       13
 40
0.0
 40
0.0
 40
0.0
 40
0.0
 40
0.3527777776895833
 40
0.3527777776895833
 40
0.3527777776895833
 40
0.7055555553791667
 40
0.7055555553791667
 40
0.7055555553791667
 40
1.05833333306875
 40
1.05833333306875
 40
1.05833333306875
 40
1.411111110758333
 40
1.411111110758333
 40
1.411111110758333
 40
1.411111110758333
 10
107.8518431050266
 20
-131.6588417526215
 10
107.8518431050266
 20
-131.6858892110765
 10
107.830091357731
 20
-131.7078657100394
 10
107.802819147609
 20
-131.7078657100394
 10
107.775894600222
 20
-131.7078657100394
 10
107.7540304770923
 20
-131.6858892110765
 10
107.7540304770923
 20
-131.6588417526215
 10
107.7540304770923
 20
-131.6319207169794
 10
107.775894600222
 20
-131.6099371945268
 10
107.802819147609
 20
-131.6099371945268
 10
107.830091357731
 20
-131.6099371945268
 10
107.8518431050266
 20
-131.6319207169794
 10
107.8518431050266
 20
-131.6588417526215
 97
        0
 72
     1
 10
107.8518431050266
 20
-131.6588417526215
 11
107.8518431050266
 21
-131.6588417526215
 97
        0
 75
     2
 76
     1
 98
        0
  0
SPLINE
  5
8C
330
41
100
AcDbEntity
  8
_U+30EC_U+30A4_U+30E4_U+30FC 1
370
     0
100
AcDbSpline
210
0.0
220
0.0
230
1.0
 70
    11
 71
     3
 72
    17
 73
    13
 74
     0
 42
0.0000000001
 43
0.0000000001
 12
1.0
 22
0.0
 32
0.0
 13
1.0
 23
0.0
 33
0.0
 40
0.0
 40
0.0
 40
0.0
 40
0.0
 40
1.0
 40
1.0
 40
1.0
 40
2.0
 40
2.0
 40
2.0
 40
3.0
 40
3.0
 40
3.0
 40
4.0
 40
4.0
 40
4.0
 40
4.0
 10
109.1945025416619
 20
-165.670616909235
 30
0.0
 10
109.1945025416619
 20
-165.6977767435234
 30
0.0
 10
109.1725225309545
 20
-165.7196408666525
 30
0.0
 10
109.1454785842443
 20
-165.7196408666525
 30
0.0
 10
109.1185540368573
 20
-165.7196408666525
 30
0.0
 10
109.0964581385709
 20
-165.6977767435234
 30
0.0
 10
109.0964581385709
 20
-165.670616909235
 30
0.0
 10
109.0964581385709
 20
-165.643692361848
 30
0.0
 10
109.1185540368573
 20
-165.6218282387182
 30
0.0
 10
109.1454785842443
 20
-165.6218282387182
 30
0.0
 10
109.1725225309545
 20
-165.6218282387182
 30
0.0
 10
109.1945025416619
 20
-165.643692361848
 30
0.0
 10
109.1945025416619
 20
-165.670616909235
 30
0.0
  0
HATCH
  5
8D
330
41
100
AcDbEntity
  8
_U+30EC_U+30A4_U+30E4_U+30FC 1
 62
   179
420
  2234388
100
AcDbHatch
 10
0.0
 20
0.0
 30
0.0
210
0.0
220
0.0
230
1.0
  2
SOLID
 70
     1
 71
     0
 91
        1
 92
        1
 93
        2
 72
     4
 94
        3
 73
     0
 74
     0
 95
       17
 96
       13
 40
0.0
 40
0.0
 40
0.0
 40
0.0
 40
0.3527777776895833
 40
0.3527777776895833
 40
0.3527777776895833
 40
0.7055555553791667
 40
0.7055555553791667
 40
0.7055555553791667
 40
1.05833333306875
 40
1.05833333306875
 40
1.05833333306875
 40
1.411111110758333
 40
1.411111110758333
 40
1.411111110758333
 40
1.411111110758333
 10
109.1945025416619
 20
-165.670616909235
 10
109.1945025416619
 20
-165.6977767435234
 10
109.1725225309545
 20
-165.7196408666525
 10
109.1454785842443
 20
-165.7196408666525
 10
109.1185540368573
 20
-165.7196408666525
 10
109.0964581385709
 20
-165.6977767435234
 10
109.0964581385709
 20
-165.670616909235
 10
109.0964581385709
 20
-165.643692361848
 10
109.1185540368573
 20
-165.6218282387182
 10
109.1454785842443
 20
-165.6218282387182
 10
109.1725225309545
 20
-165.6218282387182
 10
109.1945025416619
 20
-165.643692361848
 10
109.1945025416619
 20
-165.670616909235
 97
        0
 72
     1
 10
109.1945025416619
 20
-165.670616909235
 11
109.1945025416619
 21
-165.670616909235
 97
        0
 75
     2
 76
     1
 98
        0
  0
SPLINE
  5
8E
330
41
100
AcDbEntity
  8
_U+30EC_U+30A4_U+30E4_U+30FC 1
370
     0
100
AcDbSpline
210
0.0
220
0.0
230
1.0
 70
    11
 71
     3
 72
    17
 73
    13
 74
     0
 42
0.0000000001
 43
0.0000000001
 12
1.0
 22
0.0
 32
0.0
 13
1.0
 23
0.0
 33
0.0
 40
0.0
 40
0.0
 40
0.0
 40
0.0
 40
1.0
 40
1.0
 40
1.0
 40
2.0
 40
2.0
 40
2.0
 40
3.0
 40
3.0
 40
3.0
 40
4.0
 40
4.0
 40
4.0
 40
4.0
 10
109.1945025416619
 20
-133.0188702790413
 30
0.0
 10
109.1945025416619
 20
-133.0460301133298
 30
0.0
 10
109.1725225309545
 20
-133.0678942364592
 30
0.0
 10
109.1454785842443
 20
-133.0678942364592
 30
0.0
 10
109.1185540368573
 20
-133.0678942364592
 30
0.0
 10
109.0964581385709
 20
-133.0460301133298
 30
0.0
 10
109.0964581385709
 20
-133.0188702790413
 30
0.0
 10
109.0964581385709
 20
-132.9919492433989
 30
0.0
 10
109.1185540368573
 20
-132.9700851202698
 30
0.0
 10
109.1454785842443
 20
-132.9700851202698
 30
0.0
 10
109.1725225309545
 20
-132.9700851202698
 30
0.0
 10
109.1945025416619
 20
-132.9919492433989
 30
0.0
 10
109.1945025416619
 20
-133.0188702790413
 30
0.0
  0
HATCH
  5
8F
330
41
100
AcDbEntity
  8
_U+30EC_U+30A4_U+30E4_U+30FC 1
 62
   179
420
  2234388
100
AcDbHatch
 10
0.0
 20
0.0
 30
0.0
210
0.0
220
0.0
230
1.0
  2
SOLID
 70
     1
 71
     0
 91
        1
 92
        1
 93
        2
 72
     4
 94
        3
 73
     0
 74
     0
 95
       17
 96
       13
 40
0.0
 40
0.0
 40
0.0
 40
0.0
 40
0.3527777776895833
 40
0.3527777776895833
 40
0.3527777776895833
 40
0.7055555553791667
 40
0.7055555553791667
 40
0.7055555553791667
 40
1.05833333306875
 40
1.05833333306875
 40
1.05833333306875
 40
1.411111110758333
 40
1.411111110758333
 40
1.411111110758333
 40
1.411111110758333
 10
109.1945025416619
 20
-133.0188702790413
 10
109.1945025416619
 20
-133.0460301133298
 10
109.1725225309545
 20
-133.0678942364592
 10
109.1454785842443
 20
-133.0678942364592
 10
109.1185540368573
 20
-133.0678942364592
 10
109.0964581385709
 20
-133.0460301133298
 10
109.0964581385709
 20
-133.0188702790413
 10
109.0964581385709
 20
-132.9919492433989
 10
109.1185540368573
 20
-132.9700851202698
 10
109.1454785842443
 20
-132.9700851202698
 10
109.1725225309545
 20
-132.9700851202698
 10
109.1945025416619
 20
-132.9919492433989
 10
109.1945025416619
 20
-133.0188702790413
 97
        0
 72
     1
 10
109.1945025416619
 20
-133.0188702790413
 11
109.1945025416619
 21
-133.0188702790413
 97
        0
 75
     2
 76
     1
 98
        0
  0
POLYLINE
  5
90
330
41
100
AcDbEntity
  8
_U+30EC_U+30A4_U+30E4_U+30FC 1
 62
   179
420
  2234388
370
     5
100
AcDb2dPolyline
 66
     1
 10
0.0
 20
0.0
 30
0.0
  0
VERTEX
  5
91
330
90
100
AcDbEntity
  8
_U+30EC_U+30A4_U+30E4_U+30FC 1
 62
   179
420
  2234388
370
     5
100
AcDbVertex
100
AcDb2dVertex
 10
106.0754059271182
 20
-166.7785372764115
 30
0.0
  0
VERTEX
  5
92
330
90
100
AcDbEntity
  8
_U+30EC_U+30A4_U+30E4_U+30FC 1
 62
   179
420
  2234388
370
     5
100
AcDbVertex
100
AcDb2dVertex
 10
107.7163424318914
 20
-166.7785372764115
 30
0.0
  0
SEQEND
  5
93
330
90
100
AcDbEntity
  8
_U+30EC_U+30A4_U+30E4_U+30FC 1
 62
   179
420
  2234388
370
     5
  0
INSERT
  5
95
330
41
100
AcDbEntity
  8
_U+30EC_U+30A4_U+30E4_U+30FC 1
100
AcDbBlockReference
  2
block 6
 10
0.0
 20
0.0
 30
0.0
  0
POLYLINE
  5
9A
330
41
100
AcDbEntity
  8
_U+30EC_U+30A4_U+30E4_U+30FC 1
 62
   179
420
  2234388
370
     5
100
AcDb2dPolyline
 66
     1
 10
0.0
 20
0.0
 30
0.0
  0
VERTEX
  5
9B
330
9A
100
AcDbEntity
  8
_U+30EC_U+30A4_U+30E4_U+30FC 1
 62
   179
420
  2234388
370
     5
100
AcDbVertex
100
AcDb2dVertex
 10
106.0754059271182
 20
-166.3745426427927
 30
0.0
  0
VERTEX
  5
9C
330
9A
100
AcDbEntity
  8
_U+30EC_U+30A4_U+30E4_U+30FC 1
 62
   179
420
  2234388
370
     5
100
AcDbVertex
100
AcDb2dVertex
 10
106.0754059271182
 20
-167.2144606937585
 30
0.0
  0
SEQEND
  5
9D
330
9A
100
AcDbEntity
  8
_U+30EC_U+30A4_U+30E4_U+30FC 1
 62
   179
420
  2234388
370
     5
  0
POLYLINE
  5
9E
330
41
100
AcDbEntity
  8
_U+30EC_U+30A4_U+30E4_U+30FC 1
 62
   179
420
  2234388
370
     5
100
AcDb2dPolyline
 66
     1
 10
0.0
 20
0.0
 30
0.0
  0
VERTEX
  5
9F
330
9E
100
AcDbEntity
  8
_U+30EC_U+30A4_U+30E4_U+30FC 1
 62
   179
420
  2234388
370
     5
100
AcDbVertex
100
AcDb2dVertex
 10
107.7165426013452
 20
-166.3745426427927
 30
0.0
  0
VERTEX
  5
A0
330
9E
100
AcDbEntity
  8
_U+30EC_U+30A4_U+30E4_U+30FC 1
 62
   179
420
  2234388
370
     5
100
AcDbVertex
100
AcDb2dVertex
 10
107.7165426013452
 20
-167.2144606937585
 30
0.0
  0
SEQEND
  5
A1
330
9E
100
AcDbEntity
  8
_U+30EC_U+30A4_U+30E4_U+30FC 1
 62
   179
420
  2234388
370
     5
  0
SPLINE
  5
A2
330
41
100
AcDbEntity
  8
_U+30EC_U+30A4_U+30E4_U+30FC 1
370
     0
100
AcDbSpline
210
0.0
220
0.0
230
1.0
 70
    11
 71
     3
 72
    17
 73
    13
 74
     0
 42
0.0000000001
 43
0.0000000001
 12
1.0
 22
0.0
 32
0.0
 13
1.0
 23
0.0
 33
0.0
 40
0.0
 40
0.0
 40
0.0
 40
0.0
 40
1.0
 40
1.0
 40
1.0
 40
2.0
 40
2.0
 40
2.0
 40
3.0
 40
3.0
 40
3.0
 40
4.0
 40
4.0
 40
4.0
 40
4.0
 10
106.1244053023225
 20
-166.7784108535987
 30
0.0
 10
106.1244053023225
 20
-166.8054548003088
 30
0.0
 10
106.1024252916145
 20
-166.8274348110162
 30
0.0
 10
106.0753813449043
 20
-166.8274348110162
 30
0.0
 10
106.0484567975173
 20
-166.8274348110162
 30
0.0
 10
106.0263608992309
 20
-166.8054548003088
 30
0.0
 10
106.0263608992309
 20
-166.7784108535987
 30
0.0
 10
106.0263608992309
 20
-166.7514863062117
 30
0.0
 10
106.0484567975173
 20
-166.7295062955036
 30
0.0
 10
106.0753813449043
 20
-166.7295062955036
 30
0.0
 10
106.1024252916145
 20
-166.7295062955036
 30
0.0
 10
106.1244053023225
 20
-166.7514863062117
 30
0.0
 10
106.1244053023225
 20
-166.7784108535987
 30
0.0
  0
HATCH
  5
A3
330
41
100
AcDbEntity
  8
_U+30EC_U+30A4_U+30E4_U+30FC 1
 62
   179
420
  2234388
100
AcDbHatch
 10
0.0
 20
0.0
 30
0.0
210
0.0
220
0.0
230
1.0
  2
SOLID
 70
     1
 71
     0
 91
        1
 92
        1
 93
        2
 72
     4
 94
        3
 73
     0
 74
     0
 95
       17
 96
       13
 40
0.0
 40
0.0
 40
0.0
 40
0.0
 40
0.3527777776895833
 40
0.3527777776895833
 40
0.3527777776895833
 40
0.7055555553791667
 40
0.7055555553791667
 40
0.7055555553791667
 40
1.05833333306875
 40
1.05833333306875
 40
1.05833333306875
 40
1.411111110758333
 40
1.411111110758333
 40
1.411111110758333
 40
1.411111110758333
 10
106.1244053023225
 20
-166.7784108535987
 10
106.1244053023225
 20
-166.8054548003088
 10
106.1024252916145
 20
-166.8274348110162
 10
106.0753813449043
 20
-166.8274348110162
 10
106.0484567975173
 20
-166.8274348110162
 10
106.0263608992309
 20
-166.8054548003088
 10
106.0263608992309
 20
-166.7784108535987
 10
106.0263608992309
 20
-166.7514863062117
 10
106.0484567975173
 20
-166.7295062955036
 10
106.0753813449043
 20
-166.7295062955036
 10
106.1024252916145
 20
-166.7295062955036
 10
106.1244053023225
 20
-166.7514863062117
 10
106.1244053023225
 20
-166.7784108535987
 97
        0
 72
     1
 10
106.1244053023225
 20
-166.7784108535987
 11
106.1244053023225
 21
-166.7784108535987
 97
        0
 75
     2
 76
     1
 98
        0
  0
SPLINE
  5
A4
330
41
100
AcDbEntity
  8
_U+30EC_U+30A4_U+30E4_U+30FC 1
370
     0
100
AcDbSpline
210
0.0
220
0.0
230
1.0
 70
    11
 71
     3
 72
    17
 73
    13
 74
     0
 42
0.0000000001
 43
0.0000000001
 12
1.0
 22
0.0
 32
0.0
 13
1.0
 23
0.0
 33
0.0
 40
0.0
 40
0.0
 40
0.0
 40
0.0
 40
1.0
 40
1.0
 40
1.0
 40
2.0
 40
2.0
 40
2.0
 40
3.0
 40
3.0
 40
3.0
 40
4.0
 40
4.0
 40
4.0
 40
4.0
 10
107.7653102013922
 20
-166.7784108535987
 30
0.0
 10
107.7653102013922
 20
-166.8054548003088
 30
0.0
 10
107.7435584540966
 20
-166.8274348110162
 30
0.0
 10
107.7162862439746
 20
-166.8274348110162
 30
0.0
 10
107.6893616965876
 20
-166.8274348110162
 30
0.0
 10
107.6674975734586
 20
-166.8054548003088
 30
0.0
 10
107.6674975734586
 20
-166.7784108535987
 30
0.0
 10
107.6674975734586
 20
-166.7514863062117
 30
0.0
 10
107.6893616965876
 20
-166.7295062955036
 30
0.0
 10
107.7162862439746
 20
-166.7295062955036
 30
0.0
 10
107.7435584540966
 20
-166.7295062955036
 30
0.0
 10
107.7653102013922
 20
-166.7514863062117
 30
0.0
 10
107.7653102013922
 20
-166.7784108535987
 30
0.0
  0
HATCH
  5
A5
330
41
100
AcDbEntity
  8
_U+30EC_U+30A4_U+30E4_U+30FC 1
 62
   179
420
  2234388
100
AcDbHatch
 10
0.0
 20
0.0
 30
0.0
210
0.0
220
0.0
230
1.0
  2
SOLID
 70
     1
 71
     0
 91
        1
 92
        1
 93
        2
 72
     4
 94
        3
 73
     0
 74
     0
 95
       17
 96
       13
 40
0.0
 40
0.0
 40
0.0
 40
0.0
 40
0.3527777776895833
 40
0.3527777776895833
 40
0.3527777776895833
 40
0.7055555553791667
 40
0.7055555553791667
 40
0.7055555553791667
 40
1.05833333306875
 40
1.05833333306875
 40
1.05833333306875
 40
1.411111110758333
 40
1.411111110758333
 40
1.411111110758333
 40
1.411111110758333
 10
107.7653102013922
 20
-166.7784108535987
 10
107.7653102013922
 20
-166.8054548003088
 10
107.7435584540966
 20
-166.8274348110162
 10
107.7162862439746
 20
-166.8274348110162
 10
107.6893616965876
 20
-166.8274348110162
 10
107.6674975734586
 20
-166.8054548003088
 10
107.6674975734586
 20
-166.7784108535987
 10
107.6674975734586
 20
-166.7514863062117
 10
107.6893616965876
 20
-166.7295062955036
 10
107.7162862439746
 20
-166.7295062955036
 10
107.7435584540966
 20
-166.7295062955036
 10
107.7653102013922
 20
-166.7514863062117
 10
107.7653102013922
 20
-166.7784108535987
 97
        0
 72
     1
 10
107.7653102013922
 20
-166.7784108535987
 11
107.7653102013922
 21
-166.7784108535987
 97
        0
 75
     2
 76
     1
 98
        0
  0
POLYLINE
  5
A6
330
41
100
AcDbEntity
  8
_U+30EC_U+30A4_U+30E4_U+30FC 1
 62
   179
420
  2234388
370
     5
100
AcDb2dPolyline
 66
     1
 10
0.0
 20
0.0
 30
0.0
  0
VERTEX
  5
A7
330
A6
100
AcDbEntity
  8
_U+30EC_U+30A4_U+30E4_U+30FC 1
 62
   179
420
  2234388
370
     5
100
AcDbVertex
100
AcDb2dVertex
 10
107.8028472415671
 20
-131.2285968266174
 30
0.0
  0
VERTEX
  5
A8
330
A6
100
AcDbEntity
  8
_U+30EC_U+30A4_U+30E4_U+30FC 1
 62
   179
420
  2234388
370
     5
100
AcDbVertex
100
AcDb2dVertex
 10
107.8028472415671
 20
-165.2005207032326
 30
0.0
  0
SEQEND
  5
A9
330
A6
100
AcDbEntity
  8
_U+30EC_U+30A4_U+30E4_U+30FC 1
 62
   179
420
  2234388
370
     5
  0
POLYLINE
  5
AA
330
41
100
AcDbEntity
  8
_U+30EC_U+30A4_U+30E4_U+30FC 1
 62
   179
420
  2234388
370
     5
100
AcDb2dPolyline
 66
     1
 10
0.0
 20
0.0
 30
0.0
  0
VERTEX
  5
AB
330
AA
100
AcDbEntity
  8
_U+30EC_U+30A4_U+30E4_U+30FC 1
 62
   179
420
  2234388
370
     5
100
AcDbVertex
100
AcDb2dVertex
 10
104.2889708117616
 20
-162.7364768698545
 30
0.0
  0
VERTEX
  5
AC
330
AA
100
AcDbEntity
  8
_U+30EC_U+30A4_U+30E4_U+30FC 1
 62
   179
420
  2234388
370
     5
100
AcDbVertex
100
AcDb2dVertex
 10
103.6347784080712
 20
-163.3919335016732
 30
0.0
  0
SEQEND
  5
AD
330
AA
100
AcDbEntity
  8
_U+30EC_U+30A4_U+30E4_U+30FC 1
 62
   179
420
  2234388
370
     5
  0
POLYLINE
  5
AE
330
41
100
AcDbEntity
  8
_U+30EC_U+30A4_U+30E4_U+30FC 1
 62
   179
420
  2234388
370
     5
100
AcDb2dPolyline
 66
     1
 10
0.0
 20
0.0
 30
0.0
  0
VERTEX
  5
AF
330
AE
100
AcDbEntity
  8
_U+30EC_U+30A4_U+30E4_U+30FC 1
 62
   179
420
  2234388
370
     5
100
AcDbVertex
100
AcDb2dVertex
 10
103.8305897864142
 20
-163.0530536401489
 30
0.0
  0
VERTEX
  5
B0
330
AE
100
AcDbEntity
  8
_U+30EC_U+30A4_U+30E4_U+30FC 1
 62
   179
420
  2234388
370
     5
100
AcDbVertex
100
AcDb2dVertex
 10
103.6348486429673
 20
-163.3919440369077
 30
0.0
  0
SEQEND
  5
B1
330
AE
100
AcDbEntity
  8
_U+30EC_U+30A4_U+30E4_U+30FC 1
 62
   179
420
  2234388
370
     5
  0
POLYLINE
  5
B2
330
41
100
AcDbEntity
  8
_U+30EC_U+30A4_U+30E4_U+30FC 1
 62
   179
420
  2234388
370
     5
100
AcDb2dPolyline
 66
     1
 10
0.0
 20
0.0
 30
0.0
  0
VERTEX
  5
B3
330
B2
100
AcDbEntity
  8
_U+30EC_U+30A4_U+30E4_U+30FC 1
 62
   179
420
  2234388
370
     5
100
AcDbVertex
100
AcDb2dVertex
 10
103.97374957496
 20
-163.1962169404395
 30
0.0
  0
VERTEX
  5
B4
330
B2
100
AcDbEntity
  8
_U+30EC_U+30A4_U+30E4_U+30FC 1
 62
   179
420
  2234388
370
     5
100
AcDbVertex
100
AcDb2dVertex
 10
103.6348591782018
 20
-163.3919580838864
 30
0.0
  0
SEQEND
  5
B5
330
B2
100
AcDbEntity
  8
_U+30EC_U+30A4_U+30E4_U+30FC 1
 62
   179
420
  2234388
370
     5
  0
INSERT
  5
B7
330
41
100
AcDbEntity
  8
_U+30EC_U+30A4_U+30E4_U+30FC 1
100
AcDbBlockReference
  2
block 7
 10
0.0
 20
0.0
 30
0.0
  0
SPLINE
  5
C2
330
41
100
AcDbEntity
  8
_U+30EC_U+30A4_U+30E4_U+30FC 1
370
     0
100
AcDbSpline
210
0.0
220
0.0
230
1.0
 70
    11
 71
     3
 72
  1046
 73
  1042
 74
     0
 42
0.0000000001
 43
0.0000000001
 12
1.0
 22
0.0
 32
0.0
 13
1.0
 23
0.0
 33
0.0
 40
0.0
 40
0.0
 40
0.0
 40
0.0
 40
1.0
 40
1.0
 40
1.0
 40
2.0
 40
2.0
 40
2.0
 40
3.0
 40
3.0
 40
3.0
 40
4.0
 40
4.0
 40
4.0
 40
5.0
 40
5.0
 40
5.0
 40
6.0
 40
6.0
 40
6.0
 40
7.0
 40
7.0
 40
7.0
 40
8.0
 40
8.0
 40
8.0
 40
9.0
 40
9.0
 40
9.0
 40
10.0
 40
10.0
 40
10.0
 40
11.0
 40
11.0
 40
11.0
 40
12.0
 40
12.0
 40
12.0
 40
13.0
 40
13.0
 40
13.0
 40
14.0
 40
14.0
 40
14.0
 40
15.0
 40
15.0
 40
15.0
 40
16.0
 40
16.0
 40
16.0
 40
17.0
 40
17.0
 40
17.0
 40
18.0
 40
18.0
 40
18.0
 40
19.0
 40
19.0
 40
19.0
 40
20.0
 40
20.0
 40
20.0
 40
21.0
 40
21.0
 40
21.0
 40
22.0
 40
22.0
 40
22.0
 40
23.0
 40
23.0
 40
23.0
 40
24.0
 40
24.0
 40
24.0
 40
25.0
 40
25.0
 40
25.0
 40
26.0
 40
26.0
 40
26.0
 40
27.0
 40
27.0
 40
27.0
 40
28.0
 40
28.0
 40
28.0
 40
29.0
 40
29.0
 40
29.0
 40
30.0
 40
30.0
 40
30.0
 40
31.0
 40
31.0
 40
31.0
 40
32.0
 40
32.0
 40
32.0
 40
33.0
 40
33.0
 40
33.0
 40
34.0
 40
34.0
 40
34.0
 40
35.0
 40
35.0
 40
35.0
 40
36.0
 40
36.0
 40
36.0
 40
37.0
 40
37.0
 40
37.0
 40
38.0
 40
38.0
 40
38.0
 40
39.0
 40
39.0
 40
39.0
 40
40.0
 40
40.0
 40
40.0
 40
41.0
 40
41.0
 40
41.0
 40
42.0
 40
42.0
 40
42.0
 40
43.0
 40
43.0
 40
43.0
 40
44.0
 40
44.0
 40
44.0
 40
45.0
 40
45.0
 40
45.0
 40
46.0
 40
46.0
 40
46.0
 40
47.0
 40
47.0
 40
47.0
 40
48.0
 40
48.0
 40
48.0
 40
49.0
 40
49.0
 40
49.0
 40
50.0
 40
50.0
 40
50.0
 40
51.0
 40
51.0
 40
51.0
 40
52.0
 40
52.0
 40
52.0
 40
53.0
 40
53.0
 40
53.0
 40
54.0
 40
54.0
 40
54.0
 40
55.0
 40
55.0
 40
55.0
 40
56.0
 40
56.0
 40
56.0
 40
57.0
 40
57.0
 40
57.0
 40
58.0
 40
58.0
 40
58.0
 40
59.0
 40
59.0
 40
59.0
 40
60.0
 40
60.0
 40
60.0
 40
61.0
 40
61.0
 40
61.0
 40
62.0
 40
62.0
 40
62.0
 40
63.0
 40
63.0
 40
63.0
 40
64.0
 40
64.0
 40
64.0
 40
65.0
 40
65.0
 40
65.0
 40
66.0
 40
66.0
 40
66.0
 40
67.0
 40
67.0
 40
67.0
 40
68.0
 40
68.0
 40
68.0
 40
69.0
 40
69.0
 40
69.0
 40
70.0
 40
70.0
 40
70.0
 40
71.0
 40
71.0
 40
71.0
 40
72.0
 40
72.0
 40
72.0
 40
73.0
 40
73.0
 40
73.0
 40
74.0
 40
74.0
 40
74.0
 40
75.0
 40
75.0
 40
75.0
 40
76.0
 40
76.0
 40
76.0
 40
77.0
 40
77.0
 40
77.0
 40
78.0
 40
78.0
 40
78.0
 40
79.0
 40
79.0
 40
79.0
 40
80.0
 40
80.0
 40
80.0
 40
81.0
 40
81.0
 40
81.0
 40
82.0
 40
82.0
 40
82.0
 40
83.0
 40
83.0
 40
83.0
 40
84.0
 40
84.0
 40
84.0
 40
85.0
 40
85.0
 40
85.0
 40
86.0
 40
86.0
 40
86.0
 40
87.0
 40
87.0
 40
87.0
 40
88.0
 40
88.0
 40
88.0
 40
89.0
 40
89.0
 40
89.0
 40
90.0
 40
90.0
 40
90.0
 40
91.0
 40
91.0
 40
91.0
 40
92.0
 40
92.0
 40
92.0
 40
93.0
 40
93.0
 40
93.0
 40
94.0
 40
94.0
 40
94.0
 40
95.0
 40
95.0
 40
95.0
 40
96.0
 40
96.0
 40
96.0
 40
97.0
 40
97.0
 40
97.0
 40
98.0
 40
98.0
 40
98.0
 40
99.0
 40
99.0
 40
99.0
 40
100.0
 40
100.0
 40
100.0
 40
101.0
 40
101.0
 40
101.0
 40
102.0
 40
102.0
 40
102.0
 40
103.0
 40
103.0
 40
103.0
 40
104.0
 40
104.0
 40
104.0
 40
105.0
 40
105.0
 40
105.0
 40
106.0
 40
106.0
 40
106.0
 40
107.0
 40
107.0
 40
107.0
 40
108.0
 40
108.0
 40
108.0
 40
109.0
 40
109.0
 40
109.0
 40
110.0
 40
110.0
 40
110.0
 40
111.0
 40
111.0
 40
111.0
 40
112.0
 40
112.0
 40
112.0
 40
113.0
 40
113.0
 40
113.0
 40
114.0
 40
114.0
 40
114.0
 40
115.0
 40
115.0
 40
115.0
 40
116.0
 40
116.0
 40
116.0
 40
117.0
 40
117.0
 40
117.0
 40
118.0
 40
118.0
 40
118.0
 40
119.0
 40
119.0
 40
119.0
 40
120.0
 40
120.0
 40
120.0
 40
121.0
 40
121.0
 40
121.0
 40
122.0
 40
122.0
 40
122.0
 40
123.0
 40
123.0
 40
123.0
 40
124.0
 40
124.0
 40
124.0
 40
125.0
 40
125.0
 40
125.0
 40
126.0
 40
126.0
 40
126.0
 40
127.0
 40
127.0
 40
127.0
 40
128.0
 40
128.0
 40
128.0
 40
129.0
 40
129.0
 40
129.0
 40
130.0
 40
130.0
 40
130.0
 40
131.0
 40
131.0
 40
131.0
 40
132.0
 40
132.0
 40
132.0
 40
133.0
 40
133.0
 40
133.0
 40
134.0
 40
134.0
 40
134.0
 40
135.0
 40
135.0
 40
135.0
 40
136.0
 40
136.0
 40
136.0
 40
137.0
 40
137.0
 40
137.0
 40
138.0
 40
138.0
 40
138.0
 40
139.0
 40
139.0
 40
139.0
 40
140.0
 40
140.0
 40
140.0
 40
141.0
 40
141.0
 40
141.0
 40
142.0
 40
142.0
 40
142.0
 40
143.0
 40
143.0
 40
143.0
 40
144.0
 40
144.0
 40
144.0
 40
145.0
 40
145.0
 40
145.0
 40
146.0
 40
146.0
 40
146.0
 40
147.0
 40
147.0
 40
147.0
 40
148.0
 40
148.0
 40
148.0
 40
149.0
 40
149.0
 40
149.0
 40
150.0
 40
150.0
 40
150.0
 40
151.0
 40
151.0
 40
151.0
 40
152.0
 40
152.0
 40
152.0
 40
153.0
 40
153.0
 40
153.0
 40
154.0
 40
154.0
 40
154.0
 40
155.0
 40
155.0
 40
155.0
 40
156.0
 40
156.0
 40
156.0
 40
157.0
 40
157.0
 40
157.0
 40
158.0
 40
158.0
 40
158.0
 40
159.0
 40
159.0
 40
159.0
 40
160.0
 40
160.0
 40
160.0
 40
161.0
 40
161.0
 40
161.0
 40
162.0
 40
162.0
 40
162.0
 40
163.0
 40
163.0
 40
163.0
 40
164.0
 40
164.0
 40
164.0
 40
165.0
 40
165.0
 40
165.0
 40
166.0
 40
166.0
 40
166.0
 40
167.0
 40
167.0
 40
167.0
 40
168.0
 40
168.0
 40
168.0
 40
169.0
 40
169.0
 40
169.0
 40
170.0
 40
170.0
 40
170.0
 40
171.0
 40
171.0
 40
171.0
 40
172.0
 40
172.0
 40
172.0
 40
173.0
 40
173.0
 40
173.0
 40
174.0
 40
174.0
 40
174.0
 40
175.0
 40
175.0
 40
175.0
 40
176.0
 40
176.0
 40
176.0
 40
177.0
 40
177.0
 40
177.0
 40
178.0
 40
178.0
 40
178.0
 40
179.0
 40
179.0
 40
179.0
 40
180.0
 40
180.0
 40
180.0
 40
181.0
 40
181.0
 40
181.0
 40
182.0
 40
182.0
 40
182.0
 40
183.0
 40
183.0
 40
183.0
 40
184.0
 40
184.0
 40
184.0
 40
185.0
 40
185.0
 40
185.0
 40
186.0
 40
186.0
 40
186.0
 40
187.0
 40
187.0
 40
187.0
 40
188.0
 40
188.0
 40
188.0
 40
189.0
 40
189.0
 40
189.0
 40
190.0
 40
190.0
 40
190.0
 40
191.0
 40
191.0
 40
191.0
 40
192.0
 40
192.0
 40
192.0
 40
193.0
 40
193.0
 40
193.0
 40
194.0
 40
194.0
 40
194.0
 40
195.0
 40
195.0
 40
195.0
 40
196.0
 40
196.0
 40
196.0
 40
197.0
 40
197.0
 40
197.0
 40
198.0
 40
198.0
 40
198.0
 40
199.0
 40
199.0
 40
199.0
 40
200.0
 40
200.0
 40
200.0
 40
201.0
 40
201.0
 40
201.0
 40
202.0
 40
202.0
 40
202.0
 40
203.0
 40
203.0
 40
203.0
 40
204.0
 40
204.0
 40
204.0
 40
205.0
 40
205.0
 40
205.0
 40
206.0
 40
206.0
 40
206.0
 40
207.0
 40
207.0
 40
207.0
 40
208.0
 40
208.0
 40
208.0
 40
209.0
 40
209.0
 40
209.0
 40
210.0
 40
210.0
 40
210.0
 40
211.0
 40
211.0
 40
211.0
 40
212.0
 40
212.0
 40
212.0
 40
213.0
 40
213.0
 40
213.0
 40
214.0
 40
214.0
 40
214.0
 40
215.0
 40
215.0
 40
215.0
 40
216.0
 40
216.0
 40
216.0
 40
217.0
 40
217.0
 40
217.0
 40
218.0
 40
218.0
 40
218.0
 40
219.0
 40
219.0
 40
219.0
 40
220.0
 40
220.0
 40
220.0
 40
221.0
 40
221.0
 40
221.0
 40
222.0
 40
222.0
 40
222.0
 40
223.0
 40
223.0
 40
223.0
 40
224.0
 40
224.0
 40
224.0
 40
225.0
 40
225.0
 40
225.0
 40
226.0
 40
226.0
 40
226.0
 40
227.0
 40
227.0
 40
227.0
 40
228.0
 40
228.0
 40
228.0
 40
229.0
 40
229.0
 40
229.0
 40
230.0
 40
230.0
 40
230.0
 40
231.0
 40
231.0
 40
231.0
 40
232.0
 40
232.0
 40
232.0
 40
233.0
 40
233.0
 40
233.0
 40
234.0
 40
234.0
 40
234.0
 40
235.0
 40
235.0
 40
235.0
 40
236.0
 40
236.0
 40
236.0
 40
237.0
 40
237.0
 40
237.0
 40
238.0
 40
238.0
 40
238.0
 40
239.0
 40
239.0
 40
239.0
 40
240.0
 40
240.0
 40
240.0
 40
241.0
 40
241.0
 40
241.0
 40
242.0
 40
242.0
 40
242.0
 40
243.0
 40
243.0
 40
243.0
 40
244.0
 40
244.0
 40
244.0
 40
245.0
 40
245.0
 40
245.0
 40
246.0
 40
246.0
 40
246.0
 40
247.0
 40
247.0
 40
247.0
 40
248.0
 40
248.0
 40
248.0
 40
249.0
 40
249.0
 40
249.0
 40
250.0
 40
250.0
 40
250.0
 40
251.0
 40
251.0
 40
251.0
 40
252.0
 40
252.0
 40
252.0
 40
253.0
 40
253.0
 40
253.0
 40
254.0
 40
254.0
 40
254.0
 40
255.0
 40
255.0
 40
255.0
 40
256.0
 40
256.0
 40
256.0
 40
257.0
 40
257.0
 40
257.0
 40
258.0
 40
258.0
 40
258.0
 40
259.0
 40
259.0
 40
259.0
 40
260.0
 40
260.0
 40
260.0
 40
261.0
 40
261.0
 40
261.0
 40
262.0
 40
262.0
 40
262.0
 40
263.0
 40
263.0
 40
263.0
 40
264.0
 40
264.0
 40
264.0
 40
265.0
 40
265.0
 40
265.0
 40
266.0
 40
266.0
 40
266.0
 40
267.0
 40
267.0
 40
267.0
 40
268.0
 40
268.0
 40
268.0
 40
269.0
 40
269.0
 40
269.0
 40
270.0
 40
270.0
 40
270.0
 40
271.0
 40
271.0
 40
271.0
 40
272.0
 40
272.0
 40
272.0
 40
273.0
 40
273.0
 40
273.0
 40
274.0
 40
274.0
 40
274.0
 40
275.0
 40
275.0
 40
275.0
 40
276.0
 40
276.0
 40
276.0
 40
277.0
 40
277.0
 40
277.0
 40
278.0
 40
278.0
 40
278.0
 40
279.0
 40
279.0
 40
279.0
 40
280.0
 40
280.0
 40
280.0
 40
281.0
 40
281.0
 40
281.0
 40
282.0
 40
282.0
 40
282.0
 40
283.0
 40
283.0
 40
283.0
 40
284.0
 40
284.0
 40
284.0
 40
285.0
 40
285.0
 40
285.0
 40
286.0
 40
286.0
 40
286.0
 40
287.0
 40
287.0
 40
287.0
 40
288.0
 40
288.0
 40
288.0
 40
289.0
 40
289.0
 40
289.0
 40
290.0
 40
290.0
 40
290.0
 40
291.0
 40
291.0
 40
291.0
 40
292.0
 40
292.0
 40
292.0
 40
293.0
 40
293.0
 40
293.0
 40
294.0
 40
294.0
 40
294.0
 40
295.0
 40
295.0
 40
295.0
 40
296.0
 40
296.0
 40
296.0
 40
297.0
 40
297.0
 40
297.0
 40
298.0
 40
298.0
 40
298.0
 40
299.0
 40
299.0
 40
299.0
 40
300.0
 40
300.0
 40
300.0
 40
301.0
 40
301.0
 40
301.0
 40
302.0
 40
302.0
 40
302.0
 40
303.0
 40
303.0
 40
303.0
 40
304.0
 40
304.0
 40
304.0
 40
305.0
 40
305.0
 40
305.0
 40
306.0
 40
306.0
 40
306.0
 40
307.0
 40
307.0
 40
307.0
 40
308.0
 40
308.0
 40
308.0
 40
309.0
 40
309.0
 40
309.0
 40
310.0
 40
310.0
 40
310.0
 40
311.0
 40
311.0
 40
311.0
 40
312.0
 40
312.0
 40
312.0
 40
313.0
 40
313.0
 40
313.0
 40
314.0
 40
314.0
 40
314.0
 40
315.0
 40
315.0
 40
315.0
 40
316.0
 40
316.0
 40
316.0
 40
317.0
 40
317.0
 40
317.0
 40
318.0
 40
318.0
 40
318.0
 40
319.0
 40
319.0
 40
319.0
 40
320.0
 40
320.0
 40
320.0
 40
321.0
 40
321.0
 40
321.0
 40
322.0
 40
322.0
 40
322.0
 40
323.0
 40
323.0
 40
323.0
 40
324.0
 40
324.0
 40
324.0
 40
325.0
 40
325.0
 40
325.0
 40
326.0
 40
326.0
 40
326.0
 40
327.0
 40
327.0
 40
327.0
 40
328.0
 40
328.0
 40
328.0
 40
329.0
 40
329.0
 40
329.0
 40
330.0
 40
330.0
 40
330.0
 40
331.0
 40
331.0
 40
331.0
 40
332.0
 40
332.0
 40
332.0
 40
333.0
 40
333.0
 40
333.0
 40
334.0
 40
334.0
 40
334.0
 40
335.0
 40
335.0
 40
335.0
 40
336.0
 40
336.0
 40
336.0
 40
337.0
 40
337.0
 40
337.0
 40
338.0
 40
338.0
 40
338.0
 40
339.0
 40
339.0
 40
339.0
 40
340.0
 40
340.0
 40
340.0
 40
341.0
 40
341.0
 40
341.0
 40
342.0
 40
342.0
 40
342.0
 40
343.0
 40
343.0
 40
343.0
 40
344.0
 40
344.0
 40
344.0
 40
345.0
 40
345.0
 40
345.0
 40
346.0
 40
346.0
 40
346.0
 40
347.0
 40
347.0
 40
347.0
 40
347.0
 10
100.9342045153863
 20
-161.6464383072032
 30
0.0
 10
100.9342045153863
 20
-161.6464383072032
 30
0.0
 10
101.0299417021432
 20
-161.5500128184655
 30
0.0
 10
101.0299417021432
 20
-161.5500128184655
 30
0.0
 10
101.0299417021432
 20
-161.5500128184655
 30
0.0
 10
100.9443288756472
 20
-161.465660708352
 30
0.0
 10
100.9443288756472
 20
-161.465660708352
 30
0.0
 10
100.9443288756472
 20
-161.465660708352
 30
0.0
 10
101.0299417021432
 20
-161.3810838465721
 30
0.0
 10
101.0299417021432
 20
-161.3810838465721
 30
0.0
 10
101.0299417021432
 20
-161.3810838465721
 30
0.0
 10
100.9443288756472
 20
-161.296619360625
 30
0.0
 10
100.9443288756472
 20
-161.296619360625
 30
0.0
 10
100.9443288756472
 20
-161.296619360625
 30
0.0
 10
101.0299417021432
 20
-161.2122742740018
 30
0.0
 10
101.0299417021432
 20
-161.2122742740018
 30
0.0
 10
101.0299417021432
 20
-161.2122742740018
 30
0.0
 10
100.9443288756472
 20
-161.1275780128981
 30
0.0
 10
100.9443288756472
 20
-161.1275780128981
 30
0.0
 10
100.9443288756472
 20
-161.1275780128981
 30
0.0
 10
101.0299417021432
 20
-161.0431135269517
 30
0.0
 10
101.0299417021432
 20
-161.0431135269517
 30
0.0
 10
101.0299417021432
 20
-161.0431135269517
 30
0.0
 10
100.9443288756472
 20
-160.9585366651711
 30
0.0
 10
100.9443288756472
 20
-160.9585366651711
 30
0.0
 10
100.9443288756472
 20
-160.9585366651711
 30
0.0
 10
100.9485886220903
 20
-160.9585366651711
 30
0.0
 10
100.9485886220903
 20
-160.9585366651711
 30
0.0
 10
100.9485886220903
 20
-160.9585366651711
 30
0.0
 10
101.0192414157357
 20
-160.8876485846238
 30
0.0
 10
101.0192414157357
 20
-160.8876485846238
 30
0.0
 10
101.0192414157357
 20
-160.8876485846238
 30
0.0
 10
100.9336285892391
 20
-160.8030717228432
 30
0.0
 10
100.9336285892391
 20
-160.8030717228432
 30
0.0
 10
100.9336285892391
 20
-160.8030717228432
 30
0.0
 10
101.0192414157357
 20
-160.7184948610633
 30
0.0
 10
101.0192414157357
 20
-160.7184948610633
 30
0.0
 10
101.0192414157357
 20
-160.7184948610633
 30
0.0
 10
100.9336285892391
 20
-160.6339179992827
 30
0.0
 10
100.9336285892391
 20
-160.6339179992827
 30
0.0
 10
100.9336285892391
 20
-160.6339179992827
 30
0.0
 10
101.0192414157357
 20
-160.549221738179
 30
0.0
 10
101.0192414157357
 20
-160.549221738179
 30
0.0
 10
101.0192414157357
 20
-160.549221738179
 30
0.0
 10
100.9336285892391
 20
-160.4646448763991
 30
0.0
 10
100.9336285892391
 20
-160.4646448763991
 30
0.0
 10
100.9336285892391
 20
-160.4646448763991
 30
0.0
 10
101.0192414157357
 20
-160.380180390452
 30
0.0
 10
101.0192414157357
 20
-160.380180390452
 30
0.0
 10
101.0192414157357
 20
-160.380180390452
 30
0.0
 10
100.9336285892391
 20
-160.2956035286721
 30
0.0
 10
100.9336285892391
 20
-160.2956035286721
 30
0.0
 10
100.9336285892391
 20
-160.2956035286721
 30
0.0
 10
101.0192414157357
 20
-160.2112514185586
 30
0.0
 10
101.0192414157357
 20
-160.2112514185586
 30
0.0
 10
101.0192414157357
 20
-160.2112514185586
 30
0.0
 10
100.9336285892391
 20
-160.1267869326122
 30
0.0
 10
100.9336285892391
 20
-160.1267869326122
 30
0.0
 10
100.9336285892391
 20
-160.1267869326122
 30
0.0
 10
101.0192414157357
 20
-160.0423294701548
 30
0.0
 10
101.0192414157357
 20
-160.0423294701548
 30
0.0
 10
101.0192414157357
 20
-160.0423294701548
 30
0.0
 10
100.9336285892391
 20
-159.9578649842084
 30
0.0
 10
100.9336285892391
 20
-159.9578649842084
 30
0.0
 10
100.9336285892391
 20
-159.9578649842084
 30
0.0
 10
101.0192414157357
 20
-159.8734004982613
 30
0.0
 10
101.0192414157357
 20
-159.8734004982613
 30
0.0
 10
101.0192414157357
 20
-159.8734004982613
 30
0.0
 10
100.9336285892391
 20
-159.7888236364814
 30
0.0
 10
100.9336285892391
 20
-159.7888236364814
 30
0.0
 10
100.9336285892391
 20
-159.7888236364814
 30
0.0
 10
101.0192414157357
 20
-159.7043591505344
 30
0.0
 10
101.0192414157357
 20
-159.7043591505344
 30
0.0
 10
101.0192414157357
 20
-159.7043591505344
 30
0.0
 10
100.9336285892391
 20
-159.6197752652648
 30
0.0
 10
100.9336285892391
 20
-159.6197752652648
 30
0.0
 10
100.9336285892391
 20
-159.6197752652648
 30
0.0
 10
101.0192414157357
 20
-159.5350860276507
 30
0.0
 10
101.0192414157357
 20
-159.5350860276507
 30
0.0
 10
101.0192414157357
 20
-159.5350860276507
 30
0.0
 10
100.9336285892391
 20
-159.4505091658702
 30
0.0
 10
100.9336285892391
 20
-159.4505091658702
 30
0.0
 10
100.9336285892391
 20
-159.4505091658702
 30
0.0
 10
101.0192414157357
 20
-159.3660446799237
 30
0.0
 10
101.0192414157357
 20
-159.3660446799237
 30
0.0
 10
101.0192414157357
 20
-159.3660446799237
 30
0.0
 10
100.9336285892391
 20
-159.2815801939767
 30
0.0
 10
100.9336285892391
 20
-159.2815801939767
 30
0.0
 10
100.9336285892391
 20
-159.2815801939767
 30
0.0
 10
101.0192414157357
 20
-159.1970033321961
 30
0.0
 10
101.0192414157357
 20
-159.1970033321961
 30
0.0
 10
101.0192414157357
 20
-159.1970033321961
 30
0.0
 10
100.9336285892391
 20
-159.1127706214064
 30
0.0
 10
100.9336285892391
 20
-159.1127706214064
 30
0.0
 10
100.9336285892391
 20
-159.1127706214064
 30
0.0
 10
100.9342045153863
 20
-159.1089709135323
 30
0.0
 10
100.9342045153863
 20
-159.1089709135323
 30
0.0
 10
100.9342045153863
 20
-159.1089709135323
 30
0.0
 10
101.0198173418829
 20
-159.0246188034194
 30
0.0
 10
101.0198173418829
 20
-159.0246188034194
 30
0.0
 10
101.0198173418829
 20
-159.0246188034194
 30
0.0
 10
100.9342045153863
 20
-158.940161340962
 30
0.0
 10
100.9342045153863
 20
-158.940161340962
 30
0.0
 10
100.9342045153863
 20
-158.940161340962
 30
0.0
 10
101.0198173418829
 20
-158.8556968550149
 30
0.0
 10
101.0198173418829
 20
-158.8556968550149
 30
0.0
 10
101.0198173418829
 20
-158.8556968550149
 30
0.0
 10
100.9342045153863
 20
-158.7712323690685
 30
0.0
 10
100.9342045153863
 20
-158.7712323690685
 30
0.0
 10
100.9342045153863
 20
-158.7712323690685
 30
0.0
 10
101.0198173418829
 20
-158.6867678831221
 30
0.0
 10
101.0198173418829
 20
-158.6867678831221
 30
0.0
 10
101.0198173418829
 20
-158.6867678831221
 30
0.0
 10
100.9342045153863
 20
-158.6021910213416
 30
0.0
 10
100.9342045153863
 20
-158.6021910213416
 30
0.0
 10
100.9342045153863
 20
-158.6021910213416
 30
0.0
 10
101.0198173418829
 20
-158.5177265353945
 30
0.0
 10
101.0198173418829
 20
-158.5177265353945
 30
0.0
 10
101.0198173418829
 20
-158.5177265353945
 30
0.0
 10
100.9342045153863
 20
-158.4331496736146
 30
0.0
 10
100.9342045153863
 20
-158.4331496736146
 30
0.0
 10
100.9342045153863
 20
-158.4331496736146
 30
0.0
 10
100.9384607500848
 20
-158.4331496736146
 30
0.0
 10
100.9384607500848
 20
-158.4331496736146
 30
0.0
 10
100.9384607500848
 20
-158.4331496736146
 30
0.0
 10
101.0091135437303
 20
-158.3621492172338
 30
0.0
 10
101.0091135437303
 20
-158.3621492172338
 30
0.0
 10
101.0091135437303
 20
-158.3621492172338
 30
0.0
 10
100.9235007172339
 20
-158.2776847312867
 30
0.0
 10
100.9235007172339
 20
-158.2776847312867
 30
0.0
 10
100.9235007172339
 20
-158.2776847312867
 30
0.0
 10
101.0091135437303
 20
-158.1931078695068
 30
0.0
 10
101.0091135437303
 20
-158.1931078695068
 30
0.0
 10
101.0091135437303
 20
-158.1931078695068
 30
0.0
 10
100.9235007172339
 20
-158.1084116084031
 30
0.0
 10
100.9235007172339
 20
-158.1084116084031
 30
0.0
 10
100.9235007172339
 20
-158.1084116084031
 30
0.0
 10
101.0091135437303
 20
-158.0238347466225
 30
0.0
 10
101.0091135437303
 20
-158.0238347466225
 30
0.0
 10
101.0091135437303
 20
-158.0238347466225
 30
0.0
 10
100.9235007172339
 20
-157.9392578848426
 30
0.0
 10
100.9235007172339
 20
-157.9392578848426
 30
0.0
 10
100.9235007172339
 20
-157.9392578848426
 30
0.0
 10
101.0091135437303
 20
-157.8546739995723
 30
0.0
 10
101.0091135437303
 20
-157.8546739995723
 30
0.0
 10
101.0091135437303
 20
-157.8546739995723
 30
0.0
 10
100.9235007172339
 20
-157.7702095136259
 30
0.0
 10
100.9235007172339
 20
-157.7702095136259
 30
0.0
 10
100.9235007172339
 20
-157.7702095136259
 30
0.0
 10
101.0091135437303
 20
-157.6858644270021
 30
0.0
 10
101.0091135437303
 20
-157.6858644270021
 30
0.0
 10
101.0091135437303
 20
-157.6858644270021
 30
0.0
 10
100.9235007172339
 20
-157.6013999410557
 30
0.0
 10
100.9235007172339
 20
-157.6013999410557
 30
0.0
 10
100.9235007172339
 20
-157.6013999410557
 30
0.0
 10
101.0091135437303
 20
-157.5169354551086
 30
0.0
 10
101.0091135437303
 20
-157.5169354551086
 30
0.0
 10
101.0091135437303
 20
-157.5169354551086
 30
0.0
 10
100.9235007172339
 20
-157.4323585933287
 30
0.0
 10
100.9235007172339
 20
-157.4323585933287
 30
0.0
 10
100.9235007172339
 20
-157.4323585933287
 30
0.0
 10
101.0091135437303
 20
-157.3480135067048
 30
0.0
 10
101.0091135437303
 20
-157.3480135067048
 30
0.0
 10
101.0091135437303
 20
-157.3480135067048
 30
0.0
 10
100.9235007172339
 20
-157.2634296214352
 30
0.0
 10
100.9235007172339
 20
-157.2634296214352
 30
0.0
 10
100.9235007172339
 20
-157.2634296214352
 30
0.0
 10
101.0091135437303
 20
-157.1788527596547
 30
0.0
 10
101.0091135437303
 20
-157.1788527596547
 30
0.0
 10
101.0091135437303
 20
-157.1788527596547
 30
0.0
 10
100.9235007172339
 20
-157.0943882737076
 30
0.0
 10
100.9235007172339
 20
-157.0943882737076
 30
0.0
 10
100.9235007172339
 20
-157.0943882737076
 30
0.0
 10
101.0091135437303
 20
-157.0096990360942
 30
0.0
 10
101.0091135437303
 20
-157.0096990360942
 30
0.0
 10
101.0091135437303
 20
-157.0096990360942
 30
0.0
 10
100.9235007172339
 20
-156.9250027749904
 30
0.0
 10
100.9235007172339
 20
-156.9250027749904
 30
0.0
 10
100.9235007172339
 20
-156.9250027749904
 30
0.0
 10
101.0091135437303
 20
-156.8406506648775
 30
0.0
 10
101.0091135437303
 20
-156.8406506648775
 30
0.0
 10
101.0091135437303
 20
-156.8406506648775
 30
0.0
 10
100.9235007172339
 20
-156.756073803097
 30
0.0
 10
100.9235007172339
 20
-156.756073803097
 30
0.0
 10
100.9235007172339
 20
-156.756073803097
 30
0.0
 10
101.0091135437303
 20
-156.6716093171499
 30
0.0
 10
101.0091135437303
 20
-156.6716093171499
 30
0.0
 10
101.0091135437303
 20
-156.6716093171499
 30
0.0
 10
100.9235007172339
 20
-156.5873766063602
 30
0.0
 10
100.9235007172339
 20
-156.5873766063602
 30
0.0
 10
100.9235007172339
 20
-156.5873766063602
 30
0.0
 10
101.0091135437303
 20
-156.5027997445796
 30
0.0
 10
101.0091135437303
 20
-156.5027997445796
 30
0.0
 10
101.0091135437303
 20
-156.5027997445796
 30
0.0
 10
100.9235007172339
 20
-156.4184546579564
 30
0.0
 10
100.9235007172339
 20
-156.4184546579564
 30
0.0
 10
100.9235007172339
 20
-156.4184546579564
 30
0.0
 10
101.0091135437303
 20
-156.33399017201
 30
0.0
 10
101.0091135437303
 20
-156.33399017201
 30
0.0
 10
101.0091135437303
 20
-156.33399017201
 30
0.0
 10
100.9235007172339
 20
-156.2497574612197
 30
0.0
 10
100.9235007172339
 20
-156.2497574612197
 30
0.0
 10
100.9235007172339
 20
-156.2497574612197
 30
0.0
 10
101.0091135437303
 20
-156.1654053511068
 30
0.0
 10
101.0091135437303
 20
-156.1654053511068
 30
0.0
 10
101.0091135437303
 20
-156.1654053511068
 30
0.0
 10
100.9235007172339
 20
-156.0809408651604
 30
0.0
 10
100.9235007172339
 20
-156.0809408651604
 30
0.0
 10
100.9235007172339
 20
-156.0809408651604
 30
0.0
 10
101.0091135437303
 20
-155.9965957785365
 30
0.0
 10
101.0091135437303
 20
-155.9965957785365
 30
0.0
 10
101.0091135437303
 20
-155.9965957785365
 30
0.0
 10
100.9235007172339
 20
-155.9121312925901
 30
0.0
 10
100.9235007172339
 20
-155.9121312925901
 30
0.0
 10
100.9235007172339
 20
-155.9121312925901
 30
0.0
 10
101.0091135437303
 20
-155.827666806643
 30
0.0
 10
101.0091135437303
 20
-155.827666806643
 30
0.0
 10
101.0091135437303
 20
-155.827666806643
 30
0.0
 10
100.9235007172339
 20
-155.7432023206966
 30
0.0
 10
100.9235007172339
 20
-155.7432023206966
 30
0.0
 10
100.9235007172339
 20
-155.7432023206966
 30
0.0
 10
101.0091135437303
 20
-155.658625458916
 30
0.0
 10
101.0091135437303
 20
-155.658625458916
 30
0.0
 10
101.0091135437303
 20
-155.658625458916
 30
0.0
 10
100.9235007172339
 20
-155.5741609729697
 30
0.0
 10
100.9235007172339
 20
-155.5741609729697
 30
0.0
 10
100.9235007172339
 20
-155.5741609729697
 30
0.0
 10
101.0091135437303
 20
-155.4896964870226
 30
0.0
 10
101.0091135437303
 20
-155.4896964870226
 30
0.0
 10
101.0091135437303
 20
-155.4896964870226
 30
0.0
 10
100.9235007172339
 20
-155.4050072494085
 30
0.0
 10
100.9235007172339
 20
-155.4050072494085
 30
0.0
 10
100.9235007172339
 20
-155.4050072494085
 30
0.0
 10
101.0091135437303
 20
-155.3204233641389
 30
0.0
 10
101.0091135437303
 20
-155.3204233641389
 30
0.0
 10
101.0091135437303
 20
-155.3204233641389
 30
0.0
 10
100.9235007172339
 20
-155.2359659016816
 30
0.0
 10
100.9235007172339
 20
-155.2359659016816
 30
0.0
 10
100.9235007172339
 20
-155.2359659016816
 30
0.0
 10
101.0091135437303
 20
-155.1516137915686
 30
0.0
 10
101.0091135437303
 20
-155.1516137915686
 30
0.0
 10
101.0091135437303
 20
-155.1516137915686
 30
0.0
 10
100.9235007172339
 20
-155.0673810807789
 30
0.0
 10
100.9235007172339
 20
-155.0673810807789
 30
0.0
 10
100.9235007172339
 20
-155.0673810807789
 30
0.0
 10
101.0091135437303
 20
-154.9828042189984
 30
0.0
 10
101.0091135437303
 20
-154.9828042189984
 30
0.0
 10
101.0091135437303
 20
-154.9828042189984
 30
0.0
 10
100.9235007172339
 20
-154.8985715082087
 30
0.0
 10
100.9235007172339
 20
-154.8985715082087
 30
0.0
 10
100.9235007172339
 20
-154.8985715082087
 30
0.0
 10
101.0091135437303
 20
-154.8142193980951
 30
0.0
 10
101.0091135437303
 20
-154.8142193980951
 30
0.0
 10
101.0091135437303
 20
-154.8142193980951
 30
0.0
 10
100.9235007172339
 20
-154.7299866873054
 30
0.0
 10
100.9235007172339
 20
-154.7299866873054
 30
0.0
 10
100.9235007172339
 20
-154.7299866873054
 30
0.0
 10
101.0091135437303
 20
-154.6458663523492
 30
0.0
 10
101.0091135437303
 20
-154.6458663523492
 30
0.0
 10
101.0091135437303
 20
-154.6458663523492
 30
0.0
 10
100.9235007172339
 20
-154.5616336415595
 30
0.0
 10
100.9235007172339
 20
-154.5616336415595
 30
0.0
 10
100.9235007172339
 20
-154.5616336415595
 30
0.0
 10
101.0091135437303
 20
-154.4762490784747
 30
0.0
 10
101.0091135437303
 20
-154.4762490784747
 30
0.0
 10
101.0091135437303
 20
-154.4762490784747
 30
0.0
 10
100.9235007172339
 20
-154.3910962905472
 30
0.0
 10
100.9235007172339
 20
-154.3910962905472
 30
0.0
 10
100.9235007172339
 20
-154.3910962905472
 30
0.0
 10
101.0091135437303
 20
-154.3058311267856
 30
0.0
 10
101.0091135437303
 20
-154.3058311267856
 30
0.0
 10
101.0091135437303
 20
-154.3058311267856
 30
0.0
 10
100.9235007172339
 20
-154.2211348656825
 30
0.0
 10
100.9235007172339
 20
-154.2211348656825
 30
0.0
 10
100.9235007172339
 20
-154.2211348656825
 30
0.0
 10
101.0091135437303
 20
-154.1360944535886
 30
0.0
 10
101.0091135437303
 20
-154.1360944535886
 30
0.0
 10
101.0091135437303
 20
-154.1360944535886
 30
0.0
 10
100.9235007172339
 20
-154.0511734408172
 30
0.0
 10
100.9235007172339
 20
-154.0511734408172
 30
0.0
 10
100.9235007172339
 20
-154.0511734408172
 30
0.0
 10
101.0091135437303
 20
-153.9664771797141
 30
0.0
 10
101.0091135437303
 20
-153.9664771797141
 30
0.0
 10
101.0091135437303
 20
-153.9664771797141
 30
0.0
 10
100.9235007172339
 20
-153.8814437911098
 30
0.0
 10
100.9235007172339
 20
-153.8814437911098
 30
0.0
 10
100.9235007172339
 20
-153.8814437911098
 30
0.0
 10
101.0091135437303
 20
-153.7968599058396
 30
0.0
 10
101.0091135437303
 20
-153.7968599058396
 30
0.0
 10
101.0091135437303
 20
-153.7968599058396
 30
0.0
 10
100.9235007172339
 20
-153.7120512689023
 30
0.0
 10
100.9235007172339
 20
-153.7120512689023
 30
0.0
 10
100.9235007172339
 20
-153.7120512689023
 30
0.0
 10
101.0091135437303
 20
-153.6271302561316
 30
0.0
 10
101.0091135437303
 20
-153.6271302561316
 30
0.0
 10
101.0091135437303
 20
-153.6271302561316
 30
0.0
 10
100.9235007172339
 20
-153.5424339950278
 30
0.0
 10
100.9235007172339
 20
-153.5424339950278
 30
0.0
 10
100.9235007172339
 20
-153.5424339950278
 30
0.0
 10
101.0091135437303
 20
-153.4573935829339
 30
0.0
 10
101.0091135437303
 20
-153.4573935829339
 30
0.0
 10
101.0091135437303
 20
-153.4573935829339
 30
0.0
 10
100.9235007172339
 20
-153.3727043453198
 30
0.0
 10
100.9235007172339
 20
-153.3727043453198
 30
0.0
 10
100.9235007172339
 20
-153.3727043453198
 30
0.0
 10
101.0091135437303
 20
-153.2880080842167
 30
0.0
 10
101.0091135437303
 20
-153.2880080842167
 30
0.0
 10
101.0091135437303
 20
-153.2880080842167
 30
0.0
 10
100.9235007172339
 20
-153.2030870714459
 30
0.0
 10
100.9235007172339
 20
-153.2030870714459
 30
0.0
 10
100.9235007172339
 20
-153.2030870714459
 30
0.0
 10
101.0091135437303
 20
-153.1185102096654
 30
0.0
 10
101.0091135437303
 20
-153.1185102096654
 30
0.0
 10
101.0091135437303
 20
-153.1185102096654
 30
0.0
 10
100.9235007172339
 20
-153.0335821734049
 30
0.0
 10
100.9235007172339
 20
-153.0335821734049
 30
0.0
 10
100.9235007172339
 20
-153.0335821734049
 30
0.0
 10
101.0091135437303
 20
-152.9488929357909
 30
0.0
 10
101.0091135437303
 20
-152.9488929357909
 30
0.0
 10
101.0091135437303
 20
-152.9488929357909
 30
0.0
 10
100.9235007172339
 20
-152.8643090505206
 30
0.0
 10
100.9235007172339
 20
-152.8643090505206
 30
0.0
 10
100.9235007172339
 20
-152.8643090505206
 30
0.0
 10
101.0091135437303
 20
-152.7796198129072
 30
0.0
 10
101.0091135437303
 20
-152.7796198129072
 30
0.0
 10
101.0091135437303
 20
-152.7796198129072
 30
0.0
 10
100.9235007172339
 20
-152.69481117597
 30
0.0
 10
100.9235007172339
 20
-152.69481117597
 30
0.0
 10
100.9235007172339
 20
-152.69481117597
 30
0.0
 10
101.0091135437303
 20
-152.6101149148662
 30
0.0
 10
101.0091135437303
 20
-152.6101149148662
 30
0.0
 10
101.0091135437303
 20
-152.6101149148662
 30
0.0
 10
100.9235007172339
 20
-152.5254186537624
 30
0.0
 10
100.9235007172339
 20
-152.5254186537624
 30
0.0
 10
100.9235007172339
 20
-152.5254186537624
 30
0.0
 10
101.0091135437303
 20
-152.4408417919825
 30
0.0
 10
101.0091135437303
 20
-152.4408417919825
 30
0.0
 10
101.0091135437303
 20
-152.4408417919825
 30
0.0
 10
100.9235007172339
 20
-152.3563773060355
 30
0.0
 10
100.9235007172339
 20
-152.3563773060355
 30
0.0
 10
100.9235007172339
 20
-152.3563773060355
 30
0.0
 10
101.0091135437303
 20
-152.2719128200891
 30
0.0
 10
101.0091135437303
 20
-152.2719128200891
 30
0.0
 10
101.0091135437303
 20
-152.2719128200891
 30
0.0
 10
100.9235007172339
 20
-152.1873359583085
 30
0.0
 10
100.9235007172339
 20
-152.1873359583085
 30
0.0
 10
100.9235007172339
 20
-152.1873359583085
 30
0.0
 10
101.0091135437303
 20
-152.1026467206945
 30
0.0
 10
101.0091135437303
 20
-152.1026467206945
 30
0.0
 10
101.0091135437303
 20
-152.1026467206945
 30
0.0
 10
100.9235007172339
 20
-152.0179504595913
 30
0.0
 10
100.9235007172339
 20
-152.0179504595913
 30
0.0
 10
100.9235007172339
 20
-152.0179504595913
 30
0.0
 10
101.0091135437303
 20
-151.9332541984876
 30
0.0
 10
101.0091135437303
 20
-151.9332541984876
 30
0.0
 10
101.0091135437303
 20
-151.9332541984876
 30
0.0
 10
100.9235007172339
 20
-151.8487967360302
 30
0.0
 10
100.9235007172339
 20
-151.8487967360302
 30
0.0
 10
100.9235007172339
 20
-151.8487967360302
 30
0.0
 10
101.0091135437303
 20
-151.7644446259173
 30
0.0
 10
101.0091135437303
 20
-151.7644446259173
 30
0.0
 10
101.0091135437303
 20
-151.7644446259173
 30
0.0
 10
100.9235007172339
 20
-151.6800995392935
 30
0.0
 10
100.9235007172339
 20
-151.6800995392935
 30
0.0
 10
100.9235007172339
 20
-151.6800995392935
 30
0.0
 10
101.0091135437303
 20
-151.5958598050141
 30
0.0
 10
101.0091135437303
 20
-151.5958598050141
 30
0.0
 10
101.0091135437303
 20
-151.5958598050141
 30
0.0
 10
100.9235007172339
 20
-151.5114023425573
 30
0.0
 10
100.9235007172339
 20
-151.5114023425573
 30
0.0
 10
100.9235007172339
 20
-151.5114023425573
 30
0.0
 10
101.0091135437303
 20
-151.4268184572871
 30
0.0
 10
101.0091135437303
 20
-151.4268184572871
 30
0.0
 10
101.0091135437303
 20
-151.4268184572871
 30
0.0
 10
100.9235007172339
 20
-151.3423609948304
 30
0.0
 10
100.9235007172339
 20
-151.3423609948304
 30
0.0
 10
100.9235007172339
 20
-151.3423609948304
 30
0.0
 10
101.0091135437303
 20
-151.2575523578931
 30
0.0
 10
101.0091135437303
 20
-151.2575523578931
 30
0.0
 10
101.0091135437303
 20
-151.2575523578931
 30
0.0
 10
100.9235007172339
 20
-151.1728560967894
 30
0.0
 10
100.9235007172339
 20
-151.1728560967894
 30
0.0
 10
100.9235007172339
 20
-151.1728560967894
 30
0.0
 10
101.0091135437303
 20
-151.0881598356856
 30
0.0
 10
101.0091135437303
 20
-151.0881598356856
 30
0.0
 10
101.0091135437303
 20
-151.0881598356856
 30
0.0
 10
100.9235007172339
 20
-151.0035829739057
 30
0.0
 10
100.9235007172339
 20
-151.0035829739057
 30
0.0
 10
100.9235007172339
 20
-151.0035829739057
 30
0.0
 10
101.0091135437303
 20
-150.9191184879587
 30
0.0
 10
101.0091135437303
 20
-150.9191184879587
 30
0.0
 10
101.0091135437303
 20
-150.9191184879587
 30
0.0
 10
100.9235007172339
 20
-150.8344292503446
 30
0.0
 10
100.9235007172339
 20
-150.8344292503446
 30
0.0
 10
100.9235007172339
 20
-150.8344292503446
 30
0.0
 10
101.0091135437303
 20
-150.749845365075
 30
0.0
 10
101.0091135437303
 20
-150.749845365075
 30
0.0
 10
101.0091135437303
 20
-150.749845365075
 30
0.0
 10
100.9235007172339
 20
-150.665380879128
 30
0.0
 10
100.9235007172339
 20
-150.665380879128
 30
0.0
 10
100.9235007172339
 20
-150.665380879128
 30
0.0
 10
101.0091135437303
 20
-150.5805722421907
 30
0.0
 10
101.0091135437303
 20
-150.5805722421907
 30
0.0
 10
101.0091135437303
 20
-150.5805722421907
 30
0.0
 10
100.9235007172339
 20
-150.4959953804108
 30
0.0
 10
100.9235007172339
 20
-150.4959953804108
 30
0.0
 10
100.9235007172339
 20
-150.4959953804108
 30
0.0
 10
101.0091135437303
 20
-150.4114185186302
 30
0.0
 10
101.0091135437303
 20
-150.4114185186302
 30
0.0
 10
101.0091135437303
 20
-150.4114185186302
 30
0.0
 10
100.9235007172339
 20
-150.3266098816929
 30
0.0
 10
100.9235007172339
 20
-150.3266098816929
 30
0.0
 10
100.9235007172339
 20
-150.3266098816929
 30
0.0
 10
101.0091135437303
 20
-150.2423771709032
 30
0.0
 10
101.0091135437303
 20
-150.2423771709032
 30
0.0
 10
101.0091135437303
 20
-150.2423771709032
 30
0.0
 10
100.9235007172339
 20
-150.1576809097995
 30
0.0
 10
100.9235007172339
 20
-150.1576809097995
 30
0.0
 10
100.9235007172339
 20
-150.1576809097995
 30
0.0
 10
101.0091135437303
 20
-150.0731040480189
 30
0.0
 10
101.0091135437303
 20
-150.0731040480189
 30
0.0
 10
101.0091135437303
 20
-150.0731040480189
 30
0.0
 10
100.9235007172339
 20
-149.9887589613957
 30
0.0
 10
100.9235007172339
 20
-149.9887589613957
 30
0.0
 10
100.9235007172339
 20
-149.9887589613957
 30
0.0
 10
101.0091135437303
 20
-149.9041750761261
 30
0.0
 10
101.0091135437303
 20
-149.9041750761261
 30
0.0
 10
101.0091135437303
 20
-149.9041750761261
 30
0.0
 10
100.9235007172339
 20
-149.819485838512
 30
0.0
 10
100.9235007172339
 20
-149.819485838512
 30
0.0
 10
100.9235007172339
 20
-149.819485838512
 30
0.0
 10
101.0091135437303
 20
-149.7349019532418
 30
0.0
 10
101.0091135437303
 20
-149.7349019532418
 30
0.0
 10
101.0091135437303
 20
-149.7349019532418
 30
0.0
 10
100.9235007172339
 20
-149.6500933163045
 30
0.0
 10
100.9235007172339
 20
-149.6500933163045
 30
0.0
 10
100.9235007172339
 20
-149.6500933163045
 30
0.0
 10
101.0091135437303
 20
-149.5656358538478
 30
0.0
 10
101.0091135437303
 20
-149.5656358538478
 30
0.0
 10
101.0091135437303
 20
-149.5656358538478
 30
0.0
 10
100.9235007172339
 20
-149.4811713679008
 30
0.0
 10
100.9235007172339
 20
-149.4811713679008
 30
0.0
 10
100.9235007172339
 20
-149.4811713679008
 30
0.0
 10
101.0091135437303
 20
-149.3965874826312
 30
0.0
 10
101.0091135437303
 20
-149.3965874826312
 30
0.0
 10
101.0091135437303
 20
-149.3965874826312
 30
0.0
 10
100.9235007172339
 20
-149.3121300201738
 30
0.0
 10
100.9235007172339
 20
-149.3121300201738
 30
0.0
 10
100.9235007172339
 20
-149.3121300201738
 30
0.0
 10
101.0091135437303
 20
-149.2277779100609
 30
0.0
 10
101.0091135437303
 20
-149.2277779100609
 30
0.0
 10
101.0091135437303
 20
-149.2277779100609
 30
0.0
 10
100.9235007172339
 20
-149.1432010482804
 30
0.0
 10
100.9235007172339
 20
-149.1432010482804
 30
0.0
 10
100.9235007172339
 20
-149.1432010482804
 30
0.0
 10
101.0091135437303
 20
-149.0588489381674
 30
0.0
 10
101.0091135437303
 20
-149.0588489381674
 30
0.0
 10
101.0091135437303
 20
-149.0588489381674
 30
0.0
 10
100.9235007172339
 20
-148.9742720763869
 30
0.0
 10
100.9235007172339
 20
-148.9742720763869
 30
0.0
 10
100.9235007172339
 20
-148.9742720763869
 30
0.0
 10
101.0091135437303
 20
-148.8898075904405
 30
0.0
 10
101.0091135437303
 20
-148.8898075904405
 30
0.0
 10
101.0091135437303
 20
-148.8898075904405
 30
0.0
 10
100.9235007172339
 20
-148.8053431044934
 30
0.0
 10
100.9235007172339
 20
-148.8053431044934
 30
0.0
 10
100.9235007172339
 20
-148.8053431044934
 30
0.0
 10
101.0091135437303
 20
-148.7207662427132
 30
0.0
 10
101.0091135437303
 20
-148.7207662427132
 30
0.0
 10
101.0091135437303
 20
-148.7207662427132
 30
0.0
 10
100.9235007172339
 20
-148.6360770050991
 30
0.0
 10
100.9235007172339
 20
-148.6360770050991
 30
0.0
 10
100.9235007172339
 20
-148.6360770050991
 30
0.0
 10
101.0091135437303
 20
-148.5516125191524
 30
0.0
 10
101.0091135437303
 20
-148.5516125191524
 30
0.0
 10
101.0091135437303
 20
-148.5516125191524
 30
0.0
 10
100.9235007172339
 20
-148.466916258049
 30
0.0
 10
100.9235007172339
 20
-148.466916258049
 30
0.0
 10
100.9235007172339
 20
-148.466916258049
 30
0.0
 10
101.0091135437303
 20
-148.3824517721022
 30
0.0
 10
101.0091135437303
 20
-148.3824517721022
 30
0.0
 10
101.0091135437303
 20
-148.3824517721022
 30
0.0
 10
100.9235007172339
 20
-148.2979872861555
 30
0.0
 10
100.9235007172339
 20
-148.2979872861555
 30
0.0
 10
100.9235007172339
 20
-148.2979872861555
 30
0.0
 10
101.0091135437303
 20
-148.2135298236985
 30
0.0
 10
101.0091135437303
 20
-148.2135298236985
 30
0.0
 10
101.0091135437303
 20
-148.2135298236985
 30
0.0
 10
100.9235007172339
 20
-148.1291777135852
 30
0.0
 10
100.9235007172339
 20
-148.1291777135852
 30
0.0
 10
100.9235007172339
 20
-148.1291777135852
 30
0.0
 10
101.0091135437303
 20
-148.044600851805
 30
0.0
 10
101.0091135437303
 20
-148.044600851805
 30
0.0
 10
101.0091135437303
 20
-148.044600851805
 30
0.0
 10
100.9235007172339
 20
-147.9602487416921
 30
0.0
 10
100.9235007172339
 20
-147.9602487416921
 30
0.0
 10
100.9235007172339
 20
-147.9602487416921
 30
0.0
 10
101.0091135437303
 20
-147.8760160309021
 30
0.0
 10
101.0091135437303
 20
-147.8760160309021
 30
0.0
 10
101.0091135437303
 20
-147.8760160309021
 30
0.0
 10
100.9235007172339
 20
-147.7915515449553
 30
0.0
 10
100.9235007172339
 20
-147.7915515449553
 30
0.0
 10
100.9235007172339
 20
-147.7915515449553
 30
0.0
 10
101.0091135437303
 20
-147.7072064583318
 30
0.0
 10
101.0091135437303
 20
-147.7072064583318
 30
0.0
 10
101.0091135437303
 20
-147.7072064583318
 30
0.0
 10
100.9235007172339
 20
-147.6228613717082
 30
0.0
 10
100.9235007172339
 20
-147.6228613717082
 30
0.0
 10
100.9235007172339
 20
-147.6228613717082
 30
0.0
 10
101.0091135437303
 20
-147.5383968857615
 30
0.0
 10
101.0091135437303
 20
-147.5383968857615
 30
0.0
 10
101.0091135437303
 20
-147.5383968857615
 30
0.0
 10
100.9235007172339
 20
-147.4539323998148
 30
0.0
 10
100.9235007172339
 20
-147.4539323998148
 30
0.0
 10
100.9235007172339
 20
-147.4539323998148
 30
0.0
 10
101.0091135437303
 20
-147.3695802897019
 30
0.0
 10
101.0091135437303
 20
-147.3695802897019
 30
0.0
 10
101.0091135437303
 20
-147.3695802897019
 30
0.0
 10
100.9235007172339
 20
-147.2851158037551
 30
0.0
 10
100.9235007172339
 20
-147.2851158037551
 30
0.0
 10
100.9235007172339
 20
-147.2851158037551
 30
0.0
 10
101.0091135437303
 20
-147.2005389419749
 30
0.0
 10
101.0091135437303
 20
-147.2005389419749
 30
0.0
 10
101.0091135437303
 20
-147.2005389419749
 30
0.0
 10
100.9235007172339
 20
-147.1160744560279
 30
0.0
 10
100.9235007172339
 20
-147.1160744560279
 30
0.0
 10
100.9235007172339
 20
-147.1160744560279
 30
0.0
 10
101.0091135437303
 20
-147.0313852184144
 30
0.0
 10
101.0091135437303
 20
-147.0313852184144
 30
0.0
 10
101.0091135437303
 20
-147.0313852184144
 30
0.0
 10
100.9235007172339
 20
-146.9468083566335
 30
0.0
 10
100.9235007172339
 20
-146.9468083566335
 30
0.0
 10
100.9235007172339
 20
-146.9468083566335
 30
0.0
 10
101.0091135437303
 20
-146.8623438706871
 30
0.0
 10
101.0091135437303
 20
-146.8623438706871
 30
0.0
 10
101.0091135437303
 20
-146.8623438706871
 30
0.0
 10
100.9235007172339
 20
-146.7781111598971
 30
0.0
 10
100.9235007172339
 20
-146.7781111598971
 30
0.0
 10
100.9235007172339
 20
-146.7781111598971
 30
0.0
 10
101.0091135437303
 20
-146.6935272746272
 30
0.0
 10
101.0091135437303
 20
-146.6935272746272
 30
0.0
 10
101.0091135437303
 20
-146.6935272746272
 30
0.0
 10
100.9235007172339
 20
-146.6091821880036
 30
0.0
 10
100.9235007172339
 20
-146.6091821880036
 30
0.0
 10
100.9235007172339
 20
-146.6091821880036
 30
0.0
 10
101.0091135437303
 20
-146.5247177020569
 30
0.0
 10
101.0091135437303
 20
-146.5247177020569
 30
0.0
 10
101.0091135437303
 20
-146.5247177020569
 30
0.0
 10
100.9235007172339
 20
-146.4404849912675
 30
0.0
 10
100.9235007172339
 20
-146.4404849912675
 30
0.0
 10
100.9235007172339
 20
-146.4404849912675
 30
0.0
 10
101.0091135437303
 20
-146.356132881154
 30
0.0
 10
101.0091135437303
 20
-146.356132881154
 30
0.0
 10
101.0091135437303
 20
-146.356132881154
 30
0.0
 10
100.9235007172339
 20
-146.2719001703639
 30
0.0
 10
100.9235007172339
 20
-146.2719001703639
 30
0.0
 10
100.9235007172339
 20
-146.2719001703639
 30
0.0
 10
101.0091135437303
 20
-146.1876674595742
 30
0.0
 10
101.0091135437303
 20
-146.1876674595742
 30
0.0
 10
101.0091135437303
 20
-146.1876674595742
 30
0.0
 10
100.9235007172339
 20
-146.1034347487842
 30
0.0
 10
100.9235007172339
 20
-146.1034347487842
 30
0.0
 10
100.9235007172339
 20
-146.1034347487842
 30
0.0
 10
101.0092294313089
 20
-146.0230017458689
 30
0.0
 10
101.0092294313089
 20
-146.0230017458689
 30
0.0
 10
101.0092294313089
 20
-146.0230017458689
 30
0.0
 10
100.9236166048123
 20
-145.9385372599222
 30
0.0
 10
100.9236166048123
 20
-145.9385372599222
 30
0.0
 10
100.9236166048123
 20
-145.9385372599222
 30
0.0
 10
101.0092294313089
 20
-145.8539603981417
 30
0.0
 10
101.0092294313089
 20
-145.8539603981417
 30
0.0
 10
101.0092294313089
 20
-145.8539603981417
 30
0.0
 10
100.9236166048123
 20
-145.7692641370382
 30
0.0
 10
100.9236166048123
 20
-145.7692641370382
 30
0.0
 10
100.9236166048123
 20
-145.7692641370382
 30
0.0
 10
101.0092294313089
 20
-145.684687275258
 30
0.0
 10
101.0092294313089
 20
-145.684687275258
 30
0.0
 10
101.0092294313089
 20
-145.684687275258
 30
0.0
 10
100.9236166048123
 20
-145.6001033899877
 30
0.0
 10
100.9236166048123
 20
-145.6001033899877
 30
0.0
 10
100.9236166048123
 20
-145.6001033899877
 30
0.0
 10
101.0092294313089
 20
-145.5155265282078
 30
0.0
 10
101.0092294313089
 20
-145.5155265282078
 30
0.0
 10
101.0092294313089
 20
-145.5155265282078
 30
0.0
 10
100.9236166048123
 20
-145.4310620422608
 30
0.0
 10
100.9236166048123
 20
-145.4310620422608
 30
0.0
 10
100.9236166048123
 20
-145.4310620422608
 30
0.0
 10
101.0092294313089
 20
-145.3467169556372
 30
0.0
 10
101.0092294313089
 20
-145.3467169556372
 30
0.0
 10
101.0092294313089
 20
-145.3467169556372
 30
0.0
 10
100.9236166048123
 20
-145.2622524696908
 30
0.0
 10
100.9236166048123
 20
-145.2622524696908
 30
0.0
 10
100.9236166048123
 20
-145.2622524696908
 30
0.0
 10
101.0092294313089
 20
-145.1777879837438
 30
0.0
 10
101.0092294313089
 20
-145.1777879837438
 30
0.0
 10
101.0092294313089
 20
-145.1777879837438
 30
0.0
 10
100.9236166048123
 20
-145.0932111219635
 30
0.0
 10
100.9236166048123
 20
-145.0932111219635
 30
0.0
 10
100.9236166048123
 20
-145.0932111219635
 30
0.0
 10
101.0092294313089
 20
-145.0088660353403
 30
0.0
 10
101.0092294313089
 20
-145.0088660353403
 30
0.0
 10
101.0092294313089
 20
-145.0088660353403
 30
0.0
 10
100.9236166048123
 20
-144.9242821500701
 30
0.0
 10
100.9236166048123
 20
-144.9242821500701
 30
0.0
 10
100.9236166048123
 20
-144.9242821500701
 30
0.0
 10
101.0092294313089
 20
-144.8397052882898
 30
0.0
 10
101.0092294313089
 20
-144.8397052882898
 30
0.0
 10
101.0092294313089
 20
-144.8397052882898
 30
0.0
 10
100.9236166048123
 20
-144.7552408023431
 30
0.0
 10
100.9236166048123
 20
-144.7552408023431
 30
0.0
 10
100.9236166048123
 20
-144.7552408023431
 30
0.0
 10
101.0092294313089
 20
-144.670551564729
 30
0.0
 10
101.0092294313089
 20
-144.670551564729
 30
0.0
 10
101.0092294313089
 20
-144.670551564729
 30
0.0
 10
100.9236166048123
 20
-144.5858553036256
 30
0.0
 10
100.9236166048123
 20
-144.5858553036256
 30
0.0
 10
100.9236166048123
 20
-144.5858553036256
 30
0.0
 10
101.0092294313089
 20
-144.5015031935124
 30
0.0
 10
101.0092294313089
 20
-144.5015031935124
 30
0.0
 10
101.0092294313089
 20
-144.5015031935124
 30
0.0
 10
100.9236166048123
 20
-144.4169263317325
 30
0.0
 10
100.9236166048123
 20
-144.4169263317325
 30
0.0
 10
100.9236166048123
 20
-144.4169263317325
 30
0.0
 10
101.0092294313089
 20
-144.3324618457854
 30
0.0
 10
101.0092294313089
 20
-144.3324618457854
 30
0.0
 10
101.0092294313089
 20
-144.3324618457854
 30
0.0
 10
100.9236166048123
 20
-144.2482291349957
 30
0.0
 10
100.9236166048123
 20
-144.2482291349957
 30
0.0
 10
100.9236166048123
 20
-144.2482291349957
 30
0.0
 10
101.0092294313089
 20
-144.1636522732151
 30
0.0
 10
101.0092294313089
 20
-144.1636522732151
 30
0.0
 10
101.0092294313089
 20
-144.1636522732151
 30
0.0
 10
100.9236166048123
 20
-144.0793071865916
 30
0.0
 10
100.9236166048123
 20
-144.0793071865916
 30
0.0
 10
100.9236166048123
 20
-144.0793071865916
 30
0.0
 10
101.0092294313089
 20
-143.9948427006449
 30
0.0
 10
101.0092294313089
 20
-143.9948427006449
 30
0.0
 10
101.0092294313089
 20
-143.9948427006449
 30
0.0
 10
100.9236166048123
 20
-143.9106099898551
 30
0.0
 10
100.9236166048123
 20
-143.9106099898551
 30
0.0
 10
100.9236166048123
 20
-143.9106099898551
 30
0.0
 10
101.0092294313089
 20
-143.8262578797423
 30
0.0
 10
101.0092294313089
 20
-143.8262578797423
 30
0.0
 10
101.0092294313089
 20
-143.8262578797423
 30
0.0
 10
100.9236166048123
 20
-143.7417933937952
 30
0.0
 10
100.9236166048123
 20
-143.7417933937952
 30
0.0
 10
100.9236166048123
 20
-143.7417933937952
 30
0.0
 10
101.0092294313089
 20
-143.6574483071716
 30
0.0
 10
101.0092294313089
 20
-143.6574483071716
 30
0.0
 10
101.0092294313089
 20
-143.6574483071716
 30
0.0
 10
100.9236166048123
 20
-143.5729838212249
 30
0.0
 10
100.9236166048123
 20
-143.5729838212249
 30
0.0
 10
100.9236166048123
 20
-143.5729838212249
 30
0.0
 10
101.0092294313089
 20
-143.4885193352782
 30
0.0
 10
101.0092294313089
 20
-143.4885193352782
 30
0.0
 10
101.0092294313089
 20
-143.4885193352782
 30
0.0
 10
100.9236166048123
 20
-143.4040548493315
 30
0.0
 10
100.9236166048123
 20
-143.4040548493315
 30
0.0
 10
100.9236166048123
 20
-143.4040548493315
 30
0.0
 10
101.0092294313089
 20
-143.3194779875512
 30
0.0
 10
101.0092294313089
 20
-143.3194779875512
 30
0.0
 10
101.0092294313089
 20
-143.3194779875512
 30
0.0
 10
100.9236166048123
 20
-143.2350135016045
 30
0.0
 10
100.9236166048123
 20
-143.2350135016045
 30
0.0
 10
100.9236166048123
 20
-143.2350135016045
 30
0.0
 10
101.0092294313089
 20
-143.1505490156578
 30
0.0
 10
101.0092294313089
 20
-143.1505490156578
 30
0.0
 10
101.0092294313089
 20
-143.1505490156578
 30
0.0
 10
100.9236166048123
 20
-143.065859778044
 30
0.0
 10
100.9236166048123
 20
-143.065859778044
 30
0.0
 10
100.9236166048123
 20
-143.065859778044
 30
0.0
 10
101.0092294313089
 20
-142.9812758927744
 30
0.0
 10
101.0092294313089
 20
-142.9812758927744
 30
0.0
 10
101.0092294313089
 20
-142.9812758927744
 30
0.0
 10
100.9236166048123
 20
-142.8968184303171
 30
0.0
 10
100.9236166048123
 20
-142.8968184303171
 30
0.0
 10
100.9236166048123
 20
-142.8968184303171
 30
0.0
 10
101.0092294313089
 20
-142.8124663202038
 30
0.0
 10
101.0092294313089
 20
-142.8124663202038
 30
0.0
 10
101.0092294313089
 20
-142.8124663202038
 30
0.0
 10
100.9236166048123
 20
-142.7282336094138
 30
0.0
 10
100.9236166048123
 20
-142.7282336094138
 30
0.0
 10
100.9236166048123
 20
-142.7282336094138
 30
0.0
 10
101.0092294313089
 20
-142.6436567476336
 30
0.0
 10
101.0092294313089
 20
-142.6436567476336
 30
0.0
 10
101.0092294313089
 20
-142.6436567476336
 30
0.0
 10
100.9236166048123
 20
-142.5594240368435
 30
0.0
 10
100.9236166048123
 20
-142.5594240368435
 30
0.0
 10
100.9236166048123
 20
-142.5594240368435
 30
0.0
 10
101.0092294313089
 20
-142.4750719267309
 30
0.0
 10
101.0092294313089
 20
-142.4750719267309
 30
0.0
 10
101.0092294313089
 20
-142.4750719267309
 30
0.0
 10
100.9236166048123
 20
-142.3908392159406
 30
0.0
 10
100.9236166048123
 20
-142.3908392159406
 30
0.0
 10
100.9236166048123
 20
-142.3908392159406
 30
0.0
 10
101.0092294313089
 20
-142.3067188809844
 30
0.0
 10
101.0092294313089
 20
-142.3067188809844
 30
0.0
 10
101.0092294313089
 20
-142.3067188809844
 30
0.0
 10
100.9236166048123
 20
-142.2224861701947
 30
0.0
 10
100.9236166048123
 20
-142.2224861701947
 30
0.0
 10
100.9236166048123
 20
-142.2224861701947
 30
0.0
 10
101.0092294313089
 20
-142.1371016071102
 30
0.0
 10
101.0092294313089
 20
-142.1371016071102
 30
0.0
 10
101.0092294313089
 20
-142.1371016071102
 30
0.0
 10
100.9236166048123
 20
-142.0519488191824
 30
0.0
 10
100.9236166048123
 20
-142.0519488191824
 30
0.0
 10
100.9236166048123
 20
-142.0519488191824
 30
0.0
 10
101.0092294313089
 20
-141.9666836554211
 30
0.0
 10
101.0092294313089
 20
-141.9666836554211
 30
0.0
 10
101.0092294313089
 20
-141.9666836554211
 30
0.0
 10
100.9236166048123
 20
-141.8819873943177
 30
0.0
 10
100.9236166048123
 20
-141.8819873943177
 30
0.0
 10
100.9236166048123
 20
-141.8819873943177
 30
0.0
 10
101.0092294313089
 20
-141.7969469822234
 30
0.0
 10
101.0092294313089
 20
-141.7969469822234
 30
0.0
 10
101.0092294313089
 20
-141.7969469822234
 30
0.0
 10
100.9236166048123
 20
-141.7120259694527
 30
0.0
 10
100.9236166048123
 20
-141.7120259694527
 30
0.0
 10
100.9236166048123
 20
-141.7120259694527
 30
0.0
 10
101.0092294313089
 20
-141.6273297083496
 30
0.0
 10
101.0092294313089
 20
-141.6273297083496
 30
0.0
 10
101.0092294313089
 20
-141.6273297083496
 30
0.0
 10
100.9236166048123
 20
-141.5422963197447
 30
0.0
 10
100.9236166048123
 20
-141.5422963197447
 30
0.0
 10
100.9236166048123
 20
-141.5422963197447
 30
0.0
 10
101.0092294313089
 20
-141.4577124344748
 30
0.0
 10
101.0092294313089
 20
-141.4577124344748
 30
0.0
 10
101.0092294313089
 20
-141.4577124344748
 30
0.0
 10
100.9236166048123
 20
-141.3729037975375
 30
0.0
 10
100.9236166048123
 20
-141.3729037975375
 30
0.0
 10
100.9236166048123
 20
-141.3729037975375
 30
0.0
 10
101.0092294313089
 20
-141.2879827847671
 30
0.0
 10
101.0092294313089
 20
-141.2879827847671
 30
0.0
 10
101.0092294313089
 20
-141.2879827847671
 30
0.0
 10
100.9236166048123
 20
-141.2032865236633
 30
0.0
 10
100.9236166048123
 20
-141.2032865236633
 30
0.0
 10
100.9236166048123
 20
-141.2032865236633
 30
0.0
 10
101.0092294313089
 20
-141.1182461115694
 30
0.0
 10
101.0092294313089
 20
-141.1182461115694
 30
0.0
 10
101.0092294313089
 20
-141.1182461115694
 30
0.0
 10
100.9236166048123
 20
-141.0335568739553
 30
0.0
 10
100.9236166048123
 20
-141.0335568739553
 30
0.0
 10
100.9236166048123
 20
-141.0335568739553
 30
0.0
 10
101.0092294313089
 20
-140.9488606128515
 30
0.0
 10
101.0092294313089
 20
-140.9488606128515
 30
0.0
 10
101.0092294313089
 20
-140.9488606128515
 30
0.0
 10
100.9236166048123
 20
-140.8639396000811
 30
0.0
 10
100.9236166048123
 20
-140.8639396000811
 30
0.0
 10
100.9236166048123
 20
-140.8639396000811
 30
0.0
 10
101.0092294313089
 20
-140.7793627383005
 30
0.0
 10
101.0092294313089
 20
-140.7793627383005
 30
0.0
 10
101.0092294313089
 20
-140.7793627383005
 30
0.0
 10
100.9236166048123
 20
-140.6944347020401
 30
0.0
 10
100.9236166048123
 20
-140.6944347020401
 30
0.0
 10
100.9236166048123
 20
-140.6944347020401
 30
0.0
 10
101.0092294313089
 20
-140.6096260651028
 30
0.0
 10
101.0092294313089
 20
-140.6096260651028
 30
0.0
 10
101.0092294313089
 20
-140.6096260651028
 30
0.0
 10
100.9236166048123
 20
-140.5251615791561
 30
0.0
 10
100.9236166048123
 20
-140.5251615791561
 30
0.0
 10
100.9236166048123
 20
-140.5251615791561
 30
0.0
 10
101.0092294313089
 20
-140.4404723415421
 30
0.0
 10
101.0092294313089
 20
-140.4404723415421
 30
0.0
 10
101.0092294313089
 20
-140.4404723415421
 30
0.0
 10
100.9236166048123
 20
-140.3556637046051
 30
0.0
 10
100.9236166048123
 20
-140.3556637046051
 30
0.0
 10
100.9236166048123
 20
-140.3556637046051
 30
0.0
 10
101.0092294313089
 20
-140.2709674435017
 30
0.0
 10
101.0092294313089
 20
-140.2709674435017
 30
0.0
 10
101.0092294313089
 20
-140.2709674435017
 30
0.0
 10
100.9236166048123
 20
-140.1862711823979
 30
0.0
 10
100.9236166048123
 20
-140.1862711823979
 30
0.0
 10
100.9236166048123
 20
-140.1862711823979
 30
0.0
 10
101.0092294313089
 20
-140.1016943206174
 30
0.0
 10
101.0092294313089
 20
-140.1016943206174
 30
0.0
 10
101.0092294313089
 20
-140.1016943206174
 30
0.0
 10
100.9236166048123
 20
-140.0172298346707
 30
0.0
 10
100.9236166048123
 20
-140.0172298346707
 30
0.0
 10
100.9236166048123
 20
-140.0172298346707
 30
0.0
 10
101.0092294313089
 20
-139.9327653487239
 30
0.0
 10
101.0092294313089
 20
-139.9327653487239
 30
0.0
 10
101.0092294313089
 20
-139.9327653487239
 30
0.0
 10
100.9236166048123
 20
-139.8481884869437
 30
0.0
 10
100.9236166048123
 20
-139.8481884869437
 30
0.0
 10
100.9236166048123
 20
-139.8481884869437
 30
0.0
 10
101.0092294313089
 20
-139.7634992493293
 30
0.0
 10
101.0092294313089
 20
-139.7634992493293
 30
0.0
 10
101.0092294313089
 20
-139.7634992493293
 30
0.0
 10
100.9236166048123
 20
-139.6788029882262
 30
0.0
 10
100.9236166048123
 20
-139.6788029882262
 30
0.0
 10
100.9236166048123
 20
-139.6788029882262
 30
0.0
 10
101.0092294313089
 20
-139.5941067271225
 30
0.0
 10
101.0092294313089
 20
-139.5941067271225
 30
0.0
 10
101.0092294313089
 20
-139.5941067271225
 30
0.0
 10
100.9236166048123
 20
-139.5096492646657
 30
0.0
 10
100.9236166048123
 20
-139.5096492646657
 30
0.0
 10
100.9236166048123
 20
-139.5096492646657
 30
0.0
 10
101.0092294313089
 20
-139.4252971545528
 30
0.0
 10
101.0092294313089
 20
-139.4252971545528
 30
0.0
 10
101.0092294313089
 20
-139.4252971545528
 30
0.0
 10
100.9236166048123
 20
-139.340952067929
 30
0.0
 10
100.9236166048123
 20
-139.340952067929
 30
0.0
 10
100.9236166048123
 20
-139.340952067929
 30
0.0
 10
101.0092294313089
 20
-139.2567123336496
 30
0.0
 10
101.0092294313089
 20
-139.2567123336496
 30
0.0
 10
101.0092294313089
 20
-139.2567123336496
 30
0.0
 10
100.9236166048123
 20
-139.1722548711922
 30
0.0
 10
100.9236166048123
 20
-139.1722548711922
 30
0.0
 10
100.9236166048123
 20
-139.1722548711922
 30
0.0
 10
101.0092294313089
 20
-139.0876709859223
 30
0.0
 10
101.0092294313089
 20
-139.0876709859223
 30
0.0
 10
101.0092294313089
 20
-139.0876709859223
 30
0.0
 10
100.9236166048123
 20
-139.0032135234652
 30
0.0
 10
100.9236166048123
 20
-139.0032135234652
 30
0.0
 10
100.9236166048123
 20
-139.0032135234652
 30
0.0
 10
101.0092294313089
 20
-138.918404886528
 30
0.0
 10
101.0092294313089
 20
-138.918404886528
 30
0.0
 10
101.0092294313089
 20
-138.918404886528
 30
0.0
 10
100.9236166048123
 20
-138.8337086254245
 30
0.0
 10
100.9236166048123
 20
-138.8337086254245
 30
0.0
 10
100.9236166048123
 20
-138.8337086254245
 30
0.0
 10
101.0092294313089
 20
-138.7490123643211
 30
0.0
 10
101.0092294313089
 20
-138.7490123643211
 30
0.0
 10
101.0092294313089
 20
-138.7490123643211
 30
0.0
 10
100.9236166048123
 20
-138.6644355025406
 30
0.0
 10
100.9236166048123
 20
-138.6644355025406
 30
0.0
 10
100.9236166048123
 20
-138.6644355025406
 30
0.0
 10
101.0092294313089
 20
-138.5799710165938
 30
0.0
 10
101.0092294313089
 20
-138.5799710165938
 30
0.0
 10
101.0092294313089
 20
-138.5799710165938
 30
0.0
 10
100.9236166048123
 20
-138.4951623796566
 30
0.0
 10
100.9236166048123
 20
-138.4951623796566
 30
0.0
 10
100.9236166048123
 20
-138.4951623796566
 30
0.0
 10
101.0092294313089
 20
-138.4106978937102
 30
0.0
 10
101.0092294313089
 20
-138.4106978937102
 30
0.0
 10
101.0092294313089
 20
-138.4106978937102
 30
0.0
 10
100.9236166048123
 20
-138.3262334077634
 30
0.0
 10
100.9236166048123
 20
-138.3262334077634
 30
0.0
 10
100.9236166048123
 20
-138.3262334077634
 30
0.0
 10
101.0092294313089
 20
-138.2414247708262
 30
0.0
 10
101.0092294313089
 20
-138.2414247708262
 30
0.0
 10
101.0092294313089
 20
-138.2414247708262
 30
0.0
 10
100.9236166048123
 20
-138.1568479090456
 30
0.0
 10
100.9236166048123
 20
-138.1568479090456
 30
0.0
 10
100.9236166048123
 20
-138.1568479090456
 30
0.0
 10
101.0092294313089
 20
-138.0722710472654
 30
0.0
 10
101.0092294313089
 20
-138.0722710472654
 30
0.0
 10
101.0092294313089
 20
-138.0722710472654
 30
0.0
 10
100.9236166048123
 20
-137.9874624103284
 30
0.0
 10
100.9236166048123
 20
-137.9874624103284
 30
0.0
 10
100.9236166048123
 20
-137.9874624103284
 30
0.0
 10
101.0092294313089
 20
-137.9032296995384
 30
0.0
 10
101.0092294313089
 20
-137.9032296995384
 30
0.0
 10
101.0092294313089
 20
-137.9032296995384
 30
0.0
 10
100.9236166048123
 20
-137.818533438435
 30
0.0
 10
100.9236166048123
 20
-137.818533438435
 30
0.0
 10
100.9236166048123
 20
-137.818533438435
 30
0.0
 10
101.0092294313089
 20
-137.7339565766547
 30
0.0
 10
101.0092294313089
 20
-137.7339565766547
 30
0.0
 10
101.0092294313089
 20
-137.7339565766547
 30
0.0
 10
100.9236166048123
 20
-137.6496114900309
 30
0.0
 10
100.9236166048123
 20
-137.6496114900309
 30
0.0
 10
100.9236166048123
 20
-137.6496114900309
 30
0.0
 10
101.0092294313089
 20
-137.565027604761
 30
0.0
 10
101.0092294313089
 20
-137.565027604761
 30
0.0
 10
101.0092294313089
 20
-137.565027604761
 30
0.0
 10
100.9236166048123
 20
-137.4803383671472
 30
0.0
 10
100.9236166048123
 20
-137.4803383671472
 30
0.0
 10
100.9236166048123
 20
-137.4803383671472
 30
0.0
 10
101.0092294313089
 20
-137.395754481877
 30
0.0
 10
101.0092294313089
 20
-137.395754481877
 30
0.0
 10
101.0092294313089
 20
-137.395754481877
 30
0.0
 10
100.9236166048123
 20
-137.3109458449401
 30
0.0
 10
100.9236166048123
 20
-137.3109458449401
 30
0.0
 10
100.9236166048123
 20
-137.3109458449401
 30
0.0
 10
101.0092294313089
 20
-137.2264883824827
 30
0.0
 10
101.0092294313089
 20
-137.2264883824827
 30
0.0
 10
101.0092294313089
 20
-137.2264883824827
 30
0.0
 10
100.9236166048123
 20
-137.142023896536
 30
0.0
 10
100.9236166048123
 20
-137.142023896536
 30
0.0
 10
100.9236166048123
 20
-137.142023896536
 30
0.0
 10
101.0092294313089
 20
-137.0574400112664
 30
0.0
 10
101.0092294313089
 20
-137.0574400112664
 30
0.0
 10
101.0092294313089
 20
-137.0574400112664
 30
0.0
 10
100.9236166048123
 20
-136.972982548809
 30
0.0
 10
100.9236166048123
 20
-136.972982548809
 30
0.0
 10
100.9236166048123
 20
-136.972982548809
 30
0.0
 10
101.0092294313089
 20
-136.8886304386958
 30
0.0
 10
101.0092294313089
 20
-136.8886304386958
 30
0.0
 10
101.0092294313089
 20
-136.8886304386958
 30
0.0
 10
100.9236166048123
 20
-136.8040535769158
 30
0.0
 10
100.9236166048123
 20
-136.8040535769158
 30
0.0
 10
100.9236166048123
 20
-136.8040535769158
 30
0.0
 10
101.0092294313089
 20
-136.7197014668023
 30
0.0
 10
101.0092294313089
 20
-136.7197014668023
 30
0.0
 10
101.0092294313089
 20
-136.7197014668023
 30
0.0
 10
100.9236166048123
 20
-136.6351246050221
 30
0.0
 10
100.9236166048123
 20
-136.6351246050221
 30
0.0
 10
100.9236166048123
 20
-136.6351246050221
 30
0.0
 10
101.0092294313089
 20
-136.5506601190753
 30
0.0
 10
101.0092294313089
 20
-136.5506601190753
 30
0.0
 10
101.0092294313089
 20
-136.5506601190753
 30
0.0
 10
100.9236166048123
 20
-136.4661956331286
 30
0.0
 10
100.9236166048123
 20
-136.4661956331286
 30
0.0
 10
100.9236166048123
 20
-136.4661956331286
 30
0.0
 10
101.0092294313089
 20
-136.3816187713484
 30
0.0
 10
101.0092294313089
 20
-136.3816187713484
 30
0.0
 10
101.0092294313089
 20
-136.3816187713484
 30
0.0
 10
100.9236166048123
 20
-136.2969295337343
 30
0.0
 10
100.9236166048123
 20
-136.2969295337343
 30
0.0
 10
100.9236166048123
 20
-136.2969295337343
 30
0.0
 10
101.0092294313089
 20
-136.2124650477876
 30
0.0
 10
101.0092294313089
 20
-136.2124650477876
 30
0.0
 10
101.0092294313089
 20
-136.2124650477876
 30
0.0
 10
100.9236166048123
 20
-136.1277687866841
 30
0.0
 10
100.9236166048123
 20
-136.1277687866841
 30
0.0
 10
100.9236166048123
 20
-136.1277687866841
 30
0.0
 10
101.0092294313089
 20
-136.0433043007374
 30
0.0
 10
101.0092294313089
 20
-136.0433043007374
 30
0.0
 10
101.0092294313089
 20
-136.0433043007374
 30
0.0
 10
100.9236166048123
 20
-135.9588398147907
 30
0.0
 10
100.9236166048123
 20
-135.9588398147907
 30
0.0
 10
100.9236166048123
 20
-135.9588398147907
 30
0.0
 10
101.0092294313089
 20
-135.8743823523336
 30
0.0
 10
101.0092294313089
 20
-135.8743823523336
 30
0.0
 10
101.0092294313089
 20
-135.8743823523336
 30
0.0
 10
100.9236166048123
 20
-135.7900302422204
 30
0.0
 10
100.9236166048123
 20
-135.7900302422204
 30
0.0
 10
100.9236166048123
 20
-135.7900302422204
 30
0.0
 10
101.0092294313089
 20
-135.7054533804405
 30
0.0
 10
101.0092294313089
 20
-135.7054533804405
 30
0.0
 10
101.0092294313089
 20
-135.7054533804405
 30
0.0
 10
100.9236166048123
 20
-135.6211012703269
 30
0.0
 10
100.9236166048123
 20
-135.6211012703269
 30
0.0
 10
100.9236166048123
 20
-135.6211012703269
 30
0.0
 10
101.0092294313089
 20
-135.5368685595372
 30
0.0
 10
101.0092294313089
 20
-135.5368685595372
 30
0.0
 10
101.0092294313089
 20
-135.5368685595372
 30
0.0
 10
100.9236166048123
 20
-135.4524040735905
 30
0.0
 10
100.9236166048123
 20
-135.4524040735905
 30
0.0
 10
100.9236166048123
 20
-135.4524040735905
 30
0.0
 10
101.0092294313089
 20
-135.368058986967
 30
0.0
 10
101.0092294313089
 20
-135.368058986967
 30
0.0
 10
101.0092294313089
 20
-135.368058986967
 30
0.0
 10
100.9236166048123
 20
-135.2837139003434
 30
0.0
 10
100.9236166048123
 20
-135.2837139003434
 30
0.0
 10
100.9236166048123
 20
-135.2837139003434
 30
0.0
 10
101.0092294313089
 20
-135.1992494143967
 30
0.0
 10
101.0092294313089
 20
-135.1992494143967
 30
0.0
 10
101.0092294313089
 20
-135.1992494143967
 30
0.0
 10
100.9236166048123
 20
-135.11478492845
 30
0.0
 10
100.9236166048123
 20
-135.11478492845
 30
0.0
 10
100.9236166048123
 20
-135.11478492845
 30
0.0
 10
101.0092294313089
 20
-135.030432818337
 30
0.0
 10
101.0092294313089
 20
-135.030432818337
 30
0.0
 10
101.0092294313089
 20
-135.030432818337
 30
0.0
 10
100.9236166048123
 20
-134.9459683323903
 30
0.0
 10
100.9236166048123
 20
-134.9459683323903
 30
0.0
 10
100.9236166048123
 20
-134.9459683323903
 30
0.0
 10
101.0092294313089
 20
-134.8613914706101
 30
0.0
 10
101.0092294313089
 20
-134.8613914706101
 30
0.0
 10
101.0092294313089
 20
-134.8613914706101
 30
0.0
 10
100.9236166048123
 20
-134.776926984663
 30
0.0
 10
100.9236166048123
 20
-134.776926984663
 30
0.0
 10
100.9236166048123
 20
-134.776926984663
 30
0.0
 10
101.0092294313089
 20
-134.6922377470493
 30
0.0
 10
101.0092294313089
 20
-134.6922377470493
 30
0.0
 10
101.0092294313089
 20
-134.6922377470493
 30
0.0
 10
100.9236166048123
 20
-134.6076608852687
 30
0.0
 10
100.9236166048123
 20
-134.6076608852687
 30
0.0
 10
100.9236166048123
 20
-134.6076608852687
 30
0.0
 10
101.0092294313089
 20
-134.5231963993223
 30
0.0
 10
101.0092294313089
 20
-134.5231963993223
 30
0.0
 10
101.0092294313089
 20
-134.5231963993223
 30
0.0
 10
100.9236166048123
 20
-134.4388442892091
 30
0.0
 10
100.9236166048123
 20
-134.4388442892091
 30
0.0
 10
100.9236166048123
 20
-134.4388442892091
 30
0.0
 10
101.0092294313089
 20
-134.3543798032624
 30
0.0
 10
101.0092294313089
 20
-134.3543798032624
 30
0.0
 10
101.0092294313089
 20
-134.3543798032624
 30
0.0
 10
100.9236166048123
 20
-134.2700347166388
 30
0.0
 10
100.9236166048123
 20
-134.2700347166388
 30
0.0
 10
100.9236166048123
 20
-134.2700347166388
 30
0.0
 10
101.0092294313089
 20
-134.1855702306921
 30
0.0
 10
101.0092294313089
 20
-134.1855702306921
 30
0.0
 10
101.0092294313089
 20
-134.1855702306921
 30
0.0
 10
100.9236166048123
 20
-134.1013375199024
 30
0.0
 10
100.9236166048123
 20
-134.1013375199024
 30
0.0
 10
100.9236166048123
 20
-134.1013375199024
 30
0.0
 10
101.0092294313089
 20
-134.0169854097892
 30
0.0
 10
101.0092294313089
 20
-134.0169854097892
 30
0.0
 10
101.0092294313089
 20
-134.0169854097892
 30
0.0
 10
100.9236166048123
 20
-133.9327526989991
 30
0.0
 10
100.9236166048123
 20
-133.9327526989991
 30
0.0
 10
100.9236166048123
 20
-133.9327526989991
 30
0.0
 10
101.0092294313089
 20
-133.8485199882094
 30
0.0
 10
101.0092294313089
 20
-133.8485199882094
 30
0.0
 10
101.0092294313089
 20
-133.8485199882094
 30
0.0
 10
100.9236166048123
 20
-133.7642872774194
 30
0.0
 10
100.9236166048123
 20
-133.7642872774194
 30
0.0
 10
100.9236166048123
 20
-133.7642872774194
 30
0.0
 10
101.0092294313089
 20
-133.6800545666297
 30
0.0
 10
101.0092294313089
 20
-133.6800545666297
 30
0.0
 10
101.0092294313089
 20
-133.6800545666297
 30
0.0
 10
100.8591760877191
 20
-133.6800545666297
 30
0.0
 10
100.8591760877191
 20
-133.6800545666297
 30
0.0
 10
100.8591760877191
 20
-133.6800545666297
 30
0.0
 10
100.8591760877191
 20
-133.0013536959752
 30
0.0
 10
100.8591760877191
 20
-133.0013536959752
 30
0.0
 10
101.0955340715311
 20
-133.0013536959752
 30
0.0
 10
101.2771193716863
 20
-133.1930668681358
 30
0.0
 10
101.2771193716863
 20
-133.4295407395259
 30
0.0
 10
101.2771193716863
 20
-133.4295407395259
 30
0.0
 10
101.2791913011188
 20
-159.0040259319079
 30
0.0
 10
101.2791913011188
 20
-159.0040259319079
 30
0.0
 10
101.2791913011188
 20
-162.7383661885571
 30
0.0
 10
104.8289577627877
 20
-165.2021922937572
 30
0.0
 10
106.9914094409358
 20
-165.2021922937572
 30
0.0
 10
107.0072895509244
 20
-165.2041483356116
 30
0.0
 10
107.389328756049
 20
-165.2057567147305
 30
0.0
 10
107.4044046764782
 20
-165.2071403421816
 30
0.0
 10
107.6276462934597
 20
-165.2284285391638
 30
0.0
 10
107.7187830945276
 20
-165.5123109653639
 30
0.0
 10
107.7187830945276
 20
-165.6380876171461
 30
0.0
 10
107.7187830945276
 20
-165.6380876171461
 30
0.0
 10
106.087970950015
 20
-165.6380876171461
 30
0.0
 10
106.087970950015
 20
-165.6380876171461
 30
0.0
 10
106.087970950015
 20
-165.6380876171461
 30
0.0
 10
106.087970950015
 20
-165.5083988816556
 30
0.0
 10
106.087970950015
 20
-165.5083988816556
 30
0.0
 10
104.8607179827653
 20
-165.5083988816556
 30
0.0
 10
101.9880405008874
 20
-163.7365094132639
 30
0.0
 10
101.2789595259618
 20
-161.3149155510367
 30
0.0
 10
101.2789595259618
 20
-161.3149155510367
 30
0.0
 10
101.2789595259618
 20
-162.7932547597926
 30
0.0
 10
101.2789595259618
 20
-162.7932547597926
 30
0.0
 10
101.2789595259618
 20
-162.7932547597926
 30
0.0
 10
100.9342045153863
 20
-162.7932547597926
 30
0.0
 10
100.9342045153863
 20
-162.7932547597926
 30
0.0
 10
100.9342045153863
 20
-162.7932547597926
 30
0.0
 10
100.9342045153863
 20
-161.6464383072032
 30
0.0
 10
100.9342045153863
 20
-161.6464383072032
 30
0.0
  0
HATCH
  5
C3
330
41
100
AcDbEntity
  8
_U+30EC_U+30A4_U+30E4_U+30FC 1
 62
     9
420
 13224394
100
AcDbHatch
 10
0.0
 20
0.0
 30
0.0
210
0.0
220
0.0
230
1.0
  2
SOLID
 70
     1
 71
     0
 91
        1
 92
        1
 93
        1
 72
     4
 94
        3
 73
     0
 74
     1
 95
     1046
 96
     1042
 40
0.0
 40
0.0
 40
0.0
 40
0.0
 40
1.0
 40
1.0
 40
1.0
 40
2.0
 40
2.0
 40
2.0
 40
3.0
 40
3.0
 40
3.0
 40
4.0
 40
4.0
 40
4.0
 40
5.0
 40
5.0
 40
5.0
 40
6.0
 40
6.0
 40
6.0
 40
7.0
 40
7.0
 40
7.0
 40
8.0
 40
8.0
 40
8.0
 40
9.0
 40
9.0
 40
9.0
 40
10.0
 40
10.0
 40
10.0
 40
11.0
 40
11.0
 40
11.0
 40
12.0
 40
12.0
 40
12.0
 40
13.0
 40
13.0
 40
13.0
 40
14.0
 40
14.0
 40
14.0
 40
15.0
 40
15.0
 40
15.0
 40
16.0
 40
16.0
 40
16.0
 40
17.0
 40
17.0
 40
17.0
 40
18.0
 40
18.0
 40
18.0
 40
19.0
 40
19.0
 40
19.0
 40
20.0
 40
20.0
 40
20.0
 40
21.0
 40
21.0
 40
21.0
 40
22.0
 40
22.0
 40
22.0
 40
23.0
 40
23.0
 40
23.0
 40
24.0
 40
24.0
 40
24.0
 40
25.0
 40
25.0
 40
25.0
 40
26.0
 40
26.0
 40
26.0
 40
27.0
 40
27.0
 40
27.0
 40
28.0
 40
28.0
 40
28.0
 40
29.0
 40
29.0
 40
29.0
 40
30.0
 40
30.0
 40
30.0
 40
31.0
 40
31.0
 40
31.0
 40
32.0
 40
32.0
 40
32.0
 40
33.0
 40
33.0
 40
33.0
 40
34.0
 40
34.0
 40
34.0
 40
35.0
 40
35.0
 40
35.0
 40
36.0
 40
36.0
 40
36.0
 40
37.0
 40
37.0
 40
37.0
 40
38.0
 40
38.0
 40
38.0
 40
39.0
 40
39.0
 40
39.0
 40
40.0
 40
40.0
 40
40.0
 40
41.0
 40
41.0
 40
41.0
 40
42.0
 40
42.0
 40
42.0
 40
43.0
 40
43.0
 40
43.0
 40
44.0
 40
44.0
 40
44.0
 40
45.0
 40
45.0
 40
45.0
 40
46.0
 40
46.0
 40
46.0
 40
47.0
 40
47.0
 40
47.0
 40
48.0
 40
48.0
 40
48.0
 40
49.0
 40
49.0
 40
49.0
 40
50.0
 40
50.0
 40
50.0
 40
51.0
 40
51.0
 40
51.0
 40
52.0
 40
52.0
 40
52.0
 40
53.0
 40
53.0
 40
53.0
 40
54.0
 40
54.0
 40
54.0
 40
55.0
 40
55.0
 40
55.0
 40
56.0
 40
56.0
 40
56.0
 40
57.0
 40
57.0
 40
57.0
 40
58.0
 40
58.0
 40
58.0
 40
59.0
 40
59.0
 40
59.0
 40
60.0
 40
60.0
 40
60.0
 40
61.0
 40
61.0
 40
61.0
 40
62.0
 40
62.0
 40
62.0
 40
63.0
 40
63.0
 40
63.0
 40
64.0
 40
64.0
 40
64.0
 40
65.0
 40
65.0
 40
65.0
 40
66.0
 40
66.0
 40
66.0
 40
67.0
 40
67.0
 40
67.0
 40
68.0
 40
68.0
 40
68.0
 40
69.0
 40
69.0
 40
69.0
 40
70.0
 40
70.0
 40
70.0
 40
71.0
 40
71.0
 40
71.0
 40
72.0
 40
72.0
 40
72.0
 40
73.0
 40
73.0
 40
73.0
 40
74.0
 40
74.0
 40
74.0
 40
75.0
 40
75.0
 40
75.0
 40
76.0
 40
76.0
 40
76.0
 40
77.0
 40
77.0
 40
77.0
 40
78.0
 40
78.0
 40
78.0
 40
79.0
 40
79.0
 40
79.0
 40
80.0
 40
80.0
 40
80.0
 40
81.0
 40
81.0
 40
81.0
 40
82.0
 40
82.0
 40
82.0
 40
83.0
 40
83.0
 40
83.0
 40
84.0
 40
84.0
 40
84.0
 40
85.0
 40
85.0
 40
85.0
 40
86.0
 40
86.0
 40
86.0
 40
87.0
 40
87.0
 40
87.0
 40
88.0
 40
88.0
 40
88.0
 40
89.0
 40
89.0
 40
89.0
 40
90.0
 40
90.0
 40
90.0
 40
91.0
 40
91.0
 40
91.0
 40
92.0
 40
92.0
 40
92.0
 40
93.0
 40
93.0
 40
93.0
 40
94.0
 40
94.0
 40
94.0
 40
95.0
 40
95.0
 40
95.0
 40
96.0
 40
96.0
 40
96.0
 40
97.0
 40
97.0
 40
97.0
 40
98.0
 40
98.0
 40
98.0
 40
99.0
 40
99.0
 40
99.0
 40
100.0
 40
100.0
 40
100.0
 40
101.0
 40
101.0
 40
101.0
 40
102.0
 40
102.0
 40
102.0
 40
103.0
 40
103.0
 40
103.0
 40
104.0
 40
104.0
 40
104.0
 40
105.0
 40
105.0
 40
105.0
 40
106.0
 40
106.0
 40
106.0
 40
107.0
 40
107.0
 40
107.0
 40
108.0
 40
108.0
 40
108.0
 40
109.0
 40
109.0
 40
109.0
 40
110.0
 40
110.0
 40
110.0
 40
111.0
 40
111.0
 40
111.0
 40
112.0
 40
112.0
 40
112.0
 40
113.0
 40
113.0
 40
113.0
 40
114.0
 40
114.0
 40
114.0
 40
115.0
 40
115.0
 40
115.0
 40
116.0
 40
116.0
 40
116.0
 40
117.0
 40
117.0
 40
117.0
 40
118.0
 40
118.0
 40
118.0
 40
119.0
 40
119.0
 40
119.0
 40
120.0
 40
120.0
 40
120.0
 40
121.0
 40
121.0
 40
121.0
 40
122.0
 40
122.0
 40
122.0
 40
123.0
 40
123.0
 40
123.0
 40
124.0
 40
124.0
 40
124.0
 40
125.0
 40
125.0
 40
125.0
 40
126.0
 40
126.0
 40
126.0
 40
127.0
 40
127.0
 40
127.0
 40
128.0
 40
128.0
 40
128.0
 40
129.0
 40
129.0
 40
129.0
 40
130.0
 40
130.0
 40
130.0
 40
131.0
 40
131.0
 40
131.0
 40
132.0
 40
132.0
 40
132.0
 40
133.0
 40
133.0
 40
133.0
 40
134.0
 40
134.0
 40
134.0
 40
135.0
 40
135.0
 40
135.0
 40
136.0
 40
136.0
 40
136.0
 40
137.0
 40
137.0
 40
137.0
 40
138.0
 40
138.0
 40
138.0
 40
139.0
 40
139.0
 40
139.0
 40
140.0
 40
140.0
 40
140.0
 40
141.0
 40
141.0
 40
141.0
 40
142.0
 40
142.0
 40
142.0
 40
143.0
 40
143.0
 40
143.0
 40
144.0
 40
144.0
 40
144.0
 40
145.0
 40
145.0
 40
145.0
 40
146.0
 40
146.0
 40
146.0
 40
147.0
 40
147.0
 40
147.0
 40
148.0
 40
148.0
 40
148.0
 40
149.0
 40
149.0
 40
149.0
 40
150.0
 40
150.0
 40
150.0
 40
151.0
 40
151.0
 40
151.0
 40
152.0
 40
152.0
 40
152.0
 40
153.0
 40
153.0
 40
153.0
 40
154.0
 40
154.0
 40
154.0
 40
155.0
 40
155.0
 40
155.0
 40
156.0
 40
156.0
 40
156.0
 40
157.0
 40
157.0
 40
157.0
 40
158.0
 40
158.0
 40
158.0
 40
159.0
 40
159.0
 40
159.0
 40
160.0
 40
160.0
 40
160.0
 40
161.0
 40
161.0
 40
161.0
 40
162.0
 40
162.0
 40
162.0
 40
163.0
 40
163.0
 40
163.0
 40
164.0
 40
164.0
 40
164.0
 40
165.0
 40
165.0
 40
165.0
 40
166.0
 40
166.0
 40
166.0
 40
167.0
 40
167.0
 40
167.0
 40
168.0
 40
168.0
 40
168.0
 40
169.0
 40
169.0
 40
169.0
 40
170.0
 40
170.0
 40
170.0
 40
171.0
 40
171.0
 40
171.0
 40
172.0
 40
172.0
 40
172.0
 40
173.0
 40
173.0
 40
173.0
 40
174.0
 40
174.0
 40
174.0
 40
175.0
 40
175.0
 40
175.0
 40
176.0
 40
176.0
 40
176.0
 40
177.0
 40
177.0
 40
177.0
 40
178.0
 40
178.0
 40
178.0
 40
179.0
 40
179.0
 40
179.0
 40
180.0
 40
180.0
 40
180.0
 40
181.0
 40
181.0
 40
181.0
 40
182.0
 40
182.0
 40
182.0
 40
183.0
 40
183.0
 40
183.0
 40
184.0
 40
184.0
 40
184.0
 40
185.0
 40
185.0
 40
185.0
 40
186.0
 40
186.0
 40
186.0
 40
187.0
 40
187.0
 40
187.0
 40
188.0
 40
188.0
 40
188.0
 40
189.0
 40
189.0
 40
189.0
 40
190.0
 40
190.0
 40
190.0
 40
191.0
 40
191.0
 40
191.0
 40
192.0
 40
192.0
 40
192.0
 40
193.0
 40
193.0
 40
193.0
 40
194.0
 40
194.0
 40
194.0
 40
195.0
 40
195.0
 40
195.0
 40
196.0
 40
196.0
 40
196.0
 40
197.0
 40
197.0
 40
197.0
 40
198.0
 40
198.0
 40
198.0
 40
199.0
 40
199.0
 40
199.0
 40
200.0
 40
200.0
 40
200.0
 40
201.0
 40
201.0
 40
201.0
 40
202.0
 40
202.0
 40
202.0
 40
203.0
 40
203.0
 40
203.0
 40
204.0
 40
204.0
 40
204.0
 40
205.0
 40
205.0
 40
205.0
 40
206.0
 40
206.0
 40
206.0
 40
207.0
 40
207.0
 40
207.0
 40
208.0
 40
208.0
 40
208.0
 40
209.0
 40
209.0
 40
209.0
 40
210.0
 40
210.0
 40
210.0
 40
211.0
 40
211.0
 40
211.0
 40
212.0
 40
212.0
 40
212.0
 40
213.0
 40
213.0
 40
213.0
 40
214.0
 40
214.0
 40
214.0
 40
215.0
 40
215.0
 40
215.0
 40
216.0
 40
216.0
 40
216.0
 40
217.0
 40
217.0
 40
217.0
 40
218.0
 40
218.0
 40
218.0
 40
219.0
 40
219.0
 40
219.0
 40
220.0
 40
220.0
 40
220.0
 40
221.0
 40
221.0
 40
221.0
 40
222.0
 40
222.0
 40
222.0
 40
223.0
 40
223.0
 40
223.0
 40
224.0
 40
224.0
 40
224.0
 40
225.0
 40
225.0
 40
225.0
 40
226.0
 40
226.0
 40
226.0
 40
227.0
 40
227.0
 40
227.0
 40
228.0
 40
228.0
 40
228.0
 40
229.0
 40
229.0
 40
229.0
 40
230.0
 40
230.0
 40
230.0
 40
231.0
 40
231.0
 40
231.0
 40
232.0
 40
232.0
 40
232.0
 40
233.0
 40
233.0
 40
233.0
 40
234.0
 40
234.0
 40
234.0
 40
235.0
 40
235.0
 40
235.0
 40
236.0
 40
236.0
 40
236.0
 40
237.0
 40
237.0
 40
237.0
 40
238.0
 40
238.0
 40
238.0
 40
239.0
 40
239.0
 40
239.0
 40
240.0
 40
240.0
 40
240.0
 40
241.0
 40
241.0
 40
241.0
 40
242.0
 40
242.0
 40
242.0
 40
243.0
 40
243.0
 40
243.0
 40
244.0
 40
244.0
 40
244.0
 40
245.0
 40
245.0
 40
245.0
 40
246.0
 40
246.0
 40
246.0
 40
247.0
 40
247.0
 40
247.0
 40
248.0
 40
248.0
 40
248.0
 40
249.0
 40
249.0
 40
249.0
 40
250.0
 40
250.0
 40
250.0
 40
251.0
 40
251.0
 40
251.0
 40
252.0
 40
252.0
 40
252.0
 40
253.0
 40
253.0
 40
253.0
 40
254.0
 40
254.0
 40
254.0
 40
255.0
 40
255.0
 40
255.0
 40
256.0
 40
256.0
 40
256.0
 40
257.0
 40
257.0
 40
257.0
 40
258.0
 40
258.0
 40
258.0
 40
259.0
 40
259.0
 40
259.0
 40
260.0
 40
260.0
 40
260.0
 40
261.0
 40
261.0
 40
261.0
 40
262.0
 40
262.0
 40
262.0
 40
263.0
 40
263.0
 40
263.0
 40
264.0
 40
264.0
 40
264.0
 40
265.0
 40
265.0
 40
265.0
 40
266.0
 40
266.0
 40
266.0
 40
267.0
 40
267.0
 40
267.0
 40
268.0
 40
268.0
 40
268.0
 40
269.0
 40
269.0
 40
269.0
 40
270.0
 40
270.0
 40
270.0
 40
271.0
 40
271.0
 40
271.0
 40
272.0
 40
272.0
 40
272.0
 40
273.0
 40
273.0
 40
273.0
 40
274.0
 40
274.0
 40
274.0
 40
275.0
 40
275.0
 40
275.0
 40
276.0
 40
276.0
 40
276.0
 40
277.0
 40
277.0
 40
277.0
 40
278.0
 40
278.0
 40
278.0
 40
279.0
 40
279.0
 40
279.0
 40
280.0
 40
280.0
 40
280.0
 40
281.0
 40
281.0
 40
281.0
 40
282.0
 40
282.0
 40
282.0
 40
283.0
 40
283.0
 40
283.0
 40
284.0
 40
284.0
 40
284.0
 40
285.0
 40
285.0
 40
285.0
 40
286.0
 40
286.0
 40
286.0
 40
287.0
 40
287.0
 40
287.0
 40
288.0
 40
288.0
 40
288.0
 40
289.0
 40
289.0
 40
289.0
 40
290.0
 40
290.0
 40
290.0
 40
291.0
 40
291.0
 40
291.0
 40
292.0
 40
292.0
 40
292.0
 40
293.0
 40
293.0
 40
293.0
 40
294.0
 40
294.0
 40
294.0
 40
295.0
 40
295.0
 40
295.0
 40
296.0
 40
296.0
 40
296.0
 40
297.0
 40
297.0
 40
297.0
 40
298.0
 40
298.0
 40
298.0
 40
299.0
 40
299.0
 40
299.0
 40
300.0
 40
300.0
 40
300.0
 40
301.0
 40
301.0
 40
301.0
 40
302.0
 40
302.0
 40
302.0
 40
303.0
 40
303.0
 40
303.0
 40
304.0
 40
304.0
 40
304.0
 40
305.0
 40
305.0
 40
305.0
 40
306.0
 40
306.0
 40
306.0
 40
307.0
 40
307.0
 40
307.0
 40
308.0
 40
308.0
 40
308.0
 40
309.0
 40
309.0
 40
309.0
 40
310.0
 40
310.0
 40
310.0
 40
311.0
 40
311.0
 40
311.0
 40
312.0
 40
312.0
 40
312.0
 40
313.0
 40
313.0
 40
313.0
 40
314.0
 40
314.0
 40
314.0
 40
315.0
 40
315.0
 40
315.0
 40
316.0
 40
316.0
 40
316.0
 40
317.0
 40
317.0
 40
317.0
 40
318.0
 40
318.0
 40
318.0
 40
319.0
 40
319.0
 40
319.0
 40
320.0
 40
320.0
 40
320.0
 40
321.0
 40
321.0
 40
321.0
 40
322.0
 40
322.0
 40
322.0
 40
323.0
 40
323.0
 40
323.0
 40
324.0
 40
324.0
 40
324.0
 40
325.0
 40
325.0
 40
325.0
 40
326.0
 40
326.0
 40
326.0
 40
327.0
 40
327.0
 40
327.0
 40
328.0
 40
328.0
 40
328.0
 40
329.0
 40
329.0
 40
329.0
 40
330.0
 40
330.0
 40
330.0
 40
331.0
 40
331.0
 40
331.0
 40
332.0
 40
332.0
 40
332.0
 40
333.0
 40
333.0
 40
333.0
 40
334.0
 40
334.0
 40
334.0
 40
335.0
 40
335.0
 40
335.0
 40
336.0
 40
336.0
 40
336.0
 40
337.0
 40
337.0
 40
337.0
 40
338.0
 40
338.0
 40
338.0
 40
339.0
 40
339.0
 40
339.0
 40
340.0
 40
340.0
 40
340.0
 40
341.0
 40
341.0
 40
341.0
 40
342.0
 40
342.0
 40
342.0
 40
343.0
 40
343.0
 40
343.0
 40
344.0
 40
344.0
 40
344.0
 40
345.0
 40
345.0
 40
345.0
 40
346.0
 40
346.0
 40
346.0
 40
347.0
 40
347.0
 40
347.0
 40
347.0
 10
100.9342045153863
 20
-161.6464383072032
 10
100.9342045153863
 20
-161.6464383072032
 10
101.0299417021432
 20
-161.5500128184655
 10
101.0299417021432
 20
-161.5500128184655
 10
101.0299417021432
 20
-161.5500128184655
 10
100.9443288756472
 20
-161.465660708352
 10
100.9443288756472
 20
-161.465660708352
 10
100.9443288756472
 20
-161.465660708352
 10
101.0299417021432
 20
-161.3810838465721
 10
101.0299417021432
 20
-161.3810838465721
 10
101.0299417021432
 20
-161.3810838465721
 10
100.9443288756472
 20
-161.296619360625
 10
100.9443288756472
 20
-161.296619360625
 10
100.9443288756472
 20
-161.296619360625
 10
101.0299417021432
 20
-161.2122742740018
 10
101.0299417021432
 20
-161.2122742740018
 10
101.0299417021432
 20
-161.2122742740018
 10
100.9443288756472
 20
-161.1275780128981
 10
100.9443288756472
 20
-161.1275780128981
 10
100.9443288756472
 20
-161.1275780128981
 10
101.0299417021432
 20
-161.0431135269517
 10
101.0299417021432
 20
-161.0431135269517
 10
101.0299417021432
 20
-161.0431135269517
 10
100.9443288756472
 20
-160.9585366651711
 10
100.9443288756472
 20
-160.9585366651711
 10
100.9443288756472
 20
-160.9585366651711
 10
100.9485886220903
 20
-160.9585366651711
 10
100.9485886220903
 20
-160.9585366651711
 10
100.9485886220903
 20
-160.9585366651711
 10
101.0192414157357
 20
-160.8876485846238
 10
101.0192414157357
 20
-160.8876485846238
 10
101.0192414157357
 20
-160.8876485846238
 10
100.9336285892391
 20
-160.8030717228432
 10
100.9336285892391
 20
-160.8030717228432
 10
100.9336285892391
 20
-160.8030717228432
 10
101.0192414157357
 20
-160.7184948610633
 10
101.0192414157357
 20
-160.7184948610633
 10
101.0192414157357
 20
-160.7184948610633
 10
100.9336285892391
 20
-160.6339179992827
 10
100.9336285892391
 20
-160.6339179992827
 10
100.9336285892391
 20
-160.6339179992827
 10
101.0192414157357
 20
-160.549221738179
 10
101.0192414157357
 20
-160.549221738179
 10
101.0192414157357
 20
-160.549221738179
 10
100.9336285892391
 20
-160.4646448763991
 10
100.9336285892391
 20
-160.4646448763991
 10
100.9336285892391
 20
-160.4646448763991
 10
101.0192414157357
 20
-160.380180390452
 10
101.0192414157357
 20
-160.380180390452
 10
101.0192414157357
 20
-160.380180390452
 10
100.9336285892391
 20
-160.2956035286721
 10
100.9336285892391
 20
-160.2956035286721
 10
100.9336285892391
 20
-160.2956035286721
 10
101.0192414157357
 20
-160.2112514185586
 10
101.0192414157357
 20
-160.2112514185586
 10
101.0192414157357
 20
-160.2112514185586
 10
100.9336285892391
 20
-160.1267869326122
 10
100.9336285892391
 20
-160.1267869326122
 10
100.9336285892391
 20
-160.1267869326122
 10
101.0192414157357
 20
-160.0423294701548
 10
101.0192414157357
 20
-160.0423294701548
 10
101.0192414157357
 20
-160.0423294701548
 10
100.9336285892391
 20
-159.9578649842084
 10
100.9336285892391
 20
-159.9578649842084
 10
100.9336285892391
 20
-159.9578649842084
 10
101.0192414157357
 20
-159.8734004982613
 10
101.0192414157357
 20
-159.8734004982613
 10
101.0192414157357
 20
-159.8734004982613
 10
100.9336285892391
 20
-159.7888236364814
 10
100.9336285892391
 20
-159.7888236364814
 10
100.9336285892391
 20
-159.7888236364814
 10
101.0192414157357
 20
-159.7043591505344
 10
101.0192414157357
 20
-159.7043591505344
 10
101.0192414157357
 20
-159.7043591505344
 10
100.9336285892391
 20
-159.6197752652648
 10
100.9336285892391
 20
-159.6197752652648
 10
100.9336285892391
 20
-159.6197752652648
 10
101.0192414157357
 20
-159.5350860276507
 10
101.0192414157357
 20
-159.5350860276507
 10
101.0192414157357
 20
-159.5350860276507
 10
100.9336285892391
 20
-159.4505091658702
 10
100.9336285892391
 20
-159.4505091658702
 10
100.9336285892391
 20
-159.4505091658702
 10
101.0192414157357
 20
-159.3660446799237
 10
101.0192414157357
 20
-159.3660446799237
 10
101.0192414157357
 20
-159.3660446799237
 10
100.9336285892391
 20
-159.2815801939767
 10
100.9336285892391
 20
-159.2815801939767
 10
100.9336285892391
 20
-159.2815801939767
 10
101.0192414157357
 20
-159.1970033321961
 10
101.0192414157357
 20
-159.1970033321961
 10
101.0192414157357
 20
-159.1970033321961
 10
100.9336285892391
 20
-159.1127706214064
 10
100.9336285892391
 20
-159.1127706214064
 10
100.9336285892391
 20
-159.1127706214064
 10
100.9342045153863
 20
-159.1089709135323
 10
100.9342045153863
 20
-159.1089709135323
 10
100.9342045153863
 20
-159.1089709135323
 10
101.0198173418829
 20
-159.0246188034194
 10
101.0198173418829
 20
-159.0246188034194
 10
101.0198173418829
 20
-159.0246188034194
 10
100.9342045153863
 20
-158.940161340962
 10
100.9342045153863
 20
-158.940161340962
 10
100.9342045153863
 20
-158.940161340962
 10
101.0198173418829
 20
-158.8556968550149
 10
101.0198173418829
 20
-158.8556968550149
 10
101.0198173418829
 20
-158.8556968550149
 10
100.9342045153863
 20
-158.7712323690685
 10
100.9342045153863
 20
-158.7712323690685
 10
100.9342045153863
 20
-158.7712323690685
 10
101.0198173418829
 20
-158.6867678831221
 10
101.0198173418829
 20
-158.6867678831221
 10
101.0198173418829
 20
-158.6867678831221
 10
100.9342045153863
 20
-158.6021910213416
 10
100.9342045153863
 20
-158.6021910213416
 10
100.9342045153863
 20
-158.6021910213416
 10
101.0198173418829
 20
-158.5177265353945
 10
101.0198173418829
 20
-158.5177265353945
 10
101.0198173418829
 20
-158.5177265353945
 10
100.9342045153863
 20
-158.4331496736146
 10
100.9342045153863
 20
-158.4331496736146
 10
100.9342045153863
 20
-158.4331496736146
 10
100.9384607500848
 20
-158.4331496736146
 10
100.9384607500848
 20
-158.4331496736146
 10
100.9384607500848
 20
-158.4331496736146
 10
101.0091135437303
 20
-158.3621492172338
 10
101.0091135437303
 20
-158.3621492172338
 10
101.0091135437303
 20
-158.3621492172338
 10
100.9235007172339
 20
-158.2776847312867
 10
100.9235007172339
 20
-158.2776847312867
 10
100.9235007172339
 20
-158.2776847312867
 10
101.0091135437303
 20
-158.1931078695068
 10
101.0091135437303
 20
-158.1931078695068
 10
101.0091135437303
 20
-158.1931078695068
 10
100.9235007172339
 20
-158.1084116084031
 10
100.9235007172339
 20
-158.1084116084031
 10
100.9235007172339
 20
-158.1084116084031
 10
101.0091135437303
 20
-158.0238347466225
 10
101.0091135437303
 20
-158.0238347466225
 10
101.0091135437303
 20
-158.0238347466225
 10
100.9235007172339
 20
-157.9392578848426
 10
100.9235007172339
 20
-157.9392578848426
 10
100.9235007172339
 20
-157.9392578848426
 10
101.0091135437303
 20
-157.8546739995723
 10
101.0091135437303
 20
-157.8546739995723
 10
101.0091135437303
 20
-157.8546739995723
 10
100.9235007172339
 20
-157.7702095136259
 10
100.9235007172339
 20
-157.7702095136259
 10
100.9235007172339
 20
-157.7702095136259
 10
101.0091135437303
 20
-157.6858644270021
 10
101.0091135437303
 20
-157.6858644270021
 10
101.0091135437303
 20
-157.6858644270021
 10
100.9235007172339
 20
-157.6013999410557
 10
100.9235007172339
 20
-157.6013999410557
 10
100.9235007172339
 20
-157.6013999410557
 10
101.0091135437303
 20
-157.5169354551086
 10
101.0091135437303
 20
-157.5169354551086
 10
101.0091135437303
 20
-157.5169354551086
 10
100.9235007172339
 20
-157.4323585933287
 10
100.9235007172339
 20
-157.4323585933287
 10
100.9235007172339
 20
-157.4323585933287
 10
101.0091135437303
 20
-157.3480135067048
 10
101.0091135437303
 20
-157.3480135067048
 10
101.0091135437303
 20
-157.3480135067048
 10
100.9235007172339
 20
-157.2634296214352
 10
100.9235007172339
 20
-157.2634296214352
 10
100.9235007172339
 20
-157.2634296214352
 10
101.0091135437303
 20
-157.1788527596547
 10
101.0091135437303
 20
-157.1788527596547
 10
101.0091135437303
 20
-157.1788527596547
 10
100.9235007172339
 20
-157.0943882737076
 10
100.9235007172339
 20
-157.0943882737076
 10
100.9235007172339
 20
-157.0943882737076
 10
101.0091135437303
 20
-157.0096990360942
 10
101.0091135437303
 20
-157.0096990360942
 10
101.0091135437303
 20
-157.0096990360942
 10
100.9235007172339
 20
-156.9250027749904
 10
100.9235007172339
 20
-156.9250027749904
 10
100.9235007172339
 20
-156.9250027749904
 10
101.0091135437303
 20
-156.8406506648775
 10
101.0091135437303
 20
-156.8406506648775
 10
101.0091135437303
 20
-156.8406506648775
 10
100.9235007172339
 20
-156.756073803097
 10
100.9235007172339
 20
-156.756073803097
 10
100.9235007172339
 20
-156.756073803097
 10
101.0091135437303
 20
-156.6716093171499
 10
101.0091135437303
 20
-156.6716093171499
 10
101.0091135437303
 20
-156.6716093171499
 10
100.9235007172339
 20
-156.5873766063602
 10
100.9235007172339
 20
-156.5873766063602
 10
100.9235007172339
 20
-156.5873766063602
 10
101.0091135437303
 20
-156.5027997445796
 10
101.0091135437303
 20
-156.5027997445796
 10
101.0091135437303
 20
-156.5027997445796
 10
100.9235007172339
 20
-156.4184546579564
 10
100.9235007172339
 20
-156.4184546579564
 10
100.9235007172339
 20
-156.4184546579564
 10
101.0091135437303
 20
-156.33399017201
 10
101.0091135437303
 20
-156.33399017201
 10
101.0091135437303
 20
-156.33399017201
 10
100.9235007172339
 20
-156.2497574612197
 10
100.9235007172339
 20
-156.2497574612197
 10
100.9235007172339
 20
-156.2497574612197
 10
101.0091135437303
 20
-156.1654053511068
 10
101.0091135437303
 20
-156.1654053511068
 10
101.0091135437303
 20
-156.1654053511068
 10
100.9235007172339
 20
-156.0809408651604
 10
100.9235007172339
 20
-156.0809408651604
 10
100.9235007172339
 20
-156.0809408651604
 10
101.0091135437303
 20
-155.9965957785365
 10
101.0091135437303
 20
-155.9965957785365
 10
101.0091135437303
 20
-155.9965957785365
 10
100.9235007172339
 20
-155.9121312925901
 10
100.9235007172339
 20
-155.9121312925901
 10
100.9235007172339
 20
-155.9121312925901
 10
101.0091135437303
 20
-155.827666806643
 10
101.0091135437303
 20
-155.827666806643
 10
101.0091135437303
 20
-155.827666806643
 10
100.9235007172339
 20
-155.7432023206966
 10
100.9235007172339
 20
-155.7432023206966
 10
100.9235007172339
 20
-155.7432023206966
 10
101.0091135437303
 20
-155.658625458916
 10
101.0091135437303
 20
-155.658625458916
 10
101.0091135437303
 20
-155.658625458916
 10
100.9235007172339
 20
-155.5741609729697
 10
100.9235007172339
 20
-155.5741609729697
 10
100.9235007172339
 20
-155.5741609729697
 10
101.0091135437303
 20
-155.4896964870226
 10
101.0091135437303
 20
-155.4896964870226
 10
101.0091135437303
 20
-155.4896964870226
 10
100.9235007172339
 20
-155.4050072494085
 10
100.9235007172339
 20
-155.4050072494085
 10
100.9235007172339
 20
-155.4050072494085
 10
101.0091135437303
 20
-155.3204233641389
 10
101.0091135437303
 20
-155.3204233641389
 10
101.0091135437303
 20
-155.3204233641389
 10
100.9235007172339
 20
-155.2359659016816
 10
100.9235007172339
 20
-155.2359659016816
 10
100.9235007172339
 20
-155.2359659016816
 10
101.0091135437303
 20
-155.1516137915686
 10
101.0091135437303
 20
-155.1516137915686
 10
101.0091135437303
 20
-155.1516137915686
 10
100.9235007172339
 20
-155.0673810807789
 10
100.9235007172339
 20
-155.0673810807789
 10
100.9235007172339
 20
-155.0673810807789
 10
101.0091135437303
 20
-154.9828042189984
 10
101.0091135437303
 20
-154.9828042189984
 10
101.0091135437303
 20
-154.9828042189984
 10
100.9235007172339
 20
-154.8985715082087
 10
100.9235007172339
 20
-154.8985715082087
 10
100.9235007172339
 20
-154.8985715082087
 10
101.0091135437303
 20
-154.8142193980951
 10
101.0091135437303
 20
-154.8142193980951
 10
101.0091135437303
 20
-154.8142193980951
 10
100.9235007172339
 20
-154.7299866873054
 10
100.9235007172339
 20
-154.7299866873054
 10
100.9235007172339
 20
-154.7299866873054
 10
101.0091135437303
 20
-154.6458663523492
 10
101.0091135437303
 20
-154.6458663523492
 10
101.0091135437303
 20
-154.6458663523492
 10
100.9235007172339
 20
-154.5616336415595
 10
100.9235007172339
 20
-154.5616336415595
 10
100.9235007172339
 20
-154.5616336415595
 10
101.0091135437303
 20
-154.4762490784747
 10
101.0091135437303
 20
-154.4762490784747
 10
101.0091135437303
 20
-154.4762490784747
 10
100.9235007172339
 20
-154.3910962905472
 10
100.9235007172339
 20
-154.3910962905472
 10
100.9235007172339
 20
-154.3910962905472
 10
101.0091135437303
 20
-154.3058311267856
 10
101.0091135437303
 20
-154.3058311267856
 10
101.0091135437303
 20
-154.3058311267856
 10
100.9235007172339
 20
-154.2211348656825
 10
100.9235007172339
 20
-154.2211348656825
 10
100.9235007172339
 20
-154.2211348656825
 10
101.0091135437303
 20
-154.1360944535886
 10
101.0091135437303
 20
-154.1360944535886
 10
101.0091135437303
 20
-154.1360944535886
 10
100.9235007172339
 20
-154.0511734408172
 10
100.9235007172339
 20
-154.0511734408172
 10
100.9235007172339
 20
-154.0511734408172
 10
101.0091135437303
 20
-153.9664771797141
 10
101.0091135437303
 20
-153.9664771797141
 10
101.0091135437303
 20
-153.9664771797141
 10
100.9235007172339
 20
-153.8814437911098
 10
100.9235007172339
 20
-153.8814437911098
 10
100.9235007172339
 20
-153.8814437911098
 10
101.0091135437303
 20
-153.7968599058396
 10
101.0091135437303
 20
-153.7968599058396
 10
101.0091135437303
 20
-153.7968599058396
 10
100.9235007172339
 20
-153.7120512689023
 10
100.9235007172339
 20
-153.7120512689023
 10
100.9235007172339
 20
-153.7120512689023
 10
101.0091135437303
 20
-153.6271302561316
 10
101.0091135437303
 20
-153.6271302561316
 10
101.0091135437303
 20
-153.6271302561316
 10
100.9235007172339
 20
-153.5424339950278
 10
100.9235007172339
 20
-153.5424339950278
 10
100.9235007172339
 20
-153.5424339950278
 10
101.0091135437303
 20
-153.4573935829339
 10
101.0091135437303
 20
-153.4573935829339
 10
101.0091135437303
 20
-153.4573935829339
 10
100.9235007172339
 20
-153.3727043453198
 10
100.9235007172339
 20
-153.3727043453198
 10
100.9235007172339
 20
-153.3727043453198
 10
101.0091135437303
 20
-153.2880080842167
 10
101.0091135437303
 20
-153.2880080842167
 10
101.0091135437303
 20
-153.2880080842167
 10
100.9235007172339
 20
-153.2030870714459
 10
100.9235007172339
 20
-153.2030870714459
 10
100.9235007172339
 20
-153.2030870714459
 10
101.0091135437303
 20
-153.1185102096654
 10
101.0091135437303
 20
-153.1185102096654
 10
101.0091135437303
 20
-153.1185102096654
 10
100.9235007172339
 20
-153.0335821734049
 10
100.9235007172339
 20
-153.0335821734049
 10
100.9235007172339
 20
-153.0335821734049
 10
101.0091135437303
 20
-152.9488929357909
 10
101.0091135437303
 20
-152.9488929357909
 10
101.0091135437303
 20
-152.9488929357909
 10
100.9235007172339
 20
-152.8643090505206
 10
100.9235007172339
 20
-152.8643090505206
 10
100.9235007172339
 20
-152.8643090505206
 10
101.0091135437303
 20
-152.7796198129072
 10
101.0091135437303
 20
-152.7796198129072
 10
101.0091135437303
 20
-152.7796198129072
 10
100.9235007172339
 20
-152.69481117597
 10
100.9235007172339
 20
-152.69481117597
 10
100.9235007172339
 20
-152.69481117597
 10
101.0091135437303
 20
-152.6101149148662
 10
101.0091135437303
 20
-152.6101149148662
 10
101.0091135437303
 20
-152.6101149148662
 10
100.9235007172339
 20
-152.5254186537624
 10
100.9235007172339
 20
-152.5254186537624
 10
100.9235007172339
 20
-152.5254186537624
 10
101.0091135437303
 20
-152.4408417919825
 10
101.0091135437303
 20
-152.4408417919825
 10
101.0091135437303
 20
-152.4408417919825
 10
100.9235007172339
 20
-152.3563773060355
 10
100.9235007172339
 20
-152.3563773060355
 10
100.9235007172339
 20
-152.3563773060355
 10
101.0091135437303
 20
-152.2719128200891
 10
101.0091135437303
 20
-152.2719128200891
 10
101.0091135437303
 20
-152.2719128200891
 10
100.9235007172339
 20
-152.1873359583085
 10
100.9235007172339
 20
-152.1873359583085
 10
100.9235007172339
 20
-152.1873359583085
 10
101.0091135437303
 20
-152.1026467206945
 10
101.0091135437303
 20
-152.1026467206945
 10
101.0091135437303
 20
-152.1026467206945
 10
100.9235007172339
 20
-152.0179504595913
 10
100.9235007172339
 20
-152.0179504595913
 10
100.9235007172339
 20
-152.0179504595913
 10
101.0091135437303
 20
-151.9332541984876
 10
101.0091135437303
 20
-151.9332541984876
 10
101.0091135437303
 20
-151.9332541984876
 10
100.9235007172339
 20
-151.8487967360302
 10
100.9235007172339
 20
-151.8487967360302
 10
100.9235007172339
 20
-151.8487967360302
 10
101.0091135437303
 20
-151.7644446259173
 10
101.0091135437303
 20
-151.7644446259173
 10
101.0091135437303
 20
-151.7644446259173
 10
100.9235007172339
 20
-151.6800995392935
 10
100.9235007172339
 20
-151.6800995392935
 10
100.9235007172339
 20
-151.6800995392935
 10
101.0091135437303
 20
-151.5958598050141
 10
101.0091135437303
 20
-151.5958598050141
 10
101.0091135437303
 20
-151.5958598050141
 10
100.9235007172339
 20
-151.5114023425573
 10
100.9235007172339
 20
-151.5114023425573
 10
100.9235007172339
 20
-151.5114023425573
 10
101.0091135437303
 20
-151.4268184572871
 10
101.0091135437303
 20
-151.4268184572871
 10
101.0091135437303
 20
-151.4268184572871
 10
100.9235007172339
 20
-151.3423609948304
 10
100.9235007172339
 20
-151.3423609948304
 10
100.9235007172339
 20
-151.3423609948304
 10
101.0091135437303
 20
-151.2575523578931
 10
101.0091135437303
 20
-151.2575523578931
 10
101.0091135437303
 20
-151.2575523578931
 10
100.9235007172339
 20
-151.1728560967894
 10
100.9235007172339
 20
-151.1728560967894
 10
100.9235007172339
 20
-151.1728560967894
 10
101.0091135437303
 20
-151.0881598356856
 10
101.0091135437303
 20
-151.0881598356856
 10
101.0091135437303
 20
-151.0881598356856
 10
100.9235007172339
 20
-151.0035829739057
 10
100.9235007172339
 20
-151.0035829739057
 10
100.9235007172339
 20
-151.0035829739057
 10
101.0091135437303
 20
-150.9191184879587
 10
101.0091135437303
 20
-150.9191184879587
 10
101.0091135437303
 20
-150.9191184879587
 10
100.9235007172339
 20
-150.8344292503446
 10
100.9235007172339
 20
-150.8344292503446
 10
100.9235007172339
 20
-150.8344292503446
 10
101.0091135437303
 20
-150.749845365075
 10
101.0091135437303
 20
-150.749845365075
 10
101.0091135437303
 20
-150.749845365075
 10
100.9235007172339
 20
-150.665380879128
 10
100.9235007172339
 20
-150.665380879128
 10
100.9235007172339
 20
-150.665380879128
 10
101.0091135437303
 20
-150.5805722421907
 10
101.0091135437303
 20
-150.5805722421907
 10
101.0091135437303
 20
-150.5805722421907
 10
100.9235007172339
 20
-150.4959953804108
 10
100.9235007172339
 20
-150.4959953804108
 10
100.9235007172339
 20
-150.4959953804108
 10
101.0091135437303
 20
-150.4114185186302
 10
101.0091135437303
 20
-150.4114185186302
 10
101.0091135437303
 20
-150.4114185186302
 10
100.9235007172339
 20
-150.3266098816929
 10
100.9235007172339
 20
-150.3266098816929
 10
100.9235007172339
 20
-150.3266098816929
 10
101.0091135437303
 20
-150.2423771709032
 10
101.0091135437303
 20
-150.2423771709032
 10
101.0091135437303
 20
-150.2423771709032
 10
100.9235007172339
 20
-150.1576809097995
 10
100.9235007172339
 20
-150.1576809097995
 10
100.9235007172339
 20
-150.1576809097995
 10
101.0091135437303
 20
-150.0731040480189
 10
101.0091135437303
 20
-150.0731040480189
 10
101.0091135437303
 20
-150.0731040480189
 10
100.9235007172339
 20
-149.9887589613957
 10
100.9235007172339
 20
-149.9887589613957
 10
100.9235007172339
 20
-149.9887589613957
 10
101.0091135437303
 20
-149.9041750761261
 10
101.0091135437303
 20
-149.9041750761261
 10
101.0091135437303
 20
-149.9041750761261
 10
100.9235007172339
 20
-149.819485838512
 10
100.9235007172339
 20
-149.819485838512
 10
100.9235007172339
 20
-149.819485838512
 10
101.0091135437303
 20
-149.7349019532418
 10
101.0091135437303
 20
-149.7349019532418
 10
101.0091135437303
 20
-149.7349019532418
 10
100.9235007172339
 20
-149.6500933163045
 10
100.9235007172339
 20
-149.6500933163045
 10
100.9235007172339
 20
-149.6500933163045
 10
101.0091135437303
 20
-149.5656358538478
 10
101.0091135437303
 20
-149.5656358538478
 10
101.0091135437303
 20
-149.5656358538478
 10
100.9235007172339
 20
-149.4811713679008
 10
100.9235007172339
 20
-149.4811713679008
 10
100.9235007172339
 20
-149.4811713679008
 10
101.0091135437303
 20
-149.3965874826312
 10
101.0091135437303
 20
-149.3965874826312
 10
101.0091135437303
 20
-149.3965874826312
 10
100.9235007172339
 20
-149.3121300201738
 10
100.9235007172339
 20
-149.3121300201738
 10
100.9235007172339
 20
-149.3121300201738
 10
101.0091135437303
 20
-149.2277779100609
 10
101.0091135437303
 20
-149.2277779100609
 10
101.0091135437303
 20
-149.2277779100609
 10
100.9235007172339
 20
-149.1432010482804
 10
100.9235007172339
 20
-149.1432010482804
 10
100.9235007172339
 20
-149.1432010482804
 10
101.0091135437303
 20
-149.0588489381674
 10
101.0091135437303
 20
-149.0588489381674
 10
101.0091135437303
 20
-149.0588489381674
 10
100.9235007172339
 20
-148.9742720763869
 10
100.9235007172339
 20
-148.9742720763869
 10
100.9235007172339
 20
-148.9742720763869
 10
101.0091135437303
 20
-148.8898075904405
 10
101.0091135437303
 20
-148.8898075904405
 10
101.0091135437303
 20
-148.8898075904405
 10
100.9235007172339
 20
-148.8053431044934
 10
100.9235007172339
 20
-148.8053431044934
 10
100.9235007172339
 20
-148.8053431044934
 10
101.0091135437303
 20
-148.7207662427132
 10
101.0091135437303
 20
-148.7207662427132
 10
101.0091135437303
 20
-148.7207662427132
 10
100.9235007172339
 20
-148.6360770050991
 10
100.9235007172339
 20
-148.6360770050991
 10
100.9235007172339
 20
-148.6360770050991
 10
101.0091135437303
 20
-148.5516125191524
 10
101.0091135437303
 20
-148.5516125191524
 10
101.0091135437303
 20
-148.5516125191524
 10
100.9235007172339
 20
-148.466916258049
 10
100.9235007172339
 20
-148.466916258049
 10
100.9235007172339
 20
-148.466916258049
 10
101.0091135437303
 20
-148.3824517721022
 10
101.0091135437303
 20
-148.3824517721022
 10
101.0091135437303
 20
-148.3824517721022
 10
100.9235007172339
 20
-148.2979872861555
 10
100.9235007172339
 20
-148.2979872861555
 10
100.9235007172339
 20
-148.2979872861555
 10
101.0091135437303
 20
-148.2135298236985
 10
101.0091135437303
 20
-148.2135298236985
 10
101.0091135437303
 20
-148.2135298236985
 10
100.9235007172339
 20
-148.1291777135852
 10
100.9235007172339
 20
-148.1291777135852
 10
100.9235007172339
 20
-148.1291777135852
 10
101.0091135437303
 20
-148.044600851805
 10
101.0091135437303
 20
-148.044600851805
 10
101.0091135437303
 20
-148.044600851805
 10
100.9235007172339
 20
-147.9602487416921
 10
100.9235007172339
 20
-147.9602487416921
 10
100.9235007172339
 20
-147.9602487416921
 10
101.0091135437303
 20
-147.8760160309021
 10
101.0091135437303
 20
-147.8760160309021
 10
101.0091135437303
 20
-147.8760160309021
 10
100.9235007172339
 20
-147.7915515449553
 10
100.9235007172339
 20
-147.7915515449553
 10
100.9235007172339
 20
-147.7915515449553
 10
101.0091135437303
 20
-147.7072064583318
 10
101.0091135437303
 20
-147.7072064583318
 10
101.0091135437303
 20
-147.7072064583318
 10
100.9235007172339
 20
-147.6228613717082
 10
100.9235007172339
 20
-147.6228613717082
 10
100.9235007172339
 20
-147.6228613717082
 10
101.0091135437303
 20
-147.5383968857615
 10
101.0091135437303
 20
-147.5383968857615
 10
101.0091135437303
 20
-147.5383968857615
 10
100.9235007172339
 20
-147.4539323998148
 10
100.9235007172339
 20
-147.4539323998148
 10
100.9235007172339
 20
-147.4539323998148
 10
101.0091135437303
 20
-147.3695802897019
 10
101.0091135437303
 20
-147.3695802897019
 10
101.0091135437303
 20
-147.3695802897019
 10
100.9235007172339
 20
-147.2851158037551
 10
100.9235007172339
 20
-147.2851158037551
 10
100.9235007172339
 20
-147.2851158037551
 10
101.0091135437303
 20
-147.2005389419749
 10
101.0091135437303
 20
-147.2005389419749
 10
101.0091135437303
 20
-147.2005389419749
 10
100.9235007172339
 20
-147.1160744560279
 10
100.9235007172339
 20
-147.1160744560279
 10
100.9235007172339
 20
-147.1160744560279
 10
101.0091135437303
 20
-147.0313852184144
 10
101.0091135437303
 20
-147.0313852184144
 10
101.0091135437303
 20
-147.0313852184144
 10
100.9235007172339
 20
-146.9468083566335
 10
100.9235007172339
 20
-146.9468083566335
 10
100.9235007172339
 20
-146.9468083566335
 10
101.0091135437303
 20
-146.8623438706871
 10
101.0091135437303
 20
-146.8623438706871
 10
101.0091135437303
 20
-146.8623438706871
 10
100.9235007172339
 20
-146.7781111598971
 10
100.9235007172339
 20
-146.7781111598971
 10
100.9235007172339
 20
-146.7781111598971
 10
101.0091135437303
 20
-146.6935272746272
 10
101.0091135437303
 20
-146.6935272746272
 10
101.0091135437303
 20
-146.6935272746272
 10
100.9235007172339
 20
-146.6091821880036
 10
100.9235007172339
 20
-146.6091821880036
 10
100.9235007172339
 20
-146.6091821880036
 10
101.0091135437303
 20
-146.5247177020569
 10
101.0091135437303
 20
-146.5247177020569
 10
101.0091135437303
 20
-146.5247177020569
 10
100.9235007172339
 20
-146.4404849912675
 10
100.9235007172339
 20
-146.4404849912675
 10
100.9235007172339
 20
-146.4404849912675
 10
101.0091135437303
 20
-146.356132881154
 10
101.0091135437303
 20
-146.356132881154
 10
101.0091135437303
 20
-146.356132881154
 10
100.9235007172339
 20
-146.2719001703639
 10
100.9235007172339
 20
-146.2719001703639
 10
100.9235007172339
 20
-146.2719001703639
 10
101.0091135437303
 20
-146.1876674595742
 10
101.0091135437303
 20
-146.1876674595742
 10
101.0091135437303
 20
-146.1876674595742
 10
100.9235007172339
 20
-146.1034347487842
 10
100.9235007172339
 20
-146.1034347487842
 10
100.9235007172339
 20
-146.1034347487842
 10
101.0092294313089
 20
-146.0230017458689
 10
101.0092294313089
 20
-146.0230017458689
 10
101.0092294313089
 20
-146.0230017458689
 10
100.9236166048123
 20
-145.9385372599222
 10
100.9236166048123
 20
-145.9385372599222
 10
100.9236166048123
 20
-145.9385372599222
 10
101.0092294313089
 20
-145.8539603981417
 10
101.0092294313089
 20
-145.8539603981417
 10
101.0092294313089
 20
-145.8539603981417
 10
100.9236166048123
 20
-145.7692641370382
 10
100.9236166048123
 20
-145.7692641370382
 10
100.9236166048123
 20
-145.7692641370382
 10
101.0092294313089
 20
-145.684687275258
 10
101.0092294313089
 20
-145.684687275258
 10
101.0092294313089
 20
-145.684687275258
 10
100.9236166048123
 20
-145.6001033899877
 10
100.9236166048123
 20
-145.6001033899877
 10
100.9236166048123
 20
-145.6001033899877
 10
101.0092294313089
 20
-145.5155265282078
 10
101.0092294313089
 20
-145.5155265282078
 10
101.0092294313089
 20
-145.5155265282078
 10
100.9236166048123
 20
-145.4310620422608
 10
100.9236166048123
 20
-145.4310620422608
 10
100.9236166048123
 20
-145.4310620422608
 10
101.0092294313089
 20
-145.3467169556372
 10
101.0092294313089
 20
-145.3467169556372
 10
101.0092294313089
 20
-145.3467169556372
 10
100.9236166048123
 20
-145.2622524696908
 10
100.9236166048123
 20
-145.2622524696908
 10
100.9236166048123
 20
-145.2622524696908
 10
101.0092294313089
 20
-145.1777879837438
 10
101.0092294313089
 20
-145.1777879837438
 10
101.0092294313089
 20
-145.1777879837438
 10
100.9236166048123
 20
-145.0932111219635
 10
100.9236166048123
 20
-145.0932111219635
 10
100.9236166048123
 20
-145.0932111219635
 10
101.0092294313089
 20
-145.0088660353403
 10
101.0092294313089
 20
-145.0088660353403
 10
101.0092294313089
 20
-145.0088660353403
 10
100.9236166048123
 20
-144.9242821500701
 10
100.9236166048123
 20
-144.9242821500701
 10
100.9236166048123
 20
-144.9242821500701
 10
101.0092294313089
 20
-144.8397052882898
 10
101.0092294313089
 20
-144.8397052882898
 10
101.0092294313089
 20
-144.8397052882898
 10
100.9236166048123
 20
-144.7552408023431
 10
100.9236166048123
 20
-144.7552408023431
 10
100.9236166048123
 20
-144.7552408023431
 10
101.0092294313089
 20
-144.670551564729
 10
101.0092294313089
 20
-144.670551564729
 10
101.0092294313089
 20
-144.670551564729
 10
100.9236166048123
 20
-144.5858553036256
 10
100.9236166048123
 20
-144.5858553036256
 10
100.9236166048123
 20
-144.5858553036256
 10
101.0092294313089
 20
-144.5015031935124
 10
101.0092294313089
 20
-144.5015031935124
 10
101.0092294313089
 20
-144.5015031935124
 10
100.9236166048123
 20
-144.4169263317325
 10
100.9236166048123
 20
-144.4169263317325
 10
100.9236166048123
 20
-144.4169263317325
 10
101.0092294313089
 20
-144.3324618457854
 10
101.0092294313089
 20
-144.3324618457854
 10
101.0092294313089
 20
-144.3324618457854
 10
100.9236166048123
 20
-144.2482291349957
 10
100.9236166048123
 20
-144.2482291349957
 10
100.9236166048123
 20
-144.2482291349957
 10
101.0092294313089
 20
-144.1636522732151
 10
101.0092294313089
 20
-144.1636522732151
 10
101.0092294313089
 20
-144.1636522732151
 10
100.9236166048123
 20
-144.0793071865916
 10
100.9236166048123
 20
-144.0793071865916
 10
100.9236166048123
 20
-144.0793071865916
 10
101.0092294313089
 20
-143.9948427006449
 10
101.0092294313089
 20
-143.9948427006449
 10
101.0092294313089
 20
-143.9948427006449
 10
100.9236166048123
 20
-143.9106099898551
 10
100.9236166048123
 20
-143.9106099898551
 10
100.9236166048123
 20
-143.9106099898551
 10
101.0092294313089
 20
-143.8262578797423
 10
101.0092294313089
 20
-143.8262578797423
 10
101.0092294313089
 20
-143.8262578797423
 10
100.9236166048123
 20
-143.7417933937952
 10
100.9236166048123
 20
-143.7417933937952
 10
100.9236166048123
 20
-143.7417933937952
 10
101.0092294313089
 20
-143.6574483071716
 10
101.0092294313089
 20
-143.6574483071716
 10
101.0092294313089
 20
-143.6574483071716
 10
100.9236166048123
 20
-143.5729838212249
 10
100.9236166048123
 20
-143.5729838212249
 10
100.9236166048123
 20
-143.5729838212249
 10
101.0092294313089
 20
-143.4885193352782
 10
101.0092294313089
 20
-143.4885193352782
 10
101.0092294313089
 20
-143.4885193352782
 10
100.9236166048123
 20
-143.4040548493315
 10
100.9236166048123
 20
-143.4040548493315
 10
100.9236166048123
 20
-143.4040548493315
 10
101.0092294313089
 20
-143.3194779875512
 10
101.0092294313089
 20
-143.3194779875512
 10
101.0092294313089
 20
-143.3194779875512
 10
100.9236166048123
 20
-143.2350135016045
 10
100.9236166048123
 20
-143.2350135016045
 10
100.9236166048123
 20
-143.2350135016045
 10
101.0092294313089
 20
-143.1505490156578
 10
101.0092294313089
 20
-143.1505490156578
 10
101.0092294313089
 20
-143.1505490156578
 10
100.9236166048123
 20
-143.065859778044
 10
100.9236166048123
 20
-143.065859778044
 10
100.9236166048123
 20
-143.065859778044
 10
101.0092294313089
 20
-142.9812758927744
 10
101.0092294313089
 20
-142.9812758927744
 10
101.0092294313089
 20
-142.9812758927744
 10
100.9236166048123
 20
-142.8968184303171
 10
100.9236166048123
 20
-142.8968184303171
 10
100.9236166048123
 20
-142.8968184303171
 10
101.0092294313089
 20
-142.8124663202038
 10
101.0092294313089
 20
-142.8124663202038
 10
101.0092294313089
 20
-142.8124663202038
 10
100.9236166048123
 20
-142.7282336094138
 10
100.9236166048123
 20
-142.7282336094138
 10
100.9236166048123
 20
-142.7282336094138
 10
101.0092294313089
 20
-142.6436567476336
 10
101.0092294313089
 20
-142.6436567476336
 10
101.0092294313089
 20
-142.6436567476336
 10
100.9236166048123
 20
-142.5594240368435
 10
100.9236166048123
 20
-142.5594240368435
 10
100.9236166048123
 20
-142.5594240368435
 10
101.0092294313089
 20
-142.4750719267309
 10
101.0092294313089
 20
-142.4750719267309
 10
101.0092294313089
 20
-142.4750719267309
 10
100.9236166048123
 20
-142.3908392159406
 10
100.9236166048123
 20
-142.3908392159406
 10
100.9236166048123
 20
-142.3908392159406
 10
101.0092294313089
 20
-142.3067188809844
 10
101.0092294313089
 20
-142.3067188809844
 10
101.0092294313089
 20
-142.3067188809844
 10
100.9236166048123
 20
-142.2224861701947
 10
100.9236166048123
 20
-142.2224861701947
 10
100.9236166048123
 20
-142.2224861701947
 10
101.0092294313089
 20
-142.1371016071102
 10
101.0092294313089
 20
-142.1371016071102
 10
101.0092294313089
 20
-142.1371016071102
 10
100.9236166048123
 20
-142.0519488191824
 10
100.9236166048123
 20
-142.0519488191824
 10
100.9236166048123
 20
-142.0519488191824
 10
101.0092294313089
 20
-141.9666836554211
 10
101.0092294313089
 20
-141.9666836554211
 10
101.0092294313089
 20
-141.9666836554211
 10
100.9236166048123
 20
-141.8819873943177
 10
100.9236166048123
 20
-141.8819873943177
 10
100.9236166048123
 20
-141.8819873943177
 10
101.0092294313089
 20
-141.7969469822234
 10
101.0092294313089
 20
-141.7969469822234
 10
101.0092294313089
 20
-141.7969469822234
 10
100.9236166048123
 20
-141.7120259694527
 10
100.9236166048123
 20
-141.7120259694527
 10
100.9236166048123
 20
-141.7120259694527
 10
101.0092294313089
 20
-141.6273297083496
 10
101.0092294313089
 20
-141.6273297083496
 10
101.0092294313089
 20
-141.6273297083496
 10
100.9236166048123
 20
-141.5422963197447
 10
100.9236166048123
 20
-141.5422963197447
 10
100.9236166048123
 20
-141.5422963197447
 10
101.0092294313089
 20
-141.4577124344748
 10
101.0092294313089
 20
-141.4577124344748
 10
101.0092294313089
 20
-141.4577124344748
 10
100.9236166048123
 20
-141.3729037975375
 10
100.9236166048123
 20
-141.3729037975375
 10
100.9236166048123
 20
-141.3729037975375
 10
101.0092294313089
 20
-141.2879827847671
 10
101.0092294313089
 20
-141.2879827847671
 10
101.0092294313089
 20
-141.2879827847671
 10
100.9236166048123
 20
-141.2032865236633
 10
100.9236166048123
 20
-141.2032865236633
 10
100.9236166048123
 20
-141.2032865236633
 10
101.0092294313089
 20
-141.1182461115694
 10
101.0092294313089
 20
-141.1182461115694
 10
101.0092294313089
 20
-141.1182461115694
 10
100.9236166048123
 20
-141.0335568739553
 10
100.9236166048123
 20
-141.0335568739553
 10
100.9236166048123
 20
-141.0335568739553
 10
101.0092294313089
 20
-140.9488606128515
 10
101.0092294313089
 20
-140.9488606128515
 10
101.0092294313089
 20
-140.9488606128515
 10
100.9236166048123
 20
-140.8639396000811
 10
100.9236166048123
 20
-140.8639396000811
 10
100.9236166048123
 20
-140.8639396000811
 10
101.0092294313089
 20
-140.7793627383005
 10
101.0092294313089
 20
-140.7793627383005
 10
101.0092294313089
 20
-140.7793627383005
 10
100.9236166048123
 20
-140.6944347020401
 10
100.9236166048123
 20
-140.6944347020401
 10
100.9236166048123
 20
-140.6944347020401
 10
101.0092294313089
 20
-140.6096260651028
 10
101.0092294313089
 20
-140.6096260651028
 10
101.0092294313089
 20
-140.6096260651028
 10
100.9236166048123
 20
-140.5251615791561
 10
100.9236166048123
 20
-140.5251615791561
 10
100.9236166048123
 20
-140.5251615791561
 10
101.0092294313089
 20
-140.4404723415421
 10
101.0092294313089
 20
-140.4404723415421
 10
101.0092294313089
 20
-140.4404723415421
 10
100.9236166048123
 20
-140.3556637046051
 10
100.9236166048123
 20
-140.3556637046051
 10
100.9236166048123
 20
-140.3556637046051
 10
101.0092294313089
 20
-140.2709674435017
 10
101.0092294313089
 20
-140.2709674435017
 10
101.0092294313089
 20
-140.2709674435017
 10
100.9236166048123
 20
-140.1862711823979
 10
100.9236166048123
 20
-140.1862711823979
 10
100.9236166048123
 20
-140.1862711823979
 10
101.0092294313089
 20
-140.1016943206174
 10
101.0092294313089
 20
-140.1016943206174
 10
101.0092294313089
 20
-140.1016943206174
 10
100.9236166048123
 20
-140.0172298346707
 10
100.9236166048123
 20
-140.0172298346707
 10
100.9236166048123
 20
-140.0172298346707
 10
101.0092294313089
 20
-139.9327653487239
 10
101.0092294313089
 20
-139.9327653487239
 10
101.0092294313089
 20
-139.9327653487239
 10
100.9236166048123
 20
-139.8481884869437
 10
100.9236166048123
 20
-139.8481884869437
 10
100.9236166048123
 20
-139.8481884869437
 10
101.0092294313089
 20
-139.7634992493293
 10
101.0092294313089
 20
-139.7634992493293
 10
101.0092294313089
 20
-139.7634992493293
 10
100.9236166048123
 20
-139.6788029882262
 10
100.9236166048123
 20
-139.6788029882262
 10
100.9236166048123
 20
-139.6788029882262
 10
101.0092294313089
 20
-139.5941067271225
 10
101.0092294313089
 20
-139.5941067271225
 10
101.0092294313089
 20
-139.5941067271225
 10
100.9236166048123
 20
-139.5096492646657
 10
100.9236166048123
 20
-139.5096492646657
 10
100.9236166048123
 20
-139.5096492646657
 10
101.0092294313089
 20
-139.4252971545528
 10
101.0092294313089
 20
-139.4252971545528
 10
101.0092294313089
 20
-139.4252971545528
 10
100.9236166048123
 20
-139.340952067929
 10
100.9236166048123
 20
-139.340952067929
 10
100.9236166048123
 20
-139.340952067929
 10
101.0092294313089
 20
-139.2567123336496
 10
101.0092294313089
 20
-139.2567123336496
 10
101.0092294313089
 20
-139.2567123336496
 10
100.9236166048123
 20
-139.1722548711922
 10
100.9236166048123
 20
-139.1722548711922
 10
100.9236166048123
 20
-139.1722548711922
 10
101.0092294313089
 20
-139.0876709859223
 10
101.0092294313089
 20
-139.0876709859223
 10
101.0092294313089
 20
-139.0876709859223
 10
100.9236166048123
 20
-139.0032135234652
 10
100.9236166048123
 20
-139.0032135234652
 10
100.9236166048123
 20
-139.0032135234652
 10
101.0092294313089
 20
-138.918404886528
 10
101.0092294313089
 20
-138.918404886528
 10
101.0092294313089
 20
-138.918404886528
 10
100.9236166048123
 20
-138.8337086254245
 10
100.9236166048123
 20
-138.8337086254245
 10
100.9236166048123
 20
-138.8337086254245
 10
101.0092294313089
 20
-138.7490123643211
 10
101.0092294313089
 20
-138.7490123643211
 10
101.0092294313089
 20
-138.7490123643211
 10
100.9236166048123
 20
-138.6644355025406
 10
100.9236166048123
 20
-138.6644355025406
 10
100.9236166048123
 20
-138.6644355025406
 10
101.0092294313089
 20
-138.5799710165938
 10
101.0092294313089
 20
-138.5799710165938
 10
101.0092294313089
 20
-138.5799710165938
 10
100.9236166048123
 20
-138.4951623796566
 10
100.9236166048123
 20
-138.4951623796566
 10
100.9236166048123
 20
-138.4951623796566
 10
101.0092294313089
 20
-138.4106978937102
 10
101.0092294313089
 20
-138.4106978937102
 10
101.0092294313089
 20
-138.4106978937102
 10
100.9236166048123
 20
-138.3262334077634
 10
100.9236166048123
 20
-138.3262334077634
 10
100.9236166048123
 20
-138.3262334077634
 10
101.0092294313089
 20
-138.2414247708262
 10
101.0092294313089
 20
-138.2414247708262
 10
101.0092294313089
 20
-138.2414247708262
 10
100.9236166048123
 20
-138.1568479090456
 10
100.9236166048123
 20
-138.1568479090456
 10
100.9236166048123
 20
-138.1568479090456
 10
101.0092294313089
 20
-138.0722710472654
 10
101.0092294313089
 20
-138.0722710472654
 10
101.0092294313089
 20
-138.0722710472654
 10
100.9236166048123
 20
-137.9874624103284
 10
100.9236166048123
 20
-137.9874624103284
 10
100.9236166048123
 20
-137.9874624103284
 10
101.0092294313089
 20
-137.9032296995384
 10
101.0092294313089
 20
-137.9032296995384
 10
101.0092294313089
 20
-137.9032296995384
 10
100.9236166048123
 20
-137.818533438435
 10
100.9236166048123
 20
-137.818533438435
 10
100.9236166048123
 20
-137.818533438435
 10
101.0092294313089
 20
-137.7339565766547
 10
101.0092294313089
 20
-137.7339565766547
 10
101.0092294313089
 20
-137.7339565766547
 10
100.9236166048123
 20
-137.6496114900309
 10
100.9236166048123
 20
-137.6496114900309
 10
100.9236166048123
 20
-137.6496114900309
 10
101.0092294313089
 20
-137.565027604761
 10
101.0092294313089
 20
-137.565027604761
 10
101.0092294313089
 20
-137.565027604761
 10
100.9236166048123
 20
-137.4803383671472
 10
100.9236166048123
 20
-137.4803383671472
 10
100.9236166048123
 20
-137.4803383671472
 10
101.0092294313089
 20
-137.395754481877
 10
101.0092294313089
 20
-137.395754481877
 10
101.0092294313089
 20
-137.395754481877
 10
100.9236166048123
 20
-137.3109458449401
 10
100.9236166048123
 20
-137.3109458449401
 10
100.9236166048123
 20
-137.3109458449401
 10
101.0092294313089
 20
-137.2264883824827
 10
101.0092294313089
 20
-137.2264883824827
 10
101.0092294313089
 20
-137.2264883824827
 10
100.9236166048123
 20
-137.142023896536
 10
100.9236166048123
 20
-137.142023896536
 10
100.9236166048123
 20
-137.142023896536
 10
101.0092294313089
 20
-137.0574400112664
 10
101.0092294313089
 20
-137.0574400112664
 10
101.0092294313089
 20
-137.0574400112664
 10
100.9236166048123
 20
-136.972982548809
 10
100.9236166048123
 20
-136.972982548809
 10
100.9236166048123
 20
-136.972982548809
 10
101.0092294313089
 20
-136.8886304386958
 10
101.0092294313089
 20
-136.8886304386958
 10
101.0092294313089
 20
-136.8886304386958
 10
100.9236166048123
 20
-136.8040535769158
 10
100.9236166048123
 20
-136.8040535769158
 10
100.9236166048123
 20
-136.8040535769158
 10
101.0092294313089
 20
-136.7197014668023
 10
101.0092294313089
 20
-136.7197014668023
 10
101.0092294313089
 20
-136.7197014668023
 10
100.9236166048123
 20
-136.6351246050221
 10
100.9236166048123
 20
-136.6351246050221
 10
100.9236166048123
 20
-136.6351246050221
 10
101.0092294313089
 20
-136.5506601190753
 10
101.0092294313089
 20
-136.5506601190753
 10
101.0092294313089
 20
-136.5506601190753
 10
100.9236166048123
 20
-136.4661956331286
 10
100.9236166048123
 20
-136.4661956331286
 10
100.9236166048123
 20
-136.4661956331286
 10
101.0092294313089
 20
-136.3816187713484
 10
101.0092294313089
 20
-136.3816187713484
 10
101.0092294313089
 20
-136.3816187713484
 10
100.9236166048123
 20
-136.2969295337343
 10
100.9236166048123
 20
-136.2969295337343
 10
100.9236166048123
 20
-136.2969295337343
 10
101.0092294313089
 20
-136.2124650477876
 10
101.0092294313089
 20
-136.2124650477876
 10
101.0092294313089
 20
-136.2124650477876
 10
100.9236166048123
 20
-136.1277687866841
 10
100.9236166048123
 20
-136.1277687866841
 10
100.9236166048123
 20
-136.1277687866841
 10
101.0092294313089
 20
-136.0433043007374
 10
101.0092294313089
 20
-136.0433043007374
 10
101.0092294313089
 20
-136.0433043007374
 10
100.9236166048123
 20
-135.9588398147907
 10
100.9236166048123
 20
-135.9588398147907
 10
100.9236166048123
 20
-135.9588398147907
 10
101.0092294313089
 20
-135.8743823523336
 10
101.0092294313089
 20
-135.8743823523336
 10
101.0092294313089
 20
-135.8743823523336
 10
100.9236166048123
 20
-135.7900302422204
 10
100.9236166048123
 20
-135.7900302422204
 10
100.9236166048123
 20
-135.7900302422204
 10
101.0092294313089
 20
-135.7054533804405
 10
101.0092294313089
 20
-135.7054533804405
 10
101.0092294313089
 20
-135.7054533804405
 10
100.9236166048123
 20
-135.6211012703269
 10
100.9236166048123
 20
-135.6211012703269
 10
100.9236166048123
 20
-135.6211012703269
 10
101.0092294313089
 20
-135.5368685595372
 10
101.0092294313089
 20
-135.5368685595372
 10
101.0092294313089
 20
-135.5368685595372
 10
100.9236166048123
 20
-135.4524040735905
 10
100.9236166048123
 20
-135.4524040735905
 10
100.9236166048123
 20
-135.4524040735905
 10
101.0092294313089
 20
-135.368058986967
 10
101.0092294313089
 20
-135.368058986967
 10
101.0092294313089
 20
-135.368058986967
 10
100.9236166048123
 20
-135.2837139003434
 10
100.9236166048123
 20
-135.2837139003434
 10
100.9236166048123
 20
-135.2837139003434
 10
101.0092294313089
 20
-135.1992494143967
 10
101.0092294313089
 20
-135.1992494143967
 10
101.0092294313089
 20
-135.1992494143967
 10
100.9236166048123
 20
-135.11478492845
 10
100.9236166048123
 20
-135.11478492845
 10
100.9236166048123
 20
-135.11478492845
 10
101.0092294313089
 20
-135.030432818337
 10
101.0092294313089
 20
-135.030432818337
 10
101.0092294313089
 20
-135.030432818337
 10
100.9236166048123
 20
-134.9459683323903
 10
100.9236166048123
 20
-134.9459683323903
 10
100.9236166048123
 20
-134.9459683323903
 10
101.0092294313089
 20
-134.8613914706101
 10
101.0092294313089
 20
-134.8613914706101
 10
101.0092294313089
 20
-134.8613914706101
 10
100.9236166048123
 20
-134.776926984663
 10
100.9236166048123
 20
-134.776926984663
 10
100.9236166048123
 20
-134.776926984663
 10
101.0092294313089
 20
-134.6922377470493
 10
101.0092294313089
 20
-134.6922377470493
 10
101.0092294313089
 20
-134.6922377470493
 10
100.9236166048123
 20
-134.6076608852687
 10
100.9236166048123
 20
-134.6076608852687
 10
100.9236166048123
 20
-134.6076608852687
 10
101.0092294313089
 20
-134.5231963993223
 10
101.0092294313089
 20
-134.5231963993223
 10
101.0092294313089
 20
-134.5231963993223
 10
100.9236166048123
 20
-134.4388442892091
 10
100.9236166048123
 20
-134.4388442892091
 10
100.9236166048123
 20
-134.4388442892091
 10
101.0092294313089
 20
-134.3543798032624
 10
101.0092294313089
 20
-134.3543798032624
 10
101.0092294313089
 20
-134.3543798032624
 10
100.9236166048123
 20
-134.2700347166388
 10
100.9236166048123
 20
-134.2700347166388
 10
100.9236166048123
 20
-134.2700347166388
 10
101.0092294313089
 20
-134.1855702306921
 10
101.0092294313089
 20
-134.1855702306921
 10
101.0092294313089
 20
-134.1855702306921
 10
100.9236166048123
 20
-134.1013375199024
 10
100.9236166048123
 20
-134.1013375199024
 10
100.9236166048123
 20
-134.1013375199024
 10
101.0092294313089
 20
-134.0169854097892
 10
101.0092294313089
 20
-134.0169854097892
 10
101.0092294313089
 20
-134.0169854097892
 10
100.9236166048123
 20
-133.9327526989991
 10
100.9236166048123
 20
-133.9327526989991
 10
100.9236166048123
 20
-133.9327526989991
 10
101.0092294313089
 20
-133.8485199882094
 10
101.0092294313089
 20
-133.8485199882094
 10
101.0092294313089
 20
-133.8485199882094
 10
100.9236166048123
 20
-133.7642872774194
 10
100.9236166048123
 20
-133.7642872774194
 10
100.9236166048123
 20
-133.7642872774194
 10
101.0092294313089
 20
-133.6800545666297
 10
101.0092294313089
 20
-133.6800545666297
 10
101.0092294313089
 20
-133.6800545666297
 10
100.8591760877191
 20
-133.6800545666297
 10
100.8591760877191
 20
-133.6800545666297
 10
100.8591760877191
 20
-133.6800545666297
 10
100.8591760877191
 20
-133.0013536959752
 10
100.8591760877191
 20
-133.0013536959752
 10
101.0955340715311
 20
-133.0013536959752
 10
101.2771193716863
 20
-133.1930668681358
 10
101.2771193716863
 20
-133.4295407395259
 10
101.2771193716863
 20
-133.4295407395259
 10
101.2791913011188
 20
-159.0040259319079
 10
101.2791913011188
 20
-159.0040259319079
 10
101.2791913011188
 20
-162.7383661885571
 10
104.8289577627877
 20
-165.2021922937572
 10
106.9914094409358
 20
-165.2021922937572
 10
107.0072895509244
 20
-165.2041483356116
 10
107.389328756049
 20
-165.2057567147305
 10
107.4044046764782
 20
-165.2071403421816
 10
107.6276462934597
 20
-165.2284285391638
 10
107.7187830945276
 20
-165.5123109653639
 10
107.7187830945276
 20
-165.6380876171461
 10
107.7187830945276
 20
-165.6380876171461
 10
106.087970950015
 20
-165.6380876171461
 10
106.087970950015
 20
-165.6380876171461
 10
106.087970950015
 20
-165.6380876171461
 10
106.087970950015
 20
-165.5083988816556
 10
106.087970950015
 20
-165.5083988816556
 10
104.8607179827653
 20
-165.5083988816556
 10
101.9880405008874
 20
-163.7365094132639
 10
101.2789595259618
 20
-161.3149155510367
 10
101.2789595259618
 20
-161.3149155510367
 10
101.2789595259618
 20
-162.7932547597926
 10
101.2789595259618
 20
-162.7932547597926
 10
101.2789595259618
 20
-162.7932547597926
 10
100.9342045153863
 20
-162.7932547597926
 10
100.9342045153863
 20
-162.7932547597926
 10
100.9342045153863
 20
-162.7932547597926
 10
100.9342045153863
 20
-161.6464383072032
 10
100.9342045153863
 20
-161.6464383072032
 97
        0
 97
        0
 75
     2
 76
     1
 98
        0
  0
SPLINE
  5
C4
330
41
100
AcDbEntity
  8
_U+30EC_U+30A4_U+30E4_U+30FC 1
 62
   179
420
  2234388
370
     9
100
AcDbSpline
210
0.0
220
0.0
230
1.0
 70
    11
 71
     3
 72
  1046
 73
  1042
 74
     0
 42
0.0000000001
 43
0.0000000001
 12
1.0
 22
0.0
 32
0.0
 13
1.0
 23
0.0
 33
0.0
 40
0.0
 40
0.0
 40
0.0
 40
0.0
 40
1.0
 40
1.0
 40
1.0
 40
2.0
 40
2.0
 40
2.0
 40
3.0
 40
3.0
 40
3.0
 40
4.0
 40
4.0
 40
4.0
 40
5.0
 40
5.0
 40
5.0
 40
6.0
 40
6.0
 40
6.0
 40
7.0
 40
7.0
 40
7.0
 40
8.0
 40
8.0
 40
8.0
 40
9.0
 40
9.0
 40
9.0
 40
10.0
 40
10.0
 40
10.0
 40
11.0
 40
11.0
 40
11.0
 40
12.0
 40
12.0
 40
12.0
 40
13.0
 40
13.0
 40
13.0
 40
14.0
 40
14.0
 40
14.0
 40
15.0
 40
15.0
 40
15.0
 40
16.0
 40
16.0
 40
16.0
 40
17.0
 40
17.0
 40
17.0
 40
18.0
 40
18.0
 40
18.0
 40
19.0
 40
19.0
 40
19.0
 40
20.0
 40
20.0
 40
20.0
 40
21.0
 40
21.0
 40
21.0
 40
22.0
 40
22.0
 40
22.0
 40
23.0
 40
23.0
 40
23.0
 40
24.0
 40
24.0
 40
24.0
 40
25.0
 40
25.0
 40
25.0
 40
26.0
 40
26.0
 40
26.0
 40
27.0
 40
27.0
 40
27.0
 40
28.0
 40
28.0
 40
28.0
 40
29.0
 40
29.0
 40
29.0
 40
30.0
 40
30.0
 40
30.0
 40
31.0
 40
31.0
 40
31.0
 40
32.0
 40
32.0
 40
32.0
 40
33.0
 40
33.0
 40
33.0
 40
34.0
 40
34.0
 40
34.0
 40
35.0
 40
35.0
 40
35.0
 40
36.0
 40
36.0
 40
36.0
 40
37.0
 40
37.0
 40
37.0
 40
38.0
 40
38.0
 40
38.0
 40
39.0
 40
39.0
 40
39.0
 40
40.0
 40
40.0
 40
40.0
 40
41.0
 40
41.0
 40
41.0
 40
42.0
 40
42.0
 40
42.0
 40
43.0
 40
43.0
 40
43.0
 40
44.0
 40
44.0
 40
44.0
 40
45.0
 40
45.0
 40
45.0
 40
46.0
 40
46.0
 40
46.0
 40
47.0
 40
47.0
 40
47.0
 40
48.0
 40
48.0
 40
48.0
 40
49.0
 40
49.0
 40
49.0
 40
50.0
 40
50.0
 40
50.0
 40
51.0
 40
51.0
 40
51.0
 40
52.0
 40
52.0
 40
52.0
 40
53.0
 40
53.0
 40
53.0
 40
54.0
 40
54.0
 40
54.0
 40
55.0
 40
55.0
 40
55.0
 40
56.0
 40
56.0
 40
56.0
 40
57.0
 40
57.0
 40
57.0
 40
58.0
 40
58.0
 40
58.0
 40
59.0
 40
59.0
 40
59.0
 40
60.0
 40
60.0
 40
60.0
 40
61.0
 40
61.0
 40
61.0
 40
62.0
 40
62.0
 40
62.0
 40
63.0
 40
63.0
 40
63.0
 40
64.0
 40
64.0
 40
64.0
 40
65.0
 40
65.0
 40
65.0
 40
66.0
 40
66.0
 40
66.0
 40
67.0
 40
67.0
 40
67.0
 40
68.0
 40
68.0
 40
68.0
 40
69.0
 40
69.0
 40
69.0
 40
70.0
 40
70.0
 40
70.0
 40
71.0
 40
71.0
 40
71.0
 40
72.0
 40
72.0
 40
72.0
 40
73.0
 40
73.0
 40
73.0
 40
74.0
 40
74.0
 40
74.0
 40
75.0
 40
75.0
 40
75.0
 40
76.0
 40
76.0
 40
76.0
 40
77.0
 40
77.0
 40
77.0
 40
78.0
 40
78.0
 40
78.0
 40
79.0
 40
79.0
 40
79.0
 40
80.0
 40
80.0
 40
80.0
 40
81.0
 40
81.0
 40
81.0
 40
82.0
 40
82.0
 40
82.0
 40
83.0
 40
83.0
 40
83.0
 40
84.0
 40
84.0
 40
84.0
 40
85.0
 40
85.0
 40
85.0
 40
86.0
 40
86.0
 40
86.0
 40
87.0
 40
87.0
 40
87.0
 40
88.0
 40
88.0
 40
88.0
 40
89.0
 40
89.0
 40
89.0
 40
90.0
 40
90.0
 40
90.0
 40
91.0
 40
91.0
 40
91.0
 40
92.0
 40
92.0
 40
92.0
 40
93.0
 40
93.0
 40
93.0
 40
94.0
 40
94.0
 40
94.0
 40
95.0
 40
95.0
 40
95.0
 40
96.0
 40
96.0
 40
96.0
 40
97.0
 40
97.0
 40
97.0
 40
98.0
 40
98.0
 40
98.0
 40
99.0
 40
99.0
 40
99.0
 40
100.0
 40
100.0
 40
100.0
 40
101.0
 40
101.0
 40
101.0
 40
102.0
 40
102.0
 40
102.0
 40
103.0
 40
103.0
 40
103.0
 40
104.0
 40
104.0
 40
104.0
 40
105.0
 40
105.0
 40
105.0
 40
106.0
 40
106.0
 40
106.0
 40
107.0
 40
107.0
 40
107.0
 40
108.0
 40
108.0
 40
108.0
 40
109.0
 40
109.0
 40
109.0
 40
110.0
 40
110.0
 40
110.0
 40
111.0
 40
111.0
 40
111.0
 40
112.0
 40
112.0
 40
112.0
 40
113.0
 40
113.0
 40
113.0
 40
114.0
 40
114.0
 40
114.0
 40
115.0
 40
115.0
 40
115.0
 40
116.0
 40
116.0
 40
116.0
 40
117.0
 40
117.0
 40
117.0
 40
118.0
 40
118.0
 40
118.0
 40
119.0
 40
119.0
 40
119.0
 40
120.0
 40
120.0
 40
120.0
 40
121.0
 40
121.0
 40
121.0
 40
122.0
 40
122.0
 40
122.0
 40
123.0
 40
123.0
 40
123.0
 40
124.0
 40
124.0
 40
124.0
 40
125.0
 40
125.0
 40
125.0
 40
126.0
 40
126.0
 40
126.0
 40
127.0
 40
127.0
 40
127.0
 40
128.0
 40
128.0
 40
128.0
 40
129.0
 40
129.0
 40
129.0
 40
130.0
 40
130.0
 40
130.0
 40
131.0
 40
131.0
 40
131.0
 40
132.0
 40
132.0
 40
132.0
 40
133.0
 40
133.0
 40
133.0
 40
134.0
 40
134.0
 40
134.0
 40
135.0
 40
135.0
 40
135.0
 40
136.0
 40
136.0
 40
136.0
 40
137.0
 40
137.0
 40
137.0
 40
138.0
 40
138.0
 40
138.0
 40
139.0
 40
139.0
 40
139.0
 40
140.0
 40
140.0
 40
140.0
 40
141.0
 40
141.0
 40
141.0
 40
142.0
 40
142.0
 40
142.0
 40
143.0
 40
143.0
 40
143.0
 40
144.0
 40
144.0
 40
144.0
 40
145.0
 40
145.0
 40
145.0
 40
146.0
 40
146.0
 40
146.0
 40
147.0
 40
147.0
 40
147.0
 40
148.0
 40
148.0
 40
148.0
 40
149.0
 40
149.0
 40
149.0
 40
150.0
 40
150.0
 40
150.0
 40
151.0
 40
151.0
 40
151.0
 40
152.0
 40
152.0
 40
152.0
 40
153.0
 40
153.0
 40
153.0
 40
154.0
 40
154.0
 40
154.0
 40
155.0
 40
155.0
 40
155.0
 40
156.0
 40
156.0
 40
156.0
 40
157.0
 40
157.0
 40
157.0
 40
158.0
 40
158.0
 40
158.0
 40
159.0
 40
159.0
 40
159.0
 40
160.0
 40
160.0
 40
160.0
 40
161.0
 40
161.0
 40
161.0
 40
162.0
 40
162.0
 40
162.0
 40
163.0
 40
163.0
 40
163.0
 40
164.0
 40
164.0
 40
164.0
 40
165.0
 40
165.0
 40
165.0
 40
166.0
 40
166.0
 40
166.0
 40
167.0
 40
167.0
 40
167.0
 40
168.0
 40
168.0
 40
168.0
 40
169.0
 40
169.0
 40
169.0
 40
170.0
 40
170.0
 40
170.0
 40
171.0
 40
171.0
 40
171.0
 40
172.0
 40
172.0
 40
172.0
 40
173.0
 40
173.0
 40
173.0
 40
174.0
 40
174.0
 40
174.0
 40
175.0
 40
175.0
 40
175.0
 40
176.0
 40
176.0
 40
176.0
 40
177.0
 40
177.0
 40
177.0
 40
178.0
 40
178.0
 40
178.0
 40
179.0
 40
179.0
 40
179.0
 40
180.0
 40
180.0
 40
180.0
 40
181.0
 40
181.0
 40
181.0
 40
182.0
 40
182.0
 40
182.0
 40
183.0
 40
183.0
 40
183.0
 40
184.0
 40
184.0
 40
184.0
 40
185.0
 40
185.0
 40
185.0
 40
186.0
 40
186.0
 40
186.0
 40
187.0
 40
187.0
 40
187.0
 40
188.0
 40
188.0
 40
188.0
 40
189.0
 40
189.0
 40
189.0
 40
190.0
 40
190.0
 40
190.0
 40
191.0
 40
191.0
 40
191.0
 40
192.0
 40
192.0
 40
192.0
 40
193.0
 40
193.0
 40
193.0
 40
194.0
 40
194.0
 40
194.0
 40
195.0
 40
195.0
 40
195.0
 40
196.0
 40
196.0
 40
196.0
 40
197.0
 40
197.0
 40
197.0
 40
198.0
 40
198.0
 40
198.0
 40
199.0
 40
199.0
 40
199.0
 40
200.0
 40
200.0
 40
200.0
 40
201.0
 40
201.0
 40
201.0
 40
202.0
 40
202.0
 40
202.0
 40
203.0
 40
203.0
 40
203.0
 40
204.0
 40
204.0
 40
204.0
 40
205.0
 40
205.0
 40
205.0
 40
206.0
 40
206.0
 40
206.0
 40
207.0
 40
207.0
 40
207.0
 40
208.0
 40
208.0
 40
208.0
 40
209.0
 40
209.0
 40
209.0
 40
210.0
 40
210.0
 40
210.0
 40
211.0
 40
211.0
 40
211.0
 40
212.0
 40
212.0
 40
212.0
 40
213.0
 40
213.0
 40
213.0
 40
214.0
 40
214.0
 40
214.0
 40
215.0
 40
215.0
 40
215.0
 40
216.0
 40
216.0
 40
216.0
 40
217.0
 40
217.0
 40
217.0
 40
218.0
 40
218.0
 40
218.0
 40
219.0
 40
219.0
 40
219.0
 40
220.0
 40
220.0
 40
220.0
 40
221.0
 40
221.0
 40
221.0
 40
222.0
 40
222.0
 40
222.0
 40
223.0
 40
223.0
 40
223.0
 40
224.0
 40
224.0
 40
224.0
 40
225.0
 40
225.0
 40
225.0
 40
226.0
 40
226.0
 40
226.0
 40
227.0
 40
227.0
 40
227.0
 40
228.0
 40
228.0
 40
228.0
 40
229.0
 40
229.0
 40
229.0
 40
230.0
 40
230.0
 40
230.0
 40
231.0
 40
231.0
 40
231.0
 40
232.0
 40
232.0
 40
232.0
 40
233.0
 40
233.0
 40
233.0
 40
234.0
 40
234.0
 40
234.0
 40
235.0
 40
235.0
 40
235.0
 40
236.0
 40
236.0
 40
236.0
 40
237.0
 40
237.0
 40
237.0
 40
238.0
 40
238.0
 40
238.0
 40
239.0
 40
239.0
 40
239.0
 40
240.0
 40
240.0
 40
240.0
 40
241.0
 40
241.0
 40
241.0
 40
242.0
 40
242.0
 40
242.0
 40
243.0
 40
243.0
 40
243.0
 40
244.0
 40
244.0
 40
244.0
 40
245.0
 40
245.0
 40
245.0
 40
246.0
 40
246.0
 40
246.0
 40
247.0
 40
247.0
 40
247.0
 40
248.0
 40
248.0
 40
248.0
 40
249.0
 40
249.0
 40
249.0
 40
250.0
 40
250.0
 40
250.0
 40
251.0
 40
251.0
 40
251.0
 40
252.0
 40
252.0
 40
252.0
 40
253.0
 40
253.0
 40
253.0
 40
254.0
 40
254.0
 40
254.0
 40
255.0
 40
255.0
 40
255.0
 40
256.0
 40
256.0
 40
256.0
 40
257.0
 40
257.0
 40
257.0
 40
258.0
 40
258.0
 40
258.0
 40
259.0
 40
259.0
 40
259.0
 40
260.0
 40
260.0
 40
260.0
 40
261.0
 40
261.0
 40
261.0
 40
262.0
 40
262.0
 40
262.0
 40
263.0
 40
263.0
 40
263.0
 40
264.0
 40
264.0
 40
264.0
 40
265.0
 40
265.0
 40
265.0
 40
266.0
 40
266.0
 40
266.0
 40
267.0
 40
267.0
 40
267.0
 40
268.0
 40
268.0
 40
268.0
 40
269.0
 40
269.0
 40
269.0
 40
270.0
 40
270.0
 40
270.0
 40
271.0
 40
271.0
 40
271.0
 40
272.0
 40
272.0
 40
272.0
 40
273.0
 40
273.0
 40
273.0
 40
274.0
 40
274.0
 40
274.0
 40
275.0
 40
275.0
 40
275.0
 40
276.0
 40
276.0
 40
276.0
 40
277.0
 40
277.0
 40
277.0
 40
278.0
 40
278.0
 40
278.0
 40
279.0
 40
279.0
 40
279.0
 40
280.0
 40
280.0
 40
280.0
 40
281.0
 40
281.0
 40
281.0
 40
282.0
 40
282.0
 40
282.0
 40
283.0
 40
283.0
 40
283.0
 40
284.0
 40
284.0
 40
284.0
 40
285.0
 40
285.0
 40
285.0
 40
286.0
 40
286.0
 40
286.0
 40
287.0
 40
287.0
 40
287.0
 40
288.0
 40
288.0
 40
288.0
 40
289.0
 40
289.0
 40
289.0
 40
290.0
 40
290.0
 40
290.0
 40
291.0
 40
291.0
 40
291.0
 40
292.0
 40
292.0
 40
292.0
 40
293.0
 40
293.0
 40
293.0
 40
294.0
 40
294.0
 40
294.0
 40
295.0
 40
295.0
 40
295.0
 40
296.0
 40
296.0
 40
296.0
 40
297.0
 40
297.0
 40
297.0
 40
298.0
 40
298.0
 40
298.0
 40
299.0
 40
299.0
 40
299.0
 40
300.0
 40
300.0
 40
300.0
 40
301.0
 40
301.0
 40
301.0
 40
302.0
 40
302.0
 40
302.0
 40
303.0
 40
303.0
 40
303.0
 40
304.0
 40
304.0
 40
304.0
 40
305.0
 40
305.0
 40
305.0
 40
306.0
 40
306.0
 40
306.0
 40
307.0
 40
307.0
 40
307.0
 40
308.0
 40
308.0
 40
308.0
 40
309.0
 40
309.0
 40
309.0
 40
310.0
 40
310.0
 40
310.0
 40
311.0
 40
311.0
 40
311.0
 40
312.0
 40
312.0
 40
312.0
 40
313.0
 40
313.0
 40
313.0
 40
314.0
 40
314.0
 40
314.0
 40
315.0
 40
315.0
 40
315.0
 40
316.0
 40
316.0
 40
316.0
 40
317.0
 40
317.0
 40
317.0
 40
318.0
 40
318.0
 40
318.0
 40
319.0
 40
319.0
 40
319.0
 40
320.0
 40
320.0
 40
320.0
 40
321.0
 40
321.0
 40
321.0
 40
322.0
 40
322.0
 40
322.0
 40
323.0
 40
323.0
 40
323.0
 40
324.0
 40
324.0
 40
324.0
 40
325.0
 40
325.0
 40
325.0
 40
326.0
 40
326.0
 40
326.0
 40
327.0
 40
327.0
 40
327.0
 40
328.0
 40
328.0
 40
328.0
 40
329.0
 40
329.0
 40
329.0
 40
330.0
 40
330.0
 40
330.0
 40
331.0
 40
331.0
 40
331.0
 40
332.0
 40
332.0
 40
332.0
 40
333.0
 40
333.0
 40
333.0
 40
334.0
 40
334.0
 40
334.0
 40
335.0
 40
335.0
 40
335.0
 40
336.0
 40
336.0
 40
336.0
 40
337.0
 40
337.0
 40
337.0
 40
338.0
 40
338.0
 40
338.0
 40
339.0
 40
339.0
 40
339.0
 40
340.0
 40
340.0
 40
340.0
 40
341.0
 40
341.0
 40
341.0
 40
342.0
 40
342.0
 40
342.0
 40
343.0
 40
343.0
 40
343.0
 40
344.0
 40
344.0
 40
344.0
 40
345.0
 40
345.0
 40
345.0
 40
346.0
 40
346.0
 40
346.0
 40
347.0
 40
347.0
 40
347.0
 40
347.0
 10
100.9342045153863
 20
-161.6464383072032
 30
0.0
 10
100.9342045153863
 20
-161.6464383072032
 30
0.0
 10
101.0299417021432
 20
-161.5500128184655
 30
0.0
 10
101.0299417021432
 20
-161.5500128184655
 30
0.0
 10
101.0299417021432
 20
-161.5500128184655
 30
0.0
 10
100.9443288756472
 20
-161.465660708352
 30
0.0
 10
100.9443288756472
 20
-161.465660708352
 30
0.0
 10
100.9443288756472
 20
-161.465660708352
 30
0.0
 10
101.0299417021432
 20
-161.3810838465721
 30
0.0
 10
101.0299417021432
 20
-161.3810838465721
 30
0.0
 10
101.0299417021432
 20
-161.3810838465721
 30
0.0
 10
100.9443288756472
 20
-161.296619360625
 30
0.0
 10
100.9443288756472
 20
-161.296619360625
 30
0.0
 10
100.9443288756472
 20
-161.296619360625
 30
0.0
 10
101.0299417021432
 20
-161.2122742740018
 30
0.0
 10
101.0299417021432
 20
-161.2122742740018
 30
0.0
 10
101.0299417021432
 20
-161.2122742740018
 30
0.0
 10
100.9443288756472
 20
-161.1275780128981
 30
0.0
 10
100.9443288756472
 20
-161.1275780128981
 30
0.0
 10
100.9443288756472
 20
-161.1275780128981
 30
0.0
 10
101.0299417021432
 20
-161.0431135269517
 30
0.0
 10
101.0299417021432
 20
-161.0431135269517
 30
0.0
 10
101.0299417021432
 20
-161.0431135269517
 30
0.0
 10
100.9443288756472
 20
-160.9585366651711
 30
0.0
 10
100.9443288756472
 20
-160.9585366651711
 30
0.0
 10
100.9443288756472
 20
-160.9585366651711
 30
0.0
 10
100.9485886220903
 20
-160.9585366651711
 30
0.0
 10
100.9485886220903
 20
-160.9585366651711
 30
0.0
 10
100.9485886220903
 20
-160.9585366651711
 30
0.0
 10
101.0192414157357
 20
-160.8876485846238
 30
0.0
 10
101.0192414157357
 20
-160.8876485846238
 30
0.0
 10
101.0192414157357
 20
-160.8876485846238
 30
0.0
 10
100.9336285892391
 20
-160.8030717228432
 30
0.0
 10
100.9336285892391
 20
-160.8030717228432
 30
0.0
 10
100.9336285892391
 20
-160.8030717228432
 30
0.0
 10
101.0192414157357
 20
-160.7184948610633
 30
0.0
 10
101.0192414157357
 20
-160.7184948610633
 30
0.0
 10
101.0192414157357
 20
-160.7184948610633
 30
0.0
 10
100.9336285892391
 20
-160.6339179992827
 30
0.0
 10
100.9336285892391
 20
-160.6339179992827
 30
0.0
 10
100.9336285892391
 20
-160.6339179992827
 30
0.0
 10
101.0192414157357
 20
-160.549221738179
 30
0.0
 10
101.0192414157357
 20
-160.549221738179
 30
0.0
 10
101.0192414157357
 20
-160.549221738179
 30
0.0
 10
100.9336285892391
 20
-160.4646448763991
 30
0.0
 10
100.9336285892391
 20
-160.4646448763991
 30
0.0
 10
100.9336285892391
 20
-160.4646448763991
 30
0.0
 10
101.0192414157357
 20
-160.380180390452
 30
0.0
 10
101.0192414157357
 20
-160.380180390452
 30
0.0
 10
101.0192414157357
 20
-160.380180390452
 30
0.0
 10
100.9336285892391
 20
-160.2956035286721
 30
0.0
 10
100.9336285892391
 20
-160.2956035286721
 30
0.0
 10
100.9336285892391
 20
-160.2956035286721
 30
0.0
 10
101.0192414157357
 20
-160.2112514185586
 30
0.0
 10
101.0192414157357
 20
-160.2112514185586
 30
0.0
 10
101.0192414157357
 20
-160.2112514185586
 30
0.0
 10
100.9336285892391
 20
-160.1267869326122
 30
0.0
 10
100.9336285892391
 20
-160.1267869326122
 30
0.0
 10
100.9336285892391
 20
-160.1267869326122
 30
0.0
 10
101.0192414157357
 20
-160.0423294701548
 30
0.0
 10
101.0192414157357
 20
-160.0423294701548
 30
0.0
 10
101.0192414157357
 20
-160.0423294701548
 30
0.0
 10
100.9336285892391
 20
-159.9578649842084
 30
0.0
 10
100.9336285892391
 20
-159.9578649842084
 30
0.0
 10
100.9336285892391
 20
-159.9578649842084
 30
0.0
 10
101.0192414157357
 20
-159.8734004982613
 30
0.0
 10
101.0192414157357
 20
-159.8734004982613
 30
0.0
 10
101.0192414157357
 20
-159.8734004982613
 30
0.0
 10
100.9336285892391
 20
-159.7888236364814
 30
0.0
 10
100.9336285892391
 20
-159.7888236364814
 30
0.0
 10
100.9336285892391
 20
-159.7888236364814
 30
0.0
 10
101.0192414157357
 20
-159.7043591505344
 30
0.0
 10
101.0192414157357
 20
-159.7043591505344
 30
0.0
 10
101.0192414157357
 20
-159.7043591505344
 30
0.0
 10
100.9336285892391
 20
-159.6197752652648
 30
0.0
 10
100.9336285892391
 20
-159.6197752652648
 30
0.0
 10
100.9336285892391
 20
-159.6197752652648
 30
0.0
 10
101.0192414157357
 20
-159.5350860276507
 30
0.0
 10
101.0192414157357
 20
-159.5350860276507
 30
0.0
 10
101.0192414157357
 20
-159.5350860276507
 30
0.0
 10
100.9336285892391
 20
-159.4505091658702
 30
0.0
 10
100.9336285892391
 20
-159.4505091658702
 30
0.0
 10
100.9336285892391
 20
-159.4505091658702
 30
0.0
 10
101.0192414157357
 20
-159.3660446799237
 30
0.0
 10
101.0192414157357
 20
-159.3660446799237
 30
0.0
 10
101.0192414157357
 20
-159.3660446799237
 30
0.0
 10
100.9336285892391
 20
-159.2815801939767
 30
0.0
 10
100.9336285892391
 20
-159.2815801939767
 30
0.0
 10
100.9336285892391
 20
-159.2815801939767
 30
0.0
 10
101.0192414157357
 20
-159.1970033321961
 30
0.0
 10
101.0192414157357
 20
-159.1970033321961
 30
0.0
 10
101.0192414157357
 20
-159.1970033321961
 30
0.0
 10
100.9336285892391
 20
-159.1127706214064
 30
0.0
 10
100.9336285892391
 20
-159.1127706214064
 30
0.0
 10
100.9336285892391
 20
-159.1127706214064
 30
0.0
 10
100.9342045153863
 20
-159.1089709135323
 30
0.0
 10
100.9342045153863
 20
-159.1089709135323
 30
0.0
 10
100.9342045153863
 20
-159.1089709135323
 30
0.0
 10
101.0198173418829
 20
-159.0246188034194
 30
0.0
 10
101.0198173418829
 20
-159.0246188034194
 30
0.0
 10
101.0198173418829
 20
-159.0246188034194
 30
0.0
 10
100.9342045153863
 20
-158.940161340962
 30
0.0
 10
100.9342045153863
 20
-158.940161340962
 30
0.0
 10
100.9342045153863
 20
-158.940161340962
 30
0.0
 10
101.0198173418829
 20
-158.8556968550149
 30
0.0
 10
101.0198173418829
 20
-158.8556968550149
 30
0.0
 10
101.0198173418829
 20
-158.8556968550149
 30
0.0
 10
100.9342045153863
 20
-158.7712323690685
 30
0.0
 10
100.9342045153863
 20
-158.7712323690685
 30
0.0
 10
100.9342045153863
 20
-158.7712323690685
 30
0.0
 10
101.0198173418829
 20
-158.6867678831221
 30
0.0
 10
101.0198173418829
 20
-158.6867678831221
 30
0.0
 10
101.0198173418829
 20
-158.6867678831221
 30
0.0
 10
100.9342045153863
 20
-158.6021910213416
 30
0.0
 10
100.9342045153863
 20
-158.6021910213416
 30
0.0
 10
100.9342045153863
 20
-158.6021910213416
 30
0.0
 10
101.0198173418829
 20
-158.5177265353945
 30
0.0
 10
101.0198173418829
 20
-158.5177265353945
 30
0.0
 10
101.0198173418829
 20
-158.5177265353945
 30
0.0
 10
100.9342045153863
 20
-158.4331496736146
 30
0.0
 10
100.9342045153863
 20
-158.4331496736146
 30
0.0
 10
100.9342045153863
 20
-158.4331496736146
 30
0.0
 10
100.9384607500848
 20
-158.4331496736146
 30
0.0
 10
100.9384607500848
 20
-158.4331496736146
 30
0.0
 10
100.9384607500848
 20
-158.4331496736146
 30
0.0
 10
101.0091135437303
 20
-158.3621492172338
 30
0.0
 10
101.0091135437303
 20
-158.3621492172338
 30
0.0
 10
101.0091135437303
 20
-158.3621492172338
 30
0.0
 10
100.9235007172339
 20
-158.2776847312867
 30
0.0
 10
100.9235007172339
 20
-158.2776847312867
 30
0.0
 10
100.9235007172339
 20
-158.2776847312867
 30
0.0
 10
101.0091135437303
 20
-158.1931078695068
 30
0.0
 10
101.0091135437303
 20
-158.1931078695068
 30
0.0
 10
101.0091135437303
 20
-158.1931078695068
 30
0.0
 10
100.9235007172339
 20
-158.1084116084031
 30
0.0
 10
100.9235007172339
 20
-158.1084116084031
 30
0.0
 10
100.9235007172339
 20
-158.1084116084031
 30
0.0
 10
101.0091135437303
 20
-158.0238347466225
 30
0.0
 10
101.0091135437303
 20
-158.0238347466225
 30
0.0
 10
101.0091135437303
 20
-158.0238347466225
 30
0.0
 10
100.9235007172339
 20
-157.9392578848426
 30
0.0
 10
100.9235007172339
 20
-157.9392578848426
 30
0.0
 10
100.9235007172339
 20
-157.9392578848426
 30
0.0
 10
101.0091135437303
 20
-157.8546739995723
 30
0.0
 10
101.0091135437303
 20
-157.8546739995723
 30
0.0
 10
101.0091135437303
 20
-157.8546739995723
 30
0.0
 10
100.9235007172339
 20
-157.7702095136259
 30
0.0
 10
100.9235007172339
 20
-157.7702095136259
 30
0.0
 10
100.9235007172339
 20
-157.7702095136259
 30
0.0
 10
101.0091135437303
 20
-157.6858644270021
 30
0.0
 10
101.0091135437303
 20
-157.6858644270021
 30
0.0
 10
101.0091135437303
 20
-157.6858644270021
 30
0.0
 10
100.9235007172339
 20
-157.6013999410557
 30
0.0
 10
100.9235007172339
 20
-157.6013999410557
 30
0.0
 10
100.9235007172339
 20
-157.6013999410557
 30
0.0
 10
101.0091135437303
 20
-157.5169354551086
 30
0.0
 10
101.0091135437303
 20
-157.5169354551086
 30
0.0
 10
101.0091135437303
 20
-157.5169354551086
 30
0.0
 10
100.9235007172339
 20
-157.4323585933287
 30
0.0
 10
100.9235007172339
 20
-157.4323585933287
 30
0.0
 10
100.9235007172339
 20
-157.4323585933287
 30
0.0
 10
101.0091135437303
 20
-157.3480135067048
 30
0.0
 10
101.0091135437303
 20
-157.3480135067048
 30
0.0
 10
101.0091135437303
 20
-157.3480135067048
 30
0.0
 10
100.9235007172339
 20
-157.2634296214352
 30
0.0
 10
100.9235007172339
 20
-157.2634296214352
 30
0.0
 10
100.9235007172339
 20
-157.2634296214352
 30
0.0
 10
101.0091135437303
 20
-157.1788527596547
 30
0.0
 10
101.0091135437303
 20
-157.1788527596547
 30
0.0
 10
101.0091135437303
 20
-157.1788527596547
 30
0.0
 10
100.9235007172339
 20
-157.0943882737076
 30
0.0
 10
100.9235007172339
 20
-157.0943882737076
 30
0.0
 10
100.9235007172339
 20
-157.0943882737076
 30
0.0
 10
101.0091135437303
 20
-157.0096990360942
 30
0.0
 10
101.0091135437303
 20
-157.0096990360942
 30
0.0
 10
101.0091135437303
 20
-157.0096990360942
 30
0.0
 10
100.9235007172339
 20
-156.9250027749904
 30
0.0
 10
100.9235007172339
 20
-156.9250027749904
 30
0.0
 10
100.9235007172339
 20
-156.9250027749904
 30
0.0
 10
101.0091135437303
 20
-156.8406506648775
 30
0.0
 10
101.0091135437303
 20
-156.8406506648775
 30
0.0
 10
101.0091135437303
 20
-156.8406506648775
 30
0.0
 10
100.9235007172339
 20
-156.756073803097
 30
0.0
 10
100.9235007172339
 20
-156.756073803097
 30
0.0
 10
100.9235007172339
 20
-156.756073803097
 30
0.0
 10
101.0091135437303
 20
-156.6716093171499
 30
0.0
 10
101.0091135437303
 20
-156.6716093171499
 30
0.0
 10
101.0091135437303
 20
-156.6716093171499
 30
0.0
 10
100.9235007172339
 20
-156.5873766063602
 30
0.0
 10
100.9235007172339
 20
-156.5873766063602
 30
0.0
 10
100.9235007172339
 20
-156.5873766063602
 30
0.0
 10
101.0091135437303
 20
-156.5027997445796
 30
0.0
 10
101.0091135437303
 20
-156.5027997445796
 30
0.0
 10
101.0091135437303
 20
-156.5027997445796
 30
0.0
 10
100.9235007172339
 20
-156.4184546579564
 30
0.0
 10
100.9235007172339
 20
-156.4184546579564
 30
0.0
 10
100.9235007172339
 20
-156.4184546579564
 30
0.0
 10
101.0091135437303
 20
-156.33399017201
 30
0.0
 10
101.0091135437303
 20
-156.33399017201
 30
0.0
 10
101.0091135437303
 20
-156.33399017201
 30
0.0
 10
100.9235007172339
 20
-156.2497574612197
 30
0.0
 10
100.9235007172339
 20
-156.2497574612197
 30
0.0
 10
100.9235007172339
 20
-156.2497574612197
 30
0.0
 10
101.0091135437303
 20
-156.1654053511068
 30
0.0
 10
101.0091135437303
 20
-156.1654053511068
 30
0.0
 10
101.0091135437303
 20
-156.1654053511068
 30
0.0
 10
100.9235007172339
 20
-156.0809408651604
 30
0.0
 10
100.9235007172339
 20
-156.0809408651604
 30
0.0
 10
100.9235007172339
 20
-156.0809408651604
 30
0.0
 10
101.0091135437303
 20
-155.9965957785365
 30
0.0
 10
101.0091135437303
 20
-155.9965957785365
 30
0.0
 10
101.0091135437303
 20
-155.9965957785365
 30
0.0
 10
100.9235007172339
 20
-155.9121312925901
 30
0.0
 10
100.9235007172339
 20
-155.9121312925901
 30
0.0
 10
100.9235007172339
 20
-155.9121312925901
 30
0.0
 10
101.0091135437303
 20
-155.827666806643
 30
0.0
 10
101.0091135437303
 20
-155.827666806643
 30
0.0
 10
101.0091135437303
 20
-155.827666806643
 30
0.0
 10
100.9235007172339
 20
-155.7432023206966
 30
0.0
 10
100.9235007172339
 20
-155.7432023206966
 30
0.0
 10
100.9235007172339
 20
-155.7432023206966
 30
0.0
 10
101.0091135437303
 20
-155.658625458916
 30
0.0
 10
101.0091135437303
 20
-155.658625458916
 30
0.0
 10
101.0091135437303
 20
-155.658625458916
 30
0.0
 10
100.9235007172339
 20
-155.5741609729697
 30
0.0
 10
100.9235007172339
 20
-155.5741609729697
 30
0.0
 10
100.9235007172339
 20
-155.5741609729697
 30
0.0
 10
101.0091135437303
 20
-155.4896964870226
 30
0.0
 10
101.0091135437303
 20
-155.4896964870226
 30
0.0
 10
101.0091135437303
 20
-155.4896964870226
 30
0.0
 10
100.9235007172339
 20
-155.4050072494085
 30
0.0
 10
100.9235007172339
 20
-155.4050072494085
 30
0.0
 10
100.9235007172339
 20
-155.4050072494085
 30
0.0
 10
101.0091135437303
 20
-155.3204233641389
 30
0.0
 10
101.0091135437303
 20
-155.3204233641389
 30
0.0
 10
101.0091135437303
 20
-155.3204233641389
 30
0.0
 10
100.9235007172339
 20
-155.2359659016816
 30
0.0
 10
100.9235007172339
 20
-155.2359659016816
 30
0.0
 10
100.9235007172339
 20
-155.2359659016816
 30
0.0
 10
101.0091135437303
 20
-155.1516137915686
 30
0.0
 10
101.0091135437303
 20
-155.1516137915686
 30
0.0
 10
101.0091135437303
 20
-155.1516137915686
 30
0.0
 10
100.9235007172339
 20
-155.0673810807789
 30
0.0
 10
100.9235007172339
 20
-155.0673810807789
 30
0.0
 10
100.9235007172339
 20
-155.0673810807789
 30
0.0
 10
101.0091135437303
 20
-154.9828042189984
 30
0.0
 10
101.0091135437303
 20
-154.9828042189984
 30
0.0
 10
101.0091135437303
 20
-154.9828042189984
 30
0.0
 10
100.9235007172339
 20
-154.8985715082087
 30
0.0
 10
100.9235007172339
 20
-154.8985715082087
 30
0.0
 10
100.9235007172339
 20
-154.8985715082087
 30
0.0
 10
101.0091135437303
 20
-154.8142193980951
 30
0.0
 10
101.0091135437303
 20
-154.8142193980951
 30
0.0
 10
101.0091135437303
 20
-154.8142193980951
 30
0.0
 10
100.9235007172339
 20
-154.7299866873054
 30
0.0
 10
100.9235007172339
 20
-154.7299866873054
 30
0.0
 10
100.9235007172339
 20
-154.7299866873054
 30
0.0
 10
101.0091135437303
 20
-154.6458663523492
 30
0.0
 10
101.0091135437303
 20
-154.6458663523492
 30
0.0
 10
101.0091135437303
 20
-154.6458663523492
 30
0.0
 10
100.9235007172339
 20
-154.5616336415595
 30
0.0
 10
100.9235007172339
 20
-154.5616336415595
 30
0.0
 10
100.9235007172339
 20
-154.5616336415595
 30
0.0
 10
101.0091135437303
 20
-154.4762490784747
 30
0.0
 10
101.0091135437303
 20
-154.4762490784747
 30
0.0
 10
101.0091135437303
 20
-154.4762490784747
 30
0.0
 10
100.9235007172339
 20
-154.3910962905472
 30
0.0
 10
100.9235007172339
 20
-154.3910962905472
 30
0.0
 10
100.9235007172339
 20
-154.3910962905472
 30
0.0
 10
101.0091135437303
 20
-154.3058311267856
 30
0.0
 10
101.0091135437303
 20
-154.3058311267856
 30
0.0
 10
101.0091135437303
 20
-154.3058311267856
 30
0.0
 10
100.9235007172339
 20
-154.2211348656825
 30
0.0
 10
100.9235007172339
 20
-154.2211348656825
 30
0.0
 10
100.9235007172339
 20
-154.2211348656825
 30
0.0
 10
101.0091135437303
 20
-154.1360944535886
 30
0.0
 10
101.0091135437303
 20
-154.1360944535886
 30
0.0
 10
101.0091135437303
 20
-154.1360944535886
 30
0.0
 10
100.9235007172339
 20
-154.0511734408172
 30
0.0
 10
100.9235007172339
 20
-154.0511734408172
 30
0.0
 10
100.9235007172339
 20
-154.0511734408172
 30
0.0
 10
101.0091135437303
 20
-153.9664771797141
 30
0.0
 10
101.0091135437303
 20
-153.9664771797141
 30
0.0
 10
101.0091135437303
 20
-153.9664771797141
 30
0.0
 10
100.9235007172339
 20
-153.8814437911098
 30
0.0
 10
100.9235007172339
 20
-153.8814437911098
 30
0.0
 10
100.9235007172339
 20
-153.8814437911098
 30
0.0
 10
101.0091135437303
 20
-153.7968599058396
 30
0.0
 10
101.0091135437303
 20
-153.7968599058396
 30
0.0
 10
101.0091135437303
 20
-153.7968599058396
 30
0.0
 10
100.9235007172339
 20
-153.7120512689023
 30
0.0
 10
100.9235007172339
 20
-153.7120512689023
 30
0.0
 10
100.9235007172339
 20
-153.7120512689023
 30
0.0
 10
101.0091135437303
 20
-153.6271302561316
 30
0.0
 10
101.0091135437303
 20
-153.6271302561316
 30
0.0
 10
101.0091135437303
 20
-153.6271302561316
 30
0.0
 10
100.9235007172339
 20
-153.5424339950278
 30
0.0
 10
100.9235007172339
 20
-153.5424339950278
 30
0.0
 10
100.9235007172339
 20
-153.5424339950278
 30
0.0
 10
101.0091135437303
 20
-153.4573935829339
 30
0.0
 10
101.0091135437303
 20
-153.4573935829339
 30
0.0
 10
101.0091135437303
 20
-153.4573935829339
 30
0.0
 10
100.9235007172339
 20
-153.3727043453198
 30
0.0
 10
100.9235007172339
 20
-153.3727043453198
 30
0.0
 10
100.9235007172339
 20
-153.3727043453198
 30
0.0
 10
101.0091135437303
 20
-153.2880080842167
 30
0.0
 10
101.0091135437303
 20
-153.2880080842167
 30
0.0
 10
101.0091135437303
 20
-153.2880080842167
 30
0.0
 10
100.9235007172339
 20
-153.2030870714459
 30
0.0
 10
100.9235007172339
 20
-153.2030870714459
 30
0.0
 10
100.9235007172339
 20
-153.2030870714459
 30
0.0
 10
101.0091135437303
 20
-153.1185102096654
 30
0.0
 10
101.0091135437303
 20
-153.1185102096654
 30
0.0
 10
101.0091135437303
 20
-153.1185102096654
 30
0.0
 10
100.9235007172339
 20
-153.0335821734049
 30
0.0
 10
100.9235007172339
 20
-153.0335821734049
 30
0.0
 10
100.9235007172339
 20
-153.0335821734049
 30
0.0
 10
101.0091135437303
 20
-152.9488929357909
 30
0.0
 10
101.0091135437303
 20
-152.9488929357909
 30
0.0
 10
101.0091135437303
 20
-152.9488929357909
 30
0.0
 10
100.9235007172339
 20
-152.8643090505206
 30
0.0
 10
100.9235007172339
 20
-152.8643090505206
 30
0.0
 10
100.9235007172339
 20
-152.8643090505206
 30
0.0
 10
101.0091135437303
 20
-152.7796198129072
 30
0.0
 10
101.0091135437303
 20
-152.7796198129072
 30
0.0
 10
101.0091135437303
 20
-152.7796198129072
 30
0.0
 10
100.9235007172339
 20
-152.69481117597
 30
0.0
 10
100.9235007172339
 20
-152.69481117597
 30
0.0
 10
100.9235007172339
 20
-152.69481117597
 30
0.0
 10
101.0091135437303
 20
-152.6101149148662
 30
0.0
 10
101.0091135437303
 20
-152.6101149148662
 30
0.0
 10
101.0091135437303
 20
-152.6101149148662
 30
0.0
 10
100.9235007172339
 20
-152.5254186537624
 30
0.0
 10
100.9235007172339
 20
-152.5254186537624
 30
0.0
 10
100.9235007172339
 20
-152.5254186537624
 30
0.0
 10
101.0091135437303
 20
-152.4408417919825
 30
0.0
 10
101.0091135437303
 20
-152.4408417919825
 30
0.0
 10
101.0091135437303
 20
-152.4408417919825
 30
0.0
 10
100.9235007172339
 20
-152.3563773060355
 30
0.0
 10
100.9235007172339
 20
-152.3563773060355
 30
0.0
 10
100.9235007172339
 20
-152.3563773060355
 30
0.0
 10
101.0091135437303
 20
-152.2719128200891
 30
0.0
 10
101.0091135437303
 20
-152.2719128200891
 30
0.0
 10
101.0091135437303
 20
-152.2719128200891
 30
0.0
 10
100.9235007172339
 20
-152.1873359583085
 30
0.0
 10
100.9235007172339
 20
-152.1873359583085
 30
0.0
 10
100.9235007172339
 20
-152.1873359583085
 30
0.0
 10
101.0091135437303
 20
-152.1026467206945
 30
0.0
 10
101.0091135437303
 20
-152.1026467206945
 30
0.0
 10
101.0091135437303
 20
-152.1026467206945
 30
0.0
 10
100.9235007172339
 20
-152.0179504595913
 30
0.0
 10
100.9235007172339
 20
-152.0179504595913
 30
0.0
 10
100.9235007172339
 20
-152.0179504595913
 30
0.0
 10
101.0091135437303
 20
-151.9332541984876
 30
0.0
 10
101.0091135437303
 20
-151.9332541984876
 30
0.0
 10
101.0091135437303
 20
-151.9332541984876
 30
0.0
 10
100.9235007172339
 20
-151.8487967360302
 30
0.0
 10
100.9235007172339
 20
-151.8487967360302
 30
0.0
 10
100.9235007172339
 20
-151.8487967360302
 30
0.0
 10
101.0091135437303
 20
-151.7644446259173
 30
0.0
 10
101.0091135437303
 20
-151.7644446259173
 30
0.0
 10
101.0091135437303
 20
-151.7644446259173
 30
0.0
 10
100.9235007172339
 20
-151.6800995392935
 30
0.0
 10
100.9235007172339
 20
-151.6800995392935
 30
0.0
 10
100.9235007172339
 20
-151.6800995392935
 30
0.0
 10
101.0091135437303
 20
-151.5958598050141
 30
0.0
 10
101.0091135437303
 20
-151.5958598050141
 30
0.0
 10
101.0091135437303
 20
-151.5958598050141
 30
0.0
 10
100.9235007172339
 20
-151.5114023425573
 30
0.0
 10
100.9235007172339
 20
-151.5114023425573
 30
0.0
 10
100.9235007172339
 20
-151.5114023425573
 30
0.0
 10
101.0091135437303
 20
-151.4268184572871
 30
0.0
 10
101.0091135437303
 20
-151.4268184572871
 30
0.0
 10
101.0091135437303
 20
-151.4268184572871
 30
0.0
 10
100.9235007172339
 20
-151.3423609948304
 30
0.0
 10
100.9235007172339
 20
-151.3423609948304
 30
0.0
 10
100.9235007172339
 20
-151.3423609948304
 30
0.0
 10
101.0091135437303
 20
-151.2575523578931
 30
0.0
 10
101.0091135437303
 20
-151.2575523578931
 30
0.0
 10
101.0091135437303
 20
-151.2575523578931
 30
0.0
 10
100.9235007172339
 20
-151.1728560967894
 30
0.0
 10
100.9235007172339
 20
-151.1728560967894
 30
0.0
 10
100.9235007172339
 20
-151.1728560967894
 30
0.0
 10
101.0091135437303
 20
-151.0881598356856
 30
0.0
 10
101.0091135437303
 20
-151.0881598356856
 30
0.0
 10
101.0091135437303
 20
-151.0881598356856
 30
0.0
 10
100.9235007172339
 20
-151.0035829739057
 30
0.0
 10
100.9235007172339
 20
-151.0035829739057
 30
0.0
 10
100.9235007172339
 20
-151.0035829739057
 30
0.0
 10
101.0091135437303
 20
-150.9191184879587
 30
0.0
 10
101.0091135437303
 20
-150.9191184879587
 30
0.0
 10
101.0091135437303
 20
-150.9191184879587
 30
0.0
 10
100.9235007172339
 20
-150.8344292503446
 30
0.0
 10
100.9235007172339
 20
-150.8344292503446
 30
0.0
 10
100.9235007172339
 20
-150.8344292503446
 30
0.0
 10
101.0091135437303
 20
-150.749845365075
 30
0.0
 10
101.0091135437303
 20
-150.749845365075
 30
0.0
 10
101.0091135437303
 20
-150.749845365075
 30
0.0
 10
100.9235007172339
 20
-150.665380879128
 30
0.0
 10
100.9235007172339
 20
-150.665380879128
 30
0.0
 10
100.9235007172339
 20
-150.665380879128
 30
0.0
 10
101.0091135437303
 20
-150.5805722421907
 30
0.0
 10
101.0091135437303
 20
-150.5805722421907
 30
0.0
 10
101.0091135437303
 20
-150.5805722421907
 30
0.0
 10
100.9235007172339
 20
-150.4959953804108
 30
0.0
 10
100.9235007172339
 20
-150.4959953804108
 30
0.0
 10
100.9235007172339
 20
-150.4959953804108
 30
0.0
 10
101.0091135437303
 20
-150.4114185186302
 30
0.0
 10
101.0091135437303
 20
-150.4114185186302
 30
0.0
 10
101.0091135437303
 20
-150.4114185186302
 30
0.0
 10
100.9235007172339
 20
-150.3266098816929
 30
0.0
 10
100.9235007172339
 20
-150.3266098816929
 30
0.0
 10
100.9235007172339
 20
-150.3266098816929
 30
0.0
 10
101.0091135437303
 20
-150.2423771709032
 30
0.0
 10
101.0091135437303
 20
-150.2423771709032
 30
0.0
 10
101.0091135437303
 20
-150.2423771709032
 30
0.0
 10
100.9235007172339
 20
-150.1576809097995
 30
0.0
 10
100.9235007172339
 20
-150.1576809097995
 30
0.0
 10
100.9235007172339
 20
-150.1576809097995
 30
0.0
 10
101.0091135437303
 20
-150.0731040480189
 30
0.0
 10
101.0091135437303
 20
-150.0731040480189
 30
0.0
 10
101.0091135437303
 20
-150.0731040480189
 30
0.0
 10
100.9235007172339
 20
-149.9887589613957
 30
0.0
 10
100.9235007172339
 20
-149.9887589613957
 30
0.0
 10
100.9235007172339
 20
-149.9887589613957
 30
0.0
 10
101.0091135437303
 20
-149.9041750761261
 30
0.0
 10
101.0091135437303
 20
-149.9041750761261
 30
0.0
 10
101.0091135437303
 20
-149.9041750761261
 30
0.0
 10
100.9235007172339
 20
-149.819485838512
 30
0.0
 10
100.9235007172339
 20
-149.819485838512
 30
0.0
 10
100.9235007172339
 20
-149.819485838512
 30
0.0
 10
101.0091135437303
 20
-149.7349019532418
 30
0.0
 10
101.0091135437303
 20
-149.7349019532418
 30
0.0
 10
101.0091135437303
 20
-149.7349019532418
 30
0.0
 10
100.9235007172339
 20
-149.6500933163045
 30
0.0
 10
100.9235007172339
 20
-149.6500933163045
 30
0.0
 10
100.9235007172339
 20
-149.6500933163045
 30
0.0
 10
101.0091135437303
 20
-149.5656358538478
 30
0.0
 10
101.0091135437303
 20
-149.5656358538478
 30
0.0
 10
101.0091135437303
 20
-149.5656358538478
 30
0.0
 10
100.9235007172339
 20
-149.4811713679008
 30
0.0
 10
100.9235007172339
 20
-149.4811713679008
 30
0.0
 10
100.9235007172339
 20
-149.4811713679008
 30
0.0
 10
101.0091135437303
 20
-149.3965874826312
 30
0.0
 10
101.0091135437303
 20
-149.3965874826312
 30
0.0
 10
101.0091135437303
 20
-149.3965874826312
 30
0.0
 10
100.9235007172339
 20
-149.3121300201738
 30
0.0
 10
100.9235007172339
 20
-149.3121300201738
 30
0.0
 10
100.9235007172339
 20
-149.3121300201738
 30
0.0
 10
101.0091135437303
 20
-149.2277779100609
 30
0.0
 10
101.0091135437303
 20
-149.2277779100609
 30
0.0
 10
101.0091135437303
 20
-149.2277779100609
 30
0.0
 10
100.9235007172339
 20
-149.1432010482804
 30
0.0
 10
100.9235007172339
 20
-149.1432010482804
 30
0.0
 10
100.9235007172339
 20
-149.1432010482804
 30
0.0
 10
101.0091135437303
 20
-149.0588489381674
 30
0.0
 10
101.0091135437303
 20
-149.0588489381674
 30
0.0
 10
101.0091135437303
 20
-149.0588489381674
 30
0.0
 10
100.9235007172339
 20
-148.9742720763869
 30
0.0
 10
100.9235007172339
 20
-148.9742720763869
 30
0.0
 10
100.9235007172339
 20
-148.9742720763869
 30
0.0
 10
101.0091135437303
 20
-148.8898075904405
 30
0.0
 10
101.0091135437303
 20
-148.8898075904405
 30
0.0
 10
101.0091135437303
 20
-148.8898075904405
 30
0.0
 10
100.9235007172339
 20
-148.8053431044934
 30
0.0
 10
100.9235007172339
 20
-148.8053431044934
 30
0.0
 10
100.9235007172339
 20
-148.8053431044934
 30
0.0
 10
101.0091135437303
 20
-148.7207662427132
 30
0.0
 10
101.0091135437303
 20
-148.7207662427132
 30
0.0
 10
101.0091135437303
 20
-148.7207662427132
 30
0.0
 10
100.9235007172339
 20
-148.6360770050991
 30
0.0
 10
100.9235007172339
 20
-148.6360770050991
 30
0.0
 10
100.9235007172339
 20
-148.6360770050991
 30
0.0
 10
101.0091135437303
 20
-148.5516125191524
 30
0.0
 10
101.0091135437303
 20
-148.5516125191524
 30
0.0
 10
101.0091135437303
 20
-148.5516125191524
 30
0.0
 10
100.9235007172339
 20
-148.466916258049
 30
0.0
 10
100.9235007172339
 20
-148.466916258049
 30
0.0
 10
100.9235007172339
 20
-148.466916258049
 30
0.0
 10
101.0091135437303
 20
-148.3824517721022
 30
0.0
 10
101.0091135437303
 20
-148.3824517721022
 30
0.0
 10
101.0091135437303
 20
-148.3824517721022
 30
0.0
 10
100.9235007172339
 20
-148.2979872861555
 30
0.0
 10
100.9235007172339
 20
-148.2979872861555
 30
0.0
 10
100.9235007172339
 20
-148.2979872861555
 30
0.0
 10
101.0091135437303
 20
-148.2135298236985
 30
0.0
 10
101.0091135437303
 20
-148.2135298236985
 30
0.0
 10
101.0091135437303
 20
-148.2135298236985
 30
0.0
 10
100.9235007172339
 20
-148.1291777135852
 30
0.0
 10
100.9235007172339
 20
-148.1291777135852
 30
0.0
 10
100.9235007172339
 20
-148.1291777135852
 30
0.0
 10
101.0091135437303
 20
-148.044600851805
 30
0.0
 10
101.0091135437303
 20
-148.044600851805
 30
0.0
 10
101.0091135437303
 20
-148.044600851805
 30
0.0
 10
100.9235007172339
 20
-147.9602487416921
 30
0.0
 10
100.9235007172339
 20
-147.9602487416921
 30
0.0
 10
100.9235007172339
 20
-147.9602487416921
 30
0.0
 10
101.0091135437303
 20
-147.8760160309021
 30
0.0
 10
101.0091135437303
 20
-147.8760160309021
 30
0.0
 10
101.0091135437303
 20
-147.8760160309021
 30
0.0
 10
100.9235007172339
 20
-147.7915515449553
 30
0.0
 10
100.9235007172339
 20
-147.7915515449553
 30
0.0
 10
100.9235007172339
 20
-147.7915515449553
 30
0.0
 10
101.0091135437303
 20
-147.7072064583318
 30
0.0
 10
101.0091135437303
 20
-147.7072064583318
 30
0.0
 10
101.0091135437303
 20
-147.7072064583318
 30
0.0
 10
100.9235007172339
 20
-147.6228613717082
 30
0.0
 10
100.9235007172339
 20
-147.6228613717082
 30
0.0
 10
100.9235007172339
 20
-147.6228613717082
 30
0.0
 10
101.0091135437303
 20
-147.5383968857615
 30
0.0
 10
101.0091135437303
 20
-147.5383968857615
 30
0.0
 10
101.0091135437303
 20
-147.5383968857615
 30
0.0
 10
100.9235007172339
 20
-147.4539323998148
 30
0.0
 10
100.9235007172339
 20
-147.4539323998148
 30
0.0
 10
100.9235007172339
 20
-147.4539323998148
 30
0.0
 10
101.0091135437303
 20
-147.3695802897019
 30
0.0
 10
101.0091135437303
 20
-147.3695802897019
 30
0.0
 10
101.0091135437303
 20
-147.3695802897019
 30
0.0
 10
100.9235007172339
 20
-147.2851158037551
 30
0.0
 10
100.9235007172339
 20
-147.2851158037551
 30
0.0
 10
100.9235007172339
 20
-147.2851158037551
 30
0.0
 10
101.0091135437303
 20
-147.2005389419749
 30
0.0
 10
101.0091135437303
 20
-147.2005389419749
 30
0.0
 10
101.0091135437303
 20
-147.2005389419749
 30
0.0
 10
100.9235007172339
 20
-147.1160744560279
 30
0.0
 10
100.9235007172339
 20
-147.1160744560279
 30
0.0
 10
100.9235007172339
 20
-147.1160744560279
 30
0.0
 10
101.0091135437303
 20
-147.0313852184144
 30
0.0
 10
101.0091135437303
 20
-147.0313852184144
 30
0.0
 10
101.0091135437303
 20
-147.0313852184144
 30
0.0
 10
100.9235007172339
 20
-146.9468083566335
 30
0.0
 10
100.9235007172339
 20
-146.9468083566335
 30
0.0
 10
100.9235007172339
 20
-146.9468083566335
 30
0.0
 10
101.0091135437303
 20
-146.8623438706871
 30
0.0
 10
101.0091135437303
 20
-146.8623438706871
 30
0.0
 10
101.0091135437303
 20
-146.8623438706871
 30
0.0
 10
100.9235007172339
 20
-146.7781111598971
 30
0.0
 10
100.9235007172339
 20
-146.7781111598971
 30
0.0
 10
100.9235007172339
 20
-146.7781111598971
 30
0.0
 10
101.0091135437303
 20
-146.6935272746272
 30
0.0
 10
101.0091135437303
 20
-146.6935272746272
 30
0.0
 10
101.0091135437303
 20
-146.6935272746272
 30
0.0
 10
100.9235007172339
 20
-146.6091821880036
 30
0.0
 10
100.9235007172339
 20
-146.6091821880036
 30
0.0
 10
100.9235007172339
 20
-146.6091821880036
 30
0.0
 10
101.0091135437303
 20
-146.5247177020569
 30
0.0
 10
101.0091135437303
 20
-146.5247177020569
 30
0.0
 10
101.0091135437303
 20
-146.5247177020569
 30
0.0
 10
100.9235007172339
 20
-146.4404849912675
 30
0.0
 10
100.9235007172339
 20
-146.4404849912675
 30
0.0
 10
100.9235007172339
 20
-146.4404849912675
 30
0.0
 10
101.0091135437303
 20
-146.356132881154
 30
0.0
 10
101.0091135437303
 20
-146.356132881154
 30
0.0
 10
101.0091135437303
 20
-146.356132881154
 30
0.0
 10
100.9235007172339
 20
-146.2719001703639
 30
0.0
 10
100.9235007172339
 20
-146.2719001703639
 30
0.0
 10
100.9235007172339
 20
-146.2719001703639
 30
0.0
 10
101.0091135437303
 20
-146.1876674595742
 30
0.0
 10
101.0091135437303
 20
-146.1876674595742
 30
0.0
 10
101.0091135437303
 20
-146.1876674595742
 30
0.0
 10
100.9235007172339
 20
-146.1034347487842
 30
0.0
 10
100.9235007172339
 20
-146.1034347487842
 30
0.0
 10
100.9235007172339
 20
-146.1034347487842
 30
0.0
 10
101.0092294313089
 20
-146.0230017458689
 30
0.0
 10
101.0092294313089
 20
-146.0230017458689
 30
0.0
 10
101.0092294313089
 20
-146.0230017458689
 30
0.0
 10
100.9236166048123
 20
-145.9385372599222
 30
0.0
 10
100.9236166048123
 20
-145.9385372599222
 30
0.0
 10
100.9236166048123
 20
-145.9385372599222
 30
0.0
 10
101.0092294313089
 20
-145.8539603981417
 30
0.0
 10
101.0092294313089
 20
-145.8539603981417
 30
0.0
 10
101.0092294313089
 20
-145.8539603981417
 30
0.0
 10
100.9236166048123
 20
-145.7692641370382
 30
0.0
 10
100.9236166048123
 20
-145.7692641370382
 30
0.0
 10
100.9236166048123
 20
-145.7692641370382
 30
0.0
 10
101.0092294313089
 20
-145.684687275258
 30
0.0
 10
101.0092294313089
 20
-145.684687275258
 30
0.0
 10
101.0092294313089
 20
-145.684687275258
 30
0.0
 10
100.9236166048123
 20
-145.6001033899877
 30
0.0
 10
100.9236166048123
 20
-145.6001033899877
 30
0.0
 10
100.9236166048123
 20
-145.6001033899877
 30
0.0
 10
101.0092294313089
 20
-145.5155265282078
 30
0.0
 10
101.0092294313089
 20
-145.5155265282078
 30
0.0
 10
101.0092294313089
 20
-145.5155265282078
 30
0.0
 10
100.9236166048123
 20
-145.4310620422608
 30
0.0
 10
100.9236166048123
 20
-145.4310620422608
 30
0.0
 10
100.9236166048123
 20
-145.4310620422608
 30
0.0
 10
101.0092294313089
 20
-145.3467169556372
 30
0.0
 10
101.0092294313089
 20
-145.3467169556372
 30
0.0
 10
101.0092294313089
 20
-145.3467169556372
 30
0.0
 10
100.9236166048123
 20
-145.2622524696908
 30
0.0
 10
100.9236166048123
 20
-145.2622524696908
 30
0.0
 10
100.9236166048123
 20
-145.2622524696908
 30
0.0
 10
101.0092294313089
 20
-145.1777879837438
 30
0.0
 10
101.0092294313089
 20
-145.1777879837438
 30
0.0
 10
101.0092294313089
 20
-145.1777879837438
 30
0.0
 10
100.9236166048123
 20
-145.0932111219635
 30
0.0
 10
100.9236166048123
 20
-145.0932111219635
 30
0.0
 10
100.9236166048123
 20
-145.0932111219635
 30
0.0
 10
101.0092294313089
 20
-145.0088660353403
 30
0.0
 10
101.0092294313089
 20
-145.0088660353403
 30
0.0
 10
101.0092294313089
 20
-145.0088660353403
 30
0.0
 10
100.9236166048123
 20
-144.9242821500701
 30
0.0
 10
100.9236166048123
 20
-144.9242821500701
 30
0.0
 10
100.9236166048123
 20
-144.9242821500701
 30
0.0
 10
101.0092294313089
 20
-144.8397052882898
 30
0.0
 10
101.0092294313089
 20
-144.8397052882898
 30
0.0
 10
101.0092294313089
 20
-144.8397052882898
 30
0.0
 10
100.9236166048123
 20
-144.7552408023431
 30
0.0
 10
100.9236166048123
 20
-144.7552408023431
 30
0.0
 10
100.9236166048123
 20
-144.7552408023431
 30
0.0
 10
101.0092294313089
 20
-144.670551564729
 30
0.0
 10
101.0092294313089
 20
-144.670551564729
 30
0.0
 10
101.0092294313089
 20
-144.670551564729
 30
0.0
 10
100.9236166048123
 20
-144.5858553036256
 30
0.0
 10
100.9236166048123
 20
-144.5858553036256
 30
0.0
 10
100.9236166048123
 20
-144.5858553036256
 30
0.0
 10
101.0092294313089
 20
-144.5015031935124
 30
0.0
 10
101.0092294313089
 20
-144.5015031935124
 30
0.0
 10
101.0092294313089
 20
-144.5015031935124
 30
0.0
 10
100.9236166048123
 20
-144.4169263317325
 30
0.0
 10
100.9236166048123
 20
-144.4169263317325
 30
0.0
 10
100.9236166048123
 20
-144.4169263317325
 30
0.0
 10
101.0092294313089
 20
-144.3324618457854
 30
0.0
 10
101.0092294313089
 20
-144.3324618457854
 30
0.0
 10
101.0092294313089
 20
-144.3324618457854
 30
0.0
 10
100.9236166048123
 20
-144.2482291349957
 30
0.0
 10
100.9236166048123
 20
-144.2482291349957
 30
0.0
 10
100.9236166048123
 20
-144.2482291349957
 30
0.0
 10
101.0092294313089
 20
-144.1636522732151
 30
0.0
 10
101.0092294313089
 20
-144.1636522732151
 30
0.0
 10
101.0092294313089
 20
-144.1636522732151
 30
0.0
 10
100.9236166048123
 20
-144.0793071865916
 30
0.0
 10
100.9236166048123
 20
-144.0793071865916
 30
0.0
 10
100.9236166048123
 20
-144.0793071865916
 30
0.0
 10
101.0092294313089
 20
-143.9948427006449
 30
0.0
 10
101.0092294313089
 20
-143.9948427006449
 30
0.0
 10
101.0092294313089
 20
-143.9948427006449
 30
0.0
 10
100.9236166048123
 20
-143.9106099898551
 30
0.0
 10
100.9236166048123
 20
-143.9106099898551
 30
0.0
 10
100.9236166048123
 20
-143.9106099898551
 30
0.0
 10
101.0092294313089
 20
-143.8262578797423
 30
0.0
 10
101.0092294313089
 20
-143.8262578797423
 30
0.0
 10
101.0092294313089
 20
-143.8262578797423
 30
0.0
 10
100.9236166048123
 20
-143.7417933937952
 30
0.0
 10
100.9236166048123
 20
-143.7417933937952
 30
0.0
 10
100.9236166048123
 20
-143.7417933937952
 30
0.0
 10
101.0092294313089
 20
-143.6574483071716
 30
0.0
 10
101.0092294313089
 20
-143.6574483071716
 30
0.0
 10
101.0092294313089
 20
-143.6574483071716
 30
0.0
 10
100.9236166048123
 20
-143.5729838212249
 30
0.0
 10
100.9236166048123
 20
-143.5729838212249
 30
0.0
 10
100.9236166048123
 20
-143.5729838212249
 30
0.0
 10
101.0092294313089
 20
-143.4885193352782
 30
0.0
 10
101.0092294313089
 20
-143.4885193352782
 30
0.0
 10
101.0092294313089
 20
-143.4885193352782
 30
0.0
 10
100.9236166048123
 20
-143.4040548493315
 30
0.0
 10
100.9236166048123
 20
-143.4040548493315
 30
0.0
 10
100.9236166048123
 20
-143.4040548493315
 30
0.0
 10
101.0092294313089
 20
-143.3194779875512
 30
0.0
 10
101.0092294313089
 20
-143.3194779875512
 30
0.0
 10
101.0092294313089
 20
-143.3194779875512
 30
0.0
 10
100.9236166048123
 20
-143.2350135016045
 30
0.0
 10
100.9236166048123
 20
-143.2350135016045
 30
0.0
 10
100.9236166048123
 20
-143.2350135016045
 30
0.0
 10
101.0092294313089
 20
-143.1505490156578
 30
0.0
 10
101.0092294313089
 20
-143.1505490156578
 30
0.0
 10
101.0092294313089
 20
-143.1505490156578
 30
0.0
 10
100.9236166048123
 20
-143.065859778044
 30
0.0
 10
100.9236166048123
 20
-143.065859778044
 30
0.0
 10
100.9236166048123
 20
-143.065859778044
 30
0.0
 10
101.0092294313089
 20
-142.9812758927744
 30
0.0
 10
101.0092294313089
 20
-142.9812758927744
 30
0.0
 10
101.0092294313089
 20
-142.9812758927744
 30
0.0
 10
100.9236166048123
 20
-142.8968184303171
 30
0.0
 10
100.9236166048123
 20
-142.8968184303171
 30
0.0
 10
100.9236166048123
 20
-142.8968184303171
 30
0.0
 10
101.0092294313089
 20
-142.8124663202038
 30
0.0
 10
101.0092294313089
 20
-142.8124663202038
 30
0.0
 10
101.0092294313089
 20
-142.8124663202038
 30
0.0
 10
100.9236166048123
 20
-142.7282336094138
 30
0.0
 10
100.9236166048123
 20
-142.7282336094138
 30
0.0
 10
100.9236166048123
 20
-142.7282336094138
 30
0.0
 10
101.0092294313089
 20
-142.6436567476336
 30
0.0
 10
101.0092294313089
 20
-142.6436567476336
 30
0.0
 10
101.0092294313089
 20
-142.6436567476336
 30
0.0
 10
100.9236166048123
 20
-142.5594240368435
 30
0.0
 10
100.9236166048123
 20
-142.5594240368435
 30
0.0
 10
100.9236166048123
 20
-142.5594240368435
 30
0.0
 10
101.0092294313089
 20
-142.4750719267309
 30
0.0
 10
101.0092294313089
 20
-142.4750719267309
 30
0.0
 10
101.0092294313089
 20
-142.4750719267309
 30
0.0
 10
100.9236166048123
 20
-142.3908392159406
 30
0.0
 10
100.9236166048123
 20
-142.3908392159406
 30
0.0
 10
100.9236166048123
 20
-142.3908392159406
 30
0.0
 10
101.0092294313089
 20
-142.3067188809844
 30
0.0
 10
101.0092294313089
 20
-142.3067188809844
 30
0.0
 10
101.0092294313089
 20
-142.3067188809844
 30
0.0
 10
100.9236166048123
 20
-142.2224861701947
 30
0.0
 10
100.9236166048123
 20
-142.2224861701947
 30
0.0
 10
100.9236166048123
 20
-142.2224861701947
 30
0.0
 10
101.0092294313089
 20
-142.1371016071102
 30
0.0
 10
101.0092294313089
 20
-142.1371016071102
 30
0.0
 10
101.0092294313089
 20
-142.1371016071102
 30
0.0
 10
100.9236166048123
 20
-142.0519488191824
 30
0.0
 10
100.9236166048123
 20
-142.0519488191824
 30
0.0
 10
100.9236166048123
 20
-142.0519488191824
 30
0.0
 10
101.0092294313089
 20
-141.9666836554211
 30
0.0
 10
101.0092294313089
 20
-141.9666836554211
 30
0.0
 10
101.0092294313089
 20
-141.9666836554211
 30
0.0
 10
100.9236166048123
 20
-141.8819873943177
 30
0.0
 10
100.9236166048123
 20
-141.8819873943177
 30
0.0
 10
100.9236166048123
 20
-141.8819873943177
 30
0.0
 10
101.0092294313089
 20
-141.7969469822234
 30
0.0
 10
101.0092294313089
 20
-141.7969469822234
 30
0.0
 10
101.0092294313089
 20
-141.7969469822234
 30
0.0
 10
100.9236166048123
 20
-141.7120259694527
 30
0.0
 10
100.9236166048123
 20
-141.7120259694527
 30
0.0
 10
100.9236166048123
 20
-141.7120259694527
 30
0.0
 10
101.0092294313089
 20
-141.6273297083496
 30
0.0
 10
101.0092294313089
 20
-141.6273297083496
 30
0.0
 10
101.0092294313089
 20
-141.6273297083496
 30
0.0
 10
100.9236166048123
 20
-141.5422963197447
 30
0.0
 10
100.9236166048123
 20
-141.5422963197447
 30
0.0
 10
100.9236166048123
 20
-141.5422963197447
 30
0.0
 10
101.0092294313089
 20
-141.4577124344748
 30
0.0
 10
101.0092294313089
 20
-141.4577124344748
 30
0.0
 10
101.0092294313089
 20
-141.4577124344748
 30
0.0
 10
100.9236166048123
 20
-141.3729037975375
 30
0.0
 10
100.9236166048123
 20
-141.3729037975375
 30
0.0
 10
100.9236166048123
 20
-141.3729037975375
 30
0.0
 10
101.0092294313089
 20
-141.2879827847671
 30
0.0
 10
101.0092294313089
 20
-141.2879827847671
 30
0.0
 10
101.0092294313089
 20
-141.2879827847671
 30
0.0
 10
100.9236166048123
 20
-141.2032865236633
 30
0.0
 10
100.9236166048123
 20
-141.2032865236633
 30
0.0
 10
100.9236166048123
 20
-141.2032865236633
 30
0.0
 10
101.0092294313089
 20
-141.1182461115694
 30
0.0
 10
101.0092294313089
 20
-141.1182461115694
 30
0.0
 10
101.0092294313089
 20
-141.1182461115694
 30
0.0
 10
100.9236166048123
 20
-141.0335568739553
 30
0.0
 10
100.9236166048123
 20
-141.0335568739553
 30
0.0
 10
100.9236166048123
 20
-141.0335568739553
 30
0.0
 10
101.0092294313089
 20
-140.9488606128515
 30
0.0
 10
101.0092294313089
 20
-140.9488606128515
 30
0.0
 10
101.0092294313089
 20
-140.9488606128515
 30
0.0
 10
100.9236166048123
 20
-140.8639396000811
 30
0.0
 10
100.9236166048123
 20
-140.8639396000811
 30
0.0
 10
100.9236166048123
 20
-140.8639396000811
 30
0.0
 10
101.0092294313089
 20
-140.7793627383005
 30
0.0
 10
101.0092294313089
 20
-140.7793627383005
 30
0.0
 10
101.0092294313089
 20
-140.7793627383005
 30
0.0
 10
100.9236166048123
 20
-140.6944347020401
 30
0.0
 10
100.9236166048123
 20
-140.6944347020401
 30
0.0
 10
100.9236166048123
 20
-140.6944347020401
 30
0.0
 10
101.0092294313089
 20
-140.6096260651028
 30
0.0
 10
101.0092294313089
 20
-140.6096260651028
 30
0.0
 10
101.0092294313089
 20
-140.6096260651028
 30
0.0
 10
100.9236166048123
 20
-140.5251615791561
 30
0.0
 10
100.9236166048123
 20
-140.5251615791561
 30
0.0
 10
100.9236166048123
 20
-140.5251615791561
 30
0.0
 10
101.0092294313089
 20
-140.4404723415421
 30
0.0
 10
101.0092294313089
 20
-140.4404723415421
 30
0.0
 10
101.0092294313089
 20
-140.4404723415421
 30
0.0
 10
100.9236166048123
 20
-140.3556637046051
 30
0.0
 10
100.9236166048123
 20
-140.3556637046051
 30
0.0
 10
100.9236166048123
 20
-140.3556637046051
 30
0.0
 10
101.0092294313089
 20
-140.2709674435017
 30
0.0
 10
101.0092294313089
 20
-140.2709674435017
 30
0.0
 10
101.0092294313089
 20
-140.2709674435017
 30
0.0
 10
100.9236166048123
 20
-140.1862711823979
 30
0.0
 10
100.9236166048123
 20
-140.1862711823979
 30
0.0
 10
100.9236166048123
 20
-140.1862711823979
 30
0.0
 10
101.0092294313089
 20
-140.1016943206174
 30
0.0
 10
101.0092294313089
 20
-140.1016943206174
 30
0.0
 10
101.0092294313089
 20
-140.1016943206174
 30
0.0
 10
100.9236166048123
 20
-140.0172298346707
 30
0.0
 10
100.9236166048123
 20
-140.0172298346707
 30
0.0
 10
100.9236166048123
 20
-140.0172298346707
 30
0.0
 10
101.0092294313089
 20
-139.9327653487239
 30
0.0
 10
101.0092294313089
 20
-139.9327653487239
 30
0.0
 10
101.0092294313089
 20
-139.9327653487239
 30
0.0
 10
100.9236166048123
 20
-139.8481884869437
 30
0.0
 10
100.9236166048123
 20
-139.8481884869437
 30
0.0
 10
100.9236166048123
 20
-139.8481884869437
 30
0.0
 10
101.0092294313089
 20
-139.7634992493293
 30
0.0
 10
101.0092294313089
 20
-139.7634992493293
 30
0.0
 10
101.0092294313089
 20
-139.7634992493293
 30
0.0
 10
100.9236166048123
 20
-139.6788029882262
 30
0.0
 10
100.9236166048123
 20
-139.6788029882262
 30
0.0
 10
100.9236166048123
 20
-139.6788029882262
 30
0.0
 10
101.0092294313089
 20
-139.5941067271225
 30
0.0
 10
101.0092294313089
 20
-139.5941067271225
 30
0.0
 10
101.0092294313089
 20
-139.5941067271225
 30
0.0
 10
100.9236166048123
 20
-139.5096492646657
 30
0.0
 10
100.9236166048123
 20
-139.5096492646657
 30
0.0
 10
100.9236166048123
 20
-139.5096492646657
 30
0.0
 10
101.0092294313089
 20
-139.4252971545528
 30
0.0
 10
101.0092294313089
 20
-139.4252971545528
 30
0.0
 10
101.0092294313089
 20
-139.4252971545528
 30
0.0
 10
100.9236166048123
 20
-139.340952067929
 30
0.0
 10
100.9236166048123
 20
-139.340952067929
 30
0.0
 10
100.9236166048123
 20
-139.340952067929
 30
0.0
 10
101.0092294313089
 20
-139.2567123336496
 30
0.0
 10
101.0092294313089
 20
-139.2567123336496
 30
0.0
 10
101.0092294313089
 20
-139.2567123336496
 30
0.0
 10
100.9236166048123
 20
-139.1722548711922
 30
0.0
 10
100.9236166048123
 20
-139.1722548711922
 30
0.0
 10
100.9236166048123
 20
-139.1722548711922
 30
0.0
 10
101.0092294313089
 20
-139.0876709859223
 30
0.0
 10
101.0092294313089
 20
-139.0876709859223
 30
0.0
 10
101.0092294313089
 20
-139.0876709859223
 30
0.0
 10
100.9236166048123
 20
-139.0032135234652
 30
0.0
 10
100.9236166048123
 20
-139.0032135234652
 30
0.0
 10
100.9236166048123
 20
-139.0032135234652
 30
0.0
 10
101.0092294313089
 20
-138.918404886528
 30
0.0
 10
101.0092294313089
 20
-138.918404886528
 30
0.0
 10
101.0092294313089
 20
-138.918404886528
 30
0.0
 10
100.9236166048123
 20
-138.8337086254245
 30
0.0
 10
100.9236166048123
 20
-138.8337086254245
 30
0.0
 10
100.9236166048123
 20
-138.8337086254245
 30
0.0
 10
101.0092294313089
 20
-138.7490123643211
 30
0.0
 10
101.0092294313089
 20
-138.7490123643211
 30
0.0
 10
101.0092294313089
 20
-138.7490123643211
 30
0.0
 10
100.9236166048123
 20
-138.6644355025406
 30
0.0
 10
100.9236166048123
 20
-138.6644355025406
 30
0.0
 10
100.9236166048123
 20
-138.6644355025406
 30
0.0
 10
101.0092294313089
 20
-138.5799710165938
 30
0.0
 10
101.0092294313089
 20
-138.5799710165938
 30
0.0
 10
101.0092294313089
 20
-138.5799710165938
 30
0.0
 10
100.9236166048123
 20
-138.4951623796566
 30
0.0
 10
100.9236166048123
 20
-138.4951623796566
 30
0.0
 10
100.9236166048123
 20
-138.4951623796566
 30
0.0
 10
101.0092294313089
 20
-138.4106978937102
 30
0.0
 10
101.0092294313089
 20
-138.4106978937102
 30
0.0
 10
101.0092294313089
 20
-138.4106978937102
 30
0.0
 10
100.9236166048123
 20
-138.3262334077634
 30
0.0
 10
100.9236166048123
 20
-138.3262334077634
 30
0.0
 10
100.9236166048123
 20
-138.3262334077634
 30
0.0
 10
101.0092294313089
 20
-138.2414247708262
 30
0.0
 10
101.0092294313089
 20
-138.2414247708262
 30
0.0
 10
101.0092294313089
 20
-138.2414247708262
 30
0.0
 10
100.9236166048123
 20
-138.1568479090456
 30
0.0
 10
100.9236166048123
 20
-138.1568479090456
 30
0.0
 10
100.9236166048123
 20
-138.1568479090456
 30
0.0
 10
101.0092294313089
 20
-138.0722710472654
 30
0.0
 10
101.0092294313089
 20
-138.0722710472654
 30
0.0
 10
101.0092294313089
 20
-138.0722710472654
 30
0.0
 10
100.9236166048123
 20
-137.9874624103284
 30
0.0
 10
100.9236166048123
 20
-137.9874624103284
 30
0.0
 10
100.9236166048123
 20
-137.9874624103284
 30
0.0
 10
101.0092294313089
 20
-137.9032296995384
 30
0.0
 10
101.0092294313089
 20
-137.9032296995384
 30
0.0
 10
101.0092294313089
 20
-137.9032296995384
 30
0.0
 10
100.9236166048123
 20
-137.818533438435
 30
0.0
 10
100.9236166048123
 20
-137.818533438435
 30
0.0
 10
100.9236166048123
 20
-137.818533438435
 30
0.0
 10
101.0092294313089
 20
-137.7339565766547
 30
0.0
 10
101.0092294313089
 20
-137.7339565766547
 30
0.0
 10
101.0092294313089
 20
-137.7339565766547
 30
0.0
 10
100.9236166048123
 20
-137.6496114900309
 30
0.0
 10
100.9236166048123
 20
-137.6496114900309
 30
0.0
 10
100.9236166048123
 20
-137.6496114900309
 30
0.0
 10
101.0092294313089
 20
-137.565027604761
 30
0.0
 10
101.0092294313089
 20
-137.565027604761
 30
0.0
 10
101.0092294313089
 20
-137.565027604761
 30
0.0
 10
100.9236166048123
 20
-137.4803383671472
 30
0.0
 10
100.9236166048123
 20
-137.4803383671472
 30
0.0
 10
100.9236166048123
 20
-137.4803383671472
 30
0.0
 10
101.0092294313089
 20
-137.395754481877
 30
0.0
 10
101.0092294313089
 20
-137.395754481877
 30
0.0
 10
101.0092294313089
 20
-137.395754481877
 30
0.0
 10
100.9236166048123
 20
-137.3109458449401
 30
0.0
 10
100.9236166048123
 20
-137.3109458449401
 30
0.0
 10
100.9236166048123
 20
-137.3109458449401
 30
0.0
 10
101.0092294313089
 20
-137.2264883824827
 30
0.0
 10
101.0092294313089
 20
-137.2264883824827
 30
0.0
 10
101.0092294313089
 20
-137.2264883824827
 30
0.0
 10
100.9236166048123
 20
-137.142023896536
 30
0.0
 10
100.9236166048123
 20
-137.142023896536
 30
0.0
 10
100.9236166048123
 20
-137.142023896536
 30
0.0
 10
101.0092294313089
 20
-137.0574400112664
 30
0.0
 10
101.0092294313089
 20
-137.0574400112664
 30
0.0
 10
101.0092294313089
 20
-137.0574400112664
 30
0.0
 10
100.9236166048123
 20
-136.972982548809
 30
0.0
 10
100.9236166048123
 20
-136.972982548809
 30
0.0
 10
100.9236166048123
 20
-136.972982548809
 30
0.0
 10
101.0092294313089
 20
-136.8886304386958
 30
0.0
 10
101.0092294313089
 20
-136.8886304386958
 30
0.0
 10
101.0092294313089
 20
-136.8886304386958
 30
0.0
 10
100.9236166048123
 20
-136.8040535769158
 30
0.0
 10
100.9236166048123
 20
-136.8040535769158
 30
0.0
 10
100.9236166048123
 20
-136.8040535769158
 30
0.0
 10
101.0092294313089
 20
-136.7197014668023
 30
0.0
 10
101.0092294313089
 20
-136.7197014668023
 30
0.0
 10
101.0092294313089
 20
-136.7197014668023
 30
0.0
 10
100.9236166048123
 20
-136.6351246050221
 30
0.0
 10
100.9236166048123
 20
-136.6351246050221
 30
0.0
 10
100.9236166048123
 20
-136.6351246050221
 30
0.0
 10
101.0092294313089
 20
-136.5506601190753
 30
0.0
 10
101.0092294313089
 20
-136.5506601190753
 30
0.0
 10
101.0092294313089
 20
-136.5506601190753
 30
0.0
 10
100.9236166048123
 20
-136.4661956331286
 30
0.0
 10
100.9236166048123
 20
-136.4661956331286
 30
0.0
 10
100.9236166048123
 20
-136.4661956331286
 30
0.0
 10
101.0092294313089
 20
-136.3816187713484
 30
0.0
 10
101.0092294313089
 20
-136.3816187713484
 30
0.0
 10
101.0092294313089
 20
-136.3816187713484
 30
0.0
 10
100.9236166048123
 20
-136.2969295337343
 30
0.0
 10
100.9236166048123
 20
-136.2969295337343
 30
0.0
 10
100.9236166048123
 20
-136.2969295337343
 30
0.0
 10
101.0092294313089
 20
-136.2124650477876
 30
0.0
 10
101.0092294313089
 20
-136.2124650477876
 30
0.0
 10
101.0092294313089
 20
-136.2124650477876
 30
0.0
 10
100.9236166048123
 20
-136.1277687866841
 30
0.0
 10
100.9236166048123
 20
-136.1277687866841
 30
0.0
 10
100.9236166048123
 20
-136.1277687866841
 30
0.0
 10
101.0092294313089
 20
-136.0433043007374
 30
0.0
 10
101.0092294313089
 20
-136.0433043007374
 30
0.0
 10
101.0092294313089
 20
-136.0433043007374
 30
0.0
 10
100.9236166048123
 20
-135.9588398147907
 30
0.0
 10
100.9236166048123
 20
-135.9588398147907
 30
0.0
 10
100.9236166048123
 20
-135.9588398147907
 30
0.0
 10
101.0092294313089
 20
-135.8743823523336
 30
0.0
 10
101.0092294313089
 20
-135.8743823523336
 30
0.0
 10
101.0092294313089
 20
-135.8743823523336
 30
0.0
 10
100.9236166048123
 20
-135.7900302422204
 30
0.0
 10
100.9236166048123
 20
-135.7900302422204
 30
0.0
 10
100.9236166048123
 20
-135.7900302422204
 30
0.0
 10
101.0092294313089
 20
-135.7054533804405
 30
0.0
 10
101.0092294313089
 20
-135.7054533804405
 30
0.0
 10
101.0092294313089
 20
-135.7054533804405
 30
0.0
 10
100.9236166048123
 20
-135.6211012703269
 30
0.0
 10
100.9236166048123
 20
-135.6211012703269
 30
0.0
 10
100.9236166048123
 20
-135.6211012703269
 30
0.0
 10
101.0092294313089
 20
-135.5368685595372
 30
0.0
 10
101.0092294313089
 20
-135.5368685595372
 30
0.0
 10
101.0092294313089
 20
-135.5368685595372
 30
0.0
 10
100.9236166048123
 20
-135.4524040735905
 30
0.0
 10
100.9236166048123
 20
-135.4524040735905
 30
0.0
 10
100.9236166048123
 20
-135.4524040735905
 30
0.0
 10
101.0092294313089
 20
-135.368058986967
 30
0.0
 10
101.0092294313089
 20
-135.368058986967
 30
0.0
 10
101.0092294313089
 20
-135.368058986967
 30
0.0
 10
100.9236166048123
 20
-135.2837139003434
 30
0.0
 10
100.9236166048123
 20
-135.2837139003434
 30
0.0
 10
100.9236166048123
 20
-135.2837139003434
 30
0.0
 10
101.0092294313089
 20
-135.1992494143967
 30
0.0
 10
101.0092294313089
 20
-135.1992494143967
 30
0.0
 10
101.0092294313089
 20
-135.1992494143967
 30
0.0
 10
100.9236166048123
 20
-135.11478492845
 30
0.0
 10
100.9236166048123
 20
-135.11478492845
 30
0.0
 10
100.9236166048123
 20
-135.11478492845
 30
0.0
 10
101.0092294313089
 20
-135.030432818337
 30
0.0
 10
101.0092294313089
 20
-135.030432818337
 30
0.0
 10
101.0092294313089
 20
-135.030432818337
 30
0.0
 10
100.9236166048123
 20
-134.9459683323903
 30
0.0
 10
100.9236166048123
 20
-134.9459683323903
 30
0.0
 10
100.9236166048123
 20
-134.9459683323903
 30
0.0
 10
101.0092294313089
 20
-134.8613914706101
 30
0.0
 10
101.0092294313089
 20
-134.8613914706101
 30
0.0
 10
101.0092294313089
 20
-134.8613914706101
 30
0.0
 10
100.9236166048123
 20
-134.776926984663
 30
0.0
 10
100.9236166048123
 20
-134.776926984663
 30
0.0
 10
100.9236166048123
 20
-134.776926984663
 30
0.0
 10
101.0092294313089
 20
-134.6922377470493
 30
0.0
 10
101.0092294313089
 20
-134.6922377470493
 30
0.0
 10
101.0092294313089
 20
-134.6922377470493
 30
0.0
 10
100.9236166048123
 20
-134.6076608852687
 30
0.0
 10
100.9236166048123
 20
-134.6076608852687
 30
0.0
 10
100.9236166048123
 20
-134.6076608852687
 30
0.0
 10
101.0092294313089
 20
-134.5231963993223
 30
0.0
 10
101.0092294313089
 20
-134.5231963993223
 30
0.0
 10
101.0092294313089
 20
-134.5231963993223
 30
0.0
 10
100.9236166048123
 20
-134.4388442892091
 30
0.0
 10
100.9236166048123
 20
-134.4388442892091
 30
0.0
 10
100.9236166048123
 20
-134.4388442892091
 30
0.0
 10
101.0092294313089
 20
-134.3543798032624
 30
0.0
 10
101.0092294313089
 20
-134.3543798032624
 30
0.0
 10
101.0092294313089
 20
-134.3543798032624
 30
0.0
 10
100.9236166048123
 20
-134.2700347166388
 30
0.0
 10
100.9236166048123
 20
-134.2700347166388
 30
0.0
 10
100.9236166048123
 20
-134.2700347166388
 30
0.0
 10
101.0092294313089
 20
-134.1855702306921
 30
0.0
 10
101.0092294313089
 20
-134.1855702306921
 30
0.0
 10
101.0092294313089
 20
-134.1855702306921
 30
0.0
 10
100.9236166048123
 20
-134.1013375199024
 30
0.0
 10
100.9236166048123
 20
-134.1013375199024
 30
0.0
 10
100.9236166048123
 20
-134.1013375199024
 30
0.0
 10
101.0092294313089
 20
-134.0169854097892
 30
0.0
 10
101.0092294313089
 20
-134.0169854097892
 30
0.0
 10
101.0092294313089
 20
-134.0169854097892
 30
0.0
 10
100.9236166048123
 20
-133.9327526989991
 30
0.0
 10
100.9236166048123
 20
-133.9327526989991
 30
0.0
 10
100.9236166048123
 20
-133.9327526989991
 30
0.0
 10
101.0092294313089
 20
-133.8485199882094
 30
0.0
 10
101.0092294313089
 20
-133.8485199882094
 30
0.0
 10
101.0092294313089
 20
-133.8485199882094
 30
0.0
 10
100.9236166048123
 20
-133.7642872774194
 30
0.0
 10
100.9236166048123
 20
-133.7642872774194
 30
0.0
 10
100.9236166048123
 20
-133.7642872774194
 30
0.0
 10
101.0092294313089
 20
-133.6800545666297
 30
0.0
 10
101.0092294313089
 20
-133.6800545666297
 30
0.0
 10
101.0092294313089
 20
-133.6800545666297
 30
0.0
 10
100.8591760877191
 20
-133.6800545666297
 30
0.0
 10
100.8591760877191
 20
-133.6800545666297
 30
0.0
 10
100.8591760877191
 20
-133.6800545666297
 30
0.0
 10
100.8591760877191
 20
-133.0013536959752
 30
0.0
 10
100.8591760877191
 20
-133.0013536959752
 30
0.0
 10
101.0955340715311
 20
-133.0013536959752
 30
0.0
 10
101.2771193716863
 20
-133.1930668681358
 30
0.0
 10
101.2771193716863
 20
-133.4295407395259
 30
0.0
 10
101.2771193716863
 20
-133.4295407395259
 30
0.0
 10
101.2791913011188
 20
-159.0040259319079
 30
0.0
 10
101.2791913011188
 20
-159.0040259319079
 30
0.0
 10
101.2791913011188
 20
-162.7383661885571
 30
0.0
 10
104.8289577627877
 20
-165.2021922937572
 30
0.0
 10
106.9914094409358
 20
-165.2021922937572
 30
0.0
 10
107.0072895509244
 20
-165.2041483356116
 30
0.0
 10
107.389328756049
 20
-165.2057567147305
 30
0.0
 10
107.4044046764782
 20
-165.2071403421816
 30
0.0
 10
107.6276462934597
 20
-165.2284285391638
 30
0.0
 10
107.7187830945276
 20
-165.5123109653639
 30
0.0
 10
107.7187830945276
 20
-165.6380876171461
 30
0.0
 10
107.7187830945276
 20
-165.6380876171461
 30
0.0
 10
106.087970950015
 20
-165.6380876171461
 30
0.0
 10
106.087970950015
 20
-165.6380876171461
 30
0.0
 10
106.087970950015
 20
-165.6380876171461
 30
0.0
 10
106.087970950015
 20
-165.5083988816556
 30
0.0
 10
106.087970950015
 20
-165.5083988816556
 30
0.0
 10
104.8607179827653
 20
-165.5083988816556
 30
0.0
 10
101.9880405008874
 20
-163.7365094132639
 30
0.0
 10
101.2789595259618
 20
-161.3149155510367
 30
0.0
 10
101.2789595259618
 20
-161.3149155510367
 30
0.0
 10
101.2789595259618
 20
-162.7932547597926
 30
0.0
 10
101.2789595259618
 20
-162.7932547597926
 30
0.0
 10
101.2789595259618
 20
-162.7932547597926
 30
0.0
 10
100.9342045153863
 20
-162.7932547597926
 30
0.0
 10
100.9342045153863
 20
-162.7932547597926
 30
0.0
 10
100.9342045153863
 20
-162.7932547597926
 30
0.0
 10
100.9342045153863
 20
-161.6464383072032
 30
0.0
 10
100.9342045153863
 20
-161.6464383072032
 30
0.0
  0
ENDBLK
  5
44
330
41
100
AcDbEntity
  8
0
100
AcDbBlockEnd
  0
BLOCK
  5
57
330
55
100
AcDbEntity
  8
0
100
AcDbBlockBegin
  2
block 3
 70
     0
 10
0.0
 20
0.0
 30
0.0
  3
block 3
  1

  0
SPLINE
  5
59
330
55
100
AcDbEntity
  8
_U+30EC_U+30A4_U+30E4_U+30FC 1
370
     0
100
AcDbSpline
210
0.0
220
0.0
230
1.0
 70
    11
 71
     3
 72
    26
 73
    22
 74
     0
 42
0.0000000001
 43
0.0000000001
 12
1.0
 22
0.0
 32
0.0
 13
1.0
 23
0.0
 33
0.0
 40
0.0
 40
0.0
 40
0.0
 40
0.0
 40
1.0
 40
1.0
 40
1.0
 40
2.0
 40
2.0
 40
2.0
 40
3.0
 40
3.0
 40
3.0
 40
4.0
 40
4.0
 40
4.0
 40
5.0
 40
5.0
 40
5.0
 40
6.0
 40
6.0
 40
6.0
 40
7.0
 40
7.0
 40
7.0
 40
7.0
 10
100.7318359123171
 20
-131.1148220158324
 30
0.0
 10
100.7318359123171
 20
-131.1148220158324
 30
0.0
 10
100.7318359123171
 20
-130.7551540471723
 30
0.0
 10
100.7318359123171
 20
-130.7551540471723
 30
0.0
 10
100.7318359123171
 20
-130.7551540471723
 30
0.0
 10
100.6243489331772
 20
-130.7551540471723
 30
0.0
 10
100.6243489331772
 20
-130.7551540471723
 30
0.0
 10
100.6243489331772
 20
-130.7551540471723
 30
0.0
 10
100.6243489331772
 20
-130.7069227103788
 30
0.0
 10
100.6243489331772
 20
-130.7069227103788
 30
0.0
 10
100.7325249314141
 20
-130.7020995766995
 30
0.0
 10
100.7476833515492
 20
-130.6490451062266
 30
0.0
 10
100.7573296189079
 20
-130.6118380749859
 30
0.0
 10
100.7573296189079
 20
-130.6118380749859
 30
0.0
 10
100.8048719366043
 20
-130.6118380749859
 30
0.0
 10
100.8048719366043
 20
-130.6118380749859
 30
0.0
 10
100.8048719366043
 20
-130.6118380749859
 30
0.0
 10
100.8048719366043
 20
-131.1148220158324
 30
0.0
 10
100.8048719366043
 20
-131.1148220158324
 30
0.0
 10
100.8048719366043
 20
-131.1148220158324
 30
0.0
 10
100.7318359123171
 20
-131.1148220158324
 30
0.0
 10
100.7318359123171
 20
-131.1148220158324
 30
0.0
  0
HATCH
  5
5A
330
55
100
AcDbEntity
  8
_U+30EC_U+30A4_U+30E4_U+30FC 1
 62
   179
420
  2234388
100
AcDbHatch
 10
0.0
 20
0.0
 30
0.0
210
0.0
220
0.0
230
1.0
  2
SOLID
 70
     1
 71
     0
 91
        1
 92
        1
 93
        1
 72
     4
 94
        3
 73
     0
 74
     1
 95
       26
 96
       22
 40
0.0
 40
0.0
 40
0.0
 40
0.0
 40
1.0
 40
1.0
 40
1.0
 40
2.0
 40
2.0
 40
2.0
 40
3.0
 40
3.0
 40
3.0
 40
4.0
 40
4.0
 40
4.0
 40
5.0
 40
5.0
 40
5.0
 40
6.0
 40
6.0
 40
6.0
 40
7.0
 40
7.0
 40
7.0
 40
7.0
 10
100.7318359123171
 20
-131.1148220158324
 10
100.7318359123171
 20
-131.1148220158324
 10
100.7318359123171
 20
-130.7551540471723
 10
100.7318359123171
 20
-130.7551540471723
 10
100.7318359123171
 20
-130.7551540471723
 10
100.6243489331772
 20
-130.7551540471723
 10
100.6243489331772
 20
-130.7551540471723
 10
100.6243489331772
 20
-130.7551540471723
 10
100.6243489331772
 20
-130.7069227103788
 10
100.6243489331772
 20
-130.7069227103788
 10
100.7325249314141
 20
-130.7020995766995
 10
100.7476833515492
 20
-130.6490451062266
 10
100.7573296189079
 20
-130.6118380749859
 10
100.7573296189079
 20
-130.6118380749859
 10
100.8048719366043
 20
-130.6118380749859
 10
100.8048719366043
 20
-130.6118380749859
 10
100.8048719366043
 20
-130.6118380749859
 10
100.8048719366043
 20
-131.1148220158324
 10
100.8048719366043
 20
-131.1148220158324
 10
100.8048719366043
 20
-131.1148220158324
 10
100.7318359123171
 20
-131.1148220158324
 10
100.7318359123171
 20
-131.1148220158324
 97
        0
 97
        0
 75
     2
 76
     1
 98
        0
  0
POLYLINE
  5
5B
330
55
100
AcDbEntity
  8
_U+30EC_U+30A4_U+30E4_U+30FC 1
370
     0
100
AcDb2dPolyline
 66
     1
 10
0.0
 20
0.0
 30
0.0
  0
VERTEX
  5
5C
330
5B
100
AcDbEntity
  8
_U+30EC_U+30A4_U+30E4_U+30FC 1
370
     0
100
AcDbVertex
100
AcDb2dVertex
 10
100.9883232711939
 20
-131.1148220158324
 30
0.0
  0
VERTEX
  5
5D
330
5B
100
AcDbEntity
  8
_U+30EC_U+30A4_U+30E4_U+30FC 1
370
     0
100
AcDbVertex
100
AcDb2dVertex
 10
100.9883232711939
 20
-131.0328287432835
 30
0.0
  0
VERTEX
  5
5E
330
5B
100
AcDbEntity
  8
_U+30EC_U+30A4_U+30E4_U+30FC 1
370
     0
100
AcDbVertex
100
AcDb2dVertex
 10
101.0703165437428
 20
-131.0328287432835
 30
0.0
  0
VERTEX
  5
5F
330
5B
100
AcDbEntity
  8
_U+30EC_U+30A4_U+30E4_U+30FC 1
370
     0
100
AcDbVertex
100
AcDb2dVertex
 10
101.0703165437428
 20
-131.1148220158324
 30
0.0
  0
VERTEX
  5
60
330
5B
100
AcDbEntity
  8
_U+30EC_U+30A4_U+30E4_U+30FC 1
370
     0
100
AcDbVertex
100
AcDb2dVertex
 10
100.9883232711939
 20
-131.1148220158324
 30
0.0
  0
SEQEND
  5
61
330
5B
100
AcDbEntity
  8
_U+30EC_U+30A4_U+30E4_U+30FC 1
370
     0
  0
HATCH
  5
62
330
55
100
AcDbEntity
  8
_U+30EC_U+30A4_U+30E4_U+30FC 1
 62
   179
420
  2234388
100
AcDbHatch
 10
0.0
 20
0.0
 30
0.0
210
0.0
220
0.0
230
1.0
  2
SOLID
 70
     1
 71
     0
 91
        1
 92
        1
 93
        4
 72
     1
 10
100.9883232711939
 20
-131.1148220158324
 11
100.9883232711939
 21
-131.0328287432835
 72
     1
 10
100.9883232711939
 20
-131.0328287432835
 11
101.0703165437428
 21
-131.0328287432835
 72
     1
 10
101.0703165437428
 20
-131.0328287432835
 11
101.0703165437428
 21
-131.1148220158324
 72
     1
 10
101.0703165437428
 20
-131.1148220158324
 11
100.9883232711939
 21
-131.1148220158324
 97
        0
 75
     2
 76
     1
 98
        0
  0
SPLINE
  5
63
330
55
100
AcDbEntity
  8
_U+30EC_U+30A4_U+30E4_U+30FC 1
370
     0
100
AcDbSpline
210
0.0
220
0.0
230
1.0
 70
    11
 71
     3
 72
    53
 73
    49
 74
     0
 42
0.0000000001
 43
0.0000000001
 12
1.0
 22
0.0
 32
0.0
 13
1.0
 23
0.0
 33
0.0
 40
0.0
 40
0.0
 40
0.0
 40
0.0
 40
1.0
 40
1.0
 40
1.0
 40
2.0
 40
2.0
 40
2.0
 40
3.0
 40
3.0
 40
3.0
 40
4.0
 40
4.0
 40
4.0
 40
5.0
 40
5.0
 40
5.0
 40
6.0
 40
6.0
 40
6.0
 40
7.0
 40
7.0
 40
7.0
 40
8.0
 40
8.0
 40
8.0
 40
9.0
 40
9.0
 40
9.0
 40
10.0
 40
10.0
 40
10.0
 40
11.0
 40
11.0
 40
11.0
 40
12.0
 40
12.0
 40
12.0
 40
13.0
 40
13.0
 40
13.0
 40
14.0
 40
14.0
 40
14.0
 40
15.0
 40
15.0
 40
15.0
 40
16.0
 40
16.0
 40
16.0
 40
16.0
 10
101.3042385271913
 20
-131.1313584741616
 30
0.0
 10
101.2787448206005
 20
-131.1313584741616
 30
0.0
 10
101.2456719039421
 20
-131.1258463213852
 30
0.0
 10
101.2125989872837
 20
-131.1051757484737
 30
0.0
 10
101.1560994213256
 20
-131.0693467554271
 30
0.0
 10
101.1492092303551
 20
-131.02662757141
 30
0.0
 10
101.1430080584816
 20
-130.9914875974605
 30
0.0
 10
101.1430080584816
 20
-130.9914875974605
 30
0.0
 10
101.2153550636719
 20
-130.9914875974605
 30
0.0
 10
101.2153550636719
 20
-130.9914875974605
 30
0.0
 10
101.2332695601952
 20
-131.0562553925832
 30
0.0
 10
101.2746107060182
 20
-131.0659016599419
 30
0.0
 10
101.3049275462884
 20
-131.0659016599419
 30
0.0
 10
101.3504028066937
 20
-131.0659016599419
 30
0.0
 10
101.4000121816812
 20
-131.0335177623805
 30
0.0
 10
101.4000121816812
 20
-130.957725661705
 30
0.0
 10
101.4000121816812
 20
-130.874354350962
 30
0.0
 10
101.341445558432
 20
-130.8516167207593
 30
0.0
 10
101.3021714699002
 20
-130.8516167207593
 30
0.0
 10
101.2918361834444
 20
-130.8516167207593
 30
0.0
 10
101.2456719039421
 20
-130.8516167207593
 30
0.0
 10
101.216733101866
 20
-130.8936468856794
 30
0.0
 10
101.216733101866
 20
-130.8936468856794
 30
0.0
 10
101.1595445168108
 20
-130.8874457138059
 30
0.0
 10
101.1595445168108
 20
-130.8874457138059
 30
0.0
 10
101.1595445168108
 20
-130.8874457138059
 30
0.0
 10
101.1988186053427
 20
-130.6118380749859
 30
0.0
 10
101.1988186053427
 20
-130.6118380749859
 30
0.0
 10
101.1988186053427
 20
-130.6118380749859
 30
0.0
 10
101.4523776330571
 20
-130.6118380749859
 30
0.0
 10
101.4523776330571
 20
-130.6118380749859
 30
0.0
 10
101.4523776330571
 20
-130.6118380749859
 30
0.0
 10
101.4523776330571
 20
-130.6752278319145
 30
0.0
 10
101.4523776330571
 20
-130.6752278319145
 30
0.0
 10
101.4523776330571
 20
-130.6752278319145
 30
0.0
 10
101.2518730758155
 20
-130.6752278319145
 30
0.0
 10
101.2518730758155
 20
-130.6752278319145
 30
0.0
 10
101.2518730758155
 20
-130.6752278319145
 30
0.0
 10
101.230513483807
 20
-130.8130316513245
 30
0.0
 10
101.230513483807
 20
-130.8130316513245
 30
0.0
 10
101.2504950376214
 20
-130.8020073457717
 30
0.0
 10
101.2773667824064
 20
-130.7889159829278
 30
0.0
 10
101.3159518518411
 20
-130.7889159829278
 30
0.0
 10
101.3986341434872
 20
-130.7889159829278
 30
0.0
 10
101.4758042823567
 20
-130.8495496634682
 30
0.0
 10
101.4758042823567
 20
-130.9515244898316
 30
0.0
 10
101.4758042823567
 20
-131.0548773543891
 30
0.0
 10
101.4027682580695
 20
-131.1313584741616
 30
0.0
 10
101.3042385271913
 20
-131.1313584741616
 30
0.0
  0
HATCH
  5
64
330
55
100
AcDbEntity
  8
_U+30EC_U+30A4_U+30E4_U+30FC 1
 62
   179
420
  2234388
100
AcDbHatch
 10
0.0
 20
0.0
 30
0.0
210
0.0
220
0.0
230
1.0
  2
SOLID
 70
     1
 71
     0
 91
        1
 92
        1
 93
        1
 72
     4
 94
        3
 73
     0
 74
     1
 95
       53
 96
       49
 40
0.0
 40
0.0
 40
0.0
 40
0.0
 40
1.0
 40
1.0
 40
1.0
 40
2.0
 40
2.0
 40
2.0
 40
3.0
 40
3.0
 40
3.0
 40
4.0
 40
4.0
 40
4.0
 40
5.0
 40
5.0
 40
5.0
 40
6.0
 40
6.0
 40
6.0
 40
7.0
 40
7.0
 40
7.0
 40
8.0
 40
8.0
 40
8.0
 40
9.0
 40
9.0
 40
9.0
 40
10.0
 40
10.0
 40
10.0
 40
11.0
 40
11.0
 40
11.0
 40
12.0
 40
12.0
 40
12.0
 40
13.0
 40
13.0
 40
13.0
 40
14.0
 40
14.0
 40
14.0
 40
15.0
 40
15.0
 40
15.0
 40
16.0
 40
16.0
 40
16.0
 40
16.0
 10
101.3042385271913
 20
-131.1313584741616
 10
101.2787448206005
 20
-131.1313584741616
 10
101.2456719039421
 20
-131.1258463213852
 10
101.2125989872837
 20
-131.1051757484737
 10
101.1560994213256
 20
-131.0693467554271
 10
101.1492092303551
 20
-131.02662757141
 10
101.1430080584816
 20
-130.9914875974605
 10
101.1430080584816
 20
-130.9914875974605
 10
101.2153550636719
 20
-130.9914875974605
 10
101.2153550636719
 20
-130.9914875974605
 10
101.2332695601952
 20
-131.0562553925832
 10
101.2746107060182
 20
-131.0659016599419
 10
101.3049275462884
 20
-131.0659016599419
 10
101.3504028066937
 20
-131.0659016599419
 10
101.4000121816812
 20
-131.0335177623805
 10
101.4000121816812
 20
-130.957725661705
 10
101.4000121816812
 20
-130.874354350962
 10
101.341445558432
 20
-130.8516167207593
 10
101.3021714699002
 20
-130.8516167207593
 10
101.2918361834444
 20
-130.8516167207593
 10
101.2456719039421
 20
-130.8516167207593
 10
101.216733101866
 20
-130.8936468856794
 10
101.216733101866
 20
-130.8936468856794
 10
101.1595445168108
 20
-130.8874457138059
 10
101.1595445168108
 20
-130.8874457138059
 10
101.1595445168108
 20
-130.8874457138059
 10
101.1988186053427
 20
-130.6118380749859
 10
101.1988186053427
 20
-130.6118380749859
 10
101.1988186053427
 20
-130.6118380749859
 10
101.4523776330571
 20
-130.6118380749859
 10
101.4523776330571
 20
-130.6118380749859
 10
101.4523776330571
 20
-130.6118380749859
 10
101.4523776330571
 20
-130.6752278319145
 10
101.4523776330571
 20
-130.6752278319145
 10
101.4523776330571
 20
-130.6752278319145
 10
101.2518730758155
 20
-130.6752278319145
 10
101.2518730758155
 20
-130.6752278319145
 10
101.2518730758155
 20
-130.6752278319145
 10
101.230513483807
 20
-130.8130316513245
 10
101.230513483807
 20
-130.8130316513245
 10
101.2504950376214
 20
-130.8020073457717
 10
101.2773667824064
 20
-130.7889159829278
 10
101.3159518518411
 20
-130.7889159829278
 10
101.3986341434872
 20
-130.7889159829278
 10
101.4758042823567
 20
-130.8495496634682
 10
101.4758042823567
 20
-130.9515244898316
 10
101.4758042823567
 20
-131.0548773543891
 10
101.4027682580695
 20
-131.1313584741616
 10
101.3042385271913
 20
-131.1313584741616
 97
        0
 97
        0
 75
     2
 76
     1
 98
        0
  0
ENDBLK
  5
58
330
55
100
AcDbEntity
  8
0
100
AcDbBlockEnd
  0
BLOCK
  5
67
330
65
100
AcDbEntity
  8
0
100
AcDbBlockBegin
  2
block 4
 70
     0
 10
0.0
 20
0.0
 30
0.0
  3
block 4
  1

  0
SPLINE
  5
69
330
65
100
AcDbEntity
  8
_U+30EC_U+30A4_U+30E4_U+30FC 1
370
     0
100
AcDbSpline
210
0.0
220
0.0
230
1.0
 70
    11
 71
     3
 72
    44
 73
    40
 74
     0
 42
0.0000000001
 43
0.0000000001
 12
1.0
 22
0.0
 32
0.0
 13
1.0
 23
0.0
 33
0.0
 40
0.0
 40
0.0
 40
0.0
 40
0.0
 40
1.0
 40
1.0
 40
1.0
 40
2.0
 40
2.0
 40
2.0
 40
3.0
 40
3.0
 40
3.0
 40
4.0
 40
4.0
 40
4.0
 40
5.0
 40
5.0
 40
5.0
 40
6.0
 40
6.0
 40
6.0
 40
7.0
 40
7.0
 40
7.0
 40
8.0
 40
8.0
 40
8.0
 40
9.0
 40
9.0
 40
9.0
 40
10.0
 40
10.0
 40
10.0
 40
11.0
 40
11.0
 40
11.0
 40
12.0
 40
12.0
 40
12.0
 40
13.0
 40
13.0
 40
13.0
 40
13.0
 10
104.2473836002402
 20
-130.9253417641437
 30
0.0
 10
104.1764146332441
 20
-130.9770181964224
 30
0.0
 10
104.1460977929739
 20
-131.0011338648192
 30
0.0
 10
104.1302503537417
 20
-131.0479871634186
 30
0.0
 10
104.1302503537417
 20
-131.0479871634186
 30
0.0
 10
104.3838093814561
 20
-131.0479871634186
 30
0.0
 10
104.3838093814561
 20
-131.0479871634186
 30
0.0
 10
104.3838093814561
 20
-131.0479871634186
 30
0.0
 10
104.3838093814561
 20
-131.1148220158324
 30
0.0
 10
104.3838093814561
 20
-131.1148220158324
 30
0.0
 10
104.3838093814561
 20
-131.1148220158324
 30
0.0
 10
104.0489461002899
 20
-131.1148220158324
 30
0.0
 10
104.0489461002899
 20
-131.1148220158324
 30
0.0
 10
104.0592813867456
 20
-130.998377788431
 30
0.0
 10
104.0806409787541
 20
-130.9728840818401
 30
0.0
 10
104.2060424544172
 20
-130.8757323891561
 30
0.0
 10
104.2894137651603
 20
-130.8109645940334
 30
0.0
 10
104.3107733571688
 20
-130.7889159829278
 30
0.0
 10
104.3107733571688
 20
-130.7441297416195
 30
0.0
 10
104.3107733571688
 20
-130.7055446721847
 30
0.0
 10
104.2873467078691
 20
-130.6628254881676
 30
0.0
 10
104.2232679318435
 20
-130.6628254881676
 30
0.0
 10
104.1385185829063
 20
-130.6628254881676
 30
0.0
 10
104.1357625065181
 20
-130.7379285697461
 30
0.0
 10
104.134384468324
 20
-130.7758246200838
 30
0.0
 10
104.134384468324
 20
-130.7758246200838
 30
0.0
 10
104.0613484440368
 20
-130.7758246200838
 30
0.0
 10
104.0613484440368
 20
-130.7758246200838
 30
0.0
 10
104.0641045204249
 20
-130.7344834742608
 30
0.0
 10
104.0675496159102
 20
-130.6979654621172
 30
0.0
 10
104.0937323415981
 20
-130.6593803926824
 30
0.0
 10
104.1295613346447
 20
-130.6070149413066
 30
0.0
 10
104.1901950151851
 20
-130.5959906357538
 30
0.0
 10
104.2280910655228
 20
-130.5959906357538
 30
0.0
 10
104.3183525672364
 20
-130.5959906357538
 30
0.0
 10
104.3858764387473
 20
-130.6559352971971
 30
0.0
 10
104.3858764387473
 20
-130.7448187607166
 30
0.0
 10
104.3858764387473
 20
-130.819232823198
 30
0.0
 10
104.3479803884095
 20
-130.8516167207593
 30
0.0
 10
104.2473836002402
 20
-130.9253417641437
 30
0.0
  0
HATCH
  5
6A
330
65
100
AcDbEntity
  8
_U+30EC_U+30A4_U+30E4_U+30FC 1
 62
   179
420
  2234388
100
AcDbHatch
 10
0.0
 20
0.0
 30
0.0
210
0.0
220
0.0
230
1.0
  2
SOLID
 70
     1
 71
     0
 91
        1
 92
        1
 93
        1
 72
     4
 94
        3
 73
     0
 74
     1
 95
       44
 96
       40
 40
0.0
 40
0.0
 40
0.0
 40
0.0
 40
1.0
 40
1.0
 40
1.0
 40
2.0
 40
2.0
 40
2.0
 40
3.0
 40
3.0
 40
3.0
 40
4.0
 40
4.0
 40
4.0
 40
5.0
 40
5.0
 40
5.0
 40
6.0
 40
6.0
 40
6.0
 40
7.0
 40
7.0
 40
7.0
 40
8.0
 40
8.0
 40
8.0
 40
9.0
 40
9.0
 40
9.0
 40
10.0
 40
10.0
 40
10.0
 40
11.0
 40
11.0
 40
11.0
 40
12.0
 40
12.0
 40
12.0
 40
13.0
 40
13.0
 40
13.0
 40
13.0
 10
104.2473836002402
 20
-130.9253417641437
 10
104.1764146332441
 20
-130.9770181964224
 10
104.1460977929739
 20
-131.0011338648192
 10
104.1302503537417
 20
-131.0479871634186
 10
104.1302503537417
 20
-131.0479871634186
 10
104.3838093814561
 20
-131.0479871634186
 10
104.3838093814561
 20
-131.0479871634186
 10
104.3838093814561
 20
-131.0479871634186
 10
104.3838093814561
 20
-131.1148220158324
 10
104.3838093814561
 20
-131.1148220158324
 10
104.3838093814561
 20
-131.1148220158324
 10
104.0489461002899
 20
-131.1148220158324
 10
104.0489461002899
 20
-131.1148220158324
 10
104.0592813867456
 20
-130.998377788431
 10
104.0806409787541
 20
-130.9728840818401
 10
104.2060424544172
 20
-130.8757323891561
 10
104.2894137651603
 20
-130.8109645940334
 10
104.3107733571688
 20
-130.7889159829278
 10
104.3107733571688
 20
-130.7441297416195
 10
104.3107733571688
 20
-130.7055446721847
 10
104.2873467078691
 20
-130.6628254881676
 10
104.2232679318435
 20
-130.6628254881676
 10
104.1385185829063
 20
-130.6628254881676
 10
104.1357625065181
 20
-130.7379285697461
 10
104.134384468324
 20
-130.7758246200838
 10
104.134384468324
 20
-130.7758246200838
 10
104.0613484440368
 20
-130.7758246200838
 10
104.0613484440368
 20
-130.7758246200838
 10
104.0641045204249
 20
-130.7344834742608
 10
104.0675496159102
 20
-130.6979654621172
 10
104.0937323415981
 20
-130.6593803926824
 10
104.1295613346447
 20
-130.6070149413066
 10
104.1901950151851
 20
-130.5959906357538
 10
104.2280910655228
 20
-130.5959906357538
 10
104.3183525672364
 20
-130.5959906357538
 10
104.3858764387473
 20
-130.6559352971971
 10
104.3858764387473
 20
-130.7448187607166
 10
104.3858764387473
 20
-130.819232823198
 10
104.3479803884095
 20
-130.8516167207593
 10
104.2473836002402
 20
-130.9253417641437
 97
        0
 97
        0
 75
     2
 76
     1
 98
        0
  0
SPLINE
  5
6B
330
65
100
AcDbEntity
  8
_U+30EC_U+30A4_U+30E4_U+30FC 1
370
     0
100
AcDbSpline
210
0.0
220
0.0
230
1.0
 70
    11
 71
     3
 72
    29
 73
    25
 74
     0
 42
0.0000000001
 43
0.0000000001
 12
1.0
 22
0.0
 32
0.0
 13
1.0
 23
0.0
 33
0.0
 40
0.0
 40
0.0
 40
0.0
 40
0.0
 40
1.0
 40
1.0
 40
1.0
 40
2.0
 40
2.0
 40
2.0
 40
3.0
 40
3.0
 40
3.0
 40
4.0
 40
4.0
 40
4.0
 40
5.0
 40
5.0
 40
5.0
 40
6.0
 40
6.0
 40
6.0
 40
7.0
 40
7.0
 40
7.0
 40
8.0
 40
8.0
 40
8.0
 40
8.0
 10
104.7305582420465
 20
-131.0569444116802
 30
0.0
 10
104.695418268097
 20
-131.1251573022882
 30
0.0
 10
104.6389187021389
 20
-131.1313584741616
 30
0.0
 10
104.6010226518011
 20
-131.1313584741616
 30
0.0
 10
104.5486572004253
 20
-131.1313584741616
 30
0.0
 10
104.502492920923
 20
-131.1162000540265
 30
0.0
 10
104.4714870615557
 20
-131.0569444116802
 30
0.0
 10
104.4377251258003
 20
-130.9935546547516
 30
0.0
 10
104.4315239539268
 20
-130.916384515882
 30
0.0
 10
104.4315239539268
 20
-130.8633300454092
 30
0.0
 10
104.4315239539268
 20
-130.8164767468098
 30
0.0
 10
104.4370361067032
 20
-130.7344834742608
 30
0.0
 10
104.4714870615557
 20
-130.6697156791381
 30
0.0
 10
104.5066270355053
 20
-130.6035698458213
 30
0.0
 10
104.5589924868811
 20
-130.5959906357538
 30
0.0
 10
104.6010226518011
 20
-130.5959906357538
 30
0.0
 10
104.6526990840799
 20
-130.5959906357538
 30
0.0
 10
104.6995523826793
 20
-130.6104600367918
 30
0.0
 10
104.7305582420465
 20
-130.6697156791381
 30
0.0
 10
104.7629421396079
 20
-130.7324164169697
 30
0.0
 10
104.7705213496754
 20
-130.8068304794511
 30
0.0
 10
104.7705213496754
 20
-130.8633300454092
 30
0.0
 10
104.7705213496754
 20
-130.9191405922702
 30
0.0
 10
104.7636311587049
 20
-130.9942436738487
 30
0.0
 10
104.7305582420465
 20
-131.0569444116802
 30
0.0
  0
SPLINE
  5
6C
330
65
100
AcDbEntity
  8
_U+30EC_U+30A4_U+30E4_U+30FC 1
370
     0
100
AcDbSpline
210
0.0
220
0.0
230
1.0
 70
    11
 71
     3
 72
    17
 73
    13
 74
     0
 42
0.0000000001
 43
0.0000000001
 12
1.0
 22
0.0
 32
0.0
 13
1.0
 23
0.0
 33
0.0
 40
0.0
 40
0.0
 40
0.0
 40
0.0
 40
1.0
 40
1.0
 40
1.0
 40
2.0
 40
2.0
 40
2.0
 40
3.0
 40
3.0
 40
3.0
 40
4.0
 40
4.0
 40
4.0
 40
4.0
 10
104.6010226518011
 20
-130.6586913735853
 30
0.0
 10
104.5197183983492
 20
-130.6586913735853
 30
0.0
 10
104.5045599782141
 20
-130.75101993259
 30
0.0
 10
104.5045599782141
 20
-130.8633300454092
 30
0.0
 10
104.5045599782141
 20
-130.9673719290637
 30
0.0
 10
104.516273302864
 20
-131.067968717233
 30
0.0
 10
104.6010226518011
 20
-131.067968717233
 30
0.0
 10
104.681637886156
 20
-131.067968717233
 30
0.0
 10
104.6974853253881
 20
-130.9763291773254
 30
0.0
 10
104.6974853253881
 20
-130.8633300454092
 30
0.0
 10
104.6974853253881
 20
-130.7592881617546
 30
0.0
 10
104.6850829816412
 20
-130.6586913735853
 30
0.0
 10
104.6010226518011
 20
-130.6586913735853
 30
0.0
  0
HATCH
  5
6D
330
65
100
AcDbEntity
  8
_U+30EC_U+30A4_U+30E4_U+30FC 1
 62
   179
420
  2234388
100
AcDbHatch
 10
0.0
 20
0.0
 30
0.0
210
0.0
220
0.0
230
1.0
  2
SOLID
 70
     1
 71
     0
 91
        2
 92
        1
 93
        1
 72
     4
 94
        3
 73
     0
 74
     1
 95
       29
 96
       25
 40
0.0
 40
0.0
 40
0.0
 40
0.0
 40
1.0
 40
1.0
 40
1.0
 40
2.0
 40
2.0
 40
2.0
 40
3.0
 40
3.0
 40
3.0
 40
4.0
 40
4.0
 40
4.0
 40
5.0
 40
5.0
 40
5.0
 40
6.0
 40
6.0
 40
6.0
 40
7.0
 40
7.0
 40
7.0
 40
8.0
 40
8.0
 40
8.0
 40
8.0
 10
104.7305582420465
 20
-131.0569444116802
 10
104.695418268097
 20
-131.1251573022882
 10
104.6389187021389
 20
-131.1313584741616
 10
104.6010226518011
 20
-131.1313584741616
 10
104.5486572004253
 20
-131.1313584741616
 10
104.502492920923
 20
-131.1162000540265
 10
104.4714870615557
 20
-131.0569444116802
 10
104.4377251258003
 20
-130.9935546547516
 10
104.4315239539268
 20
-130.916384515882
 10
104.4315239539268
 20
-130.8633300454092
 10
104.4315239539268
 20
-130.8164767468098
 10
104.4370361067032
 20
-130.7344834742608
 10
104.4714870615557
 20
-130.6697156791381
 10
104.5066270355053
 20
-130.6035698458213
 10
104.5589924868811
 20
-130.5959906357538
 10
104.6010226518011
 20
-130.5959906357538
 10
104.6526990840799
 20
-130.5959906357538
 10
104.6995523826793
 20
-130.6104600367918
 10
104.7305582420465
 20
-130.6697156791381
 10
104.7629421396079
 20
-130.7324164169697
 10
104.7705213496754
 20
-130.8068304794511
 10
104.7705213496754
 20
-130.8633300454092
 10
104.7705213496754
 20
-130.9191405922702
 10
104.7636311587049
 20
-130.9942436738487
 10
104.7305582420465
 20
-131.0569444116802
 97
        0
 97
        0
 92
        1
 93
        1
 72
     4
 94
        3
 73
     0
 74
     1
 95
       17
 96
       13
 40
0.0
 40
0.0
 40
0.0
 40
0.0
 40
1.0
 40
1.0
 40
1.0
 40
2.0
 40
2.0
 40
2.0
 40
3.0
 40
3.0
 40
3.0
 40
4.0
 40
4.0
 40
4.0
 40
4.0
 10
104.6010226518011
 20
-130.6586913735853
 10
104.5197183983492
 20
-130.6586913735853
 10
104.5045599782141
 20
-130.75101993259
 10
104.5045599782141
 20
-130.8633300454092
 10
104.5045599782141
 20
-130.9673719290637
 10
104.516273302864
 20
-131.067968717233
 10
104.6010226518011
 20
-131.067968717233
 10
104.681637886156
 20
-131.067968717233
 10
104.6974853253881
 20
-130.9763291773254
 10
104.6974853253881
 20
-130.8633300454092
 10
104.6974853253881
 20
-130.7592881617546
 10
104.6850829816412
 20
-130.6586913735853
 10
104.6010226518011
 20
-130.6586913735853
 97
        0
 97
        0
 75
     2
 76
     1
 98
        0
  0
ENDBLK
  5
68
330
65
100
AcDbEntity
  8
0
100
AcDbBlockEnd
  0
BLOCK
  5
7C
330
7A
100
AcDbEntity
  8
0
100
AcDbBlockBegin
  2
block 5
 70
     0
 10
0.0
 20
0.0
 30
0.0
  3
block 5
  1

  0
SPLINE
  5
7E
330
7A
100
AcDbEntity
  8
_U+30EC_U+30A4_U+30E4_U+30FC 1
370
     0
100
AcDbSpline
210
0.0
220
0.0
230
1.0
 70
    11
 71
     3
 72
    26
 73
    22
 74
     0
 42
0.0000000001
 43
0.0000000001
 12
1.0
 22
0.0
 32
0.0
 13
1.0
 23
0.0
 33
0.0
 40
0.0
 40
0.0
 40
0.0
 40
0.0
 40
1.0
 40
1.0
 40
1.0
 40
2.0
 40
2.0
 40
2.0
 40
3.0
 40
3.0
 40
3.0
 40
4.0
 40
4.0
 40
4.0
 40
5.0
 40
5.0
 40
5.0
 40
6.0
 40
6.0
 40
6.0
 40
7.0
 40
7.0
 40
7.0
 40
7.0
 10
109.0059217392416
 20
-149.7355631136078
 30
0.0
 10
109.0059217392416
 20
-149.7355631136078
 30
0.0
 10
108.6462537705815
 20
-149.7355631136078
 30
0.0
 10
108.6462537705815
 20
-149.7355631136078
 30
0.0
 10
108.6462537705815
 20
-149.7355631136078
 30
0.0
 10
108.6462537705815
 20
-149.8430500927476
 30
0.0
 10
108.6462537705815
 20
-149.8430500927476
 30
0.0
 10
108.6462537705815
 20
-149.8430500927476
 30
0.0
 10
108.598022433788
 20
-149.8430500927476
 30
0.0
 10
108.598022433788
 20
-149.8430500927476
 30
0.0
 10
108.5931993001087
 20
-149.7348740945107
 30
0.0
 10
108.5401448296358
 20
-149.7197156743756
 30
0.0
 10
108.5029377983951
 20
-149.7100694070169
 30
0.0
 10
108.5029377983951
 20
-149.7100694070169
 30
0.0
 10
108.5029377983951
 20
-149.6625270893205
 30
0.0
 10
108.5029377983951
 20
-149.6625270893205
 30
0.0
 10
108.5029377983951
 20
-149.6625270893205
 30
0.0
 10
109.0059217392416
 20
-149.6625270893205
 30
0.0
 10
109.0059217392416
 20
-149.6625270893205
 30
0.0
 10
109.0059217392416
 20
-149.6625270893205
 30
0.0
 10
109.0059217392416
 20
-149.7355631136078
 30
0.0
 10
109.0059217392416
 20
-149.7355631136078
 30
0.0
  0
HATCH
  5
7F
330
7A
100
AcDbEntity
  8
_U+30EC_U+30A4_U+30E4_U+30FC 1
 62
   179
420
  2234388
100
AcDbHatch
 10
0.0
 20
0.0
 30
0.0
210
0.0
220
0.0
230
1.0
  2
SOLID
 70
     1
 71
     0
 91
        1
 92
        1
 93
        1
 72
     4
 94
        3
 73
     0
 74
     1
 95
       26
 96
       22
 40
0.0
 40
0.0
 40
0.0
 40
0.0
 40
1.0
 40
1.0
 40
1.0
 40
2.0
 40
2.0
 40
2.0
 40
3.0
 40
3.0
 40
3.0
 40
4.0
 40
4.0
 40
4.0
 40
5.0
 40
5.0
 40
5.0
 40
6.0
 40
6.0
 40
6.0
 40
7.0
 40
7.0
 40
7.0
 40
7.0
 10
109.0059217392416
 20
-149.7355631136078
 10
109.0059217392416
 20
-149.7355631136078
 10
108.6462537705815
 20
-149.7355631136078
 10
108.6462537705815
 20
-149.7355631136078
 10
108.6462537705815
 20
-149.7355631136078
 10
108.6462537705815
 20
-149.8430500927476
 10
108.6462537705815
 20
-149.8430500927476
 10
108.6462537705815
 20
-149.8430500927476
 10
108.598022433788
 20
-149.8430500927476
 10
108.598022433788
 20
-149.8430500927476
 10
108.5931993001087
 20
-149.7348740945107
 10
108.5401448296358
 20
-149.7197156743756
 10
108.5029377983951
 20
-149.7100694070169
 10
108.5029377983951
 20
-149.7100694070169
 10
108.5029377983951
 20
-149.6625270893205
 10
108.5029377983951
 20
-149.6625270893205
 10
108.5029377983951
 20
-149.6625270893205
 10
109.0059217392416
 20
-149.6625270893205
 10
109.0059217392416
 20
-149.6625270893205
 10
109.0059217392416
 20
-149.6625270893205
 10
109.0059217392416
 20
-149.7355631136078
 10
109.0059217392416
 20
-149.7355631136078
 97
        0
 97
        0
 75
     2
 76
     1
 98
        0
  0
SPLINE
  5
80
330
7A
100
AcDbEntity
  8
_U+30EC_U+30A4_U+30E4_U+30FC 1
370
     0
100
AcDbSpline
210
0.0
220
0.0
230
1.0
 70
    11
 71
     3
 72
    29
 73
    25
 74
     0
 42
0.0000000001
 43
0.0000000001
 12
1.0
 22
0.0
 32
0.0
 13
1.0
 23
0.0
 33
0.0
 40
0.0
 40
0.0
 40
0.0
 40
0.0
 40
1.0
 40
1.0
 40
1.0
 40
2.0
 40
2.0
 40
2.0
 40
3.0
 40
3.0
 40
3.0
 40
4.0
 40
4.0
 40
4.0
 40
5.0
 40
5.0
 40
5.0
 40
6.0
 40
6.0
 40
6.0
 40
7.0
 40
7.0
 40
7.0
 40
8.0
 40
8.0
 40
8.0
 40
8.0
 10
108.9480441350894
 20
-149.2063964470734
 30
0.0
 10
109.0162570256973
 20
-149.2415364210229
 30
0.0
 10
109.0224581975708
 20
-149.2980359869811
 30
0.0
 10
109.0224581975708
 20
-149.3359320373188
 30
0.0
 10
109.0224581975708
 20
-149.3882974886946
 30
0.0
 10
109.0072997774357
 20
-149.4344617681969
 30
0.0
 10
108.9480441350894
 20
-149.4654676275642
 30
0.0
 10
108.8846543781608
 20
-149.4992295633196
 30
0.0
 10
108.8074842392912
 20
-149.5054307351931
 30
0.0
 10
108.7544297688183
 20
-149.5054307351931
 30
0.0
 10
108.7075764702189
 20
-149.5054307351931
 30
0.0
 10
108.62558319767
 20
-149.4999185824167
 30
0.0
 10
108.5608154025473
 20
-149.4654676275642
 30
0.0
 10
108.4946695692305
 20
-149.4303276536147
 30
0.0
 10
108.4870903591629
 20
-149.3779622022388
 30
0.0
 10
108.4870903591629
 20
-149.3359320373188
 30
0.0
 10
108.4870903591629
 20
-149.28425560504
 30
0.0
 10
108.501559760201
 20
-149.2374023064407
 30
0.0
 10
108.5608154025473
 20
-149.2063964470734
 30
0.0
 10
108.6235161403789
 20
-149.1740125495121
 30
0.0
 10
108.6979302028602
 20
-149.1664333394445
 30
0.0
 10
108.7544297688183
 20
-149.1664333394445
 30
0.0
 10
108.8102403156794
 20
-149.1664333394445
 30
0.0
 10
108.8853433972578
 20
-149.173323530415
 30
0.0
 10
108.9480441350894
 20
-149.2063964470734
 30
0.0
  0
SPLINE
  5
81
330
7A
100
AcDbEntity
  8
_U+30EC_U+30A4_U+30E4_U+30FC 1
370
     0
100
AcDbSpline
210
0.0
220
0.0
230
1.0
 70
    11
 71
     3
 72
    17
 73
    13
 74
     0
 42
0.0000000001
 43
0.0000000001
 12
1.0
 22
0.0
 32
0.0
 13
1.0
 23
0.0
 33
0.0
 40
0.0
 40
0.0
 40
0.0
 40
0.0
 40
1.0
 40
1.0
 40
1.0
 40
2.0
 40
2.0
 40
2.0
 40
3.0
 40
3.0
 40
3.0
 40
4.0
 40
4.0
 40
4.0
 40
4.0
 10
108.5497910969945
 20
-149.3359320373188
 30
0.0
 10
108.5497910969945
 20
-149.4172362907707
 30
0.0
 10
108.6421196559992
 20
-149.4323947109058
 30
0.0
 10
108.7544297688183
 20
-149.4323947109058
 30
0.0
 10
108.8584716524729
 20
-149.4323947109058
 30
0.0
 10
108.9590684406422
 20
-149.4206813862559
 30
0.0
 10
108.9590684406422
 20
-149.3359320373188
 30
0.0
 10
108.9590684406422
 20
-149.255316802964
 30
0.0
 10
108.8674289007345
 20
-149.2394693637318
 30
0.0
 10
108.7544297688183
 20
-149.2394693637318
 30
0.0
 10
108.6503878851638
 20
-149.2394693637318
 30
0.0
 10
108.5497910969945
 20
-149.2518717074787
 30
0.0
 10
108.5497910969945
 20
-149.3359320373188
 30
0.0
  0
HATCH
  5
82
330
7A
100
AcDbEntity
  8
_U+30EC_U+30A4_U+30E4_U+30FC 1
 62
   179
420
  2234388
100
AcDbHatch
 10
0.0
 20
0.0
 30
0.0
210
0.0
220
0.0
230
1.0
  2
SOLID
 70
     1
 71
     0
 91
        2
 92
        1
 93
        1
 72
     4
 94
        3
 73
     0
 74
     1
 95
       29
 96
       25
 40
0.0
 40
0.0
 40
0.0
 40
0.0
 40
1.0
 40
1.0
 40
1.0
 40
2.0
 40
2.0
 40
2.0
 40
3.0
 40
3.0
 40
3.0
 40
4.0
 40
4.0
 40
4.0
 40
5.0
 40
5.0
 40
5.0
 40
6.0
 40
6.0
 40
6.0
 40
7.0
 40
7.0
 40
7.0
 40
8.0
 40
8.0
 40
8.0
 40
8.0
 10
108.9480441350894
 20
-149.2063964470734
 10
109.0162570256973
 20
-149.2415364210229
 10
109.0224581975708
 20
-149.2980359869811
 10
109.0224581975708
 20
-149.3359320373188
 10
109.0224581975708
 20
-149.3882974886946
 10
109.0072997774357
 20
-149.4344617681969
 10
108.9480441350894
 20
-149.4654676275642
 10
108.8846543781608
 20
-149.4992295633196
 10
108.8074842392912
 20
-149.5054307351931
 10
108.7544297688183
 20
-149.5054307351931
 10
108.7075764702189
 20
-149.5054307351931
 10
108.62558319767
 20
-149.4999185824167
 10
108.5608154025473
 20
-149.4654676275642
 10
108.4946695692305
 20
-149.4303276536147
 10
108.4870903591629
 20
-149.3779622022388
 10
108.4870903591629
 20
-149.3359320373188
 10
108.4870903591629
 20
-149.28425560504
 10
108.501559760201
 20
-149.2374023064407
 10
108.5608154025473
 20
-149.2063964470734
 10
108.6235161403789
 20
-149.1740125495121
 10
108.6979302028602
 20
-149.1664333394445
 10
108.7544297688183
 20
-149.1664333394445
 10
108.8102403156794
 20
-149.1664333394445
 10
108.8853433972578
 20
-149.173323530415
 10
108.9480441350894
 20
-149.2063964470734
 97
        0
 97
        0
 92
        1
 93
        1
 72
     4
 94
        3
 73
     0
 74
     1
 95
       17
 96
       13
 40
0.0
 40
0.0
 40
0.0
 40
0.0
 40
1.0
 40
1.0
 40
1.0
 40
2.0
 40
2.0
 40
2.0
 40
3.0
 40
3.0
 40
3.0
 40
4.0
 40
4.0
 40
4.0
 40
4.0
 10
108.5497910969945
 20
-149.3359320373188
 10
108.5497910969945
 20
-149.4172362907707
 10
108.6421196559992
 20
-149.4323947109058
 10
108.7544297688183
 20
-149.4323947109058
 10
108.8584716524729
 20
-149.4323947109058
 10
108.9590684406422
 20
-149.4206813862559
 10
108.9590684406422
 20
-149.3359320373188
 10
108.9590684406422
 20
-149.255316802964
 10
108.8674289007345
 20
-149.2394693637318
 10
108.7544297688183
 20
-149.2394693637318
 10
108.6503878851638
 20
-149.2394693637318
 10
108.5497910969945
 20
-149.2518717074787
 10
108.5497910969945
 20
-149.3359320373188
 97
        0
 97
        0
 75
     2
 76
     1
 98
        0
  0
SPLINE
  5
83
330
7A
100
AcDbEntity
  8
_U+30EC_U+30A4_U+30E4_U+30FC 1
370
     0
100
AcDbSpline
210
0.0
220
0.0
230
1.0
 70
    11
 71
     3
 72
    29
 73
    25
 74
     0
 42
0.0000000001
 43
0.0000000001
 12
1.0
 22
0.0
 32
0.0
 13
1.0
 23
0.0
 33
0.0
 40
0.0
 40
0.0
 40
0.0
 40
0.0
 40
1.0
 40
1.0
 40
1.0
 40
2.0
 40
2.0
 40
2.0
 40
3.0
 40
3.0
 40
3.0
 40
4.0
 40
4.0
 40
4.0
 40
5.0
 40
5.0
 40
5.0
 40
6.0
 40
6.0
 40
6.0
 40
7.0
 40
7.0
 40
7.0
 40
8.0
 40
8.0
 40
8.0
 40
8.0
 10
108.9480441350894
 20
-148.822268300468
 30
0.0
 10
109.0162570256973
 20
-148.8574082744176
 30
0.0
 10
109.0224581975708
 20
-148.9139078403757
 30
0.0
 10
109.0224581975708
 20
-148.9518038907134
 30
0.0
 10
109.0224581975708
 20
-149.0041693420893
 30
0.0
 10
109.0072997774357
 20
-149.0503336215916
 30
0.0
 10
108.9480441350894
 20
-149.0813394809588
 30
0.0
 10
108.8846543781608
 20
-149.1151014167143
 30
0.0
 10
108.8074842392912
 20
-149.1213025885877
 30
0.0
 10
108.7544297688183
 20
-149.1213025885877
 30
0.0
 10
108.7075764702189
 20
-149.1213025885877
 30
0.0
 10
108.62558319767
 20
-149.1157904358113
 30
0.0
 10
108.5608154025473
 20
-149.0813394809588
 30
0.0
 10
108.4946695692305
 20
-149.0461995070093
 30
0.0
 10
108.4870903591629
 20
-148.9938340556335
 30
0.0
 10
108.4870903591629
 20
-148.9518038907134
 30
0.0
 10
108.4870903591629
 20
-148.9001274584347
 30
0.0
 10
108.501559760201
 20
-148.8532741598353
 30
0.0
 10
108.5608154025473
 20
-148.822268300468
 30
0.0
 10
108.6235161403789
 20
-148.7898844029067
 30
0.0
 10
108.6979302028602
 20
-148.7823051928391
 30
0.0
 10
108.7544297688183
 20
-148.7823051928391
 30
0.0
 10
108.8102403156794
 20
-148.7823051928391
 30
0.0
 10
108.8853433972578
 20
-148.7891953838096
 30
0.0
 10
108.9480441350894
 20
-148.822268300468
 30
0.0
  0
SPLINE
  5
84
330
7A
100
AcDbEntity
  8
_U+30EC_U+30A4_U+30E4_U+30FC 1
370
     0
100
AcDbSpline
210
0.0
220
0.0
230
1.0
 70
    11
 71
     3
 72
    17
 73
    13
 74
     0
 42
0.0000000001
 43
0.0000000001
 12
1.0
 22
0.0
 32
0.0
 13
1.0
 23
0.0
 33
0.0
 40
0.0
 40
0.0
 40
0.0
 40
0.0
 40
1.0
 40
1.0
 40
1.0
 40
2.0
 40
2.0
 40
2.0
 40
3.0
 40
3.0
 40
3.0
 40
4.0
 40
4.0
 40
4.0
 40
4.0
 10
108.5497910969945
 20
-148.9518038907134
 30
0.0
 10
108.5497910969945
 20
-149.0331081441653
 30
0.0
 10
108.6421196559992
 20
-149.0482665643004
 30
0.0
 10
108.7544297688183
 20
-149.0482665643004
 30
0.0
 10
108.8584716524729
 20
-149.0482665643004
 30
0.0
 10
108.9590684406422
 20
-149.0365532396506
 30
0.0
 10
108.9590684406422
 20
-148.9518038907134
 30
0.0
 10
108.9590684406422
 20
-148.8711886563586
 30
0.0
 10
108.8674289007345
 20
-148.8553412171264
 30
0.0
 10
108.7544297688183
 20
-148.8553412171264
 30
0.0
 10
108.6503878851638
 20
-148.8553412171264
 30
0.0
 10
108.5497910969945
 20
-148.8677435608734
 30
0.0
 10
108.5497910969945
 20
-148.9518038907134
 30
0.0
  0
HATCH
  5
85
330
7A
100
AcDbEntity
  8
_U+30EC_U+30A4_U+30E4_U+30FC 1
 62
   179
420
  2234388
100
AcDbHatch
 10
0.0
 20
0.0
 30
0.0
210
0.0
220
0.0
230
1.0
  2
SOLID
 70
     1
 71
     0
 91
        2
 92
        1
 93
        1
 72
     4
 94
        3
 73
     0
 74
     1
 95
       29
 96
       25
 40
0.0
 40
0.0
 40
0.0
 40
0.0
 40
1.0
 40
1.0
 40
1.0
 40
2.0
 40
2.0
 40
2.0
 40
3.0
 40
3.0
 40
3.0
 40
4.0
 40
4.0
 40
4.0
 40
5.0
 40
5.0
 40
5.0
 40
6.0
 40
6.0
 40
6.0
 40
7.0
 40
7.0
 40
7.0
 40
8.0
 40
8.0
 40
8.0
 40
8.0
 10
108.9480441350894
 20
-148.822268300468
 10
109.0162570256973
 20
-148.8574082744176
 10
109.0224581975708
 20
-148.9139078403757
 10
109.0224581975708
 20
-148.9518038907134
 10
109.0224581975708
 20
-149.0041693420893
 10
109.0072997774357
 20
-149.0503336215916
 10
108.9480441350894
 20
-149.0813394809588
 10
108.8846543781608
 20
-149.1151014167143
 10
108.8074842392912
 20
-149.1213025885877
 10
108.7544297688183
 20
-149.1213025885877
 10
108.7075764702189
 20
-149.1213025885877
 10
108.62558319767
 20
-149.1157904358113
 10
108.5608154025473
 20
-149.0813394809588
 10
108.4946695692305
 20
-149.0461995070093
 10
108.4870903591629
 20
-148.9938340556335
 10
108.4870903591629
 20
-148.9518038907134
 10
108.4870903591629
 20
-148.9001274584347
 10
108.501559760201
 20
-148.8532741598353
 10
108.5608154025473
 20
-148.822268300468
 10
108.6235161403789
 20
-148.7898844029067
 10
108.6979302028602
 20
-148.7823051928391
 10
108.7544297688183
 20
-148.7823051928391
 10
108.8102403156794
 20
-148.7823051928391
 10
108.8853433972578
 20
-148.7891953838096
 10
108.9480441350894
 20
-148.822268300468
 97
        0
 97
        0
 92
        1
 93
        1
 72
     4
 94
        3
 73
     0
 74
     1
 95
       17
 96
       13
 40
0.0
 40
0.0
 40
0.0
 40
0.0
 40
1.0
 40
1.0
 40
1.0
 40
2.0
 40
2.0
 40
2.0
 40
3.0
 40
3.0
 40
3.0
 40
4.0
 40
4.0
 40
4.0
 40
4.0
 10
108.5497910969945
 20
-148.9518038907134
 10
108.5497910969945
 20
-149.0331081441653
 10
108.6421196559992
 20
-149.0482665643004
 10
108.7544297688183
 20
-149.0482665643004
 10
108.8584716524729
 20
-149.0482665643004
 10
108.9590684406422
 20
-149.0365532396506
 10
108.9590684406422
 20
-148.9518038907134
 10
108.9590684406422
 20
-148.8711886563586
 10
108.8674289007345
 20
-148.8553412171264
 10
108.7544297688183
 20
-148.8553412171264
 10
108.6503878851638
 20
-148.8553412171264
 10
108.5497910969945
 20
-148.8677435608734
 10
108.5497910969945
 20
-148.9518038907134
 97
        0
 97
        0
 75
     2
 76
     1
 98
        0
  0
ENDBLK
  5
7D
330
7A
100
AcDbEntity
  8
0
100
AcDbBlockEnd
  0
BLOCK
  5
96
330
94
100
AcDbEntity
  8
0
100
AcDbBlockBegin
  2
block 6
 70
     0
 10
0.0
 20
0.0
 30
0.0
  3
block 6
  1

  0
SPLINE
  5
98
330
94
100
AcDbEntity
  8
_U+30EC_U+30A4_U+30E4_U+30FC 1
370
     0
100
AcDbSpline
210
0.0
220
0.0
230
1.0
 70
    11
 71
     3
 72
    53
 73
    49
 74
     0
 42
0.0000000001
 43
0.0000000001
 12
1.0
 22
0.0
 32
0.0
 13
1.0
 23
0.0
 33
0.0
 40
0.0
 40
0.0
 40
0.0
 40
0.0
 40
1.0
 40
1.0
 40
1.0
 40
2.0
 40
2.0
 40
2.0
 40
3.0
 40
3.0
 40
3.0
 40
4.0
 40
4.0
 40
4.0
 40
5.0
 40
5.0
 40
5.0
 40
6.0
 40
6.0
 40
6.0
 40
7.0
 40
7.0
 40
7.0
 40
8.0
 40
8.0
 40
8.0
 40
9.0
 40
9.0
 40
9.0
 40
10.0
 40
10.0
 40
10.0
 40
11.0
 40
11.0
 40
11.0
 40
12.0
 40
12.0
 40
12.0
 40
13.0
 40
13.0
 40
13.0
 40
14.0
 40
14.0
 40
14.0
 40
15.0
 40
15.0
 40
15.0
 40
16.0
 40
16.0
 40
16.0
 40
16.0
 10
106.9223279897625
 20
-166.4987087257364
 30
0.0
 10
106.8968342831716
 20
-166.4987087257364
 30
0.0
 10
106.8637613665132
 20
-166.49319657296
 30
0.0
 10
106.8306884498548
 20
-166.4725260000485
 30
0.0
 10
106.7741888838967
 20
-166.436697007002
 30
0.0
 10
106.7672986929262
 20
-166.3939778229849
 30
0.0
 10
106.7610975210528
 20
-166.3588378490353
 30
0.0
 10
106.7610975210528
 20
-166.3588378490353
 30
0.0
 10
106.833444526243
 20
-166.3588378490353
 30
0.0
 10
106.833444526243
 20
-166.3588378490353
 30
0.0
 10
106.8513590227663
 20
-166.423605644158
 30
0.0
 10
106.8927001685893
 20
-166.4332519115167
 30
0.0
 10
106.9230170088595
 20
-166.4332519115167
 30
0.0
 10
106.9684922692648
 20
-166.4332519115167
 30
0.0
 10
107.0181016442524
 20
-166.4008680139553
 30
0.0
 10
107.0181016442524
 20
-166.3250759132798
 30
0.0
 10
107.0181016442524
 20
-166.2417046025368
 30
0.0
 10
106.9595350210032
 20
-166.2189669723342
 30
0.0
 10
106.9202609324713
 20
-166.2189669723342
 30
0.0
 10
106.9099256460156
 20
-166.2189669723342
 30
0.0
 10
106.8637613665132
 20
-166.2189669723342
 30
0.0
 10
106.8348225644371
 20
-166.2609971372542
 30
0.0
 10
106.8348225644371
 20
-166.2609971372542
 30
0.0
 10
106.777633979382
 20
-166.2547959653808
 30
0.0
 10
106.777633979382
 20
-166.2547959653808
 30
0.0
 10
106.777633979382
 20
-166.2547959653808
 30
0.0
 10
106.8169080679138
 20
-165.9791883265608
 30
0.0
 10
106.8169080679138
 20
-165.9791883265608
 30
0.0
 10
106.8169080679138
 20
-165.9791883265608
 30
0.0
 10
107.0704670956282
 20
-165.9791883265608
 30
0.0
 10
107.0704670956282
 20
-165.9791883265608
 30
0.0
 10
107.0704670956282
 20
-165.9791883265608
 30
0.0
 10
107.0704670956282
 20
-166.0425780834894
 30
0.0
 10
107.0704670956282
 20
-166.0425780834894
 30
0.0
 10
107.0704670956282
 20
-166.0425780834894
 30
0.0
 10
106.8699625383867
 20
-166.0425780834894
 30
0.0
 10
106.8699625383867
 20
-166.0425780834894
 30
0.0
 10
106.8699625383867
 20
-166.0425780834894
 30
0.0
 10
106.8486029463781
 20
-166.1803819028994
 30
0.0
 10
106.8486029463781
 20
-166.1803819028994
 30
0.0
 10
106.8685845001926
 20
-166.1693575973466
 30
0.0
 10
106.8954562449775
 20
-166.1562662345026
 30
0.0
 10
106.9340413144123
 20
-166.1562662345026
 30
0.0
 10
107.0167236060583
 20
-166.1562662345026
 30
0.0
 10
107.0938937449279
 20
-166.216899915043
 30
0.0
 10
107.0938937449279
 20
-166.3188747414064
 30
0.0
 10
107.0938937449279
 20
-166.4222276059639
 30
0.0
 10
107.0208577206406
 20
-166.4987087257364
 30
0.0
 10
106.9223279897625
 20
-166.4987087257364
 30
0.0
  0
HATCH
  5
99
330
94
100
AcDbEntity
  8
_U+30EC_U+30A4_U+30E4_U+30FC 1
 62
   179
420
  2234388
100
AcDbHatch
 10
0.0
 20
0.0
 30
0.0
210
0.0
220
0.0
230
1.0
  2
SOLID
 70
     1
 71
     0
 91
        1
 92
        1
 93
        1
 72
     4
 94
        3
 73
     0
 74
     1
 95
       53
 96
       49
 40
0.0
 40
0.0
 40
0.0
 40
0.0
 40
1.0
 40
1.0
 40
1.0
 40
2.0
 40
2.0
 40
2.0
 40
3.0
 40
3.0
 40
3.0
 40
4.0
 40
4.0
 40
4.0
 40
5.0
 40
5.0
 40
5.0
 40
6.0
 40
6.0
 40
6.0
 40
7.0
 40
7.0
 40
7.0
 40
8.0
 40
8.0
 40
8.0
 40
9.0
 40
9.0
 40
9.0
 40
10.0
 40
10.0
 40
10.0
 40
11.0
 40
11.0
 40
11.0
 40
12.0
 40
12.0
 40
12.0
 40
13.0
 40
13.0
 40
13.0
 40
14.0
 40
14.0
 40
14.0
 40
15.0
 40
15.0
 40
15.0
 40
16.0
 40
16.0
 40
16.0
 40
16.0
 10
106.9223279897625
 20
-166.4987087257364
 10
106.8968342831716
 20
-166.4987087257364
 10
106.8637613665132
 20
-166.49319657296
 10
106.8306884498548
 20
-166.4725260000485
 10
106.7741888838967
 20
-166.436697007002
 10
106.7672986929262
 20
-166.3939778229849
 10
106.7610975210528
 20
-166.3588378490353
 10
106.7610975210528
 20
-166.3588378490353
 10
106.833444526243
 20
-166.3588378490353
 10
106.833444526243
 20
-166.3588378490353
 10
106.8513590227663
 20
-166.423605644158
 10
106.8927001685893
 20
-166.4332519115167
 10
106.9230170088595
 20
-166.4332519115167
 10
106.9684922692648
 20
-166.4332519115167
 10
107.0181016442524
 20
-166.4008680139553
 10
107.0181016442524
 20
-166.3250759132798
 10
107.0181016442524
 20
-166.2417046025368
 10
106.9595350210032
 20
-166.2189669723342
 10
106.9202609324713
 20
-166.2189669723342
 10
106.9099256460156
 20
-166.2189669723342
 10
106.8637613665132
 20
-166.2189669723342
 10
106.8348225644371
 20
-166.2609971372542
 10
106.8348225644371
 20
-166.2609971372542
 10
106.777633979382
 20
-166.2547959653808
 10
106.777633979382
 20
-166.2547959653808
 10
106.777633979382
 20
-166.2547959653808
 10
106.8169080679138
 20
-165.9791883265608
 10
106.8169080679138
 20
-165.9791883265608
 10
106.8169080679138
 20
-165.9791883265608
 10
107.0704670956282
 20
-165.9791883265608
 10
107.0704670956282
 20
-165.9791883265608
 10
107.0704670956282
 20
-165.9791883265608
 10
107.0704670956282
 20
-166.0425780834894
 10
107.0704670956282
 20
-166.0425780834894
 10
107.0704670956282
 20
-166.0425780834894
 10
106.8699625383867
 20
-166.0425780834894
 10
106.8699625383867
 20
-166.0425780834894
 10
106.8699625383867
 20
-166.0425780834894
 10
106.8486029463781
 20
-166.1803819028994
 10
106.8486029463781
 20
-166.1803819028994
 10
106.8685845001926
 20
-166.1693575973466
 10
106.8954562449775
 20
-166.1562662345026
 10
106.9340413144123
 20
-166.1562662345026
 10
107.0167236060583
 20
-166.1562662345026
 10
107.0938937449279
 20
-166.216899915043
 10
107.0938937449279
 20
-166.3188747414064
 10
107.0938937449279
 20
-166.4222276059639
 10
107.0208577206406
 20
-166.4987087257364
 10
106.9223279897625
 20
-166.4987087257364
 97
        0
 97
        0
 75
     2
 76
     1
 98
        0
  0
ENDBLK
  5
97
330
94
100
AcDbEntity
  8
0
100
AcDbBlockEnd
  0
BLOCK
  5
B8
330
B6
100
AcDbEntity
  8
0
100
AcDbBlockBegin
  2
block 7
 70
     0
 10
0.0
 20
0.0
 30
0.0
  3
block 7
  1

  0
SPLINE
  5
BA
330
B6
100
AcDbEntity
  8
_U+30EC_U+30A4_U+30E4_U+30FC 1
370
     0
100
AcDbSpline
210
0.0
220
0.0
230
1.0
 70
    11
 71
     3
 72
    44
 73
    40
 74
     0
 42
0.0000000001
 43
0.0000000001
 12
1.0
 22
0.0
 32
0.0
 13
1.0
 23
0.0
 33
0.0
 40
0.0
 40
0.0
 40
0.0
 40
0.0
 40
1.0
 40
1.0
 40
1.0
 40
2.0
 40
2.0
 40
2.0
 40
3.0
 40
3.0
 40
3.0
 40
4.0
 40
4.0
 40
4.0
 40
5.0
 40
5.0
 40
5.0
 40
6.0
 40
6.0
 40
6.0
 40
7.0
 40
7.0
 40
7.0
 40
8.0
 40
8.0
 40
8.0
 40
9.0
 40
9.0
 40
9.0
 40
10.0
 40
10.0
 40
10.0
 40
11.0
 40
11.0
 40
11.0
 40
12.0
 40
12.0
 40
12.0
 40
13.0
 40
13.0
 40
13.0
 40
13.0
 10
104.4509887434185
 20
-162.4930962050365
 30
0.0
 10
104.3800197764224
 20
-162.5447726373152
 30
0.0
 10
104.3497029361522
 20
-162.568888305712
 30
0.0
 10
104.33385549692
 20
-162.6157416043114
 30
0.0
 10
104.33385549692
 20
-162.6157416043114
 30
0.0
 10
104.5874145246344
 20
-162.6157416043114
 30
0.0
 10
104.5874145246344
 20
-162.6157416043114
 30
0.0
 10
104.5874145246344
 20
-162.6157416043114
 30
0.0
 10
104.5874145246344
 20
-162.6825764567252
 30
0.0
 10
104.5874145246344
 20
-162.6825764567252
 30
0.0
 10
104.5874145246344
 20
-162.6825764567252
 30
0.0
 10
104.2525512434681
 20
-162.6825764567252
 30
0.0
 10
104.2525512434681
 20
-162.6825764567252
 30
0.0
 10
104.2628865299239
 20
-162.5661322293238
 30
0.0
 10
104.2842461219324
 20
-162.5406385227329
 30
0.0
 10
104.4096475975955
 20
-162.4434868300489
 30
0.0
 10
104.4930189083386
 20
-162.3787190349261
 30
0.0
 10
104.5143785003471
 20
-162.3566704238206
 30
0.0
 10
104.5143785003471
 20
-162.3118841825123
 30
0.0
 10
104.5143785003471
 20
-162.2732991130775
 30
0.0
 10
104.4909518510474
 20
-162.2305799290604
 30
0.0
 10
104.4268730750218
 20
-162.2305799290604
 30
0.0
 10
104.3421237260846
 20
-162.2305799290604
 30
0.0
 10
104.3393676496964
 20
-162.3056830106389
 30
0.0
 10
104.3379896115023
 20
-162.3435790609766
 30
0.0
 10
104.3379896115023
 20
-162.3435790609766
 30
0.0
 10
104.264953587215
 20
-162.3435790609766
 30
0.0
 10
104.264953587215
 20
-162.3435790609766
 30
0.0
 10
104.2677096636032
 20
-162.3022379151536
 30
0.0
 10
104.2711547590885
 20
-162.26571990301
 30
0.0
 10
104.2973374847764
 20
-162.2271348335752
 30
0.0
 10
104.333166477823
 20
-162.1747693821994
 30
0.0
 10
104.3938001583634
 20
-162.1637450766466
 30
0.0
 10
104.4316962087011
 20
-162.1637450766466
 30
0.0
 10
104.5219577104147
 20
-162.1637450766466
 30
0.0
 10
104.5894815819256
 20
-162.2236897380899
 30
0.0
 10
104.5894815819256
 20
-162.3125732016094
 30
0.0
 10
104.5894815819256
 20
-162.3869872640907
 30
0.0
 10
104.5515855315878
 20
-162.4193711616521
 30
0.0
 10
104.4509887434185
 20
-162.4930962050365
 30
0.0
  0
HATCH
  5
BB
330
B6
100
AcDbEntity
  8
_U+30EC_U+30A4_U+30E4_U+30FC 1
 62
   179
420
  2234388
100
AcDbHatch
 10
0.0
 20
0.0
 30
0.0
210
0.0
220
0.0
230
1.0
  2
SOLID
 70
     1
 71
     0
 91
        1
 92
        1
 93
        1
 72
     4
 94
        3
 73
     0
 74
     1
 95
       44
 96
       40
 40
0.0
 40
0.0
 40
0.0
 40
0.0
 40
1.0
 40
1.0
 40
1.0
 40
2.0
 40
2.0
 40
2.0
 40
3.0
 40
3.0
 40
3.0
 40
4.0
 40
4.0
 40
4.0
 40
5.0
 40
5.0
 40
5.0
 40
6.0
 40
6.0
 40
6.0
 40
7.0
 40
7.0
 40
7.0
 40
8.0
 40
8.0
 40
8.0
 40
9.0
 40
9.0
 40
9.0
 40
10.0
 40
10.0
 40
10.0
 40
11.0
 40
11.0
 40
11.0
 40
12.0
 40
12.0
 40
12.0
 40
13.0
 40
13.0
 40
13.0
 40
13.0
 10
104.4509887434185
 20
-162.4930962050365
 10
104.3800197764224
 20
-162.5447726373152
 10
104.3497029361522
 20
-162.568888305712
 10
104.33385549692
 20
-162.6157416043114
 10
104.33385549692
 20
-162.6157416043114
 10
104.5874145246344
 20
-162.6157416043114
 10
104.5874145246344
 20
-162.6157416043114
 10
104.5874145246344
 20
-162.6157416043114
 10
104.5874145246344
 20
-162.6825764567252
 10
104.5874145246344
 20
-162.6825764567252
 10
104.5874145246344
 20
-162.6825764567252
 10
104.2525512434681
 20
-162.6825764567252
 10
104.2525512434681
 20
-162.6825764567252
 10
104.2628865299239
 20
-162.5661322293238
 10
104.2842461219324
 20
-162.5406385227329
 10
104.4096475975955
 20
-162.4434868300489
 10
104.4930189083386
 20
-162.3787190349261
 10
104.5143785003471
 20
-162.3566704238206
 10
104.5143785003471
 20
-162.3118841825123
 10
104.5143785003471
 20
-162.2732991130775
 10
104.4909518510474
 20
-162.2305799290604
 10
104.4268730750218
 20
-162.2305799290604
 10
104.3421237260846
 20
-162.2305799290604
 10
104.3393676496964
 20
-162.3056830106389
 10
104.3379896115023
 20
-162.3435790609766
 10
104.3379896115023
 20
-162.3435790609766
 10
104.264953587215
 20
-162.3435790609766
 10
104.264953587215
 20
-162.3435790609766
 10
104.2677096636032
 20
-162.3022379151536
 10
104.2711547590885
 20
-162.26571990301
 10
104.2973374847764
 20
-162.2271348335752
 10
104.333166477823
 20
-162.1747693821994
 10
104.3938001583634
 20
-162.1637450766466
 10
104.4316962087011
 20
-162.1637450766466
 10
104.5219577104147
 20
-162.1637450766466
 10
104.5894815819256
 20
-162.2236897380899
 10
104.5894815819256
 20
-162.3125732016094
 10
104.5894815819256
 20
-162.3869872640907
 10
104.5515855315878
 20
-162.4193711616521
 10
104.4509887434185
 20
-162.4930962050365
 97
        0
 97
        0
 75
     2
 76
     1
 98
        0
  0
SPLINE
  5
BC
330
B6
100
AcDbEntity
  8
_U+30EC_U+30A4_U+30E4_U+30FC 1
370
     0
100
AcDbSpline
210
0.0
220
0.0
230
1.0
 70
    11
 71
     3
 72
    29
 73
    25
 74
     0
 42
0.0000000001
 43
0.0000000001
 12
1.0
 22
0.0
 32
0.0
 13
1.0
 23
0.0
 33
0.0
 40
0.0
 40
0.0
 40
0.0
 40
0.0
 40
1.0
 40
1.0
 40
1.0
 40
2.0
 40
2.0
 40
2.0
 40
3.0
 40
3.0
 40
3.0
 40
4.0
 40
4.0
 40
4.0
 40
5.0
 40
5.0
 40
5.0
 40
6.0
 40
6.0
 40
6.0
 40
7.0
 40
7.0
 40
7.0
 40
8.0
 40
8.0
 40
8.0
 40
8.0
 10
104.9341633852248
 20
-162.624698852573
 30
0.0
 10
104.8990234112753
 20
-162.692911743181
 30
0.0
 10
104.8425238453171
 20
-162.6991129150544
 30
0.0
 10
104.8046277949794
 20
-162.6991129150544
 30
0.0
 10
104.7522623436036
 20
-162.6991129150544
 30
0.0
 10
104.7060980641013
 20
-162.6839544949193
 30
0.0
 10
104.675092204734
 20
-162.624698852573
 30
0.0
 10
104.6413302689786
 20
-162.5613090956444
 30
0.0
 10
104.6351290971051
 20
-162.4841389567748
 30
0.0
 10
104.6351290971051
 20
-162.431084486302
 30
0.0
 10
104.6351290971051
 20
-162.3842311877026
 30
0.0
 10
104.6406412498815
 20
-162.3022379151536
 30
0.0
 10
104.675092204734
 20
-162.2374701200309
 30
0.0
 10
104.7102321786836
 20
-162.1713242867141
 30
0.0
 10
104.7625976300594
 20
-162.1637450766466
 30
0.0
 10
104.8046277949794
 20
-162.1637450766466
 30
0.0
 10
104.8563042272581
 20
-162.1637450766466
 30
0.0
 10
104.9031575258576
 20
-162.1782144776846
 30
0.0
 10
104.9341633852248
 20
-162.2374701200309
 30
0.0
 10
104.9665472827862
 20
-162.3001708578625
 30
0.0
 10
104.9741264928537
 20
-162.3745849203439
 30
0.0
 10
104.9741264928537
 20
-162.431084486302
 30
0.0
 10
104.9741264928537
 20
-162.486895033163
 30
0.0
 10
104.9672363018832
 20
-162.5619981147414
 30
0.0
 10
104.9341633852248
 20
-162.624698852573
 30
0.0
  0
SPLINE
  5
BD
330
B6
100
AcDbEntity
  8
_U+30EC_U+30A4_U+30E4_U+30FC 1
370
     0
100
AcDbSpline
210
0.0
220
0.0
230
1.0
 70
    11
 71
     3
 72
    17
 73
    13
 74
     0
 42
0.0000000001
 43
0.0000000001
 12
1.0
 22
0.0
 32
0.0
 13
1.0
 23
0.0
 33
0.0
 40
0.0
 40
0.0
 40
0.0
 40
0.0
 40
1.0
 40
1.0
 40
1.0
 40
2.0
 40
2.0
 40
2.0
 40
3.0
 40
3.0
 40
3.0
 40
4.0
 40
4.0
 40
4.0
 40
4.0
 10
104.8046277949794
 20
-162.2264458144781
 30
0.0
 10
104.7233235415275
 20
-162.2264458144781
 30
0.0
 10
104.7081651213924
 20
-162.3187743734828
 30
0.0
 10
104.7081651213924
 20
-162.431084486302
 30
0.0
 10
104.7081651213924
 20
-162.5351263699565
 30
0.0
 10
104.7198784460423
 20
-162.6357231581258
 30
0.0
 10
104.8046277949794
 20
-162.6357231581258
 30
0.0
 10
104.8852430293342
 20
-162.6357231581258
 30
0.0
 10
104.9010904685664
 20
-162.5440836182182
 30
0.0
 10
104.9010904685664
 20
-162.431084486302
 30
0.0
 10
104.9010904685664
 20
-162.3270426026474
 30
0.0
 10
104.8886881248195
 20
-162.2264458144781
 30
0.0
 10
104.8046277949794
 20
-162.2264458144781
 30
0.0
  0
HATCH
  5
BE
330
B6
100
AcDbEntity
  8
_U+30EC_U+30A4_U+30E4_U+30FC 1
 62
   179
420
  2234388
100
AcDbHatch
 10
0.0
 20
0.0
 30
0.0
210
0.0
220
0.0
230
1.0
  2
SOLID
 70
     1
 71
     0
 91
        2
 92
        1
 93
        1
 72
     4
 94
        3
 73
     0
 74
     1
 95
       29
 96
       25
 40
0.0
 40
0.0
 40
0.0
 40
0.0
 40
1.0
 40
1.0
 40
1.0
 40
2.0
 40
2.0
 40
2.0
 40
3.0
 40
3.0
 40
3.0
 40
4.0
 40
4.0
 40
4.0
 40
5.0
 40
5.0
 40
5.0
 40
6.0
 40
6.0
 40
6.0
 40
7.0
 40
7.0
 40
7.0
 40
8.0
 40
8.0
 40
8.0
 40
8.0
 10
104.9341633852248
 20
-162.624698852573
 10
104.8990234112753
 20
-162.692911743181
 10
104.8425238453171
 20
-162.6991129150544
 10
104.8046277949794
 20
-162.6991129150544
 10
104.7522623436036
 20
-162.6991129150544
 10
104.7060980641013
 20
-162.6839544949193
 10
104.675092204734
 20
-162.624698852573
 10
104.6413302689786
 20
-162.5613090956444
 10
104.6351290971051
 20
-162.4841389567748
 10
104.6351290971051
 20
-162.431084486302
 10
104.6351290971051
 20
-162.3842311877026
 10
104.6406412498815
 20
-162.3022379151536
 10
104.675092204734
 20
-162.2374701200309
 10
104.7102321786836
 20
-162.1713242867141
 10
104.7625976300594
 20
-162.1637450766466
 10
104.8046277949794
 20
-162.1637450766466
 10
104.8563042272581
 20
-162.1637450766466
 10
104.9031575258576
 20
-162.1782144776846
 10
104.9341633852248
 20
-162.2374701200309
 10
104.9665472827862
 20
-162.3001708578625
 10
104.9741264928537
 20
-162.3745849203439
 10
104.9741264928537
 20
-162.431084486302
 10
104.9741264928537
 20
-162.486895033163
 10
104.9672363018832
 20
-162.5619981147414
 10
104.9341633852248
 20
-162.624698852573
 97
        0
 97
        0
 92
        1
 93
        1
 72
     4
 94
        3
 73
     0
 74
     1
 95
       17
 96
       13
 40
0.0
 40
0.0
 40
0.0
 40
0.0
 40
1.0
 40
1.0
 40
1.0
 40
2.0
 40
2.0
 40
2.0
 40
3.0
 40
3.0
 40
3.0
 40
4.0
 40
4.0
 40
4.0
 40
4.0
 10
104.8046277949794
 20
-162.2264458144781
 10
104.7233235415275
 20
-162.2264458144781
 10
104.7081651213924
 20
-162.3187743734828
 10
104.7081651213924
 20
-162.431084486302
 10
104.7081651213924
 20
-162.5351263699565
 10
104.7198784460423
 20
-162.6357231581258
 10
104.8046277949794
 20
-162.6357231581258
 10
104.8852430293342
 20
-162.6357231581258
 10
104.9010904685664
 20
-162.5440836182182
 10
104.9010904685664
 20
-162.431084486302
 10
104.9010904685664
 20
-162.3270426026474
 10
104.8886881248195
 20
-162.2264458144781
 10
104.8046277949794
 20
-162.2264458144781
 97
        0
 97
        0
 75
     2
 76
     1
 98
        0
  0
SPLINE
  5
BF
330
B6
100
AcDbEntity
  8
_U+30EC_U+30A4_U+30E4_U+30FC 1
370
     0
100
AcDbSpline
210
0.0
220
0.0
230
1.0
 70
    11
 71
     3
 72
    44
 73
    40
 74
     0
 42
0.0000000001
 43
0.0000000001
 12
1.0
 22
0.0
 32
0.0
 13
1.0
 23
0.0
 33
0.0
 40
0.0
 40
0.0
 40
0.0
 40
0.0
 40
1.0
 40
1.0
 40
1.0
 40
2.0
 40
2.0
 40
2.0
 40
3.0
 40
3.0
 40
3.0
 40
4.0
 40
4.0
 40
4.0
 40
5.0
 40
5.0
 40
5.0
 40
6.0
 40
6.0
 40
6.0
 40
7.0
 40
7.0
 40
7.0
 40
8.0
 40
8.0
 40
8.0
 40
9.0
 40
9.0
 40
9.0
 40
10.0
 40
10.0
 40
10.0
 40
11.0
 40
11.0
 40
11.0
 40
12.0
 40
12.0
 40
12.0
 40
13.0
 40
13.0
 40
13.0
 40
13.0
 10
105.3558430726194
 20
-162.6825764567252
 30
0.0
 10
105.3482638625518
 20
-162.6681070556872
 30
0.0
 10
105.3413736715813
 20
-162.6508815782609
 30
0.0
 10
105.3406846524843
 20
-162.5757784966825
 30
0.0
 10
105.3393066142902
 20
-162.4965413005217
 30
0.0
 10
105.3200140795728
 20
-162.4738036703191
 30
0.0
 10
105.2621364754206
 20
-162.4738036703191
 30
0.0
 10
105.2621364754206
 20
-162.4738036703191
 30
0.0
 10
105.1291557896899
 20
-162.4738036703191
 30
0.0
 10
105.1291557896899
 20
-162.4738036703191
 30
0.0
 10
105.1291557896899
 20
-162.4738036703191
 30
0.0
 10
105.1291557896899
 20
-162.6825764567252
 30
0.0
 10
105.1291557896899
 20
-162.6825764567252
 30
0.0
 10
105.1291557896899
 20
-162.6825764567252
 30
0.0
 10
105.0526746699174
 20
-162.6825764567252
 30
0.0
 10
105.0526746699174
 20
-162.6825764567252
 30
0.0
 10
105.0526746699174
 20
-162.6825764567252
 30
0.0
 10
105.0526746699174
 20
-162.1795925158787
 30
0.0
 10
105.0526746699174
 20
-162.1795925158787
 30
0.0
 10
105.0526746699174
 20
-162.1795925158787
 30
0.0
 10
105.2724717618763
 20
-162.1795925158787
 30
0.0
 10
105.2724717618763
 20
-162.1795925158787
 30
0.0
 10
105.3723795309486
 20
-162.1795925158787
 30
0.0
 10
105.4268120396155
 20
-162.2354030627398
 30
0.0
 10
105.4268120396155
 20
-162.3187743734828
 30
0.0
 10
105.4268120396155
 20
-162.335310831812
 30
0.0
 10
105.4240559632273
 20
-162.362182576597
 30
0.0
 10
105.4095865621893
 20
-162.3883653022849
 30
0.0
 10
105.3902940274719
 20
-162.4221272380403
 30
0.0
 10
105.3689344354633
 20
-162.4283284099137
 30
0.0
 10
105.3489528816489
 20
-162.4338405626902
 30
0.0
 10
105.3937391229571
 20
-162.4476209446312
 30
0.0
 10
105.4157877340627
 20
-162.4634683838633
 30
0.0
 10
105.4171657722568
 20
-162.5661322293238
 30
0.0
 10
105.4185438104509
 20
-162.6543266737461
 30
0.0
 10
105.4302571351008
 20
-162.6646619602019
 30
0.0
 10
105.4523057462064
 20
-162.6825764567252
 30
0.0
 10
105.4523057462064
 20
-162.6825764567252
 30
0.0
 10
105.3558430726194
 20
-162.6825764567252
 30
0.0
 10
105.3558430726194
 20
-162.6825764567252
 30
0.0
  0
SPLINE
  5
C0
330
B6
100
AcDbEntity
  8
_U+30EC_U+30A4_U+30E4_U+30FC 1
370
     0
100
AcDbSpline
210
0.0
220
0.0
230
1.0
 70
    11
 71
     3
 72
    20
 73
    16
 74
     0
 42
0.0000000001
 43
0.0000000001
 12
1.0
 22
0.0
 32
0.0
 13
1.0
 23
0.0
 33
0.0
 40
0.0
 40
0.0
 40
0.0
 40
0.0
 40
1.0
 40
1.0
 40
1.0
 40
2.0
 40
2.0
 40
2.0
 40
3.0
 40
3.0
 40
3.0
 40
4.0
 40
4.0
 40
4.0
 40
5.0
 40
5.0
 40
5.0
 40
5.0
 10
105.2738498000704
 20
-162.2484944255837
 30
0.0
 10
105.2738498000704
 20
-162.2484944255837
 30
0.0
 10
105.1291557896899
 20
-162.2484944255837
 30
0.0
 10
105.1291557896899
 20
-162.2484944255837
 30
0.0
 10
105.1291557896899
 20
-162.2484944255837
 30
0.0
 10
105.1291557896899
 20
-162.4049017606141
 30
0.0
 10
105.1291557896899
 20
-162.4049017606141
 30
0.0
 10
105.1291557896899
 20
-162.4049017606141
 30
0.0
 10
105.2731607809734
 20
-162.4049017606141
 30
0.0
 10
105.2731607809734
 20
-162.4049017606141
 30
0.0
 10
105.3055446785347
 20
-162.4049017606141
 30
0.0
 10
105.3496419007459
 20
-162.3800970731203
 30
0.0
 10
105.3496419007459
 20
-162.3242865262592
 30
0.0
 10
105.3496419007459
 20
-162.2987928196684
 30
0.0
 10
105.3386175951931
 20
-162.2484944255837
 30
0.0
 10
105.2738498000704
 20
-162.2484944255837
 30
0.0
  0
HATCH
  5
C1
330
B6
100
AcDbEntity
  8
_U+30EC_U+30A4_U+30E4_U+30FC 1
 62
   179
420
  2234388
100
AcDbHatch
 10
0.0
 20
0.0
 30
0.0
210
0.0
220
0.0
230
1.0
  2
SOLID
 70
     1
 71
     0
 91
        2
 92
        1
 93
        1
 72
     4
 94
        3
 73
     0
 74
     1
 95
       44
 96
       40
 40
0.0
 40
0.0
 40
0.0
 40
0.0
 40
1.0
 40
1.0
 40
1.0
 40
2.0
 40
2.0
 40
2.0
 40
3.0
 40
3.0
 40
3.0
 40
4.0
 40
4.0
 40
4.0
 40
5.0
 40
5.0
 40
5.0
 40
6.0
 40
6.0
 40
6.0
 40
7.0
 40
7.0
 40
7.0
 40
8.0
 40
8.0
 40
8.0
 40
9.0
 40
9.0
 40
9.0
 40
10.0
 40
10.0
 40
10.0
 40
11.0
 40
11.0
 40
11.0
 40
12.0
 40
12.0
 40
12.0
 40
13.0
 40
13.0
 40
13.0
 40
13.0
 10
105.3558430726194
 20
-162.6825764567252
 10
105.3482638625518
 20
-162.6681070556872
 10
105.3413736715813
 20
-162.6508815782609
 10
105.3406846524843
 20
-162.5757784966825
 10
105.3393066142902
 20
-162.4965413005217
 10
105.3200140795728
 20
-162.4738036703191
 10
105.2621364754206
 20
-162.4738036703191
 10
105.2621364754206
 20
-162.4738036703191
 10
105.1291557896899
 20
-162.4738036703191
 10
105.1291557896899
 20
-162.4738036703191
 10
105.1291557896899
 20
-162.4738036703191
 10
105.1291557896899
 20
-162.6825764567252
 10
105.1291557896899
 20
-162.6825764567252
 10
105.1291557896899
 20
-162.6825764567252
 10
105.0526746699174
 20
-162.6825764567252
 10
105.0526746699174
 20
-162.6825764567252
 10
105.0526746699174
 20
-162.6825764567252
 10
105.0526746699174
 20
-162.1795925158787
 10
105.0526746699174
 20
-162.1795925158787
 10
105.0526746699174
 20
-162.1795925158787
 10
105.2724717618763
 20
-162.1795925158787
 10
105.2724717618763
 20
-162.1795925158787
 10
105.3723795309486
 20
-162.1795925158787
 10
105.4268120396155
 20
-162.2354030627398
 10
105.4268120396155
 20
-162.3187743734828
 10
105.4268120396155
 20
-162.335310831812
 10
105.4240559632273
 20
-162.362182576597
 10
105.4095865621893
 20
-162.3883653022849
 10
105.3902940274719
 20
-162.4221272380403
 10
105.3689344354633
 20
-162.4283284099137
 10
105.3489528816489
 20
-162.4338405626902
 10
105.3937391229571
 20
-162.4476209446312
 10
105.4157877340627
 20
-162.4634683838633
 10
105.4171657722568
 20
-162.5661322293238
 10
105.4185438104509
 20
-162.6543266737461
 10
105.4302571351008
 20
-162.6646619602019
 10
105.4523057462064
 20
-162.6825764567252
 10
105.4523057462064
 20
-162.6825764567252
 10
105.3558430726194
 20
-162.6825764567252
 10
105.3558430726194
 20
-162.6825764567252
 97
        0
 97
        0
 92
        1
 93
        1
 72
     4
 94
        3
 73
     0
 74
     1
 95
       20
 96
       16
 40
0.0
 40
0.0
 40
0.0
 40
0.0
 40
1.0
 40
1.0
 40
1.0
 40
2.0
 40
2.0
 40
2.0
 40
3.0
 40
3.0
 40
3.0
 40
4.0
 40
4.0
 40
4.0
 40
5.0
 40
5.0
 40
5.0
 40
5.0
 10
105.2738498000704
 20
-162.2484944255837
 10
105.2738498000704
 20
-162.2484944255837
 10
105.1291557896899
 20
-162.2484944255837
 10
105.1291557896899
 20
-162.2484944255837
 10
105.1291557896899
 20
-162.2484944255837
 10
105.1291557896899
 20
-162.4049017606141
 10
105.1291557896899
 20
-162.4049017606141
 10
105.1291557896899
 20
-162.4049017606141
 10
105.2731607809734
 20
-162.4049017606141
 10
105.2731607809734
 20
-162.4049017606141
 10
105.3055446785347
 20
-162.4049017606141
 10
105.3496419007459
 20
-162.3800970731203
 10
105.3496419007459
 20
-162.3242865262592
 10
105.3496419007459
 20
-162.2987928196684
 10
105.3386175951931
 20
-162.2484944255837
 10
105.2738498000704
 20
-162.2484944255837
 97
        0
 97
        0
 75
     2
 76
     1
 98
        0
  0
ENDBLK
  5
B9
330
B6
100
AcDbEntity
  8
0
100
AcDbBlockEnd
  0
ENDSEC
  0
SECTION
  2
ENTITIES
  0
INSERT
  5
42
330
1F
100
AcDbEntity
  8
_U+30EC_U+30A4_U+30E4_U+30FC 1
100
AcDbBlockReference
  2
block 2
 10
0.0
 20
0.0
 30
0.0
  0
POLYLINE
  5
C5
330
1F
100
AcDbEntity
  8
_U+30EC_U+30A4_U+30E4_U+30FC 1
370
     0
100
AcDb2dPolyline
 66
     1
 10
0.0
 20
0.0
 30
0.0
  0
VERTEX
  5
C6
330
C5
100
AcDbEntity
  8
_U+30EC_U+30A4_U+30E4_U+30FC 1
370
     0
100
AcDbVertex
100
AcDb2dVertex
 10
128.9058267906902
 20
-166.8870554927108
 30
0.0
  0
VERTEX
  5
C7
330
C5
100
AcDbEntity
  8
_U+30EC_U+30A4_U+30E4_U+30FC 1
370
     0
100
AcDbVertex
100
AcDb2dVertex
 10
80.30113352563612
 20
-166.8870554927108
 30
0.0
  0
VERTEX
  5
C8
330
C5
100
AcDbEntity
  8
_U+30EC_U+30A4_U+30E4_U+30FC 1
370
     0
100
AcDbVertex
100
AcDb2dVertex
 10
80.30113352563612
 20
-130.1749999414463
 30
0.0
  0
VERTEX
  5
C9
330
C5
100
AcDbEntity
  8
_U+30EC_U+30A4_U+30E4_U+30FC 1
370
     0
100
AcDbVertex
100
AcDb2dVertex
 10
128.9058267906902
 20
-130.1749999414463
 30
0.0
  0
VERTEX
  5
CA
330
C5
100
AcDbEntity
  8
_U+30EC_U+30A4_U+30E4_U+30FC 1
370
     0
100
AcDbVertex
100
AcDb2dVertex
 10
128.9058267906902
 20
-166.8870554927108
 30
0.0
  0
SEQEND
  5
CB
330
C5
100
AcDbEntity
  8
_U+30EC_U+30A4_U+30E4_U+30FC 1
370
     0
  0
ENDSEC
  0
SECTION
  2
OBJECTS
  0
DICTIONARY
  5
C
330
0
100
AcDbDictionary
281
     1
  3
ACAD_GROUP
350
D
  3
ACAD_LAYOUT
350
1A
  3
ACAD_MATERIAL
350
3B
  3
ACAD_MLEADERSTYLE
350
CD
  3
ACAD_MLINESTYLE
350
17
  3
ACAD_PLOTSETTINGS
350
19
  3
ACAD_PLOTSTYLENAME
350
E
  3
ACAD_TABLESTYLE
350
CC
  3
ACAD_VISUALSTYLE
350
2A
  0
SUN
  5
3F
330
29
100
AcDbSun
 90
        1
290
     0
 63
     7
421
 16777215
 40
1.0
291
     1
 91
  2455826
 92
 54000000
292
     0
 70
     2
 71
   256
280
     1
  0
DICTIONARY
  5
D
102
{ACAD_REACTORS
330
C
102
}
330
C
100
AcDbDictionary
281
     1
  0
DICTIONARY
  5
1A
102
{ACAD_REACTORS
330
C
102
}
330
C
100
AcDbDictionary
281
     1
  3
Layout1
350
1E
  3
Layout2
350
26
  3
Model
350
22
  0
DICTIONARY
  5
3B
102
{ACAD_REACTORS
330
C
102
}
330
C
100
AcDbDictionary
281
     1
  3
ByBlock
350
3D
  3
ByLayer
350
3C
  3
Global
350
3E
  0
DICTIONARY
  5
CD
102
{ACAD_REACTORS
330
C
102
}
330
C
100
AcDbDictionary
281
     1
  0
DICTIONARY
  5
17
102
{ACAD_REACTORS
330
C
102
}
330
C
100
AcDbDictionary
281
     1
  3
Standard
350
18
  0
DICTIONARY
  5
19
102
{ACAD_REACTORS
330
C
102
}
330
C
100
AcDbDictionary
281
     1
  0
ACDBDICTIONARYWDFLT
  5
E
102
{ACAD_REACTORS
330
C
102
}
330
C
100
AcDbDictionary
281
     1
  3
Normal
350
F
100
AcDbDictionaryWithDefault
340
F
  0
DICTIONARY
  5
CC
102
{ACAD_REACTORS
330
C
102
}
330
C
100
AcDbDictionary
281
     1
  0
DICTIONARY
  5
2A
102
{ACAD_REACTORS
330
C
102
}
330
C
100
AcDbDictionary
281
     1
  3
2dWireframe
350
2F
  3
3D Hidden
350
31
  3
3dWireframe
350
30
  3
Basic
350
32
  3
Brighten
350
36
  3
ColorChange
350
3A
  3
Conceptual
350
34
  3
Dim
350
35
  3
Facepattern
350
39
  3
Flat
350
2B
  3
FlatWithEdges
350
2C
  3
Gouraud
350
2D
  3
GouraudWithEdges
350
2E
  3
Linepattern
350
38
  3
Realistic
350
33
  3
Thicken
350
37
  0
LAYOUT
  5
1E
102
{ACAD_REACTORS
330
1A
102
}
330
1A
100
AcDbPlotSettings
  1

  2
none_device
  4

  6

 40
0.0
 41
0.0
 42
0.0
 43
0.0
 44
0.0
 45
0.0
 46
0.0
 47
0.0
 48
0.0
 49
0.0
140
0.0
141
0.0
142
1.0
143
1.0
 70
   688
 72
     0
 73
     0
 74
     5
  7

 75
    16
 76
     0
 77
     2
 78
   300
147
1.0
148
0.0
149
0.0
100
AcDbLayout
  1
Layout1
 70
     1
 71
     1
 10
0.0
 20
0.0
 11
12.0
 21
9.0
 12
0.0
 22
0.0
 32
0.0
 14
1.000000000000000E+20
 24
1.000000000000000E+20
 34
1.000000000000000E+20
 15
-1.000000000000000E+20
 25
-1.000000000000000E+20
 35
-1.000000000000000E+20
146
0.0
 13
0.0
 23
0.0
 33
0.0
 16
1.0
 26
0.0
 36
0.0
 17
0.0
 27
1.0
 37
0.0
 76
     0
330
1B
  0
LAYOUT
  5
26
102
{ACAD_REACTORS
330
1A
102
}
330
1A
100
AcDbPlotSettings
  1

  2
none_device
  4

  6

 40
0.0
 41
0.0
 42
0.0
 43
0.0
 44
0.0
 45
0.0
 46
0.0
 47
0.0
 48
0.0
 49
0.0
140
0.0
141
0.0
142
1.0
143
1.0
 70
   688
 72
     0
 73
     0
 74
     5
  7

 75
    16
 76
     0
 77
     2
 78
   300
147
1.0
148
0.0
149
0.0
100
AcDbLayout
  1
Layout2
 70
     1
 71
     2
 10
0.0
 20
0.0
 11
0.0
 21
0.0
 12
0.0
 22
0.0
 32
0.0
 14
0.0
 24
0.0
 34
0.0
 15
0.0
 25
0.0
 35
0.0
146
0.0
 13
0.0
 23
0.0
 33
0.0
 16
1.0
 26
0.0
 36
0.0
 17
0.0
 27
1.0
 37
0.0
 76
     0
330
23
  0
LAYOUT
  5
22
102
{ACAD_REACTORS
330
1A
102
}
330
1A
100
AcDbPlotSettings
  1

  2
none_device
  4

  6

 40
0.0
 41
0.0
 42
0.0
 43
0.0
 44
0.0
 45
0.0
 46
0.0
 47
0.0
 48
0.0
 49
0.0
140
0.0
141
0.0
142
1.0
143
1.0
 70
  1712
 72
     0
 73
     0
 74
     0
  7

 75
     0
 76
     0
 77
     2
 78
   300
147
1.0
148
0.0
149
0.0
100
AcDbLayout
  1
Model
 70
     1
 71
     0
 10
0.0
 20
0.0
 11
12.0
 21
9.0
 12
0.0
 22
0.0
 32
0.0
 14
1.000000000000000E+20
 24
1.000000000000000E+20
 34
1.000000000000000E+20
 15
-1.000000000000000E+20
 25
-1.000000000000000E+20
 35
-1.000000000000000E+20
146
0.0
 13
0.0
 23
0.0
 33
0.0
 16
1.0
 26
0.0
 36
0.0
 17
0.0
 27
1.0
 37
0.0
 76
     0
330
1F
331
29
  0
MATERIAL
  5
3D
102
{ACAD_REACTORS
330
3B
102
}
330
3B
100
AcDbMaterial
  1
ByBlock
 72
     1
 94
      127
  0
MATERIAL
  5
3C
102
{ACAD_REACTORS
330
3B
102
}
330
3B
100
AcDbMaterial
  1
ByLayer
 72
     1
 94
      127
  0
MATERIAL
  5
3E
102
{ACAD_REACTORS
330
3B
102
}
330
3B
100
AcDbMaterial
  1
Global
 72
     1
 94
      127
  0
MLINESTYLE
  5
18
102
{ACAD_REACTORS
330
17
102
}
330
17
100
AcDbMlineStyle
  2
Standard
 70
     0
  3

 62
   256
 51
90.0
 52
90.0
 71
     2
 49
0.5
 62
   256
  6
BYLAYER
 49
-0.5
 62
   256
  6
BYLAYER
  0
ACDBPLACEHOLDER
  5
F
102
{ACAD_REACTORS
330
E
102
}
330
E
  0
VISUALSTYLE
  5
2F
102
{ACAD_REACTORS
330
2A
102
}
330
2A
100
AcDbVisualStyle
  2
2dWireframe
 70
     4
177
     2
291
     0
 71
     0
176
     1
 72
     2
176
     1
 73
     0
176
     1
 90
        0
176
     1
 40
-0.6
176
     1
 41
-30.0
176
     1
 62
     5
 63
     7
421
 16777215
176
     1
 74
     1
176
     1
 91
        4
176
     1
 64
     7
176
     1
 65
   257
176
     1
 75
     1
176
     1
175
     1
176
     1
 42
1.0
176
     1
 92
        0
176
     1
 66
   257
176
     1
 43
1.0
176
     1
 76
     1
176
     1
 77
     6
176
     1
 78
     2
176
     1
 67
     7
176
     1
 79
     5
176
     1
170
     0
176
     1
171
     0
176
     1
290
     0
176
     1
 93
        1
176
     1
 44
0.0
176
     1
173
     0
176
     1
  0
VISUALSTYLE
  5
31
102
{ACAD_REACTORS
330
2A
102
}
330
2A
100
AcDbVisualStyle
  2
3D Hidden
 70
     6
177
     2
291
     0
 71
     1
176
     1
 72
     2
176
     1
 73
     2
176
     1
 90
        0
176
     1
 40
-0.6
176
     1
 41
-30.0
176
     1
 62
     5
 63
     7
421
 16777215
176
     1
 74
     2
176
     1
 91
        2
176
     1
 64
     7
176
     1
 65
   257
176
     1
 75
     2
176
     1
175
     1
176
     1
 42
40.0
176
     1
 92
        0
176
     1
 66
   257
176
     1
 43
1.0
176
     1
 76
     1
176
     1
 77
     6
176
     1
 78
     2
176
     1
 67
     7
176
     1
 79
     3
176
     1
170
     0
176
     1
171
     0
176
     1
290
     0
176
     1
 93
        1
176
     1
 44
0.0
176
     1
173
     0
176
     1
  0
VISUALSTYLE
  5
30
102
{ACAD_REACTORS
330
2A
102
}
330
2A
100
AcDbVisualStyle
  2
3dWireframe
 70
     5
177
     2
291
     0
 71
     0
176
     1
 72
     2
176
     1
 73
     0
176
     1
 90
        0
176
     1
 40
-0.6
176
     1
 41
-30.0
176
     1
 62
     5
 63
     7
421
 16777215
176
     1
 74
     1
176
     1
 91
        4
176
     1
 64
     7
176
     1
 65
   257
176
     1
 75
     1
176
     1
175
     1
176
     1
 42
1.0
176
     1
 92
        0
176
     1
 66
   257
176
     1
 43
1.0
176
     1
 76
     1
176
     1
 77
     6
176
     1
 78
     2
176
     1
 67
     7
176
     1
 79
     5
176
     1
170
     0
176
     1
171
     0
176
     1
290
     0
176
     1
 93
        1
176
     1
 44
0.0
176
     1
173
     0
176
     1
  0
VISUALSTYLE
  5
32
102
{ACAD_REACTORS
330
2A
102
}
330
2A
100
AcDbVisualStyle
  2
Basic
 70
     7
177
     2
291
     1
 71
     1
176
     1
 72
     0
176
     1
 73
     1
176
     1
 90
        0
176
     1
 40
-0.6
176
     1
 41
-30.0
176
     1
 62
     5
 63
     7
421
 16777215
176
     1
 74
     0
176
     1
 91
        4
176
     1
 64
     7
176
     1
 65
   257
176
     1
 75
     1
176
     1
175
     1
176
     1
 42
1.0
176
     1
 92
        8
176
     1
 66
     7
176
     1
 43
1.0
176
     1
 76
     1
176
     1
 77
     6
176
     1
 78
     2
176
     1
 67
     7
176
     1
 79
     5
176
     1
170
     0
176
     1
171
     0
176
     1
290
     0
176
     1
 93
        1
176
     1
 44
0.0
176
     1
173
     0
176
     1
  0
VISUALSTYLE
  5
36
102
{ACAD_REACTORS
330
2A
102
}
330
2A
100
AcDbVisualStyle
  2
Brighten
 70
    12
177
     2
291
     1
 71
     2
176
     1
 72
     2
176
     1
 73
     0
176
     1
 90
        0
176
     1
 40
-0.6
176
     1
 41
-30.0
176
     1
 62
     5
 63
     7
421
 16777215
176
     1
 74
     1
176
     1
 91
        4
176
     1
 64
     7
176
     1
 65
   257
176
     1
 75
     1
176
     1
175
     1
176
     1
 42
1.0
176
     1
 92
        8
176
     1
 66
     7
176
     1
 43
1.0
176
     1
 76
     1
176
     1
 77
     6
176
     1
 78
     2
176
     1
 67
     7
176
     1
 79
     5
176
     1
170
     0
176
     1
171
     0
176
     1
290
     0
176
     1
 93
        1
176
     1
 44
50.0
176
     1
173
     0
176
     1
  0
VISUALSTYLE
  5
3A
102
{ACAD_REACTORS
330
2A
102
}
330
2A
100
AcDbVisualStyle
  2
ColorChange
 70
    16
177
     2
291
     1
 71
     2
176
     1
 72
     2
176
     1
 73
     3
176
     1
 90
        0
176
     1
 40
-0.6
176
     1
 41
-30.0
176
     1
 62
     5
 63
     8
421
  8421504
176
     1
 74
     1
176
     1
 91
        4
176
     1
 64
     7
176
     1
 65
   257
176
     1
 75
     1
176
     1
175
     1
176
     1
 42
1.0
176
     1
 92
        8
176
     1
 66
     8
424
  8421504
176
     1
 43
1.0
176
     1
 76
     1
176
     1
 77
     6
176
     1
 78
     2
176
     1
 67
     7
176
     1
 79
     5
176
     1
170
     0
176
     1
171
     0
176
     1
290
     0
176
     1
 93
        1
176
     1
 44
0.0
176
     1
173
     0
176
     1
  0
VISUALSTYLE
  5
34
102
{ACAD_REACTORS
330
2A
102
}
330
2A
100
AcDbVisualStyle
  2
Conceptual
 70
     9
177
     2
291
     0
 71
     3
176
     1
 72
     2
176
     1
 73
     0
176
     1
 90
        0
176
     1
 40
-0.6
176
     1
 41
-30.0
176
     1
 62
     5
 63
     7
421
 16777215
176
     1
 74
     2
176
     1
 91
        2
176
     1
 64
     7
176
     1
 65
   257
176
     1
 75
     1
176
     1
175
     1
176
     1
 42
40.0
176
     1
 92
        8
176
     1
 66
     7
176
     1
 43
1.0
176
     1
 76
     1
176
     1
 77
     6
176
     1
 78
     2
176
     1
 67
     7
176
     1
 79
     3
176
     1
170
     0
176
     1
171
     0
176
     1
290
     0
176
     1
 93
        1
176
     1
 44
0.0
176
     1
173
     0
176
     1
  0
VISUALSTYLE
  5
35
102
{ACAD_REACTORS
330
2A
102
}
330
2A
100
AcDbVisualStyle
  2
Dim
 70
    11
177
     2
291
     1
 71
     2
176
     1
 72
     2
176
     1
 73
     0
176
     1
 90
        0
176
     1
 40
-0.6
176
     1
 41
-30.0
176
     1
 62
     5
 63
     7
421
 16777215
176
     1
 74
     1
176
     1
 91
        4
176
     1
 64
     7
176
     1
 65
   257
176
     1
 75
     1
176
     1
175
     1
176
     1
 42
1.0
176
     1
 92
        8
176
     1
 66
     7
176
     1
 43
1.0
176
     1
 76
     1
176
     1
 77
     6
176
     1
 78
     2
176
     1
 67
     7
176
     1
 79
     5
176
     1
170
     0
176
     1
171
     0
176
     1
290
     0
176
     1
 93
        1
176
     1
 44
-50.0
176
     1
173
     0
176
     1
  0
VISUALSTYLE
  5
39
102
{ACAD_REACTORS
330
2A
102
}
330
2A
100
AcDbVisualStyle
  2
Facepattern
 70
    15
177
     2
291
     1
 71
     2
176
     1
 72
     2
176
     1
 73
     0
176
     1
 90
        0
176
     1
 40
-0.6
176
     1
 41
-30.0
176
     1
 62
     5
 63
     7
421
 16777215
176
     1
 74
     1
176
     1
 91
        4
176
     1
 64
     7
176
     1
 65
   257
176
     1
 75
     1
176
     1
175
     1
176
     1
 42
1.0
176
     1
 92
        8
176
     1
 66
     7
176
     1
 43
1.0
176
     1
 76
     1
176
     1
 77
     6
176
     1
 78
     2
176
     1
 67
     7
176
     1
 79
     5
176
     1
170
     0
176
     1
171
     0
176
     1
290
     0
176
     1
 93
        1
176
     1
 44
0.0
176
     1
173
     0
176
     1
  0
VISUALSTYLE
  5
2B
102
{ACAD_REACTORS
330
2A
102
}
330
2A
100
AcDbVisualStyle
  2
Flat
 70
     0
177
     2
291
     1
 71
     2
176
     1
 72
     1
176
     1
 73
     1
176
     1
 90
        2
176
     1
 40
-0.6
176
     1
 41
30.0
176
     1
 62
     5
 63
     7
421
 16777215
176
     1
 74
     0
176
     1
 91
        4
176
     1
 64
     7
176
     1
 65
   257
176
     1
 75
     1
176
     1
175
     1
176
     1
 42
1.0
176
     1
 92
        8
176
     1
 66
     7
176
     1
 43
1.0
176
     1
 76
     1
176
     1
 77
     6
176
     1
 78
     2
176
     1
 67
     7
176
     1
 79
     5
176
     1
170
     0
176
     1
171
     0
176
     1
290
     0
176
     1
 93
       13
176
     1
 44
0.0
176
     1
173
     0
176
     1
  0
VISUALSTYLE
  5
2C
102
{ACAD_REACTORS
330
2A
102
}
330
2A
100
AcDbVisualStyle
  2
FlatWithEdges
 70
     1
177
     2
291
     1
 71
     2
176
     1
 72
     1
176
     1
 73
     1
176
     1
 90
        2
176
     1
 40
-0.6
176
     1
 41
30.0
176
     1
 62
     5
 63
     7
421
 16777215
176
     1
 74
     1
176
     1
 91
        4
176
     1
 64
     7
176
     1
 65
   257
176
     1
 75
     1
176
     1
175
     1
176
     1
 42
1.0
176
     1
 92
        0
176
     1
 66
   257
176
     1
 43
1.0
176
     1
 76
     1
176
     1
 77
     6
176
     1
 78
     2
176
     1
 67
     7
176
     1
 79
     5
176
     1
170
     0
176
     1
171
     0
176
     1
290
     0
176
     1
 93
       13
176
     1
 44
0.0
176
     1
173
     0
176
     1
  0
VISUALSTYLE
  5
2D
102
{ACAD_REACTORS
330
2A
102
}
330
2A
100
AcDbVisualStyle
  2
Gouraud
 70
     2
177
     2
291
     1
 71
     2
176
     1
 72
     2
176
     1
 73
     1
176
     1
 90
        2
176
     1
 40
-0.6
176
     1
 41
30.0
176
     1
 62
     5
 63
     7
421
 16777215
176
     1
 74
     0
176
     1
 91
        4
176
     1
 64
     7
176
     1
 65
   257
176
     1
 75
     1
176
     1
175
     1
176
     1
 42
1.0
176
     1
 92
        0
176
     1
 66
     7
176
     1
 43
1.0
176
     1
 76
     1
176
     1
 77
     6
176
     1
 78
     2
176
     1
 67
     7
176
     1
 79
     5
176
     1
170
     0
176
     1
171
     0
176
     1
290
     0
176
     1
 93
       13
176
     1
 44
0.0
176
     1
173
     0
176
     1
  0
VISUALSTYLE
  5
2E
102
{ACAD_REACTORS
330
2A
102
}
330
2A
100
AcDbVisualStyle
  2
GouraudWithEdges
 70
     3
177
     2
291
     1
 71
     2
176
     1
 72
     2
176
     1
 73
     1
176
     1
 90
        2
176
     1
 40
-0.6
176
     1
 41
30.0
176
     1
 62
     5
 63
     7
421
 16777215
176
     1
 74
     1
176
     1
 91
        4
176
     1
 64
     7
176
     1
 65
   257
176
     1
 75
     1
176
     1
175
     1
176
     1
 42
1.0
176
     1
 92
        0
176
     1
 66
   257
176
     1
 43
1.0
176
     1
 76
     1
176
     1
 77
     6
176
     1
 78
     2
176
     1
 67
     7
176
     1
 79
     5
176
     1
170
     0
176
     1
171
     0
176
     1
290
     0
176
     1
 93
       13
176
     1
 44
0.0
176
     1
173
     0
176
     1
  0
VISUALSTYLE
  5
38
102
{ACAD_REACTORS
330
2A
102
}
330
2A
100
AcDbVisualStyle
  2
Linepattern
 70
    14
177
     2
291
     1
 71
     2
176
     1
 72
     2
176
     1
 73
     0
176
     1
 90
        0
176
     1
 40
-0.6
176
     1
 41
-30.0
176
     1
 62
     5
 63
     7
421
 16777215
176
     1
 74
     1
176
     1
 91
        4
176
     1
 64
     7
176
     1
 65
   257
176
     1
 75
     7
176
     1
175
     7
176
     1
 42
1.0
176
     1
 92
        8
176
     1
 66
     7
176
     1
 43
1.0
176
     1
 76
     1
176
     1
 77
     6
176
     1
 78
     2
176
     1
 67
     7
176
     1
 79
     5
176
     1
170
     0
176
     1
171
     0
176
     1
290
     0
176
     1
 93
        1
176
     1
 44
0.0
176
     1
173
     0
176
     1
  0
VISUALSTYLE
  5
33
102
{ACAD_REACTORS
330
2A
102
}
330
2A
100
AcDbVisualStyle
  2
Realistic
 70
     8
177
     2
291
     0
 71
     2
176
     1
 72
     2
176
     1
 73
     0
176
     1
 90
        0
176
     1
 40
-0.6
176
     1
 41
-30.0
176
     1
 62
     5
 63
     7
421
 16777215
176
     1
 74
     1
176
     1
 91
        0
176
     1
 64
     7
176
     1
 65
   257
176
     1
 75
     1
176
     1
175
     1
176
     1
 42
1.0
176
     1
 92
        8
176
     1
 66
     8
424
  7895160
176
     1
 43
1.0
176
     1
 76
     1
176
     1
 77
     6
176
     1
 78
     2
176
     1
 67
     7
176
     1
 79
     5
176
     1
170
     0
176
     1
171
     0
176
     1
290
     0
176
     1
 93
       13
176
     1
 44
0.0
176
     1
173
     0
176
     1
  0
VISUALSTYLE
  5
37
102
{ACAD_REACTORS
330
2A
102
}
330
2A
100
AcDbVisualStyle
  2
Thicken
 70
    13
177
     2
291
     1
 71
     2
176
     1
 72
     2
176
     1
 73
     0
176
     1
 90
        0
176
     1
 40
-0.6
176
     1
 41
-30.0
176
     1
 62
     5
 63
     7
421
 16777215
176
     1
 74
     1
176
     1
 91
        4
176
     1
 64
     7
176
     1
 65
   257
176
     1
 75
     1
176
     1
175
     1
176
     1
 42
1.0
176
     1
 92
       12
176
     1
 66
     7
176
     1
 43
1.0
176
     1
 76
     1
176
     1
 77
     6
176
     1
 78
     2
176
     1
 67
     7
176
     1
 79
     5
176
     1
170
     0
176
     1
171
     0
176
     1
290
     0
176
     1
 93
        1
176
     1
 44
0.0
176
     1
173
     0
176
     1
  0
ENDSEC
  0
EOF
