  0
SECTION
  2
HEADER
  9
$ACADVER
  1
AC1024
  9
$ACADMAINTVER
 70
     6
  9
$DWGCODEPAGE
  3
UNDEFINED
  9
$INSBASE
 10
0.0
 20
0.0
 30
0.0
  9
$EXTMIN
 10
1.000000000000000E+20
 20
1.000000000000000E+20
 30
1.000000000000000E+20
  9
$EXTMAX
 10
-1.000000000000000E+20
 20
-1.000000000000000E+20
 30
-1.000000000000000E+20
  9
$LIMMIN
 10
0.0
 20
0.0
  9
$LIMMAX
 10
12.0
 20
9.0
  9
$ORTHOMODE
 70
     0
  9
$REGENMODE
 70
     1
  9
$FILLMODE
 70
     1
  9
$QTEXTMODE
 70
     0
  9
$MIRRTEXT
 70
     1
  9
$LTSCALE
 40
1.0
  9
$ATTMODE
 70
     1
  9
$TEXTSIZE
 40
0.2
  9
$TRACEWID
 40
0.05
  9
$TEXTSTYLE
  7
Standard
  9
$CLAYER
  8
0
  9
$CELTYPE
  6
ByLayer
  9
$CECOLOR
 62
   256
  9
$CELTSCALE
 40
1.0
  9
$DISPSILH
 70
     0
  9
$DIMSCALE
 40
1.0
  9
$DIMASZ
 40
0.18
  9
$DIMEXO
 40
0.0625
  9
$DIMDLI
 40
0.38
  9
$DIMRND
 40
0.0
  9
$DIMDLE
 40
0.0
  9
$DIMEXE
 40
0.18
  9
$DIMTP
 40
0.0
  9
$DIMTM
 40
0.0
  9
$DIMTXT
 40
0.18
  9
$DIMCEN
 40
0.09
  9
$DIMTSZ
 40
0.0
  9
$DIMTOL
 70
     0
  9
$DIMLIM
 70
     0
  9
$DIMTIH
 70
     1
  9
$DIMTOH
 70
     1
  9
$DIMSE1
 70
     0
  9
$DIMSE2
 70
     0
  9
$DIMTAD
 70
     0
  9
$DIMZIN
 70
     0
  9
$DIMBLK
  1

  9
$DIMASO
 70
     1
  9
$DIMSHO
 70
     1
  9
$DIMPOST
  1

  9
$DIMAPOST
  1

  9
$DIMALT
 70
     0
  9
$DIMALTD
 70
     2
  9
$DIMALTF
 40
25.4
  9
$DIMLFAC
 40
1.0
  9
$DIMTOFL
 70
     0
  9
$DIMTVP
 40
0.0
  9
$DIMTIX
 70
     0
  9
$DIMSOXD
 70
     0
  9
$DIMSAH
 70
     0
  9
$DIMBLK1
  1

  9
$DIMBLK2
  1

  9
$DIMSTYLE
  2
Standard
  9
$DIMCLRD
 70
     0
  9
$DIMCLRE
 70
     0
  9
$DIMCLRT
 70
     0
  9
$DIMTFAC
 40
1.0
  9
$DIMGAP
 40
0.09
  9
$DIMJUST
 70
     0
  9
$DIMSD1
 70
     0
  9
$DIMSD2
 70
     0
  9
$DIMTOLJ
 70
     1
  9
$DIMTZIN
 70
     0
  9
$DIMALTZ
 70
     0
  9
$DIMALTTZ
 70
     0
  9
$DIMUPT
 70
     0
  9
$DIMDEC
 70
     4
  9
$DIMTDEC
 70
     4
  9
$DIMALTU
 70
     2
  9
$DIMALTTD
 70
     2
  9
$DIMTXSTY
  7
Standard
  9
$DIMAUNIT
 70
     0
  9
$DIMADEC
 70
     0
  9
$DIMALTRND
 40
0.0
  9
$DIMAZIN
 70
     0
  9
$DIMDSEP
 70
    46
  9
$DIMATFIT
 70
     3
  9
$DIMFRAC
 70
     0
  9
$DIMLDRBLK
  1

  9
$DIMLUNIT
 70
     2
  9
$DIMLWD
 70
    -2
  9
$DIMLWE
 70
    -2
  9
$DIMTMOVE
 70
     0
  9
$DIMFXL
 40
1.0
  9
$DIMFXLON
 70
     0
  9
$DIMJOGANG
 40
0.7853981633974483
  9
$DIMTFILL
 70
     0
  9
$DIMTFILLCLR
 70
     0
  9
$DIMARCSYM
 70
     0
  9
$DIMLTYPE
  6

  9
$DIMLTEX1
  6

  9
$DIMLTEX2
  6

  9
$DIMTXTDIRECTION
 70
     0
  9
$LUNITS
 70
     2
  9
$LUPREC
 70
     4
  9
$SKETCHINC
 40
0.1
  9
$FILLETRAD
 40
0.5
  9
$AUNITS
 70
     0
  9
$AUPREC
 70
     0
  9
$MENU
  1
.
  9
$ELEVATION
 40
0.0
  9
$PELEVATION
 40
0.0
  9
$THICKNESS
 40
0.0
  9
$LIMCHECK
 70
     0
  9
$CHAMFERA
 40
0.5
  9
$CHAMFERB
 40
0.5
  9
$CHAMFERC
 40
1.0
  9
$CHAMFERD
 40
0.0
  9
$SKPOLY
 70
     0
  9
$TDCREATE
 40
2458270.589143507
  9
$TDUCREATE
 40
2458270.214143518
  9
$TDUPDATE
 40
2458270.589143507
  9
$TDUUPDATE
 40
2458270.214143518
  9
$TDINDWG
 40
0.0000000116
  9
$TDUSRTIMER
 40
0.0000000116
  9
$USRTIMER
 70
     1
  9
$ANGBASE
 50
0.0
  9
$ANGDIR
 70
     0
  9
$PDMODE
 70
     0
  9
$PDSIZE
 40
0.0
  9
$PLINEWID
 40
0.0
  9
$SPLFRAME
 70
     0
  9
$SPLINETYPE
 70
     6
  9
$SPLINESEGS
 70
     8
  9
$HANDSEED
  5
9D
  9
$SURFTAB1
 70
     6
  9
$SURFTAB2
 70
     6
  9
$SURFTYPE
 70
     6
  9
$SURFU
 70
     6
  9
$SURFV
 70
     6
  9
$UCSBASE
  2

  9
$UCSNAME
  2

  9
$UCSORG
 10
0.0
 20
0.0
 30
0.0
  9
$UCSXDIR
 10
1.0
 20
0.0
 30
0.0
  9
$UCSYDIR
 10
0.0
 20
1.0
 30
0.0
  9
$UCSORTHOREF
  2

  9
$UCSORTHOVIEW
 70
     0
  9
$UCSORGTOP
 10
0.0
 20
0.0
 30
0.0
  9
$UCSORGBOTTOM
 10
0.0
 20
0.0
 30
0.0
  9
$UCSORGLEFT
 10
0.0
 20
0.0
 30
0.0
  9
$UCSORGRIGHT
 10
0.0
 20
0.0
 30
0.0
  9
$UCSORGFRONT
 10
0.0
 20
0.0
 30
0.0
  9
$UCSORGBACK
 10
0.0
 20
0.0
 30
0.0
  9
$PUCSBASE
  2

  9
$PUCSNAME
  2

  9
$PUCSORG
 10
0.0
 20
0.0
 30
0.0
  9
$PUCSXDIR
 10
1.0
 20
0.0
 30
0.0
  9
$PUCSYDIR
 10
0.0
 20
1.0
 30
0.0
  9
$PUCSORTHOREF
  2

  9
$PUCSORTHOVIEW
 70
     0
  9
$PUCSORGTOP
 10
0.0
 20
0.0
 30
0.0
  9
$PUCSORGBOTTOM
 10
0.0
 20
0.0
 30
0.0
  9
$PUCSORGLEFT
 10
0.0
 20
0.0
 30
0.0
  9
$PUCSORGRIGHT
 10
0.0
 20
0.0
 30
0.0
  9
$PUCSORGFRONT
 10
0.0
 20
0.0
 30
0.0
  9
$PUCSORGBACK
 10
0.0
 20
0.0
 30
0.0
  9
$USERI1
 70
     0
  9
$USERI2
 70
     0
  9
$USERI3
 70
     0
  9
$USERI4
 70
     0
  9
$USERI5
 70
     0
  9
$USERR1
 40
0.0
  9
$USERR2
 40
0.0
  9
$USERR3
 40
0.0
  9
$USERR4
 40
0.0
  9
$USERR5
 40
0.0
  9
$WORLDVIEW
 70
     1
  9
$SHADEDGE
 70
     3
  9
$SHADEDIF
 70
    70
  9
$TILEMODE
 70
     1
  9
$MAXACTVP
 70
    64
  9
$PINSBASE
 10
0.0
 20
0.0
 30
0.0
  9
$PLIMCHECK
 70
     0
  9
$PEXTMIN
 10
1.000000000000000E+20
 20
1.000000000000000E+20
 30
1.000000000000000E+20
  9
$PEXTMAX
 10
-1.000000000000000E+20
 20
-1.000000000000000E+20
 30
-1.000000000000000E+20
  9
$PLIMMIN
 10
0.0
 20
0.0
  9
$PLIMMAX
 10
12.0
 20
9.0
  9
$UNITMODE
 70
     0
  9
$VISRETAIN
 70
     1
  9
$PLINEGEN
 70
     0
  9
$PSLTSCALE
 70
     1
  9
$TREEDEPTH
 70
  3020
  9
$CMLSTYLE
  2
Standard
  9
$CMLJUST
 70
     0
  9
$CMLSCALE
 40
1.0
  9
$PROXYGRAPHICS
 70
     1
  9
$MEASUREMENT
 70
     0
  9
$CELWEIGHT
370
    -1
  9
$ENDCAPS
280
     0
  9
$JOINSTYLE
280
     0
  9
$LWDISPLAY
290
     1
  9
$INSUNITS
 70
     1
  9
$HYPERLINKBASE
  1

  9
$STYLESHEET
  1

  9
$XEDIT
290
     1
  9
$CEPSNTYPE
380
     0
  9
$PSTYLEMODE
290
     1
  9
$FINGERPRINTGUID
  2
{3E6688B0-7C40-F025-0B68-FD3983FFA0C2}
  9
$VERSIONGUID
  2
{FAEB1C32-E019-11D5-929B-00C0DF256EC4}
  9
$EXTNAMES
290
     1
  9
$PSVPSCALE
 40
0.0
  9
$OLESTARTUP
290
     0
  9
$SORTENTS
280
   127
  9
$INDEXCTL
280
     0
  9
$HIDETEXT
280
     1
  9
$XCLIPFRAME
280
     2
  9
$HALOGAP
280
     0
  9
$OBSCOLOR
 70
   257
  9
$OBSLTYPE
280
     0
  9
$INTERSECTIONDISPLAY
280
     0
  9
$INTERSECTIONCOLOR
 70
   257
  9
$DIMASSOC
280
     2
  9
$PROJECTNAME
  1

  9
$CAMERADISPLAY
290
     0
  9
$LENSLENGTH
 40
50.0
  9
$CAMERAHEIGHT
 40
0.0
  9
$STEPSPERSEC
 40
2.0
  9
$STEPSIZE
 40
6.0
  9
$3DDWFPREC
 40
2.0
  9
$PSOLWIDTH
 40
0.25
  9
$PSOLHEIGHT
 40
4.0
  9
$LOFTANG1
 40
1.570796326794897
  9
$LOFTANG2
 40
1.570796326794897
  9
$LOFTMAG1
 40
0.0
  9
$LOFTMAG2
 40
0.0
  9
$LOFTPARAM
 70
     7
  9
$LOFTNORMALS
280
     1
  9
$LATITUDE
 40
37.795
  9
$LONGITUDE
 40
-122.394
  9
$NORTHDIRECTION
 40
0.0
  9
$TIMEZONE
 70
 -8000
  9
$LIGHTGLYPHDISPLAY
280
     1
  9
$TILEMODELIGHTSYNCH
280
     1
  9
$CMATERIAL
347
3C
  9
$SOLIDHIST
280
     1
  9
$SHOWHIST
280
     1
  9
$DWFFRAME
280
     2
  9
$DGNFRAME
280
     2
  9
$REALWORLDSCALE
290
     1
  9
$INTERFERECOLOR
 62
   256
  9
$CSHADOW
280
     0
  9
$SHADOWPLANELOCATION
 40
0.0
  0
ENDSEC
  0
SECTION
  2
CLASSES
  0
CLASS
  1
ACDBDICTIONARYWDFLT
  2
AcDbDictionaryWithDefault
  3
ObjectDBX Classes
 90
        0
 91
        4
280
     0
281
     0
  0
CLASS
  1
VISUALSTYLE
  2
AcDbVisualStyle
  3
ObjectDBX Classes
 90
     4095
 91
        4
280
     0
281
     0
  0
CLASS
  1
MATERIAL
  2
AcDbMaterial
  3
ObjectDBX Classes
 90
     1153
 91
        4
280
     0
281
     0
  0
CLASS
  1
SUN
  2
AcDbSun
  3
SCENEOE
 90
     1024
 91
        4
280
     0
281
     0
  0
ENDSEC
  0
SECTION
  2
TABLES
  0
TABLE
  2
VPORT
  5
8
330
0
100
AcDbSymbolTable
 70
     1
  0
VPORT
  5
29
330
8
100
AcDbSymbolTableRecord
100
AcDbViewportTableRecord
  2
*Active
 70
     0
 10
0.0
 20
0.0
 11
1.0
 21
1.0
 12
0.0
 22
0.0
 13
0.0
 23
0.0
 14
0.5
 24
0.5
 15
0.5
 25
0.5
 16
0.0
 26
0.0
 36
1.0
 17
105.0007777515277
 27
-148.5000416295416
 37
0.0
 40
297.0000832590831
 41
0.7070757462376333
 42
50.0
 43
0.0
 44
0.0
 50
0.0
 51
0.0
 71
     0
 72
   100
 73
     1
 74
     3
 75
     0
 76
     0
 77
     0
 78
     0
281
     0
 65
     1
110
0.0
120
0.0
130
0.0
111
1.0
121
0.0
131
0.0
112
0.0
122
1.0
132
0.0
 79
     0
146
0.0
 60
     3
 61
     5
292
     1
282
     1
141
0.0
142
0.0
 63
   250
361
3F
  0
ENDTAB
  0
TABLE
  2
LTYPE
  5
5
330
0
100
AcDbSymbolTable
 70
     1
  0
LTYPE
  5
14
330
5
100
AcDbSymbolTableRecord
100
AcDbLinetypeTableRecord
  2
ByBlock
 70
     0
  3

 72
    65
 73
     0
 40
0.0
  0
LTYPE
  5
15
330
5
100
AcDbSymbolTableRecord
100
AcDbLinetypeTableRecord
  2
ByLayer
 70
     0
  3

 72
    65
 73
     0
 40
0.0
  0
LTYPE
  5
16
330
5
100
AcDbSymbolTableRecord
100
AcDbLinetypeTableRecord
  2
Continuous
 70
     0
  3
Solid line
 72
    65
 73
     0
 40
0.0
  0
ENDTAB
  0
TABLE
  2
LAYER
  5
2
330
0
100
AcDbSymbolTable
 70
     2
  0
LAYER
  5
10
330
2
100
AcDbSymbolTableRecord
100
AcDbLayerTableRecord
  2
0
 70
     0
 62
     7
  6
Continuous
370
    -3
390
F
347
3E
  0
LAYER
  5
40
330
2
100
AcDbSymbolTableRecord
100
AcDbLayerTableRecord
  2
_U+30EC_U+30A4_U+30E4_U+30FC 1
 70
     0
 62
     7
  6
Continuous
370
    -3
390
F
347
3E
  0
ENDTAB
  0
TABLE
  2
STYLE
  5
3
330
0
100
AcDbSymbolTable
 70
     1
  0
STYLE
  5
11
330
3
100
AcDbSymbolTableRecord
100
AcDbTextStyleTableRecord
  2
Standard
 70
     0
 40
0.0
 41
1.0
 50
0.0
 71
     0
 42
0.2
  3
txt
  4

  0
ENDTAB
  0
TABLE
  2
VIEW
  5
6
330
0
100
AcDbSymbolTable
 70
     0
  0
ENDTAB
  0
TABLE
  2
UCS
  5
7
330
0
100
AcDbSymbolTable
 70
     0
  0
ENDTAB
  0
TABLE
  2
APPID
  5
9
330
0
100
AcDbSymbolTable
 70
     1
  0
APPID
  5
12
330
9
100
AcDbSymbolTableRecord
100
AcDbRegAppTableRecord
  2
ACAD
 70
     0
  0
ENDTAB
  0
TABLE
  2
DIMSTYLE
  5
A
330
0
100
AcDbSymbolTable
 70
     1
100
AcDbDimStyleTable
  0
DIMSTYLE
105
27
330
A
100
AcDbSymbolTableRecord
100
AcDbDimStyleTableRecord
  2
Standard
 70
     0
178
     0
340
11
  0
ENDTAB
  0
TABLE
  2
BLOCK_RECORD
  5
1
330
0
100
AcDbSymbolTable
 70
     4
  0
BLOCK_RECORD
  5
1F
330
1
100
AcDbSymbolTableRecord
100
AcDbBlockTableRecord
  2
*Model_Space
340
22
 70
     0
280
     1
281
     0
  0
BLOCK_RECORD
  5
1B
330
1
100
AcDbSymbolTableRecord
100
AcDbBlockTableRecord
  2
*Paper_Space
340
1E
 70
     0
280
     1
281
     0
  0
BLOCK_RECORD
  5
23
330
1
100
AcDbSymbolTableRecord
100
AcDbBlockTableRecord
  2
*Paper_Space0
340
26
 70
     0
280
     1
281
     0
  0
BLOCK_RECORD
  5
50
330
1
100
AcDbSymbolTableRecord
100
AcDbBlockTableRecord
  2
block 2
340
0
102
{BLKREFS
331
51
102
}
 70
     0
280
     1
281
     0
  0
BLOCK_RECORD
  5
5F
330
1
100
AcDbSymbolTableRecord
100
AcDbBlockTableRecord
  2
block 3
340
0
102
{BLKREFS
331
60
102
}
 70
     0
280
     1
281
     0
  0
BLOCK_RECORD
  5
87
330
1
100
AcDbSymbolTableRecord
100
AcDbBlockTableRecord
  2
block 4
340
0
102
{BLKREFS
331
88
102
}
 70
     0
280
     1
281
     0
  0
ENDTAB
  0
ENDSEC
  0
SECTION
  2
BLOCKS
  0
BLOCK
  5
20
330
1F
100
AcDbEntity
  8
0
100
AcDbBlockBegin
  2
*Model_Space
 70
     0
 10
0.0
 20
0.0
 30
0.0
  3
*Model_Space
  1

  0
ENDBLK
  5
21
330
1F
100
AcDbEntity
  8
0
100
AcDbBlockEnd
  0
BLOCK
  5
1C
330
1B
100
AcDbEntity
 67
     1
  8
0
100
AcDbBlockBegin
  2
*Paper_Space
 70
     0
 10
0.0
 20
0.0
 30
0.0
  3
*Paper_Space
  1

  0
ENDBLK
  5
1D
330
1B
100
AcDbEntity
 67
     1
  8
0
100
AcDbBlockEnd
  0
BLOCK
  5
24
330
23
100
AcDbEntity
  8
0
100
AcDbBlockBegin
  2
*Paper_Space0
 70
     0
 10
0.0
 20
0.0
 30
0.0
  3
*Paper_Space0
  1

  0
ENDBLK
  5
25
330
23
100
AcDbEntity
  8
0
100
AcDbBlockEnd
  0
BLOCK
  5
52
330
50
100
AcDbEntity
  8
0
100
AcDbBlockBegin
  2
block 2
 70
     0
 10
0.0
 20
0.0
 30
0.0
  3
block 2
  1

  0
SPLINE
  5
54
330
50
100
AcDbEntity
  8
_U+30EC_U+30A4_U+30E4_U+30FC 1
370
     0
100
AcDbSpline
210
0.0
220
0.0
230
1.0
 70
    11
 71
     3
 72
    29
 73
    25
 74
     0
 42
0.0000000001
 43
0.0000000001
 12
1.0
 22
0.0
 32
0.0
 13
1.0
 23
0.0
 33
0.0
 40
0.0
 40
0.0
 40
0.0
 40
0.0
 40
1.0
 40
1.0
 40
1.0
 40
2.0
 40
2.0
 40
2.0
 40
3.0
 40
3.0
 40
3.0
 40
4.0
 40
4.0
 40
4.0
 40
5.0
 40
5.0
 40
5.0
 40
6.0
 40
6.0
 40
6.0
 40
7.0
 40
7.0
 40
7.0
 40
8.0
 40
8.0
 40
8.0
 40
8.0
 10
104.4304904252813
 20
-159.9971245259729
 30
0.0
 10
104.1640122894972
 20
-159.9971245259729
 30
0.0
 10
103.9101087522343
 20
-159.859320706563
 30
0.0
 10
103.9101087522343
 20
-159.5103325339072
 30
0.0
 10
103.9101087522343
 20
-159.2543619393531
 30
0.0
 10
104.0518744314523
 20
-159.1592773039602
 30
0.0
 10
104.1576388628495
 20
-159.0979546043228
 30
0.0
 10
104.0327541515092
 20
-159.0386989619765
 30
0.0
 10
103.9566175412852
 20
-158.9243217918662
 30
0.0
 10
103.9566175412852
 20
-158.7637803422535
 30
0.0
 10
103.9566175412852
 20
-158.488517212982
 30
0.0
 10
104.1555718055583
 20
-158.3531249604117
 30
0.0
 10
104.4304904252813
 20
-158.3531249604117
 30
0.0
 10
104.7140217837173
 20
-158.3531249604117
 30
0.0
 10
104.9043633092774
 20
-158.4971299516952
 30
0.0
 10
104.9043633092774
 20
-158.7637803422535
 30
0.0
 10
104.9043633092774
 20
-158.9243217918662
 30
0.0
 10
104.8261596417622
 20
-159.0386989619765
 30
0.0
 10
104.7012749304219
 20
-159.0979546043228
 30
0.0
 10
104.7901583939414
 20
-159.1485975079559
 30
0.0
 10
104.9488050410371
 20
-159.2440266528973
 30
0.0
 10
104.9488050410371
 20
-159.5061984193248
 30
0.0
 10
104.9488050410371
 20
-159.8806802985715
 30
0.0
 10
104.6695800519576
 20
-159.9971245259729
 30
0.0
 10
104.4304904252813
 20
-159.9971245259729
 30
0.0
  0
SPLINE
  5
55
330
50
100
AcDbEntity
  8
_U+30EC_U+30A4_U+30E4_U+30FC 1
370
     0
100
AcDbSpline
210
0.0
220
0.0
230
1.0
 70
    11
 71
     3
 72
    17
 73
    13
 74
     0
 42
0.0000000001
 43
0.0000000001
 12
1.0
 22
0.0
 32
0.0
 13
1.0
 23
0.0
 33
0.0
 40
0.0
 40
0.0
 40
0.0
 40
0.0
 40
1.0
 40
1.0
 40
1.0
 40
2.0
 40
2.0
 40
2.0
 40
3.0
 40
3.0
 40
3.0
 40
4.0
 40
4.0
 40
4.0
 40
4.0
 10
104.4304904252813
 20
-159.2057860930111
 30
0.0
 10
104.2866576887721
 20
-159.2057860930111
 30
0.0
 10
104.134384468324
 20
-159.2926024992394
 30
0.0
 10
104.134384468324
 20
-159.4955186233206
 30
0.0
 10
104.134384468324
 20
-159.7008463142415
 30
0.0
 10
104.2613362369555
 20
-159.8024766310563
 30
0.0
 10
104.4304904252813
 20
-159.8024766310563
 30
0.0
 10
104.616697836259
 20
-159.8024766310563
 30
0.0
 10
104.7267686370128
 20
-159.6798312317814
 30
0.0
 10
104.7267686370128
 20
-159.5020643047426
 30
0.0
 10
104.7267686370128
 20
-159.2798556459439
 30
0.0
 10
104.5638156205604
 20
-159.2057860930111
 30
0.0
 10
104.4304904252813
 20
-159.2057860930111
 30
0.0
  0
SPLINE
  5
56
330
50
100
AcDbEntity
  8
_U+30EC_U+30A4_U+30E4_U+30FC 1
370
     0
100
AcDbSpline
210
0.0
220
0.0
230
1.0
 70
    11
 71
     3
 72
    17
 73
    13
 74
     0
 42
0.0000000001
 43
0.0000000001
 12
1.0
 22
0.0
 32
0.0
 13
1.0
 23
0.0
 33
0.0
 40
0.0
 40
0.0
 40
0.0
 40
0.0
 40
1.0
 40
1.0
 40
1.0
 40
2.0
 40
2.0
 40
2.0
 40
3.0
 40
3.0
 40
3.0
 40
4.0
 40
4.0
 40
4.0
 40
4.0
 10
104.4304904252813
 20
-158.5457057980372
 30
0.0
 10
104.2654703515378
 20
-158.5457057980372
 30
0.0
 10
104.1808932573749
 20
-158.6407904334301
 30
0.0
 10
104.1808932573749
 20
-158.7761826860004
 30
0.0
 10
104.1808932573749
 20
-158.8991725948238
 30
0.0
 10
104.2528957530166
 20
-159.0176838795164
 30
0.0
 10
104.4304904252813
 20
-159.0176838795164
 30
0.0
 10
104.6082573523202
 20
-159.0176838795164
 30
0.0
 10
104.6800875931876
 20
-158.8991725948238
 30
0.0
 10
104.6800875931876
 20
-158.7761826860004
 30
0.0
 10
104.6800875931876
 20
-158.6407904334301
 30
0.0
 10
104.5934434417336
 20
-158.5457057980372
 30
0.0
 10
104.4304904252813
 20
-158.5457057980372
 30
0.0
  0
HATCH
  5
57
330
50
100
AcDbEntity
  8
_U+30EC_U+30A4_U+30E4_U+30FC 1
 62
   179
420
  2234388
100
AcDbHatch
 10
0.0
 20
0.0
 30
0.0
210
0.0
220
0.0
230
1.0
  2
SOLID
 70
     1
 71
     0
 91
        3
 92
        1
 93
        1
 72
     4
 94
        3
 73
     0
 74
     1
 95
       29
 96
       25
 40
0.0
 40
0.0
 40
0.0
 40
0.0
 40
1.0
 40
1.0
 40
1.0
 40
2.0
 40
2.0
 40
2.0
 40
3.0
 40
3.0
 40
3.0
 40
4.0
 40
4.0
 40
4.0
 40
5.0
 40
5.0
 40
5.0
 40
6.0
 40
6.0
 40
6.0
 40
7.0
 40
7.0
 40
7.0
 40
8.0
 40
8.0
 40
8.0
 40
8.0
 10
104.4304904252813
 20
-159.9971245259729
 10
104.1640122894972
 20
-159.9971245259729
 10
103.9101087522343
 20
-159.859320706563
 10
103.9101087522343
 20
-159.5103325339072
 10
103.9101087522343
 20
-159.2543619393531
 10
104.0518744314523
 20
-159.1592773039602
 10
104.1576388628495
 20
-159.0979546043228
 10
104.0327541515092
 20
-159.0386989619765
 10
103.9566175412852
 20
-158.9243217918662
 10
103.9566175412852
 20
-158.7637803422535
 10
103.9566175412852
 20
-158.488517212982
 10
104.1555718055583
 20
-158.3531249604117
 10
104.4304904252813
 20
-158.3531249604117
 10
104.7140217837173
 20
-158.3531249604117
 10
104.9043633092774
 20
-158.4971299516952
 10
104.9043633092774
 20
-158.7637803422535
 10
104.9043633092774
 20
-158.9243217918662
 10
104.8261596417622
 20
-159.0386989619765
 10
104.7012749304219
 20
-159.0979546043228
 10
104.7901583939414
 20
-159.1485975079559
 10
104.9488050410371
 20
-159.2440266528973
 10
104.9488050410371
 20
-159.5061984193248
 10
104.9488050410371
 20
-159.8806802985715
 10
104.6695800519576
 20
-159.9971245259729
 10
104.4304904252813
 20
-159.9971245259729
 97
        0
 97
        0
 92
        1
 93
        1
 72
     4
 94
        3
 73
     0
 74
     1
 95
       17
 96
       13
 40
0.0
 40
0.0
 40
0.0
 40
0.0
 40
1.0
 40
1.0
 40
1.0
 40
2.0
 40
2.0
 40
2.0
 40
3.0
 40
3.0
 40
3.0
 40
4.0
 40
4.0
 40
4.0
 40
4.0
 10
104.4304904252813
 20
-159.2057860930111
 10
104.2866576887721
 20
-159.2057860930111
 10
104.134384468324
 20
-159.2926024992394
 10
104.134384468324
 20
-159.4955186233206
 10
104.134384468324
 20
-159.7008463142415
 10
104.2613362369555
 20
-159.8024766310563
 10
104.4304904252813
 20
-159.8024766310563
 10
104.616697836259
 20
-159.8024766310563
 10
104.7267686370128
 20
-159.6798312317814
 10
104.7267686370128
 20
-159.5020643047426
 10
104.7267686370128
 20
-159.2798556459439
 10
104.5638156205604
 20
-159.2057860930111
 10
104.4304904252813
 20
-159.2057860930111
 97
        0
 97
        0
 92
        1
 93
        1
 72
     4
 94
        3
 73
     0
 74
     1
 95
       17
 96
       13
 40
0.0
 40
0.0
 40
0.0
 40
0.0
 40
1.0
 40
1.0
 40
1.0
 40
2.0
 40
2.0
 40
2.0
 40
3.0
 40
3.0
 40
3.0
 40
4.0
 40
4.0
 40
4.0
 40
4.0
 10
104.4304904252813
 20
-158.5457057980372
 10
104.2654703515378
 20
-158.5457057980372
 10
104.1808932573749
 20
-158.6407904334301
 10
104.1808932573749
 20
-158.7761826860004
 10
104.1808932573749
 20
-158.8991725948238
 10
104.2528957530166
 20
-159.0176838795164
 10
104.4304904252813
 20
-159.0176838795164
 10
104.6082573523202
 20
-159.0176838795164
 10
104.6800875931876
 20
-158.8991725948238
 10
104.6800875931876
 20
-158.7761826860004
 10
104.6800875931876
 20
-158.6407904334301
 10
104.5934434417336
 20
-158.5457057980372
 10
104.4304904252813
 20
-158.5457057980372
 97
        0
 97
        0
 75
     2
 76
     1
 98
        0
  0
SPLINE
  5
58
330
50
100
AcDbEntity
  8
_U+30EC_U+30A4_U+30E4_U+30FC 1
370
     0
100
AcDbSpline
210
0.0
220
0.0
230
1.0
 70
    11
 71
     3
 72
    44
 73
    40
 74
     0
 42
0.0000000001
 43
0.0000000001
 12
1.0
 22
0.0
 32
0.0
 13
1.0
 23
0.0
 33
0.0
 40
0.0
 40
0.0
 40
0.0
 40
0.0
 40
1.0
 40
1.0
 40
1.0
 40
2.0
 40
2.0
 40
2.0
 40
3.0
 40
3.0
 40
3.0
 40
4.0
 40
4.0
 40
4.0
 40
5.0
 40
5.0
 40
5.0
 40
6.0
 40
6.0
 40
6.0
 40
7.0
 40
7.0
 40
7.0
 40
8.0
 40
8.0
 40
8.0
 40
9.0
 40
9.0
 40
9.0
 40
10.0
 40
10.0
 40
10.0
 40
11.0
 40
11.0
 40
11.0
 40
12.0
 40
12.0
 40
12.0
 40
13.0
 40
13.0
 40
13.0
 40
13.0
 10
106.1213432894419
 20
-159.9461371127913
 30
0.0
 10
106.0979166401422
 20
-159.9016953810315
 30
0.0
 10
106.0772460672307
 20
-159.8489854201072
 30
0.0
 10
106.074834500391
 20
-159.6181640225955
 30
0.0
 10
106.0707003858087
 20
-159.3749402813368
 30
0.0
 10
106.0114447434624
 20
-159.3053493525348
 30
0.0
 10
105.8336778164235
 20
-159.3053493525348
 30
0.0
 10
105.8336778164235
 20
-159.3053493525348
 30
0.0
 10
105.4254340014214
 20
-159.3053493525348
 30
0.0
 10
105.4254340014214
 20
-159.3053493525348
 30
0.0
 10
105.4254340014214
 20
-159.3053493525348
 30
0.0
 10
105.4254340014214
 20
-159.9461371127913
 30
0.0
 10
105.4254340014214
 20
-159.9461371127913
 30
0.0
 10
105.4254340014214
 20
-159.9461371127913
 30
0.0
 10
105.1906507441016
 20
-159.9461371127913
 30
0.0
 10
105.1906507441016
 20
-159.9461371127913
 30
0.0
 10
105.1906507441016
 20
-159.9461371127913
 30
0.0
 10
105.1906507441016
 20
-158.4020453163023
 30
0.0
 10
105.1906507441016
 20
-158.4020453163023
 30
0.0
 10
105.1906507441016
 20
-158.4020453163023
 30
0.0
 10
105.8653726948878
 20
-158.4020453163023
 30
0.0
 10
105.8653726948878
 20
-158.4020453163023
 30
0.0
 10
106.1723307026236
 20
-158.4020453163023
 30
0.0
 10
106.3394178336582
 20
-158.5732665619192
 30
0.0
 10
106.3394178336582
 20
-158.8292371564733
 30
0.0
 10
106.3394178336582
 20
-158.8798800601064
 30
0.0
 10
106.3308050949451
 20
-158.9625623517524
 30
0.0
 10
106.2863633631854
 20
-159.0428330765587
 30
0.0
 10
106.2274522303876
 20
-159.1465304506648
 30
0.0
 10
106.1616509066193
 20
-159.1654784758337
 30
0.0
 10
106.1003282069819
 20
-159.1823594437114
 30
0.0
 10
106.2377875168433
 20
-159.2247341181799
 30
0.0
 10
106.3053113883542
 20
-159.2736544740705
 30
0.0
 10
106.3097900124851
 20
-159.5885362014223
 30
0.0
 10
106.3139241270674
 20
-159.859320706563
 30
0.0
 10
106.3500976296625
 20
-159.8913600945758
 30
0.0
 10
106.4176215011734
 20
-159.9461371127913
 30
0.0
 10
106.4176215011734
 20
-159.9461371127913
 30
0.0
 10
106.1213432894419
 20
-159.9461371127913
 30
0.0
 10
106.1213432894419
 20
-159.9461371127913
 30
0.0
  0
SPLINE
  5
59
330
50
100
AcDbEntity
  8
_U+30EC_U+30A4_U+30E4_U+30FC 1
370
     0
100
AcDbSpline
210
0.0
220
0.0
230
1.0
 70
    11
 71
     3
 72
    20
 73
    16
 74
     0
 42
0.0000000001
 43
0.0000000001
 12
1.0
 22
0.0
 32
0.0
 13
1.0
 23
0.0
 33
0.0
 40
0.0
 40
0.0
 40
0.0
 40
0.0
 40
1.0
 40
1.0
 40
1.0
 40
2.0
 40
2.0
 40
2.0
 40
3.0
 40
3.0
 40
3.0
 40
4.0
 40
4.0
 40
4.0
 40
5.0
 40
5.0
 40
5.0
 40
5.0
 10
105.8698513190187
 20
-158.6135741790966
 30
0.0
 10
105.8698513190187
 20
-158.6135741790966
 30
0.0
 10
105.4254340014214
 20
-158.6135741790966
 30
0.0
 10
105.4254340014214
 20
-158.6135741790966
 30
0.0
 10
105.4254340014214
 20
-158.6135741790966
 30
0.0
 10
105.4254340014214
 20
-159.0938204897404
 30
0.0
 10
105.4254340014214
 20
-159.0938204897404
 30
0.0
 10
105.4254340014214
 20
-159.0938204897404
 30
0.0
 10
105.8677842617275
 20
-159.0938204897404
 30
0.0
 10
105.8677842617275
 20
-159.0938204897404
 30
0.0
 10
105.9670030117027
 20
-159.0938204897404
 30
0.0
 10
106.102395264273
 20
-159.0176838795164
 30
0.0
 10
106.102395264273
 20
-158.846118124351
 30
0.0
 10
106.102395264273
 20
-158.7679144568358
 30
0.0
 10
106.0686333285176
 20
-158.6135741790966
 30
0.0
 10
105.8698513190187
 20
-158.6135741790966
 30
0.0
  0
HATCH
  5
5A
330
50
100
AcDbEntity
  8
_U+30EC_U+30A4_U+30E4_U+30FC 1
 62
   179
420
  2234388
100
AcDbHatch
 10
0.0
 20
0.0
 30
0.0
210
0.0
220
0.0
230
1.0
  2
SOLID
 70
     1
 71
     0
 91
        2
 92
        1
 93
        1
 72
     4
 94
        3
 73
     0
 74
     1
 95
       44
 96
       40
 40
0.0
 40
0.0
 40
0.0
 40
0.0
 40
1.0
 40
1.0
 40
1.0
 40
2.0
 40
2.0
 40
2.0
 40
3.0
 40
3.0
 40
3.0
 40
4.0
 40
4.0
 40
4.0
 40
5.0
 40
5.0
 40
5.0
 40
6.0
 40
6.0
 40
6.0
 40
7.0
 40
7.0
 40
7.0
 40
8.0
 40
8.0
 40
8.0
 40
9.0
 40
9.0
 40
9.0
 40
10.0
 40
10.0
 40
10.0
 40
11.0
 40
11.0
 40
11.0
 40
12.0
 40
12.0
 40
12.0
 40
13.0
 40
13.0
 40
13.0
 40
13.0
 10
106.1213432894419
 20
-159.9461371127913
 10
106.0979166401422
 20
-159.9016953810315
 10
106.0772460672307
 20
-159.8489854201072
 10
106.074834500391
 20
-159.6181640225955
 10
106.0707003858087
 20
-159.3749402813368
 10
106.0114447434624
 20
-159.3053493525348
 10
105.8336778164235
 20
-159.3053493525348
 10
105.8336778164235
 20
-159.3053493525348
 10
105.4254340014214
 20
-159.3053493525348
 10
105.4254340014214
 20
-159.3053493525348
 10
105.4254340014214
 20
-159.3053493525348
 10
105.4254340014214
 20
-159.9461371127913
 10
105.4254340014214
 20
-159.9461371127913
 10
105.4254340014214
 20
-159.9461371127913
 10
105.1906507441016
 20
-159.9461371127913
 10
105.1906507441016
 20
-159.9461371127913
 10
105.1906507441016
 20
-159.9461371127913
 10
105.1906507441016
 20
-158.4020453163023
 10
105.1906507441016
 20
-158.4020453163023
 10
105.1906507441016
 20
-158.4020453163023
 10
105.8653726948878
 20
-158.4020453163023
 10
105.8653726948878
 20
-158.4020453163023
 10
106.1723307026236
 20
-158.4020453163023
 10
106.3394178336582
 20
-158.5732665619192
 10
106.3394178336582
 20
-158.8292371564733
 10
106.3394178336582
 20
-158.8798800601064
 10
106.3308050949451
 20
-158.9625623517524
 10
106.2863633631854
 20
-159.0428330765587
 10
106.2274522303876
 20
-159.1465304506648
 10
106.1616509066193
 20
-159.1654784758337
 10
106.1003282069819
 20
-159.1823594437114
 10
106.2377875168433
 20
-159.2247341181799
 10
106.3053113883542
 20
-159.2736544740705
 10
106.3097900124851
 20
-159.5885362014223
 10
106.3139241270674
 20
-159.859320706563
 10
106.3500976296625
 20
-159.8913600945758
 10
106.4176215011734
 20
-159.9461371127913
 10
106.4176215011734
 20
-159.9461371127913
 10
106.1213432894419
 20
-159.9461371127913
 10
106.1213432894419
 20
-159.9461371127913
 97
        0
 97
        0
 92
        1
 93
        1
 72
     4
 94
        3
 73
     0
 74
     1
 95
       20
 96
       16
 40
0.0
 40
0.0
 40
0.0
 40
0.0
 40
1.0
 40
1.0
 40
1.0
 40
2.0
 40
2.0
 40
2.0
 40
3.0
 40
3.0
 40
3.0
 40
4.0
 40
4.0
 40
4.0
 40
5.0
 40
5.0
 40
5.0
 40
5.0
 10
105.8698513190187
 20
-158.6135741790966
 10
105.8698513190187
 20
-158.6135741790966
 10
105.4254340014214
 20
-158.6135741790966
 10
105.4254340014214
 20
-158.6135741790966
 10
105.4254340014214
 20
-158.6135741790966
 10
105.4254340014214
 20
-159.0938204897404
 10
105.4254340014214
 20
-159.0938204897404
 10
105.4254340014214
 20
-159.0938204897404
 10
105.8677842617275
 20
-159.0938204897404
 10
105.8677842617275
 20
-159.0938204897404
 10
105.9670030117027
 20
-159.0938204897404
 10
106.102395264273
 20
-159.0176838795164
 10
106.102395264273
 20
-158.846118124351
 10
106.102395264273
 20
-158.7679144568358
 10
106.0686333285176
 20
-158.6135741790966
 10
105.8698513190187
 20
-158.6135741790966
 97
        0
 97
        0
 75
     2
 76
     1
 98
        0
  0
ENDBLK
  5
53
330
50
100
AcDbEntity
  8
0
100
AcDbBlockEnd
  0
BLOCK
  5
61
330
5F
100
AcDbEntity
  8
0
100
AcDbBlockBegin
  2
block 3
 70
     0
 10
0.0
 20
0.0
 30
0.0
  3
block 3
  1

  0
SPLINE
  5
63
330
5F
100
AcDbEntity
  8
_U+30EC_U+30A4_U+30E4_U+30FC 1
370
     0
100
AcDbSpline
210
0.0
220
0.0
230
1.0
 70
    11
 71
     3
 72
    62
 73
    58
 74
     0
 42
0.0000000001
 43
0.0000000001
 12
1.0
 22
0.0
 32
0.0
 13
1.0
 23
0.0
 33
0.0
 40
0.0
 40
0.0
 40
0.0
 40
0.0
 40
1.0
 40
1.0
 40
1.0
 40
2.0
 40
2.0
 40
2.0
 40
3.0
 40
3.0
 40
3.0
 40
4.0
 40
4.0
 40
4.0
 40
5.0
 40
5.0
 40
5.0
 40
6.0
 40
6.0
 40
6.0
 40
7.0
 40
7.0
 40
7.0
 40
8.0
 40
8.0
 40
8.0
 40
9.0
 40
9.0
 40
9.0
 40
10.0
 40
10.0
 40
10.0
 40
11.0
 40
11.0
 40
11.0
 40
12.0
 40
12.0
 40
12.0
 40
13.0
 40
13.0
 40
13.0
 40
14.0
 40
14.0
 40
14.0
 40
15.0
 40
15.0
 40
15.0
 40
16.0
 40
16.0
 40
16.0
 40
17.0
 40
17.0
 40
17.0
 40
18.0
 40
18.0
 40
18.0
 40
19.0
 40
19.0
 40
19.0
 40
19.0
 10
99.77943926541973
 20
-135.2275770061237
 30
0.0
 10
99.68418237525258
 20
-135.2275770061237
 30
0.0
 10
99.46628008581052
 20
-135.2063896688894
 30
0.0
 10
99.34156762924448
 20
-135.0201822579116
 30
0.0
 10
99.2674980763116
 20
-134.9080443998668
 30
0.0
 10
99.26319170695504
 20
-134.8086533951173
 30
0.0
 10
99.25905759237274
 20
-134.7240763009544
 30
0.0
 10
99.25905759237274
 20
-134.7240763009544
 30
0.0
 10
99.47902693910594
 20
-134.7240763009544
 30
0.0
 10
99.47902693910594
 20
-134.7240763009544
 30
0.0
 10
99.48109399639709
 20
-134.7981458538873
 30
0.0
 10
99.49177379240136
 20
-135.032929111207
 30
0.0
 10
99.77513289606317
 20
-135.032929111207
 30
0.0
 10
99.9127644606989
 20
-135.032929111207
 30
0.0
 10
100.0650376811469
 20
-134.9631659276307
 30
0.0
 10
100.0650376811469
 20
-134.7345838421844
 30
0.0
 10
100.0650376811469
 20
-134.6183118695572
 30
0.0
 10
100.0269693760349
 20
-134.569563768441
 30
0.0
 10
99.99527449757063
 20
-134.5378688899766
 30
0.0
 10
99.92120494463776
 20
-134.4637993370438
 30
0.0
 10
99.80476071723632
 20
-134.4512247385226
 30
0.0
 10
99.74981144424657
 20
-134.4512247385226
 30
0.0
 10
99.7308634190777
 20
-134.4512247385226
 30
0.0
 10
99.69486217125684
 20
-134.4532917958138
 30
0.0
 10
99.66730140737485
 20
-134.4574259103961
 30
0.0
 10
99.66730140737485
 20
-134.4574259103961
 30
0.0
 10
99.66730140737485
 20
-134.2627780154795
 30
0.0
 10
99.66730140737485
 20
-134.2627780154795
 30
0.0
 10
99.70536971248686
 20
-134.2691514421272
 30
0.0
 10
99.74774438695543
 20
-134.2713907541926
 30
0.0
 10
99.75411781360314
 20
-134.2713907541926
 30
0.0
 10
99.81957462782289
 20
-134.2713907541926
 30
0.0
 10
100.0185288920961
 20
-134.2502034169583
 30
0.0
 10
100.0185288920961
 20
-134.0131808475731
 30
0.0
 10
100.0185288920961
 20
-133.8355861753085
 30
0.0
 10
99.88727075410804
 20
-133.7804646475445
 30
0.0
 10
99.77737220812858
 20
-133.7804646475445
 30
0.0
 10
99.51296112963566
 20
-133.7804646475445
 30
0.0
 10
99.50434839092253
 20
-134.0131808475731
 30
0.0
 10
99.50021427634023
 20
-134.0851833432148
 30
0.0
 10
99.50021427634023
 20
-134.0851833432148
 30
0.0
 10
99.29712589748475
 20
-134.0851833432148
 30
0.0
 10
99.29712589748475
 20
-134.0851833432148
 30
0.0
 10
99.30556638142362
 20
-133.9602986318745
 30
0.0
 10
99.33312714530561
 20
-133.5837496953367
 30
0.0
 10
99.78994680664974
 20
-133.5837496953367
 30
0.0
 10
100.0142225227395
 20
-133.5837496953367
 30
0.0
 10
100.255379206707
 20
-133.7107014639682
 30
0.0
 10
100.255379206707
 20
-134.0068074209254
 30
0.0
 10
100.255379206707
 20
-134.1930148319031
 30
0.0
 10
100.1602945713141
 20
-134.2755248687749
 30
0.0
 10
100.0607313117904
 20
-134.3368475684123
 30
0.0
 10
100.1222262662021
 20
-134.3644083322943
 30
0.0
 10
100.3041273078233
 20
-134.4448513118749
 30
0.0
 10
100.3041273078233
 20
-134.7220092436633
 30
0.0
 10
100.3041273078233
 20
-135.060489875089
 30
0.0
 10
100.0565971972081
 20
-135.2275770061237
 30
0.0
 10
99.77943926541973
 20
-135.2275770061237
 30
0.0
  0
HATCH
  5
64
330
5F
100
AcDbEntity
  8
_U+30EC_U+30A4_U+30E4_U+30FC 1
 62
   179
420
  2234388
100
AcDbHatch
 10
0.0
 20
0.0
 30
0.0
210
0.0
220
0.0
230
1.0
  2
SOLID
 70
     1
 71
     0
 91
        1
 92
        1
 93
        1
 72
     4
 94
        3
 73
     0
 74
     1
 95
       62
 96
       58
 40
0.0
 40
0.0
 40
0.0
 40
0.0
 40
1.0
 40
1.0
 40
1.0
 40
2.0
 40
2.0
 40
2.0
 40
3.0
 40
3.0
 40
3.0
 40
4.0
 40
4.0
 40
4.0
 40
5.0
 40
5.0
 40
5.0
 40
6.0
 40
6.0
 40
6.0
 40
7.0
 40
7.0
 40
7.0
 40
8.0
 40
8.0
 40
8.0
 40
9.0
 40
9.0
 40
9.0
 40
10.0
 40
10.0
 40
10.0
 40
11.0
 40
11.0
 40
11.0
 40
12.0
 40
12.0
 40
12.0
 40
13.0
 40
13.0
 40
13.0
 40
14.0
 40
14.0
 40
14.0
 40
15.0
 40
15.0
 40
15.0
 40
16.0
 40
16.0
 40
16.0
 40
17.0
 40
17.0
 40
17.0
 40
18.0
 40
18.0
 40
18.0
 40
19.0
 40
19.0
 40
19.0
 40
19.0
 10
99.77943926541973
 20
-135.2275770061237
 10
99.68418237525258
 20
-135.2275770061237
 10
99.46628008581052
 20
-135.2063896688894
 10
99.34156762924448
 20
-135.0201822579116
 10
99.2674980763116
 20
-134.9080443998668
 10
99.26319170695504
 20
-134.8086533951173
 10
99.25905759237274
 20
-134.7240763009544
 10
99.25905759237274
 20
-134.7240763009544
 10
99.47902693910594
 20
-134.7240763009544
 10
99.47902693910594
 20
-134.7240763009544
 10
99.48109399639709
 20
-134.7981458538873
 10
99.49177379240136
 20
-135.032929111207
 10
99.77513289606317
 20
-135.032929111207
 10
99.9127644606989
 20
-135.032929111207
 10
100.0650376811469
 20
-134.9631659276307
 10
100.0650376811469
 20
-134.7345838421844
 10
100.0650376811469
 20
-134.6183118695572
 10
100.0269693760349
 20
-134.569563768441
 10
99.99527449757063
 20
-134.5378688899766
 10
99.92120494463776
 20
-134.4637993370438
 10
99.80476071723632
 20
-134.4512247385226
 10
99.74981144424657
 20
-134.4512247385226
 10
99.7308634190777
 20
-134.4512247385226
 10
99.69486217125684
 20
-134.4532917958138
 10
99.66730140737485
 20
-134.4574259103961
 10
99.66730140737485
 20
-134.4574259103961
 10
99.66730140737485
 20
-134.2627780154795
 10
99.66730140737485
 20
-134.2627780154795
 10
99.70536971248686
 20
-134.2691514421272
 10
99.74774438695543
 20
-134.2713907541926
 10
99.75411781360314
 20
-134.2713907541926
 10
99.81957462782289
 20
-134.2713907541926
 10
100.0185288920961
 20
-134.2502034169583
 10
100.0185288920961
 20
-134.0131808475731
 10
100.0185288920961
 20
-133.8355861753085
 10
99.88727075410804
 20
-133.7804646475445
 10
99.77737220812858
 20
-133.7804646475445
 10
99.51296112963566
 20
-133.7804646475445
 10
99.50434839092253
 20
-134.0131808475731
 10
99.50021427634023
 20
-134.0851833432148
 10
99.50021427634023
 20
-134.0851833432148
 10
99.29712589748475
 20
-134.0851833432148
 10
99.29712589748475
 20
-134.0851833432148
 10
99.30556638142362
 20
-133.9602986318745
 10
99.33312714530561
 20
-133.5837496953367
 10
99.78994680664974
 20
-133.5837496953367
 10
100.0142225227395
 20
-133.5837496953367
 10
100.255379206707
 20
-133.7107014639682
 10
100.255379206707
 20
-134.0068074209254
 10
100.255379206707
 20
-134.1930148319031
 10
100.1602945713141
 20
-134.2755248687749
 10
100.0607313117904
 20
-134.3368475684123
 10
100.1222262662021
 20
-134.3644083322943
 10
100.3041273078233
 20
-134.4448513118749
 10
100.3041273078233
 20
-134.7220092436633
 10
100.3041273078233
 20
-135.060489875089
 10
100.0565971972081
 20
-135.2275770061237
 10
99.77943926541973
 20
-135.2275770061237
 97
        0
 97
        0
 75
     2
 76
     1
 98
        0
  0
POLYLINE
  5
65
330
5F
100
AcDbEntity
  8
_U+30EC_U+30A4_U+30E4_U+30FC 1
370
     0
100
AcDb2dPolyline
 66
     1
 10
0.0
 20
0.0
 30
0.0
  0
VERTEX
  5
66
330
65
100
AcDbEntity
  8
_U+30EC_U+30A4_U+30E4_U+30FC 1
370
     0
100
AcDbVertex
100
AcDb2dVertex
 10
100.5247856736535
 20
-135.1767618477162
 30
0.0
  0
VERTEX
  5
67
330
65
100
AcDbEntity
  8
_U+30EC_U+30A4_U+30E4_U+30FC 1
370
     0
100
AcDbVertex
100
AcDb2dVertex
 10
100.5247856736535
 20
-134.9250976225187
 30
0.0
  0
VERTEX
  5
68
330
65
100
AcDbEntity
  8
_U+30EC_U+30A4_U+30E4_U+30FC 1
370
     0
100
AcDbVertex
100
AcDb2dVertex
 10
100.776449898851
 20
-134.9250976225187
 30
0.0
  0
VERTEX
  5
69
330
65
100
AcDbEntity
  8
_U+30EC_U+30A4_U+30E4_U+30FC 1
370
     0
100
AcDbVertex
100
AcDb2dVertex
 10
100.776449898851
 20
-135.1767618477162
 30
0.0
  0
VERTEX
  5
6A
330
65
100
AcDbEntity
  8
_U+30EC_U+30A4_U+30E4_U+30FC 1
370
     0
100
AcDbVertex
100
AcDb2dVertex
 10
100.5247856736535
 20
-135.1767618477162
 30
0.0
  0
SEQEND
  5
6B
330
65
100
AcDbEntity
  8
_U+30EC_U+30A4_U+30E4_U+30FC 1
370
     0
  0
HATCH
  5
6C
330
5F
100
AcDbEntity
  8
_U+30EC_U+30A4_U+30E4_U+30FC 1
 62
   179
420
  2234388
100
AcDbHatch
 10
0.0
 20
0.0
 30
0.0
210
0.0
220
0.0
230
1.0
  2
SOLID
 70
     1
 71
     0
 91
        1
 92
        1
 93
        4
 72
     1
 10
100.5247856736535
 20
-135.1767618477162
 11
100.5247856736535
 21
-134.9250976225187
 72
     1
 10
100.5247856736535
 20
-134.9250976225187
 11
100.776449898851
 21
-134.9250976225187
 72
     1
 10
100.776449898851
 20
-134.9250976225187
 11
100.776449898851
 21
-135.1767618477162
 72
     1
 10
100.776449898851
 20
-135.1767618477162
 11
100.5247856736535
 21
-135.1767618477162
 97
        0
 75
     2
 76
     1
 98
        0
  0
SPLINE
  5
6D
330
5F
100
AcDbEntity
  8
_U+30EC_U+30A4_U+30E4_U+30FC 1
370
     0
100
AcDbSpline
210
0.0
220
0.0
230
1.0
 70
    11
 71
     3
 72
    53
 73
    49
 74
     0
 42
0.0000000001
 43
0.0000000001
 12
1.0
 22
0.0
 32
0.0
 13
1.0
 23
0.0
 33
0.0
 40
0.0
 40
0.0
 40
0.0
 40
0.0
 40
1.0
 40
1.0
 40
1.0
 40
2.0
 40
2.0
 40
2.0
 40
3.0
 40
3.0
 40
3.0
 40
4.0
 40
4.0
 40
4.0
 40
5.0
 40
5.0
 40
5.0
 40
6.0
 40
6.0
 40
6.0
 40
7.0
 40
7.0
 40
7.0
 40
8.0
 40
8.0
 40
8.0
 40
9.0
 40
9.0
 40
9.0
 40
10.0
 40
10.0
 40
10.0
 40
11.0
 40
11.0
 40
11.0
 40
12.0
 40
12.0
 40
12.0
 40
13.0
 40
13.0
 40
13.0
 40
14.0
 40
14.0
 40
14.0
 40
15.0
 40
15.0
 40
15.0
 40
16.0
 40
16.0
 40
16.0
 40
16.0
 10
101.4940632884286
 20
-135.2275770061237
 30
0.0
 10
101.4156873661391
 20
-135.2275770061237
 30
0.0
 10
101.3142293040985
 20
-135.2105237834717
 30
0.0
 10
101.2125989872837
 20
-135.1471340265431
 30
0.0
 10
101.0391384296013
 20
-135.0370632257894
 30
0.0
 10
101.017951092367
 20
-134.9059773425756
 30
0.0
 10
100.9990030671982
 20
-134.7981458538873
 30
0.0
 10
100.9990030671982
 20
-134.7981458538873
 30
0.0
 10
101.2210394712225
 20
-134.7981458538873
 30
0.0
 10
101.2210394712225
 20
-134.7981458538873
 30
0.0
 10
101.2761609989865
 20
-134.9969278633862
 30
0.0
 10
101.403112767618
 20
-135.0265556845593
 30
0.0
 10
101.4961303457197
 20
-135.0265556845593
 30
0.0
 10
101.6358289676466
 20
-135.0265556845593
 30
0.0
 10
101.7881021880946
 20
-134.9271646798099
 30
0.0
 10
101.7881021880946
 20
-134.6944484797812
 30
0.0
 10
101.7881021880946
 20
-134.4384778852272
 30
0.0
 10
101.6082682037646
 20
-134.3687147016509
 30
0.0
 10
101.4876898617809
 20
-134.3687147016509
 30
0.0
 10
101.4559949833166
 20
-134.3687147016509
 30
0.0
 10
101.3142293040985
 20
-134.3687147016509
 30
0.0
 10
101.2253458405791
 20
-134.4977335275735
 30
0.0
 10
101.2253458405791
 20
-134.4977335275735
 30
0.0
 10
101.0498182256056
 20
-134.4786132476304
 30
0.0
 10
101.0498182256056
 20
-134.4786132476304
 30
0.0
 10
101.0498182256056
 20
-134.4786132476304
 30
0.0
 10
101.1703965675893
 20
-133.632497796453
 30
0.0
 10
101.1703965675893
 20
-133.632497796453
 30
0.0
 10
101.1703965675893
 20
-133.632497796453
 30
0.0
 10
101.9488158924815
 20
-133.632497796453
 30
0.0
 10
101.9488158924815
 20
-133.632497796453
 30
0.0
 10
101.9488158924815
 20
-133.632497796453
 30
0.0
 10
101.9488158924815
 20
-133.8271456913696
 30
0.0
 10
101.9488158924815
 20
-133.8271456913696
 30
0.0
 10
101.9488158924815
 20
-133.8271456913696
 30
0.0
 10
101.3331773292674
 20
-133.8271456913696
 30
0.0
 10
101.3331773292674
 20
-133.8271456913696
 30
0.0
 10
101.3331773292674
 20
-133.8271456913696
 30
0.0
 10
101.2677205150477
 20
-134.2502034169583
 30
0.0
 10
101.2677205150477
 20
-134.2502034169583
 30
0.0
 10
101.3290432146851
 20
-134.2162692264286
 30
0.0
 10
101.4115532515568
 20
-134.1761338640254
 30
0.0
 10
101.5298922814752
 20
-134.1761338640254
 30
0.0
 10
101.7837958187381
 20
-134.1761338640254
 30
0.0
 10
102.0208183881233
 20
-134.3623412750032
 30
0.0
 10
102.0208183881233
 20
-134.6753281998381
 30
0.0
 10
102.0208183881233
 20
-134.9927937488039
 30
0.0
 10
101.7965426720335
 20
-135.2275770061237
 30
0.0
 10
101.4940632884286
 20
-135.2275770061237
 30
0.0
  0
HATCH
  5
6E
330
5F
100
AcDbEntity
  8
_U+30EC_U+30A4_U+30E4_U+30FC 1
 62
   179
420
  2234388
100
AcDbHatch
 10
0.0
 20
0.0
 30
0.0
210
0.0
220
0.0
230
1.0
  2
SOLID
 70
     1
 71
     0
 91
        1
 92
        1
 93
        1
 72
     4
 94
        3
 73
     0
 74
     1
 95
       53
 96
       49
 40
0.0
 40
0.0
 40
0.0
 40
0.0
 40
1.0
 40
1.0
 40
1.0
 40
2.0
 40
2.0
 40
2.0
 40
3.0
 40
3.0
 40
3.0
 40
4.0
 40
4.0
 40
4.0
 40
5.0
 40
5.0
 40
5.0
 40
6.0
 40
6.0
 40
6.0
 40
7.0
 40
7.0
 40
7.0
 40
8.0
 40
8.0
 40
8.0
 40
9.0
 40
9.0
 40
9.0
 40
10.0
 40
10.0
 40
10.0
 40
11.0
 40
11.0
 40
11.0
 40
12.0
 40
12.0
 40
12.0
 40
13.0
 40
13.0
 40
13.0
 40
14.0
 40
14.0
 40
14.0
 40
15.0
 40
15.0
 40
15.0
 40
16.0
 40
16.0
 40
16.0
 40
16.0
 10
101.4940632884286
 20
-135.2275770061237
 10
101.4156873661391
 20
-135.2275770061237
 10
101.3142293040985
 20
-135.2105237834717
 10
101.2125989872837
 20
-135.1471340265431
 10
101.0391384296013
 20
-135.0370632257894
 10
101.017951092367
 20
-134.9059773425756
 10
100.9990030671982
 20
-134.7981458538873
 10
100.9990030671982
 20
-134.7981458538873
 10
101.2210394712225
 20
-134.7981458538873
 10
101.2210394712225
 20
-134.7981458538873
 10
101.2761609989865
 20
-134.9969278633862
 10
101.403112767618
 20
-135.0265556845593
 10
101.4961303457197
 20
-135.0265556845593
 10
101.6358289676466
 20
-135.0265556845593
 10
101.7881021880946
 20
-134.9271646798099
 10
101.7881021880946
 20
-134.6944484797812
 10
101.7881021880946
 20
-134.4384778852272
 10
101.6082682037646
 20
-134.3687147016509
 10
101.4876898617809
 20
-134.3687147016509
 10
101.4559949833166
 20
-134.3687147016509
 10
101.3142293040985
 20
-134.3687147016509
 10
101.2253458405791
 20
-134.4977335275735
 10
101.2253458405791
 20
-134.4977335275735
 10
101.0498182256056
 20
-134.4786132476304
 10
101.0498182256056
 20
-134.4786132476304
 10
101.0498182256056
 20
-134.4786132476304
 10
101.1703965675893
 20
-133.632497796453
 10
101.1703965675893
 20
-133.632497796453
 10
101.1703965675893
 20
-133.632497796453
 10
101.9488158924815
 20
-133.632497796453
 10
101.9488158924815
 20
-133.632497796453
 10
101.9488158924815
 20
-133.632497796453
 10
101.9488158924815
 20
-133.8271456913696
 10
101.9488158924815
 20
-133.8271456913696
 10
101.9488158924815
 20
-133.8271456913696
 10
101.3331773292674
 20
-133.8271456913696
 10
101.3331773292674
 20
-133.8271456913696
 10
101.3331773292674
 20
-133.8271456913696
 10
101.2677205150477
 20
-134.2502034169583
 10
101.2677205150477
 20
-134.2502034169583
 10
101.3290432146851
 20
-134.2162692264286
 10
101.4115532515568
 20
-134.1761338640254
 10
101.5298922814752
 20
-134.1761338640254
 10
101.7837958187381
 20
-134.1761338640254
 10
102.0208183881233
 20
-134.3623412750032
 10
102.0208183881233
 20
-134.6753281998381
 10
102.0208183881233
 20
-134.9927937488039
 10
101.7965426720335
 20
-135.2275770061237
 10
101.4940632884286
 20
-135.2275770061237
 97
        0
 97
        0
 75
     2
 76
     1
 98
        0
  0
ENDBLK
  5
62
330
5F
100
AcDbEntity
  8
0
100
AcDbBlockEnd
  0
BLOCK
  5
89
330
87
100
AcDbEntity
  8
0
100
AcDbBlockBegin
  2
block 4
 70
     0
 10
0.0
 20
0.0
 30
0.0
  3
block 4
  1

  0
SPLINE
  5
8B
330
87
100
AcDbEntity
  8
_U+30EC_U+30A4_U+30E4_U+30FC 1
370
     0
100
AcDbSpline
210
0.0
220
0.0
230
1.0
 70
    11
 71
     3
 72
    53
 73
    49
 74
     0
 42
0.0000000001
 43
0.0000000001
 12
1.0
 22
0.0
 32
0.0
 13
1.0
 23
0.0
 33
0.0
 40
0.0
 40
0.0
 40
0.0
 40
0.0
 40
1.0
 40
1.0
 40
1.0
 40
2.0
 40
2.0
 40
2.0
 40
3.0
 40
3.0
 40
3.0
 40
4.0
 40
4.0
 40
4.0
 40
5.0
 40
5.0
 40
5.0
 40
6.0
 40
6.0
 40
6.0
 40
7.0
 40
7.0
 40
7.0
 40
8.0
 40
8.0
 40
8.0
 40
9.0
 40
9.0
 40
9.0
 40
10.0
 40
10.0
 40
10.0
 40
11.0
 40
11.0
 40
11.0
 40
12.0
 40
12.0
 40
12.0
 40
13.0
 40
13.0
 40
13.0
 40
14.0
 40
14.0
 40
14.0
 40
15.0
 40
15.0
 40
15.0
 40
16.0
 40
16.0
 40
16.0
 40
16.0
 10
109.4610188528431
 20
-152.3111164983806
 30
0.0
 10
109.4610188528431
 20
-152.3896646754443
 30
0.0
 10
109.4437933754168
 20
-152.4909504827106
 30
0.0
 10
109.3804036184882
 20
-152.5925807995255
 30
0.0
 10
109.2705050725088
 20
-152.7658691024335
 30
0.0
 10
109.1392469345208
 20
-152.7872286944421
 30
0.0
 10
109.0314154458324
 20
-152.806176719611
 30
0.0
 10
109.0314154458324
 20
-152.806176719611
 30
0.0
 10
109.0314154458324
 20
-152.5839680608123
 30
0.0
 10
109.0314154458324
 20
-152.5839680608123
 30
0.0
 10
109.2301974553313
 20
-152.5288465330484
 30
0.0
 10
109.2598252765045
 20
-152.4020670191912
 30
0.0
 10
109.2598252765045
 20
-152.3090494410894
 30
0.0
 10
109.2598252765045
 20
-152.1695230739368
 30
0.0
 10
109.1606065265293
 20
-152.0169053439402
 30
0.0
 10
108.9277180717264
 20
-152.0169053439402
 30
0.0
 10
108.6717474771723
 20
-152.0169053439402
 30
0.0
 10
108.6021565483703
 20
-152.1967393282703
 30
0.0
 10
108.6021565483703
 20
-152.317317670254
 30
0.0
 10
108.6021565483703
 20
-152.3490125487183
 30
0.0
 10
108.6021565483703
 20
-152.4909504827106
 30
0.0
 10
108.7310031195186
 20
-152.5798339462301
 30
0.0
 10
108.7310031195186
 20
-152.5798339462301
 30
0.0
 10
108.7120550943498
 20
-152.7555338159778
 30
0.0
 10
108.7120550943498
 20
-152.7555338159778
 30
0.0
 10
108.7120550943498
 20
-152.7555338159778
 30
0.0
 10
107.8659396431724
 20
-152.634955473994
 30
0.0
 10
107.8659396431724
 20
-152.634955473994
 30
0.0
 10
107.8659396431724
 20
-152.634955473994
 30
0.0
 10
107.8659396431724
 20
-151.8563638943276
 30
0.0
 10
107.8659396431724
 20
-151.8563638943276
 30
0.0
 10
107.8659396431724
 20
-151.8563638943276
 30
0.0
 10
108.060587538089
 20
-151.8563638943276
 30
0.0
 10
108.060587538089
 20
-151.8563638943276
 30
0.0
 10
108.060587538089
 20
-151.8563638943276
 30
0.0
 10
108.060587538089
 20
-152.4720024575417
 30
0.0
 10
108.060587538089
 20
-152.4720024575417
 30
0.0
 10
108.060587538089
 20
-152.4720024575417
 30
0.0
 10
108.4836452636777
 20
-152.5374592717615
 30
0.0
 10
108.4836452636777
 20
-152.5374592717615
 30
0.0
 10
108.4495388183737
 20
-152.476136572124
 30
0.0
 10
108.4095757107448
 20
-152.3937987900266
 30
0.0
 10
108.4095757107448
 20
-152.2752875053339
 30
0.0
 10
108.4095757107448
 20
-152.0213839680711
 30
0.0
 10
108.5956108669483
 20
-151.7843613986859
 30
0.0
 10
108.9087700465575
 20
-151.7843613986859
 30
0.0
 10
109.2260633407491
 20
-151.7843613986859
 30
0.0
 10
109.4610188528431
 20
-152.0086371147756
 30
0.0
 10
109.4610188528431
 20
-152.3111164983806
 30
0.0
  0
HATCH
  5
8C
330
87
100
AcDbEntity
  8
_U+30EC_U+30A4_U+30E4_U+30FC 1
 62
   179
420
  2234388
100
AcDbHatch
 10
0.0
 20
0.0
 30
0.0
210
0.0
220
0.0
230
1.0
  2
SOLID
 70
     1
 71
     0
 91
        1
 92
        1
 93
        1
 72
     4
 94
        3
 73
     0
 74
     1
 95
       53
 96
       49
 40
0.0
 40
0.0
 40
0.0
 40
0.0
 40
1.0
 40
1.0
 40
1.0
 40
2.0
 40
2.0
 40
2.0
 40
3.0
 40
3.0
 40
3.0
 40
4.0
 40
4.0
 40
4.0
 40
5.0
 40
5.0
 40
5.0
 40
6.0
 40
6.0
 40
6.0
 40
7.0
 40
7.0
 40
7.0
 40
8.0
 40
8.0
 40
8.0
 40
9.0
 40
9.0
 40
9.0
 40
10.0
 40
10.0
 40
10.0
 40
11.0
 40
11.0
 40
11.0
 40
12.0
 40
12.0
 40
12.0
 40
13.0
 40
13.0
 40
13.0
 40
14.0
 40
14.0
 40
14.0
 40
15.0
 40
15.0
 40
15.0
 40
16.0
 40
16.0
 40
16.0
 40
16.0
 10
109.4610188528431
 20
-152.3111164983806
 10
109.4610188528431
 20
-152.3896646754443
 10
109.4437933754168
 20
-152.4909504827106
 10
109.3804036184882
 20
-152.5925807995255
 10
109.2705050725088
 20
-152.7658691024335
 10
109.1392469345208
 20
-152.7872286944421
 10
109.0314154458324
 20
-152.806176719611
 10
109.0314154458324
 20
-152.806176719611
 10
109.0314154458324
 20
-152.5839680608123
 10
109.0314154458324
 20
-152.5839680608123
 10
109.2301974553313
 20
-152.5288465330484
 10
109.2598252765045
 20
-152.4020670191912
 10
109.2598252765045
 20
-152.3090494410894
 10
109.2598252765045
 20
-152.1695230739368
 10
109.1606065265293
 20
-152.0169053439402
 10
108.9277180717264
 20
-152.0169053439402
 10
108.6717474771723
 20
-152.0169053439402
 10
108.6021565483703
 20
-152.1967393282703
 10
108.6021565483703
 20
-152.317317670254
 10
108.6021565483703
 20
-152.3490125487183
 10
108.6021565483703
 20
-152.4909504827106
 10
108.7310031195186
 20
-152.5798339462301
 10
108.7310031195186
 20
-152.5798339462301
 10
108.7120550943498
 20
-152.7555338159778
 10
108.7120550943498
 20
-152.7555338159778
 10
108.7120550943498
 20
-152.7555338159778
 10
107.8659396431724
 20
-152.634955473994
 10
107.8659396431724
 20
-152.634955473994
 10
107.8659396431724
 20
-152.634955473994
 10
107.8659396431724
 20
-151.8563638943276
 10
107.8659396431724
 20
-151.8563638943276
 10
107.8659396431724
 20
-151.8563638943276
 10
108.060587538089
 20
-151.8563638943276
 10
108.060587538089
 20
-151.8563638943276
 10
108.060587538089
 20
-151.8563638943276
 10
108.060587538089
 20
-152.4720024575417
 10
108.060587538089
 20
-152.4720024575417
 10
108.060587538089
 20
-152.4720024575417
 10
108.4836452636777
 20
-152.5374592717615
 10
108.4836452636777
 20
-152.5374592717615
 10
108.4495388183737
 20
-152.476136572124
 10
108.4095757107448
 20
-152.3937987900266
 10
108.4095757107448
 20
-152.2752875053339
 10
108.4095757107448
 20
-152.0213839680711
 10
108.5956108669483
 20
-151.7843613986859
 10
108.9087700465575
 20
-151.7843613986859
 10
109.2260633407491
 20
-151.7843613986859
 10
109.4610188528431
 20
-152.0086371147756
 10
109.4610188528431
 20
-152.3111164983806
 97
        0
 97
        0
 75
     2
 76
     1
 98
        0
  0
SPLINE
  5
8D
330
87
100
AcDbEntity
  8
_U+30EC_U+30A4_U+30E4_U+30FC 1
370
     0
100
AcDbSpline
210
0.0
220
0.0
230
1.0
 70
    11
 71
     3
 72
    29
 73
    25
 74
     0
 42
0.0000000001
 43
0.0000000001
 12
1.0
 22
0.0
 32
0.0
 13
1.0
 23
0.0
 33
0.0
 40
0.0
 40
0.0
 40
0.0
 40
0.0
 40
1.0
 40
1.0
 40
1.0
 40
2.0
 40
2.0
 40
2.0
 40
3.0
 40
3.0
 40
3.0
 40
4.0
 40
4.0
 40
4.0
 40
5.0
 40
5.0
 40
5.0
 40
6.0
 40
6.0
 40
6.0
 40
7.0
 40
7.0
 40
7.0
 40
8.0
 40
8.0
 40
8.0
 40
8.0
 10
109.2322645126225
 20
-150.717415326904
 30
0.0
 10
109.4417263181257
 20
-150.8255913251408
 30
0.0
 10
109.4610188528431
 20
-150.9988796280489
 30
0.0
 10
109.4610188528431
 20
-151.1153238554504
 30
0.0
 10
109.4610188528431
 20
-151.2762098146115
 30
0.0
 10
109.4145100637922
 20
-151.4178032390553
 30
0.0
 10
109.2322645126225
 20
-151.5132323839967
 30
0.0
 10
109.0376166177059
 20
-151.6165852485542
 30
0.0
 10
108.8009385578692
 20
-151.6358777832716
 30
0.0
 10
108.6379855414169
 20
-151.6358777832716
 30
0.0
 10
108.4939805501335
 20
-151.6358777832716
 30
0.0
 10
108.2424885797102
 20
-151.6186523058453
 30
0.0
 10
108.0433620606628
 20
-151.5132323839967
 30
0.0
 10
107.8404459365816
 20
-151.4050563857598
 30
0.0
 10
107.8170192872819
 20
-151.2445149361472
 30
0.0
 10
107.8170192872819
 20
-151.1153238554504
 30
0.0
 10
107.8170192872819
 20
-150.9565049535803
 30
0.0
 10
107.8614610190416
 20
-150.8128444718454
 30
0.0
 10
108.0433620606628
 20
-150.717415326904
 30
0.0
 10
108.2359428982882
 20
-150.6181965769288
 30
0.0
 10
108.4643527289603
 20
-150.5947699276291
 30
0.0
 10
108.6379855414169
 20
-150.5947699276291
 30
0.0
 10
108.8092067870338
 20
-150.5947699276291
 30
0.0
 10
109.0400281845455
 20
-150.6161295196376
 30
0.0
 10
109.2322645126225
 20
-150.717415326904
 30
0.0
  0
SPLINE
  5
8E
330
87
100
AcDbEntity
  8
_U+30EC_U+30A4_U+30E4_U+30FC 1
370
     0
100
AcDbSpline
210
0.0
220
0.0
230
1.0
 70
    11
 71
     3
 72
    17
 73
    13
 74
     0
 42
0.0000000001
 43
0.0000000001
 12
1.0
 22
0.0
 32
0.0
 13
1.0
 23
0.0
 33
0.0
 40
0.0
 40
0.0
 40
0.0
 40
0.0
 40
1.0
 40
1.0
 40
1.0
 40
2.0
 40
2.0
 40
2.0
 40
3.0
 40
3.0
 40
3.0
 40
4.0
 40
4.0
 40
4.0
 40
4.0
 10
108.0096001249073
 20
-151.1153238554504
 30
0.0
 10
108.0096001249073
 20
-151.365093278131
 30
0.0
 10
108.2931314833434
 20
-151.4112575576333
 30
0.0
 10
108.6379855414169
 20
-151.4112575576333
 30
0.0
 10
108.9573458928996
 20
-151.4112575576333
 30
0.0
 10
109.2663709579265
 20
-151.3754285645867
 30
0.0
 10
109.2663709579265
 20
-151.1153238554504
 30
0.0
 10
109.2663709579265
 20
-150.8676214900609
 30
0.0
 10
108.9849066567816
 20
-150.8190456437189
 30
0.0
 10
108.6379855414169
 20
-150.8190456437189
 30
0.0
 10
108.3186251899342
 20
-150.8190456437189
 30
0.0
 10
108.0096001249073
 20
-150.8572862036051
 30
0.0
 10
108.0096001249073
 20
-151.1153238554504
 30
0.0
  0
HATCH
  5
8F
330
87
100
AcDbEntity
  8
_U+30EC_U+30A4_U+30E4_U+30FC 1
 62
   179
420
  2234388
100
AcDbHatch
 10
0.0
 20
0.0
 30
0.0
210
0.0
220
0.0
230
1.0
  2
SOLID
 70
     1
 71
     0
 91
        2
 92
        1
 93
        1
 72
     4
 94
        3
 73
     0
 74
     1
 95
       29
 96
       25
 40
0.0
 40
0.0
 40
0.0
 40
0.0
 40
1.0
 40
1.0
 40
1.0
 40
2.0
 40
2.0
 40
2.0
 40
3.0
 40
3.0
 40
3.0
 40
4.0
 40
4.0
 40
4.0
 40
5.0
 40
5.0
 40
5.0
 40
6.0
 40
6.0
 40
6.0
 40
7.0
 40
7.0
 40
7.0
 40
8.0
 40
8.0
 40
8.0
 40
8.0
 10
109.2322645126225
 20
-150.717415326904
 10
109.4417263181257
 20
-150.8255913251408
 10
109.4610188528431
 20
-150.9988796280489
 10
109.4610188528431
 20
-151.1153238554504
 10
109.4610188528431
 20
-151.2762098146115
 10
109.4145100637922
 20
-151.4178032390553
 10
109.2322645126225
 20
-151.5132323839967
 10
109.0376166177059
 20
-151.6165852485542
 10
108.8009385578692
 20
-151.6358777832716
 10
108.6379855414169
 20
-151.6358777832716
 10
108.4939805501335
 20
-151.6358777832716
 10
108.2424885797102
 20
-151.6186523058453
 10
108.0433620606628
 20
-151.5132323839967
 10
107.8404459365816
 20
-151.4050563857598
 10
107.8170192872819
 20
-151.2445149361472
 10
107.8170192872819
 20
-151.1153238554504
 10
107.8170192872819
 20
-150.9565049535803
 10
107.8614610190416
 20
-150.8128444718454
 10
108.0433620606628
 20
-150.717415326904
 10
108.2359428982882
 20
-150.6181965769288
 10
108.4643527289603
 20
-150.5947699276291
 10
108.6379855414169
 20
-150.5947699276291
 10
108.8092067870338
 20
-150.5947699276291
 10
109.0400281845455
 20
-150.6161295196376
 10
109.2322645126225
 20
-150.717415326904
 97
        0
 97
        0
 92
        1
 93
        1
 72
     4
 94
        3
 73
     0
 74
     1
 95
       17
 96
       13
 40
0.0
 40
0.0
 40
0.0
 40
0.0
 40
1.0
 40
1.0
 40
1.0
 40
2.0
 40
2.0
 40
2.0
 40
3.0
 40
3.0
 40
3.0
 40
4.0
 40
4.0
 40
4.0
 40
4.0
 10
108.0096001249073
 20
-151.1153238554504
 10
108.0096001249073
 20
-151.365093278131
 10
108.2931314833434
 20
-151.4112575576333
 10
108.6379855414169
 20
-151.4112575576333
 10
108.9573458928996
 20
-151.4112575576333
 10
109.2663709579265
 20
-151.3754285645867
 10
109.2663709579265
 20
-151.1153238554504
 10
109.2663709579265
 20
-150.8676214900609
 10
108.9849066567816
 20
-150.8190456437189
 10
108.6379855414169
 20
-150.8190456437189
 10
108.3186251899342
 20
-150.8190456437189
 10
108.0096001249073
 20
-150.8572862036051
 10
108.0096001249073
 20
-151.1153238554504
 97
        0
 97
        0
 75
     2
 76
     1
 98
        0
  0
ENDBLK
  5
8A
330
87
100
AcDbEntity
  8
0
100
AcDbBlockEnd
  0
ENDSEC
  0
SECTION
  2
ENTITIES
  0
SPLINE
  5
41
330
1F
100
AcDbEntity
  8
_U+30EC_U+30A4_U+30E4_U+30FC 1
370
     0
100
AcDbSpline
210
0.0
220
0.0
230
1.0
 70
    11
 71
     3
 72
    23
 73
    19
 74
     0
 42
0.0000000001
 43
0.0000000001
 12
1.0
 22
0.0
 32
0.0
 13
1.0
 23
0.0
 33
0.0
 40
0.0
 40
0.0
 40
0.0
 40
0.0
 40
1.0
 40
1.0
 40
1.0
 40
2.0
 40
2.0
 40
2.0
 40
3.0
 40
3.0
 40
3.0
 40
4.0
 40
4.0
 40
4.0
 40
5.0
 40
5.0
 40
5.0
 40
6.0
 40
6.0
 40
6.0
 40
6.0
 10
101.3619115787991
 20
-161.1893859460308
 30
0.0
 10
101.3619115787991
 20
-161.709746087231
 30
0.0
 10
101.5866286977479
 20
-162.9860893689757
 30
0.0
 10
102.9578735941878
 20
-163.1166154241731
 30
0.0
 10
103.3004237446556
 20
-163.1494299586701
 30
0.0
 10
103.4401223665825
 20
-163.9848010183028
 30
0.0
 10
103.4401223665825
 20
-164.1777694291704
 30
0.0
 10
103.4401223665825
 20
-164.1777694291704
 30
0.0
 10
99.98995613141527
 20
-164.1777694291704
 30
0.0
 10
99.98995613141527
 20
-164.1777694291704
 30
0.0
 10
99.98995613141527
 20
-164.1777694291704
 30
0.0
 10
99.98995613141527
 20
-139.1785416996892
 30
0.0
 10
99.98995613141527
 20
-139.1785416996892
 30
0.0
 10
101.3086417898584
 20
-139.1785416996892
 30
0.0
 10
101.3619115787991
 20
-140.0795202964692
 30
0.0
 10
101.3619115787991
 20
-140.0795202964692
 30
0.0
 10
101.3619115787991
 20
-140.0795202964692
 30
0.0
 10
101.3619115787991
 20
-161.1893859460308
 30
0.0
 10
101.3619115787991
 20
-161.1893859460308
 30
0.0
  0
HATCH
  5
42
330
1F
100
AcDbEntity
  8
_U+30EC_U+30A4_U+30E4_U+30FC 1
 62
     9
420
 13224394
100
AcDbHatch
 10
0.0
 20
0.0
 30
0.0
210
0.0
220
0.0
230
1.0
  2
SOLID
 70
     1
 71
     0
 91
        1
 92
        1
 93
        1
 72
     4
 94
        3
 73
     0
 74
     1
 95
       23
 96
       19
 40
0.0
 40
0.0
 40
0.0
 40
0.0
 40
1.0
 40
1.0
 40
1.0
 40
2.0
 40
2.0
 40
2.0
 40
3.0
 40
3.0
 40
3.0
 40
4.0
 40
4.0
 40
4.0
 40
5.0
 40
5.0
 40
5.0
 40
6.0
 40
6.0
 40
6.0
 40
6.0
 10
101.3619115787991
 20
-161.1893859460308
 10
101.3619115787991
 20
-161.709746087231
 10
101.5866286977479
 20
-162.9860893689757
 10
102.9578735941878
 20
-163.1166154241731
 10
103.3004237446556
 20
-163.1494299586701
 10
103.4401223665825
 20
-163.9848010183028
 10
103.4401223665825
 20
-164.1777694291704
 10
103.4401223665825
 20
-164.1777694291704
 10
99.98995613141527
 20
-164.1777694291704
 10
99.98995613141527
 20
-164.1777694291704
 10
99.98995613141527
 20
-164.1777694291704
 10
99.98995613141527
 20
-139.1785416996892
 10
99.98995613141527
 20
-139.1785416996892
 10
101.3086417898584
 20
-139.1785416996892
 10
101.3619115787991
 20
-140.0795202964692
 10
101.3619115787991
 20
-140.0795202964692
 10
101.3619115787991
 20
-140.0795202964692
 10
101.3619115787991
 20
-161.1893859460308
 10
101.3619115787991
 20
-161.1893859460308
 97
        0
 97
        0
 75
     2
 76
     1
 98
        0
  0
SPLINE
  5
43
330
1F
100
AcDbEntity
  8
_U+30EC_U+30A4_U+30E4_U+30FC 1
 62
   179
420
  2234388
370
    25
100
AcDbSpline
210
0.0
220
0.0
230
1.0
 70
    11
 71
     3
 72
    23
 73
    19
 74
     0
 42
0.0000000001
 43
0.0000000001
 12
1.0
 22
0.0
 32
0.0
 13
1.0
 23
0.0
 33
0.0
 40
0.0
 40
0.0
 40
0.0
 40
0.0
 40
1.0
 40
1.0
 40
1.0
 40
2.0
 40
2.0
 40
2.0
 40
3.0
 40
3.0
 40
3.0
 40
4.0
 40
4.0
 40
4.0
 40
5.0
 40
5.0
 40
5.0
 40
6.0
 40
6.0
 40
6.0
 40
6.0
 10
101.3619115787991
 20
-161.1893859460308
 30
0.0
 10
101.3619115787991
 20
-161.709746087231
 30
0.0
 10
101.5866286977479
 20
-162.9860893689757
 30
0.0
 10
102.9578735941878
 20
-163.1166154241731
 30
0.0
 10
103.3004237446556
 20
-163.1494299586701
 30
0.0
 10
103.4401223665825
 20
-163.9848010183028
 30
0.0
 10
103.4401223665825
 20
-164.1777694291704
 30
0.0
 10
103.4401223665825
 20
-164.1777694291704
 30
0.0
 10
99.98995613141527
 20
-164.1777694291704
 30
0.0
 10
99.98995613141527
 20
-164.1777694291704
 30
0.0
 10
99.98995613141527
 20
-164.1777694291704
 30
0.0
 10
99.98995613141527
 20
-139.1785416996892
 30
0.0
 10
99.98995613141527
 20
-139.1785416996892
 30
0.0
 10
101.3086417898584
 20
-139.1785416996892
 30
0.0
 10
101.3619115787991
 20
-140.0795202964692
 30
0.0
 10
101.3619115787991
 20
-140.0795202964692
 30
0.0
 10
101.3619115787991
 20
-140.0795202964692
 30
0.0
 10
101.3619115787991
 20
-161.1893859460308
 30
0.0
 10
101.3619115787991
 20
-161.1893859460308
 30
0.0
  0
POLYLINE
  5
44
330
1F
100
AcDbEntity
  8
_U+30EC_U+30A4_U+30E4_U+30FC 1
 62
   179
420
  2234388
370
     9
100
AcDb2dPolyline
 66
     1
 10
0.0
 20
0.0
 30
0.0
  0
VERTEX
  5
45
330
44
100
AcDbEntity
  8
_U+30EC_U+30A4_U+30E4_U+30FC 1
 62
   179
420
  2234388
370
     9
100
AcDbVertex
100
AcDb2dVertex
 10
104.0182578356627
 20
-160.1798222459251
 30
0.0
  0
VERTEX
  5
46
330
44
100
AcDbEntity
  8
_U+30EC_U+30A4_U+30E4_U+30FC 1
 62
   179
420
  2234388
370
     9
100
AcDbVertex
100
AcDb2dVertex
 10
102.0127116478095
 20
-162.1892603150842
 30
0.0
  0
SEQEND
  5
47
330
44
100
AcDbEntity
  8
_U+30EC_U+30A4_U+30E4_U+30FC 1
 62
   179
420
  2234388
370
     9
  0
POLYLINE
  5
48
330
1F
100
AcDbEntity
  8
_U+30EC_U+30A4_U+30E4_U+30FC 1
 62
   179
420
  2234388
370
     9
100
AcDb2dPolyline
 66
     1
 10
0.0
 20
0.0
 30
0.0
  0
VERTEX
  5
49
330
48
100
AcDbEntity
  8
_U+30EC_U+30A4_U+30E4_U+30FC 1
 62
   179
420
  2234388
370
     9
100
AcDbVertex
100
AcDb2dVertex
 10
102.6128257494933
 20
-161.1502625804264
 30
0.0
  0
VERTEX
  5
4A
330
48
100
AcDbEntity
  8
_U+30EC_U+30A4_U+30E4_U+30FC 1
 62
   179
420
  2234388
370
     9
100
AcDbVertex
100
AcDb2dVertex
 10
102.0127493285414
 20
-162.1891957195438
 30
0.0
  0
SEQEND
  5
4B
330
48
100
AcDbEntity
  8
_U+30EC_U+30A4_U+30E4_U+30FC 1
 62
   179
420
  2234388
370
     9
  0
POLYLINE
  5
4C
330
1F
100
AcDbEntity
  8
_U+30EC_U+30A4_U+30E4_U+30FC 1
 62
   179
420
  2234388
370
     9
100
AcDb2dPolyline
 66
     1
 10
0.0
 20
0.0
 30
0.0
  0
VERTEX
  5
4D
330
4C
100
AcDbEntity
  8
_U+30EC_U+30A4_U+30E4_U+30FC 1
 62
   179
420
  2234388
370
     9
100
AcDbVertex
100
AcDb2dVertex
 10
103.051714765429
 20
-161.589189277094
 30
0.0
  0
VERTEX
  5
4E
330
4C
100
AcDbEntity
  8
_U+30EC_U+30A4_U+30E4_U+30FC 1
 62
   179
420
  2234388
370
     9
100
AcDbVertex
100
AcDb2dVertex
 10
102.0127816263116
 20
-162.189281846931
 30
0.0
  0
SEQEND
  5
4F
330
4C
100
AcDbEntity
  8
_U+30EC_U+30A4_U+30E4_U+30FC 1
 62
   179
420
  2234388
370
     9
  0
INSERT
  5
51
330
1F
100
AcDbEntity
  8
_U+30EC_U+30A4_U+30E4_U+30FC 1
100
AcDbBlockReference
  2
block 2
 10
0.0
 20
0.0
 30
0.0
  0
POLYLINE
  5
5B
330
1F
100
AcDbEntity
  8
_U+30EC_U+30A4_U+30E4_U+30FC 1
 62
   179
420
  2234388
370
     9
100
AcDb2dPolyline
 66
     1
 10
0.0
 20
0.0
 30
0.0
  0
VERTEX
  5
5C
330
5B
100
AcDbEntity
  8
_U+30EC_U+30A4_U+30E4_U+30FC 1
 62
   179
420
  2234388
370
     9
100
AcDbVertex
100
AcDb2dVertex
 10
99.88638256542826
 20
-136.8430684065445
 30
0.0
  0
VERTEX
  5
5D
330
5B
100
AcDbEntity
  8
_U+30EC_U+30A4_U+30E4_U+30FC 1
 62
   179
420
  2234388
370
     9
100
AcDbVertex
100
AcDb2dVertex
 10
101.4174368286902
 20
-136.8430684065445
 30
0.0
  0
SEQEND
  5
5E
330
5B
100
AcDbEntity
  8
_U+30EC_U+30A4_U+30E4_U+30FC 1
 62
   179
420
  2234388
370
     9
  0
INSERT
  5
60
330
1F
100
AcDbEntity
  8
_U+30EC_U+30A4_U+30E4_U+30FC 1
100
AcDbBlockReference
  2
block 3
 10
0.0
 20
0.0
 30
0.0
  0
POLYLINE
  5
6F
330
1F
100
AcDbEntity
  8
_U+30EC_U+30A4_U+30E4_U+30FC 1
 62
   179
420
  2234388
370
     9
100
AcDb2dPolyline
 66
     1
 10
0.0
 20
0.0
 30
0.0
  0
VERTEX
  5
70
330
6F
100
AcDbEntity
  8
_U+30EC_U+30A4_U+30E4_U+30FC 1
 62
   179
420
  2234388
370
     9
100
AcDbVertex
100
AcDb2dVertex
 10
99.88638256542826
 20
-135.6047073025246
 30
0.0
  0
VERTEX
  5
71
330
6F
100
AcDbEntity
  8
_U+30EC_U+30A4_U+30E4_U+30FC 1
 62
   179
420
  2234388
370
     9
100
AcDbVertex
100
AcDb2dVertex
 10
99.88638256542826
 20
-138.4082398810338
 30
0.0
  0
SEQEND
  5
72
330
6F
100
AcDbEntity
  8
_U+30EC_U+30A4_U+30E4_U+30FC 1
 62
   179
420
  2234388
370
     9
  0
POLYLINE
  5
73
330
1F
100
AcDbEntity
  8
_U+30EC_U+30A4_U+30E4_U+30FC 1
 62
   179
420
  2234388
370
     9
100
AcDb2dPolyline
 66
     1
 10
0.0
 20
0.0
 30
0.0
  0
VERTEX
  5
74
330
73
100
AcDbEntity
  8
_U+30EC_U+30A4_U+30E4_U+30FC 1
 62
   179
420
  2234388
370
     9
100
AcDbVertex
100
AcDb2dVertex
 10
101.4180720181703
 20
-135.6047073025246
 30
0.0
  0
VERTEX
  5
75
330
73
100
AcDbEntity
  8
_U+30EC_U+30A4_U+30E4_U+30FC 1
 62
   179
420
  2234388
370
     9
100
AcDbVertex
100
AcDb2dVertex
 10
101.4180720181703
 20
-138.4082398810338
 30
0.0
  0
SEQEND
  5
76
330
73
100
AcDbEntity
  8
_U+30EC_U+30A4_U+30E4_U+30FC 1
 62
   179
420
  2234388
370
     9
  0
SPLINE
  5
77
330
1F
100
AcDbEntity
  8
_U+30EC_U+30A4_U+30E4_U+30FC 1
370
     0
100
AcDbSpline
210
0.0
220
0.0
230
1.0
 70
    11
 71
     3
 72
    17
 73
    13
 74
     0
 42
0.0000000001
 43
0.0000000001
 12
1.0
 22
0.0
 32
0.0
 13
1.0
 23
0.0
 33
0.0
 40
0.0
 40
0.0
 40
0.0
 40
0.0
 40
1.0
 40
1.0
 40
1.0
 40
2.0
 40
2.0
 40
2.0
 40
3.0
 40
3.0
 40
3.0
 40
4.0
 40
4.0
 40
4.0
 40
4.0
 10
100.0365941115468
 20
-136.8428530880769
 30
0.0
 10
100.0365941115468
 20
-136.9257722300372
 30
0.0
 10
99.96956547251227
 20
-136.993145378621
 30
0.0
 10
99.88630720396452
 20
-136.993145378621
 30
0.0
 10
99.80375948636092
 20
-136.993145378621
 30
0.0
 10
99.73637557185411
 20
-136.9257722300372
 30
0.0
 10
99.73637557185411
 20
-136.8428530880769
 30
0.0
 10
99.73637557185411
 20
-136.7603215193581
 30
0.0
 10
99.80375948636092
 20
-136.6929268389279
 30
0.0
 10
99.88630720396452
 20
-136.6929268389279
 30
0.0
 10
99.96956547251227
 20
-136.6929268389279
 30
0.0
 10
100.0365941115468
 20
-136.7603215193581
 30
0.0
 10
100.0365941115468
 20
-136.8428530880769
 30
0.0
  0
HATCH
  5
78
330
1F
100
AcDbEntity
  8
_U+30EC_U+30A4_U+30E4_U+30FC 1
 62
   179
420
  2234388
100
AcDbHatch
 10
0.0
 20
0.0
 30
0.0
210
0.0
220
0.0
230
1.0
  2
SOLID
 70
     1
 71
     0
 91
        1
 92
        1
 93
        2
 72
     4
 94
        3
 73
     0
 74
     0
 95
       17
 96
       13
 40
0.0
 40
0.0
 40
0.0
 40
0.0
 40
0.3527777776895833
 40
0.3527777776895833
 40
0.3527777776895833
 40
0.7055555553791667
 40
0.7055555553791667
 40
0.7055555553791667
 40
1.05833333306875
 40
1.05833333306875
 40
1.05833333306875
 40
1.411111110758333
 40
1.411111110758333
 40
1.411111110758333
 40
1.411111110758333
 10
100.0365941115468
 20
-136.8428530880769
 10
100.0365941115468
 20
-136.9257722300372
 10
99.96956547251227
 20
-136.993145378621
 10
99.88630720396452
 20
-136.993145378621
 10
99.80375948636092
 20
-136.993145378621
 10
99.73637557185411
 20
-136.9257722300372
 10
99.73637557185411
 20
-136.8428530880769
 10
99.73637557185411
 20
-136.7603215193581
 10
99.80375948636092
 20
-136.6929268389279
 10
99.88630720396452
 20
-136.6929268389279
 10
99.96956547251227
 20
-136.6929268389279
 10
100.0365941115468
 20
-136.7603215193581
 10
100.0365941115468
 20
-136.8428530880769
 97
        0
 72
     1
 10
100.0365941115468
 20
-136.8428530880769
 11
100.0365941115468
 21
-136.8428530880769
 97
        0
 75
     2
 76
     1
 98
        0
  0
SPLINE
  5
79
330
1F
100
AcDbEntity
  8
_U+30EC_U+30A4_U+30E4_U+30FC 1
370
     0
100
AcDbSpline
210
0.0
220
0.0
230
1.0
 70
    11
 71
     3
 72
    17
 73
    13
 74
     0
 42
0.0000000001
 43
0.0000000001
 12
1.0
 22
0.0
 32
0.0
 13
1.0
 23
0.0
 33
0.0
 40
0.0
 40
0.0
 40
0.0
 40
0.0
 40
1.0
 40
1.0
 40
1.0
 40
2.0
 40
2.0
 40
2.0
 40
3.0
 40
3.0
 40
3.0
 40
4.0
 40
4.0
 40
4.0
 40
4.0
 10
101.5675783963068
 20
-136.8428530880769
 30
0.0
 10
101.5675783963068
 20
-136.9257722300372
 30
0.0
 10
101.5008996497821
 20
-136.993145378621
 30
0.0
 10
101.4172914887245
 20
-136.993145378621
 30
0.0
 10
101.3347437711209
 20
-136.993145378621
 30
0.0
 10
101.267715132086
 20
-136.9257722300372
 30
0.0
 10
101.267715132086
 20
-136.8428530880769
 30
0.0
 10
101.267715132086
 20
-136.7603215193581
 30
0.0
 10
101.3347437711209
 20
-136.6929268389279
 30
0.0
 10
101.4172914887245
 20
-136.6929268389279
 30
0.0
 10
101.5008996497821
 20
-136.6929268389279
 30
0.0
 10
101.5675783963068
 20
-136.7603215193581
 30
0.0
 10
101.5675783963068
 20
-136.8428530880769
 30
0.0
  0
HATCH
  5
7A
330
1F
100
AcDbEntity
  8
_U+30EC_U+30A4_U+30E4_U+30FC 1
 62
   179
420
  2234388
100
AcDbHatch
 10
0.0
 20
0.0
 30
0.0
210
0.0
220
0.0
230
1.0
  2
SOLID
 70
     1
 71
     0
 91
        1
 92
        1
 93
        2
 72
     4
 94
        3
 73
     0
 74
     0
 95
       17
 96
       13
 40
0.0
 40
0.0
 40
0.0
 40
0.0
 40
0.3527777776895833
 40
0.3527777776895833
 40
0.3527777776895833
 40
0.7055555553791667
 40
0.7055555553791667
 40
0.7055555553791667
 40
1.05833333306875
 40
1.05833333306875
 40
1.05833333306875
 40
1.411111110758333
 40
1.411111110758333
 40
1.411111110758333
 40
1.411111110758333
 10
101.5675783963068
 20
-136.8428530880769
 10
101.5675783963068
 20
-136.9257722300372
 10
101.5008996497821
 20
-136.993145378621
 10
101.4172914887245
 20
-136.993145378621
 10
101.3347437711209
 20
-136.993145378621
 10
101.267715132086
 20
-136.9257722300372
 10
101.267715132086
 20
-136.8428530880769
 10
101.267715132086
 20
-136.7603215193581
 10
101.3347437711209
 20
-136.6929268389279
 10
101.4172914887245
 20
-136.6929268389279
 10
101.5008996497821
 20
-136.6929268389279
 10
101.5675783963068
 20
-136.7603215193581
 10
101.5675783963068
 20
-136.8428530880769
 97
        0
 72
     1
 10
101.5675783963068
 20
-136.8428530880769
 11
101.5675783963068
 21
-136.8428530880769
 97
        0
 75
     2
 76
     1
 98
        0
  0
POLYLINE
  5
7B
330
1F
100
AcDbEntity
  8
_U+30EC_U+30A4_U+30E4_U+30FC 1
 62
   179
420
  2234388
370
     9
100
AcDb2dPolyline
 66
     1
 10
0.0
 20
0.0
 30
0.0
  0
VERTEX
  5
7C
330
7B
100
AcDbEntity
  8
_U+30EC_U+30A4_U+30E4_U+30FC 1
 62
   179
420
  2234388
370
     9
100
AcDbVertex
100
AcDb2dVertex
 10
104.460602713007
 20
-164.2808639115665
 30
0.0
  0
VERTEX
  5
7D
330
7B
100
AcDbEntity
  8
_U+30EC_U+30A4_U+30E4_U+30FC 1
 62
   179
420
  2234388
370
     9
100
AcDbVertex
100
AcDb2dVertex
 10
111.4286689903584
 20
-164.2808639115665
 30
0.0
  0
SEQEND
  5
7E
330
7B
100
AcDbEntity
  8
_U+30EC_U+30A4_U+30E4_U+30FC 1
 62
   179
420
  2234388
370
     9
  0
POLYLINE
  5
7F
330
1F
100
AcDbEntity
  8
_U+30EC_U+30A4_U+30E4_U+30FC 1
 62
   179
420
  2234388
370
     9
100
AcDb2dPolyline
 66
     1
 10
0.0
 20
0.0
 30
0.0
  0
VERTEX
  5
80
330
7F
100
AcDbEntity
  8
_U+30EC_U+30A4_U+30E4_U+30FC 1
 62
   179
420
  2234388
370
     9
100
AcDbVertex
100
AcDb2dVertex
 10
104.460602713007
 20
-139.1268437355633
 30
0.0
  0
VERTEX
  5
81
330
7F
100
AcDbEntity
  8
_U+30EC_U+30A4_U+30E4_U+30FC 1
 62
   179
420
  2234388
370
     9
100
AcDbVertex
100
AcDb2dVertex
 10
111.4286689903584
 20
-139.1268437355633
 30
0.0
  0
SEQEND
  5
82
330
7F
100
AcDbEntity
  8
_U+30EC_U+30A4_U+30E4_U+30FC 1
 62
   179
420
  2234388
370
     9
  0
POLYLINE
  5
83
330
1F
100
AcDbEntity
  8
_U+30EC_U+30A4_U+30E4_U+30FC 1
 62
   179
420
  2234388
370
     9
100
AcDb2dPolyline
 66
     1
 10
0.0
 20
0.0
 30
0.0
  0
VERTEX
  5
84
330
83
100
AcDbEntity
  8
_U+30EC_U+30A4_U+30E4_U+30FC 1
 62
   179
420
  2234388
370
     9
100
AcDbVertex
100
AcDb2dVertex
 10
109.8385582543329
 20
-139.1268437355633
 30
0.0
  0
VERTEX
  5
85
330
83
100
AcDbEntity
  8
_U+30EC_U+30A4_U+30E4_U+30FC 1
 62
   179
420
  2234388
370
     9
100
AcDbVertex
100
AcDb2dVertex
 10
109.8385582543329
 20
-164.2809715708004
 30
0.0
  0
SEQEND
  5
86
330
83
100
AcDbEntity
  8
_U+30EC_U+30A4_U+30E4_U+30FC 1
 62
   179
420
  2234388
370
     9
  0
INSERT
  5
88
330
1F
100
AcDbEntity
  8
_U+30EC_U+30A4_U+30E4_U+30FC 1
100
AcDbBlockReference
  2
block 4
 10
0.0
 20
0.0
 30
0.0
  0
SPLINE
  5
90
330
1F
100
AcDbEntity
  8
_U+30EC_U+30A4_U+30E4_U+30FC 1
370
     0
100
AcDbSpline
210
0.0
220
0.0
230
1.0
 70
    11
 71
     3
 72
    17
 73
    13
 74
     0
 42
0.0000000001
 43
0.0000000001
 12
1.0
 22
0.0
 32
0.0
 13
1.0
 23
0.0
 33
0.0
 40
0.0
 40
0.0
 40
0.0
 40
0.0
 40
1.0
 40
1.0
 40
1.0
 40
2.0
 40
2.0
 40
2.0
 40
3.0
 40
3.0
 40
3.0
 40
4.0
 40
4.0
 40
4.0
 40
4.0
 10
109.9887751834132
 20
-164.2804978701712
 30
0.0
 10
109.9887751834132
 20
-164.3637615216803
 30
0.0
 10
109.9213912689064
 20
-164.4307901607152
 30
0.0
 10
109.8384882758309
 20
-164.4307901607152
 30
0.0
 10
109.7559405582273
 20
-164.4307901607152
 30
0.0
 10
109.6882067512102
 20
-164.3637615216803
 30
0.0
 10
109.6882067512102
 20
-164.2804978701712
 30
0.0
 10
109.6882067512102
 20
-164.1979663014527
 30
0.0
 10
109.7559405582273
 20
-164.1309376624178
 30
0.0
 10
109.8384882758309
 20
-164.1309376624178
 30
0.0
 10
109.9213912689064
 20
-164.1309376624178
 30
0.0
 10
109.9887751834132
 20
-164.1979663014527
 30
0.0
 10
109.9887751834132
 20
-164.2804978701712
 30
0.0
  0
HATCH
  5
91
330
1F
100
AcDbEntity
  8
_U+30EC_U+30A4_U+30E4_U+30FC 1
 62
   179
420
  2234388
100
AcDbHatch
 10
0.0
 20
0.0
 30
0.0
210
0.0
220
0.0
230
1.0
  2
SOLID
 70
     1
 71
     0
 91
        1
 92
        1
 93
        2
 72
     4
 94
        3
 73
     0
 74
     0
 95
       17
 96
       13
 40
0.0
 40
0.0
 40
0.0
 40
0.0
 40
0.3527777776895833
 40
0.3527777776895833
 40
0.3527777776895833
 40
0.7055555553791667
 40
0.7055555553791667
 40
0.7055555553791667
 40
1.05833333306875
 40
1.05833333306875
 40
1.05833333306875
 40
1.411111110758333
 40
1.411111110758333
 40
1.411111110758333
 40
1.411111110758333
 10
109.9887751834132
 20
-164.2804978701712
 10
109.9887751834132
 20
-164.3637615216803
 10
109.9213912689064
 20
-164.4307901607152
 10
109.8384882758309
 20
-164.4307901607152
 10
109.7559405582273
 20
-164.4307901607152
 10
109.6882067512102
 20
-164.3637615216803
 10
109.6882067512102
 20
-164.2804978701712
 10
109.6882067512102
 20
-164.1979663014527
 10
109.7559405582273
 20
-164.1309376624178
 10
109.8384882758309
 20
-164.1309376624178
 10
109.9213912689064
 20
-164.1309376624178
 10
109.9887751834132
 20
-164.1979663014527
 10
109.9887751834132
 20
-164.2804978701712
 97
        0
 72
     1
 10
109.9887751834132
 20
-164.2804978701712
 11
109.9887751834132
 21
-164.2804978701712
 97
        0
 75
     2
 76
     1
 98
        0
  0
SPLINE
  5
92
330
1F
100
AcDbEntity
  8
_U+30EC_U+30A4_U+30E4_U+30FC 1
370
     0
100
AcDbSpline
210
0.0
220
0.0
230
1.0
 70
    11
 71
     3
 72
    17
 73
    13
 74
     0
 42
0.0000000001
 43
0.0000000001
 12
1.0
 22
0.0
 32
0.0
 13
1.0
 23
0.0
 33
0.0
 40
0.0
 40
0.0
 40
0.0
 40
0.0
 40
1.0
 40
1.0
 40
1.0
 40
2.0
 40
2.0
 40
2.0
 40
3.0
 40
3.0
 40
3.0
 40
4.0
 40
4.0
 40
4.0
 40
4.0
 10
109.9887751834132
 20
-139.0803134146657
 30
0.0
 10
109.9887751834132
 20
-139.1635770661748
 30
0.0
 10
109.9213912689064
 20
-139.2306057052097
 30
0.0
 10
109.8384882758309
 20
-139.2306057052097
 30
0.0
 10
109.7559405582273
 20
-139.2306057052097
 30
0.0
 10
109.6882067512102
 20
-139.1635770661748
 30
0.0
 10
109.6882067512102
 20
-139.0803134146657
 30
0.0
 10
109.6882067512102
 20
-138.9977818459472
 30
0.0
 10
109.7559405582273
 20
-138.9307532069126
 30
0.0
 10
109.8384882758309
 20
-138.9307532069126
 30
0.0
 10
109.9213912689064
 20
-138.9307532069126
 30
0.0
 10
109.9887751834132
 20
-138.9977818459472
 30
0.0
 10
109.9887751834132
 20
-139.0803134146657
 30
0.0
  0
HATCH
  5
93
330
1F
100
AcDbEntity
  8
_U+30EC_U+30A4_U+30E4_U+30FC 1
 62
   179
420
  2234388
100
AcDbHatch
 10
0.0
 20
0.0
 30
0.0
210
0.0
220
0.0
230
1.0
  2
SOLID
 70
     1
 71
     0
 91
        1
 92
        1
 93
        2
 72
     4
 94
        3
 73
     0
 74
     0
 95
       17
 96
       13
 40
0.0
 40
0.0
 40
0.0
 40
0.0
 40
0.3527777776895833
 40
0.3527777776895833
 40
0.3527777776895833
 40
0.7055555553791667
 40
0.7055555553791667
 40
0.7055555553791667
 40
1.05833333306875
 40
1.05833333306875
 40
1.05833333306875
 40
1.411111110758333
 40
1.411111110758333
 40
1.411111110758333
 40
1.411111110758333
 10
109.9887751834132
 20
-139.0803134146657
 10
109.9887751834132
 20
-139.1635770661748
 10
109.9213912689064
 20
-139.2306057052097
 10
109.8384882758309
 20
-139.2306057052097
 10
109.7559405582273
 20
-139.2306057052097
 10
109.6882067512102
 20
-139.1635770661748
 10
109.6882067512102
 20
-139.0803134146657
 10
109.6882067512102
 20
-138.9977818459472
 10
109.7559405582273
 20
-138.9307532069126
 10
109.8384882758309
 20
-138.9307532069126
 10
109.9213912689064
 20
-138.9307532069126
 10
109.9887751834132
 20
-138.9977818459472
 10
109.9887751834132
 20
-139.0803134146657
 97
        0
 72
     1
 10
109.9887751834132
 20
-139.0803134146657
 11
109.9887751834132
 21
-139.0803134146657
 97
        0
 75
     2
 76
     1
 98
        0
  0
POLYLINE
  5
94
330
1F
100
AcDbEntity
  8
_U+30EC_U+30A4_U+30E4_U+30FC 1
370
     0
100
AcDb2dPolyline
 66
     1
 10
0.0
 20
0.0
 30
0.0
  0
VERTEX
  5
95
330
94
100
AcDbEntity
  8
_U+30EC_U+30A4_U+30E4_U+30FC 1
370
     0
100
AcDbVertex
100
AcDb2dVertex
 10
128.9058267906902
 20
-167.6641889626279
 30
0.0
  0
VERTEX
  5
96
330
94
100
AcDbEntity
  8
_U+30EC_U+30A4_U+30E4_U+30FC 1
370
     0
100
AcDbVertex
100
AcDb2dVertex
 10
80.30113352563612
 20
-167.6641889626279
 30
0.0
  0
VERTEX
  5
97
330
94
100
AcDbEntity
  8
_U+30EC_U+30A4_U+30E4_U+30FC 1
370
     0
100
AcDbVertex
100
AcDb2dVertex
 10
80.30113352563612
 20
-130.9521334113634
 30
0.0
  0
VERTEX
  5
98
330
94
100
AcDbEntity
  8
_U+30EC_U+30A4_U+30E4_U+30FC 1
370
     0
100
AcDbVertex
100
AcDb2dVertex
 10
128.9058267906902
 20
-130.9521334113634
 30
0.0
  0
VERTEX
  5
99
330
94
100
AcDbEntity
  8
_U+30EC_U+30A4_U+30E4_U+30FC 1
370
     0
100
AcDbVertex
100
AcDb2dVertex
 10
128.9058267906902
 20
-167.6641889626279
 30
0.0
  0
SEQEND
  5
9A
330
94
100
AcDbEntity
  8
_U+30EC_U+30A4_U+30E4_U+30FC 1
370
     0
  0
ENDSEC
  0
SECTION
  2
OBJECTS
  0
DICTIONARY
  5
C
330
0
100
AcDbDictionary
281
     1
  3
ACAD_GROUP
350
D
  3
ACAD_LAYOUT
350
1A
  3
ACAD_MATERIAL
350
3B
  3
ACAD_MLEADERSTYLE
350
9C
  3
ACAD_MLINESTYLE
350
17
  3
ACAD_PLOTSETTINGS
350
19
  3
ACAD_PLOTSTYLENAME
350
E
  3
ACAD_TABLESTYLE
350
9B
  3
ACAD_VISUALSTYLE
350
2A
  0
SUN
  5
3F
330
29
100
AcDbSun
 90
        1
290
     0
 63
     7
421
 16777215
 40
1.0
291
     1
 91
  2455826
 92
 54000000
292
     0
 70
     2
 71
   256
280
     1
  0
DICTIONARY
  5
D
102
{ACAD_REACTORS
330
C
102
}
330
C
100
AcDbDictionary
281
     1
  0
DICTIONARY
  5
1A
102
{ACAD_REACTORS
330
C
102
}
330
C
100
AcDbDictionary
281
     1
  3
Layout1
350
1E
  3
Layout2
350
26
  3
Model
350
22
  0
DICTIONARY
  5
3B
102
{ACAD_REACTORS
330
C
102
}
330
C
100
AcDbDictionary
281
     1
  3
ByBlock
350
3D
  3
ByLayer
350
3C
  3
Global
350
3E
  0
DICTIONARY
  5
9C
102
{ACAD_REACTORS
330
C
102
}
330
C
100
AcDbDictionary
281
     1
  0
DICTIONARY
  5
17
102
{ACAD_REACTORS
330
C
102
}
330
C
100
AcDbDictionary
281
     1
  3
Standard
350
18
  0
DICTIONARY
  5
19
102
{ACAD_REACTORS
330
C
102
}
330
C
100
AcDbDictionary
281
     1
  0
ACDBDICTIONARYWDFLT
  5
E
102
{ACAD_REACTORS
330
C
102
}
330
C
100
AcDbDictionary
281
     1
  3
Normal
350
F
100
AcDbDictionaryWithDefault
340
F
  0
DICTIONARY
  5
9B
102
{ACAD_REACTORS
330
C
102
}
330
C
100
AcDbDictionary
281
     1
  0
DICTIONARY
  5
2A
102
{ACAD_REACTORS
330
C
102
}
330
C
100
AcDbDictionary
281
     1
  3
2dWireframe
350
2F
  3
3D Hidden
350
31
  3
3dWireframe
350
30
  3
Basic
350
32
  3
Brighten
350
36
  3
ColorChange
350
3A
  3
Conceptual
350
34
  3
Dim
350
35
  3
Facepattern
350
39
  3
Flat
350
2B
  3
FlatWithEdges
350
2C
  3
Gouraud
350
2D
  3
GouraudWithEdges
350
2E
  3
Linepattern
350
38
  3
Realistic
350
33
  3
Thicken
350
37
  0
LAYOUT
  5
1E
102
{ACAD_REACTORS
330
1A
102
}
330
1A
100
AcDbPlotSettings
  1

  2
none_device
  4

  6

 40
0.0
 41
0.0
 42
0.0
 43
0.0
 44
0.0
 45
0.0
 46
0.0
 47
0.0
 48
0.0
 49
0.0
140
0.0
141
0.0
142
1.0
143
1.0
 70
   688
 72
     0
 73
     0
 74
     5
  7

 75
    16
 76
     0
 77
     2
 78
   300
147
1.0
148
0.0
149
0.0
100
AcDbLayout
  1
Layout1
 70
     1
 71
     1
 10
0.0
 20
0.0
 11
12.0
 21
9.0
 12
0.0
 22
0.0
 32
0.0
 14
1.000000000000000E+20
 24
1.000000000000000E+20
 34
1.000000000000000E+20
 15
-1.000000000000000E+20
 25
-1.000000000000000E+20
 35
-1.000000000000000E+20
146
0.0
 13
0.0
 23
0.0
 33
0.0
 16
1.0
 26
0.0
 36
0.0
 17
0.0
 27
1.0
 37
0.0
 76
     0
330
1B
  0
LAYOUT
  5
26
102
{ACAD_REACTORS
330
1A
102
}
330
1A
100
AcDbPlotSettings
  1

  2
none_device
  4

  6

 40
0.0
 41
0.0
 42
0.0
 43
0.0
 44
0.0
 45
0.0
 46
0.0
 47
0.0
 48
0.0
 49
0.0
140
0.0
141
0.0
142
1.0
143
1.0
 70
   688
 72
     0
 73
     0
 74
     5
  7

 75
    16
 76
     0
 77
     2
 78
   300
147
1.0
148
0.0
149
0.0
100
AcDbLayout
  1
Layout2
 70
     1
 71
     2
 10
0.0
 20
0.0
 11
0.0
 21
0.0
 12
0.0
 22
0.0
 32
0.0
 14
0.0
 24
0.0
 34
0.0
 15
0.0
 25
0.0
 35
0.0
146
0.0
 13
0.0
 23
0.0
 33
0.0
 16
1.0
 26
0.0
 36
0.0
 17
0.0
 27
1.0
 37
0.0
 76
     0
330
23
  0
LAYOUT
  5
22
102
{ACAD_REACTORS
330
1A
102
}
330
1A
100
AcDbPlotSettings
  1

  2
none_device
  4

  6

 40
0.0
 41
0.0
 42
0.0
 43
0.0
 44
0.0
 45
0.0
 46
0.0
 47
0.0
 48
0.0
 49
0.0
140
0.0
141
0.0
142
1.0
143
1.0
 70
  1712
 72
     0
 73
     0
 74
     0
  7

 75
     0
 76
     0
 77
     2
 78
   300
147
1.0
148
0.0
149
0.0
100
AcDbLayout
  1
Model
 70
     1
 71
     0
 10
0.0
 20
0.0
 11
12.0
 21
9.0
 12
0.0
 22
0.0
 32
0.0
 14
1.000000000000000E+20
 24
1.000000000000000E+20
 34
1.000000000000000E+20
 15
-1.000000000000000E+20
 25
-1.000000000000000E+20
 35
-1.000000000000000E+20
146
0.0
 13
0.0
 23
0.0
 33
0.0
 16
1.0
 26
0.0
 36
0.0
 17
0.0
 27
1.0
 37
0.0
 76
     0
330
1F
331
29
  0
MATERIAL
  5
3D
102
{ACAD_REACTORS
330
3B
102
}
330
3B
100
AcDbMaterial
  1
ByBlock
 72
     1
 94
      127
  0
MATERIAL
  5
3C
102
{ACAD_REACTORS
330
3B
102
}
330
3B
100
AcDbMaterial
  1
ByLayer
 72
     1
 94
      127
  0
MATERIAL
  5
3E
102
{ACAD_REACTORS
330
3B
102
}
330
3B
100
AcDbMaterial
  1
Global
 72
     1
 94
      127
  0
MLINESTYLE
  5
18
102
{ACAD_REACTORS
330
17
102
}
330
17
100
AcDbMlineStyle
  2
Standard
 70
     0
  3

 62
   256
 51
90.0
 52
90.0
 71
     2
 49
0.5
 62
   256
  6
BYLAYER
 49
-0.5
 62
   256
  6
BYLAYER
  0
ACDBPLACEHOLDER
  5
F
102
{ACAD_REACTORS
330
E
102
}
330
E
  0
VISUALSTYLE
  5
2F
102
{ACAD_REACTORS
330
2A
102
}
330
2A
100
AcDbVisualStyle
  2
2dWireframe
 70
     4
177
     2
291
     0
 71
     0
176
     1
 72
     2
176
     1
 73
     0
176
     1
 90
        0
176
     1
 40
-0.6
176
     1
 41
-30.0
176
     1
 62
     5
 63
     7
421
 16777215
176
     1
 74
     1
176
     1
 91
        4
176
     1
 64
     7
176
     1
 65
   257
176
     1
 75
     1
176
     1
175
     1
176
     1
 42
1.0
176
     1
 92
        0
176
     1
 66
   257
176
     1
 43
1.0
176
     1
 76
     1
176
     1
 77
     6
176
     1
 78
     2
176
     1
 67
     7
176
     1
 79
     5
176
     1
170
     0
176
     1
171
     0
176
     1
290
     0
176
     1
 93
        1
176
     1
 44
0.0
176
     1
173
     0
176
     1
  0
VISUALSTYLE
  5
31
102
{ACAD_REACTORS
330
2A
102
}
330
2A
100
AcDbVisualStyle
  2
3D Hidden
 70
     6
177
     2
291
     0
 71
     1
176
     1
 72
     2
176
     1
 73
     2
176
     1
 90
        0
176
     1
 40
-0.6
176
     1
 41
-30.0
176
     1
 62
     5
 63
     7
421
 16777215
176
     1
 74
     2
176
     1
 91
        2
176
     1
 64
     7
176
     1
 65
   257
176
     1
 75
     2
176
     1
175
     1
176
     1
 42
40.0
176
     1
 92
        0
176
     1
 66
   257
176
     1
 43
1.0
176
     1
 76
     1
176
     1
 77
     6
176
     1
 78
     2
176
     1
 67
     7
176
     1
 79
     3
176
     1
170
     0
176
     1
171
     0
176
     1
290
     0
176
     1
 93
        1
176
     1
 44
0.0
176
     1
173
     0
176
     1
  0
VISUALSTYLE
  5
30
102
{ACAD_REACTORS
330
2A
102
}
330
2A
100
AcDbVisualStyle
  2
3dWireframe
 70
     5
177
     2
291
     0
 71
     0
176
     1
 72
     2
176
     1
 73
     0
176
     1
 90
        0
176
     1
 40
-0.6
176
     1
 41
-30.0
176
     1
 62
     5
 63
     7
421
 16777215
176
     1
 74
     1
176
     1
 91
        4
176
     1
 64
     7
176
     1
 65
   257
176
     1
 75
     1
176
     1
175
     1
176
     1
 42
1.0
176
     1
 92
        0
176
     1
 66
   257
176
     1
 43
1.0
176
     1
 76
     1
176
     1
 77
     6
176
     1
 78
     2
176
     1
 67
     7
176
     1
 79
     5
176
     1
170
     0
176
     1
171
     0
176
     1
290
     0
176
     1
 93
        1
176
     1
 44
0.0
176
     1
173
     0
176
     1
  0
VISUALSTYLE
  5
32
102
{ACAD_REACTORS
330
2A
102
}
330
2A
100
AcDbVisualStyle
  2
Basic
 70
     7
177
     2
291
     1
 71
     1
176
     1
 72
     0
176
     1
 73
     1
176
     1
 90
        0
176
     1
 40
-0.6
176
     1
 41
-30.0
176
     1
 62
     5
 63
     7
421
 16777215
176
     1
 74
     0
176
     1
 91
        4
176
     1
 64
     7
176
     1
 65
   257
176
     1
 75
     1
176
     1
175
     1
176
     1
 42
1.0
176
     1
 92
        8
176
     1
 66
     7
176
     1
 43
1.0
176
     1
 76
     1
176
     1
 77
     6
176
     1
 78
     2
176
     1
 67
     7
176
     1
 79
     5
176
     1
170
     0
176
     1
171
     0
176
     1
290
     0
176
     1
 93
        1
176
     1
 44
0.0
176
     1
173
     0
176
     1
  0
VISUALSTYLE
  5
36
102
{ACAD_REACTORS
330
2A
102
}
330
2A
100
AcDbVisualStyle
  2
Brighten
 70
    12
177
     2
291
     1
 71
     2
176
     1
 72
     2
176
     1
 73
     0
176
     1
 90
        0
176
     1
 40
-0.6
176
     1
 41
-30.0
176
     1
 62
     5
 63
     7
421
 16777215
176
     1
 74
     1
176
     1
 91
        4
176
     1
 64
     7
176
     1
 65
   257
176
     1
 75
     1
176
     1
175
     1
176
     1
 42
1.0
176
     1
 92
        8
176
     1
 66
     7
176
     1
 43
1.0
176
     1
 76
     1
176
     1
 77
     6
176
     1
 78
     2
176
     1
 67
     7
176
     1
 79
     5
176
     1
170
     0
176
     1
171
     0
176
     1
290
     0
176
     1
 93
        1
176
     1
 44
50.0
176
     1
173
     0
176
     1
  0
VISUALSTYLE
  5
3A
102
{ACAD_REACTORS
330
2A
102
}
330
2A
100
AcDbVisualStyle
  2
ColorChange
 70
    16
177
     2
291
     1
 71
     2
176
     1
 72
     2
176
     1
 73
     3
176
     1
 90
        0
176
     1
 40
-0.6
176
     1
 41
-30.0
176
     1
 62
     5
 63
     8
421
  8421504
176
     1
 74
     1
176
     1
 91
        4
176
     1
 64
     7
176
     1
 65
   257
176
     1
 75
     1
176
     1
175
     1
176
     1
 42
1.0
176
     1
 92
        8
176
     1
 66
     8
424
  8421504
176
     1
 43
1.0
176
     1
 76
     1
176
     1
 77
     6
176
     1
 78
     2
176
     1
 67
     7
176
     1
 79
     5
176
     1
170
     0
176
     1
171
     0
176
     1
290
     0
176
     1
 93
        1
176
     1
 44
0.0
176
     1
173
     0
176
     1
  0
VISUALSTYLE
  5
34
102
{ACAD_REACTORS
330
2A
102
}
330
2A
100
AcDbVisualStyle
  2
Conceptual
 70
     9
177
     2
291
     0
 71
     3
176
     1
 72
     2
176
     1
 73
     0
176
     1
 90
        0
176
     1
 40
-0.6
176
     1
 41
-30.0
176
     1
 62
     5
 63
     7
421
 16777215
176
     1
 74
     2
176
     1
 91
        2
176
     1
 64
     7
176
     1
 65
   257
176
     1
 75
     1
176
     1
175
     1
176
     1
 42
40.0
176
     1
 92
        8
176
     1
 66
     7
176
     1
 43
1.0
176
     1
 76
     1
176
     1
 77
     6
176
     1
 78
     2
176
     1
 67
     7
176
     1
 79
     3
176
     1
170
     0
176
     1
171
     0
176
     1
290
     0
176
     1
 93
        1
176
     1
 44
0.0
176
     1
173
     0
176
     1
  0
VISUALSTYLE
  5
35
102
{ACAD_REACTORS
330
2A
102
}
330
2A
100
AcDbVisualStyle
  2
Dim
 70
    11
177
     2
291
     1
 71
     2
176
     1
 72
     2
176
     1
 73
     0
176
     1
 90
        0
176
     1
 40
-0.6
176
     1
 41
-30.0
176
     1
 62
     5
 63
     7
421
 16777215
176
     1
 74
     1
176
     1
 91
        4
176
     1
 64
     7
176
     1
 65
   257
176
     1
 75
     1
176
     1
175
     1
176
     1
 42
1.0
176
     1
 92
        8
176
     1
 66
     7
176
     1
 43
1.0
176
     1
 76
     1
176
     1
 77
     6
176
     1
 78
     2
176
     1
 67
     7
176
     1
 79
     5
176
     1
170
     0
176
     1
171
     0
176
     1
290
     0
176
     1
 93
        1
176
     1
 44
-50.0
176
     1
173
     0
176
     1
  0
VISUALSTYLE
  5
39
102
{ACAD_REACTORS
330
2A
102
}
330
2A
100
AcDbVisualStyle
  2
Facepattern
 70
    15
177
     2
291
     1
 71
     2
176
     1
 72
     2
176
     1
 73
     0
176
     1
 90
        0
176
     1
 40
-0.6
176
     1
 41
-30.0
176
     1
 62
     5
 63
     7
421
 16777215
176
     1
 74
     1
176
     1
 91
        4
176
     1
 64
     7
176
     1
 65
   257
176
     1
 75
     1
176
     1
175
     1
176
     1
 42
1.0
176
     1
 92
        8
176
     1
 66
     7
176
     1
 43
1.0
176
     1
 76
     1
176
     1
 77
     6
176
     1
 78
     2
176
     1
 67
     7
176
     1
 79
     5
176
     1
170
     0
176
     1
171
     0
176
     1
290
     0
176
     1
 93
        1
176
     1
 44
0.0
176
     1
173
     0
176
     1
  0
VISUALSTYLE
  5
2B
102
{ACAD_REACTORS
330
2A
102
}
330
2A
100
AcDbVisualStyle
  2
Flat
 70
     0
177
     2
291
     1
 71
     2
176
     1
 72
     1
176
     1
 73
     1
176
     1
 90
        2
176
     1
 40
-0.6
176
     1
 41
30.0
176
     1
 62
     5
 63
     7
421
 16777215
176
     1
 74
     0
176
     1
 91
        4
176
     1
 64
     7
176
     1
 65
   257
176
     1
 75
     1
176
     1
175
     1
176
     1
 42
1.0
176
     1
 92
        8
176
     1
 66
     7
176
     1
 43
1.0
176
     1
 76
     1
176
     1
 77
     6
176
     1
 78
     2
176
     1
 67
     7
176
     1
 79
     5
176
     1
170
     0
176
     1
171
     0
176
     1
290
     0
176
     1
 93
       13
176
     1
 44
0.0
176
     1
173
     0
176
     1
  0
VISUALSTYLE
  5
2C
102
{ACAD_REACTORS
330
2A
102
}
330
2A
100
AcDbVisualStyle
  2
FlatWithEdges
 70
     1
177
     2
291
     1
 71
     2
176
     1
 72
     1
176
     1
 73
     1
176
     1
 90
        2
176
     1
 40
-0.6
176
     1
 41
30.0
176
     1
 62
     5
 63
     7
421
 16777215
176
     1
 74
     1
176
     1
 91
        4
176
     1
 64
     7
176
     1
 65
   257
176
     1
 75
     1
176
     1
175
     1
176
     1
 42
1.0
176
     1
 92
        0
176
     1
 66
   257
176
     1
 43
1.0
176
     1
 76
     1
176
     1
 77
     6
176
     1
 78
     2
176
     1
 67
     7
176
     1
 79
     5
176
     1
170
     0
176
     1
171
     0
176
     1
290
     0
176
     1
 93
       13
176
     1
 44
0.0
176
     1
173
     0
176
     1
  0
VISUALSTYLE
  5
2D
102
{ACAD_REACTORS
330
2A
102
}
330
2A
100
AcDbVisualStyle
  2
Gouraud
 70
     2
177
     2
291
     1
 71
     2
176
     1
 72
     2
176
     1
 73
     1
176
     1
 90
        2
176
     1
 40
-0.6
176
     1
 41
30.0
176
     1
 62
     5
 63
     7
421
 16777215
176
     1
 74
     0
176
     1
 91
        4
176
     1
 64
     7
176
     1
 65
   257
176
     1
 75
     1
176
     1
175
     1
176
     1
 42
1.0
176
     1
 92
        0
176
     1
 66
     7
176
     1
 43
1.0
176
     1
 76
     1
176
     1
 77
     6
176
     1
 78
     2
176
     1
 67
     7
176
     1
 79
     5
176
     1
170
     0
176
     1
171
     0
176
     1
290
     0
176
     1
 93
       13
176
     1
 44
0.0
176
     1
173
     0
176
     1
  0
VISUALSTYLE
  5
2E
102
{ACAD_REACTORS
330
2A
102
}
330
2A
100
AcDbVisualStyle
  2
GouraudWithEdges
 70
     3
177
     2
291
     1
 71
     2
176
     1
 72
     2
176
     1
 73
     1
176
     1
 90
        2
176
     1
 40
-0.6
176
     1
 41
30.0
176
     1
 62
     5
 63
     7
421
 16777215
176
     1
 74
     1
176
     1
 91
        4
176
     1
 64
     7
176
     1
 65
   257
176
     1
 75
     1
176
     1
175
     1
176
     1
 42
1.0
176
     1
 92
        0
176
     1
 66
   257
176
     1
 43
1.0
176
     1
 76
     1
176
     1
 77
     6
176
     1
 78
     2
176
     1
 67
     7
176
     1
 79
     5
176
     1
170
     0
176
     1
171
     0
176
     1
290
     0
176
     1
 93
       13
176
     1
 44
0.0
176
     1
173
     0
176
     1
  0
VISUALSTYLE
  5
38
102
{ACAD_REACTORS
330
2A
102
}
330
2A
100
AcDbVisualStyle
  2
Linepattern
 70
    14
177
     2
291
     1
 71
     2
176
     1
 72
     2
176
     1
 73
     0
176
     1
 90
        0
176
     1
 40
-0.6
176
     1
 41
-30.0
176
     1
 62
     5
 63
     7
421
 16777215
176
     1
 74
     1
176
     1
 91
        4
176
     1
 64
     7
176
     1
 65
   257
176
     1
 75
     7
176
     1
175
     7
176
     1
 42
1.0
176
     1
 92
        8
176
     1
 66
     7
176
     1
 43
1.0
176
     1
 76
     1
176
     1
 77
     6
176
     1
 78
     2
176
     1
 67
     7
176
     1
 79
     5
176
     1
170
     0
176
     1
171
     0
176
     1
290
     0
176
     1
 93
        1
176
     1
 44
0.0
176
     1
173
     0
176
     1
  0
VISUALSTYLE
  5
33
102
{ACAD_REACTORS
330
2A
102
}
330
2A
100
AcDbVisualStyle
  2
Realistic
 70
     8
177
     2
291
     0
 71
     2
176
     1
 72
     2
176
     1
 73
     0
176
     1
 90
        0
176
     1
 40
-0.6
176
     1
 41
-30.0
176
     1
 62
     5
 63
     7
421
 16777215
176
     1
 74
     1
176
     1
 91
        0
176
     1
 64
     7
176
     1
 65
   257
176
     1
 75
     1
176
     1
175
     1
176
     1
 42
1.0
176
     1
 92
        8
176
     1
 66
     8
424
  7895160
176
     1
 43
1.0
176
     1
 76
     1
176
     1
 77
     6
176
     1
 78
     2
176
     1
 67
     7
176
     1
 79
     5
176
     1
170
     0
176
     1
171
     0
176
     1
290
     0
176
     1
 93
       13
176
     1
 44
0.0
176
     1
173
     0
176
     1
  0
VISUALSTYLE
  5
37
102
{ACAD_REACTORS
330
2A
102
}
330
2A
100
AcDbVisualStyle
  2
Thicken
 70
    13
177
     2
291
     1
 71
     2
176
     1
 72
     2
176
     1
 73
     0
176
     1
 90
        0
176
     1
 40
-0.6
176
     1
 41
-30.0
176
     1
 62
     5
 63
     7
421
 16777215
176
     1
 74
     1
176
     1
 91
        4
176
     1
 64
     7
176
     1
 65
   257
176
     1
 75
     1
176
     1
175
     1
176
     1
 42
1.0
176
     1
 92
       12
176
     1
 66
     7
176
     1
 43
1.0
176
     1
 76
     1
176
     1
 77
     6
176
     1
 78
     2
176
     1
 67
     7
176
     1
 79
     5
176
     1
170
     0
176
     1
171
     0
176
     1
290
     0
176
     1
 93
        1
176
     1
 44
0.0
176
     1
173
     0
176
     1
  0
ENDSEC
  0
EOF
