  0
SECTION
  2
HEADER
  9
$ACADVER
  1
AC1024
  9
$ACADMAINTVER
 70
     6
  9
$DWGCODEPAGE
  3
UNDEFINED
  9
$INSBASE
 10
0.0
 20
0.0
 30
0.0
  9
$EXTMIN
 10
1.000000000000000E+20
 20
1.000000000000000E+20
 30
1.000000000000000E+20
  9
$EXTMAX
 10
-1.000000000000000E+20
 20
-1.000000000000000E+20
 30
-1.000000000000000E+20
  9
$LIMMIN
 10
0.0
 20
0.0
  9
$LIMMAX
 10
12.0
 20
9.0
  9
$ORTHOMODE
 70
     0
  9
$REGENMODE
 70
     1
  9
$FILLMODE
 70
     1
  9
$QTEXTMODE
 70
     0
  9
$MIRRTEXT
 70
     1
  9
$LTSCALE
 40
1.0
  9
$ATTMODE
 70
     1
  9
$TEXTSIZE
 40
0.2
  9
$TRACEWID
 40
0.05
  9
$TEXTSTYLE
  7
Standard
  9
$CLAYER
  8
0
  9
$CELTYPE
  6
ByLayer
  9
$CECOLOR
 62
   256
  9
$CELTSCALE
 40
1.0
  9
$DISPSILH
 70
     0
  9
$DIMSCALE
 40
1.0
  9
$DIMASZ
 40
0.18
  9
$DIMEXO
 40
0.0625
  9
$DIMDLI
 40
0.38
  9
$DIMRND
 40
0.0
  9
$DIMDLE
 40
0.0
  9
$DIMEXE
 40
0.18
  9
$DIMTP
 40
0.0
  9
$DIMTM
 40
0.0
  9
$DIMTXT
 40
0.18
  9
$DIMCEN
 40
0.09
  9
$DIMTSZ
 40
0.0
  9
$DIMTOL
 70
     0
  9
$DIMLIM
 70
     0
  9
$DIMTIH
 70
     1
  9
$DIMTOH
 70
     1
  9
$DIMSE1
 70
     0
  9
$DIMSE2
 70
     0
  9
$DIMTAD
 70
     0
  9
$DIMZIN
 70
     0
  9
$DIMBLK
  1

  9
$DIMASO
 70
     1
  9
$DIMSHO
 70
     1
  9
$DIMPOST
  1

  9
$DIMAPOST
  1

  9
$DIMALT
 70
     0
  9
$DIMALTD
 70
     2
  9
$DIMALTF
 40
25.4
  9
$DIMLFAC
 40
1.0
  9
$DIMTOFL
 70
     0
  9
$DIMTVP
 40
0.0
  9
$DIMTIX
 70
     0
  9
$DIMSOXD
 70
     0
  9
$DIMSAH
 70
     0
  9
$DIMBLK1
  1

  9
$DIMBLK2
  1

  9
$DIMSTYLE
  2
Standard
  9
$DIMCLRD
 70
     0
  9
$DIMCLRE
 70
     0
  9
$DIMCLRT
 70
     0
  9
$DIMTFAC
 40
1.0
  9
$DIMGAP
 40
0.09
  9
$DIMJUST
 70
     0
  9
$DIMSD1
 70
     0
  9
$DIMSD2
 70
     0
  9
$DIMTOLJ
 70
     1
  9
$DIMTZIN
 70
     0
  9
$DIMALTZ
 70
     0
  9
$DIMALTTZ
 70
     0
  9
$DIMUPT
 70
     0
  9
$DIMDEC
 70
     4
  9
$DIMTDEC
 70
     4
  9
$DIMALTU
 70
     2
  9
$DIMALTTD
 70
     2
  9
$DIMTXSTY
  7
Standard
  9
$DIMAUNIT
 70
     0
  9
$DIMADEC
 70
     0
  9
$DIMALTRND
 40
0.0
  9
$DIMAZIN
 70
     0
  9
$DIMDSEP
 70
    46
  9
$DIMATFIT
 70
     3
  9
$DIMFRAC
 70
     0
  9
$DIMLDRBLK
  1

  9
$DIMLUNIT
 70
     2
  9
$DIMLWD
 70
    -2
  9
$DIMLWE
 70
    -2
  9
$DIMTMOVE
 70
     0
  9
$DIMFXL
 40
1.0
  9
$DIMFXLON
 70
     0
  9
$DIMJOGANG
 40
0.7853981633974483
  9
$DIMTFILL
 70
     0
  9
$DIMTFILLCLR
 70
     0
  9
$DIMARCSYM
 70
     0
  9
$DIMLTYPE
  6

  9
$DIMLTEX1
  6

  9
$DIMLTEX2
  6

  9
$DIMTXTDIRECTION
 70
     0
  9
$LUNITS
 70
     2
  9
$LUPREC
 70
     4
  9
$SKETCHINC
 40
0.1
  9
$FILLETRAD
 40
0.5
  9
$AUNITS
 70
     0
  9
$AUPREC
 70
     0
  9
$MENU
  1
.
  9
$ELEVATION
 40
0.0
  9
$PELEVATION
 40
0.0
  9
$THICKNESS
 40
0.0
  9
$LIMCHECK
 70
     0
  9
$CHAMFERA
 40
0.5
  9
$CHAMFERB
 40
0.5
  9
$CHAMFERC
 40
1.0
  9
$CHAMFERD
 40
0.0
  9
$SKPOLY
 70
     0
  9
$TDCREATE
 40
2457917.628391204
  9
$TDUCREATE
 40
2457917.253391204
  9
$TDUPDATE
 40
2457917.628391204
  9
$TDUUPDATE
 40
2457917.253391204
  9
$TDINDWG
 40
0.0000000116
  9
$TDUSRTIMER
 40
0.0000000116
  9
$USRTIMER
 70
     1
  9
$ANGBASE
 50
0.0
  9
$ANGDIR
 70
     0
  9
$PDMODE
 70
     0
  9
$PDSIZE
 40
0.0
  9
$PLINEWID
 40
0.0
  9
$SPLFRAME
 70
     0
  9
$SPLINETYPE
 70
     6
  9
$SPLINESEGS
 70
     8
  9
$HANDSEED
  5
BE
  9
$SURFTAB1
 70
     6
  9
$SURFTAB2
 70
     6
  9
$SURFTYPE
 70
     6
  9
$SURFU
 70
     6
  9
$SURFV
 70
     6
  9
$UCSBASE
  2

  9
$UCSNAME
  2

  9
$UCSORG
 10
0.0
 20
0.0
 30
0.0
  9
$UCSXDIR
 10
1.0
 20
0.0
 30
0.0
  9
$UCSYDIR
 10
0.0
 20
1.0
 30
0.0
  9
$UCSORTHOREF
  2

  9
$UCSORTHOVIEW
 70
     0
  9
$UCSORGTOP
 10
0.0
 20
0.0
 30
0.0
  9
$UCSORGBOTTOM
 10
0.0
 20
0.0
 30
0.0
  9
$UCSORGLEFT
 10
0.0
 20
0.0
 30
0.0
  9
$UCSORGRIGHT
 10
0.0
 20
0.0
 30
0.0
  9
$UCSORGFRONT
 10
0.0
 20
0.0
 30
0.0
  9
$UCSORGBACK
 10
0.0
 20
0.0
 30
0.0
  9
$PUCSBASE
  2

  9
$PUCSNAME
  2

  9
$PUCSORG
 10
0.0
 20
0.0
 30
0.0
  9
$PUCSXDIR
 10
1.0
 20
0.0
 30
0.0
  9
$PUCSYDIR
 10
0.0
 20
1.0
 30
0.0
  9
$PUCSORTHOREF
  2

  9
$PUCSORTHOVIEW
 70
     0
  9
$PUCSORGTOP
 10
0.0
 20
0.0
 30
0.0
  9
$PUCSORGBOTTOM
 10
0.0
 20
0.0
 30
0.0
  9
$PUCSORGLEFT
 10
0.0
 20
0.0
 30
0.0
  9
$PUCSORGRIGHT
 10
0.0
 20
0.0
 30
0.0
  9
$PUCSORGFRONT
 10
0.0
 20
0.0
 30
0.0
  9
$PUCSORGBACK
 10
0.0
 20
0.0
 30
0.0
  9
$USERI1
 70
     0
  9
$USERI2
 70
     0
  9
$USERI3
 70
     0
  9
$USERI4
 70
     0
  9
$USERI5
 70
     0
  9
$USERR1
 40
0.0
  9
$USERR2
 40
0.0
  9
$USERR3
 40
0.0
  9
$USERR4
 40
0.0
  9
$USERR5
 40
0.0
  9
$WORLDVIEW
 70
     1
  9
$SHADEDGE
 70
     3
  9
$SHADEDIF
 70
    70
  9
$TILEMODE
 70
     1
  9
$MAXACTVP
 70
    64
  9
$PINSBASE
 10
0.0
 20
0.0
 30
0.0
  9
$PLIMCHECK
 70
     0
  9
$PEXTMIN
 10
1.000000000000000E+20
 20
1.000000000000000E+20
 30
1.000000000000000E+20
  9
$PEXTMAX
 10
-1.000000000000000E+20
 20
-1.000000000000000E+20
 30
-1.000000000000000E+20
  9
$PLIMMIN
 10
0.0
 20
0.0
  9
$PLIMMAX
 10
12.0
 20
9.0
  9
$UNITMODE
 70
     0
  9
$VISRETAIN
 70
     1
  9
$PLINEGEN
 70
     0
  9
$PSLTSCALE
 70
     1
  9
$TREEDEPTH
 70
  3020
  9
$CMLSTYLE
  2
Standard
  9
$CMLJUST
 70
     0
  9
$CMLSCALE
 40
1.0
  9
$PROXYGRAPHICS
 70
     1
  9
$MEASUREMENT
 70
     0
  9
$CELWEIGHT
370
    -1
  9
$ENDCAPS
280
     0
  9
$JOINSTYLE
280
     0
  9
$LWDISPLAY
290
     1
  9
$INSUNITS
 70
     1
  9
$HYPERLINKBASE
  1

  9
$STYLESHEET
  1

  9
$XEDIT
290
     1
  9
$CEPSNTYPE
380
     0
  9
$PSTYLEMODE
290
     1
  9
$FINGERPRINTGUID
  2
{ECDEFBF5-DF28-A301-9F2D-79153D06667B}
  9
$VERSIONGUID
  2
{FAEB1C32-E019-11D5-929B-00C0DF256EC4}
  9
$EXTNAMES
290
     1
  9
$PSVPSCALE
 40
0.0
  9
$OLESTARTUP
290
     0
  9
$SORTENTS
280
   127
  9
$INDEXCTL
280
     0
  9
$HIDETEXT
280
     1
  9
$XCLIPFRAME
280
     2
  9
$HALOGAP
280
     0
  9
$OBSCOLOR
 70
   257
  9
$OBSLTYPE
280
     0
  9
$INTERSECTIONDISPLAY
280
     0
  9
$INTERSECTIONCOLOR
 70
   257
  9
$DIMASSOC
280
     2
  9
$PROJECTNAME
  1

  9
$CAMERADISPLAY
290
     0
  9
$LENSLENGTH
 40
50.0
  9
$CAMERAHEIGHT
 40
0.0
  9
$STEPSPERSEC
 40
2.0
  9
$STEPSIZE
 40
6.0
  9
$3DDWFPREC
 40
2.0
  9
$PSOLWIDTH
 40
0.25
  9
$PSOLHEIGHT
 40
4.0
  9
$LOFTANG1
 40
1.570796326794897
  9
$LOFTANG2
 40
1.570796326794897
  9
$LOFTMAG1
 40
0.0
  9
$LOFTMAG2
 40
0.0
  9
$LOFTPARAM
 70
     7
  9
$LOFTNORMALS
280
     1
  9
$LATITUDE
 40
37.795
  9
$LONGITUDE
 40
-122.394
  9
$NORTHDIRECTION
 40
0.0
  9
$TIMEZONE
 70
 -8000
  9
$LIGHTGLYPHDISPLAY
280
     1
  9
$TILEMODELIGHTSYNCH
280
     1
  9
$CMATERIAL
347
3C
  9
$SOLIDHIST
280
     1
  9
$SHOWHIST
280
     1
  9
$DWFFRAME
280
     2
  9
$DGNFRAME
280
     2
  9
$REALWORLDSCALE
290
     1
  9
$INTERFERECOLOR
 62
   256
  9
$CSHADOW
280
     0
  9
$SHADOWPLANELOCATION
 40
0.0
  0
ENDSEC
  0
SECTION
  2
CLASSES
  0
CLASS
  1
ACDBDICTIONARYWDFLT
  2
AcDbDictionaryWithDefault
  3
ObjectDBX Classes
 90
        0
 91
        4
280
     0
281
     0
  0
CLASS
  1
VISUALSTYLE
  2
AcDbVisualStyle
  3
ObjectDBX Classes
 90
     4095
 91
        4
280
     0
281
     0
  0
CLASS
  1
MATERIAL
  2
AcDbMaterial
  3
ObjectDBX Classes
 90
     1153
 91
        4
280
     0
281
     0
  0
CLASS
  1
SUN
  2
AcDbSun
  3
SCENEOE
 90
     1024
 91
        4
280
     0
281
     0
  0
ENDSEC
  0
SECTION
  2
TABLES
  0
TABLE
  2
VPORT
  5
8
330
0
100
AcDbSymbolTable
 70
     1
  0
VPORT
  5
29
330
8
100
AcDbSymbolTableRecord
100
AcDbViewportTableRecord
  2
*Active
 70
     0
 10
0.0
 20
0.0
 11
1.0
 21
1.0
 12
0.0
 22
0.0
 13
0.0
 23
0.0
 14
0.5
 24
0.5
 15
0.5
 25
0.5
 16
0.0
 26
0.0
 36
1.0
 17
91.00082462281999
 27
-128.4993055234307
 37
0.0
 40
256.9986110468615
 41
0.7081814508812795
 42
50.0
 43
0.0
 44
0.0
 50
0.0
 51
0.0
 71
     0
 72
   100
 73
     1
 74
     3
 75
     0
 76
     0
 77
     0
 78
     0
281
     0
 65
     1
110
0.0
120
0.0
130
0.0
111
1.0
121
0.0
131
0.0
112
0.0
122
1.0
132
0.0
 79
     0
146
0.0
 60
     3
 61
     5
292
     1
282
     1
141
0.0
142
0.0
 63
   250
361
3F
  0
ENDTAB
  0
TABLE
  2
LTYPE
  5
5
330
0
100
AcDbSymbolTable
 70
     1
  0
LTYPE
  5
14
330
5
100
AcDbSymbolTableRecord
100
AcDbLinetypeTableRecord
  2
ByBlock
 70
     0
  3

 72
    65
 73
     0
 40
0.0
  0
LTYPE
  5
15
330
5
100
AcDbSymbolTableRecord
100
AcDbLinetypeTableRecord
  2
ByLayer
 70
     0
  3

 72
    65
 73
     0
 40
0.0
  0
LTYPE
  5
16
330
5
100
AcDbSymbolTableRecord
100
AcDbLinetypeTableRecord
  2
Continuous
 70
     0
  3
Solid line
 72
    65
 73
     0
 40
0.0
  0
ENDTAB
  0
TABLE
  2
LAYER
  5
2
330
0
100
AcDbSymbolTable
 70
     2
  0
LAYER
  5
10
330
2
100
AcDbSymbolTableRecord
100
AcDbLayerTableRecord
  2
0
 70
     0
 62
     7
  6
Continuous
370
    -3
390
F
347
3E
  0
LAYER
  5
40
330
2
100
AcDbSymbolTableRecord
100
AcDbLayerTableRecord
  2
_U+30EC_U+30A4_U+30E4_U+30FC 1
 70
     0
 62
     7
  6
Continuous
370
    -3
390
F
347
3E
  0
ENDTAB
  0
TABLE
  2
STYLE
  5
3
330
0
100
AcDbSymbolTable
 70
     1
  0
STYLE
  5
11
330
3
100
AcDbSymbolTableRecord
100
AcDbTextStyleTableRecord
  2
Standard
 70
     0
 40
0.0
 41
1.0
 50
0.0
 71
     0
 42
0.2
  3
txt
  4

  0
ENDTAB
  0
TABLE
  2
VIEW
  5
6
330
0
100
AcDbSymbolTable
 70
     0
  0
ENDTAB
  0
TABLE
  2
UCS
  5
7
330
0
100
AcDbSymbolTable
 70
     0
  0
ENDTAB
  0
TABLE
  2
APPID
  5
9
330
0
100
AcDbSymbolTable
 70
     1
  0
APPID
  5
12
330
9
100
AcDbSymbolTableRecord
100
AcDbRegAppTableRecord
  2
ACAD
 70
     0
  0
ENDTAB
  0
TABLE
  2
DIMSTYLE
  5
A
330
0
100
AcDbSymbolTable
 70
     1
100
AcDbDimStyleTable
  0
DIMSTYLE
105
27
330
A
100
AcDbSymbolTableRecord
100
AcDbDimStyleTableRecord
  2
Standard
 70
     0
178
     0
340
11
  0
ENDTAB
  0
TABLE
  2
BLOCK_RECORD
  5
1
330
0
100
AcDbSymbolTable
 70
     5
  0
BLOCK_RECORD
  5
1F
330
1
100
AcDbSymbolTableRecord
100
AcDbBlockTableRecord
  2
*Model_Space
340
22
 70
     0
280
     1
281
     0
  0
BLOCK_RECORD
  5
1B
330
1
100
AcDbSymbolTableRecord
100
AcDbBlockTableRecord
  2
*Paper_Space
340
1E
 70
     0
280
     1
281
     0
  0
BLOCK_RECORD
  5
23
330
1
100
AcDbSymbolTableRecord
100
AcDbBlockTableRecord
  2
*Paper_Space0
340
26
 70
     0
280
     1
281
     0
  0
BLOCK_RECORD
  5
5B
330
1
100
AcDbSymbolTableRecord
100
AcDbBlockTableRecord
  2
block 2
340
0
102
{BLKREFS
331
5C
102
}
 70
     0
280
     1
281
     0
  0
BLOCK_RECORD
  5
7A
330
1
100
AcDbSymbolTableRecord
100
AcDbBlockTableRecord
  2
block 3
340
0
102
{BLKREFS
331
7B
102
}
 70
     0
280
     1
281
     0
  0
BLOCK_RECORD
  5
8E
330
1
100
AcDbSymbolTableRecord
100
AcDbBlockTableRecord
  2
block 4
340
0
102
{BLKREFS
331
8F
102
}
 70
     0
280
     1
281
     0
  0
BLOCK_RECORD
  5
AC
330
1
100
AcDbSymbolTableRecord
100
AcDbBlockTableRecord
  2
block 5
340
0
102
{BLKREFS
331
AD
102
}
 70
     0
280
     1
281
     0
  0
ENDTAB
  0
ENDSEC
  0
SECTION
  2
BLOCKS
  0
BLOCK
  5
20
330
1F
100
AcDbEntity
  8
0
100
AcDbBlockBegin
  2
*Model_Space
 70
     0
 10
0.0
 20
0.0
 30
0.0
  3
*Model_Space
  1

  0
ENDBLK
  5
21
330
1F
100
AcDbEntity
  8
0
100
AcDbBlockEnd
  0
BLOCK
  5
1C
330
1B
100
AcDbEntity
 67
     1
  8
0
100
AcDbBlockBegin
  2
*Paper_Space
 70
     0
 10
0.0
 20
0.0
 30
0.0
  3
*Paper_Space
  1

  0
ENDBLK
  5
1D
330
1B
100
AcDbEntity
 67
     1
  8
0
100
AcDbBlockEnd
  0
BLOCK
  5
24
330
23
100
AcDbEntity
  8
0
100
AcDbBlockBegin
  2
*Paper_Space0
 70
     0
 10
0.0
 20
0.0
 30
0.0
  3
*Paper_Space0
  1

  0
ENDBLK
  5
25
330
23
100
AcDbEntity
  8
0
100
AcDbBlockEnd
  0
BLOCK
  5
5D
330
5B
100
AcDbEntity
  8
0
100
AcDbBlockBegin
  2
block 2
 70
     0
 10
0.0
 20
0.0
 30
0.0
  3
block 2
  1

  0
SPLINE
  5
5F
330
5B
100
AcDbEntity
  8
_U+30EC_U+30A4_U+30E4_U+30FC 1
370
     0
100
AcDbSpline
210
0.0
220
0.0
230
1.0
 70
    11
 71
     3
 72
    44
 73
    40
 74
     0
 42
0.0000000001
 43
0.0000000001
 12
1.0
 22
0.0
 32
0.0
 13
1.0
 23
0.0
 33
0.0
 40
0.0
 40
0.0
 40
0.0
 40
0.0
 40
1.0
 40
1.0
 40
1.0
 40
2.0
 40
2.0
 40
2.0
 40
3.0
 40
3.0
 40
3.0
 40
4.0
 40
4.0
 40
4.0
 40
5.0
 40
5.0
 40
5.0
 40
6.0
 40
6.0
 40
6.0
 40
7.0
 40
7.0
 40
7.0
 40
8.0
 40
8.0
 40
8.0
 40
9.0
 40
9.0
 40
9.0
 40
10.0
 40
10.0
 40
10.0
 40
11.0
 40
11.0
 40
11.0
 40
12.0
 40
12.0
 40
12.0
 40
13.0
 40
13.0
 40
13.0
 40
13.0
 10
92.2562119995054
 20
-89.51098766208406
 30
0.0
 10
92.2327853502057
 20
-89.46654593032434
 30
0.0
 10
92.21177026774568
 20
-89.41383596940001
 30
0.0
 10
92.209358700906
 20
-89.18301457188828
 30
0.0
 10
92.2052245863237
 20
-88.93979083062963
 30
0.0
 10
92.1459689439774
 20
-88.86985539227906
 30
0.0
 10
91.9682020169385
 20
-88.86985539227906
 30
0.0
 10
91.9682020169385
 20
-88.86985539227906
 30
0.0
 10
91.5599582019364
 20
-88.86985539227906
 30
0.0
 10
91.5599582019364
 20
-88.86985539227906
 30
0.0
 10
91.5599582019364
 20
-88.86985539227906
 30
0.0
 10
91.5599582019364
 20
-89.51098766208406
 30
0.0
 10
91.5599582019364
 20
-89.51098766208406
 30
0.0
 10
91.5599582019364
 20
-89.51098766208406
 30
0.0
 10
91.32517494461662
 20
-89.51098766208406
 30
0.0
 10
91.32517494461662
 20
-89.51098766208406
 30
0.0
 10
91.32517494461662
 20
-89.51098766208406
 30
0.0
 10
91.32517494461662
 20
-87.96655135604657
 30
0.0
 10
91.32517494461662
 20
-87.96655135604657
 30
0.0
 10
91.32517494461662
 20
-87.96655135604657
 30
0.0
 10
91.99989689540281
 20
-87.96655135604657
 30
0.0
 10
91.99989689540281
 20
-87.96655135604657
 30
0.0
 10
92.30685490313857
 20
-87.96655135604657
 30
0.0
 10
92.47394203417319
 20
-88.138117111212
 30
0.0
 10
92.47394203417319
 20
-88.39408770576607
 30
0.0
 10
92.47394203417319
 20
-88.44473060939924
 30
0.0
 10
92.46532929546007
 20
-88.52741290104524
 30
0.0
 10
92.42088756370033
 20
-88.60768362585155
 30
0.0
 10
92.36197643090257
 20
-88.71138099995757
 30
0.0
 10
92.29617510713429
 20
-88.73032902512645
 30
0.0
 10
92.23485240749685
 20
-88.74720999300418
 30
0.0
 10
92.37231171735831
 20
-88.78958466747275
 30
0.0
 10
92.44018009841774
 20
-88.83816051381477
 30
0.0
 10
92.44431421300004
 20
-89.15338675071513
 30
0.0
 10
92.44844832758234
 20
-89.42417125585577
 30
0.0
 10
92.48462183017746
 20
-89.45586613432006
 30
0.0
 10
92.55214570168836
 20
-89.51098766208406
 30
0.0
 10
92.55214570168836
 20
-89.51098766208406
 30
0.0
 10
92.2562119995054
 20
-89.51098766208406
 30
0.0
 10
92.2562119995054
 20
-89.51098766208406
 30
0.0
  0
SPLINE
  5
60
330
5B
100
AcDbEntity
  8
_U+30EC_U+30A4_U+30E4_U+30FC 1
370
     0
100
AcDbSpline
210
0.0
220
0.0
230
1.0
 70
    11
 71
     3
 72
    20
 73
    16
 74
     0
 42
0.0000000001
 43
0.0000000001
 12
1.0
 22
0.0
 32
0.0
 13
1.0
 23
0.0
 33
0.0
 40
0.0
 40
0.0
 40
0.0
 40
0.0
 40
1.0
 40
1.0
 40
1.0
 40
2.0
 40
2.0
 40
2.0
 40
3.0
 40
3.0
 40
3.0
 40
4.0
 40
4.0
 40
4.0
 40
5.0
 40
5.0
 40
5.0
 40
5.0
 10
92.00437551953364
 20
-88.1780802188409
 30
0.0
 10
92.00437551953364
 20
-88.1780802188409
 30
0.0
 10
91.5599582019364
 20
-88.1780802188409
 30
0.0
 10
91.5599582019364
 20
-88.1780802188409
 30
0.0
 10
91.5599582019364
 20
-88.1780802188409
 30
0.0
 10
91.5599582019364
 20
-88.65832652948473
 30
0.0
 10
91.5599582019364
 20
-88.65832652948473
 30
0.0
 10
91.5599582019364
 20
-88.65832652948473
 30
0.0
 10
92.00230846224248
 20
-88.65832652948473
 30
0.0
 10
92.00230846224248
 20
-88.65832652948473
 30
0.0
 10
92.10152721221768
 20
-88.65832652948473
 30
0.0
 10
92.236919464788
 20
-88.58218991926071
 30
0.0
 10
92.236919464788
 20
-88.4109686736438
 30
0.0
 10
92.236919464788
 20
-88.33276500612862
 30
0.0
 10
92.20315752903255
 20
-88.1780802188409
 30
0.0
 10
92.00437551953364
 20
-88.1780802188409
 30
0.0
  0
HATCH
  5
61
330
5B
100
AcDbEntity
  8
_U+30EC_U+30A4_U+30E4_U+30FC 1
 62
   179
420
  2234388
100
AcDbHatch
 10
0.0
 20
0.0
 30
0.0
210
0.0
220
0.0
230
1.0
  2
SOLID
 70
     1
 71
     0
 91
        2
 92
        1
 93
        1
 72
     4
 94
        3
 73
     0
 74
     1
 95
       44
 96
       40
 40
0.0
 40
0.0
 40
0.0
 40
0.0
 40
1.0
 40
1.0
 40
1.0
 40
2.0
 40
2.0
 40
2.0
 40
3.0
 40
3.0
 40
3.0
 40
4.0
 40
4.0
 40
4.0
 40
5.0
 40
5.0
 40
5.0
 40
6.0
 40
6.0
 40
6.0
 40
7.0
 40
7.0
 40
7.0
 40
8.0
 40
8.0
 40
8.0
 40
9.0
 40
9.0
 40
9.0
 40
10.0
 40
10.0
 40
10.0
 40
11.0
 40
11.0
 40
11.0
 40
12.0
 40
12.0
 40
12.0
 40
13.0
 40
13.0
 40
13.0
 40
13.0
 10
92.2562119995054
 20
-89.51098766208406
 10
92.2327853502057
 20
-89.46654593032434
 10
92.21177026774568
 20
-89.41383596940001
 10
92.209358700906
 20
-89.18301457188828
 10
92.2052245863237
 20
-88.93979083062963
 10
92.1459689439774
 20
-88.86985539227906
 10
91.9682020169385
 20
-88.86985539227906
 10
91.9682020169385
 20
-88.86985539227906
 10
91.5599582019364
 20
-88.86985539227906
 10
91.5599582019364
 20
-88.86985539227906
 10
91.5599582019364
 20
-88.86985539227906
 10
91.5599582019364
 20
-89.51098766208406
 10
91.5599582019364
 20
-89.51098766208406
 10
91.5599582019364
 20
-89.51098766208406
 10
91.32517494461662
 20
-89.51098766208406
 10
91.32517494461662
 20
-89.51098766208406
 10
91.32517494461662
 20
-89.51098766208406
 10
91.32517494461662
 20
-87.96655135604657
 10
91.32517494461662
 20
-87.96655135604657
 10
91.32517494461662
 20
-87.96655135604657
 10
91.99989689540281
 20
-87.96655135604657
 10
91.99989689540281
 20
-87.96655135604657
 10
92.30685490313857
 20
-87.96655135604657
 10
92.47394203417319
 20
-88.138117111212
 10
92.47394203417319
 20
-88.39408770576607
 10
92.47394203417319
 20
-88.44473060939924
 10
92.46532929546007
 20
-88.52741290104524
 10
92.42088756370033
 20
-88.60768362585155
 10
92.36197643090257
 20
-88.71138099995757
 10
92.29617510713429
 20
-88.73032902512645
 10
92.23485240749685
 20
-88.74720999300418
 10
92.37231171735831
 20
-88.78958466747275
 10
92.44018009841774
 20
-88.83816051381477
 10
92.44431421300004
 20
-89.15338675071513
 10
92.44844832758234
 20
-89.42417125585577
 10
92.48462183017746
 20
-89.45586613432006
 10
92.55214570168836
 20
-89.51098766208406
 10
92.55214570168836
 20
-89.51098766208406
 10
92.2562119995054
 20
-89.51098766208406
 10
92.2562119995054
 20
-89.51098766208406
 97
        0
 97
        0
 92
        1
 93
        1
 72
     4
 94
        3
 73
     0
 74
     1
 95
       20
 96
       16
 40
0.0
 40
0.0
 40
0.0
 40
0.0
 40
1.0
 40
1.0
 40
1.0
 40
2.0
 40
2.0
 40
2.0
 40
3.0
 40
3.0
 40
3.0
 40
4.0
 40
4.0
 40
4.0
 40
5.0
 40
5.0
 40
5.0
 40
5.0
 10
92.00437551953364
 20
-88.1780802188409
 10
92.00437551953364
 20
-88.1780802188409
 10
91.5599582019364
 20
-88.1780802188409
 10
91.5599582019364
 20
-88.1780802188409
 10
91.5599582019364
 20
-88.1780802188409
 10
91.5599582019364
 20
-88.65832652948473
 10
91.5599582019364
 20
-88.65832652948473
 10
91.5599582019364
 20
-88.65832652948473
 10
92.00230846224248
 20
-88.65832652948473
 10
92.00230846224248
 20
-88.65832652948473
 10
92.10152721221768
 20
-88.65832652948473
 10
92.236919464788
 20
-88.58218991926071
 10
92.236919464788
 20
-88.4109686736438
 10
92.236919464788
 20
-88.33276500612862
 10
92.20315752903255
 20
-88.1780802188409
 10
92.00437551953364
 20
-88.1780802188409
 97
        0
 97
        0
 75
     2
 76
     1
 98
        0
  0
SPLINE
  5
62
330
5B
100
AcDbEntity
  8
_U+30EC_U+30A4_U+30E4_U+30FC 1
370
     0
100
AcDbSpline
210
0.0
220
0.0
230
1.0
 70
    11
 71
     3
 72
    26
 73
    22
 74
     0
 42
0.0000000001
 43
0.0000000001
 12
1.0
 22
0.0
 32
0.0
 13
1.0
 23
0.0
 33
0.0
 40
0.0
 40
0.0
 40
0.0
 40
0.0
 40
1.0
 40
1.0
 40
1.0
 40
2.0
 40
2.0
 40
2.0
 40
3.0
 40
3.0
 40
3.0
 40
4.0
 40
4.0
 40
4.0
 40
5.0
 40
5.0
 40
5.0
 40
6.0
 40
6.0
 40
6.0
 40
7.0
 40
7.0
 40
7.0
 40
7.0
 10
93.14332408695724
 20
-89.51098766208406
 30
0.0
 10
93.14332408695724
 20
-89.51098766208406
 30
0.0
 10
93.14332408695724
 20
-88.4068345590615
 30
0.0
 10
93.14332408695724
 20
-88.4068345590615
 30
0.0
 10
93.14332408695724
 20
-88.4068345590615
 30
0.0
 10
92.8132839394703
 20
-88.4068345590615
 30
0.0
 10
92.8132839394703
 20
-88.4068345590615
 30
0.0
 10
92.8132839394703
 20
-88.4068345590615
 30
0.0
 10
92.8132839394703
 20
-88.25869545319574
 30
0.0
 10
92.8132839394703
 20
-88.25869545319574
 30
0.0
 10
93.14539114424838
 20
-88.24388154260917
 30
0.0
 10
93.19189993329925
 20
-88.08092852615685
 30
0.0
 10
93.2215277544724
 20
-87.96655135604657
 30
0.0
 10
93.2215277544724
 20
-87.96655135604657
 30
0.0
 10
93.367599803047
 20
-87.96655135604657
 30
0.0
 10
93.367599803047
 20
-87.96655135604657
 30
0.0
 10
93.367599803047
 20
-87.96655135604657
 30
0.0
 10
93.367599803047
 20
-89.51098766208406
 30
0.0
 10
93.367599803047
 20
-89.51098766208406
 30
0.0
 10
93.367599803047
 20
-89.51098766208406
 30
0.0
 10
93.14332408695724
 20
-89.51098766208406
 30
0.0
 10
93.14332408695724
 20
-89.51098766208406
 30
0.0
  0
HATCH
  5
63
330
5B
100
AcDbEntity
  8
_U+30EC_U+30A4_U+30E4_U+30FC 1
 62
   179
420
  2234388
100
AcDbHatch
 10
0.0
 20
0.0
 30
0.0
210
0.0
220
0.0
230
1.0
  2
SOLID
 70
     1
 71
     0
 91
        1
 92
        1
 93
        1
 72
     4
 94
        3
 73
     0
 74
     1
 95
       26
 96
       22
 40
0.0
 40
0.0
 40
0.0
 40
0.0
 40
1.0
 40
1.0
 40
1.0
 40
2.0
 40
2.0
 40
2.0
 40
3.0
 40
3.0
 40
3.0
 40
4.0
 40
4.0
 40
4.0
 40
5.0
 40
5.0
 40
5.0
 40
6.0
 40
6.0
 40
6.0
 40
7.0
 40
7.0
 40
7.0
 40
7.0
 10
93.14332408695724
 20
-89.51098766208406
 10
93.14332408695724
 20
-89.51098766208406
 10
93.14332408695724
 20
-88.4068345590615
 10
93.14332408695724
 20
-88.4068345590615
 10
93.14332408695724
 20
-88.4068345590615
 10
92.8132839394703
 20
-88.4068345590615
 10
92.8132839394703
 20
-88.4068345590615
 10
92.8132839394703
 20
-88.4068345590615
 10
92.8132839394703
 20
-88.25869545319574
 10
92.8132839394703
 20
-88.25869545319574
 10
93.14539114424838
 20
-88.24388154260917
 10
93.19189993329925
 20
-88.08092852615685
 10
93.2215277544724
 20
-87.96655135604657
 10
93.2215277544724
 20
-87.96655135604657
 10
93.367599803047
 20
-87.96655135604657
 10
93.367599803047
 20
-87.96655135604657
 10
93.367599803047
 20
-87.96655135604657
 10
93.367599803047
 20
-89.51098766208406
 10
93.367599803047
 20
-89.51098766208406
 10
93.367599803047
 20
-89.51098766208406
 10
93.14332408695724
 20
-89.51098766208406
 10
93.14332408695724
 20
-89.51098766208406
 97
        0
 97
        0
 75
     2
 76
     1
 98
        0
  0
POLYLINE
  5
64
330
5B
100
AcDbEntity
  8
_U+30EC_U+30A4_U+30E4_U+30FC 1
370
     0
100
AcDb2dPolyline
 66
     1
 10
0.0
 20
0.0
 30
0.0
  0
VERTEX
  5
65
330
64
100
AcDbEntity
  8
_U+30EC_U+30A4_U+30E4_U+30FC 1
370
     0
100
AcDbVertex
100
AcDb2dVertex
 10
93.92880585759418
 20
-89.51098766208406
 30
0.0
  0
VERTEX
  5
66
330
64
100
AcDbEntity
  8
_U+30EC_U+30A4_U+30E4_U+30FC 1
370
     0
100
AcDbVertex
100
AcDb2dVertex
 10
93.92880585759418
 20
-89.2591511821123
 30
0.0
  0
VERTEX
  5
67
330
64
100
AcDbEntity
  8
_U+30EC_U+30A4_U+30E4_U+30FC 1
370
     0
100
AcDbVertex
100
AcDb2dVertex
 10
94.18064233756596
 20
-89.2591511821123
 30
0.0
  0
VERTEX
  5
68
330
64
100
AcDbEntity
  8
_U+30EC_U+30A4_U+30E4_U+30FC 1
370
     0
100
AcDbVertex
100
AcDb2dVertex
 10
94.18064233756596
 20
-89.51098766208406
 30
0.0
  0
VERTEX
  5
69
330
64
100
AcDbEntity
  8
_U+30EC_U+30A4_U+30E4_U+30FC 1
370
     0
100
AcDbVertex
100
AcDb2dVertex
 10
93.92880585759418
 20
-89.51098766208406
 30
0.0
  0
SEQEND
  5
6A
330
64
100
AcDbEntity
  8
_U+30EC_U+30A4_U+30E4_U+30FC 1
370
     0
  0
HATCH
  5
6B
330
5B
100
AcDbEntity
  8
_U+30EC_U+30A4_U+30E4_U+30FC 1
 62
   179
420
  2234388
100
AcDbHatch
 10
0.0
 20
0.0
 30
0.0
210
0.0
220
0.0
230
1.0
  2
SOLID
 70
     1
 71
     0
 91
        1
 92
        1
 93
        4
 72
     1
 10
93.92880585759418
 20
-89.51098766208406
 11
93.92880585759418
 21
-89.2591511821123
 72
     1
 10
93.92880585759418
 20
-89.2591511821123
 11
94.18064233756596
 21
-89.2591511821123
 72
     1
 10
94.18064233756596
 20
-89.2591511821123
 11
94.18064233756596
 21
-89.51098766208406
 72
     1
 10
94.18064233756596
 20
-89.51098766208406
 11
93.92880585759418
 21
-89.51098766208406
 97
        0
 75
     2
 76
     1
 98
        0
  0
SPLINE
  5
6C
330
5B
100
AcDbEntity
  8
_U+30EC_U+30A4_U+30E4_U+30FC 1
370
     0
100
AcDbSpline
210
0.0
220
0.0
230
1.0
 70
    11
 71
     3
 72
    53
 73
    49
 74
     0
 42
0.0000000001
 43
0.0000000001
 12
1.0
 22
0.0
 32
0.0
 13
1.0
 23
0.0
 33
0.0
 40
0.0
 40
0.0
 40
0.0
 40
0.0
 40
1.0
 40
1.0
 40
1.0
 40
2.0
 40
2.0
 40
2.0
 40
3.0
 40
3.0
 40
3.0
 40
4.0
 40
4.0
 40
4.0
 40
5.0
 40
5.0
 40
5.0
 40
6.0
 40
6.0
 40
6.0
 40
7.0
 40
7.0
 40
7.0
 40
8.0
 40
8.0
 40
8.0
 40
9.0
 40
9.0
 40
9.0
 40
10.0
 40
10.0
 40
10.0
 40
11.0
 40
11.0
 40
11.0
 40
12.0
 40
12.0
 40
12.0
 40
13.0
 40
13.0
 40
13.0
 40
14.0
 40
14.0
 40
14.0
 40
15.0
 40
15.0
 40
15.0
 40
16.0
 40
16.0
 40
16.0
 40
16.0
 10
94.89791121759497
 20
-89.56163056571724
 30
0.0
 10
94.8197075500798
 20
-89.56163056571724
 30
0.0
 10
94.71807723326494
 20
-89.54474959783951
 30
0.0
 10
94.61644691645006
 20
-89.48135984091091
 30
0.0
 10
94.443158613542
 20
-89.37146129493145
 30
0.0
 10
94.42179902153345
 20
-89.24020315694342
 30
0.0
 10
94.40285099636456
 20
-89.1323716682551
 30
0.0
 10
94.40285099636456
 20
-89.1323716682551
 30
0.0
 10
94.62505965516318
 20
-89.1323716682551
 30
0.0
 10
94.62505965516318
 20
-89.1323716682551
 30
0.0
 10
94.67983667337866
 20
-89.33115367775402
 30
0.0
 10
94.80696069678437
 20
-89.36078149892717
 30
0.0
 10
94.89997827488612
 20
-89.36078149892717
 30
0.0
 10
95.03950464203874
 20
-89.36078149892717
 30
0.0
 10
95.19177786248679
 20
-89.26121823940345
 30
0.0
 10
95.19177786248679
 20
-89.02867429414908
 30
0.0
 10
95.19177786248679
 20
-88.77270369959503
 30
0.0
 10
95.01194387815674
 20
-88.70276826124446
 30
0.0
 10
94.891365536173
 20
-88.70276826124446
 30
0.0
 10
94.8596706577087
 20
-88.70276826124446
 30
0.0
 10
94.71807723326494
 20
-88.70276826124446
 30
0.0
 10
94.62919376974548
 20
-88.83195934194131
 30
0.0
 10
94.62919376974548
 20
-88.83195934194131
 30
0.0
 10
94.45349389999774
 20
-88.81301131677245
 30
0.0
 10
94.45349389999774
 20
-88.81301131677245
 30
0.0
 10
94.45349389999774
 20
-88.81301131677245
 30
0.0
 10
94.57407224198148
 20
-87.96655135604657
 30
0.0
 10
94.57407224198148
 20
-87.96655135604657
 30
0.0
 10
94.57407224198148
 20
-87.96655135604657
 30
0.0
 10
95.35266382164795
 20
-87.96655135604657
 30
0.0
 10
95.35266382164795
 20
-87.96655135604657
 30
0.0
 10
95.35266382164795
 20
-87.96655135604657
 30
0.0
 10
95.35266382164795
 20
-88.16119925096318
 30
0.0
 10
95.35266382164795
 20
-88.16119925096318
 30
0.0
 10
95.35266382164795
 20
-88.16119925096318
 30
0.0
 10
94.7370252584338
 20
-88.16119925096318
 30
0.0
 10
94.7370252584338
 20
-88.16119925096318
 30
0.0
 10
94.7370252584338
 20
-88.16119925096318
 30
0.0
 10
94.67156844421406
 20
-88.58425697655186
 30
0.0
 10
94.67156844421406
 20
-88.58425697655186
 30
0.0
 10
94.7328911438515
 20
-88.5504950407964
 30
0.0
 10
94.81522892594897
 20
-88.51018742361899
 30
0.0
 10
94.93374021064157
 20
-88.51018742361899
 30
0.0
 10
95.18764374790449
 20
-88.51018742361899
 30
0.0
 10
95.42466631728968
 20
-88.696567089371
 30
0.0
 10
95.42466631728968
 20
-89.00972626898022
 30
0.0
 10
95.42466631728968
 20
-89.32701956317172
 30
0.0
 10
95.20039060119991
 20
-89.56163056571724
 30
0.0
 10
94.89791121759497
 20
-89.56163056571724
 30
0.0
  0
HATCH
  5
6D
330
5B
100
AcDbEntity
  8
_U+30EC_U+30A4_U+30E4_U+30FC 1
 62
   179
420
  2234388
100
AcDbHatch
 10
0.0
 20
0.0
 30
0.0
210
0.0
220
0.0
230
1.0
  2
SOLID
 70
     1
 71
     0
 91
        1
 92
        1
 93
        1
 72
     4
 94
        3
 73
     0
 74
     1
 95
       53
 96
       49
 40
0.0
 40
0.0
 40
0.0
 40
0.0
 40
1.0
 40
1.0
 40
1.0
 40
2.0
 40
2.0
 40
2.0
 40
3.0
 40
3.0
 40
3.0
 40
4.0
 40
4.0
 40
4.0
 40
5.0
 40
5.0
 40
5.0
 40
6.0
 40
6.0
 40
6.0
 40
7.0
 40
7.0
 40
7.0
 40
8.0
 40
8.0
 40
8.0
 40
9.0
 40
9.0
 40
9.0
 40
10.0
 40
10.0
 40
10.0
 40
11.0
 40
11.0
 40
11.0
 40
12.0
 40
12.0
 40
12.0
 40
13.0
 40
13.0
 40
13.0
 40
14.0
 40
14.0
 40
14.0
 40
15.0
 40
15.0
 40
15.0
 40
16.0
 40
16.0
 40
16.0
 40
16.0
 10
94.89791121759497
 20
-89.56163056571724
 10
94.8197075500798
 20
-89.56163056571724
 10
94.71807723326494
 20
-89.54474959783951
 10
94.61644691645006
 20
-89.48135984091091
 10
94.443158613542
 20
-89.37146129493145
 10
94.42179902153345
 20
-89.24020315694342
 10
94.40285099636456
 20
-89.1323716682551
 10
94.40285099636456
 20
-89.1323716682551
 10
94.62505965516318
 20
-89.1323716682551
 10
94.62505965516318
 20
-89.1323716682551
 10
94.67983667337866
 20
-89.33115367775402
 10
94.80696069678437
 20
-89.36078149892717
 10
94.89997827488612
 20
-89.36078149892717
 10
95.03950464203874
 20
-89.36078149892717
 10
95.19177786248679
 20
-89.26121823940345
 10
95.19177786248679
 20
-89.02867429414908
 10
95.19177786248679
 20
-88.77270369959503
 10
95.01194387815674
 20
-88.70276826124446
 10
94.891365536173
 20
-88.70276826124446
 10
94.8596706577087
 20
-88.70276826124446
 10
94.71807723326494
 20
-88.70276826124446
 10
94.62919376974548
 20
-88.83195934194131
 10
94.62919376974548
 20
-88.83195934194131
 10
94.45349389999774
 20
-88.81301131677245
 10
94.45349389999774
 20
-88.81301131677245
 10
94.45349389999774
 20
-88.81301131677245
 10
94.57407224198148
 20
-87.96655135604657
 10
94.57407224198148
 20
-87.96655135604657
 10
94.57407224198148
 20
-87.96655135604657
 10
95.35266382164795
 20
-87.96655135604657
 10
95.35266382164795
 20
-87.96655135604657
 10
95.35266382164795
 20
-87.96655135604657
 10
95.35266382164795
 20
-88.16119925096318
 10
95.35266382164795
 20
-88.16119925096318
 10
95.35266382164795
 20
-88.16119925096318
 10
94.7370252584338
 20
-88.16119925096318
 10
94.7370252584338
 20
-88.16119925096318
 10
94.7370252584338
 20
-88.16119925096318
 10
94.67156844421406
 20
-88.58425697655186
 10
94.67156844421406
 20
-88.58425697655186
 10
94.7328911438515
 20
-88.5504950407964
 10
94.81522892594897
 20
-88.51018742361899
 10
94.93374021064157
 20
-88.51018742361899
 10
95.18764374790449
 20
-88.51018742361899
 10
95.42466631728968
 20
-88.696567089371
 10
95.42466631728968
 20
-89.00972626898022
 10
95.42466631728968
 20
-89.32701956317172
 10
95.20039060119991
 20
-89.56163056571724
 10
94.89791121759497
 20
-89.56163056571724
 97
        0
 97
        0
 75
     2
 76
     1
 98
        0
  0
ENDBLK
  5
5E
330
5B
100
AcDbEntity
  8
0
100
AcDbBlockEnd
  0
BLOCK
  5
7C
330
7A
100
AcDbEntity
  8
0
100
AcDbBlockBegin
  2
block 3
 70
     0
 10
0.0
 20
0.0
 30
0.0
  3
block 3
  1

  0
SPLINE
  5
7E
330
7A
100
AcDbEntity
  8
_U+30EC_U+30A4_U+30E4_U+30FC 1
370
     0
100
AcDbSpline
210
0.0
220
0.0
230
1.0
 70
    11
 71
     3
 72
    44
 73
    40
 74
     0
 42
0.0000000001
 43
0.0000000001
 12
1.0
 22
0.0
 32
0.0
 13
1.0
 23
0.0
 33
0.0
 40
0.0
 40
0.0
 40
0.0
 40
0.0
 40
1.0
 40
1.0
 40
1.0
 40
2.0
 40
2.0
 40
2.0
 40
3.0
 40
3.0
 40
3.0
 40
4.0
 40
4.0
 40
4.0
 40
5.0
 40
5.0
 40
5.0
 40
6.0
 40
6.0
 40
6.0
 40
7.0
 40
7.0
 40
7.0
 40
8.0
 40
8.0
 40
8.0
 40
9.0
 40
9.0
 40
9.0
 40
10.0
 40
10.0
 40
10.0
 40
11.0
 40
11.0
 40
11.0
 40
12.0
 40
12.0
 40
12.0
 40
13.0
 40
13.0
 40
13.0
 40
13.0
 10
92.27653806286837
 20
-171.9846787764483
 30
0.0
 10
92.25311141356867
 20
-171.93989253514
 30
0.0
 10
92.23209633110865
 20
-171.8875270837642
 30
0.0
 10
92.22968476426897
 20
-171.6567056862525
 30
0.0
 10
92.22555064968667
 20
-171.4134819449939
 30
0.0
 10
92.16629500734038
 20
-171.3432019970948
 30
0.0
 10
91.98852808030148
 20
-171.3432019970948
 30
0.0
 10
91.98852808030148
 20
-171.3432019970948
 30
0.0
 10
91.58028426529938
 20
-171.3432019970948
 30
0.0
 10
91.58028426529938
 20
-171.3432019970948
 30
0.0
 10
91.58028426529938
 20
-171.3432019970948
 30
0.0
 10
91.58028426529938
 20
-171.9846787764483
 30
0.0
 10
91.58028426529938
 20
-171.9846787764483
 30
0.0
 10
91.58028426529938
 20
-171.9846787764483
 30
0.0
 10
91.34567326275386
 20
-171.9846787764483
 30
0.0
 10
91.34567326275386
 20
-171.9846787764483
 30
0.0
 10
91.34567326275386
 20
-171.9846787764483
 30
0.0
 10
91.34567326275386
 20
-170.4398979608623
 30
0.0
 10
91.34567326275386
 20
-170.4398979608623
 30
0.0
 10
91.34567326275386
 20
-170.4398979608623
 30
0.0
 10
92.02022295876579
 20
-170.4398979608623
 30
0.0
 10
92.02022295876579
 20
-170.4398979608623
 30
0.0
 10
92.32718096650154
 20
-170.4398979608623
 30
0.0
 10
92.49426809753616
 20
-170.6114637160277
 30
0.0
 10
92.49426809753616
 20
-170.8677788201303
 30
0.0
 10
92.49426809753616
 20
-170.9180772142149
 30
0.0
 10
92.48565535882304
 20
-171.0007595058609
 30
0.0
 10
92.4412136270633
 20
-171.0813747402158
 30
0.0
 10
92.38230249426555
 20
-171.1847276047733
 30
0.0
 10
92.31650117049726
 20
-171.2040201394907
 30
0.0
 10
92.25517847085982
 20
-171.2205565978199
 30
0.0
 10
92.39263778072129
 20
-171.263275781837
 30
0.0
 10
92.46050616178071
 20
-171.3115071186305
 30
0.0
 10
92.46464027636301
 20
-171.6270778650793
 30
0.0
 10
92.46877439094531
 20
-171.89786237022
 30
0.0
 10
92.50494789354043
 20
-171.9295572486843
 30
0.0
 10
92.57247176505133
 20
-171.9846787764483
 30
0.0
 10
92.57247176505133
 20
-171.9846787764483
 30
0.0
 10
92.27653806286837
 20
-171.9846787764483
 30
0.0
 10
92.27653806286837
 20
-171.9846787764483
 30
0.0
  0
SPLINE
  5
7F
330
7A
100
AcDbEntity
  8
_U+30EC_U+30A4_U+30E4_U+30FC 1
370
     0
100
AcDbSpline
210
0.0
220
0.0
230
1.0
 70
    11
 71
     3
 72
    20
 73
    16
 74
     0
 42
0.0000000001
 43
0.0000000001
 12
1.0
 22
0.0
 32
0.0
 13
1.0
 23
0.0
 33
0.0
 40
0.0
 40
0.0
 40
0.0
 40
0.0
 40
1.0
 40
1.0
 40
1.0
 40
2.0
 40
2.0
 40
2.0
 40
3.0
 40
3.0
 40
3.0
 40
4.0
 40
4.0
 40
4.0
 40
5.0
 40
5.0
 40
5.0
 40
5.0
 10
92.02470158289661
 20
-170.6514268236566
 30
0.0
 10
92.02470158289661
 20
-170.6514268236566
 30
0.0
 10
91.58028426529938
 20
-170.6514268236566
 30
0.0
 10
91.58028426529938
 20
-170.6514268236566
 30
0.0
 10
91.58028426529938
 20
-170.6514268236566
 30
0.0
 10
91.58028426529938
 20
-171.1316731343004
 30
0.0
 10
91.58028426529938
 20
-171.1316731343004
 30
0.0
 10
91.58028426529938
 20
-171.1316731343004
 30
0.0
 10
92.02263452560545
 20
-171.1316731343004
 30
0.0
 10
92.02263452560545
 20
-171.1316731343004
 30
0.0
 10
92.12185327558065
 20
-171.1316731343004
 30
0.0
 10
92.25724552815097
 20
-171.0558810336249
 30
0.0
 10
92.25724552815097
 20
-170.8843152784595
 30
0.0
 10
92.25724552815097
 20
-170.8064561204928
 30
0.0
 10
92.22348359239552
 20
-170.6514268236566
 30
0.0
 10
92.02470158289661
 20
-170.6514268236566
 30
0.0
  0
HATCH
  5
80
330
7A
100
AcDbEntity
  8
_U+30EC_U+30A4_U+30E4_U+30FC 1
 62
   179
420
  2234388
100
AcDbHatch
 10
0.0
 20
0.0
 30
0.0
210
0.0
220
0.0
230
1.0
  2
SOLID
 70
     1
 71
     0
 91
        2
 92
        1
 93
        1
 72
     4
 94
        3
 73
     0
 74
     1
 95
       44
 96
       40
 40
0.0
 40
0.0
 40
0.0
 40
0.0
 40
1.0
 40
1.0
 40
1.0
 40
2.0
 40
2.0
 40
2.0
 40
3.0
 40
3.0
 40
3.0
 40
4.0
 40
4.0
 40
4.0
 40
5.0
 40
5.0
 40
5.0
 40
6.0
 40
6.0
 40
6.0
 40
7.0
 40
7.0
 40
7.0
 40
8.0
 40
8.0
 40
8.0
 40
9.0
 40
9.0
 40
9.0
 40
10.0
 40
10.0
 40
10.0
 40
11.0
 40
11.0
 40
11.0
 40
12.0
 40
12.0
 40
12.0
 40
13.0
 40
13.0
 40
13.0
 40
13.0
 10
92.27653806286837
 20
-171.9846787764483
 10
92.25311141356867
 20
-171.93989253514
 10
92.23209633110865
 20
-171.8875270837642
 10
92.22968476426897
 20
-171.6567056862525
 10
92.22555064968667
 20
-171.4134819449939
 10
92.16629500734038
 20
-171.3432019970948
 10
91.98852808030148
 20
-171.3432019970948
 10
91.98852808030148
 20
-171.3432019970948
 10
91.58028426529938
 20
-171.3432019970948
 10
91.58028426529938
 20
-171.3432019970948
 10
91.58028426529938
 20
-171.3432019970948
 10
91.58028426529938
 20
-171.9846787764483
 10
91.58028426529938
 20
-171.9846787764483
 10
91.58028426529938
 20
-171.9846787764483
 10
91.34567326275386
 20
-171.9846787764483
 10
91.34567326275386
 20
-171.9846787764483
 10
91.34567326275386
 20
-171.9846787764483
 10
91.34567326275386
 20
-170.4398979608623
 10
91.34567326275386
 20
-170.4398979608623
 10
91.34567326275386
 20
-170.4398979608623
 10
92.02022295876579
 20
-170.4398979608623
 10
92.02022295876579
 20
-170.4398979608623
 10
92.32718096650154
 20
-170.4398979608623
 10
92.49426809753616
 20
-170.6114637160277
 10
92.49426809753616
 20
-170.8677788201303
 10
92.49426809753616
 20
-170.9180772142149
 10
92.48565535882304
 20
-171.0007595058609
 10
92.4412136270633
 20
-171.0813747402158
 10
92.38230249426555
 20
-171.1847276047733
 10
92.31650117049726
 20
-171.2040201394907
 10
92.25517847085982
 20
-171.2205565978199
 10
92.39263778072129
 20
-171.263275781837
 10
92.46050616178071
 20
-171.3115071186305
 10
92.46464027636301
 20
-171.6270778650793
 10
92.46877439094531
 20
-171.89786237022
 10
92.50494789354043
 20
-171.9295572486843
 10
92.57247176505133
 20
-171.9846787764483
 10
92.57247176505133
 20
-171.9846787764483
 10
92.27653806286837
 20
-171.9846787764483
 10
92.27653806286837
 20
-171.9846787764483
 97
        0
 97
        0
 92
        1
 93
        1
 72
     4
 94
        3
 73
     0
 74
     1
 95
       20
 96
       16
 40
0.0
 40
0.0
 40
0.0
 40
0.0
 40
1.0
 40
1.0
 40
1.0
 40
2.0
 40
2.0
 40
2.0
 40
3.0
 40
3.0
 40
3.0
 40
4.0
 40
4.0
 40
4.0
 40
5.0
 40
5.0
 40
5.0
 40
5.0
 10
92.02470158289661
 20
-170.6514268236566
 10
92.02470158289661
 20
-170.6514268236566
 10
91.58028426529938
 20
-170.6514268236566
 10
91.58028426529938
 20
-170.6514268236566
 10
91.58028426529938
 20
-170.6514268236566
 10
91.58028426529938
 20
-171.1316731343004
 10
91.58028426529938
 20
-171.1316731343004
 10
91.58028426529938
 20
-171.1316731343004
 10
92.02263452560545
 20
-171.1316731343004
 10
92.02263452560545
 20
-171.1316731343004
 10
92.12185327558065
 20
-171.1316731343004
 10
92.25724552815097
 20
-171.0558810336249
 10
92.25724552815097
 20
-170.8843152784595
 10
92.25724552815097
 20
-170.8064561204928
 10
92.22348359239552
 20
-170.6514268236566
 10
92.02470158289661
 20
-170.6514268236566
 97
        0
 97
        0
 75
     2
 76
     1
 98
        0
  0
SPLINE
  5
81
330
7A
100
AcDbEntity
  8
_U+30EC_U+30A4_U+30E4_U+30FC 1
370
     0
100
AcDbSpline
210
0.0
220
0.0
230
1.0
 70
    11
 71
     3
 72
    29
 73
    25
 74
     0
 42
0.0000000001
 43
0.0000000001
 12
1.0
 22
0.0
 32
0.0
 13
1.0
 23
0.0
 33
0.0
 40
0.0
 40
0.0
 40
0.0
 40
0.0
 40
1.0
 40
1.0
 40
1.0
 40
2.0
 40
2.0
 40
2.0
 40
3.0
 40
3.0
 40
3.0
 40
4.0
 40
4.0
 40
4.0
 40
5.0
 40
5.0
 40
5.0
 40
6.0
 40
6.0
 40
6.0
 40
7.0
 40
7.0
 40
7.0
 40
8.0
 40
8.0
 40
8.0
 40
8.0
 10
93.60979001566005
 20
-171.8069118494094
 30
0.0
 10
93.50195852697173
 20
-172.0163736549126
 30
0.0
 10
93.32867022406367
 20
-172.0349771705329
 30
0.0
 10
93.21222599666223
 20
-172.0349771705329
 30
0.0
 10
93.05134003750106
 20
-172.0349771705329
 30
0.0
 10
92.9097466130573
 20
-171.9888128910306
 30
0.0
 10
92.81431746811587
 20
-171.8069118494094
 30
0.0
 10
92.71096460355838
 20
-171.6119194449442
 30
0.0
 10
92.69167206884097
 20
-171.3755858946561
 30
0.0
 10
92.69167206884097
 20
-171.2122883686553
 30
0.0
 10
92.69167206884097
 20
-171.0682833773718
 30
0.0
 10
92.7085530367187
 20
-170.8167914069486
 30
0.0
 10
92.81431746811587
 20
-170.6176648879012
 30
0.0
 10
92.92249346635272
 20
-170.4150932733685
 30
0.0
 10
93.08303491596536
 20
-170.3916666240688
 30
0.0
 10
93.21222599666223
 20
-170.3916666240688
 30
0.0
 10
93.37070038898372
 20
-170.3916666240688
 30
0.0
 10
93.51470538026716
 20
-170.43576384628
 30
0.0
 10
93.60979001566005
 20
-170.6176648879012
 30
0.0
 10
93.70935327518377
 20
-170.8105902350751
 30
0.0
 10
93.73243541493495
 20
-171.0386555561987
 30
0.0
 10
93.73243541493495
 20
-171.2122883686553
 30
0.0
 10
93.73243541493495
 20
-171.3838541238207
 30
0.0
 10
93.71142033247493
 20
-171.6139865022354
 30
0.0
 10
93.60979001566005
 20
-171.8069118494094
 30
0.0
  0
SPLINE
  5
82
330
7A
100
AcDbEntity
  8
_U+30EC_U+30A4_U+30E4_U+30FC 1
370
     0
100
AcDbSpline
210
0.0
220
0.0
230
1.0
 70
    11
 71
     3
 72
    17
 73
    13
 74
     0
 42
0.0000000001
 43
0.0000000001
 12
1.0
 22
0.0
 32
0.0
 13
1.0
 23
0.0
 33
0.0
 40
0.0
 40
0.0
 40
0.0
 40
0.0
 40
1.0
 40
1.0
 40
1.0
 40
2.0
 40
2.0
 40
2.0
 40
3.0
 40
3.0
 40
3.0
 40
4.0
 40
4.0
 40
4.0
 40
4.0
 10
93.21222599666223
 20
-170.5839029521457
 30
0.0
 10
92.96245657398161
 20
-170.5839029521457
 30
0.0
 10
92.91594778493074
 20
-170.8677788201303
 30
0.0
 10
92.91594778493074
 20
-171.2122883686553
 30
0.0
 10
92.91594778493074
 20
-171.5319932296865
 30
0.0
 10
92.95212128752587
 20
-171.8406737851649
 30
0.0
 10
93.21222599666223
 20
-171.8406737851649
 30
0.0
 10
93.45958385250316
 20
-171.8406737851649
 30
0.0
 10
93.50850420839372
 20
-171.5595539935684
 30
0.0
 10
93.50850420839372
 20
-171.2122883686553
 30
0.0
 10
93.50850420839372
 20
-170.8925835076241
 30
0.0
 10
93.47026364850744
 20
-170.5839029521457
 30
0.0
 10
93.21222599666223
 20
-170.5839029521457
 30
0.0
  0
HATCH
  5
83
330
7A
100
AcDbEntity
  8
_U+30EC_U+30A4_U+30E4_U+30FC 1
 62
   179
420
  2234388
100
AcDbHatch
 10
0.0
 20
0.0
 30
0.0
210
0.0
220
0.0
230
1.0
  2
SOLID
 70
     1
 71
     0
 91
        2
 92
        1
 93
        1
 72
     4
 94
        3
 73
     0
 74
     1
 95
       29
 96
       25
 40
0.0
 40
0.0
 40
0.0
 40
0.0
 40
1.0
 40
1.0
 40
1.0
 40
2.0
 40
2.0
 40
2.0
 40
3.0
 40
3.0
 40
3.0
 40
4.0
 40
4.0
 40
4.0
 40
5.0
 40
5.0
 40
5.0
 40
6.0
 40
6.0
 40
6.0
 40
7.0
 40
7.0
 40
7.0
 40
8.0
 40
8.0
 40
8.0
 40
8.0
 10
93.60979001566005
 20
-171.8069118494094
 10
93.50195852697173
 20
-172.0163736549126
 10
93.32867022406367
 20
-172.0349771705329
 10
93.21222599666223
 20
-172.0349771705329
 10
93.05134003750106
 20
-172.0349771705329
 10
92.9097466130573
 20
-171.9888128910306
 10
92.81431746811587
 20
-171.8069118494094
 10
92.71096460355838
 20
-171.6119194449442
 10
92.69167206884097
 20
-171.3755858946561
 10
92.69167206884097
 20
-171.2122883686553
 10
92.69167206884097
 20
-171.0682833773718
 10
92.7085530367187
 20
-170.8167914069486
 10
92.81431746811587
 20
-170.6176648879012
 10
92.92249346635272
 20
-170.4150932733685
 10
93.08303491596536
 20
-170.3916666240688
 10
93.21222599666223
 20
-170.3916666240688
 10
93.37070038898372
 20
-170.3916666240688
 10
93.51470538026716
 20
-170.43576384628
 10
93.60979001566005
 20
-170.6176648879012
 10
93.70935327518377
 20
-170.8105902350751
 10
93.73243541493495
 20
-171.0386555561987
 10
93.73243541493495
 20
-171.2122883686553
 10
93.73243541493495
 20
-171.3838541238207
 10
93.71142033247493
 20
-171.6139865022354
 10
93.60979001566005
 20
-171.8069118494094
 97
        0
 97
        0
 92
        1
 93
        1
 72
     4
 94
        3
 73
     0
 74
     1
 95
       17
 96
       13
 40
0.0
 40
0.0
 40
0.0
 40
0.0
 40
1.0
 40
1.0
 40
1.0
 40
2.0
 40
2.0
 40
2.0
 40
3.0
 40
3.0
 40
3.0
 40
4.0
 40
4.0
 40
4.0
 40
4.0
 10
93.21222599666223
 20
-170.5839029521457
 10
92.96245657398161
 20
-170.5839029521457
 10
92.91594778493074
 20
-170.8677788201303
 10
92.91594778493074
 20
-171.2122883686553
 10
92.91594778493074
 20
-171.5319932296865
 10
92.95212128752587
 20
-171.8406737851649
 10
93.21222599666223
 20
-171.8406737851649
 10
93.45958385250316
 20
-171.8406737851649
 10
93.50850420839372
 20
-171.5595539935684
 10
93.50850420839372
 20
-171.2122883686553
 10
93.50850420839372
 20
-170.8925835076241
 10
93.47026364850744
 20
-170.5839029521457
 10
93.21222599666223
 20
-170.5839029521457
 97
        0
 97
        0
 75
     2
 76
     1
 98
        0
  0
POLYLINE
  5
84
330
7A
100
AcDbEntity
  8
_U+30EC_U+30A4_U+30E4_U+30FC 1
370
     0
100
AcDb2dPolyline
 66
     1
 10
0.0
 20
0.0
 30
0.0
  0
VERTEX
  5
85
330
84
100
AcDbEntity
  8
_U+30EC_U+30A4_U+30E4_U+30FC 1
370
     0
100
AcDbVertex
100
AcDb2dVertex
 10
93.94913192095717
 20
-171.9846787764483
 30
0.0
  0
VERTEX
  5
86
330
84
100
AcDbEntity
  8
_U+30EC_U+30A4_U+30E4_U+30FC 1
370
     0
100
AcDbVertex
100
AcDb2dVertex
 10
93.94913192095717
 20
-171.732497786928
 30
0.0
  0
VERTEX
  5
87
330
84
100
AcDbEntity
  8
_U+30EC_U+30A4_U+30E4_U+30FC 1
370
     0
100
AcDbVertex
100
AcDb2dVertex
 10
94.20096840092893
 20
-171.732497786928
 30
0.0
  0
VERTEX
  5
88
330
84
100
AcDbEntity
  8
_U+30EC_U+30A4_U+30E4_U+30FC 1
370
     0
100
AcDbVertex
100
AcDb2dVertex
 10
94.20096840092893
 20
-171.9846787764483
 30
0.0
  0
VERTEX
  5
89
330
84
100
AcDbEntity
  8
_U+30EC_U+30A4_U+30E4_U+30FC 1
370
     0
100
AcDbVertex
100
AcDb2dVertex
 10
93.94913192095717
 20
-171.9846787764483
 30
0.0
  0
SEQEND
  5
8A
330
84
100
AcDbEntity
  8
_U+30EC_U+30A4_U+30E4_U+30FC 1
370
     0
  0
HATCH
  5
8B
330
7A
100
AcDbEntity
  8
_U+30EC_U+30A4_U+30E4_U+30FC 1
 62
   179
420
  2234388
100
AcDbHatch
 10
0.0
 20
0.0
 30
0.0
210
0.0
220
0.0
230
1.0
  2
SOLID
 70
     1
 71
     0
 91
        1
 92
        1
 93
        4
 72
     1
 10
93.94913192095717
 20
-171.9846787764483
 11
93.94913192095717
 21
-171.732497786928
 72
     1
 10
93.94913192095717
 20
-171.732497786928
 11
94.20096840092893
 21
-171.732497786928
 72
     1
 10
94.20096840092893
 20
-171.732497786928
 11
94.20096840092893
 21
-171.9846787764483
 72
     1
 10
94.20096840092893
 20
-171.9846787764483
 11
93.94913192095717
 21
-171.9846787764483
 97
        0
 75
     2
 76
     1
 98
        0
  0
SPLINE
  5
8C
330
7A
100
AcDbEntity
  8
_U+30EC_U+30A4_U+30E4_U+30FC 1
370
     0
100
AcDbSpline
210
0.0
220
0.0
230
1.0
 70
    11
 71
     3
 72
    53
 73
    49
 74
     0
 42
0.0000000001
 43
0.0000000001
 12
1.0
 22
0.0
 32
0.0
 13
1.0
 23
0.0
 33
0.0
 40
0.0
 40
0.0
 40
0.0
 40
0.0
 40
1.0
 40
1.0
 40
1.0
 40
2.0
 40
2.0
 40
2.0
 40
3.0
 40
3.0
 40
3.0
 40
4.0
 40
4.0
 40
4.0
 40
5.0
 40
5.0
 40
5.0
 40
6.0
 40
6.0
 40
6.0
 40
7.0
 40
7.0
 40
7.0
 40
8.0
 40
8.0
 40
8.0
 40
9.0
 40
9.0
 40
9.0
 40
10.0
 40
10.0
 40
10.0
 40
11.0
 40
11.0
 40
11.0
 40
12.0
 40
12.0
 40
12.0
 40
13.0
 40
13.0
 40
13.0
 40
14.0
 40
14.0
 40
14.0
 40
15.0
 40
15.0
 40
15.0
 40
16.0
 40
16.0
 40
16.0
 40
16.0
 10
94.91823728095794
 20
-172.0349771705329
 30
0.0
 10
94.84003361344277
 20
-172.0349771705329
 30
0.0
 10
94.73840329662791
 20
-172.0184407122037
 30
0.0
 10
94.63677297981303
 20
-171.9550509552751
 30
0.0
 10
94.46348467690497
 20
-171.8448078997471
 30
0.0
 10
94.44212508489642
 20
-171.7138942713077
 30
0.0
 10
94.42317705972755
 20
-171.6057182730708
 30
0.0
 10
94.42317705972755
 20
-171.6057182730708
 30
0.0
 10
94.64538571852616
 20
-171.6057182730708
 30
0.0
 10
94.64538571852616
 20
-171.6057182730708
 30
0.0
 10
94.70016273674163
 20
-171.8048447921182
 30
0.0
 10
94.82728676014735
 20
-171.8344726132914
 30
0.0
 10
94.9203043382491
 20
-171.8344726132914
 30
0.0
 10
95.05983070540171
 20
-171.8344726132914
 30
0.0
 10
95.21210392584976
 20
-171.7345648442191
 30
0.0
 10
95.21210392584976
 20
-171.5023654085133
 30
0.0
 10
95.21210392584976
 20
-171.2460503044107
 30
0.0
 10
95.03226994151971
 20
-171.1764593756087
 30
0.0
 10
94.91169159953597
 20
-171.1764593756087
 30
0.0
 10
94.87999672107168
 20
-171.1764593756087
 30
0.0
 10
94.73840329662791
 20
-171.1764593756087
 30
0.0
 10
94.64951983310846
 20
-171.305305946757
 30
0.0
 10
94.64951983310846
 20
-171.305305946757
 30
0.0
 10
94.47381996336071
 20
-171.2867024311367
 30
0.0
 10
94.47381996336071
 20
-171.2867024311367
 30
0.0
 10
94.47381996336071
 20
-171.2867024311367
 30
0.0
 10
94.59439830534446
 20
-170.4398979608623
 30
0.0
 10
94.59439830534446
 20
-170.4398979608623
 30
0.0
 10
94.59439830534446
 20
-170.4398979608623
 30
0.0
 10
95.37298988501092
 20
-170.4398979608623
 30
0.0
 10
95.37298988501092
 20
-170.4398979608623
 30
0.0
 10
95.37298988501092
 20
-170.4398979608623
 30
0.0
 10
95.37298988501092
 20
-170.6348903653274
 30
0.0
 10
95.37298988501092
 20
-170.6348903653274
 30
0.0
 10
95.37298988501092
 20
-170.6348903653274
 30
0.0
 10
94.75735132179678
 20
-170.6348903653274
 30
0.0
 10
94.75735132179678
 20
-170.6348903653274
 30
0.0
 10
94.75735132179678
 20
-170.6348903653274
 30
0.0
 10
94.69189450757703
 20
-171.0579480909161
 30
0.0
 10
94.69189450757703
 20
-171.0579480909161
 30
0.0
 10
94.75321720721448
 20
-171.0241861551606
 30
0.0
 10
94.83555498931194
 20
-170.9835340284347
 30
0.0
 10
94.95406627400455
 20
-170.9835340284347
 30
0.0
 10
95.20796981126746
 20
-170.9835340284347
 30
0.0
 10
95.44499238065265
 20
-171.1702582037352
 30
0.0
 10
95.44499238065265
 20
-171.4830728737959
 30
0.0
 10
95.44499238065265
 20
-171.8007106775359
 30
0.0
 10
95.22071666456289
 20
-172.0349771705329
 30
0.0
 10
94.91823728095794
 20
-172.0349771705329
 30
0.0
  0
HATCH
  5
8D
330
7A
100
AcDbEntity
  8
_U+30EC_U+30A4_U+30E4_U+30FC 1
 62
   179
420
  2234388
100
AcDbHatch
 10
0.0
 20
0.0
 30
0.0
210
0.0
220
0.0
230
1.0
  2
SOLID
 70
     1
 71
     0
 91
        1
 92
        1
 93
        1
 72
     4
 94
        3
 73
     0
 74
     1
 95
       53
 96
       49
 40
0.0
 40
0.0
 40
0.0
 40
0.0
 40
1.0
 40
1.0
 40
1.0
 40
2.0
 40
2.0
 40
2.0
 40
3.0
 40
3.0
 40
3.0
 40
4.0
 40
4.0
 40
4.0
 40
5.0
 40
5.0
 40
5.0
 40
6.0
 40
6.0
 40
6.0
 40
7.0
 40
7.0
 40
7.0
 40
8.0
 40
8.0
 40
8.0
 40
9.0
 40
9.0
 40
9.0
 40
10.0
 40
10.0
 40
10.0
 40
11.0
 40
11.0
 40
11.0
 40
12.0
 40
12.0
 40
12.0
 40
13.0
 40
13.0
 40
13.0
 40
14.0
 40
14.0
 40
14.0
 40
15.0
 40
15.0
 40
15.0
 40
16.0
 40
16.0
 40
16.0
 40
16.0
 10
94.91823728095794
 20
-172.0349771705329
 10
94.84003361344277
 20
-172.0349771705329
 10
94.73840329662791
 20
-172.0184407122037
 10
94.63677297981303
 20
-171.9550509552751
 10
94.46348467690497
 20
-171.8448078997471
 10
94.44212508489642
 20
-171.7138942713077
 10
94.42317705972755
 20
-171.6057182730708
 10
94.42317705972755
 20
-171.6057182730708
 10
94.64538571852616
 20
-171.6057182730708
 10
94.64538571852616
 20
-171.6057182730708
 10
94.70016273674163
 20
-171.8048447921182
 10
94.82728676014735
 20
-171.8344726132914
 10
94.9203043382491
 20
-171.8344726132914
 10
95.05983070540171
 20
-171.8344726132914
 10
95.21210392584976
 20
-171.7345648442191
 10
95.21210392584976
 20
-171.5023654085133
 10
95.21210392584976
 20
-171.2460503044107
 10
95.03226994151971
 20
-171.1764593756087
 10
94.91169159953597
 20
-171.1764593756087
 10
94.87999672107168
 20
-171.1764593756087
 10
94.73840329662791
 20
-171.1764593756087
 10
94.64951983310846
 20
-171.305305946757
 10
94.64951983310846
 20
-171.305305946757
 10
94.47381996336071
 20
-171.2867024311367
 10
94.47381996336071
 20
-171.2867024311367
 10
94.47381996336071
 20
-171.2867024311367
 10
94.59439830534446
 20
-170.4398979608623
 10
94.59439830534446
 20
-170.4398979608623
 10
94.59439830534446
 20
-170.4398979608623
 10
95.37298988501092
 20
-170.4398979608623
 10
95.37298988501092
 20
-170.4398979608623
 10
95.37298988501092
 20
-170.4398979608623
 10
95.37298988501092
 20
-170.6348903653274
 10
95.37298988501092
 20
-170.6348903653274
 10
95.37298988501092
 20
-170.6348903653274
 10
94.75735132179678
 20
-170.6348903653274
 10
94.75735132179678
 20
-170.6348903653274
 10
94.75735132179678
 20
-170.6348903653274
 10
94.69189450757703
 20
-171.0579480909161
 10
94.69189450757703
 20
-171.0579480909161
 10
94.75321720721448
 20
-171.0241861551606
 10
94.83555498931194
 20
-170.9835340284347
 10
94.95406627400455
 20
-170.9835340284347
 10
95.20796981126746
 20
-170.9835340284347
 10
95.44499238065265
 20
-171.1702582037352
 10
95.44499238065265
 20
-171.4830728737959
 10
95.44499238065265
 20
-171.8007106775359
 10
95.22071666456289
 20
-172.0349771705329
 10
94.91823728095794
 20
-172.0349771705329
 97
        0
 97
        0
 75
     2
 76
     1
 98
        0
  0
ENDBLK
  5
7D
330
7A
100
AcDbEntity
  8
0
100
AcDbBlockEnd
  0
BLOCK
  5
90
330
8E
100
AcDbEntity
  8
0
100
AcDbBlockBegin
  2
block 4
 70
     0
 10
0.0
 20
0.0
 30
0.0
  3
block 4
  1

  0
SPLINE
  5
92
330
8E
100
AcDbEntity
  8
_U+30EC_U+30A4_U+30E4_U+30FC 1
370
     0
100
AcDbSpline
210
0.0
220
0.0
230
1.0
 70
    11
 71
     3
 72
    26
 73
    22
 74
     0
 42
0.0000000001
 43
0.0000000001
 12
1.0
 22
0.0
 32
0.0
 13
1.0
 23
0.0
 33
0.0
 40
0.0
 40
0.0
 40
0.0
 40
0.0
 40
1.0
 40
1.0
 40
1.0
 40
2.0
 40
2.0
 40
2.0
 40
3.0
 40
3.0
 40
3.0
 40
4.0
 40
4.0
 40
4.0
 40
5.0
 40
5.0
 40
5.0
 40
6.0
 40
6.0
 40
6.0
 40
7.0
 40
7.0
 40
7.0
 40
7.0
 10
85.93945717252555
 20
-86.380084885089
 30
0.0
 10
85.93945717252555
 20
-86.380084885089
 30
0.0
 10
85.93945717252555
 20
-85.27593178206644
 30
0.0
 10
85.93945717252555
 20
-85.27593178206644
 30
0.0
 10
85.93945717252555
 20
-85.27593178206644
 30
0.0
 10
85.60941702503862
 20
-85.27593178206644
 30
0.0
 10
85.60941702503862
 20
-85.27593178206644
 30
0.0
 10
85.60941702503862
 20
-85.27593178206644
 30
0.0
 10
85.60941702503862
 20
-85.1277926762007
 30
0.0
 10
85.60941702503862
 20
-85.1277926762007
 30
0.0
 10
85.94152422981671
 20
-85.11297876561412
 30
0.0
 10
85.98803301886758
 20
-84.95002574916181
 30
0.0
 10
86.01766084004073
 20
-84.83564857905151
 30
0.0
 10
86.01766084004073
 20
-84.83564857905151
 30
0.0
 10
86.16373288861531
 20
-84.83564857905151
 30
0.0
 10
86.16373288861531
 20
-84.83564857905151
 30
0.0
 10
86.16373288861531
 20
-84.83564857905151
 30
0.0
 10
86.16373288861531
 20
-86.380084885089
 30
0.0
 10
86.16373288861531
 20
-86.380084885089
 30
0.0
 10
86.16373288861531
 20
-86.380084885089
 30
0.0
 10
85.93945717252555
 20
-86.380084885089
 30
0.0
 10
85.93945717252555
 20
-86.380084885089
 30
0.0
  0
HATCH
  5
93
330
8E
100
AcDbEntity
  8
_U+30EC_U+30A4_U+30E4_U+30FC 1
 62
   179
420
  2234388
100
AcDbHatch
 10
0.0
 20
0.0
 30
0.0
210
0.0
220
0.0
230
1.0
  2
SOLID
 70
     1
 71
     0
 91
        1
 92
        1
 93
        1
 72
     4
 94
        3
 73
     0
 74
     1
 95
       26
 96
       22
 40
0.0
 40
0.0
 40
0.0
 40
0.0
 40
1.0
 40
1.0
 40
1.0
 40
2.0
 40
2.0
 40
2.0
 40
3.0
 40
3.0
 40
3.0
 40
4.0
 40
4.0
 40
4.0
 40
5.0
 40
5.0
 40
5.0
 40
6.0
 40
6.0
 40
6.0
 40
7.0
 40
7.0
 40
7.0
 40
7.0
 10
85.93945717252555
 20
-86.380084885089
 10
85.93945717252555
 20
-86.380084885089
 10
85.93945717252555
 20
-85.27593178206644
 10
85.93945717252555
 20
-85.27593178206644
 10
85.93945717252555
 20
-85.27593178206644
 10
85.60941702503862
 20
-85.27593178206644
 10
85.60941702503862
 20
-85.27593178206644
 10
85.60941702503862
 20
-85.27593178206644
 10
85.60941702503862
 20
-85.1277926762007
 10
85.60941702503862
 20
-85.1277926762007
 10
85.94152422981671
 20
-85.11297876561412
 10
85.98803301886758
 20
-84.95002574916181
 10
86.01766084004073
 20
-84.83564857905151
 10
86.01766084004073
 20
-84.83564857905151
 10
86.16373288861531
 20
-84.83564857905151
 10
86.16373288861531
 20
-84.83564857905151
 10
86.16373288861531
 20
-84.83564857905151
 10
86.16373288861531
 20
-86.380084885089
 10
86.16373288861531
 20
-86.380084885089
 10
86.16373288861531
 20
-86.380084885089
 10
85.93945717252555
 20
-86.380084885089
 10
85.93945717252555
 20
-86.380084885089
 97
        0
 97
        0
 75
     2
 76
     1
 98
        0
  0
POLYLINE
  5
94
330
8E
100
AcDbEntity
  8
_U+30EC_U+30A4_U+30E4_U+30FC 1
370
     0
100
AcDb2dPolyline
 66
     1
 10
0.0
 20
0.0
 30
0.0
  0
VERTEX
  5
95
330
94
100
AcDbEntity
  8
_U+30EC_U+30A4_U+30E4_U+30FC 1
370
     0
100
AcDbVertex
100
AcDb2dVertex
 10
86.72493894316251
 20
-86.380084885089
 30
0.0
  0
VERTEX
  5
96
330
94
100
AcDbEntity
  8
_U+30EC_U+30A4_U+30E4_U+30FC 1
370
     0
100
AcDbVertex
100
AcDb2dVertex
 10
86.72493894316251
 20
-86.12824840511725
 30
0.0
  0
VERTEX
  5
97
330
94
100
AcDbEntity
  8
_U+30EC_U+30A4_U+30E4_U+30FC 1
370
     0
100
AcDbVertex
100
AcDb2dVertex
 10
86.97660316836001
 20
-86.12824840511725
 30
0.0
  0
VERTEX
  5
98
330
94
100
AcDbEntity
  8
_U+30EC_U+30A4_U+30E4_U+30FC 1
370
     0
100
AcDbVertex
100
AcDb2dVertex
 10
86.97660316836001
 20
-86.380084885089
 30
0.0
  0
VERTEX
  5
99
330
94
100
AcDbEntity
  8
_U+30EC_U+30A4_U+30E4_U+30FC 1
370
     0
100
AcDbVertex
100
AcDb2dVertex
 10
86.72493894316251
 20
-86.380084885089
 30
0.0
  0
SEQEND
  5
9A
330
94
100
AcDbEntity
  8
_U+30EC_U+30A4_U+30E4_U+30FC 1
370
     0
  0
HATCH
  5
9B
330
8E
100
AcDbEntity
  8
_U+30EC_U+30A4_U+30E4_U+30FC 1
 62
   179
420
  2234388
100
AcDbHatch
 10
0.0
 20
0.0
 30
0.0
210
0.0
220
0.0
230
1.0
  2
SOLID
 70
     1
 71
     0
 91
        1
 92
        1
 93
        4
 72
     1
 10
86.72493894316251
 20
-86.380084885089
 11
86.72493894316251
 21
-86.12824840511725
 72
     1
 10
86.72493894316251
 20
-86.12824840511725
 11
86.97660316836001
 21
-86.12824840511725
 72
     1
 10
86.97660316836001
 20
-86.12824840511725
 11
86.97660316836001
 21
-86.380084885089
 72
     1
 10
86.97660316836001
 20
-86.380084885089
 11
86.72493894316251
 21
-86.380084885089
 97
        0
 75
     2
 76
     1
 98
        0
  0
SPLINE
  5
9C
330
8E
100
AcDbEntity
  8
_U+30EC_U+30A4_U+30E4_U+30FC 1
370
     0
100
AcDbSpline
210
0.0
220
0.0
230
1.0
 70
    11
 71
     3
 72
    29
 73
    25
 74
     0
 42
0.0000000001
 43
0.0000000001
 12
1.0
 22
0.0
 32
0.0
 13
1.0
 23
0.0
 33
0.0
 40
0.0
 40
0.0
 40
0.0
 40
0.0
 40
1.0
 40
1.0
 40
1.0
 40
2.0
 40
2.0
 40
2.0
 40
3.0
 40
3.0
 40
3.0
 40
4.0
 40
4.0
 40
4.0
 40
5.0
 40
5.0
 40
5.0
 40
6.0
 40
6.0
 40
6.0
 40
7.0
 40
7.0
 40
7.0
 40
8.0
 40
8.0
 40
8.0
 40
8.0
 10
87.71316458310643
 20
-86.43072778872218
 30
0.0
 10
87.44668644732236
 20
-86.43072778872218
 30
0.0
 10
87.19278291005945
 20
-86.29326847886071
 30
0.0
 10
87.19278291005945
 20
-85.9442803062049
 30
0.0
 10
87.19278291005945
 20
-85.68830971165085
 30
0.0
 10
87.33454858927747
 20
-85.59322507625795
 30
0.0
 10
87.44031302067465
 20
-85.5319023766205
 30
0.0
 10
87.31542830933434
 20
-85.4726467342742
 30
0.0
 10
87.23929169911032
 20
-85.3582695641639
 30
0.0
 10
87.23929169911032
 20
-85.19738360500274
 30
0.0
 10
87.23929169911032
 20
-84.9224649852798
 30
0.0
 10
87.4382459633835
 20
-84.78707273270949
 30
0.0
 10
87.71316458310643
 20
-84.78707273270949
 30
0.0
 10
87.9966959415425
 20
-84.78707273270949
 30
0.0
 10
88.18703746710256
 20
-84.93107772399293
 30
0.0
 10
88.18703746710256
 20
-85.19738360500274
 30
0.0
 10
88.18703746710256
 20
-85.3582695641639
 30
0.0
 10
88.10883379958737
 20
-85.4726467342742
 30
0.0
 10
87.98394908824707
 20
-85.5319023766205
 30
0.0
 10
88.07283255176652
 20
-85.58254528025367
 30
0.0
 10
88.23147919886227
 20
-85.67762991564656
 30
0.0
 10
88.23147919886227
 20
-85.9401461916226
 30
0.0
 10
88.23147919886227
 20
-86.31462807086926
 30
0.0
 10
87.95225420978278
 20
-86.43072778872218
 30
0.0
 10
87.71316458310643
 20
-86.43072778872218
 30
0.0
  0
SPLINE
  5
9D
330
8E
100
AcDbEntity
  8
_U+30EC_U+30A4_U+30E4_U+30FC 1
370
     0
100
AcDbSpline
210
0.0
220
0.0
230
1.0
 70
    11
 71
     3
 72
    17
 73
    13
 74
     0
 42
0.0000000001
 43
0.0000000001
 12
1.0
 22
0.0
 32
0.0
 13
1.0
 23
0.0
 33
0.0
 40
0.0
 40
0.0
 40
0.0
 40
0.0
 40
1.0
 40
1.0
 40
1.0
 40
2.0
 40
2.0
 40
2.0
 40
3.0
 40
3.0
 40
3.0
 40
4.0
 40
4.0
 40
4.0
 40
4.0
 10
87.71316458310643
 20
-85.63973386530883
 30
0.0
 10
87.56933184659725
 20
-85.63973386530883
 30
0.0
 10
87.41705862614921
 20
-85.72655027153712
 30
0.0
 10
87.41705862614921
 20
-85.92946639561833
 30
0.0
 10
87.41705862614921
 20
-86.13479408653922
 30
0.0
 10
87.54401039478067
 20
-86.23607989380557
 30
0.0
 10
87.71316458310643
 20
-86.23607989380557
 30
0.0
 10
87.89937199408419
 20
-86.23607989380557
 30
0.0
 10
88.00944279483792
 20
-86.11343449453068
 30
0.0
 10
88.00944279483792
 20
-85.93566756749178
 30
0.0
 10
88.00944279483792
 20
-85.7138034182417
 30
0.0
 10
87.8464897783856
 20
-85.63973386530883
 30
0.0
 10
87.71316458310643
 20
-85.63973386530883
 30
0.0
  0
SPLINE
  5
9E
330
8E
100
AcDbEntity
  8
_U+30EC_U+30A4_U+30E4_U+30FC 1
370
     0
100
AcDbSpline
210
0.0
220
0.0
230
1.0
 70
    11
 71
     3
 72
    17
 73
    13
 74
     0
 42
0.0000000001
 43
0.0000000001
 12
1.0
 22
0.0
 32
0.0
 13
1.0
 23
0.0
 33
0.0
 40
0.0
 40
0.0
 40
0.0
 40
0.0
 40
1.0
 40
1.0
 40
1.0
 40
2.0
 40
2.0
 40
2.0
 40
3.0
 40
3.0
 40
3.0
 40
4.0
 40
4.0
 40
4.0
 40
4.0
 10
87.71316458310643
 20
-84.97965357033495
 30
0.0
 10
87.54814450936297
 20
-84.97965357033495
 30
0.0
 10
87.46356741520009
 20
-85.07473820572784
 30
0.0
 10
87.46356741520009
 20
-85.21013045829817
 30
0.0
 10
87.46356741520009
 20
-85.33277585757305
 30
0.0
 10
87.5355699108418
 20
-85.45128714226566
 30
0.0
 10
87.71316458310643
 20
-85.45128714226566
 30
0.0
 10
87.89093151014532
 20
-85.45128714226566
 30
0.0
 10
87.96276175101279
 20
-85.33277585757305
 30
0.0
 10
87.96276175101279
 20
-85.21013045829817
 30
0.0
 10
87.96276175101279
 20
-85.07473820572784
 30
0.0
 10
87.87611759955875
 20
-84.97965357033495
 30
0.0
 10
87.71316458310643
 20
-84.97965357033495
 30
0.0
  0
HATCH
  5
9F
330
8E
100
AcDbEntity
  8
_U+30EC_U+30A4_U+30E4_U+30FC 1
 62
   179
420
  2234388
100
AcDbHatch
 10
0.0
 20
0.0
 30
0.0
210
0.0
220
0.0
230
1.0
  2
SOLID
 70
     1
 71
     0
 91
        3
 92
        1
 93
        1
 72
     4
 94
        3
 73
     0
 74
     1
 95
       29
 96
       25
 40
0.0
 40
0.0
 40
0.0
 40
0.0
 40
1.0
 40
1.0
 40
1.0
 40
2.0
 40
2.0
 40
2.0
 40
3.0
 40
3.0
 40
3.0
 40
4.0
 40
4.0
 40
4.0
 40
5.0
 40
5.0
 40
5.0
 40
6.0
 40
6.0
 40
6.0
 40
7.0
 40
7.0
 40
7.0
 40
8.0
 40
8.0
 40
8.0
 40
8.0
 10
87.71316458310643
 20
-86.43072778872218
 10
87.44668644732236
 20
-86.43072778872218
 10
87.19278291005945
 20
-86.29326847886071
 10
87.19278291005945
 20
-85.9442803062049
 10
87.19278291005945
 20
-85.68830971165085
 10
87.33454858927747
 20
-85.59322507625795
 10
87.44031302067465
 20
-85.5319023766205
 10
87.31542830933434
 20
-85.4726467342742
 10
87.23929169911032
 20
-85.3582695641639
 10
87.23929169911032
 20
-85.19738360500274
 10
87.23929169911032
 20
-84.9224649852798
 10
87.4382459633835
 20
-84.78707273270949
 10
87.71316458310643
 20
-84.78707273270949
 10
87.9966959415425
 20
-84.78707273270949
 10
88.18703746710256
 20
-84.93107772399293
 10
88.18703746710256
 20
-85.19738360500274
 10
88.18703746710256
 20
-85.3582695641639
 10
88.10883379958737
 20
-85.4726467342742
 10
87.98394908824707
 20
-85.5319023766205
 10
88.07283255176652
 20
-85.58254528025367
 10
88.23147919886227
 20
-85.67762991564656
 10
88.23147919886227
 20
-85.9401461916226
 10
88.23147919886227
 20
-86.31462807086926
 10
87.95225420978278
 20
-86.43072778872218
 10
87.71316458310643
 20
-86.43072778872218
 97
        0
 97
        0
 92
        1
 93
        1
 72
     4
 94
        3
 73
     0
 74
     1
 95
       17
 96
       13
 40
0.0
 40
0.0
 40
0.0
 40
0.0
 40
1.0
 40
1.0
 40
1.0
 40
2.0
 40
2.0
 40
2.0
 40
3.0
 40
3.0
 40
3.0
 40
4.0
 40
4.0
 40
4.0
 40
4.0
 10
87.71316458310643
 20
-85.63973386530883
 10
87.56933184659725
 20
-85.63973386530883
 10
87.41705862614921
 20
-85.72655027153712
 10
87.41705862614921
 20
-85.92946639561833
 10
87.41705862614921
 20
-86.13479408653922
 10
87.54401039478067
 20
-86.23607989380557
 10
87.71316458310643
 20
-86.23607989380557
 10
87.89937199408419
 20
-86.23607989380557
 10
88.00944279483792
 20
-86.11343449453068
 10
88.00944279483792
 20
-85.93566756749178
 10
88.00944279483792
 20
-85.7138034182417
 10
87.8464897783856
 20
-85.63973386530883
 10
87.71316458310643
 20
-85.63973386530883
 97
        0
 97
        0
 92
        1
 93
        1
 72
     4
 94
        3
 73
     0
 74
     1
 95
       17
 96
       13
 40
0.0
 40
0.0
 40
0.0
 40
0.0
 40
1.0
 40
1.0
 40
1.0
 40
2.0
 40
2.0
 40
2.0
 40
3.0
 40
3.0
 40
3.0
 40
4.0
 40
4.0
 40
4.0
 40
4.0
 10
87.71316458310643
 20
-84.97965357033495
 10
87.54814450936297
 20
-84.97965357033495
 10
87.46356741520009
 20
-85.07473820572784
 10
87.46356741520009
 20
-85.21013045829817
 10
87.46356741520009
 20
-85.33277585757305
 10
87.5355699108418
 20
-85.45128714226566
 10
87.71316458310643
 20
-85.45128714226566
 10
87.89093151014532
 20
-85.45128714226566
 10
87.96276175101279
 20
-85.33277585757305
 10
87.96276175101279
 20
-85.21013045829817
 10
87.96276175101279
 20
-85.07473820572784
 10
87.87611759955875
 20
-84.97965357033495
 10
87.71316458310643
 20
-84.97965357033495
 97
        0
 97
        0
 75
     2
 76
     1
 98
        0
  0
ENDBLK
  5
91
330
8E
100
AcDbEntity
  8
0
100
AcDbBlockEnd
  0
BLOCK
  5
AE
330
AC
100
AcDbEntity
  8
0
100
AcDbBlockBegin
  2
block 5
 70
     0
 10
0.0
 20
0.0
 30
0.0
  3
block 5
  1

  0
SPLINE
  5
B0
330
AC
100
AcDbEntity
  8
_U+30EC_U+30A4_U+30E4_U+30FC 1
370
     0
100
AcDbSpline
210
0.0
220
0.0
230
1.0
 70
    11
 71
     3
 72
    26
 73
    22
 74
     0
 42
0.0000000001
 43
0.0000000001
 12
1.0
 22
0.0
 32
0.0
 13
1.0
 23
0.0
 33
0.0
 40
0.0
 40
0.0
 40
0.0
 40
0.0
 40
1.0
 40
1.0
 40
1.0
 40
2.0
 40
2.0
 40
2.0
 40
3.0
 40
3.0
 40
3.0
 40
4.0
 40
4.0
 40
4.0
 40
5.0
 40
5.0
 40
5.0
 40
6.0
 40
6.0
 40
6.0
 40
7.0
 40
7.0
 40
7.0
 40
7.0
 10
91.6219699206709
 20
-130.3410535698453
 30
0.0
 10
91.6219699206709
 20
-130.3410535698453
 30
0.0
 10
91.6219699206709
 20
-130.5780761392305
 30
0.0
 10
91.6219699206709
 20
-130.5780761392305
 30
0.0
 10
91.31294485564399
 20
-130.5525824326396
 30
0.0
 10
90.79480249466242
 20
-130.3600015950142
 30
0.0
 10
90.28906247742773
 20
-129.9538248373032
 30
0.0
 10
90.28906247742773
 20
-129.9538248373032
 30
0.0
 10
90.28906247742773
 20
-130.791672059316
 30
0.0
 10
90.28906247742773
 20
-130.791672059316
 30
0.0
 10
90.28906247742773
 20
-130.791672059316
 30
0.0
 10
90.0775336146334
 20
-130.791672059316
 30
0.0
 10
90.0775336146334
 20
-130.791672059316
 30
0.0
 10
90.0775336146334
 20
-130.791672059316
 30
0.0
 10
90.0775336146334
 20
-129.716802267918
 30
0.0
 10
90.0775336146334
 20
-129.716802267918
 30
0.0
 10
90.0775336146334
 20
-129.716802267918
 30
0.0
 10
90.28906247742773
 20
-129.716802267918
 30
0.0
 10
90.28906247742773
 20
-129.716802267918
 30
0.0
 10
90.57913951728578
 20
-130.0406412435315
 30
0.0
 10
91.17135143120022
 20
-130.3072916340898
 30
0.0
 10
91.6219699206709
 20
-130.3410535698453
 30
0.0
  0
HATCH
  5
B1
330
AC
100
AcDbEntity
  8
_U+30EC_U+30A4_U+30E4_U+30FC 1
 62
   179
420
  2234388
100
AcDbHatch
 10
0.0
 20
0.0
 30
0.0
210
0.0
220
0.0
230
1.0
  2
SOLID
 70
     1
 71
     0
 91
        1
 92
        1
 93
        1
 72
     4
 94
        3
 73
     0
 74
     1
 95
       26
 96
       22
 40
0.0
 40
0.0
 40
0.0
 40
0.0
 40
1.0
 40
1.0
 40
1.0
 40
2.0
 40
2.0
 40
2.0
 40
3.0
 40
3.0
 40
3.0
 40
4.0
 40
4.0
 40
4.0
 40
5.0
 40
5.0
 40
5.0
 40
6.0
 40
6.0
 40
6.0
 40
7.0
 40
7.0
 40
7.0
 40
7.0
 10
91.6219699206709
 20
-130.3410535698453
 10
91.6219699206709
 20
-130.3410535698453
 10
91.6219699206709
 20
-130.5780761392305
 10
91.6219699206709
 20
-130.5780761392305
 10
91.31294485564399
 20
-130.5525824326396
 10
90.79480249466242
 20
-130.3600015950142
 10
90.28906247742773
 20
-129.9538248373032
 10
90.28906247742773
 20
-129.9538248373032
 10
90.28906247742773
 20
-130.791672059316
 10
90.28906247742773
 20
-130.791672059316
 10
90.28906247742773
 20
-130.791672059316
 10
90.0775336146334
 20
-130.791672059316
 10
90.0775336146334
 20
-130.791672059316
 10
90.0775336146334
 20
-130.791672059316
 10
90.0775336146334
 20
-129.716802267918
 10
90.0775336146334
 20
-129.716802267918
 10
90.0775336146334
 20
-129.716802267918
 10
90.28906247742773
 20
-129.716802267918
 10
90.28906247742773
 20
-129.716802267918
 10
90.57913951728578
 20
-130.0406412435315
 10
91.17135143120022
 20
-130.3072916340898
 10
91.6219699206709
 20
-130.3410535698453
 97
        0
 97
        0
 75
     2
 76
     1
 98
        0
  0
SPLINE
  5
B2
330
AC
100
AcDbEntity
  8
_U+30EC_U+30A4_U+30E4_U+30FC 1
370
     0
100
AcDbSpline
210
0.0
220
0.0
230
1.0
 70
    11
 71
     3
 72
    53
 73
    49
 74
     0
 42
0.0000000001
 43
0.0000000001
 12
1.0
 22
0.0
 32
0.0
 13
1.0
 23
0.0
 33
0.0
 40
0.0
 40
0.0
 40
0.0
 40
0.0
 40
1.0
 40
1.0
 40
1.0
 40
2.0
 40
2.0
 40
2.0
 40
3.0
 40
3.0
 40
3.0
 40
4.0
 40
4.0
 40
4.0
 40
5.0
 40
5.0
 40
5.0
 40
6.0
 40
6.0
 40
6.0
 40
7.0
 40
7.0
 40
7.0
 40
8.0
 40
8.0
 40
8.0
 40
9.0
 40
9.0
 40
9.0
 40
10.0
 40
10.0
 40
10.0
 40
11.0
 40
11.0
 40
11.0
 40
12.0
 40
12.0
 40
12.0
 40
13.0
 40
13.0
 40
13.0
 40
14.0
 40
14.0
 40
14.0
 40
15.0
 40
15.0
 40
15.0
 40
16.0
 40
16.0
 40
16.0
 40
16.0
 10
91.67261282430407
 20
-129.0942735137334
 30
0.0
 10
91.67261282430407
 20
-129.1724771812486
 30
0.0
 10
91.65573185642634
 20
-129.2741074980634
 30
0.0
 10
91.59234209949776
 20
-129.3757378148783
 30
0.0
 10
91.48244355351828
 20
-129.5490261177864
 30
0.0
 10
91.35118541553027
 20
-129.5703857097949
 30
0.0
 10
91.24335392684195
 20
-129.5893337349638
 30
0.0
 10
91.24335392684195
 20
-129.5893337349638
 30
0.0
 10
91.24335392684195
 20
-129.3671250761652
 30
0.0
 10
91.24335392684195
 20
-129.3671250761652
 30
0.0
 10
91.44213593634086
 20
-129.3123480579497
 30
0.0
 10
91.47176375751401
 20
-129.185224034544
 30
0.0
 10
91.47176375751401
 20
-129.0922064564422
 30
0.0
 10
91.47176375751401
 20
-128.9526800892896
 30
0.0
 10
91.37220049799029
 20
-128.8004068688416
 30
0.0
 10
91.13965655273593
 20
-128.8004068688416
 30
0.0
 10
90.88368595818186
 20
-128.8004068688416
 30
0.0
 10
90.81375051983129
 20
-128.9802408531716
 30
0.0
 10
90.81375051983129
 20
-129.1008191951554
 30
0.0
 10
90.81375051983129
 20
-129.1325140736197
 30
0.0
 10
90.81375051983129
 20
-129.2741074980634
 30
0.0
 10
90.94294160052816
 20
-129.3629909615829
 30
0.0
 10
90.94294160052816
 20
-129.3629909615829
 30
0.0
 10
90.92399357535929
 20
-129.5386908313306
 30
0.0
 10
90.92399357535929
 20
-129.5386908313306
 30
0.0
 10
90.92399357535929
 20
-129.5386908313306
 30
0.0
 10
90.0775336146334
 20
-129.4181124893469
 30
0.0
 10
90.0775336146334
 20
-129.4181124893469
 30
0.0
 10
90.0775336146334
 20
-129.4181124893469
 30
0.0
 10
90.0775336146334
 20
-128.6393486549061
 30
0.0
 10
90.0775336146334
 20
-128.6393486549061
 30
0.0
 10
90.0775336146334
 20
-128.6393486549061
 30
0.0
 10
90.27218150955001
 20
-128.6393486549061
 30
0.0
 10
90.27218150955001
 20
-128.6393486549061
 30
0.0
 10
90.27218150955001
 20
-128.6393486549061
 30
0.0
 10
90.27218150955001
 20
-129.2551594728945
 30
0.0
 10
90.27218150955001
 20
-129.2551594728945
 30
0.0
 10
90.27218150955001
 20
-129.2551594728945
 30
0.0
 10
90.6952392351387
 20
-129.3206162871143
 30
0.0
 10
90.6952392351387
 20
-129.3206162871143
 30
0.0
 10
90.66147729938325
 20
-129.2592935874769
 30
0.0
 10
90.62116968220582
 20
-129.1769558053794
 30
0.0
 10
90.62116968220582
 20
-129.0584445206868
 30
0.0
 10
90.62116968220582
 20
-128.8045409834239
 30
0.0
 10
90.80754934795785
 20
-128.5673461592644
 30
0.0
 10
91.12070852756705
 20
-128.5673461592644
 30
0.0
 10
91.43800182175856
 20
-128.5673461592644
 30
0.0
 10
91.67261282430407
 20
-128.7917941301284
 30
0.0
 10
91.67261282430407
 20
-129.0942735137334
 30
0.0
  0
HATCH
  5
B3
330
AC
100
AcDbEntity
  8
_U+30EC_U+30A4_U+30E4_U+30FC 1
 62
   179
420
  2234388
100
AcDbHatch
 10
0.0
 20
0.0
 30
0.0
210
0.0
220
0.0
230
1.0
  2
SOLID
 70
     1
 71
     0
 91
        1
 92
        1
 93
        1
 72
     4
 94
        3
 73
     0
 74
     1
 95
       53
 96
       49
 40
0.0
 40
0.0
 40
0.0
 40
0.0
 40
1.0
 40
1.0
 40
1.0
 40
2.0
 40
2.0
 40
2.0
 40
3.0
 40
3.0
 40
3.0
 40
4.0
 40
4.0
 40
4.0
 40
5.0
 40
5.0
 40
5.0
 40
6.0
 40
6.0
 40
6.0
 40
7.0
 40
7.0
 40
7.0
 40
8.0
 40
8.0
 40
8.0
 40
9.0
 40
9.0
 40
9.0
 40
10.0
 40
10.0
 40
10.0
 40
11.0
 40
11.0
 40
11.0
 40
12.0
 40
12.0
 40
12.0
 40
13.0
 40
13.0
 40
13.0
 40
14.0
 40
14.0
 40
14.0
 40
15.0
 40
15.0
 40
15.0
 40
16.0
 40
16.0
 40
16.0
 40
16.0
 10
91.67261282430407
 20
-129.0942735137334
 10
91.67261282430407
 20
-129.1724771812486
 10
91.65573185642634
 20
-129.2741074980634
 10
91.59234209949776
 20
-129.3757378148783
 10
91.48244355351828
 20
-129.5490261177864
 10
91.35118541553027
 20
-129.5703857097949
 10
91.24335392684195
 20
-129.5893337349638
 10
91.24335392684195
 20
-129.5893337349638
 10
91.24335392684195
 20
-129.3671250761652
 10
91.24335392684195
 20
-129.3671250761652
 10
91.44213593634086
 20
-129.3123480579497
 10
91.47176375751401
 20
-129.185224034544
 10
91.47176375751401
 20
-129.0922064564422
 10
91.47176375751401
 20
-128.9526800892896
 10
91.37220049799029
 20
-128.8004068688416
 10
91.13965655273593
 20
-128.8004068688416
 10
90.88368595818186
 20
-128.8004068688416
 10
90.81375051983129
 20
-128.9802408531716
 10
90.81375051983129
 20
-129.1008191951554
 10
90.81375051983129
 20
-129.1325140736197
 10
90.81375051983129
 20
-129.2741074980634
 10
90.94294160052816
 20
-129.3629909615829
 10
90.94294160052816
 20
-129.3629909615829
 10
90.92399357535929
 20
-129.5386908313306
 10
90.92399357535929
 20
-129.5386908313306
 10
90.92399357535929
 20
-129.5386908313306
 10
90.0775336146334
 20
-129.4181124893469
 10
90.0775336146334
 20
-129.4181124893469
 10
90.0775336146334
 20
-129.4181124893469
 10
90.0775336146334
 20
-128.6393486549061
 10
90.0775336146334
 20
-128.6393486549061
 10
90.0775336146334
 20
-128.6393486549061
 10
90.27218150955001
 20
-128.6393486549061
 10
90.27218150955001
 20
-128.6393486549061
 10
90.27218150955001
 20
-128.6393486549061
 10
90.27218150955001
 20
-129.2551594728945
 10
90.27218150955001
 20
-129.2551594728945
 10
90.27218150955001
 20
-129.2551594728945
 10
90.6952392351387
 20
-129.3206162871143
 10
90.6952392351387
 20
-129.3206162871143
 10
90.66147729938325
 20
-129.2592935874769
 10
90.62116968220582
 20
-129.1769558053794
 10
90.62116968220582
 20
-129.0584445206868
 10
90.62116968220582
 20
-128.8045409834239
 10
90.80754934795785
 20
-128.5673461592644
 10
91.12070852756705
 20
-128.5673461592644
 10
91.43800182175856
 20
-128.5673461592644
 10
91.67261282430407
 20
-128.7917941301284
 10
91.67261282430407
 20
-129.0942735137334
 97
        0
 97
        0
 75
     2
 76
     1
 98
        0
  0
ENDBLK
  5
AF
330
AC
100
AcDbEntity
  8
0
100
AcDbBlockEnd
  0
ENDSEC
  0
SECTION
  2
ENTITIES
  0
SPLINE
  5
41
330
1F
100
AcDbEntity
  8
_U+30EC_U+30A4_U+30E4_U+30FC 1
 62
   179
420
  2234388
370
    25
100
AcDbSpline
210
0.0
220
0.0
230
1.0
 70
    11
 71
     3
 72
   842
 73
   838
 74
     0
 42
0.0000000001
 43
0.0000000001
 12
1.0
 22
0.0
 32
0.0
 13
1.0
 23
0.0
 33
0.0
 40
0.0
 40
0.0
 40
0.0
 40
0.0
 40
1.0
 40
1.0
 40
1.0
 40
2.0
 40
2.0
 40
2.0
 40
3.0
 40
3.0
 40
3.0
 40
4.0
 40
4.0
 40
4.0
 40
5.0
 40
5.0
 40
5.0
 40
6.0
 40
6.0
 40
6.0
 40
7.0
 40
7.0
 40
7.0
 40
8.0
 40
8.0
 40
8.0
 40
9.0
 40
9.0
 40
9.0
 40
10.0
 40
10.0
 40
10.0
 40
11.0
 40
11.0
 40
11.0
 40
12.0
 40
12.0
 40
12.0
 40
13.0
 40
13.0
 40
13.0
 40
14.0
 40
14.0
 40
14.0
 40
15.0
 40
15.0
 40
15.0
 40
16.0
 40
16.0
 40
16.0
 40
17.0
 40
17.0
 40
17.0
 40
18.0
 40
18.0
 40
18.0
 40
19.0
 40
19.0
 40
19.0
 40
20.0
 40
20.0
 40
20.0
 40
21.0
 40
21.0
 40
21.0
 40
22.0
 40
22.0
 40
22.0
 40
23.0
 40
23.0
 40
23.0
 40
24.0
 40
24.0
 40
24.0
 40
25.0
 40
25.0
 40
25.0
 40
26.0
 40
26.0
 40
26.0
 40
27.0
 40
27.0
 40
27.0
 40
28.0
 40
28.0
 40
28.0
 40
29.0
 40
29.0
 40
29.0
 40
30.0
 40
30.0
 40
30.0
 40
31.0
 40
31.0
 40
31.0
 40
32.0
 40
32.0
 40
32.0
 40
33.0
 40
33.0
 40
33.0
 40
34.0
 40
34.0
 40
34.0
 40
35.0
 40
35.0
 40
35.0
 40
36.0
 40
36.0
 40
36.0
 40
37.0
 40
37.0
 40
37.0
 40
38.0
 40
38.0
 40
38.0
 40
39.0
 40
39.0
 40
39.0
 40
40.0
 40
40.0
 40
40.0
 40
41.0
 40
41.0
 40
41.0
 40
42.0
 40
42.0
 40
42.0
 40
43.0
 40
43.0
 40
43.0
 40
44.0
 40
44.0
 40
44.0
 40
45.0
 40
45.0
 40
45.0
 40
46.0
 40
46.0
 40
46.0
 40
47.0
 40
47.0
 40
47.0
 40
48.0
 40
48.0
 40
48.0
 40
49.0
 40
49.0
 40
49.0
 40
50.0
 40
50.0
 40
50.0
 40
51.0
 40
51.0
 40
51.0
 40
52.0
 40
52.0
 40
52.0
 40
53.0
 40
53.0
 40
53.0
 40
54.0
 40
54.0
 40
54.0
 40
55.0
 40
55.0
 40
55.0
 40
56.0
 40
56.0
 40
56.0
 40
57.0
 40
57.0
 40
57.0
 40
58.0
 40
58.0
 40
58.0
 40
59.0
 40
59.0
 40
59.0
 40
60.0
 40
60.0
 40
60.0
 40
61.0
 40
61.0
 40
61.0
 40
62.0
 40
62.0
 40
62.0
 40
63.0
 40
63.0
 40
63.0
 40
64.0
 40
64.0
 40
64.0
 40
65.0
 40
65.0
 40
65.0
 40
66.0
 40
66.0
 40
66.0
 40
67.0
 40
67.0
 40
67.0
 40
68.0
 40
68.0
 40
68.0
 40
69.0
 40
69.0
 40
69.0
 40
70.0
 40
70.0
 40
70.0
 40
71.0
 40
71.0
 40
71.0
 40
72.0
 40
72.0
 40
72.0
 40
73.0
 40
73.0
 40
73.0
 40
74.0
 40
74.0
 40
74.0
 40
75.0
 40
75.0
 40
75.0
 40
76.0
 40
76.0
 40
76.0
 40
77.0
 40
77.0
 40
77.0
 40
78.0
 40
78.0
 40
78.0
 40
79.0
 40
79.0
 40
79.0
 40
80.0
 40
80.0
 40
80.0
 40
81.0
 40
81.0
 40
81.0
 40
82.0
 40
82.0
 40
82.0
 40
83.0
 40
83.0
 40
83.0
 40
84.0
 40
84.0
 40
84.0
 40
85.0
 40
85.0
 40
85.0
 40
86.0
 40
86.0
 40
86.0
 40
87.0
 40
87.0
 40
87.0
 40
88.0
 40
88.0
 40
88.0
 40
89.0
 40
89.0
 40
89.0
 40
90.0
 40
90.0
 40
90.0
 40
91.0
 40
91.0
 40
91.0
 40
92.0
 40
92.0
 40
92.0
 40
93.0
 40
93.0
 40
93.0
 40
94.0
 40
94.0
 40
94.0
 40
95.0
 40
95.0
 40
95.0
 40
96.0
 40
96.0
 40
96.0
 40
97.0
 40
97.0
 40
97.0
 40
98.0
 40
98.0
 40
98.0
 40
99.0
 40
99.0
 40
99.0
 40
100.0
 40
100.0
 40
100.0
 40
101.0
 40
101.0
 40
101.0
 40
102.0
 40
102.0
 40
102.0
 40
103.0
 40
103.0
 40
103.0
 40
104.0
 40
104.0
 40
104.0
 40
105.0
 40
105.0
 40
105.0
 40
106.0
 40
106.0
 40
106.0
 40
107.0
 40
107.0
 40
107.0
 40
108.0
 40
108.0
 40
108.0
 40
109.0
 40
109.0
 40
109.0
 40
110.0
 40
110.0
 40
110.0
 40
111.0
 40
111.0
 40
111.0
 40
112.0
 40
112.0
 40
112.0
 40
113.0
 40
113.0
 40
113.0
 40
114.0
 40
114.0
 40
114.0
 40
115.0
 40
115.0
 40
115.0
 40
116.0
 40
116.0
 40
116.0
 40
117.0
 40
117.0
 40
117.0
 40
118.0
 40
118.0
 40
118.0
 40
119.0
 40
119.0
 40
119.0
 40
120.0
 40
120.0
 40
120.0
 40
121.0
 40
121.0
 40
121.0
 40
122.0
 40
122.0
 40
122.0
 40
123.0
 40
123.0
 40
123.0
 40
124.0
 40
124.0
 40
124.0
 40
125.0
 40
125.0
 40
125.0
 40
126.0
 40
126.0
 40
126.0
 40
127.0
 40
127.0
 40
127.0
 40
128.0
 40
128.0
 40
128.0
 40
129.0
 40
129.0
 40
129.0
 40
130.0
 40
130.0
 40
130.0
 40
131.0
 40
131.0
 40
131.0
 40
132.0
 40
132.0
 40
132.0
 40
133.0
 40
133.0
 40
133.0
 40
134.0
 40
134.0
 40
134.0
 40
135.0
 40
135.0
 40
135.0
 40
136.0
 40
136.0
 40
136.0
 40
137.0
 40
137.0
 40
137.0
 40
138.0
 40
138.0
 40
138.0
 40
139.0
 40
139.0
 40
139.0
 40
140.0
 40
140.0
 40
140.0
 40
141.0
 40
141.0
 40
141.0
 40
142.0
 40
142.0
 40
142.0
 40
143.0
 40
143.0
 40
143.0
 40
144.0
 40
144.0
 40
144.0
 40
145.0
 40
145.0
 40
145.0
 40
146.0
 40
146.0
 40
146.0
 40
147.0
 40
147.0
 40
147.0
 40
148.0
 40
148.0
 40
148.0
 40
149.0
 40
149.0
 40
149.0
 40
150.0
 40
150.0
 40
150.0
 40
151.0
 40
151.0
 40
151.0
 40
152.0
 40
152.0
 40
152.0
 40
153.0
 40
153.0
 40
153.0
 40
154.0
 40
154.0
 40
154.0
 40
155.0
 40
155.0
 40
155.0
 40
156.0
 40
156.0
 40
156.0
 40
157.0
 40
157.0
 40
157.0
 40
158.0
 40
158.0
 40
158.0
 40
159.0
 40
159.0
 40
159.0
 40
160.0
 40
160.0
 40
160.0
 40
161.0
 40
161.0
 40
161.0
 40
162.0
 40
162.0
 40
162.0
 40
163.0
 40
163.0
 40
163.0
 40
164.0
 40
164.0
 40
164.0
 40
165.0
 40
165.0
 40
165.0
 40
166.0
 40
166.0
 40
166.0
 40
167.0
 40
167.0
 40
167.0
 40
168.0
 40
168.0
 40
168.0
 40
169.0
 40
169.0
 40
169.0
 40
170.0
 40
170.0
 40
170.0
 40
171.0
 40
171.0
 40
171.0
 40
172.0
 40
172.0
 40
172.0
 40
173.0
 40
173.0
 40
173.0
 40
174.0
 40
174.0
 40
174.0
 40
175.0
 40
175.0
 40
175.0
 40
176.0
 40
176.0
 40
176.0
 40
177.0
 40
177.0
 40
177.0
 40
178.0
 40
178.0
 40
178.0
 40
179.0
 40
179.0
 40
179.0
 40
180.0
 40
180.0
 40
180.0
 40
181.0
 40
181.0
 40
181.0
 40
182.0
 40
182.0
 40
182.0
 40
183.0
 40
183.0
 40
183.0
 40
184.0
 40
184.0
 40
184.0
 40
185.0
 40
185.0
 40
185.0
 40
186.0
 40
186.0
 40
186.0
 40
187.0
 40
187.0
 40
187.0
 40
188.0
 40
188.0
 40
188.0
 40
189.0
 40
189.0
 40
189.0
 40
190.0
 40
190.0
 40
190.0
 40
191.0
 40
191.0
 40
191.0
 40
192.0
 40
192.0
 40
192.0
 40
193.0
 40
193.0
 40
193.0
 40
194.0
 40
194.0
 40
194.0
 40
195.0
 40
195.0
 40
195.0
 40
196.0
 40
196.0
 40
196.0
 40
197.0
 40
197.0
 40
197.0
 40
198.0
 40
198.0
 40
198.0
 40
199.0
 40
199.0
 40
199.0
 40
200.0
 40
200.0
 40
200.0
 40
201.0
 40
201.0
 40
201.0
 40
202.0
 40
202.0
 40
202.0
 40
203.0
 40
203.0
 40
203.0
 40
204.0
 40
204.0
 40
204.0
 40
205.0
 40
205.0
 40
205.0
 40
206.0
 40
206.0
 40
206.0
 40
207.0
 40
207.0
 40
207.0
 40
208.0
 40
208.0
 40
208.0
 40
209.0
 40
209.0
 40
209.0
 40
210.0
 40
210.0
 40
210.0
 40
211.0
 40
211.0
 40
211.0
 40
212.0
 40
212.0
 40
212.0
 40
213.0
 40
213.0
 40
213.0
 40
214.0
 40
214.0
 40
214.0
 40
215.0
 40
215.0
 40
215.0
 40
216.0
 40
216.0
 40
216.0
 40
217.0
 40
217.0
 40
217.0
 40
218.0
 40
218.0
 40
218.0
 40
219.0
 40
219.0
 40
219.0
 40
220.0
 40
220.0
 40
220.0
 40
221.0
 40
221.0
 40
221.0
 40
222.0
 40
222.0
 40
222.0
 40
223.0
 40
223.0
 40
223.0
 40
224.0
 40
224.0
 40
224.0
 40
225.0
 40
225.0
 40
225.0
 40
226.0
 40
226.0
 40
226.0
 40
227.0
 40
227.0
 40
227.0
 40
228.0
 40
228.0
 40
228.0
 40
229.0
 40
229.0
 40
229.0
 40
230.0
 40
230.0
 40
230.0
 40
231.0
 40
231.0
 40
231.0
 40
232.0
 40
232.0
 40
232.0
 40
233.0
 40
233.0
 40
233.0
 40
234.0
 40
234.0
 40
234.0
 40
235.0
 40
235.0
 40
235.0
 40
236.0
 40
236.0
 40
236.0
 40
237.0
 40
237.0
 40
237.0
 40
238.0
 40
238.0
 40
238.0
 40
239.0
 40
239.0
 40
239.0
 40
240.0
 40
240.0
 40
240.0
 40
241.0
 40
241.0
 40
241.0
 40
242.0
 40
242.0
 40
242.0
 40
243.0
 40
243.0
 40
243.0
 40
244.0
 40
244.0
 40
244.0
 40
245.0
 40
245.0
 40
245.0
 40
246.0
 40
246.0
 40
246.0
 40
247.0
 40
247.0
 40
247.0
 40
248.0
 40
248.0
 40
248.0
 40
249.0
 40
249.0
 40
249.0
 40
250.0
 40
250.0
 40
250.0
 40
251.0
 40
251.0
 40
251.0
 40
252.0
 40
252.0
 40
252.0
 40
253.0
 40
253.0
 40
253.0
 40
254.0
 40
254.0
 40
254.0
 40
255.0
 40
255.0
 40
255.0
 40
256.0
 40
256.0
 40
256.0
 40
257.0
 40
257.0
 40
257.0
 40
258.0
 40
258.0
 40
258.0
 40
259.0
 40
259.0
 40
259.0
 40
260.0
 40
260.0
 40
260.0
 40
261.0
 40
261.0
 40
261.0
 40
262.0
 40
262.0
 40
262.0
 40
263.0
 40
263.0
 40
263.0
 40
264.0
 40
264.0
 40
264.0
 40
265.0
 40
265.0
 40
265.0
 40
266.0
 40
266.0
 40
266.0
 40
267.0
 40
267.0
 40
267.0
 40
268.0
 40
268.0
 40
268.0
 40
269.0
 40
269.0
 40
269.0
 40
270.0
 40
270.0
 40
270.0
 40
271.0
 40
271.0
 40
271.0
 40
272.0
 40
272.0
 40
272.0
 40
273.0
 40
273.0
 40
273.0
 40
274.0
 40
274.0
 40
274.0
 40
275.0
 40
275.0
 40
275.0
 40
276.0
 40
276.0
 40
276.0
 40
277.0
 40
277.0
 40
277.0
 40
278.0
 40
278.0
 40
278.0
 40
279.0
 40
279.0
 40
279.0
 40
279.0
 10
86.4875622379629
 20
-92.16319442140365
 30
0.0
 10
87.21241471947037
 20
-92.16319442140365
 30
0.0
 10
87.79996609336959
 20
-92.7478177545907
 30
0.0
 10
87.79996609336959
 20
-93.4692130321884
 30
0.0
 10
87.79996609336959
 20
-93.4692130321884
 30
0.0
 10
87.79996609336959
 20
-166.7715669027519
 30
0.0
 10
87.79996609336959
 20
-166.7715669027519
 30
0.0
 10
87.79996609336959
 20
-166.9879255138086
 30
0.0
 10
87.62375359786515
 20
-167.1636088470978
 30
0.0
 10
87.40654832562873
 20
-167.1636088470978
 30
0.0
 10
87.40654832562873
 20
-167.1636088470978
 30
0.0
 10
87.32523304992547
 20
-167.1636088470978
 30
0.0
 10
87.32523304992547
 20
-167.1636088470978
 30
0.0
 10
87.32523304992547
 20
-167.1636088470978
 30
0.0
 10
85.90191586401511
 20
-165.3556227364387
 30
0.0
 10
85.90191586401511
 20
-165.3556227364387
 30
0.0
 10
85.90191586401511
 20
-165.3556227364387
 30
0.0
 10
85.90191586401511
 20
-163.3512805147176
 30
0.0
 10
85.90191586401511
 20
-163.3512805147176
 30
0.0
 10
85.90191586401511
 20
-163.3512805147176
 30
0.0
 10
86.36200863005493
 20
-163.3512805147176
 30
0.0
 10
86.36200863005493
 20
-163.3512805147176
 30
0.0
 10
86.36200863005493
 20
-163.3512805147176
 30
0.0
 10
86.36200863005493
 20
-163.3664146813806
 30
0.0
 10
86.36200863005493
 20
-163.3664146813806
 30
0.0
 10
86.36200863005493
 20
-163.3664146813806
 30
0.0
 10
86.0994714145306
 20
-163.109416070334
 30
0.0
 10
86.0994714145306
 20
-163.109416070334
 30
0.0
 10
86.0994714145306
 20
-163.109416070334
 30
0.0
 10
86.36200863005493
 20
-162.8517471815094
 30
0.0
 10
86.36200863005493
 20
-162.8517471815094
 30
0.0
 10
86.36200863005493
 20
-162.8517471815094
 30
0.0
 10
86.0994714145306
 20
-162.5947132926847
 30
0.0
 10
86.0994714145306
 20
-162.5947132926847
 30
0.0
 10
86.0994714145306
 20
-162.5947132926847
 30
0.0
 10
86.36200863005493
 20
-162.3363388483046
 30
0.0
 10
86.36200863005493
 20
-162.3363388483046
 30
0.0
 10
86.36200863005493
 20
-162.3363388483046
 30
0.0
 10
86.0994714145306
 20
-162.0786346817024
 30
0.0
 10
86.0994714145306
 20
-162.0786346817024
 30
0.0
 10
86.0994714145306
 20
-162.0786346817024
 30
0.0
 10
86.36200863005493
 20
-161.8202602373229
 30
0.0
 10
86.36200863005493
 20
-161.8202602373229
 30
0.0
 10
86.36200863005493
 20
-161.8202602373229
 30
0.0
 10
86.0994714145306
 20
-161.5618857929428
 30
0.0
 10
86.0994714145306
 20
-161.5618857929428
 30
0.0
 10
86.0994714145306
 20
-161.5618857929428
 30
0.0
 10
86.36200863005493
 20
-161.3035113485633
 30
0.0
 10
86.36200863005493
 20
-161.3035113485633
 30
0.0
 10
86.36200863005493
 20
-161.3035113485633
 30
0.0
 10
86.0994714145306
 20
-161.0458071819606
 30
0.0
 10
86.0994714145306
 20
-161.0458071819606
 30
0.0
 10
86.0994714145306
 20
-161.0458071819606
 30
0.0
 10
86.36200863005493
 20
-160.7874327375811
 30
0.0
 10
86.36200863005493
 20
-160.7874327375811
 30
0.0
 10
86.36200863005493
 20
-160.7874327375811
 30
0.0
 10
86.0994714145306
 20
-160.529728570979
 30
0.0
 10
86.0994714145306
 20
-160.529728570979
 30
0.0
 10
86.0994714145306
 20
-160.529728570979
 30
0.0
 10
86.36200863005493
 20
-160.2713541265988
 30
0.0
 10
86.36200863005493
 20
-160.2713541265988
 30
0.0
 10
86.36200863005493
 20
-160.2713541265988
 30
0.0
 10
86.0994714145306
 20
-160.0136499599967
 30
0.0
 10
86.0994714145306
 20
-160.0136499599967
 30
0.0
 10
86.0994714145306
 20
-160.0136499599967
 30
0.0
 10
86.36200863005493
 20
-159.7559810711721
 30
0.0
 10
86.36200863005493
 20
-159.7559810711721
 30
0.0
 10
86.36200863005493
 20
-159.7559810711721
 30
0.0
 10
86.0994714145306
 20
-159.4969010712371
 30
0.0
 10
86.0994714145306
 20
-159.4969010712371
 30
0.0
 10
86.0994714145306
 20
-159.4969010712371
 30
0.0
 10
86.36200863005493
 20
-159.238526626857
 30
0.0
 10
86.36200863005493
 20
-159.238526626857
 30
0.0
 10
86.36200863005493
 20
-159.238526626857
 30
0.0
 10
86.0994714145306
 20
-158.9808224602548
 30
0.0
 10
86.0994714145306
 20
-158.9808224602548
 30
0.0
 10
86.0994714145306
 20
-158.9808224602548
 30
0.0
 10
86.36200863005493
 20
-158.7224480158747
 30
0.0
 10
86.36200863005493
 20
-158.7224480158747
 30
0.0
 10
86.36200863005493
 20
-158.7224480158747
 30
0.0
 10
86.0994714145306
 20
-158.4654494048281
 30
0.0
 10
86.0994714145306
 20
-158.4654494048281
 30
0.0
 10
86.0994714145306
 20
-158.4654494048281
 30
0.0
 10
86.36200863005493
 20
-158.207745238226
 30
0.0
 10
86.36200863005493
 20
-158.207745238226
 30
0.0
 10
86.36200863005493
 20
-158.207745238226
 30
0.0
 10
86.0994714145306
 20
-157.9486652382903
 30
0.0
 10
86.0994714145306
 20
-157.9486652382903
 30
0.0
 10
86.0994714145306
 20
-157.9486652382903
 30
0.0
 10
86.36200863005493
 20
-157.6916666272438
 30
0.0
 10
86.36200863005493
 20
-157.6916666272438
 30
0.0
 10
86.36200863005493
 20
-157.6916666272438
 30
0.0
 10
86.0994714145306
 20
-157.4332921828636
 30
0.0
 10
86.0994714145306
 20
-157.4332921828636
 30
0.0
 10
86.0994714145306
 20
-157.4332921828636
 30
0.0
 10
86.36200863005493
 20
-157.1749177384841
 30
0.0
 10
86.36200863005493
 20
-157.1749177384841
 30
0.0
 10
86.36200863005493
 20
-157.1749177384841
 30
0.0
 10
86.0994714145306
 20
-156.917213571882
 30
0.0
 10
86.0994714145306
 20
-156.917213571882
 30
0.0
 10
86.0994714145306
 20
-156.917213571882
 30
0.0
 10
86.36200863005493
 20
-156.6588391275019
 30
0.0
 10
86.36200863005493
 20
-156.6588391275019
 30
0.0
 10
86.36200863005493
 20
-156.6588391275019
 30
0.0
 10
86.0994714145306
 20
-156.4004294053443
 30
0.0
 10
86.0994714145306
 20
-156.4004294053443
 30
0.0
 10
86.0994714145306
 20
-156.4004294053443
 30
0.0
 10
86.36200863005493
 20
-156.1427605165196
 30
0.0
 10
86.36200863005493
 20
-156.1427605165196
 30
0.0
 10
86.36200863005493
 20
-156.1427605165196
 30
0.0
 10
86.0994714145306
 20
-155.8850563499175
 30
0.0
 10
86.0994714145306
 20
-155.8850563499175
 30
0.0
 10
86.0994714145306
 20
-155.8850563499175
 30
0.0
 10
86.36200863005493
 20
-155.6273521833154
 30
0.0
 10
86.36200863005493
 20
-155.6273521833154
 30
0.0
 10
86.36200863005493
 20
-155.6273521833154
 30
0.0
 10
86.0994714145306
 20
-155.3703535722688
 30
0.0
 10
86.0994714145306
 20
-155.3703535722688
 30
0.0
 10
86.0994714145306
 20
-155.3703535722688
 30
0.0
 10
86.36200863005493
 20
-155.1126846834442
 30
0.0
 10
86.36200863005493
 20
-155.1126846834442
 30
0.0
 10
86.36200863005493
 20
-155.1126846834442
 30
0.0
 10
86.0994714145306
 20
-154.8549805168421
 30
0.0
 10
86.0994714145306
 20
-154.8549805168421
 30
0.0
 10
86.0994714145306
 20
-154.8549805168421
 30
0.0
 10
86.36200863005493
 20
-154.596606072462
 30
0.0
 10
86.36200863005493
 20
-154.596606072462
 30
0.0
 10
86.36200863005493
 20
-154.596606072462
 30
0.0
 10
86.0994714145306
 20
-154.3389019058598
 30
0.0
 10
86.0994714145306
 20
-154.3389019058598
 30
0.0
 10
86.0994714145306
 20
-154.3389019058598
 30
0.0
 10
86.36200863005493
 20
-154.0811977392577
 30
0.0
 10
86.36200863005493
 20
-154.0811977392577
 30
0.0
 10
86.36200863005493
 20
-154.0811977392577
 30
0.0
 10
86.0994714145306
 20
-153.8228232948776
 30
0.0
 10
86.0994714145306
 20
-153.8228232948776
 30
0.0
 10
86.0994714145306
 20
-153.8228232948776
 30
0.0
 10
86.36200863005493
 20
-153.5651191282755
 30
0.0
 10
86.36200863005493
 20
-153.5651191282755
 30
0.0
 10
86.36200863005493
 20
-153.5651191282755
 30
0.0
 10
86.0994714145306
 20
-153.3067446838953
 30
0.0
 10
86.0994714145306
 20
-153.3067446838953
 30
0.0
 10
86.0994714145306
 20
-153.3067446838953
 30
0.0
 10
86.36200863005493
 20
-153.0490405172932
 30
0.0
 10
86.36200863005493
 20
-153.0490405172932
 30
0.0
 10
86.36200863005493
 20
-153.0490405172932
 30
0.0
 10
86.0994714145306
 20
-152.7913716284686
 30
0.0
 10
86.0994714145306
 20
-152.7913716284686
 30
0.0
 10
86.0994714145306
 20
-152.7913716284686
 30
0.0
 10
86.36200863005493
 20
-152.5336674618665
 30
0.0
 10
86.36200863005493
 20
-152.5336674618665
 30
0.0
 10
86.36200863005493
 20
-152.5336674618665
 30
0.0
 10
86.0994714145306
 20
-152.2759632952644
 30
0.0
 10
86.0994714145306
 20
-152.2759632952644
 30
0.0
 10
86.0994714145306
 20
-152.2759632952644
 30
0.0
 10
86.36200863005493
 20
-152.0189646842178
 30
0.0
 10
86.36200863005493
 20
-152.0189646842178
 30
0.0
 10
86.36200863005493
 20
-152.0189646842178
 30
0.0
 10
86.0994714145306
 20
-151.7612957953932
 30
0.0
 10
86.0994714145306
 20
-151.7612957953932
 30
0.0
 10
86.0994714145306
 20
-151.7612957953932
 30
0.0
 10
86.36200863005493
 20
-151.503591628791
 30
0.0
 10
86.36200863005493
 20
-151.503591628791
 30
0.0
 10
86.36200863005493
 20
-151.503591628791
 30
0.0
 10
86.0994714145306
 20
-151.2465930177438
 30
0.0
 10
86.0994714145306
 20
-151.2465930177438
 30
0.0
 10
86.0994714145306
 20
-151.2465930177438
 30
0.0
 10
86.36200863005493
 20
-150.9895944066972
 30
0.0
 10
86.36200863005493
 20
-150.9895944066972
 30
0.0
 10
86.36200863005493
 20
-150.9895944066972
 30
0.0
 10
86.0994714145306
 20
-150.7318902400951
 30
0.0
 10
86.0994714145306
 20
-150.7318902400951
 30
0.0
 10
86.0994714145306
 20
-150.7318902400951
 30
0.0
 10
86.36200863005493
 20
-150.4741860734923
 30
0.0
 10
86.36200863005493
 20
-150.4741860734923
 30
0.0
 10
86.36200863005493
 20
-150.4741860734923
 30
0.0
 10
86.0994714145306
 20
-150.2171874624457
 30
0.0
 10
86.0994714145306
 20
-150.2171874624457
 30
0.0
 10
86.0994714145306
 20
-150.2171874624457
 30
0.0
 10
86.36200863005493
 20
-149.9594832958436
 30
0.0
 10
86.36200863005493
 20
-149.9594832958436
 30
0.0
 10
86.36200863005493
 20
-149.9594832958436
 30
0.0
 10
86.0994714145306
 20
-149.7011088514635
 30
0.0
 10
86.0994714145306
 20
-149.7011088514635
 30
0.0
 10
86.0994714145306
 20
-149.7011088514635
 30
0.0
 10
86.36200863005493
 20
-149.4441102404169
 30
0.0
 10
86.36200863005493
 20
-149.4441102404169
 30
0.0
 10
86.36200863005493
 20
-149.4441102404169
 30
0.0
 10
86.0994714145306
 20
-149.1857357960367
 30
0.0
 10
86.0994714145306
 20
-149.1857357960367
 30
0.0
 10
86.0994714145306
 20
-149.1857357960367
 30
0.0
 10
86.36200863005493
 20
-148.9273613516573
 30
0.0
 10
86.36200863005493
 20
-148.9273613516573
 30
0.0
 10
86.36200863005493
 20
-148.9273613516573
 30
0.0
 10
86.0994714145306
 20
-148.6703274628325
 30
0.0
 10
86.0994714145306
 20
-148.6703274628325
 30
0.0
 10
86.0994714145306
 20
-148.6703274628325
 30
0.0
 10
86.36200863005493
 20
-148.4119530184524
 30
0.0
 10
86.36200863005493
 20
-148.4119530184524
 30
0.0
 10
86.36200863005493
 20
-148.4119530184524
 30
0.0
 10
86.0994714145306
 20
-148.1542488518502
 30
0.0
 10
86.0994714145306
 20
-148.1542488518502
 30
0.0
 10
86.0994714145306
 20
-148.1542488518502
 30
0.0
 10
86.36200863005493
 20
-147.8965799630256
 30
0.0
 10
86.36200863005493
 20
-147.8965799630256
 30
0.0
 10
86.36200863005493
 20
-147.8965799630256
 30
0.0
 10
86.0994714145306
 20
-147.639581351979
 30
0.0
 10
86.0994714145306
 20
-147.639581351979
 30
0.0
 10
86.0994714145306
 20
-147.639581351979
 30
0.0
 10
86.36200863005493
 20
-147.3818771853769
 30
0.0
 10
86.36200863005493
 20
-147.3818771853769
 30
0.0
 10
86.36200863005493
 20
-147.3818771853769
 30
0.0
 10
86.0994714145306
 20
-147.1248785743297
 30
0.0
 10
86.0994714145306
 20
-147.1248785743297
 30
0.0
 10
86.0994714145306
 20
-147.1248785743297
 30
0.0
 10
86.36200863005493
 20
-146.8678799632831
 30
0.0
 10
86.36200863005493
 20
-146.8678799632831
 30
0.0
 10
86.36200863005493
 20
-146.8678799632831
 30
0.0
 10
86.0994714145306
 20
-146.6101757966809
 30
0.0
 10
86.0994714145306
 20
-146.6101757966809
 30
0.0
 10
86.0994714145306
 20
-146.6101757966809
 30
0.0
 10
86.36200863005493
 20
-146.3531771856337
 30
0.0
 10
86.36200863005493
 20
-146.3531771856337
 30
0.0
 10
86.36200863005493
 20
-146.3531771856337
 30
0.0
 10
86.0994714145306
 20
-146.0968488523645
 30
0.0
 10
86.0994714145306
 20
-146.0968488523645
 30
0.0
 10
86.0994714145306
 20
-146.0968488523645
 30
0.0
 10
86.36200863005493
 20
-145.8363930190966
 30
0.0
 10
86.36200863005493
 20
-145.8363930190966
 30
0.0
 10
86.36200863005493
 20
-145.8363930190966
 30
0.0
 10
86.0994714145306
 20
-145.5766427413836
 30
0.0
 10
86.0994714145306
 20
-145.5766427413836
 30
0.0
 10
86.0994714145306
 20
-145.5766427413836
 30
0.0
 10
86.36200863005493
 20
-145.3168924636706
 30
0.0
 10
86.36200863005493
 20
-145.3168924636706
 30
0.0
 10
86.36200863005493
 20
-145.3168924636706
 30
0.0
 10
86.0994714145306
 20
-145.0578124637356
 30
0.0
 10
86.0994714145306
 20
-145.0578124637356
 30
0.0
 10
86.0994714145306
 20
-145.0578124637356
 30
0.0
 10
86.36200863005493
 20
-144.7987324638005
 30
0.0
 10
86.36200863005493
 20
-144.7987324638005
 30
0.0
 10
86.36200863005493
 20
-144.7987324638005
 30
0.0
 10
86.0994714145306
 20
-144.5396877416431
 30
0.0
 10
86.0994714145306
 20
-144.5396877416431
 30
0.0
 10
86.0994714145306
 20
-144.5396877416431
 30
0.0
 10
86.36200863005493
 20
-144.2806077417074
 30
0.0
 10
86.36200863005493
 20
-144.2806077417074
 30
0.0
 10
86.36200863005493
 20
-144.2806077417074
 30
0.0
 10
86.0994714145306
 20
-144.0215277417724
 30
0.0
 10
86.0994714145306
 20
-144.0215277417724
 30
0.0
 10
86.0994714145306
 20
-144.0215277417724
 30
0.0
 10
86.36200863005493
 20
-143.7638235751703
 30
0.0
 10
86.36200863005493
 20
-143.7638235751703
 30
0.0
 10
86.36200863005493
 20
-143.7638235751703
 30
0.0
 10
86.0994714145306
 20
-143.5054491307901
 30
0.0
 10
86.0994714145306
 20
-143.5054491307901
 30
0.0
 10
86.0994714145306
 20
-143.5054491307901
 30
0.0
 10
86.36200863005493
 20
-143.2463691308552
 30
0.0
 10
86.36200863005493
 20
-143.2463691308552
 30
0.0
 10
86.36200863005493
 20
-143.2463691308552
 30
0.0
 10
86.0994714145306
 20
-142.9873244086976
 30
0.0
 10
86.0994714145306
 20
-142.9873244086976
 30
0.0
 10
86.0994714145306
 20
-142.9873244086976
 30
0.0
 10
86.36200863005493
 20
-142.72891468654
 30
0.0
 10
86.36200863005493
 20
-142.72891468654
 30
0.0
 10
86.36200863005493
 20
-142.72891468654
 30
0.0
 10
86.0994714145306
 20
-142.4698699643825
 30
0.0
 10
86.0994714145306
 20
-142.4698699643825
 30
0.0
 10
86.0994714145306
 20
-142.4698699643825
 30
0.0
 10
86.36200863005493
 20
-142.2114602422249
 30
0.0
 10
86.36200863005493
 20
-142.2114602422249
 30
0.0
 10
86.36200863005493
 20
-142.2114602422249
 30
0.0
 10
86.0994714145306
 20
-141.9524155200674
 30
0.0
 10
86.0994714145306
 20
-141.9524155200674
 30
0.0
 10
86.0994714145306
 20
-141.9524155200674
 30
0.0
 10
86.36200863005493
 20
-141.6947113534653
 30
0.0
 10
86.36200863005493
 20
-141.6947113534653
 30
0.0
 10
86.36200863005493
 20
-141.6947113534653
 30
0.0
 10
86.0994714145306
 20
-141.4356313535303
 30
0.0
 10
86.0994714145306
 20
-141.4356313535303
 30
0.0
 10
86.0994714145306
 20
-141.4356313535303
 30
0.0
 10
86.36200863005493
 20
-141.1765513535946
 30
0.0
 10
86.36200863005493
 20
-141.1765513535946
 30
0.0
 10
86.36200863005493
 20
-141.1765513535946
 30
0.0
 10
86.0994714145306
 20
-140.91888246477
 30
0.0
 10
86.0994714145306
 20
-140.91888246477
 30
0.0
 10
86.0994714145306
 20
-140.91888246477
 30
0.0
 10
86.36200863005493
 20
-140.6605080203905
 30
0.0
 10
86.36200863005493
 20
-140.6605080203905
 30
0.0
 10
86.36200863005493
 20
-140.6605080203905
 30
0.0
 10
86.0994714145306
 20
-140.4028038537884
 30
0.0
 10
86.0994714145306
 20
-140.4028038537884
 30
0.0
 10
86.0994714145306
 20
-140.4028038537884
 30
0.0
 10
86.36200863005493
 20
-140.1437238538527
 30
0.0
 10
86.36200863005493
 20
-140.1437238538527
 30
0.0
 10
86.36200863005493
 20
-140.1437238538527
 30
0.0
 10
86.0994714145306
 20
-139.8846438539177
 30
0.0
 10
86.0994714145306
 20
-139.8846438539177
 30
0.0
 10
86.0994714145306
 20
-139.8846438539177
 30
0.0
 10
86.36200863005493
 20
-139.6269749650932
 30
0.0
 10
86.36200863005493
 20
-139.6269749650932
 30
0.0
 10
86.36200863005493
 20
-139.6269749650932
 30
0.0
 10
86.0994714145306
 20
-139.369270798491
 30
0.0
 10
86.0994714145306
 20
-139.369270798491
 30
0.0
 10
86.0994714145306
 20
-139.369270798491
 30
0.0
 10
86.36200863005493
 20
-139.1115666318889
 30
0.0
 10
86.36200863005493
 20
-139.1115666318889
 30
0.0
 10
86.36200863005493
 20
-139.1115666318889
 30
0.0
 10
86.0994714145306
 20
-138.8538977430643
 30
0.0
 10
86.0994714145306
 20
-138.8538977430643
 30
0.0
 10
86.0994714145306
 20
-138.8538977430643
 30
0.0
 10
86.36200863005493
 20
-138.5954880209067
 30
0.0
 10
86.36200863005493
 20
-138.5954880209067
 30
0.0
 10
86.36200863005493
 20
-138.5954880209067
 30
0.0
 10
86.0994714145306
 20
-138.3364432987492
 30
0.0
 10
86.0994714145306
 20
-138.3364432987492
 30
0.0
 10
86.0994714145306
 20
-138.3364432987492
 30
0.0
 10
86.36200863005493
 20
-138.078739132147
 30
0.0
 10
86.36200863005493
 20
-138.078739132147
 30
0.0
 10
86.36200863005493
 20
-138.078739132147
 30
0.0
 10
86.0994714145306
 20
-137.8210349655449
 30
0.0
 10
86.0994714145306
 20
-137.8210349655449
 30
0.0
 10
86.0994714145306
 20
-137.8210349655449
 30
0.0
 10
86.36200863005493
 20
-137.5633660767203
 30
0.0
 10
86.36200863005493
 20
-137.5633660767203
 30
0.0
 10
86.36200863005493
 20
-137.5633660767203
 30
0.0
 10
86.0994714145306
 20
-137.3063321878955
 30
0.0
 10
86.0994714145306
 20
-137.3063321878955
 30
0.0
 10
86.0994714145306
 20
-137.3063321878955
 30
0.0
 10
86.36200863005493
 20
-137.049333576849
 30
0.0
 10
86.36200863005493
 20
-137.049333576849
 30
0.0
 10
86.36200863005493
 20
-137.049333576849
 30
0.0
 10
86.0994714145306
 20
-136.7923349658017
 30
0.0
 10
86.0994714145306
 20
-136.7923349658017
 30
0.0
 10
86.0994714145306
 20
-136.7923349658017
 30
0.0
 10
86.36200863005493
 20
-136.5339605214222
 30
0.0
 10
86.36200863005493
 20
-136.5339605214222
 30
0.0
 10
86.36200863005493
 20
-136.5339605214222
 30
0.0
 10
86.0994714145306
 20
-136.2755860770421
 30
0.0
 10
86.0994714145306
 20
-136.2755860770421
 30
0.0
 10
86.0994714145306
 20
-136.2755860770421
 30
0.0
 10
86.36200863005493
 20
-136.01788191044
 30
0.0
 10
86.36200863005493
 20
-136.01788191044
 30
0.0
 10
86.36200863005493
 20
-136.01788191044
 30
0.0
 10
86.0994714145306
 20
-135.758801910505
 30
0.0
 10
86.0994714145306
 20
-135.758801910505
 30
0.0
 10
86.0994714145306
 20
-135.758801910505
 30
0.0
 10
86.36200863005493
 20
-135.5011330216804
 30
0.0
 10
86.36200863005493
 20
-135.5011330216804
 30
0.0
 10
86.36200863005493
 20
-135.5011330216804
 30
0.0
 10
86.0994714145306
 20
-135.2427232995227
 30
0.0
 10
86.0994714145306
 20
-135.2427232995227
 30
0.0
 10
86.0994714145306
 20
-135.2427232995227
 30
0.0
 10
86.36200863005493
 20
-134.9843488551426
 30
0.0
 10
86.36200863005493
 20
-134.9843488551426
 30
0.0
 10
86.36200863005493
 20
-134.9843488551426
 30
0.0
 10
86.0994714145306
 20
-134.7266446885405
 30
0.0
 10
86.0994714145306
 20
-134.7266446885405
 30
0.0
 10
86.0994714145306
 20
-134.7266446885405
 30
0.0
 10
86.36200863005493
 20
-134.4689757997159
 30
0.0
 10
86.36200863005493
 20
-134.4689757997159
 30
0.0
 10
86.36200863005493
 20
-134.4689757997159
 30
0.0
 10
86.0994714145306
 20
-134.2106013553364
 30
0.0
 10
86.0994714145306
 20
-134.2106013553364
 30
0.0
 10
86.0994714145306
 20
-134.2106013553364
 30
0.0
 10
86.36200863005493
 20
-133.9521916331788
 30
0.0
 10
86.36200863005493
 20
-133.9521916331788
 30
0.0
 10
86.36200863005493
 20
-133.9521916331788
 30
0.0
 10
86.0994714145306
 20
-133.6938171887986
 30
0.0
 10
86.0994714145306
 20
-133.6938171887986
 30
0.0
 10
86.0994714145306
 20
-133.6938171887986
 30
0.0
 10
86.36200863005493
 20
-133.4354427444191
 30
0.0
 10
86.36200863005493
 20
-133.4354427444191
 30
0.0
 10
86.36200863005493
 20
-133.4354427444191
 30
0.0
 10
86.0994714145306
 20
-133.1777385778164
 30
0.0
 10
86.0994714145306
 20
-133.1777385778164
 30
0.0
 10
86.0994714145306
 20
-133.1777385778164
 30
0.0
 10
86.36200863005493
 20
-132.9200696889924
 30
0.0
 10
86.36200863005493
 20
-132.9200696889924
 30
0.0
 10
86.36200863005493
 20
-132.9200696889924
 30
0.0
 10
86.0994714145306
 20
-132.6616599668347
 30
0.0
 10
86.0994714145306
 20
-132.6616599668347
 30
0.0
 10
86.0994714145306
 20
-132.6616599668347
 30
0.0
 10
86.36200863005493
 20
-132.4039910780102
 30
0.0
 10
86.36200863005493
 20
-132.4039910780102
 30
0.0
 10
86.36200863005493
 20
-132.4039910780102
 30
0.0
 10
86.0994714145306
 20
-132.146286911408
 30
0.0
 10
86.0994714145306
 20
-132.146286911408
 30
0.0
 10
86.0994714145306
 20
-132.146286911408
 30
0.0
 10
86.36200863005493
 20
-131.8885827448059
 30
0.0
 10
86.36200863005493
 20
-131.8885827448059
 30
0.0
 10
86.36200863005493
 20
-131.8885827448059
 30
0.0
 10
86.0994714145306
 20
-131.6302083004258
 30
0.0
 10
86.0994714145306
 20
-131.6302083004258
 30
0.0
 10
86.0994714145306
 20
-131.6302083004258
 30
0.0
 10
86.36200863005493
 20
-131.3718338560457
 30
0.0
 10
86.36200863005493
 20
-131.3718338560457
 30
0.0
 10
86.36200863005493
 20
-131.3718338560457
 30
0.0
 10
86.0994714145306
 20
-131.1134594116662
 30
0.0
 10
86.0994714145306
 20
-131.1134594116662
 30
0.0
 10
86.0994714145306
 20
-131.1134594116662
 30
0.0
 10
86.36200863005493
 20
-130.855755245064
 30
0.0
 10
86.36200863005493
 20
-130.855755245064
 30
0.0
 10
86.36200863005493
 20
-130.855755245064
 30
0.0
 10
86.0994714145306
 20
-130.5980510784613
 30
0.0
 10
86.0994714145306
 20
-130.5980510784613
 30
0.0
 10
86.0994714145306
 20
-130.5980510784613
 30
0.0
 10
86.36200863005493
 20
-130.3403821896373
 30
0.0
 10
86.36200863005493
 20
-130.3403821896373
 30
0.0
 10
86.36200863005493
 20
-130.3403821896373
 30
0.0
 10
86.0994714145306
 20
-130.0819724674797
 30
0.0
 10
86.0994714145306
 20
-130.0819724674797
 30
0.0
 10
86.0994714145306
 20
-130.0819724674797
 30
0.0
 10
86.36200863005493
 20
-129.8243035786551
 30
0.0
 10
86.36200863005493
 20
-129.8243035786551
 30
0.0
 10
86.36200863005493
 20
-129.8243035786551
 30
0.0
 10
86.0994714145306
 20
-129.5672696898303
 30
0.0
 10
86.0994714145306
 20
-129.5672696898303
 30
0.0
 10
86.0994714145306
 20
-129.5672696898303
 30
0.0
 10
86.36200863005493
 20
-129.3096008010057
 30
0.0
 10
86.36200863005493
 20
-129.3096008010057
 30
0.0
 10
86.36200863005493
 20
-129.3096008010057
 30
0.0
 10
86.0994714145306
 20
-129.0518966344036
 30
0.0
 10
86.0994714145306
 20
-129.0518966344036
 30
0.0
 10
86.0994714145306
 20
-129.0518966344036
 30
0.0
 10
86.36200863005493
 20
-128.7941924678015
 30
0.0
 10
86.36200863005493
 20
-128.7941924678015
 30
0.0
 10
86.36200863005493
 20
-128.7941924678015
 30
0.0
 10
86.0994714145306
 20
-128.5358180234217
 30
0.0
 10
86.0994714145306
 20
-128.5358180234217
 30
0.0
 10
86.0994714145306
 20
-128.5358180234217
 30
0.0
 10
86.36200863005493
 20
-128.2781138568192
 30
0.0
 10
86.36200863005493
 20
-128.2781138568192
 30
0.0
 10
86.36200863005493
 20
-128.2781138568192
 30
0.0
 10
86.0994714145306
 20
-128.0197394124394
 30
0.0
 10
86.0994714145306
 20
-128.0197394124394
 30
0.0
 10
86.0994714145306
 20
-128.0197394124394
 30
0.0
 10
86.36200863005493
 20
-127.7620705236151
 30
0.0
 10
86.36200863005493
 20
-127.7620705236151
 30
0.0
 10
86.36200863005493
 20
-127.7620705236151
 30
0.0
 10
86.0994714145306
 20
-127.5036608014575
 30
0.0
 10
86.0994714145306
 20
-127.5036608014575
 30
0.0
 10
86.0994714145306
 20
-127.5036608014575
 30
0.0
 10
86.36200863005493
 20
-127.2459919126329
 30
0.0
 10
86.36200863005493
 20
-127.2459919126329
 30
0.0
 10
86.36200863005493
 20
-127.2459919126329
 30
0.0
 10
86.0994714145306
 20
-126.9882877460308
 30
0.0
 10
86.0994714145306
 20
-126.9882877460308
 30
0.0
 10
86.0994714145306
 20
-126.9882877460308
 30
0.0
 10
86.36200863005493
 20
-126.7305835794286
 30
0.0
 10
86.36200863005493
 20
-126.7305835794286
 30
0.0
 10
86.36200863005493
 20
-126.7305835794286
 30
0.0
 10
86.0994714145306
 20
-126.472914690604
 30
0.0
 10
86.0994714145306
 20
-126.472914690604
 30
0.0
 10
86.0994714145306
 20
-126.472914690604
 30
0.0
 10
86.36200863005493
 20
-126.2158808017793
 30
0.0
 10
86.36200863005493
 20
-126.2158808017793
 30
0.0
 10
86.36200863005493
 20
-126.2158808017793
 30
0.0
 10
86.0994714145306
 20
-125.958211912955
 30
0.0
 10
86.0994714145306
 20
-125.958211912955
 30
0.0
 10
86.0994714145306
 20
-125.958211912955
 30
0.0
 10
86.36200863005493
 20
-125.7012133019081
 30
0.0
 10
86.36200863005493
 20
-125.7012133019081
 30
0.0
 10
86.36200863005493
 20
-125.7012133019081
 30
0.0
 10
86.0994714145306
 20
-125.443509135306
 30
0.0
 10
86.0994714145306
 20
-125.443509135306
 30
0.0
 10
86.0994714145306
 20
-125.443509135306
 30
0.0
 10
86.36200863005493
 20
-125.1858049687035
 30
0.0
 10
86.36200863005493
 20
-125.1858049687035
 30
0.0
 10
86.36200863005493
 20
-125.1858049687035
 30
0.0
 10
86.0994714145306
 20
-124.9288063576566
 30
0.0
 10
86.0994714145306
 20
-124.9288063576566
 30
0.0
 10
86.0994714145306
 20
-124.9288063576566
 30
0.0
 10
86.36200863005493
 20
-124.6711021910545
 30
0.0
 10
86.36200863005493
 20
-124.6711021910545
 30
0.0
 10
86.36200863005493
 20
-124.6711021910545
 30
0.0
 10
86.0994714145306
 20
-124.4134333022299
 30
0.0
 10
86.0994714145306
 20
-124.4134333022299
 30
0.0
 10
86.0994714145306
 20
-124.4134333022299
 30
0.0
 10
86.36200863005493
 20
-124.1564346911833
 30
0.0
 10
86.36200863005493
 20
-124.1564346911833
 30
0.0
 10
86.36200863005493
 20
-124.1564346911833
 30
0.0
 10
86.0994714145306
 20
-123.8987305245808
 30
0.0
 10
86.0994714145306
 20
-123.8987305245808
 30
0.0
 10
86.0994714145306
 20
-123.8987305245808
 30
0.0
 10
86.36200863005493
 20
-123.640356080201
 30
0.0
 10
86.36200863005493
 20
-123.640356080201
 30
0.0
 10
86.36200863005493
 20
-123.640356080201
 30
0.0
 10
86.0994714145306
 20
-123.3826519135989
 30
0.0
 10
86.0994714145306
 20
-123.3826519135989
 30
0.0
 10
86.0994714145306
 20
-123.3826519135989
 30
0.0
 10
86.36200863005493
 20
-123.1242774692191
 30
0.0
 10
86.36200863005493
 20
-123.1242774692191
 30
0.0
 10
86.36200863005493
 20
-123.1242774692191
 30
0.0
 10
86.0994714145306
 20
-122.8665733026166
 30
0.0
 10
86.0994714145306
 20
-122.8665733026166
 30
0.0
 10
86.0994714145306
 20
-122.8665733026166
 30
0.0
 10
86.36200863005493
 20
-122.6088691360145
 30
0.0
 10
86.36200863005493
 20
-122.6088691360145
 30
0.0
 10
86.36200863005493
 20
-122.6088691360145
 30
0.0
 10
86.0994714145306
 20
-122.3512002471899
 30
0.0
 10
86.0994714145306
 20
-122.3512002471899
 30
0.0
 10
86.0994714145306
 20
-122.3512002471899
 30
0.0
 10
86.36200863005493
 20
-122.0934960805878
 30
0.0
 10
86.36200863005493
 20
-122.0934960805878
 30
0.0
 10
86.36200863005493
 20
-122.0934960805878
 30
0.0
 10
86.0994714145306
 20
-121.8357919139857
 30
0.0
 10
86.0994714145306
 20
-121.8357919139857
 30
0.0
 10
86.0994714145306
 20
-121.8357919139857
 30
0.0
 10
86.36200863005493
 20
-121.5787933029387
 30
0.0
 10
86.36200863005493
 20
-121.5787933029387
 30
0.0
 10
86.36200863005493
 20
-121.5787933029387
 30
0.0
 10
86.0994714145306
 20
-121.3217946918918
 30
0.0
 10
86.0994714145306
 20
-121.3217946918918
 30
0.0
 10
86.0994714145306
 20
-121.3217946918918
 30
0.0
 10
86.36200863005493
 20
-121.0647960808449
 30
0.0
 10
86.36200863005493
 20
-121.0647960808449
 30
0.0
 10
86.36200863005493
 20
-121.0647960808449
 30
0.0
 10
86.0994714145306
 20
-120.807797469798
 30
0.0
 10
86.0994714145306
 20
-120.807797469798
 30
0.0
 10
86.0994714145306
 20
-120.807797469798
 30
0.0
 10
86.36200863005493
 20
-120.5507988587511
 30
0.0
 10
86.36200863005493
 20
-120.5507988587511
 30
0.0
 10
86.36200863005493
 20
-120.5507988587511
 30
0.0
 10
86.0994714145306
 20
-120.2930946921489
 30
0.0
 10
86.0994714145306
 20
-120.2930946921489
 30
0.0
 10
86.0994714145306
 20
-120.2930946921489
 30
0.0
 10
86.36200863005493
 20
-120.0333444144363
 30
0.0
 10
86.36200863005493
 20
-120.0333444144363
 30
0.0
 10
86.36200863005493
 20
-120.0333444144363
 30
0.0
 10
86.0994714145306
 20
-119.7735588589454
 30
0.0
 10
86.0994714145306
 20
-119.7735588589454
 30
0.0
 10
86.0994714145306
 20
-119.7735588589454
 30
0.0
 10
86.36200863005493
 20
-119.5138085812327
 30
0.0
 10
86.36200863005493
 20
-119.5138085812327
 30
0.0
 10
86.36200863005493
 20
-119.5138085812327
 30
0.0
 10
86.0994714145306
 20
-119.2547285812974
 30
0.0
 10
86.0994714145306
 20
-119.2547285812974
 30
0.0
 10
86.0994714145306
 20
-119.2547285812974
 30
0.0
 10
86.36200863005493
 20
-118.9956485813621
 30
0.0
 10
86.36200863005493
 20
-118.9956485813621
 30
0.0
 10
86.36200863005493
 20
-118.9956485813621
 30
0.0
 10
86.0994714145306
 20
-118.7358983036494
 30
0.0
 10
86.0994714145306
 20
-118.7358983036494
 30
0.0
 10
86.0994714145306
 20
-118.7358983036494
 30
0.0
 10
86.36200863005493
 20
-118.4775238592696
 30
0.0
 10
86.36200863005493
 20
-118.4775238592696
 30
0.0
 10
86.36200863005493
 20
-118.4775238592696
 30
0.0
 10
86.0994714145306
 20
-118.2184438593342
 30
0.0
 10
86.0994714145306
 20
-118.2184438593342
 30
0.0
 10
86.0994714145306
 20
-118.2184438593342
 30
0.0
 10
86.36200863005493
 20
-117.9600694149544
 30
0.0
 10
86.36200863005493
 20
-117.9600694149544
 30
0.0
 10
86.36200863005493
 20
-117.9600694149544
 30
0.0
 10
86.0994714145306
 20
-117.7020477483524
 30
0.0
 10
86.0994714145306
 20
-117.7020477483524
 30
0.0
 10
86.0994714145306
 20
-117.7020477483524
 30
0.0
 10
86.36200863005493
 20
-117.4429677484171
 30
0.0
 10
86.36200863005493
 20
-117.4429677484171
 30
0.0
 10
86.36200863005493
 20
-117.4429677484171
 30
0.0
 10
86.0994714145306
 20
-117.1845933040373
 30
0.0
 10
86.0994714145306
 20
-117.1845933040373
 30
0.0
 10
86.0994714145306
 20
-117.1845933040373
 30
0.0
 10
86.36200863005493
 20
-116.9251605263242
 30
0.0
 10
86.36200863005493
 20
-116.9251605263242
 30
0.0
 10
86.36200863005493
 20
-116.9251605263242
 30
0.0
 10
86.0994714145306
 20
-116.6667860819444
 30
0.0
 10
86.0994714145306
 20
-116.6667860819444
 30
0.0
 10
86.0994714145306
 20
-116.6667860819444
 30
0.0
 10
86.36200863005493
 20
-116.407706082009
 30
0.0
 10
86.36200863005493
 20
-116.407706082009
 30
0.0
 10
86.36200863005493
 20
-116.407706082009
 30
0.0
 10
86.0994714145306
 20
-116.1489788598518
 30
0.0
 10
86.0994714145306
 20
-116.1489788598518
 30
0.0
 10
86.0994714145306
 20
-116.1489788598518
 30
0.0
 10
86.36200863005493
 20
-115.8906044154717
 30
0.0
 10
86.36200863005493
 20
-115.8906044154717
 30
0.0
 10
86.36200863005493
 20
-115.8906044154717
 30
0.0
 10
86.0994714145306
 20
-115.6322299710919
 30
0.0
 10
86.0994714145306
 20
-115.6322299710919
 30
0.0
 10
86.0994714145306
 20
-115.6322299710919
 30
0.0
 10
86.36200863005493
 20
-115.3735027489343
 30
0.0
 10
86.36200863005493
 20
-115.3735027489343
 30
0.0
 10
86.36200863005493
 20
-115.3735027489343
 30
0.0
 10
86.0994714145306
 20
-115.1150930267766
 30
0.0
 10
86.0994714145306
 20
-115.1150930267766
 30
0.0
 10
86.0994714145306
 20
-115.1150930267766
 30
0.0
 10
86.36200863005493
 20
-114.8574241379524
 30
0.0
 10
86.36200863005493
 20
-114.8574241379524
 30
0.0
 10
86.36200863005493
 20
-114.8574241379524
 30
0.0
 10
86.0994714145306
 20
-114.5990496935726
 30
0.0
 10
86.0994714145306
 20
-114.5990496935726
 30
0.0
 10
86.0994714145306
 20
-114.5990496935726
 30
0.0
 10
86.36200863005493
 20
-114.340322471415
 30
0.0
 10
86.36200863005493
 20
-114.340322471415
 30
0.0
 10
86.36200863005493
 20
-114.340322471415
 30
0.0
 10
86.0994714145306
 20
-114.0819127492573
 30
0.0
 10
86.0994714145306
 20
-114.0819127492573
 30
0.0
 10
86.0994714145306
 20
-114.0819127492573
 30
0.0
 10
86.36200863005493
 20
-113.8238910826553
 30
0.0
 10
86.36200863005493
 20
-113.8238910826553
 30
0.0
 10
86.36200863005493
 20
-113.8238910826553
 30
0.0
 10
86.0994714145306
 20
-113.5661869160529
 30
0.0
 10
86.0994714145306
 20
-113.5661869160529
 30
0.0
 10
86.0994714145306
 20
-113.5661869160529
 30
0.0
 10
86.36200863005493
 20
-113.3081652494508
 30
0.0
 10
86.36200863005493
 20
-113.3081652494508
 30
0.0
 10
86.36200863005493
 20
-113.3081652494508
 30
0.0
 10
86.0994714145306
 20
-113.0504610828484
 30
0.0
 10
86.0994714145306
 20
-113.0504610828484
 30
0.0
 10
86.0994714145306
 20
-113.0504610828484
 30
0.0
 10
86.36200863005493
 20
-112.7920866384686
 30
0.0
 10
86.36200863005493
 20
-112.7920866384686
 30
0.0
 10
86.36200863005493
 20
-112.7920866384686
 30
0.0
 10
86.0994714145306
 20
-112.533359416311
 30
0.0
 10
86.0994714145306
 20
-112.533359416311
 30
0.0
 10
86.0994714145306
 20
-112.533359416311
 30
0.0
 10
86.36200863005493
 20
-112.2753024719311
 30
0.0
 10
86.36200863005493
 20
-112.2753024719311
 30
0.0
 10
86.36200863005493
 20
-112.2753024719311
 30
0.0
 10
86.0994714145306
 20
-112.0172808053291
 30
0.0
 10
86.0994714145306
 20
-112.0172808053291
 30
0.0
 10
86.0994714145306
 20
-112.0172808053291
 30
0.0
 10
86.36200863005493
 20
-111.7599294165044
 30
0.0
 10
86.36200863005493
 20
-111.7599294165044
 30
0.0
 10
86.36200863005493
 20
-111.7599294165044
 30
0.0
 10
86.0994714145306
 20
-111.50257802768
 30
0.0
 10
86.0994714145306
 20
-111.50257802768
 30
0.0
 10
86.0994714145306
 20
-111.50257802768
 30
0.0
 10
86.36200863005493
 20
-111.2452266388553
 30
0.0
 10
86.36200863005493
 20
-111.2452266388553
 30
0.0
 10
86.36200863005493
 20
-111.2452266388553
 30
0.0
 10
86.0994714145306
 20
-110.9882280278084
 30
0.0
 10
86.0994714145306
 20
-110.9882280278084
 30
0.0
 10
86.0994714145306
 20
-110.9882280278084
 30
0.0
 10
86.36200863005493
 20
-110.7305238612063
 30
0.0
 10
86.36200863005493
 20
-110.7305238612063
 30
0.0
 10
86.36200863005493
 20
-110.7305238612063
 30
0.0
 10
86.0994714145306
 20
-110.4717966390487
 30
0.0
 10
86.0994714145306
 20
-110.4717966390487
 30
0.0
 10
86.0994714145306
 20
-110.4717966390487
 30
0.0
 10
86.36200863005493
 20
-110.2137749724467
 30
0.0
 10
86.36200863005493
 20
-110.2137749724467
 30
0.0
 10
86.36200863005493
 20
-110.2137749724467
 30
0.0
 10
86.0994714145306
 20
-109.9557180280665
 30
0.0
 10
86.0994714145306
 20
-109.9557180280665
 30
0.0
 10
86.0994714145306
 20
-109.9557180280665
 30
0.0
 10
86.36200863005493
 20
-109.6973435836867
 30
0.0
 10
86.36200863005493
 20
-109.6973435836867
 30
0.0
 10
86.36200863005493
 20
-109.6973435836867
 30
0.0
 10
86.0994714145306
 20
-109.4393219170846
 30
0.0
 10
86.0994714145306
 20
-109.4393219170846
 30
0.0
 10
86.0994714145306
 20
-109.4393219170846
 30
0.0
 10
86.36200863005493
 20
-109.1809474727048
 30
0.0
 10
86.36200863005493
 20
-109.1809474727048
 30
0.0
 10
86.36200863005493
 20
-109.1809474727048
 30
0.0
 10
86.0994714145306
 20
-108.9232433061024
 30
0.0
 10
86.0994714145306
 20
-108.9232433061024
 30
0.0
 10
86.0994714145306
 20
-108.9232433061024
 30
0.0
 10
86.36200863005493
 20
-108.6651863617225
 30
0.0
 10
86.36200863005493
 20
-108.6651863617225
 30
0.0
 10
86.36200863005493
 20
-108.6651863617225
 30
0.0
 10
86.0994714145306
 20
-108.4068119173427
 30
0.0
 10
86.0994714145306
 20
-108.4068119173427
 30
0.0
 10
86.0994714145306
 20
-108.4068119173427
 30
0.0
 10
86.36200863005493
 20
-108.1491430285184
 30
0.0
 10
86.36200863005493
 20
-108.1491430285184
 30
0.0
 10
86.36200863005493
 20
-108.1491430285184
 30
0.0
 10
86.0994714145306
 20
-107.8904158063608
 30
0.0
 10
86.0994714145306
 20
-107.8904158063608
 30
0.0
 10
86.0994714145306
 20
-107.8904158063608
 30
0.0
 10
86.36200863005493
 20
-107.6320060842032
 30
0.0
 10
86.36200863005493
 20
-107.6320060842032
 30
0.0
 10
86.36200863005493
 20
-107.6320060842032
 30
0.0
 10
86.0994714145306
 20
-107.3743371953786
 30
0.0
 10
86.0994714145306
 20
-107.3743371953786
 30
0.0
 10
86.0994714145306
 20
-107.3743371953786
 30
0.0
 10
86.36200863005493
 20
-107.1162802509987
 30
0.0
 10
86.36200863005493
 20
-107.1162802509987
 30
0.0
 10
86.36200863005493
 20
-107.1162802509987
 30
0.0
 10
86.0994714145306
 20
-106.8586113621741
 30
0.0
 10
86.0994714145306
 20
-106.8586113621741
 30
0.0
 10
86.0994714145306
 20
-106.8586113621741
 30
0.0
 10
86.36200863005493
 20
-106.600907195572
 30
0.0
 10
86.36200863005493
 20
-106.600907195572
 30
0.0
 10
86.36200863005493
 20
-106.600907195572
 30
0.0
 10
86.0994714145306
 20
-106.3428502511921
 30
0.0
 10
86.0994714145306
 20
-106.3428502511921
 30
0.0
 10
86.0994714145306
 20
-106.3428502511921
 30
0.0
 10
86.36200863005493
 20
-106.0848285845901
 30
0.0
 10
86.36200863005493
 20
-106.0848285845901
 30
0.0
 10
86.36200863005493
 20
-106.0848285845901
 30
0.0
 10
86.0994714145306
 20
-105.8267716402099
 30
0.0
 10
86.0994714145306
 20
-105.8267716402099
 30
0.0
 10
86.0994714145306
 20
-105.8267716402099
 30
0.0
 10
86.36200863005493
 20
-105.5687499736078
 30
0.0
 10
86.36200863005493
 20
-105.5687499736078
 30
0.0
 10
86.36200863005493
 20
-105.5687499736078
 30
0.0
 10
86.0994714145306
 20
-105.310375529228
 30
0.0
 10
86.0994714145306
 20
-105.310375529228
 30
0.0
 10
86.0994714145306
 20
-105.310375529228
 30
0.0
 10
86.36200863005493
 20
-105.0523185848481
 30
0.0
 10
86.36200863005493
 20
-105.0523185848481
 30
0.0
 10
86.36200863005493
 20
-105.0523185848481
 30
0.0
 10
86.0994714145306
 20
-104.7946496960235
 30
0.0
 10
86.0994714145306
 20
-104.7946496960235
 30
0.0
 10
86.0994714145306
 20
-104.7946496960235
 30
0.0
 10
86.36200863005493
 20
-104.5362399738659
 30
0.0
 10
86.36200863005493
 20
-104.5362399738659
 30
0.0
 10
86.36200863005493
 20
-104.5362399738659
 30
0.0
 10
86.0994714145306
 20
-104.279241362819
 30
0.0
 10
86.0994714145306
 20
-104.279241362819
 30
0.0
 10
86.0994714145306
 20
-104.279241362819
 30
0.0
 10
86.36200863005493
 20
-104.0215724739947
 30
0.0
 10
86.36200863005493
 20
-104.0215724739947
 30
0.0
 10
86.36200863005493
 20
-104.0215724739947
 30
0.0
 10
86.0994714145306
 20
-103.7635155296148
 30
0.0
 10
86.0994714145306
 20
-103.7635155296148
 30
0.0
 10
86.0994714145306
 20
-103.7635155296148
 30
0.0
 10
86.36200863005493
 20
-103.5061641407901
 30
0.0
 10
86.36200863005493
 20
-103.5061641407901
 30
0.0
 10
86.36200863005493
 20
-103.5061641407901
 30
0.0
 10
86.0994714145306
 20
-103.2484952519655
 30
0.0
 10
86.0994714145306
 20
-103.2484952519655
 30
0.0
 10
86.0994714145306
 20
-103.2484952519655
 30
0.0
 10
86.36200863005493
 20
-102.9907910853634
 30
0.0
 10
86.36200863005493
 20
-102.9907910853634
 30
0.0
 10
86.36200863005493
 20
-102.9907910853634
 30
0.0
 10
86.0994714145306
 20
-102.7330869187613
 30
0.0
 10
86.0994714145306
 20
-102.7330869187613
 30
0.0
 10
86.0994714145306
 20
-102.7330869187613
 30
0.0
 10
86.36200863005493
 20
-102.4747124743815
 30
0.0
 10
86.36200863005493
 20
-102.4747124743815
 30
0.0
 10
86.36200863005493
 20
-102.4747124743815
 30
0.0
 10
86.0994714145306
 20
-102.2166555300012
 30
0.0
 10
86.0994714145306
 20
-102.2166555300012
 30
0.0
 10
86.0994714145306
 20
-102.2166555300012
 30
0.0
 10
86.36200863005493
 20
-101.9586338633992
 30
0.0
 10
86.36200863005493
 20
-101.9586338633992
 30
0.0
 10
86.36200863005493
 20
-101.9586338633992
 30
0.0
 10
86.0994714145306
 20
-101.7006121967972
 30
0.0
 10
86.0994714145306
 20
-101.7006121967972
 30
0.0
 10
86.0994714145306
 20
-101.7006121967972
 30
0.0
 10
86.36200863005493
 20
-101.4425552524173
 30
0.0
 10
86.36200863005493
 20
-101.4425552524173
 30
0.0
 10
86.36200863005493
 20
-101.4425552524173
 30
0.0
 10
86.0994714145306
 20
-101.1848510858148
 30
0.0
 10
86.0994714145306
 20
-101.1848510858148
 30
0.0
 10
86.0994714145306
 20
-101.1848510858148
 30
0.0
 10
86.36200863005493
 20
-100.9271821969906
 30
0.0
 10
86.36200863005493
 20
-100.9271821969906
 30
0.0
 10
86.36200863005493
 20
-100.9271821969906
 30
0.0
 10
86.0994714145306
 20
-100.6698308081659
 30
0.0
 10
86.0994714145306
 20
-100.6698308081659
 30
0.0
 10
86.0994714145306
 20
-100.6698308081659
 30
0.0
 10
86.36200863005493
 20
-100.4121266415637
 30
0.0
 10
86.36200863005493
 20
-100.4121266415637
 30
0.0
 10
86.36200863005493
 20
-100.4121266415637
 30
0.0
 10
86.0994714145306
 20
-100.1551280305168
 30
0.0
 10
86.0994714145306
 20
-100.1551280305168
 30
0.0
 10
86.0994714145306
 20
-100.1551280305168
 30
0.0
 10
86.36200863005493
 20
-99.89742386391471
 30
0.0
 10
86.36200863005493
 20
-99.89742386391471
 30
0.0
 10
86.36200863005493
 20
-99.89742386391471
 30
0.0
 10
86.0994714145306
 20
-99.64007247509002
 30
0.0
 10
86.0994714145306
 20
-99.64007247509002
 30
0.0
 10
86.0994714145306
 20
-99.64007247509002
 30
0.0
 10
86.36200863005493
 20
-99.38272108626535
 30
0.0
 10
86.36200863005493
 20
-99.38272108626535
 30
0.0
 10
86.36200863005493
 20
-99.38272108626535
 30
0.0
 10
86.0994714145306
 20
-99.1254049752185
 30
0.0
 10
86.0994714145306
 20
-99.1254049752185
 30
0.0
 10
86.0994714145306
 20
-99.1254049752185
 30
0.0
 10
86.36200863005493
 20
-98.86770080861638
 30
0.0
 10
86.36200863005493
 20
-98.86770080861638
 30
0.0
 10
86.36200863005493
 20
-98.86770080861638
 30
0.0
 10
86.0994714145306
 20
-98.61034941979202
 30
0.0
 10
86.0994714145306
 20
-98.61034941979202
 30
0.0
 10
86.0994714145306
 20
-98.61034941979202
 30
0.0
 10
86.36200863005493
 20
-98.35299803096734
 30
0.0
 10
86.36200863005493
 20
-98.35299803096734
 30
0.0
 10
86.36200863005493
 20
-98.35299803096734
 30
0.0
 10
86.0994714145306
 20
-98.0949763643653
 30
0.0
 10
86.0994714145306
 20
-98.0949763643653
 30
0.0
 10
86.0994714145306
 20
-98.0949763643653
 30
0.0
 10
86.36200863005493
 20
-97.83727219776284
 30
0.0
 10
86.36200863005493
 20
-97.83727219776284
 30
0.0
 10
86.36200863005493
 20
-97.83727219776284
 30
0.0
 10
86.0994714145306
 20
-97.57921525338297
 30
0.0
 10
86.0994714145306
 20
-97.57921525338297
 30
0.0
 10
86.0994714145306
 20
-97.57921525338297
 30
0.0
 10
86.36200863005493
 20
-97.32119358678092
 30
0.0
 10
86.36200863005493
 20
-97.32119358678092
 30
0.0
 10
86.36200863005493
 20
-97.32119358678092
 30
0.0
 10
86.0994714145306
 20
-97.06313664240103
 30
0.0
 10
86.0994714145306
 20
-97.06313664240103
 30
0.0
 10
86.0994714145306
 20
-97.06313664240103
 30
0.0
 10
86.36200863005493
 20
-96.80546775357644
 30
0.0
 10
86.36200863005493
 20
-96.80546775357644
 30
0.0
 10
86.36200863005493
 20
-96.80546775357644
 30
0.0
 10
86.0994714145306
 20
-96.54776358697431
 30
0.0
 10
86.0994714145306
 20
-96.54776358697431
 30
0.0
 10
86.0994714145306
 20
-96.54776358697431
 30
0.0
 10
86.36200863005493
 20
-96.29005942037188
 30
0.0
 10
86.36200863005493
 20
-96.29005942037188
 30
0.0
 10
86.36200863005493
 20
-96.29005942037188
 30
0.0
 10
86.0994714145306
 20
-96.03306080932495
 30
0.0
 10
86.0994714145306
 20
-96.03306080932495
 30
0.0
 10
86.0994714145306
 20
-96.03306080932495
 30
0.0
 10
86.36200863005493
 20
-95.77570942050059
 30
0.0
 10
86.36200863005493
 20
-95.77570942050059
 30
0.0
 10
86.36200863005493
 20
-95.77570942050059
 30
0.0
 10
86.0994714145306
 20
-95.5183580316759
 30
0.0
 10
86.0994714145306
 20
-95.5183580316759
 30
0.0
 10
86.0994714145306
 20
-95.5183580316759
 30
0.0
 10
86.36200863005493
 20
-95.26135942062899
 30
0.0
 10
86.36200863005493
 20
-95.26135942062899
 30
0.0
 10
86.36200863005493
 20
-95.26135942062899
 30
0.0
 10
86.0994714145306
 20
-95.00436080958238
 30
0.0
 10
86.0994714145306
 20
-95.00436080958238
 30
0.0
 10
86.0994714145306
 20
-95.00436080958238
 30
0.0
 10
86.36200863005493
 20
-94.74736219853547
 30
0.0
 10
86.36200863005493
 20
-94.74736219853547
 30
0.0
 10
86.36200863005493
 20
-94.74736219853547
 30
0.0
 10
86.0994714145306
 20
-94.49036358748855
 30
0.0
 10
86.0994714145306
 20
-94.49036358748855
 30
0.0
 10
86.0994714145306
 20
-94.49036358748855
 30
0.0
 10
86.36200863005493
 20
-94.23301219866386
 30
0.0
 10
86.36200863005493
 20
-94.23301219866386
 30
0.0
 10
86.36200863005493
 20
-94.23301219866386
 30
0.0
 10
85.90191586401511
 20
-94.23301219866386
 30
0.0
 10
85.90191586401511
 20
-94.23301219866386
 30
0.0
 10
85.90191586401511
 20
-94.23301219866386
 30
0.0
 10
85.90191586401511
 20
-92.16319442140365
 30
0.0
 10
85.90191586401511
 20
-92.16319442140365
 30
0.0
 10
85.90191586401511
 20
-92.16319442140365
 30
0.0
 10
86.4875622379629
 20
-92.16319442140365
 30
0.0
 10
86.4875622379629
 20
-92.16319442140365
 30
0.0
  0
HATCH
  5
42
330
1F
100
AcDbEntity
  8
_U+30EC_U+30A4_U+30E4_U+30FC 1
 62
     9
420
 13224394
100
AcDbHatch
 10
0.0
 20
0.0
 30
0.0
210
0.0
220
0.0
230
1.0
  2
SOLID
 70
     1
 71
     0
 91
        1
 92
        1
 93
        1
 72
     4
 94
        3
 73
     0
 74
     1
 95
      842
 96
      838
 40
0.0
 40
0.0
 40
0.0
 40
0.0
 40
1.0
 40
1.0
 40
1.0
 40
2.0
 40
2.0
 40
2.0
 40
3.0
 40
3.0
 40
3.0
 40
4.0
 40
4.0
 40
4.0
 40
5.0
 40
5.0
 40
5.0
 40
6.0
 40
6.0
 40
6.0
 40
7.0
 40
7.0
 40
7.0
 40
8.0
 40
8.0
 40
8.0
 40
9.0
 40
9.0
 40
9.0
 40
10.0
 40
10.0
 40
10.0
 40
11.0
 40
11.0
 40
11.0
 40
12.0
 40
12.0
 40
12.0
 40
13.0
 40
13.0
 40
13.0
 40
14.0
 40
14.0
 40
14.0
 40
15.0
 40
15.0
 40
15.0
 40
16.0
 40
16.0
 40
16.0
 40
17.0
 40
17.0
 40
17.0
 40
18.0
 40
18.0
 40
18.0
 40
19.0
 40
19.0
 40
19.0
 40
20.0
 40
20.0
 40
20.0
 40
21.0
 40
21.0
 40
21.0
 40
22.0
 40
22.0
 40
22.0
 40
23.0
 40
23.0
 40
23.0
 40
24.0
 40
24.0
 40
24.0
 40
25.0
 40
25.0
 40
25.0
 40
26.0
 40
26.0
 40
26.0
 40
27.0
 40
27.0
 40
27.0
 40
28.0
 40
28.0
 40
28.0
 40
29.0
 40
29.0
 40
29.0
 40
30.0
 40
30.0
 40
30.0
 40
31.0
 40
31.0
 40
31.0
 40
32.0
 40
32.0
 40
32.0
 40
33.0
 40
33.0
 40
33.0
 40
34.0
 40
34.0
 40
34.0
 40
35.0
 40
35.0
 40
35.0
 40
36.0
 40
36.0
 40
36.0
 40
37.0
 40
37.0
 40
37.0
 40
38.0
 40
38.0
 40
38.0
 40
39.0
 40
39.0
 40
39.0
 40
40.0
 40
40.0
 40
40.0
 40
41.0
 40
41.0
 40
41.0
 40
42.0
 40
42.0
 40
42.0
 40
43.0
 40
43.0
 40
43.0
 40
44.0
 40
44.0
 40
44.0
 40
45.0
 40
45.0
 40
45.0
 40
46.0
 40
46.0
 40
46.0
 40
47.0
 40
47.0
 40
47.0
 40
48.0
 40
48.0
 40
48.0
 40
49.0
 40
49.0
 40
49.0
 40
50.0
 40
50.0
 40
50.0
 40
51.0
 40
51.0
 40
51.0
 40
52.0
 40
52.0
 40
52.0
 40
53.0
 40
53.0
 40
53.0
 40
54.0
 40
54.0
 40
54.0
 40
55.0
 40
55.0
 40
55.0
 40
56.0
 40
56.0
 40
56.0
 40
57.0
 40
57.0
 40
57.0
 40
58.0
 40
58.0
 40
58.0
 40
59.0
 40
59.0
 40
59.0
 40
60.0
 40
60.0
 40
60.0
 40
61.0
 40
61.0
 40
61.0
 40
62.0
 40
62.0
 40
62.0
 40
63.0
 40
63.0
 40
63.0
 40
64.0
 40
64.0
 40
64.0
 40
65.0
 40
65.0
 40
65.0
 40
66.0
 40
66.0
 40
66.0
 40
67.0
 40
67.0
 40
67.0
 40
68.0
 40
68.0
 40
68.0
 40
69.0
 40
69.0
 40
69.0
 40
70.0
 40
70.0
 40
70.0
 40
71.0
 40
71.0
 40
71.0
 40
72.0
 40
72.0
 40
72.0
 40
73.0
 40
73.0
 40
73.0
 40
74.0
 40
74.0
 40
74.0
 40
75.0
 40
75.0
 40
75.0
 40
76.0
 40
76.0
 40
76.0
 40
77.0
 40
77.0
 40
77.0
 40
78.0
 40
78.0
 40
78.0
 40
79.0
 40
79.0
 40
79.0
 40
80.0
 40
80.0
 40
80.0
 40
81.0
 40
81.0
 40
81.0
 40
82.0
 40
82.0
 40
82.0
 40
83.0
 40
83.0
 40
83.0
 40
84.0
 40
84.0
 40
84.0
 40
85.0
 40
85.0
 40
85.0
 40
86.0
 40
86.0
 40
86.0
 40
87.0
 40
87.0
 40
87.0
 40
88.0
 40
88.0
 40
88.0
 40
89.0
 40
89.0
 40
89.0
 40
90.0
 40
90.0
 40
90.0
 40
91.0
 40
91.0
 40
91.0
 40
92.0
 40
92.0
 40
92.0
 40
93.0
 40
93.0
 40
93.0
 40
94.0
 40
94.0
 40
94.0
 40
95.0
 40
95.0
 40
95.0
 40
96.0
 40
96.0
 40
96.0
 40
97.0
 40
97.0
 40
97.0
 40
98.0
 40
98.0
 40
98.0
 40
99.0
 40
99.0
 40
99.0
 40
100.0
 40
100.0
 40
100.0
 40
101.0
 40
101.0
 40
101.0
 40
102.0
 40
102.0
 40
102.0
 40
103.0
 40
103.0
 40
103.0
 40
104.0
 40
104.0
 40
104.0
 40
105.0
 40
105.0
 40
105.0
 40
106.0
 40
106.0
 40
106.0
 40
107.0
 40
107.0
 40
107.0
 40
108.0
 40
108.0
 40
108.0
 40
109.0
 40
109.0
 40
109.0
 40
110.0
 40
110.0
 40
110.0
 40
111.0
 40
111.0
 40
111.0
 40
112.0
 40
112.0
 40
112.0
 40
113.0
 40
113.0
 40
113.0
 40
114.0
 40
114.0
 40
114.0
 40
115.0
 40
115.0
 40
115.0
 40
116.0
 40
116.0
 40
116.0
 40
117.0
 40
117.0
 40
117.0
 40
118.0
 40
118.0
 40
118.0
 40
119.0
 40
119.0
 40
119.0
 40
120.0
 40
120.0
 40
120.0
 40
121.0
 40
121.0
 40
121.0
 40
122.0
 40
122.0
 40
122.0
 40
123.0
 40
123.0
 40
123.0
 40
124.0
 40
124.0
 40
124.0
 40
125.0
 40
125.0
 40
125.0
 40
126.0
 40
126.0
 40
126.0
 40
127.0
 40
127.0
 40
127.0
 40
128.0
 40
128.0
 40
128.0
 40
129.0
 40
129.0
 40
129.0
 40
130.0
 40
130.0
 40
130.0
 40
131.0
 40
131.0
 40
131.0
 40
132.0
 40
132.0
 40
132.0
 40
133.0
 40
133.0
 40
133.0
 40
134.0
 40
134.0
 40
134.0
 40
135.0
 40
135.0
 40
135.0
 40
136.0
 40
136.0
 40
136.0
 40
137.0
 40
137.0
 40
137.0
 40
138.0
 40
138.0
 40
138.0
 40
139.0
 40
139.0
 40
139.0
 40
140.0
 40
140.0
 40
140.0
 40
141.0
 40
141.0
 40
141.0
 40
142.0
 40
142.0
 40
142.0
 40
143.0
 40
143.0
 40
143.0
 40
144.0
 40
144.0
 40
144.0
 40
145.0
 40
145.0
 40
145.0
 40
146.0
 40
146.0
 40
146.0
 40
147.0
 40
147.0
 40
147.0
 40
148.0
 40
148.0
 40
148.0
 40
149.0
 40
149.0
 40
149.0
 40
150.0
 40
150.0
 40
150.0
 40
151.0
 40
151.0
 40
151.0
 40
152.0
 40
152.0
 40
152.0
 40
153.0
 40
153.0
 40
153.0
 40
154.0
 40
154.0
 40
154.0
 40
155.0
 40
155.0
 40
155.0
 40
156.0
 40
156.0
 40
156.0
 40
157.0
 40
157.0
 40
157.0
 40
158.0
 40
158.0
 40
158.0
 40
159.0
 40
159.0
 40
159.0
 40
160.0
 40
160.0
 40
160.0
 40
161.0
 40
161.0
 40
161.0
 40
162.0
 40
162.0
 40
162.0
 40
163.0
 40
163.0
 40
163.0
 40
164.0
 40
164.0
 40
164.0
 40
165.0
 40
165.0
 40
165.0
 40
166.0
 40
166.0
 40
166.0
 40
167.0
 40
167.0
 40
167.0
 40
168.0
 40
168.0
 40
168.0
 40
169.0
 40
169.0
 40
169.0
 40
170.0
 40
170.0
 40
170.0
 40
171.0
 40
171.0
 40
171.0
 40
172.0
 40
172.0
 40
172.0
 40
173.0
 40
173.0
 40
173.0
 40
174.0
 40
174.0
 40
174.0
 40
175.0
 40
175.0
 40
175.0
 40
176.0
 40
176.0
 40
176.0
 40
177.0
 40
177.0
 40
177.0
 40
178.0
 40
178.0
 40
178.0
 40
179.0
 40
179.0
 40
179.0
 40
180.0
 40
180.0
 40
180.0
 40
181.0
 40
181.0
 40
181.0
 40
182.0
 40
182.0
 40
182.0
 40
183.0
 40
183.0
 40
183.0
 40
184.0
 40
184.0
 40
184.0
 40
185.0
 40
185.0
 40
185.0
 40
186.0
 40
186.0
 40
186.0
 40
187.0
 40
187.0
 40
187.0
 40
188.0
 40
188.0
 40
188.0
 40
189.0
 40
189.0
 40
189.0
 40
190.0
 40
190.0
 40
190.0
 40
191.0
 40
191.0
 40
191.0
 40
192.0
 40
192.0
 40
192.0
 40
193.0
 40
193.0
 40
193.0
 40
194.0
 40
194.0
 40
194.0
 40
195.0
 40
195.0
 40
195.0
 40
196.0
 40
196.0
 40
196.0
 40
197.0
 40
197.0
 40
197.0
 40
198.0
 40
198.0
 40
198.0
 40
199.0
 40
199.0
 40
199.0
 40
200.0
 40
200.0
 40
200.0
 40
201.0
 40
201.0
 40
201.0
 40
202.0
 40
202.0
 40
202.0
 40
203.0
 40
203.0
 40
203.0
 40
204.0
 40
204.0
 40
204.0
 40
205.0
 40
205.0
 40
205.0
 40
206.0
 40
206.0
 40
206.0
 40
207.0
 40
207.0
 40
207.0
 40
208.0
 40
208.0
 40
208.0
 40
209.0
 40
209.0
 40
209.0
 40
210.0
 40
210.0
 40
210.0
 40
211.0
 40
211.0
 40
211.0
 40
212.0
 40
212.0
 40
212.0
 40
213.0
 40
213.0
 40
213.0
 40
214.0
 40
214.0
 40
214.0
 40
215.0
 40
215.0
 40
215.0
 40
216.0
 40
216.0
 40
216.0
 40
217.0
 40
217.0
 40
217.0
 40
218.0
 40
218.0
 40
218.0
 40
219.0
 40
219.0
 40
219.0
 40
220.0
 40
220.0
 40
220.0
 40
221.0
 40
221.0
 40
221.0
 40
222.0
 40
222.0
 40
222.0
 40
223.0
 40
223.0
 40
223.0
 40
224.0
 40
224.0
 40
224.0
 40
225.0
 40
225.0
 40
225.0
 40
226.0
 40
226.0
 40
226.0
 40
227.0
 40
227.0
 40
227.0
 40
228.0
 40
228.0
 40
228.0
 40
229.0
 40
229.0
 40
229.0
 40
230.0
 40
230.0
 40
230.0
 40
231.0
 40
231.0
 40
231.0
 40
232.0
 40
232.0
 40
232.0
 40
233.0
 40
233.0
 40
233.0
 40
234.0
 40
234.0
 40
234.0
 40
235.0
 40
235.0
 40
235.0
 40
236.0
 40
236.0
 40
236.0
 40
237.0
 40
237.0
 40
237.0
 40
238.0
 40
238.0
 40
238.0
 40
239.0
 40
239.0
 40
239.0
 40
240.0
 40
240.0
 40
240.0
 40
241.0
 40
241.0
 40
241.0
 40
242.0
 40
242.0
 40
242.0
 40
243.0
 40
243.0
 40
243.0
 40
244.0
 40
244.0
 40
244.0
 40
245.0
 40
245.0
 40
245.0
 40
246.0
 40
246.0
 40
246.0
 40
247.0
 40
247.0
 40
247.0
 40
248.0
 40
248.0
 40
248.0
 40
249.0
 40
249.0
 40
249.0
 40
250.0
 40
250.0
 40
250.0
 40
251.0
 40
251.0
 40
251.0
 40
252.0
 40
252.0
 40
252.0
 40
253.0
 40
253.0
 40
253.0
 40
254.0
 40
254.0
 40
254.0
 40
255.0
 40
255.0
 40
255.0
 40
256.0
 40
256.0
 40
256.0
 40
257.0
 40
257.0
 40
257.0
 40
258.0
 40
258.0
 40
258.0
 40
259.0
 40
259.0
 40
259.0
 40
260.0
 40
260.0
 40
260.0
 40
261.0
 40
261.0
 40
261.0
 40
262.0
 40
262.0
 40
262.0
 40
263.0
 40
263.0
 40
263.0
 40
264.0
 40
264.0
 40
264.0
 40
265.0
 40
265.0
 40
265.0
 40
266.0
 40
266.0
 40
266.0
 40
267.0
 40
267.0
 40
267.0
 40
268.0
 40
268.0
 40
268.0
 40
269.0
 40
269.0
 40
269.0
 40
270.0
 40
270.0
 40
270.0
 40
271.0
 40
271.0
 40
271.0
 40
272.0
 40
272.0
 40
272.0
 40
273.0
 40
273.0
 40
273.0
 40
274.0
 40
274.0
 40
274.0
 40
275.0
 40
275.0
 40
275.0
 40
276.0
 40
276.0
 40
276.0
 40
277.0
 40
277.0
 40
277.0
 40
278.0
 40
278.0
 40
278.0
 40
279.0
 40
279.0
 40
279.0
 40
279.0
 10
86.4875622379629
 20
-92.16319442140365
 10
87.21241471947037
 20
-92.16319442140365
 10
87.79996609336959
 20
-92.7478177545907
 10
87.79996609336959
 20
-93.4692130321884
 10
87.79996609336959
 20
-93.4692130321884
 10
87.79996609336959
 20
-166.7715669027519
 10
87.79996609336959
 20
-166.7715669027519
 10
87.79996609336959
 20
-166.9879255138086
 10
87.62375359786515
 20
-167.1636088470978
 10
87.40654832562873
 20
-167.1636088470978
 10
87.40654832562873
 20
-167.1636088470978
 10
87.32523304992547
 20
-167.1636088470978
 10
87.32523304992547
 20
-167.1636088470978
 10
87.32523304992547
 20
-167.1636088470978
 10
85.90191586401511
 20
-165.3556227364387
 10
85.90191586401511
 20
-165.3556227364387
 10
85.90191586401511
 20
-165.3556227364387
 10
85.90191586401511
 20
-163.3512805147176
 10
85.90191586401511
 20
-163.3512805147176
 10
85.90191586401511
 20
-163.3512805147176
 10
86.36200863005493
 20
-163.3512805147176
 10
86.36200863005493
 20
-163.3512805147176
 10
86.36200863005493
 20
-163.3512805147176
 10
86.36200863005493
 20
-163.3664146813806
 10
86.36200863005493
 20
-163.3664146813806
 10
86.36200863005493
 20
-163.3664146813806
 10
86.0994714145306
 20
-163.109416070334
 10
86.0994714145306
 20
-163.109416070334
 10
86.0994714145306
 20
-163.109416070334
 10
86.36200863005493
 20
-162.8517471815094
 10
86.36200863005493
 20
-162.8517471815094
 10
86.36200863005493
 20
-162.8517471815094
 10
86.0994714145306
 20
-162.5947132926847
 10
86.0994714145306
 20
-162.5947132926847
 10
86.0994714145306
 20
-162.5947132926847
 10
86.36200863005493
 20
-162.3363388483046
 10
86.36200863005493
 20
-162.3363388483046
 10
86.36200863005493
 20
-162.3363388483046
 10
86.0994714145306
 20
-162.0786346817024
 10
86.0994714145306
 20
-162.0786346817024
 10
86.0994714145306
 20
-162.0786346817024
 10
86.36200863005493
 20
-161.8202602373229
 10
86.36200863005493
 20
-161.8202602373229
 10
86.36200863005493
 20
-161.8202602373229
 10
86.0994714145306
 20
-161.5618857929428
 10
86.0994714145306
 20
-161.5618857929428
 10
86.0994714145306
 20
-161.5618857929428
 10
86.36200863005493
 20
-161.3035113485633
 10
86.36200863005493
 20
-161.3035113485633
 10
86.36200863005493
 20
-161.3035113485633
 10
86.0994714145306
 20
-161.0458071819606
 10
86.0994714145306
 20
-161.0458071819606
 10
86.0994714145306
 20
-161.0458071819606
 10
86.36200863005493
 20
-160.7874327375811
 10
86.36200863005493
 20
-160.7874327375811
 10
86.36200863005493
 20
-160.7874327375811
 10
86.0994714145306
 20
-160.529728570979
 10
86.0994714145306
 20
-160.529728570979
 10
86.0994714145306
 20
-160.529728570979
 10
86.36200863005493
 20
-160.2713541265988
 10
86.36200863005493
 20
-160.2713541265988
 10
86.36200863005493
 20
-160.2713541265988
 10
86.0994714145306
 20
-160.0136499599967
 10
86.0994714145306
 20
-160.0136499599967
 10
86.0994714145306
 20
-160.0136499599967
 10
86.36200863005493
 20
-159.7559810711721
 10
86.36200863005493
 20
-159.7559810711721
 10
86.36200863005493
 20
-159.7559810711721
 10
86.0994714145306
 20
-159.4969010712371
 10
86.0994714145306
 20
-159.4969010712371
 10
86.0994714145306
 20
-159.4969010712371
 10
86.36200863005493
 20
-159.238526626857
 10
86.36200863005493
 20
-159.238526626857
 10
86.36200863005493
 20
-159.238526626857
 10
86.0994714145306
 20
-158.9808224602548
 10
86.0994714145306
 20
-158.9808224602548
 10
86.0994714145306
 20
-158.9808224602548
 10
86.36200863005493
 20
-158.7224480158747
 10
86.36200863005493
 20
-158.7224480158747
 10
86.36200863005493
 20
-158.7224480158747
 10
86.0994714145306
 20
-158.4654494048281
 10
86.0994714145306
 20
-158.4654494048281
 10
86.0994714145306
 20
-158.4654494048281
 10
86.36200863005493
 20
-158.207745238226
 10
86.36200863005493
 20
-158.207745238226
 10
86.36200863005493
 20
-158.207745238226
 10
86.0994714145306
 20
-157.9486652382903
 10
86.0994714145306
 20
-157.9486652382903
 10
86.0994714145306
 20
-157.9486652382903
 10
86.36200863005493
 20
-157.6916666272438
 10
86.36200863005493
 20
-157.6916666272438
 10
86.36200863005493
 20
-157.6916666272438
 10
86.0994714145306
 20
-157.4332921828636
 10
86.0994714145306
 20
-157.4332921828636
 10
86.0994714145306
 20
-157.4332921828636
 10
86.36200863005493
 20
-157.1749177384841
 10
86.36200863005493
 20
-157.1749177384841
 10
86.36200863005493
 20
-157.1749177384841
 10
86.0994714145306
 20
-156.917213571882
 10
86.0994714145306
 20
-156.917213571882
 10
86.0994714145306
 20
-156.917213571882
 10
86.36200863005493
 20
-156.6588391275019
 10
86.36200863005493
 20
-156.6588391275019
 10
86.36200863005493
 20
-156.6588391275019
 10
86.0994714145306
 20
-156.4004294053443
 10
86.0994714145306
 20
-156.4004294053443
 10
86.0994714145306
 20
-156.4004294053443
 10
86.36200863005493
 20
-156.1427605165196
 10
86.36200863005493
 20
-156.1427605165196
 10
86.36200863005493
 20
-156.1427605165196
 10
86.0994714145306
 20
-155.8850563499175
 10
86.0994714145306
 20
-155.8850563499175
 10
86.0994714145306
 20
-155.8850563499175
 10
86.36200863005493
 20
-155.6273521833154
 10
86.36200863005493
 20
-155.6273521833154
 10
86.36200863005493
 20
-155.6273521833154
 10
86.0994714145306
 20
-155.3703535722688
 10
86.0994714145306
 20
-155.3703535722688
 10
86.0994714145306
 20
-155.3703535722688
 10
86.36200863005493
 20
-155.1126846834442
 10
86.36200863005493
 20
-155.1126846834442
 10
86.36200863005493
 20
-155.1126846834442
 10
86.0994714145306
 20
-154.8549805168421
 10
86.0994714145306
 20
-154.8549805168421
 10
86.0994714145306
 20
-154.8549805168421
 10
86.36200863005493
 20
-154.596606072462
 10
86.36200863005493
 20
-154.596606072462
 10
86.36200863005493
 20
-154.596606072462
 10
86.0994714145306
 20
-154.3389019058598
 10
86.0994714145306
 20
-154.3389019058598
 10
86.0994714145306
 20
-154.3389019058598
 10
86.36200863005493
 20
-154.0811977392577
 10
86.36200863005493
 20
-154.0811977392577
 10
86.36200863005493
 20
-154.0811977392577
 10
86.0994714145306
 20
-153.8228232948776
 10
86.0994714145306
 20
-153.8228232948776
 10
86.0994714145306
 20
-153.8228232948776
 10
86.36200863005493
 20
-153.5651191282755
 10
86.36200863005493
 20
-153.5651191282755
 10
86.36200863005493
 20
-153.5651191282755
 10
86.0994714145306
 20
-153.3067446838953
 10
86.0994714145306
 20
-153.3067446838953
 10
86.0994714145306
 20
-153.3067446838953
 10
86.36200863005493
 20
-153.0490405172932
 10
86.36200863005493
 20
-153.0490405172932
 10
86.36200863005493
 20
-153.0490405172932
 10
86.0994714145306
 20
-152.7913716284686
 10
86.0994714145306
 20
-152.7913716284686
 10
86.0994714145306
 20
-152.7913716284686
 10
86.36200863005493
 20
-152.5336674618665
 10
86.36200863005493
 20
-152.5336674618665
 10
86.36200863005493
 20
-152.5336674618665
 10
86.0994714145306
 20
-152.2759632952644
 10
86.0994714145306
 20
-152.2759632952644
 10
86.0994714145306
 20
-152.2759632952644
 10
86.36200863005493
 20
-152.0189646842178
 10
86.36200863005493
 20
-152.0189646842178
 10
86.36200863005493
 20
-152.0189646842178
 10
86.0994714145306
 20
-151.7612957953932
 10
86.0994714145306
 20
-151.7612957953932
 10
86.0994714145306
 20
-151.7612957953932
 10
86.36200863005493
 20
-151.503591628791
 10
86.36200863005493
 20
-151.503591628791
 10
86.36200863005493
 20
-151.503591628791
 10
86.0994714145306
 20
-151.2465930177438
 10
86.0994714145306
 20
-151.2465930177438
 10
86.0994714145306
 20
-151.2465930177438
 10
86.36200863005493
 20
-150.9895944066972
 10
86.36200863005493
 20
-150.9895944066972
 10
86.36200863005493
 20
-150.9895944066972
 10
86.0994714145306
 20
-150.7318902400951
 10
86.0994714145306
 20
-150.7318902400951
 10
86.0994714145306
 20
-150.7318902400951
 10
86.36200863005493
 20
-150.4741860734923
 10
86.36200863005493
 20
-150.4741860734923
 10
86.36200863005493
 20
-150.4741860734923
 10
86.0994714145306
 20
-150.2171874624457
 10
86.0994714145306
 20
-150.2171874624457
 10
86.0994714145306
 20
-150.2171874624457
 10
86.36200863005493
 20
-149.9594832958436
 10
86.36200863005493
 20
-149.9594832958436
 10
86.36200863005493
 20
-149.9594832958436
 10
86.0994714145306
 20
-149.7011088514635
 10
86.0994714145306
 20
-149.7011088514635
 10
86.0994714145306
 20
-149.7011088514635
 10
86.36200863005493
 20
-149.4441102404169
 10
86.36200863005493
 20
-149.4441102404169
 10
86.36200863005493
 20
-149.4441102404169
 10
86.0994714145306
 20
-149.1857357960367
 10
86.0994714145306
 20
-149.1857357960367
 10
86.0994714145306
 20
-149.1857357960367
 10
86.36200863005493
 20
-148.9273613516573
 10
86.36200863005493
 20
-148.9273613516573
 10
86.36200863005493
 20
-148.9273613516573
 10
86.0994714145306
 20
-148.6703274628325
 10
86.0994714145306
 20
-148.6703274628325
 10
86.0994714145306
 20
-148.6703274628325
 10
86.36200863005493
 20
-148.4119530184524
 10
86.36200863005493
 20
-148.4119530184524
 10
86.36200863005493
 20
-148.4119530184524
 10
86.0994714145306
 20
-148.1542488518502
 10
86.0994714145306
 20
-148.1542488518502
 10
86.0994714145306
 20
-148.1542488518502
 10
86.36200863005493
 20
-147.8965799630256
 10
86.36200863005493
 20
-147.8965799630256
 10
86.36200863005493
 20
-147.8965799630256
 10
86.0994714145306
 20
-147.639581351979
 10
86.0994714145306
 20
-147.639581351979
 10
86.0994714145306
 20
-147.639581351979
 10
86.36200863005493
 20
-147.3818771853769
 10
86.36200863005493
 20
-147.3818771853769
 10
86.36200863005493
 20
-147.3818771853769
 10
86.0994714145306
 20
-147.1248785743297
 10
86.0994714145306
 20
-147.1248785743297
 10
86.0994714145306
 20
-147.1248785743297
 10
86.36200863005493
 20
-146.8678799632831
 10
86.36200863005493
 20
-146.8678799632831
 10
86.36200863005493
 20
-146.8678799632831
 10
86.0994714145306
 20
-146.6101757966809
 10
86.0994714145306
 20
-146.6101757966809
 10
86.0994714145306
 20
-146.6101757966809
 10
86.36200863005493
 20
-146.3531771856337
 10
86.36200863005493
 20
-146.3531771856337
 10
86.36200863005493
 20
-146.3531771856337
 10
86.0994714145306
 20
-146.0968488523645
 10
86.0994714145306
 20
-146.0968488523645
 10
86.0994714145306
 20
-146.0968488523645
 10
86.36200863005493
 20
-145.8363930190966
 10
86.36200863005493
 20
-145.8363930190966
 10
86.36200863005493
 20
-145.8363930190966
 10
86.0994714145306
 20
-145.5766427413836
 10
86.0994714145306
 20
-145.5766427413836
 10
86.0994714145306
 20
-145.5766427413836
 10
86.36200863005493
 20
-145.3168924636706
 10
86.36200863005493
 20
-145.3168924636706
 10
86.36200863005493
 20
-145.3168924636706
 10
86.0994714145306
 20
-145.0578124637356
 10
86.0994714145306
 20
-145.0578124637356
 10
86.0994714145306
 20
-145.0578124637356
 10
86.36200863005493
 20
-144.7987324638005
 10
86.36200863005493
 20
-144.7987324638005
 10
86.36200863005493
 20
-144.7987324638005
 10
86.0994714145306
 20
-144.5396877416431
 10
86.0994714145306
 20
-144.5396877416431
 10
86.0994714145306
 20
-144.5396877416431
 10
86.36200863005493
 20
-144.2806077417074
 10
86.36200863005493
 20
-144.2806077417074
 10
86.36200863005493
 20
-144.2806077417074
 10
86.0994714145306
 20
-144.0215277417724
 10
86.0994714145306
 20
-144.0215277417724
 10
86.0994714145306
 20
-144.0215277417724
 10
86.36200863005493
 20
-143.7638235751703
 10
86.36200863005493
 20
-143.7638235751703
 10
86.36200863005493
 20
-143.7638235751703
 10
86.0994714145306
 20
-143.5054491307901
 10
86.0994714145306
 20
-143.5054491307901
 10
86.0994714145306
 20
-143.5054491307901
 10
86.36200863005493
 20
-143.2463691308552
 10
86.36200863005493
 20
-143.2463691308552
 10
86.36200863005493
 20
-143.2463691308552
 10
86.0994714145306
 20
-142.9873244086976
 10
86.0994714145306
 20
-142.9873244086976
 10
86.0994714145306
 20
-142.9873244086976
 10
86.36200863005493
 20
-142.72891468654
 10
86.36200863005493
 20
-142.72891468654
 10
86.36200863005493
 20
-142.72891468654
 10
86.0994714145306
 20
-142.4698699643825
 10
86.0994714145306
 20
-142.4698699643825
 10
86.0994714145306
 20
-142.4698699643825
 10
86.36200863005493
 20
-142.2114602422249
 10
86.36200863005493
 20
-142.2114602422249
 10
86.36200863005493
 20
-142.2114602422249
 10
86.0994714145306
 20
-141.9524155200674
 10
86.0994714145306
 20
-141.9524155200674
 10
86.0994714145306
 20
-141.9524155200674
 10
86.36200863005493
 20
-141.6947113534653
 10
86.36200863005493
 20
-141.6947113534653
 10
86.36200863005493
 20
-141.6947113534653
 10
86.0994714145306
 20
-141.4356313535303
 10
86.0994714145306
 20
-141.4356313535303
 10
86.0994714145306
 20
-141.4356313535303
 10
86.36200863005493
 20
-141.1765513535946
 10
86.36200863005493
 20
-141.1765513535946
 10
86.36200863005493
 20
-141.1765513535946
 10
86.0994714145306
 20
-140.91888246477
 10
86.0994714145306
 20
-140.91888246477
 10
86.0994714145306
 20
-140.91888246477
 10
86.36200863005493
 20
-140.6605080203905
 10
86.36200863005493
 20
-140.6605080203905
 10
86.36200863005493
 20
-140.6605080203905
 10
86.0994714145306
 20
-140.4028038537884
 10
86.0994714145306
 20
-140.4028038537884
 10
86.0994714145306
 20
-140.4028038537884
 10
86.36200863005493
 20
-140.1437238538527
 10
86.36200863005493
 20
-140.1437238538527
 10
86.36200863005493
 20
-140.1437238538527
 10
86.0994714145306
 20
-139.8846438539177
 10
86.0994714145306
 20
-139.8846438539177
 10
86.0994714145306
 20
-139.8846438539177
 10
86.36200863005493
 20
-139.6269749650932
 10
86.36200863005493
 20
-139.6269749650932
 10
86.36200863005493
 20
-139.6269749650932
 10
86.0994714145306
 20
-139.369270798491
 10
86.0994714145306
 20
-139.369270798491
 10
86.0994714145306
 20
-139.369270798491
 10
86.36200863005493
 20
-139.1115666318889
 10
86.36200863005493
 20
-139.1115666318889
 10
86.36200863005493
 20
-139.1115666318889
 10
86.0994714145306
 20
-138.8538977430643
 10
86.0994714145306
 20
-138.8538977430643
 10
86.0994714145306
 20
-138.8538977430643
 10
86.36200863005493
 20
-138.5954880209067
 10
86.36200863005493
 20
-138.5954880209067
 10
86.36200863005493
 20
-138.5954880209067
 10
86.0994714145306
 20
-138.3364432987492
 10
86.0994714145306
 20
-138.3364432987492
 10
86.0994714145306
 20
-138.3364432987492
 10
86.36200863005493
 20
-138.078739132147
 10
86.36200863005493
 20
-138.078739132147
 10
86.36200863005493
 20
-138.078739132147
 10
86.0994714145306
 20
-137.8210349655449
 10
86.0994714145306
 20
-137.8210349655449
 10
86.0994714145306
 20
-137.8210349655449
 10
86.36200863005493
 20
-137.5633660767203
 10
86.36200863005493
 20
-137.5633660767203
 10
86.36200863005493
 20
-137.5633660767203
 10
86.0994714145306
 20
-137.3063321878955
 10
86.0994714145306
 20
-137.3063321878955
 10
86.0994714145306
 20
-137.3063321878955
 10
86.36200863005493
 20
-137.049333576849
 10
86.36200863005493
 20
-137.049333576849
 10
86.36200863005493
 20
-137.049333576849
 10
86.0994714145306
 20
-136.7923349658017
 10
86.0994714145306
 20
-136.7923349658017
 10
86.0994714145306
 20
-136.7923349658017
 10
86.36200863005493
 20
-136.5339605214222
 10
86.36200863005493
 20
-136.5339605214222
 10
86.36200863005493
 20
-136.5339605214222
 10
86.0994714145306
 20
-136.2755860770421
 10
86.0994714145306
 20
-136.2755860770421
 10
86.0994714145306
 20
-136.2755860770421
 10
86.36200863005493
 20
-136.01788191044
 10
86.36200863005493
 20
-136.01788191044
 10
86.36200863005493
 20
-136.01788191044
 10
86.0994714145306
 20
-135.758801910505
 10
86.0994714145306
 20
-135.758801910505
 10
86.0994714145306
 20
-135.758801910505
 10
86.36200863005493
 20
-135.5011330216804
 10
86.36200863005493
 20
-135.5011330216804
 10
86.36200863005493
 20
-135.5011330216804
 10
86.0994714145306
 20
-135.2427232995227
 10
86.0994714145306
 20
-135.2427232995227
 10
86.0994714145306
 20
-135.2427232995227
 10
86.36200863005493
 20
-134.9843488551426
 10
86.36200863005493
 20
-134.9843488551426
 10
86.36200863005493
 20
-134.9843488551426
 10
86.0994714145306
 20
-134.7266446885405
 10
86.0994714145306
 20
-134.7266446885405
 10
86.0994714145306
 20
-134.7266446885405
 10
86.36200863005493
 20
-134.4689757997159
 10
86.36200863005493
 20
-134.4689757997159
 10
86.36200863005493
 20
-134.4689757997159
 10
86.0994714145306
 20
-134.2106013553364
 10
86.0994714145306
 20
-134.2106013553364
 10
86.0994714145306
 20
-134.2106013553364
 10
86.36200863005493
 20
-133.9521916331788
 10
86.36200863005493
 20
-133.9521916331788
 10
86.36200863005493
 20
-133.9521916331788
 10
86.0994714145306
 20
-133.6938171887986
 10
86.0994714145306
 20
-133.6938171887986
 10
86.0994714145306
 20
-133.6938171887986
 10
86.36200863005493
 20
-133.4354427444191
 10
86.36200863005493
 20
-133.4354427444191
 10
86.36200863005493
 20
-133.4354427444191
 10
86.0994714145306
 20
-133.1777385778164
 10
86.0994714145306
 20
-133.1777385778164
 10
86.0994714145306
 20
-133.1777385778164
 10
86.36200863005493
 20
-132.9200696889924
 10
86.36200863005493
 20
-132.9200696889924
 10
86.36200863005493
 20
-132.9200696889924
 10
86.0994714145306
 20
-132.6616599668347
 10
86.0994714145306
 20
-132.6616599668347
 10
86.0994714145306
 20
-132.6616599668347
 10
86.36200863005493
 20
-132.4039910780102
 10
86.36200863005493
 20
-132.4039910780102
 10
86.36200863005493
 20
-132.4039910780102
 10
86.0994714145306
 20
-132.146286911408
 10
86.0994714145306
 20
-132.146286911408
 10
86.0994714145306
 20
-132.146286911408
 10
86.36200863005493
 20
-131.8885827448059
 10
86.36200863005493
 20
-131.8885827448059
 10
86.36200863005493
 20
-131.8885827448059
 10
86.0994714145306
 20
-131.6302083004258
 10
86.0994714145306
 20
-131.6302083004258
 10
86.0994714145306
 20
-131.6302083004258
 10
86.36200863005493
 20
-131.3718338560457
 10
86.36200863005493
 20
-131.3718338560457
 10
86.36200863005493
 20
-131.3718338560457
 10
86.0994714145306
 20
-131.1134594116662
 10
86.0994714145306
 20
-131.1134594116662
 10
86.0994714145306
 20
-131.1134594116662
 10
86.36200863005493
 20
-130.855755245064
 10
86.36200863005493
 20
-130.855755245064
 10
86.36200863005493
 20
-130.855755245064
 10
86.0994714145306
 20
-130.5980510784613
 10
86.0994714145306
 20
-130.5980510784613
 10
86.0994714145306
 20
-130.5980510784613
 10
86.36200863005493
 20
-130.3403821896373
 10
86.36200863005493
 20
-130.3403821896373
 10
86.36200863005493
 20
-130.3403821896373
 10
86.0994714145306
 20
-130.0819724674797
 10
86.0994714145306
 20
-130.0819724674797
 10
86.0994714145306
 20
-130.0819724674797
 10
86.36200863005493
 20
-129.8243035786551
 10
86.36200863005493
 20
-129.8243035786551
 10
86.36200863005493
 20
-129.8243035786551
 10
86.0994714145306
 20
-129.5672696898303
 10
86.0994714145306
 20
-129.5672696898303
 10
86.0994714145306
 20
-129.5672696898303
 10
86.36200863005493
 20
-129.3096008010057
 10
86.36200863005493
 20
-129.3096008010057
 10
86.36200863005493
 20
-129.3096008010057
 10
86.0994714145306
 20
-129.0518966344036
 10
86.0994714145306
 20
-129.0518966344036
 10
86.0994714145306
 20
-129.0518966344036
 10
86.36200863005493
 20
-128.7941924678015
 10
86.36200863005493
 20
-128.7941924678015
 10
86.36200863005493
 20
-128.7941924678015
 10
86.0994714145306
 20
-128.5358180234217
 10
86.0994714145306
 20
-128.5358180234217
 10
86.0994714145306
 20
-128.5358180234217
 10
86.36200863005493
 20
-128.2781138568192
 10
86.36200863005493
 20
-128.2781138568192
 10
86.36200863005493
 20
-128.2781138568192
 10
86.0994714145306
 20
-128.0197394124394
 10
86.0994714145306
 20
-128.0197394124394
 10
86.0994714145306
 20
-128.0197394124394
 10
86.36200863005493
 20
-127.7620705236151
 10
86.36200863005493
 20
-127.7620705236151
 10
86.36200863005493
 20
-127.7620705236151
 10
86.0994714145306
 20
-127.5036608014575
 10
86.0994714145306
 20
-127.5036608014575
 10
86.0994714145306
 20
-127.5036608014575
 10
86.36200863005493
 20
-127.2459919126329
 10
86.36200863005493
 20
-127.2459919126329
 10
86.36200863005493
 20
-127.2459919126329
 10
86.0994714145306
 20
-126.9882877460308
 10
86.0994714145306
 20
-126.9882877460308
 10
86.0994714145306
 20
-126.9882877460308
 10
86.36200863005493
 20
-126.7305835794286
 10
86.36200863005493
 20
-126.7305835794286
 10
86.36200863005493
 20
-126.7305835794286
 10
86.0994714145306
 20
-126.472914690604
 10
86.0994714145306
 20
-126.472914690604
 10
86.0994714145306
 20
-126.472914690604
 10
86.36200863005493
 20
-126.2158808017793
 10
86.36200863005493
 20
-126.2158808017793
 10
86.36200863005493
 20
-126.2158808017793
 10
86.0994714145306
 20
-125.958211912955
 10
86.0994714145306
 20
-125.958211912955
 10
86.0994714145306
 20
-125.958211912955
 10
86.36200863005493
 20
-125.7012133019081
 10
86.36200863005493
 20
-125.7012133019081
 10
86.36200863005493
 20
-125.7012133019081
 10
86.0994714145306
 20
-125.443509135306
 10
86.0994714145306
 20
-125.443509135306
 10
86.0994714145306
 20
-125.443509135306
 10
86.36200863005493
 20
-125.1858049687035
 10
86.36200863005493
 20
-125.1858049687035
 10
86.36200863005493
 20
-125.1858049687035
 10
86.0994714145306
 20
-124.9288063576566
 10
86.0994714145306
 20
-124.9288063576566
 10
86.0994714145306
 20
-124.9288063576566
 10
86.36200863005493
 20
-124.6711021910545
 10
86.36200863005493
 20
-124.6711021910545
 10
86.36200863005493
 20
-124.6711021910545
 10
86.0994714145306
 20
-124.4134333022299
 10
86.0994714145306
 20
-124.4134333022299
 10
86.0994714145306
 20
-124.4134333022299
 10
86.36200863005493
 20
-124.1564346911833
 10
86.36200863005493
 20
-124.1564346911833
 10
86.36200863005493
 20
-124.1564346911833
 10
86.0994714145306
 20
-123.8987305245808
 10
86.0994714145306
 20
-123.8987305245808
 10
86.0994714145306
 20
-123.8987305245808
 10
86.36200863005493
 20
-123.640356080201
 10
86.36200863005493
 20
-123.640356080201
 10
86.36200863005493
 20
-123.640356080201
 10
86.0994714145306
 20
-123.3826519135989
 10
86.0994714145306
 20
-123.3826519135989
 10
86.0994714145306
 20
-123.3826519135989
 10
86.36200863005493
 20
-123.1242774692191
 10
86.36200863005493
 20
-123.1242774692191
 10
86.36200863005493
 20
-123.1242774692191
 10
86.0994714145306
 20
-122.8665733026166
 10
86.0994714145306
 20
-122.8665733026166
 10
86.0994714145306
 20
-122.8665733026166
 10
86.36200863005493
 20
-122.6088691360145
 10
86.36200863005493
 20
-122.6088691360145
 10
86.36200863005493
 20
-122.6088691360145
 10
86.0994714145306
 20
-122.3512002471899
 10
86.0994714145306
 20
-122.3512002471899
 10
86.0994714145306
 20
-122.3512002471899
 10
86.36200863005493
 20
-122.0934960805878
 10
86.36200863005493
 20
-122.0934960805878
 10
86.36200863005493
 20
-122.0934960805878
 10
86.0994714145306
 20
-121.8357919139857
 10
86.0994714145306
 20
-121.8357919139857
 10
86.0994714145306
 20
-121.8357919139857
 10
86.36200863005493
 20
-121.5787933029387
 10
86.36200863005493
 20
-121.5787933029387
 10
86.36200863005493
 20
-121.5787933029387
 10
86.0994714145306
 20
-121.3217946918918
 10
86.0994714145306
 20
-121.3217946918918
 10
86.0994714145306
 20
-121.3217946918918
 10
86.36200863005493
 20
-121.0647960808449
 10
86.36200863005493
 20
-121.0647960808449
 10
86.36200863005493
 20
-121.0647960808449
 10
86.0994714145306
 20
-120.807797469798
 10
86.0994714145306
 20
-120.807797469798
 10
86.0994714145306
 20
-120.807797469798
 10
86.36200863005493
 20
-120.5507988587511
 10
86.36200863005493
 20
-120.5507988587511
 10
86.36200863005493
 20
-120.5507988587511
 10
86.0994714145306
 20
-120.2930946921489
 10
86.0994714145306
 20
-120.2930946921489
 10
86.0994714145306
 20
-120.2930946921489
 10
86.36200863005493
 20
-120.0333444144363
 10
86.36200863005493
 20
-120.0333444144363
 10
86.36200863005493
 20
-120.0333444144363
 10
86.0994714145306
 20
-119.7735588589454
 10
86.0994714145306
 20
-119.7735588589454
 10
86.0994714145306
 20
-119.7735588589454
 10
86.36200863005493
 20
-119.5138085812327
 10
86.36200863005493
 20
-119.5138085812327
 10
86.36200863005493
 20
-119.5138085812327
 10
86.0994714145306
 20
-119.2547285812974
 10
86.0994714145306
 20
-119.2547285812974
 10
86.0994714145306
 20
-119.2547285812974
 10
86.36200863005493
 20
-118.9956485813621
 10
86.36200863005493
 20
-118.9956485813621
 10
86.36200863005493
 20
-118.9956485813621
 10
86.0994714145306
 20
-118.7358983036494
 10
86.0994714145306
 20
-118.7358983036494
 10
86.0994714145306
 20
-118.7358983036494
 10
86.36200863005493
 20
-118.4775238592696
 10
86.36200863005493
 20
-118.4775238592696
 10
86.36200863005493
 20
-118.4775238592696
 10
86.0994714145306
 20
-118.2184438593342
 10
86.0994714145306
 20
-118.2184438593342
 10
86.0994714145306
 20
-118.2184438593342
 10
86.36200863005493
 20
-117.9600694149544
 10
86.36200863005493
 20
-117.9600694149544
 10
86.36200863005493
 20
-117.9600694149544
 10
86.0994714145306
 20
-117.7020477483524
 10
86.0994714145306
 20
-117.7020477483524
 10
86.0994714145306
 20
-117.7020477483524
 10
86.36200863005493
 20
-117.4429677484171
 10
86.36200863005493
 20
-117.4429677484171
 10
86.36200863005493
 20
-117.4429677484171
 10
86.0994714145306
 20
-117.1845933040373
 10
86.0994714145306
 20
-117.1845933040373
 10
86.0994714145306
 20
-117.1845933040373
 10
86.36200863005493
 20
-116.9251605263242
 10
86.36200863005493
 20
-116.9251605263242
 10
86.36200863005493
 20
-116.9251605263242
 10
86.0994714145306
 20
-116.6667860819444
 10
86.0994714145306
 20
-116.6667860819444
 10
86.0994714145306
 20
-116.6667860819444
 10
86.36200863005493
 20
-116.407706082009
 10
86.36200863005493
 20
-116.407706082009
 10
86.36200863005493
 20
-116.407706082009
 10
86.0994714145306
 20
-116.1489788598518
 10
86.0994714145306
 20
-116.1489788598518
 10
86.0994714145306
 20
-116.1489788598518
 10
86.36200863005493
 20
-115.8906044154717
 10
86.36200863005493
 20
-115.8906044154717
 10
86.36200863005493
 20
-115.8906044154717
 10
86.0994714145306
 20
-115.6322299710919
 10
86.0994714145306
 20
-115.6322299710919
 10
86.0994714145306
 20
-115.6322299710919
 10
86.36200863005493
 20
-115.3735027489343
 10
86.36200863005493
 20
-115.3735027489343
 10
86.36200863005493
 20
-115.3735027489343
 10
86.0994714145306
 20
-115.1150930267766
 10
86.0994714145306
 20
-115.1150930267766
 10
86.0994714145306
 20
-115.1150930267766
 10
86.36200863005493
 20
-114.8574241379524
 10
86.36200863005493
 20
-114.8574241379524
 10
86.36200863005493
 20
-114.8574241379524
 10
86.0994714145306
 20
-114.5990496935726
 10
86.0994714145306
 20
-114.5990496935726
 10
86.0994714145306
 20
-114.5990496935726
 10
86.36200863005493
 20
-114.340322471415
 10
86.36200863005493
 20
-114.340322471415
 10
86.36200863005493
 20
-114.340322471415
 10
86.0994714145306
 20
-114.0819127492573
 10
86.0994714145306
 20
-114.0819127492573
 10
86.0994714145306
 20
-114.0819127492573
 10
86.36200863005493
 20
-113.8238910826553
 10
86.36200863005493
 20
-113.8238910826553
 10
86.36200863005493
 20
-113.8238910826553
 10
86.0994714145306
 20
-113.5661869160529
 10
86.0994714145306
 20
-113.5661869160529
 10
86.0994714145306
 20
-113.5661869160529
 10
86.36200863005493
 20
-113.3081652494508
 10
86.36200863005493
 20
-113.3081652494508
 10
86.36200863005493
 20
-113.3081652494508
 10
86.0994714145306
 20
-113.0504610828484
 10
86.0994714145306
 20
-113.0504610828484
 10
86.0994714145306
 20
-113.0504610828484
 10
86.36200863005493
 20
-112.7920866384686
 10
86.36200863005493
 20
-112.7920866384686
 10
86.36200863005493
 20
-112.7920866384686
 10
86.0994714145306
 20
-112.533359416311
 10
86.0994714145306
 20
-112.533359416311
 10
86.0994714145306
 20
-112.533359416311
 10
86.36200863005493
 20
-112.2753024719311
 10
86.36200863005493
 20
-112.2753024719311
 10
86.36200863005493
 20
-112.2753024719311
 10
86.0994714145306
 20
-112.0172808053291
 10
86.0994714145306
 20
-112.0172808053291
 10
86.0994714145306
 20
-112.0172808053291
 10
86.36200863005493
 20
-111.7599294165044
 10
86.36200863005493
 20
-111.7599294165044
 10
86.36200863005493
 20
-111.7599294165044
 10
86.0994714145306
 20
-111.50257802768
 10
86.0994714145306
 20
-111.50257802768
 10
86.0994714145306
 20
-111.50257802768
 10
86.36200863005493
 20
-111.2452266388553
 10
86.36200863005493
 20
-111.2452266388553
 10
86.36200863005493
 20
-111.2452266388553
 10
86.0994714145306
 20
-110.9882280278084
 10
86.0994714145306
 20
-110.9882280278084
 10
86.0994714145306
 20
-110.9882280278084
 10
86.36200863005493
 20
-110.7305238612063
 10
86.36200863005493
 20
-110.7305238612063
 10
86.36200863005493
 20
-110.7305238612063
 10
86.0994714145306
 20
-110.4717966390487
 10
86.0994714145306
 20
-110.4717966390487
 10
86.0994714145306
 20
-110.4717966390487
 10
86.36200863005493
 20
-110.2137749724467
 10
86.36200863005493
 20
-110.2137749724467
 10
86.36200863005493
 20
-110.2137749724467
 10
86.0994714145306
 20
-109.9557180280665
 10
86.0994714145306
 20
-109.9557180280665
 10
86.0994714145306
 20
-109.9557180280665
 10
86.36200863005493
 20
-109.6973435836867
 10
86.36200863005493
 20
-109.6973435836867
 10
86.36200863005493
 20
-109.6973435836867
 10
86.0994714145306
 20
-109.4393219170846
 10
86.0994714145306
 20
-109.4393219170846
 10
86.0994714145306
 20
-109.4393219170846
 10
86.36200863005493
 20
-109.1809474727048
 10
86.36200863005493
 20
-109.1809474727048
 10
86.36200863005493
 20
-109.1809474727048
 10
86.0994714145306
 20
-108.9232433061024
 10
86.0994714145306
 20
-108.9232433061024
 10
86.0994714145306
 20
-108.9232433061024
 10
86.36200863005493
 20
-108.6651863617225
 10
86.36200863005493
 20
-108.6651863617225
 10
86.36200863005493
 20
-108.6651863617225
 10
86.0994714145306
 20
-108.4068119173427
 10
86.0994714145306
 20
-108.4068119173427
 10
86.0994714145306
 20
-108.4068119173427
 10
86.36200863005493
 20
-108.1491430285184
 10
86.36200863005493
 20
-108.1491430285184
 10
86.36200863005493
 20
-108.1491430285184
 10
86.0994714145306
 20
-107.8904158063608
 10
86.0994714145306
 20
-107.8904158063608
 10
86.0994714145306
 20
-107.8904158063608
 10
86.36200863005493
 20
-107.6320060842032
 10
86.36200863005493
 20
-107.6320060842032
 10
86.36200863005493
 20
-107.6320060842032
 10
86.0994714145306
 20
-107.3743371953786
 10
86.0994714145306
 20
-107.3743371953786
 10
86.0994714145306
 20
-107.3743371953786
 10
86.36200863005493
 20
-107.1162802509987
 10
86.36200863005493
 20
-107.1162802509987
 10
86.36200863005493
 20
-107.1162802509987
 10
86.0994714145306
 20
-106.8586113621741
 10
86.0994714145306
 20
-106.8586113621741
 10
86.0994714145306
 20
-106.8586113621741
 10
86.36200863005493
 20
-106.600907195572
 10
86.36200863005493
 20
-106.600907195572
 10
86.36200863005493
 20
-106.600907195572
 10
86.0994714145306
 20
-106.3428502511921
 10
86.0994714145306
 20
-106.3428502511921
 10
86.0994714145306
 20
-106.3428502511921
 10
86.36200863005493
 20
-106.0848285845901
 10
86.36200863005493
 20
-106.0848285845901
 10
86.36200863005493
 20
-106.0848285845901
 10
86.0994714145306
 20
-105.8267716402099
 10
86.0994714145306
 20
-105.8267716402099
 10
86.0994714145306
 20
-105.8267716402099
 10
86.36200863005493
 20
-105.5687499736078
 10
86.36200863005493
 20
-105.5687499736078
 10
86.36200863005493
 20
-105.5687499736078
 10
86.0994714145306
 20
-105.310375529228
 10
86.0994714145306
 20
-105.310375529228
 10
86.0994714145306
 20
-105.310375529228
 10
86.36200863005493
 20
-105.0523185848481
 10
86.36200863005493
 20
-105.0523185848481
 10
86.36200863005493
 20
-105.0523185848481
 10
86.0994714145306
 20
-104.7946496960235
 10
86.0994714145306
 20
-104.7946496960235
 10
86.0994714145306
 20
-104.7946496960235
 10
86.36200863005493
 20
-104.5362399738659
 10
86.36200863005493
 20
-104.5362399738659
 10
86.36200863005493
 20
-104.5362399738659
 10
86.0994714145306
 20
-104.279241362819
 10
86.0994714145306
 20
-104.279241362819
 10
86.0994714145306
 20
-104.279241362819
 10
86.36200863005493
 20
-104.0215724739947
 10
86.36200863005493
 20
-104.0215724739947
 10
86.36200863005493
 20
-104.0215724739947
 10
86.0994714145306
 20
-103.7635155296148
 10
86.0994714145306
 20
-103.7635155296148
 10
86.0994714145306
 20
-103.7635155296148
 10
86.36200863005493
 20
-103.5061641407901
 10
86.36200863005493
 20
-103.5061641407901
 10
86.36200863005493
 20
-103.5061641407901
 10
86.0994714145306
 20
-103.2484952519655
 10
86.0994714145306
 20
-103.2484952519655
 10
86.0994714145306
 20
-103.2484952519655
 10
86.36200863005493
 20
-102.9907910853634
 10
86.36200863005493
 20
-102.9907910853634
 10
86.36200863005493
 20
-102.9907910853634
 10
86.0994714145306
 20
-102.7330869187613
 10
86.0994714145306
 20
-102.7330869187613
 10
86.0994714145306
 20
-102.7330869187613
 10
86.36200863005493
 20
-102.4747124743815
 10
86.36200863005493
 20
-102.4747124743815
 10
86.36200863005493
 20
-102.4747124743815
 10
86.0994714145306
 20
-102.2166555300012
 10
86.0994714145306
 20
-102.2166555300012
 10
86.0994714145306
 20
-102.2166555300012
 10
86.36200863005493
 20
-101.9586338633992
 10
86.36200863005493
 20
-101.9586338633992
 10
86.36200863005493
 20
-101.9586338633992
 10
86.0994714145306
 20
-101.7006121967972
 10
86.0994714145306
 20
-101.7006121967972
 10
86.0994714145306
 20
-101.7006121967972
 10
86.36200863005493
 20
-101.4425552524173
 10
86.36200863005493
 20
-101.4425552524173
 10
86.36200863005493
 20
-101.4425552524173
 10
86.0994714145306
 20
-101.1848510858148
 10
86.0994714145306
 20
-101.1848510858148
 10
86.0994714145306
 20
-101.1848510858148
 10
86.36200863005493
 20
-100.9271821969906
 10
86.36200863005493
 20
-100.9271821969906
 10
86.36200863005493
 20
-100.9271821969906
 10
86.0994714145306
 20
-100.6698308081659
 10
86.0994714145306
 20
-100.6698308081659
 10
86.0994714145306
 20
-100.6698308081659
 10
86.36200863005493
 20
-100.4121266415637
 10
86.36200863005493
 20
-100.4121266415637
 10
86.36200863005493
 20
-100.4121266415637
 10
86.0994714145306
 20
-100.1551280305168
 10
86.0994714145306
 20
-100.1551280305168
 10
86.0994714145306
 20
-100.1551280305168
 10
86.36200863005493
 20
-99.89742386391471
 10
86.36200863005493
 20
-99.89742386391471
 10
86.36200863005493
 20
-99.89742386391471
 10
86.0994714145306
 20
-99.64007247509002
 10
86.0994714145306
 20
-99.64007247509002
 10
86.0994714145306
 20
-99.64007247509002
 10
86.36200863005493
 20
-99.38272108626535
 10
86.36200863005493
 20
-99.38272108626535
 10
86.36200863005493
 20
-99.38272108626535
 10
86.0994714145306
 20
-99.1254049752185
 10
86.0994714145306
 20
-99.1254049752185
 10
86.0994714145306
 20
-99.1254049752185
 10
86.36200863005493
 20
-98.86770080861638
 10
86.36200863005493
 20
-98.86770080861638
 10
86.36200863005493
 20
-98.86770080861638
 10
86.0994714145306
 20
-98.61034941979202
 10
86.0994714145306
 20
-98.61034941979202
 10
86.0994714145306
 20
-98.61034941979202
 10
86.36200863005493
 20
-98.35299803096734
 10
86.36200863005493
 20
-98.35299803096734
 10
86.36200863005493
 20
-98.35299803096734
 10
86.0994714145306
 20
-98.0949763643653
 10
86.0994714145306
 20
-98.0949763643653
 10
86.0994714145306
 20
-98.0949763643653
 10
86.36200863005493
 20
-97.83727219776284
 10
86.36200863005493
 20
-97.83727219776284
 10
86.36200863005493
 20
-97.83727219776284
 10
86.0994714145306
 20
-97.57921525338297
 10
86.0994714145306
 20
-97.57921525338297
 10
86.0994714145306
 20
-97.57921525338297
 10
86.36200863005493
 20
-97.32119358678092
 10
86.36200863005493
 20
-97.32119358678092
 10
86.36200863005493
 20
-97.32119358678092
 10
86.0994714145306
 20
-97.06313664240103
 10
86.0994714145306
 20
-97.06313664240103
 10
86.0994714145306
 20
-97.06313664240103
 10
86.36200863005493
 20
-96.80546775357644
 10
86.36200863005493
 20
-96.80546775357644
 10
86.36200863005493
 20
-96.80546775357644
 10
86.0994714145306
 20
-96.54776358697431
 10
86.0994714145306
 20
-96.54776358697431
 10
86.0994714145306
 20
-96.54776358697431
 10
86.36200863005493
 20
-96.29005942037188
 10
86.36200863005493
 20
-96.29005942037188
 10
86.36200863005493
 20
-96.29005942037188
 10
86.0994714145306
 20
-96.03306080932495
 10
86.0994714145306
 20
-96.03306080932495
 10
86.0994714145306
 20
-96.03306080932495
 10
86.36200863005493
 20
-95.77570942050059
 10
86.36200863005493
 20
-95.77570942050059
 10
86.36200863005493
 20
-95.77570942050059
 10
86.0994714145306
 20
-95.5183580316759
 10
86.0994714145306
 20
-95.5183580316759
 10
86.0994714145306
 20
-95.5183580316759
 10
86.36200863005493
 20
-95.26135942062899
 10
86.36200863005493
 20
-95.26135942062899
 10
86.36200863005493
 20
-95.26135942062899
 10
86.0994714145306
 20
-95.00436080958238
 10
86.0994714145306
 20
-95.00436080958238
 10
86.0994714145306
 20
-95.00436080958238
 10
86.36200863005493
 20
-94.74736219853547
 10
86.36200863005493
 20
-94.74736219853547
 10
86.36200863005493
 20
-94.74736219853547
 10
86.0994714145306
 20
-94.49036358748855
 10
86.0994714145306
 20
-94.49036358748855
 10
86.0994714145306
 20
-94.49036358748855
 10
86.36200863005493
 20
-94.23301219866386
 10
86.36200863005493
 20
-94.23301219866386
 10
86.36200863005493
 20
-94.23301219866386
 10
85.90191586401511
 20
-94.23301219866386
 10
85.90191586401511
 20
-94.23301219866386
 10
85.90191586401511
 20
-94.23301219866386
 10
85.90191586401511
 20
-92.16319442140365
 10
85.90191586401511
 20
-92.16319442140365
 10
85.90191586401511
 20
-92.16319442140365
 10
86.4875622379629
 20
-92.16319442140365
 10
86.4875622379629
 20
-92.16319442140365
 97
        0
 97
        0
 75
     2
 76
     1
 98
        0
  0
POLYLINE
  5
43
330
1F
100
AcDbEntity
  8
_U+30EC_U+30A4_U+30E4_U+30FC 1
 62
   179
420
  2234388
370
     9
100
AcDb2dPolyline
 66
     1
 10
0.0
 20
0.0
 30
0.0
  0
VERTEX
  5
44
330
43
100
AcDbEntity
  8
_U+30EC_U+30A4_U+30E4_U+30FC 1
 62
   179
420
  2234388
370
     9
100
AcDbVertex
100
AcDb2dVertex
 10
91.14274711919924
 20
-88.98025692219937
 30
0.0
  0
VERTEX
  5
45
330
43
100
AcDbEntity
  8
_U+30EC_U+30A4_U+30E4_U+30FC 1
 62
   179
420
  2234388
370
     9
100
AcDbVertex
100
AcDb2dVertex
 10
88.10384886339467
 20
-92.01471025477407
 30
0.0
  0
SEQEND
  5
46
330
43
100
AcDbEntity
  8
_U+30EC_U+30A4_U+30E4_U+30FC 1
 62
   179
420
  2234388
370
     9
  0
POLYLINE
  5
47
330
1F
100
AcDbEntity
  8
_U+30EC_U+30A4_U+30E4_U+30FC 1
 62
   179
420
  2234388
370
     9
100
AcDb2dPolyline
 66
     1
 10
0.0
 20
0.0
 30
0.0
  0
VERTEX
  5
48
330
47
100
AcDbEntity
  8
_U+30EC_U+30A4_U+30E4_U+30FC 1
 62
   179
420
  2234388
370
     9
100
AcDbVertex
100
AcDb2dVertex
 10
89.14306386660323
 20
-91.41456469936873
 30
0.0
  0
VERTEX
  5
49
330
47
100
AcDbEntity
  8
_U+30EC_U+30A4_U+30E4_U+30FC 1
 62
   179
420
  2234388
370
     9
100
AcDbVertex
100
AcDb2dVertex
 10
88.10384886339467
 20
-92.01471025477407
 30
0.0
  0
SEQEND
  5
4A
330
47
100
AcDbEntity
  8
_U+30EC_U+30A4_U+30E4_U+30FC 1
 62
   179
420
  2234388
370
     9
  0
POLYLINE
  5
4B
330
1F
100
AcDbEntity
  8
_U+30EC_U+30A4_U+30E4_U+30FC 1
 62
   179
420
  2234388
370
     9
100
AcDb2dPolyline
 66
     1
 10
0.0
 20
0.0
 30
0.0
  0
VERTEX
  5
4C
330
4B
100
AcDbEntity
  8
_U+30EC_U+30A4_U+30E4_U+30FC 1
 62
   179
420
  2234388
370
     9
100
AcDbVertex
100
AcDb2dVertex
 10
88.70378273697797
 20
-90.97567386614483
 30
0.0
  0
VERTEX
  5
4D
330
4B
100
AcDbEntity
  8
_U+30EC_U+30A4_U+30E4_U+30FC 1
 62
   179
420
  2234388
370
     9
100
AcDbVertex
100
AcDb2dVertex
 10
88.10384886339467
 20
-92.01471025477407
 30
0.0
  0
SEQEND
  5
4E
330
4B
100
AcDbEntity
  8
_U+30EC_U+30A4_U+30E4_U+30FC 1
 62
   179
420
  2234388
370
     9
  0
POLYLINE
  5
4F
330
1F
100
AcDbEntity
  8
_U+30EC_U+30A4_U+30E4_U+30FC 1
 62
   179
420
  2234388
370
     9
100
AcDb2dPolyline
 66
     1
 10
0.0
 20
0.0
 30
0.0
  0
VERTEX
  5
50
330
4F
100
AcDbEntity
  8
_U+30EC_U+30A4_U+30E4_U+30FC 1
 62
   179
420
  2234388
370
     9
100
AcDbVertex
100
AcDb2dVertex
 10
89.01144022912897
 20
-167.1636088470978
 30
0.0
  0
VERTEX
  5
51
330
4F
100
AcDbEntity
  8
_U+30EC_U+30A4_U+30E4_U+30FC 1
 62
   179
420
  2234388
370
     9
100
AcDbVertex
100
AcDb2dVertex
 10
93.63942594439256
 20
-167.1636088470978
 30
0.0
  0
SEQEND
  5
52
330
4F
100
AcDbEntity
  8
_U+30EC_U+30A4_U+30E4_U+30FC 1
 62
   179
420
  2234388
370
     9
  0
POLYLINE
  5
53
330
1F
100
AcDbEntity
  8
_U+30EC_U+30A4_U+30E4_U+30FC 1
 62
   179
420
  2234388
370
     9
100
AcDb2dPolyline
 66
     1
 10
0.0
 20
0.0
 30
0.0
  0
VERTEX
  5
54
330
53
100
AcDbEntity
  8
_U+30EC_U+30A4_U+30E4_U+30FC 1
 62
   179
420
  2234388
370
     9
100
AcDbVertex
100
AcDb2dVertex
 10
89.01144022912897
 20
-92.16319442140365
 30
0.0
  0
VERTEX
  5
55
330
53
100
AcDbEntity
  8
_U+30EC_U+30A4_U+30E4_U+30FC 1
 62
   179
420
  2234388
370
     9
100
AcDbVertex
100
AcDb2dVertex
 10
93.63942594439256
 20
-92.16319442140365
 30
0.0
  0
SEQEND
  5
56
330
53
100
AcDbEntity
  8
_U+30EC_U+30A4_U+30E4_U+30FC 1
 62
   179
420
  2234388
370
     9
  0
POLYLINE
  5
57
330
1F
100
AcDbEntity
  8
_U+30EC_U+30A4_U+30E4_U+30FC 1
 62
   179
420
  2234388
370
     9
100
AcDb2dPolyline
 66
     1
 10
0.0
 20
0.0
 30
0.0
  0
VERTEX
  5
58
330
57
100
AcDbEntity
  8
_U+30EC_U+30A4_U+30E4_U+30FC 1
 62
   179
420
  2234388
370
     9
100
AcDbVertex
100
AcDb2dVertex
 10
85.90191586401511
 20
-88.04733608909915
 30
0.0
  0
VERTEX
  5
59
330
57
100
AcDbEntity
  8
_U+30EC_U+30A4_U+30E4_U+30FC 1
 62
   179
420
  2234388
370
     9
100
AcDbVertex
100
AcDb2dVertex
 10
87.79996609336959
 20
-88.04733608909915
 30
0.0
  0
SEQEND
  5
5A
330
57
100
AcDbEntity
  8
_U+30EC_U+30A4_U+30E4_U+30FC 1
 62
   179
420
  2234388
370
     9
  0
INSERT
  5
5C
330
1F
100
AcDbEntity
  8
_U+30EC_U+30A4_U+30E4_U+30FC 1
100
AcDbBlockReference
  2
block 2
 10
0.0
 20
0.0
 30
0.0
  0
POLYLINE
  5
6E
330
1F
100
AcDbEntity
  8
_U+30EC_U+30A4_U+30E4_U+30FC 1
 62
   179
420
  2234388
370
     9
100
AcDb2dPolyline
 66
     1
 10
0.0
 20
0.0
 30
0.0
  0
VERTEX
  5
6F
330
6E
100
AcDbEntity
  8
_U+30EC_U+30A4_U+30E4_U+30FC 1
 62
   179
420
  2234388
370
     9
100
AcDbVertex
100
AcDb2dVertex
 10
90.86285553283996
 20
-170.5963130129062
 30
0.0
  0
VERTEX
  5
70
330
6E
100
AcDbEntity
  8
_U+30EC_U+30A4_U+30E4_U+30FC 1
 62
   179
420
  2234388
370
     9
100
AcDbVertex
100
AcDb2dVertex
 10
87.82391970386959
 20
-167.5618596803315
 30
0.0
  0
SEQEND
  5
71
330
6E
100
AcDbEntity
  8
_U+30EC_U+30A4_U+30E4_U+30FC 1
 62
   179
420
  2234388
370
     9
  0
POLYLINE
  5
72
330
1F
100
AcDbEntity
  8
_U+30EC_U+30A4_U+30E4_U+30FC 1
 62
   179
420
  2234388
370
     9
100
AcDb2dPolyline
 66
     1
 10
0.0
 20
0.0
 30
0.0
  0
VERTEX
  5
73
330
72
100
AcDbEntity
  8
_U+30EC_U+30A4_U+30E4_U+30FC 1
 62
   179
420
  2234388
370
     9
100
AcDbVertex
100
AcDb2dVertex
 10
88.86313245513485
 20
-168.1620052357375
 30
0.0
  0
VERTEX
  5
74
330
72
100
AcDbEntity
  8
_U+30EC_U+30A4_U+30E4_U+30FC 1
 62
   179
420
  2234388
370
     9
100
AcDbVertex
100
AcDb2dVertex
 10
87.82391970386959
 20
-167.5618596803315
 30
0.0
  0
SEQEND
  5
75
330
72
100
AcDbEntity
  8
_U+30EC_U+30A4_U+30E4_U+30FC 1
 62
   179
420
  2234388
370
     9
  0
POLYLINE
  5
76
330
1F
100
AcDbEntity
  8
_U+30EC_U+30A4_U+30E4_U+30FC 1
 62
   179
420
  2234388
370
     9
100
AcDb2dPolyline
 66
     1
 10
0.0
 20
0.0
 30
0.0
  0
VERTEX
  5
77
330
76
100
AcDbEntity
  8
_U+30EC_U+30A4_U+30E4_U+30FC 1
 62
   179
420
  2234388
370
     9
100
AcDbVertex
100
AcDb2dVertex
 10
88.42388885522976
 20
-168.6008960689611
 30
0.0
  0
VERTEX
  5
78
330
76
100
AcDbEntity
  8
_U+30EC_U+30A4_U+30E4_U+30FC 1
 62
   179
420
  2234388
370
     9
100
AcDbVertex
100
AcDb2dVertex
 10
87.82391970386959
 20
-167.5618596803315
 30
0.0
  0
SEQEND
  5
79
330
76
100
AcDbEntity
  8
_U+30EC_U+30A4_U+30E4_U+30FC 1
 62
   179
420
  2234388
370
     9
  0
INSERT
  5
7B
330
1F
100
AcDbEntity
  8
_U+30EC_U+30A4_U+30E4_U+30FC 1
100
AcDbBlockReference
  2
block 3
 10
0.0
 20
0.0
 30
0.0
  0
INSERT
  5
8F
330
1F
100
AcDbEntity
  8
_U+30EC_U+30A4_U+30E4_U+30FC 1
100
AcDbBlockReference
  2
block 4
 10
0.0
 20
0.0
 30
0.0
  0
POLYLINE
  5
A0
330
1F
100
AcDbEntity
  8
_U+30EC_U+30A4_U+30E4_U+30FC 1
 62
   179
420
  2234388
370
     9
100
AcDb2dPolyline
 66
     1
 10
0.0
 20
0.0
 30
0.0
  0
VERTEX
  5
A1
330
A0
100
AcDbEntity
  8
_U+30EC_U+30A4_U+30E4_U+30FC 1
 62
   179
420
  2234388
370
     9
100
AcDbVertex
100
AcDb2dVertex
 10
85.90191586401511
 20
-86.80915664496432
 30
0.0
  0
VERTEX
  5
A2
330
A0
100
AcDbEntity
  8
_U+30EC_U+30A4_U+30E4_U+30FC 1
 62
   179
420
  2234388
370
     9
100
AcDbVertex
100
AcDb2dVertex
 10
85.90191586401511
 20
-91.23475386608017
 30
0.0
  0
SEQEND
  5
A3
330
A0
100
AcDbEntity
  8
_U+30EC_U+30A4_U+30E4_U+30FC 1
 62
   179
420
  2234388
370
     9
  0
POLYLINE
  5
A4
330
1F
100
AcDbEntity
  8
_U+30EC_U+30A4_U+30E4_U+30FC 1
 62
   179
420
  2234388
370
     9
100
AcDb2dPolyline
 66
     1
 10
0.0
 20
0.0
 30
0.0
  0
VERTEX
  5
A5
330
A4
100
AcDbEntity
  8
_U+30EC_U+30A4_U+30E4_U+30FC 1
 62
   179
420
  2234388
370
     9
100
AcDbVertex
100
AcDb2dVertex
 10
87.79996609336959
 20
-86.80915664496432
 30
0.0
  0
VERTEX
  5
A6
330
A4
100
AcDbEntity
  8
_U+30EC_U+30A4_U+30E4_U+30FC 1
 62
   179
420
  2234388
370
     9
100
AcDbVertex
100
AcDb2dVertex
 10
87.79996609336959
 20
-91.23475386608017
 30
0.0
  0
SEQEND
  5
A7
330
A4
100
AcDbEntity
  8
_U+30EC_U+30A4_U+30E4_U+30FC 1
 62
   179
420
  2234388
370
     9
  0
POLYLINE
  5
A8
330
1F
100
AcDbEntity
  8
_U+30EC_U+30A4_U+30E4_U+30FC 1
 62
   179
420
  2234388
370
     9
100
AcDb2dPolyline
 66
     1
 10
0.0
 20
0.0
 30
0.0
  0
VERTEX
  5
A9
330
A8
100
AcDbEntity
  8
_U+30EC_U+30A4_U+30E4_U+30FC 1
 62
   179
420
  2234388
370
     9
100
AcDbVertex
100
AcDb2dVertex
 10
92.04917431829658
 20
-92.16319442140365
 30
0.0
  0
VERTEX
  5
AA
330
A8
100
AcDbEntity
  8
_U+30EC_U+30A4_U+30E4_U+30FC 1
 62
   179
420
  2234388
370
     9
100
AcDbVertex
100
AcDb2dVertex
 10
92.04917431829658
 20
-167.1636088470978
 30
0.0
  0
SEQEND
  5
AB
330
A8
100
AcDbEntity
  8
_U+30EC_U+30A4_U+30E4_U+30FC 1
 62
   179
420
  2234388
370
     9
  0
INSERT
  5
AD
330
1F
100
AcDbEntity
  8
_U+30EC_U+30A4_U+30E4_U+30FC 1
100
AcDbBlockReference
  2
block 5
 10
0.0
 20
0.0
 30
0.0
  0
SPLINE
  5
B4
330
1F
100
AcDbEntity
  8
_U+30EC_U+30A4_U+30E4_U+30FC 1
370
     0
100
AcDbSpline
210
0.0
220
0.0
230
1.0
 70
    11
 71
     3
 72
    17
 73
    13
 74
     0
 42
0.0000000001
 43
0.0000000001
 12
1.0
 22
0.0
 32
0.0
 13
1.0
 23
0.0
 33
0.0
 40
0.0
 40
0.0
 40
0.0
 40
0.0
 40
1.0
 40
1.0
 40
1.0
 40
2.0
 40
2.0
 40
2.0
 40
3.0
 40
3.0
 40
3.0
 40
4.0
 40
4.0
 40
4.0
 40
4.0
 10
86.05195224907625
 20
-88.04733608909915
 30
0.0
 10
86.05195224907625
 20
-88.13037997796745
 30
0.0
 10
85.98474808412409
 20
-88.19754886683937
 30
0.0
 10
85.90191586401511
 20
-88.19754886683937
 30
0.0
 10
85.81904836612922
 20
-88.19754886683937
 30
0.0
 10
85.75187947895397
 20
-88.13037997796745
 30
0.0
 10
85.75187947895397
 20
-88.04733608909915
 30
0.0
 10
85.75187947895397
 20
-87.96464497800893
 30
0.0
 10
85.81904836612922
 20
-87.89747608913669
 30
0.0
 10
85.90191586401511
 20
-87.89747608913669
 30
0.0
 10
85.98474808412409
 20
-87.89747608913669
 30
0.0
 10
86.05195224907625
 20
-87.96464497800893
 30
0.0
 10
86.05195224907625
 20
-88.04733608909915
 30
0.0
  0
HATCH
  5
B5
330
1F
100
AcDbEntity
  8
_U+30EC_U+30A4_U+30E4_U+30FC 1
 62
   179
420
  2234388
100
AcDbHatch
 10
0.0
 20
0.0
 30
0.0
210
0.0
220
0.0
230
1.0
  2
SOLID
 70
     1
 71
     0
 91
        1
 92
        1
 93
        1
 72
     4
 94
        3
 73
     0
 74
     1
 95
       17
 96
       13
 40
0.0
 40
0.0
 40
0.0
 40
0.0
 40
1.0
 40
1.0
 40
1.0
 40
2.0
 40
2.0
 40
2.0
 40
3.0
 40
3.0
 40
3.0
 40
4.0
 40
4.0
 40
4.0
 40
4.0
 10
86.05195224907625
 20
-88.04733608909915
 10
86.05195224907625
 20
-88.13037997796745
 10
85.98474808412409
 20
-88.19754886683937
 10
85.90191586401511
 20
-88.19754886683937
 10
85.81904836612922
 20
-88.19754886683937
 10
85.75187947895397
 20
-88.13037997796745
 10
85.75187947895397
 20
-88.04733608909915
 10
85.75187947895397
 20
-87.96464497800893
 10
85.81904836612922
 20
-87.89747608913669
 10
85.90191586401511
 20
-87.89747608913669
 10
85.98474808412409
 20
-87.89747608913669
 10
86.05195224907625
 20
-87.96464497800893
 10
86.05195224907625
 20
-88.04733608909915
 97
        0
 97
        0
 75
     2
 76
     1
 98
        0
  0
SPLINE
  5
B6
330
1F
100
AcDbEntity
  8
_U+30EC_U+30A4_U+30E4_U+30FC 1
370
     0
100
AcDbSpline
210
0.0
220
0.0
230
1.0
 70
    11
 71
     3
 72
    17
 73
    13
 74
     0
 42
0.0000000001
 43
0.0000000001
 12
1.0
 22
0.0
 32
0.0
 13
1.0
 23
0.0
 33
0.0
 40
0.0
 40
0.0
 40
0.0
 40
0.0
 40
1.0
 40
1.0
 40
1.0
 40
2.0
 40
2.0
 40
2.0
 40
3.0
 40
3.0
 40
3.0
 40
4.0
 40
4.0
 40
4.0
 40
4.0
 10
87.95000247843073
 20
-88.04733608909915
 30
0.0
 10
87.95000247843073
 20
-88.13037997796745
 30
0.0
 10
87.88283359125546
 20
-88.19754886683937
 30
0.0
 10
87.79996609336959
 20
-88.19754886683937
 30
0.0
 10
87.7171360891818
 20
-88.19754886683937
 30
0.0
 10
87.64992970830845
 20
-88.13037997796745
 30
0.0
 10
87.64992970830845
 20
-88.04733608909915
 30
0.0
 10
87.64992970830845
 20
-87.96464497800893
 30
0.0
 10
87.7171360891818
 20
-87.89747608913669
 30
0.0
 10
87.79996609336959
 20
-87.89747608913669
 30
0.0
 10
87.88283359125546
 20
-87.89747608913669
 30
0.0
 10
87.95000247843073
 20
-87.96464497800893
 30
0.0
 10
87.95000247843073
 20
-88.04733608909915
 30
0.0
  0
HATCH
  5
B7
330
1F
100
AcDbEntity
  8
_U+30EC_U+30A4_U+30E4_U+30FC 1
 62
   179
420
  2234388
100
AcDbHatch
 10
0.0
 20
0.0
 30
0.0
210
0.0
220
0.0
230
1.0
  2
SOLID
 70
     1
 71
     0
 91
        1
 92
        1
 93
        1
 72
     4
 94
        3
 73
     0
 74
     1
 95
       17
 96
       13
 40
0.0
 40
0.0
 40
0.0
 40
0.0
 40
1.0
 40
1.0
 40
1.0
 40
2.0
 40
2.0
 40
2.0
 40
3.0
 40
3.0
 40
3.0
 40
4.0
 40
4.0
 40
4.0
 40
4.0
 10
87.95000247843073
 20
-88.04733608909915
 10
87.95000247843073
 20
-88.13037997796745
 10
87.88283359125546
 20
-88.19754886683937
 10
87.79996609336959
 20
-88.19754886683937
 10
87.7171360891818
 20
-88.19754886683937
 10
87.64992970830845
 20
-88.13037997796745
 10
87.64992970830845
 20
-88.04733608909915
 10
87.64992970830845
 20
-87.96464497800893
 10
87.7171360891818
 20
-87.89747608913669
 10
87.79996609336959
 20
-87.89747608913669
 10
87.88283359125546
 20
-87.89747608913669
 10
87.95000247843073
 20
-87.96464497800893
 10
87.95000247843073
 20
-88.04733608909915
 97
        0
 97
        0
 75
     2
 76
     1
 98
        0
  0
SPLINE
  5
B8
330
1F
100
AcDbEntity
  8
_U+30EC_U+30A4_U+30E4_U+30FC 1
370
     0
100
AcDbSpline
210
0.0
220
0.0
230
1.0
 70
    11
 71
     3
 72
    17
 73
    13
 74
     0
 42
0.0000000001
 43
0.0000000001
 12
1.0
 22
0.0
 32
0.0
 13
1.0
 23
0.0
 33
0.0
 40
0.0
 40
0.0
 40
0.0
 40
0.0
 40
1.0
 40
1.0
 40
1.0
 40
2.0
 40
2.0
 40
2.0
 40
3.0
 40
3.0
 40
3.0
 40
4.0
 40
4.0
 40
4.0
 40
4.0
 10
92.19935181446523
 20
-92.16284164362588
 30
0.0
 10
92.19935181446523
 20
-92.24623831027162
 30
0.0
 10
92.13183014952119
 20
-92.3130544213661
 30
0.0
 10
92.04917431829658
 20
-92.3130544213661
 30
0.0
 10
91.9664832092951
 20
-92.3130544213661
 30
0.0
 10
91.89896386591423
 20
-92.24623831027162
 30
0.0
 10
91.89896386591423
 20
-92.16284164362588
 30
0.0
 10
91.89896386591423
 20
-92.08015053253567
 30
0.0
 10
91.9664832092951
 20
-92.0133344214412
 30
0.0
 10
92.04917431829658
 20
-92.0133344214412
 30
0.0
 10
92.13183014952119
 20
-92.0133344214412
 30
0.0
 10
92.19935181446523
 20
-92.08015053253567
 30
0.0
 10
92.19935181446523
 20
-92.16284164362588
 30
0.0
  0
HATCH
  5
B9
330
1F
100
AcDbEntity
  8
_U+30EC_U+30A4_U+30E4_U+30FC 1
 62
   179
420
  2234388
100
AcDbHatch
 10
0.0
 20
0.0
 30
0.0
210
0.0
220
0.0
230
1.0
  2
SOLID
 70
     1
 71
     0
 91
        1
 92
        1
 93
        1
 72
     4
 94
        3
 73
     0
 74
     1
 95
       17
 96
       13
 40
0.0
 40
0.0
 40
0.0
 40
0.0
 40
1.0
 40
1.0
 40
1.0
 40
2.0
 40
2.0
 40
2.0
 40
3.0
 40
3.0
 40
3.0
 40
4.0
 40
4.0
 40
4.0
 40
4.0
 10
92.19935181446523
 20
-92.16284164362588
 10
92.19935181446523
 20
-92.24623831027162
 10
92.13183014952119
 20
-92.3130544213661
 10
92.04917431829658
 20
-92.3130544213661
 10
91.9664832092951
 20
-92.3130544213661
 10
91.89896386591423
 20
-92.24623831027162
 10
91.89896386591423
 20
-92.16284164362588
 10
91.89896386591423
 20
-92.08015053253567
 10
91.9664832092951
 20
-92.0133344214412
 10
92.04917431829658
 20
-92.0133344214412
 10
92.13183014952119
 20
-92.0133344214412
 10
92.19935181446523
 20
-92.08015053253567
 10
92.19935181446523
 20
-92.16284164362588
 97
        0
 97
        0
 75
     2
 76
     1
 98
        0
  0
SPLINE
  5
BA
330
1F
100
AcDbEntity
  8
_U+30EC_U+30A4_U+30E4_U+30FC 1
370
     0
100
AcDbSpline
210
0.0
220
0.0
230
1.0
 70
    11
 71
     3
 72
    17
 73
    13
 74
     0
 42
0.0000000001
 43
0.0000000001
 12
1.0
 22
0.0
 32
0.0
 13
1.0
 23
0.0
 33
0.0
 40
0.0
 40
0.0
 40
0.0
 40
0.0
 40
1.0
 40
1.0
 40
1.0
 40
2.0
 40
2.0
 40
2.0
 40
3.0
 40
3.0
 40
3.0
 40
4.0
 40
4.0
 40
4.0
 40
4.0
 10
92.19935181446523
 20
-167.1629385693205
 30
0.0
 10
92.19935181446523
 20
-167.2462999581887
 30
0.0
 10
92.13183014952119
 20
-167.3131160692828
 30
0.0
 10
92.04917431829658
 20
-167.3131160692828
 30
0.0
 10
91.9664832092951
 20
-167.3131160692828
 30
0.0
 10
91.89896386591423
 20
-167.2462999581887
 30
0.0
 10
91.89896386591423
 20
-167.1629385693205
 30
0.0
 10
91.89896386591423
 20
-167.0802474582302
 30
0.0
 10
91.9664832092951
 20
-167.013396069358
 30
0.0
 10
92.04917431829658
 20
-167.013396069358
 30
0.0
 10
92.13183014952119
 20
-167.013396069358
 30
0.0
 10
92.19935181446523
 20
-167.0802474582302
 30
0.0
 10
92.19935181446523
 20
-167.1629385693205
 30
0.0
  0
HATCH
  5
BB
330
1F
100
AcDbEntity
  8
_U+30EC_U+30A4_U+30E4_U+30FC 1
 62
   179
420
  2234388
100
AcDbHatch
 10
0.0
 20
0.0
 30
0.0
210
0.0
220
0.0
230
1.0
  2
SOLID
 70
     1
 71
     0
 91
        1
 92
        1
 93
        1
 72
     4
 94
        3
 73
     0
 74
     1
 95
       17
 96
       13
 40
0.0
 40
0.0
 40
0.0
 40
0.0
 40
1.0
 40
1.0
 40
1.0
 40
2.0
 40
2.0
 40
2.0
 40
3.0
 40
3.0
 40
3.0
 40
4.0
 40
4.0
 40
4.0
 40
4.0
 10
92.19935181446523
 20
-167.1629385693205
 10
92.19935181446523
 20
-167.2462999581887
 10
92.13183014952119
 20
-167.3131160692828
 10
92.04917431829658
 20
-167.3131160692828
 10
91.9664832092951
 20
-167.3131160692828
 10
91.89896386591423
 20
-167.2462999581887
 10
91.89896386591423
 20
-167.1629385693205
 10
91.89896386591423
 20
-167.0802474582302
 10
91.9664832092951
 20
-167.013396069358
 10
92.04917431829658
 20
-167.013396069358
 10
92.13183014952119
 20
-167.013396069358
 10
92.19935181446523
 20
-167.0802474582302
 10
92.19935181446523
 20
-167.1629385693205
 97
        0
 97
        0
 75
     2
 76
     1
 98
        0
  0
ENDSEC
  0
SECTION
  2
OBJECTS
  0
DICTIONARY
  5
C
330
0
100
AcDbDictionary
281
     1
  3
ACAD_GROUP
350
D
  3
ACAD_LAYOUT
350
1A
  3
ACAD_MATERIAL
350
3B
  3
ACAD_MLEADERSTYLE
350
BD
  3
ACAD_MLINESTYLE
350
17
  3
ACAD_PLOTSETTINGS
350
19
  3
ACAD_PLOTSTYLENAME
350
E
  3
ACAD_TABLESTYLE
350
BC
  3
ACAD_VISUALSTYLE
350
2A
  0
SUN
  5
3F
330
29
100
AcDbSun
 90
        1
290
     0
 63
     7
421
 16777215
 40
1.0
291
     1
 91
  2455826
 92
 54000000
292
     0
 70
     2
 71
   256
280
     1
  0
DICTIONARY
  5
D
102
{ACAD_REACTORS
330
C
102
}
330
C
100
AcDbDictionary
281
     1
  0
DICTIONARY
  5
1A
102
{ACAD_REACTORS
330
C
102
}
330
C
100
AcDbDictionary
281
     1
  3
Layout1
350
1E
  3
Layout2
350
26
  3
Model
350
22
  0
DICTIONARY
  5
3B
102
{ACAD_REACTORS
330
C
102
}
330
C
100
AcDbDictionary
281
     1
  3
ByBlock
350
3D
  3
ByLayer
350
3C
  3
Global
350
3E
  0
DICTIONARY
  5
BD
102
{ACAD_REACTORS
330
C
102
}
330
C
100
AcDbDictionary
281
     1
  0
DICTIONARY
  5
17
102
{ACAD_REACTORS
330
C
102
}
330
C
100
AcDbDictionary
281
     1
  3
Standard
350
18
  0
DICTIONARY
  5
19
102
{ACAD_REACTORS
330
C
102
}
330
C
100
AcDbDictionary
281
     1
  0
ACDBDICTIONARYWDFLT
  5
E
102
{ACAD_REACTORS
330
C
102
}
330
C
100
AcDbDictionary
281
     1
  3
Normal
350
F
100
AcDbDictionaryWithDefault
340
F
  0
DICTIONARY
  5
BC
102
{ACAD_REACTORS
330
C
102
}
330
C
100
AcDbDictionary
281
     1
  0
DICTIONARY
  5
2A
102
{ACAD_REACTORS
330
C
102
}
330
C
100
AcDbDictionary
281
     1
  3
2dWireframe
350
2F
  3
3D Hidden
350
31
  3
3dWireframe
350
30
  3
Basic
350
32
  3
Brighten
350
36
  3
ColorChange
350
3A
  3
Conceptual
350
34
  3
Dim
350
35
  3
Facepattern
350
39
  3
Flat
350
2B
  3
FlatWithEdges
350
2C
  3
Gouraud
350
2D
  3
GouraudWithEdges
350
2E
  3
Linepattern
350
38
  3
Realistic
350
33
  3
Thicken
350
37
  0
LAYOUT
  5
1E
102
{ACAD_REACTORS
330
1A
102
}
330
1A
100
AcDbPlotSettings
  1

  2
none_device
  4

  6

 40
0.0
 41
0.0
 42
0.0
 43
0.0
 44
0.0
 45
0.0
 46
0.0
 47
0.0
 48
0.0
 49
0.0
140
0.0
141
0.0
142
1.0
143
1.0
 70
   688
 72
     0
 73
     0
 74
     5
  7

 75
    16
 76
     0
 77
     2
 78
   300
147
1.0
148
0.0
149
0.0
100
AcDbLayout
  1
Layout1
 70
     1
 71
     1
 10
0.0
 20
0.0
 11
12.0
 21
9.0
 12
0.0
 22
0.0
 32
0.0
 14
1.000000000000000E+20
 24
1.000000000000000E+20
 34
1.000000000000000E+20
 15
-1.000000000000000E+20
 25
-1.000000000000000E+20
 35
-1.000000000000000E+20
146
0.0
 13
0.0
 23
0.0
 33
0.0
 16
1.0
 26
0.0
 36
0.0
 17
0.0
 27
1.0
 37
0.0
 76
     0
330
1B
  0
LAYOUT
  5
26
102
{ACAD_REACTORS
330
1A
102
}
330
1A
100
AcDbPlotSettings
  1

  2
none_device
  4

  6

 40
0.0
 41
0.0
 42
0.0
 43
0.0
 44
0.0
 45
0.0
 46
0.0
 47
0.0
 48
0.0
 49
0.0
140
0.0
141
0.0
142
1.0
143
1.0
 70
   688
 72
     0
 73
     0
 74
     5
  7

 75
    16
 76
     0
 77
     2
 78
   300
147
1.0
148
0.0
149
0.0
100
AcDbLayout
  1
Layout2
 70
     1
 71
     2
 10
0.0
 20
0.0
 11
0.0
 21
0.0
 12
0.0
 22
0.0
 32
0.0
 14
0.0
 24
0.0
 34
0.0
 15
0.0
 25
0.0
 35
0.0
146
0.0
 13
0.0
 23
0.0
 33
0.0
 16
1.0
 26
0.0
 36
0.0
 17
0.0
 27
1.0
 37
0.0
 76
     0
330
23
  0
LAYOUT
  5
22
102
{ACAD_REACTORS
330
1A
102
}
330
1A
100
AcDbPlotSettings
  1

  2
none_device
  4

  6

 40
0.0
 41
0.0
 42
0.0
 43
0.0
 44
0.0
 45
0.0
 46
0.0
 47
0.0
 48
0.0
 49
0.0
140
0.0
141
0.0
142
1.0
143
1.0
 70
  1712
 72
     0
 73
     0
 74
     0
  7

 75
     0
 76
     0
 77
     2
 78
   300
147
1.0
148
0.0
149
0.0
100
AcDbLayout
  1
Model
 70
     1
 71
     0
 10
0.0
 20
0.0
 11
12.0
 21
9.0
 12
0.0
 22
0.0
 32
0.0
 14
1.000000000000000E+20
 24
1.000000000000000E+20
 34
1.000000000000000E+20
 15
-1.000000000000000E+20
 25
-1.000000000000000E+20
 35
-1.000000000000000E+20
146
0.0
 13
0.0
 23
0.0
 33
0.0
 16
1.0
 26
0.0
 36
0.0
 17
0.0
 27
1.0
 37
0.0
 76
     0
330
1F
331
29
  0
MATERIAL
  5
3D
102
{ACAD_REACTORS
330
3B
102
}
330
3B
100
AcDbMaterial
  1
ByBlock
 72
     1
 94
      127
  0
MATERIAL
  5
3C
102
{ACAD_REACTORS
330
3B
102
}
330
3B
100
AcDbMaterial
  1
ByLayer
 72
     1
 94
      127
  0
MATERIAL
  5
3E
102
{ACAD_REACTORS
330
3B
102
}
330
3B
100
AcDbMaterial
  1
Global
 72
     1
 94
      127
  0
MLINESTYLE
  5
18
102
{ACAD_REACTORS
330
17
102
}
330
17
100
AcDbMlineStyle
  2
Standard
 70
     0
  3

 62
   256
 51
90.0
 52
90.0
 71
     2
 49
0.5
 62
   256
  6
BYLAYER
 49
-0.5
 62
   256
  6
BYLAYER
  0
ACDBPLACEHOLDER
  5
F
102
{ACAD_REACTORS
330
E
102
}
330
E
  0
VISUALSTYLE
  5
2F
102
{ACAD_REACTORS
330
2A
102
}
330
2A
100
AcDbVisualStyle
  2
2dWireframe
 70
     4
177
     2
291
     0
 71
     0
176
     1
 72
     2
176
     1
 73
     0
176
     1
 90
        0
176
     1
 40
-0.6
176
     1
 41
-30.0
176
     1
 62
     5
 63
     7
421
 16777215
176
     1
 74
     1
176
     1
 91
        4
176
     1
 64
     7
176
     1
 65
   257
176
     1
 75
     1
176
     1
175
     1
176
     1
 42
1.0
176
     1
 92
        0
176
     1
 66
   257
176
     1
 43
1.0
176
     1
 76
     1
176
     1
 77
     6
176
     1
 78
     2
176
     1
 67
     7
176
     1
 79
     5
176
     1
170
     0
176
     1
171
     0
176
     1
290
     0
176
     1
 93
        1
176
     1
 44
0.0
176
     1
173
     0
176
     1
  0
VISUALSTYLE
  5
31
102
{ACAD_REACTORS
330
2A
102
}
330
2A
100
AcDbVisualStyle
  2
3D Hidden
 70
     6
177
     2
291
     0
 71
     1
176
     1
 72
     2
176
     1
 73
     2
176
     1
 90
        0
176
     1
 40
-0.6
176
     1
 41
-30.0
176
     1
 62
     5
 63
     7
421
 16777215
176
     1
 74
     2
176
     1
 91
        2
176
     1
 64
     7
176
     1
 65
   257
176
     1
 75
     2
176
     1
175
     1
176
     1
 42
40.0
176
     1
 92
        0
176
     1
 66
   257
176
     1
 43
1.0
176
     1
 76
     1
176
     1
 77
     6
176
     1
 78
     2
176
     1
 67
     7
176
     1
 79
     3
176
     1
170
     0
176
     1
171
     0
176
     1
290
     0
176
     1
 93
        1
176
     1
 44
0.0
176
     1
173
     0
176
     1
  0
VISUALSTYLE
  5
30
102
{ACAD_REACTORS
330
2A
102
}
330
2A
100
AcDbVisualStyle
  2
3dWireframe
 70
     5
177
     2
291
     0
 71
     0
176
     1
 72
     2
176
     1
 73
     0
176
     1
 90
        0
176
     1
 40
-0.6
176
     1
 41
-30.0
176
     1
 62
     5
 63
     7
421
 16777215
176
     1
 74
     1
176
     1
 91
        4
176
     1
 64
     7
176
     1
 65
   257
176
     1
 75
     1
176
     1
175
     1
176
     1
 42
1.0
176
     1
 92
        0
176
     1
 66
   257
176
     1
 43
1.0
176
     1
 76
     1
176
     1
 77
     6
176
     1
 78
     2
176
     1
 67
     7
176
     1
 79
     5
176
     1
170
     0
176
     1
171
     0
176
     1
290
     0
176
     1
 93
        1
176
     1
 44
0.0
176
     1
173
     0
176
     1
  0
VISUALSTYLE
  5
32
102
{ACAD_REACTORS
330
2A
102
}
330
2A
100
AcDbVisualStyle
  2
Basic
 70
     7
177
     2
291
     1
 71
     1
176
     1
 72
     0
176
     1
 73
     1
176
     1
 90
        0
176
     1
 40
-0.6
176
     1
 41
-30.0
176
     1
 62
     5
 63
     7
421
 16777215
176
     1
 74
     0
176
     1
 91
        4
176
     1
 64
     7
176
     1
 65
   257
176
     1
 75
     1
176
     1
175
     1
176
     1
 42
1.0
176
     1
 92
        8
176
     1
 66
     7
176
     1
 43
1.0
176
     1
 76
     1
176
     1
 77
     6
176
     1
 78
     2
176
     1
 67
     7
176
     1
 79
     5
176
     1
170
     0
176
     1
171
     0
176
     1
290
     0
176
     1
 93
        1
176
     1
 44
0.0
176
     1
173
     0
176
     1
  0
VISUALSTYLE
  5
36
102
{ACAD_REACTORS
330
2A
102
}
330
2A
100
AcDbVisualStyle
  2
Brighten
 70
    12
177
     2
291
     1
 71
     2
176
     1
 72
     2
176
     1
 73
     0
176
     1
 90
        0
176
     1
 40
-0.6
176
     1
 41
-30.0
176
     1
 62
     5
 63
     7
421
 16777215
176
     1
 74
     1
176
     1
 91
        4
176
     1
 64
     7
176
     1
 65
   257
176
     1
 75
     1
176
     1
175
     1
176
     1
 42
1.0
176
     1
 92
        8
176
     1
 66
     7
176
     1
 43
1.0
176
     1
 76
     1
176
     1
 77
     6
176
     1
 78
     2
176
     1
 67
     7
176
     1
 79
     5
176
     1
170
     0
176
     1
171
     0
176
     1
290
     0
176
     1
 93
        1
176
     1
 44
50.0
176
     1
173
     0
176
     1
  0
VISUALSTYLE
  5
3A
102
{ACAD_REACTORS
330
2A
102
}
330
2A
100
AcDbVisualStyle
  2
ColorChange
 70
    16
177
     2
291
     1
 71
     2
176
     1
 72
     2
176
     1
 73
     3
176
     1
 90
        0
176
     1
 40
-0.6
176
     1
 41
-30.0
176
     1
 62
     5
 63
     8
421
  8421504
176
     1
 74
     1
176
     1
 91
        4
176
     1
 64
     7
176
     1
 65
   257
176
     1
 75
     1
176
     1
175
     1
176
     1
 42
1.0
176
     1
 92
        8
176
     1
 66
     8
424
  8421504
176
     1
 43
1.0
176
     1
 76
     1
176
     1
 77
     6
176
     1
 78
     2
176
     1
 67
     7
176
     1
 79
     5
176
     1
170
     0
176
     1
171
     0
176
     1
290
     0
176
     1
 93
        1
176
     1
 44
0.0
176
     1
173
     0
176
     1
  0
VISUALSTYLE
  5
34
102
{ACAD_REACTORS
330
2A
102
}
330
2A
100
AcDbVisualStyle
  2
Conceptual
 70
     9
177
     2
291
     0
 71
     3
176
     1
 72
     2
176
     1
 73
     0
176
     1
 90
        0
176
     1
 40
-0.6
176
     1
 41
-30.0
176
     1
 62
     5
 63
     7
421
 16777215
176
     1
 74
     2
176
     1
 91
        2
176
     1
 64
     7
176
     1
 65
   257
176
     1
 75
     1
176
     1
175
     1
176
     1
 42
40.0
176
     1
 92
        8
176
     1
 66
     7
176
     1
 43
1.0
176
     1
 76
     1
176
     1
 77
     6
176
     1
 78
     2
176
     1
 67
     7
176
     1
 79
     3
176
     1
170
     0
176
     1
171
     0
176
     1
290
     0
176
     1
 93
        1
176
     1
 44
0.0
176
     1
173
     0
176
     1
  0
VISUALSTYLE
  5
35
102
{ACAD_REACTORS
330
2A
102
}
330
2A
100
AcDbVisualStyle
  2
Dim
 70
    11
177
     2
291
     1
 71
     2
176
     1
 72
     2
176
     1
 73
     0
176
     1
 90
        0
176
     1
 40
-0.6
176
     1
 41
-30.0
176
     1
 62
     5
 63
     7
421
 16777215
176
     1
 74
     1
176
     1
 91
        4
176
     1
 64
     7
176
     1
 65
   257
176
     1
 75
     1
176
     1
175
     1
176
     1
 42
1.0
176
     1
 92
        8
176
     1
 66
     7
176
     1
 43
1.0
176
     1
 76
     1
176
     1
 77
     6
176
     1
 78
     2
176
     1
 67
     7
176
     1
 79
     5
176
     1
170
     0
176
     1
171
     0
176
     1
290
     0
176
     1
 93
        1
176
     1
 44
-50.0
176
     1
173
     0
176
     1
  0
VISUALSTYLE
  5
39
102
{ACAD_REACTORS
330
2A
102
}
330
2A
100
AcDbVisualStyle
  2
Facepattern
 70
    15
177
     2
291
     1
 71
     2
176
     1
 72
     2
176
     1
 73
     0
176
     1
 90
        0
176
     1
 40
-0.6
176
     1
 41
-30.0
176
     1
 62
     5
 63
     7
421
 16777215
176
     1
 74
     1
176
     1
 91
        4
176
     1
 64
     7
176
     1
 65
   257
176
     1
 75
     1
176
     1
175
     1
176
     1
 42
1.0
176
     1
 92
        8
176
     1
 66
     7
176
     1
 43
1.0
176
     1
 76
     1
176
     1
 77
     6
176
     1
 78
     2
176
     1
 67
     7
176
     1
 79
     5
176
     1
170
     0
176
     1
171
     0
176
     1
290
     0
176
     1
 93
        1
176
     1
 44
0.0
176
     1
173
     0
176
     1
  0
VISUALSTYLE
  5
2B
102
{ACAD_REACTORS
330
2A
102
}
330
2A
100
AcDbVisualStyle
  2
Flat
 70
     0
177
     2
291
     1
 71
     2
176
     1
 72
     1
176
     1
 73
     1
176
     1
 90
        2
176
     1
 40
-0.6
176
     1
 41
30.0
176
     1
 62
     5
 63
     7
421
 16777215
176
     1
 74
     0
176
     1
 91
        4
176
     1
 64
     7
176
     1
 65
   257
176
     1
 75
     1
176
     1
175
     1
176
     1
 42
1.0
176
     1
 92
        8
176
     1
 66
     7
176
     1
 43
1.0
176
     1
 76
     1
176
     1
 77
     6
176
     1
 78
     2
176
     1
 67
     7
176
     1
 79
     5
176
     1
170
     0
176
     1
171
     0
176
     1
290
     0
176
     1
 93
       13
176
     1
 44
0.0
176
     1
173
     0
176
     1
  0
VISUALSTYLE
  5
2C
102
{ACAD_REACTORS
330
2A
102
}
330
2A
100
AcDbVisualStyle
  2
FlatWithEdges
 70
     1
177
     2
291
     1
 71
     2
176
     1
 72
     1
176
     1
 73
     1
176
     1
 90
        2
176
     1
 40
-0.6
176
     1
 41
30.0
176
     1
 62
     5
 63
     7
421
 16777215
176
     1
 74
     1
176
     1
 91
        4
176
     1
 64
     7
176
     1
 65
   257
176
     1
 75
     1
176
     1
175
     1
176
     1
 42
1.0
176
     1
 92
        0
176
     1
 66
   257
176
     1
 43
1.0
176
     1
 76
     1
176
     1
 77
     6
176
     1
 78
     2
176
     1
 67
     7
176
     1
 79
     5
176
     1
170
     0
176
     1
171
     0
176
     1
290
     0
176
     1
 93
       13
176
     1
 44
0.0
176
     1
173
     0
176
     1
  0
VISUALSTYLE
  5
2D
102
{ACAD_REACTORS
330
2A
102
}
330
2A
100
AcDbVisualStyle
  2
Gouraud
 70
     2
177
     2
291
     1
 71
     2
176
     1
 72
     2
176
     1
 73
     1
176
     1
 90
        2
176
     1
 40
-0.6
176
     1
 41
30.0
176
     1
 62
     5
 63
     7
421
 16777215
176
     1
 74
     0
176
     1
 91
        4
176
     1
 64
     7
176
     1
 65
   257
176
     1
 75
     1
176
     1
175
     1
176
     1
 42
1.0
176
     1
 92
        0
176
     1
 66
     7
176
     1
 43
1.0
176
     1
 76
     1
176
     1
 77
     6
176
     1
 78
     2
176
     1
 67
     7
176
     1
 79
     5
176
     1
170
     0
176
     1
171
     0
176
     1
290
     0
176
     1
 93
       13
176
     1
 44
0.0
176
     1
173
     0
176
     1
  0
VISUALSTYLE
  5
2E
102
{ACAD_REACTORS
330
2A
102
}
330
2A
100
AcDbVisualStyle
  2
GouraudWithEdges
 70
     3
177
     2
291
     1
 71
     2
176
     1
 72
     2
176
     1
 73
     1
176
     1
 90
        2
176
     1
 40
-0.6
176
     1
 41
30.0
176
     1
 62
     5
 63
     7
421
 16777215
176
     1
 74
     1
176
     1
 91
        4
176
     1
 64
     7
176
     1
 65
   257
176
     1
 75
     1
176
     1
175
     1
176
     1
 42
1.0
176
     1
 92
        0
176
     1
 66
   257
176
     1
 43
1.0
176
     1
 76
     1
176
     1
 77
     6
176
     1
 78
     2
176
     1
 67
     7
176
     1
 79
     5
176
     1
170
     0
176
     1
171
     0
176
     1
290
     0
176
     1
 93
       13
176
     1
 44
0.0
176
     1
173
     0
176
     1
  0
VISUALSTYLE
  5
38
102
{ACAD_REACTORS
330
2A
102
}
330
2A
100
AcDbVisualStyle
  2
Linepattern
 70
    14
177
     2
291
     1
 71
     2
176
     1
 72
     2
176
     1
 73
     0
176
     1
 90
        0
176
     1
 40
-0.6
176
     1
 41
-30.0
176
     1
 62
     5
 63
     7
421
 16777215
176
     1
 74
     1
176
     1
 91
        4
176
     1
 64
     7
176
     1
 65
   257
176
     1
 75
     7
176
     1
175
     7
176
     1
 42
1.0
176
     1
 92
        8
176
     1
 66
     7
176
     1
 43
1.0
176
     1
 76
     1
176
     1
 77
     6
176
     1
 78
     2
176
     1
 67
     7
176
     1
 79
     5
176
     1
170
     0
176
     1
171
     0
176
     1
290
     0
176
     1
 93
        1
176
     1
 44
0.0
176
     1
173
     0
176
     1
  0
VISUALSTYLE
  5
33
102
{ACAD_REACTORS
330
2A
102
}
330
2A
100
AcDbVisualStyle
  2
Realistic
 70
     8
177
     2
291
     0
 71
     2
176
     1
 72
     2
176
     1
 73
     0
176
     1
 90
        0
176
     1
 40
-0.6
176
     1
 41
-30.0
176
     1
 62
     5
 63
     7
421
 16777215
176
     1
 74
     1
176
     1
 91
        0
176
     1
 64
     7
176
     1
 65
   257
176
     1
 75
     1
176
     1
175
     1
176
     1
 42
1.0
176
     1
 92
        8
176
     1
 66
     8
424
  7895160
176
     1
 43
1.0
176
     1
 76
     1
176
     1
 77
     6
176
     1
 78
     2
176
     1
 67
     7
176
     1
 79
     5
176
     1
170
     0
176
     1
171
     0
176
     1
290
     0
176
     1
 93
       13
176
     1
 44
0.0
176
     1
173
     0
176
     1
  0
VISUALSTYLE
  5
37
102
{ACAD_REACTORS
330
2A
102
}
330
2A
100
AcDbVisualStyle
  2
Thicken
 70
    13
177
     2
291
     1
 71
     2
176
     1
 72
     2
176
     1
 73
     0
176
     1
 90
        0
176
     1
 40
-0.6
176
     1
 41
-30.0
176
     1
 62
     5
 63
     7
421
 16777215
176
     1
 74
     1
176
     1
 91
        4
176
     1
 64
     7
176
     1
 65
   257
176
     1
 75
     1
176
     1
175
     1
176
     1
 42
1.0
176
     1
 92
       12
176
     1
 66
     7
176
     1
 43
1.0
176
     1
 76
     1
176
     1
 77
     6
176
     1
 78
     2
176
     1
 67
     7
176
     1
 79
     5
176
     1
170
     0
176
     1
171
     0
176
     1
290
     0
176
     1
 93
        1
176
     1
 44
0.0
176
     1
173
     0
176
     1
  0
ENDSEC
  0
EOF
