  0
SECTION
  2
HEADER
  9
$ACADVER
  1
AC1024
  9
$ACADMAINTVER
 70
     6
  9
$DWGCODEPAGE
  3
UNDEFINED
  9
$INSBASE
 10
0.0
 20
0.0
 30
0.0
  9
$EXTMIN
 10
1.000000000000000E+20
 20
1.000000000000000E+20
 30
1.000000000000000E+20
  9
$EXTMAX
 10
-1.000000000000000E+20
 20
-1.000000000000000E+20
 30
-1.000000000000000E+20
  9
$LIMMIN
 10
0.0
 20
0.0
  9
$LIMMAX
 10
12.0
 20
9.0
  9
$ORTHOMODE
 70
     0
  9
$REGENMODE
 70
     1
  9
$FILLMODE
 70
     1
  9
$QTEXTMODE
 70
     0
  9
$MIRRTEXT
 70
     1
  9
$LTSCALE
 40
1.0
  9
$ATTMODE
 70
     1
  9
$TEXTSIZE
 40
0.2
  9
$TRACEWID
 40
0.05
  9
$TEXTSTYLE
  7
Standard
  9
$CLAYER
  8
0
  9
$CELTYPE
  6
ByLayer
  9
$CECOLOR
 62
   256
  9
$CELTSCALE
 40
1.0
  9
$DISPSILH
 70
     0
  9
$DIMSCALE
 40
1.0
  9
$DIMASZ
 40
0.18
  9
$DIMEXO
 40
0.0625
  9
$DIMDLI
 40
0.38
  9
$DIMRND
 40
0.0
  9
$DIMDLE
 40
0.0
  9
$DIMEXE
 40
0.18
  9
$DIMTP
 40
0.0
  9
$DIMTM
 40
0.0
  9
$DIMTXT
 40
0.18
  9
$DIMCEN
 40
0.09
  9
$DIMTSZ
 40
0.0
  9
$DIMTOL
 70
     0
  9
$DIMLIM
 70
     0
  9
$DIMTIH
 70
     1
  9
$DIMTOH
 70
     1
  9
$DIMSE1
 70
     0
  9
$DIMSE2
 70
     0
  9
$DIMTAD
 70
     0
  9
$DIMZIN
 70
     0
  9
$DIMBLK
  1

  9
$DIMASO
 70
     1
  9
$DIMSHO
 70
     1
  9
$DIMPOST
  1

  9
$DIMAPOST
  1

  9
$DIMALT
 70
     0
  9
$DIMALTD
 70
     2
  9
$DIMALTF
 40
25.4
  9
$DIMLFAC
 40
1.0
  9
$DIMTOFL
 70
     0
  9
$DIMTVP
 40
0.0
  9
$DIMTIX
 70
     0
  9
$DIMSOXD
 70
     0
  9
$DIMSAH
 70
     0
  9
$DIMBLK1
  1

  9
$DIMBLK2
  1

  9
$DIMSTYLE
  2
Standard
  9
$DIMCLRD
 70
     0
  9
$DIMCLRE
 70
     0
  9
$DIMCLRT
 70
     0
  9
$DIMTFAC
 40
1.0
  9
$DIMGAP
 40
0.09
  9
$DIMJUST
 70
     0
  9
$DIMSD1
 70
     0
  9
$DIMSD2
 70
     0
  9
$DIMTOLJ
 70
     1
  9
$DIMTZIN
 70
     0
  9
$DIMALTZ
 70
     0
  9
$DIMALTTZ
 70
     0
  9
$DIMUPT
 70
     0
  9
$DIMDEC
 70
     4
  9
$DIMTDEC
 70
     4
  9
$DIMALTU
 70
     2
  9
$DIMALTTD
 70
     2
  9
$DIMTXSTY
  7
Standard
  9
$DIMAUNIT
 70
     0
  9
$DIMADEC
 70
     0
  9
$DIMALTRND
 40
0.0
  9
$DIMAZIN
 70
     0
  9
$DIMDSEP
 70
    46
  9
$DIMATFIT
 70
     3
  9
$DIMFRAC
 70
     0
  9
$DIMLDRBLK
  1

  9
$DIMLUNIT
 70
     2
  9
$DIMLWD
 70
    -2
  9
$DIMLWE
 70
    -2
  9
$DIMTMOVE
 70
     0
  9
$DIMFXL
 40
1.0
  9
$DIMFXLON
 70
     0
  9
$DIMJOGANG
 40
0.7853981633974483
  9
$DIMTFILL
 70
     0
  9
$DIMTFILLCLR
 70
     0
  9
$DIMARCSYM
 70
     0
  9
$DIMLTYPE
  6

  9
$DIMLTEX1
  6

  9
$DIMLTEX2
  6

  9
$DIMTXTDIRECTION
 70
     0
  9
$LUNITS
 70
     2
  9
$LUPREC
 70
     4
  9
$SKETCHINC
 40
0.1
  9
$FILLETRAD
 40
0.5
  9
$AUNITS
 70
     0
  9
$AUPREC
 70
     0
  9
$MENU
  1
.
  9
$ELEVATION
 40
0.0
  9
$PELEVATION
 40
0.0
  9
$THICKNESS
 40
0.0
  9
$LIMCHECK
 70
     0
  9
$CHAMFERA
 40
0.5
  9
$CHAMFERB
 40
0.5
  9
$CHAMFERC
 40
1.0
  9
$CHAMFERD
 40
0.0
  9
$SKPOLY
 70
     0
  9
$TDCREATE
 40
2457917.628240741
  9
$TDUCREATE
 40
2457917.253240741
  9
$TDUPDATE
 40
2457917.628240741
  9
$TDUUPDATE
 40
2457917.253240741
  9
$TDINDWG
 40
0.0000000116
  9
$TDUSRTIMER
 40
0.0000000116
  9
$USRTIMER
 70
     1
  9
$ANGBASE
 50
0.0
  9
$ANGDIR
 70
     0
  9
$PDMODE
 70
     0
  9
$PDSIZE
 40
0.0
  9
$PLINEWID
 40
0.0
  9
$SPLFRAME
 70
     0
  9
$SPLINETYPE
 70
     6
  9
$SPLINESEGS
 70
     8
  9
$HANDSEED
  5
169
  9
$SURFTAB1
 70
     6
  9
$SURFTAB2
 70
     6
  9
$SURFTYPE
 70
     6
  9
$SURFU
 70
     6
  9
$SURFV
 70
     6
  9
$UCSBASE
  2

  9
$UCSNAME
  2

  9
$UCSORG
 10
0.0
 20
0.0
 30
0.0
  9
$UCSXDIR
 10
1.0
 20
0.0
 30
0.0
  9
$UCSYDIR
 10
0.0
 20
1.0
 30
0.0
  9
$UCSORTHOREF
  2

  9
$UCSORTHOVIEW
 70
     0
  9
$UCSORGTOP
 10
0.0
 20
0.0
 30
0.0
  9
$UCSORGBOTTOM
 10
0.0
 20
0.0
 30
0.0
  9
$UCSORGLEFT
 10
0.0
 20
0.0
 30
0.0
  9
$UCSORGRIGHT
 10
0.0
 20
0.0
 30
0.0
  9
$UCSORGFRONT
 10
0.0
 20
0.0
 30
0.0
  9
$UCSORGBACK
 10
0.0
 20
0.0
 30
0.0
  9
$PUCSBASE
  2

  9
$PUCSNAME
  2

  9
$PUCSORG
 10
0.0
 20
0.0
 30
0.0
  9
$PUCSXDIR
 10
1.0
 20
0.0
 30
0.0
  9
$PUCSYDIR
 10
0.0
 20
1.0
 30
0.0
  9
$PUCSORTHOREF
  2

  9
$PUCSORTHOVIEW
 70
     0
  9
$PUCSORGTOP
 10
0.0
 20
0.0
 30
0.0
  9
$PUCSORGBOTTOM
 10
0.0
 20
0.0
 30
0.0
  9
$PUCSORGLEFT
 10
0.0
 20
0.0
 30
0.0
  9
$PUCSORGRIGHT
 10
0.0
 20
0.0
 30
0.0
  9
$PUCSORGFRONT
 10
0.0
 20
0.0
 30
0.0
  9
$PUCSORGBACK
 10
0.0
 20
0.0
 30
0.0
  9
$USERI1
 70
     0
  9
$USERI2
 70
     0
  9
$USERI3
 70
     0
  9
$USERI4
 70
     0
  9
$USERI5
 70
     0
  9
$USERR1
 40
0.0
  9
$USERR2
 40
0.0
  9
$USERR3
 40
0.0
  9
$USERR4
 40
0.0
  9
$USERR5
 40
0.0
  9
$WORLDVIEW
 70
     1
  9
$SHADEDGE
 70
     3
  9
$SHADEDIF
 70
    70
  9
$TILEMODE
 70
     1
  9
$MAXACTVP
 70
    64
  9
$PINSBASE
 10
0.0
 20
0.0
 30
0.0
  9
$PLIMCHECK
 70
     0
  9
$PEXTMIN
 10
1.000000000000000E+20
 20
1.000000000000000E+20
 30
1.000000000000000E+20
  9
$PEXTMAX
 10
-1.000000000000000E+20
 20
-1.000000000000000E+20
 30
-1.000000000000000E+20
  9
$PLIMMIN
 10
0.0
 20
0.0
  9
$PLIMMAX
 10
12.0
 20
9.0
  9
$UNITMODE
 70
     0
  9
$VISRETAIN
 70
     1
  9
$PLINEGEN
 70
     0
  9
$PSLTSCALE
 70
     1
  9
$TREEDEPTH
 70
  3020
  9
$CMLSTYLE
  2
Standard
  9
$CMLJUST
 70
     0
  9
$CMLSCALE
 40
1.0
  9
$PROXYGRAPHICS
 70
     1
  9
$MEASUREMENT
 70
     0
  9
$CELWEIGHT
370
    -1
  9
$ENDCAPS
280
     0
  9
$JOINSTYLE
280
     0
  9
$LWDISPLAY
290
     1
  9
$INSUNITS
 70
     1
  9
$HYPERLINKBASE
  1

  9
$STYLESHEET
  1

  9
$XEDIT
290
     1
  9
$CEPSNTYPE
380
     0
  9
$PSTYLEMODE
290
     1
  9
$FINGERPRINTGUID
  2
{C6C10F32-D1A5-7EC8-A7EB-1A9AA9B94045}
  9
$VERSIONGUID
  2
{FAEB1C32-E019-11D5-929B-00C0DF256EC4}
  9
$EXTNAMES
290
     1
  9
$PSVPSCALE
 40
0.0
  9
$OLESTARTUP
290
     0
  9
$SORTENTS
280
   127
  9
$INDEXCTL
280
     0
  9
$HIDETEXT
280
     1
  9
$XCLIPFRAME
280
     2
  9
$HALOGAP
280
     0
  9
$OBSCOLOR
 70
   257
  9
$OBSLTYPE
280
     0
  9
$INTERSECTIONDISPLAY
280
     0
  9
$INTERSECTIONCOLOR
 70
   257
  9
$DIMASSOC
280
     2
  9
$PROJECTNAME
  1

  9
$CAMERADISPLAY
290
     0
  9
$LENSLENGTH
 40
50.0
  9
$CAMERAHEIGHT
 40
0.0
  9
$STEPSPERSEC
 40
2.0
  9
$STEPSIZE
 40
6.0
  9
$3DDWFPREC
 40
2.0
  9
$PSOLWIDTH
 40
0.25
  9
$PSOLHEIGHT
 40
4.0
  9
$LOFTANG1
 40
1.570796326794897
  9
$LOFTANG2
 40
1.570796326794897
  9
$LOFTMAG1
 40
0.0
  9
$LOFTMAG2
 40
0.0
  9
$LOFTPARAM
 70
     7
  9
$LOFTNORMALS
280
     1
  9
$LATITUDE
 40
37.795
  9
$LONGITUDE
 40
-122.394
  9
$NORTHDIRECTION
 40
0.0
  9
$TIMEZONE
 70
 -8000
  9
$LIGHTGLYPHDISPLAY
280
     1
  9
$TILEMODELIGHTSYNCH
280
     1
  9
$CMATERIAL
347
3C
  9
$SOLIDHIST
280
     1
  9
$SHOWHIST
280
     1
  9
$DWFFRAME
280
     2
  9
$DGNFRAME
280
     2
  9
$REALWORLDSCALE
290
     1
  9
$INTERFERECOLOR
 62
   256
  9
$CSHADOW
280
     0
  9
$SHADOWPLANELOCATION
 40
0.0
  0
ENDSEC
  0
SECTION
  2
CLASSES
  0
CLASS
  1
ACDBDICTIONARYWDFLT
  2
AcDbDictionaryWithDefault
  3
ObjectDBX Classes
 90
        0
 91
        4
280
     0
281
     0
  0
CLASS
  1
VISUALSTYLE
  2
AcDbVisualStyle
  3
ObjectDBX Classes
 90
     4095
 91
        4
280
     0
281
     0
  0
CLASS
  1
MATERIAL
  2
AcDbMaterial
  3
ObjectDBX Classes
 90
     1153
 91
        4
280
     0
281
     0
  0
CLASS
  1
SUN
  2
AcDbSun
  3
SCENEOE
 90
     1024
 91
        4
280
     0
281
     0
  0
ENDSEC
  0
SECTION
  2
TABLES
  0
TABLE
  2
VPORT
  5
8
330
0
100
AcDbSymbolTable
 70
     1
  0
VPORT
  5
29
330
8
100
AcDbSymbolTableRecord
100
AcDbViewportTableRecord
  2
*Active
 70
     0
 10
0.0
 20
0.0
 11
1.0
 21
1.0
 12
0.0
 22
0.0
 13
0.0
 23
0.0
 14
0.5
 24
0.5
 15
0.5
 25
0.5
 16
0.0
 26
0.0
 36
1.0
 17
91.00082462281999
 27
-128.4993055234307
 37
0.0
 40
256.9986110468615
 41
0.7081814508812795
 42
50.0
 43
0.0
 44
0.0
 50
0.0
 51
0.0
 71
     0
 72
   100
 73
     1
 74
     3
 75
     0
 76
     0
 77
     0
 78
     0
281
     0
 65
     1
110
0.0
120
0.0
130
0.0
111
1.0
121
0.0
131
0.0
112
0.0
122
1.0
132
0.0
 79
     0
146
0.0
 60
     3
 61
     5
292
     1
282
     1
141
0.0
142
0.0
 63
   250
361
3F
  0
ENDTAB
  0
TABLE
  2
LTYPE
  5
5
330
0
100
AcDbSymbolTable
 70
     1
  0
LTYPE
  5
14
330
5
100
AcDbSymbolTableRecord
100
AcDbLinetypeTableRecord
  2
ByBlock
 70
     0
  3

 72
    65
 73
     0
 40
0.0
  0
LTYPE
  5
15
330
5
100
AcDbSymbolTableRecord
100
AcDbLinetypeTableRecord
  2
ByLayer
 70
     0
  3

 72
    65
 73
     0
 40
0.0
  0
LTYPE
  5
16
330
5
100
AcDbSymbolTableRecord
100
AcDbLinetypeTableRecord
  2
Continuous
 70
     0
  3
Solid line
 72
    65
 73
     0
 40
0.0
  0
ENDTAB
  0
TABLE
  2
LAYER
  5
2
330
0
100
AcDbSymbolTable
 70
     2
  0
LAYER
  5
10
330
2
100
AcDbSymbolTableRecord
100
AcDbLayerTableRecord
  2
0
 70
     0
 62
     7
  6
Continuous
370
    -3
390
F
347
3E
  0
LAYER
  5
40
330
2
100
AcDbSymbolTableRecord
100
AcDbLayerTableRecord
  2
_U+30EC_U+30A4_U+30E4_U+30FC 1
 70
     0
 62
     7
  6
Continuous
370
    -3
390
F
347
3E
  0
ENDTAB
  0
TABLE
  2
STYLE
  5
3
330
0
100
AcDbSymbolTable
 70
     1
  0
STYLE
  5
11
330
3
100
AcDbSymbolTableRecord
100
AcDbTextStyleTableRecord
  2
Standard
 70
     0
 40
0.0
 41
1.0
 50
0.0
 71
     0
 42
0.2
  3
txt
  4

  0
ENDTAB
  0
TABLE
  2
VIEW
  5
6
330
0
100
AcDbSymbolTable
 70
     0
  0
ENDTAB
  0
TABLE
  2
UCS
  5
7
330
0
100
AcDbSymbolTable
 70
     0
  0
ENDTAB
  0
TABLE
  2
APPID
  5
9
330
0
100
AcDbSymbolTable
 70
     1
  0
APPID
  5
12
330
9
100
AcDbSymbolTableRecord
100
AcDbRegAppTableRecord
  2
ACAD
 70
     0
  0
ENDTAB
  0
TABLE
  2
DIMSTYLE
  5
A
330
0
100
AcDbSymbolTable
 70
     1
100
AcDbDimStyleTable
  0
DIMSTYLE
105
27
330
A
100
AcDbSymbolTableRecord
100
AcDbDimStyleTableRecord
  2
Standard
 70
     0
178
     0
340
11
  0
ENDTAB
  0
TABLE
  2
BLOCK_RECORD
  5
1
330
0
100
AcDbSymbolTable
 70
     9
  0
BLOCK_RECORD
  5
1F
330
1
100
AcDbSymbolTableRecord
100
AcDbBlockTableRecord
  2
*Model_Space
340
22
 70
     0
280
     1
281
     0
  0
BLOCK_RECORD
  5
1B
330
1
100
AcDbSymbolTableRecord
100
AcDbBlockTableRecord
  2
*Paper_Space
340
1E
 70
     0
280
     1
281
     0
  0
BLOCK_RECORD
  5
23
330
1
100
AcDbSymbolTableRecord
100
AcDbBlockTableRecord
  2
*Paper_Space0
340
26
 70
     0
280
     1
281
     0
  0
BLOCK_RECORD
  5
41
330
1
100
AcDbSymbolTableRecord
100
AcDbBlockTableRecord
  2
block 2
340
0
102
{BLKREFS
331
42
102
}
 70
     0
280
     1
281
     0
  0
BLOCK_RECORD
  5
47
330
1
100
AcDbSymbolTableRecord
100
AcDbBlockTableRecord
  2
block 3
340
0
102
{BLKREFS
331
48
102
}
 70
     0
280
     1
281
     0
  0
BLOCK_RECORD
  5
4B
330
1
100
AcDbSymbolTableRecord
100
AcDbBlockTableRecord
  2
block 4
340
0
102
{BLKREFS
331
4C
102
}
 70
     0
280
     1
281
     0
  0
BLOCK_RECORD
  5
C1
330
1
100
AcDbSymbolTableRecord
100
AcDbBlockTableRecord
  2
block 5
340
0
102
{BLKREFS
331
C2
102
}
 70
     0
280
     1
281
     0
  0
BLOCK_RECORD
  5
E9
330
1
100
AcDbSymbolTableRecord
100
AcDbBlockTableRecord
  2
block 6
340
0
102
{BLKREFS
331
EA
102
}
 70
     0
280
     1
281
     0
  0
BLOCK_RECORD
  5
F5
330
1
100
AcDbSymbolTableRecord
100
AcDbBlockTableRecord
  2
block 7
340
0
102
{BLKREFS
331
F6
102
}
 70
     0
280
     1
281
     0
  0
BLOCK_RECORD
  5
12D
330
1
100
AcDbSymbolTableRecord
100
AcDbBlockTableRecord
  2
block 8
340
0
102
{BLKREFS
331
12E
102
}
 70
     0
280
     1
281
     0
  0
BLOCK_RECORD
  5
139
330
1
100
AcDbSymbolTableRecord
100
AcDbBlockTableRecord
  2
block 9
340
0
102
{BLKREFS
331
13A
102
}
 70
     0
280
     1
281
     0
  0
ENDTAB
  0
ENDSEC
  0
SECTION
  2
BLOCKS
  0
BLOCK
  5
20
330
1F
100
AcDbEntity
  8
0
100
AcDbBlockBegin
  2
*Model_Space
 70
     0
 10
0.0
 20
0.0
 30
0.0
  3
*Model_Space
  1

  0
ENDBLK
  5
21
330
1F
100
AcDbEntity
  8
0
100
AcDbBlockEnd
  0
BLOCK
  5
1C
330
1B
100
AcDbEntity
 67
     1
  8
0
100
AcDbBlockBegin
  2
*Paper_Space
 70
     0
 10
0.0
 20
0.0
 30
0.0
  3
*Paper_Space
  1

  0
ENDBLK
  5
1D
330
1B
100
AcDbEntity
 67
     1
  8
0
100
AcDbBlockEnd
  0
BLOCK
  5
24
330
23
100
AcDbEntity
  8
0
100
AcDbBlockBegin
  2
*Paper_Space0
 70
     0
 10
0.0
 20
0.0
 30
0.0
  3
*Paper_Space0
  1

  0
ENDBLK
  5
25
330
23
100
AcDbEntity
  8
0
100
AcDbBlockEnd
  0
BLOCK
  5
43
330
41
100
AcDbEntity
  8
0
100
AcDbBlockBegin
  2
block 2
 70
     0
 10
0.0
 20
0.0
 30
0.0
  3
block 2
  1

  0
SPLINE
  5
45
330
41
100
AcDbEntity
  8
_U+30EC_U+30A4_U+30E4_U+30FC 1
370
     0
100
AcDbSpline
210
0.0
220
0.0
230
1.0
 70
    11
 71
     3
 72
   323
 73
   319
 74
     0
 42
0.0000000001
 43
0.0000000001
 12
1.0
 22
0.0
 32
0.0
 13
1.0
 23
0.0
 33
0.0
 40
0.0
 40
0.0
 40
0.0
 40
0.0
 40
1.0
 40
1.0
 40
1.0
 40
2.0
 40
2.0
 40
2.0
 40
3.0
 40
3.0
 40
3.0
 40
4.0
 40
4.0
 40
4.0
 40
5.0
 40
5.0
 40
5.0
 40
6.0
 40
6.0
 40
6.0
 40
7.0
 40
7.0
 40
7.0
 40
8.0
 40
8.0
 40
8.0
 40
9.0
 40
9.0
 40
9.0
 40
10.0
 40
10.0
 40
10.0
 40
11.0
 40
11.0
 40
11.0
 40
12.0
 40
12.0
 40
12.0
 40
13.0
 40
13.0
 40
13.0
 40
14.0
 40
14.0
 40
14.0
 40
15.0
 40
15.0
 40
15.0
 40
16.0
 40
16.0
 40
16.0
 40
17.0
 40
17.0
 40
17.0
 40
18.0
 40
18.0
 40
18.0
 40
19.0
 40
19.0
 40
19.0
 40
20.0
 40
20.0
 40
20.0
 40
21.0
 40
21.0
 40
21.0
 40
22.0
 40
22.0
 40
22.0
 40
23.0
 40
23.0
 40
23.0
 40
24.0
 40
24.0
 40
24.0
 40
25.0
 40
25.0
 40
25.0
 40
26.0
 40
26.0
 40
26.0
 40
27.0
 40
27.0
 40
27.0
 40
28.0
 40
28.0
 40
28.0
 40
29.0
 40
29.0
 40
29.0
 40
30.0
 40
30.0
 40
30.0
 40
31.0
 40
31.0
 40
31.0
 40
32.0
 40
32.0
 40
32.0
 40
33.0
 40
33.0
 40
33.0
 40
34.0
 40
34.0
 40
34.0
 40
35.0
 40
35.0
 40
35.0
 40
36.0
 40
36.0
 40
36.0
 40
37.0
 40
37.0
 40
37.0
 40
38.0
 40
38.0
 40
38.0
 40
39.0
 40
39.0
 40
39.0
 40
40.0
 40
40.0
 40
40.0
 40
41.0
 40
41.0
 40
41.0
 40
42.0
 40
42.0
 40
42.0
 40
43.0
 40
43.0
 40
43.0
 40
44.0
 40
44.0
 40
44.0
 40
45.0
 40
45.0
 40
45.0
 40
46.0
 40
46.0
 40
46.0
 40
47.0
 40
47.0
 40
47.0
 40
48.0
 40
48.0
 40
48.0
 40
49.0
 40
49.0
 40
49.0
 40
50.0
 40
50.0
 40
50.0
 40
51.0
 40
51.0
 40
51.0
 40
52.0
 40
52.0
 40
52.0
 40
53.0
 40
53.0
 40
53.0
 40
54.0
 40
54.0
 40
54.0
 40
55.0
 40
55.0
 40
55.0
 40
56.0
 40
56.0
 40
56.0
 40
57.0
 40
57.0
 40
57.0
 40
58.0
 40
58.0
 40
58.0
 40
59.0
 40
59.0
 40
59.0
 40
60.0
 40
60.0
 40
60.0
 40
61.0
 40
61.0
 40
61.0
 40
62.0
 40
62.0
 40
62.0
 40
63.0
 40
63.0
 40
63.0
 40
64.0
 40
64.0
 40
64.0
 40
65.0
 40
65.0
 40
65.0
 40
66.0
 40
66.0
 40
66.0
 40
67.0
 40
67.0
 40
67.0
 40
68.0
 40
68.0
 40
68.0
 40
69.0
 40
69.0
 40
69.0
 40
70.0
 40
70.0
 40
70.0
 40
71.0
 40
71.0
 40
71.0
 40
72.0
 40
72.0
 40
72.0
 40
73.0
 40
73.0
 40
73.0
 40
74.0
 40
74.0
 40
74.0
 40
75.0
 40
75.0
 40
75.0
 40
76.0
 40
76.0
 40
76.0
 40
77.0
 40
77.0
 40
77.0
 40
78.0
 40
78.0
 40
78.0
 40
79.0
 40
79.0
 40
79.0
 40
80.0
 40
80.0
 40
80.0
 40
81.0
 40
81.0
 40
81.0
 40
82.0
 40
82.0
 40
82.0
 40
83.0
 40
83.0
 40
83.0
 40
84.0
 40
84.0
 40
84.0
 40
85.0
 40
85.0
 40
85.0
 40
86.0
 40
86.0
 40
86.0
 40
87.0
 40
87.0
 40
87.0
 40
88.0
 40
88.0
 40
88.0
 40
89.0
 40
89.0
 40
89.0
 40
90.0
 40
90.0
 40
90.0
 40
91.0
 40
91.0
 40
91.0
 40
92.0
 40
92.0
 40
92.0
 40
93.0
 40
93.0
 40
93.0
 40
94.0
 40
94.0
 40
94.0
 40
95.0
 40
95.0
 40
95.0
 40
96.0
 40
96.0
 40
96.0
 40
97.0
 40
97.0
 40
97.0
 40
98.0
 40
98.0
 40
98.0
 40
99.0
 40
99.0
 40
99.0
 40
100.0
 40
100.0
 40
100.0
 40
101.0
 40
101.0
 40
101.0
 40
102.0
 40
102.0
 40
102.0
 40
103.0
 40
103.0
 40
103.0
 40
104.0
 40
104.0
 40
104.0
 40
105.0
 40
105.0
 40
105.0
 40
106.0
 40
106.0
 40
106.0
 40
106.0
 10
113.8659040394832
 20
-131.5010210782357
 30
0.0
 10
113.8659040394832
 20
-131.5010210782357
 30
0.0
 10
89.12478772623723
 20
-140.4820377426573
 30
0.0
 10
89.12478772623723
 20
-140.4820377426573
 30
0.0
 10
89.12478772623723
 20
-140.4820377426573
 30
0.0
 10
88.1171133075007
 20
-139.8643238539228
 30
0.0
 10
88.1171133075007
 20
-139.8643238539228
 30
0.0
 10
88.1171133075007
 20
-139.8643238539228
 30
0.0
 10
87.90678720175546
 20
-140.8830402425568
 30
0.0
 10
87.90678720175546
 20
-140.8830402425568
 30
0.0
 10
87.90678720175546
 20
-140.8830402425568
 30
0.0
 10
61.39641982253573
 20
-150.654032184559
 30
0.0
 10
61.39641982253573
 20
-150.654032184559
 30
0.0
 10
61.39641982253573
 20
-150.654032184559
 30
0.0
 10
61.1261583180517
 20
-150.654032184559
 30
0.0
 10
61.1261583180517
 20
-150.654032184559
 30
0.0
 10
61.1261583180517
 20
-150.654032184559
 30
0.0
 10
60.6000945650739
 20
-149.3796930182107
 30
0.0
 10
60.6000945650739
 20
-149.3796930182107
 30
0.0
 10
60.6000945650739
 20
-149.3796930182107
 30
0.0
 10
60.6000945650739
 20
-147.8390419074846
 30
0.0
 10
60.6000945650739
 20
-147.8390419074846
 30
0.0
 10
60.6000945650739
 20
-147.8390419074846
 30
0.0
 10
60.92221594574478
 20
-147.8390419074846
 30
0.0
 10
60.92221594574478
 20
-147.8390419074846
 30
0.0
 10
60.92221594574478
 20
-147.8390419074846
 30
0.0
 10
60.73841872821162
 20
-147.6571496853082
 30
0.0
 10
60.73841872821162
 20
-147.6571496853082
 30
0.0
 10
60.73841872821162
 20
-147.6571496853082
 30
0.0
 10
60.92221594574478
 20
-147.4745519075757
 30
0.0
 10
60.92221594574478
 20
-147.4745519075757
 30
0.0
 10
60.92221594574478
 20
-147.4745519075757
 30
0.0
 10
60.73841872821162
 20
-147.2923069076216
 30
0.0
 10
60.73841872821162
 20
-147.2923069076216
 30
0.0
 10
60.73841872821162
 20
-147.2923069076216
 30
0.0
 10
60.92221594574478
 20
-147.1093563521114
 30
0.0
 10
60.92221594574478
 20
-147.1093563521114
 30
0.0
 10
60.92221594574478
 20
-147.1093563521114
 30
0.0
 10
60.73841872821162
 20
-146.9271113521573
 30
0.0
 10
60.73841872821162
 20
-146.9271113521573
 30
0.0
 10
60.73841872821162
 20
-146.9271113521573
 30
0.0
 10
60.92221594574478
 20
-146.7448663522026
 30
0.0
 10
60.92221594574478
 20
-146.7448663522026
 30
0.0
 10
60.92221594574478
 20
-146.7448663522026
 30
0.0
 10
60.73841872821162
 20
-146.5622685744707
 30
0.0
 10
60.73841872821162
 20
-146.5622685744707
 30
0.0
 10
60.73841872821162
 20
-146.5622685744707
 30
0.0
 10
60.92221594574478
 20
-146.3807291300715
 30
0.0
 10
60.92221594574478
 20
-146.3807291300715
 30
0.0
 10
60.92221594574478
 20
-146.3807291300715
 30
0.0
 10
60.73841872821162
 20
-146.1977785745619
 30
0.0
 10
60.73841872821162
 20
-146.1977785745619
 30
0.0
 10
60.73841872821162
 20
-146.1977785745619
 30
0.0
 10
60.92221594574478
 20
-146.0155335746071
 30
0.0
 10
60.92221594574478
 20
-146.0155335746071
 30
0.0
 10
60.92221594574478
 20
-146.0155335746071
 30
0.0
 10
60.73841872821162
 20
-145.8339941302079
 30
0.0
 10
60.73841872821162
 20
-145.8339941302079
 30
0.0
 10
60.73841872821162
 20
-145.8339941302079
 30
0.0
 10
60.92221594574478
 20
-145.6521019080316
 30
0.0
 10
60.92221594574478
 20
-145.6521019080316
 30
0.0
 10
60.92221594574478
 20
-145.6521019080316
 30
0.0
 10
60.73841872821162
 20
-145.4695041302991
 30
0.0
 10
60.73841872821162
 20
-145.4695041302991
 30
0.0
 10
60.73841872821162
 20
-145.4695041302991
 30
0.0
 10
60.92221594574478
 20
-145.287259130345
 30
0.0
 10
60.92221594574478
 20
-145.287259130345
 30
0.0
 10
60.92221594574478
 20
-145.287259130345
 30
0.0
 10
60.73841872821162
 20
-145.1050141303903
 30
0.0
 10
60.73841872821162
 20
-145.1050141303903
 30
0.0
 10
60.73841872821162
 20
-145.1050141303903
 30
0.0
 10
60.92221594574478
 20
-144.9237921859913
 30
0.0
 10
60.92221594574478
 20
-144.9237921859913
 30
0.0
 10
60.92221594574478
 20
-144.9237921859913
 30
0.0
 10
60.73841872821162
 20
-144.7418999638143
 30
0.0
 10
60.73841872821162
 20
-144.7418999638143
 30
0.0
 10
60.73841872821162
 20
-144.7418999638143
 30
0.0
 10
60.92221594574478
 20
-144.560007741638
 30
0.0
 10
60.92221594574478
 20
-144.560007741638
 30
0.0
 10
60.92221594574478
 20
-144.560007741638
 30
0.0
 10
60.73841872821162
 20
-144.3780802416835
 30
0.0
 10
60.73841872821162
 20
-144.3780802416835
 30
0.0
 10
60.73841872821162
 20
-144.3780802416835
 30
0.0
 10
60.92221594574478
 20
-144.1958352417288
 30
0.0
 10
60.92221594574478
 20
-144.1958352417288
 30
0.0
 10
60.92221594574478
 20
-144.1958352417288
 30
0.0
 10
60.73841872821162
 20
-144.0139430195518
 30
0.0
 10
60.73841872821162
 20
-144.0139430195518
 30
0.0
 10
60.73841872821162
 20
-144.0139430195518
 30
0.0
 10
60.92221594574478
 20
-143.8316980195977
 30
0.0
 10
60.92221594574478
 20
-143.8316980195977
 30
0.0
 10
60.92221594574478
 20
-143.8316980195977
 30
0.0
 10
60.73841872821162
 20
-143.6498057974208
 30
0.0
 10
60.73841872821162
 20
-143.6498057974208
 30
0.0
 10
60.73841872821162
 20
-143.6498057974208
 30
0.0
 10
60.92221594574478
 20
-143.4685838530218
 30
0.0
 10
60.92221594574478
 20
-143.4685838530218
 30
0.0
 10
60.92221594574478
 20
-143.4685838530218
 30
0.0
 10
60.73841872821162
 20
-143.2873619086228
 30
0.0
 10
60.73841872821162
 20
-143.2873619086228
 30
0.0
 10
60.73841872821162
 20
-143.2873619086228
 30
0.0
 10
60.92221594574478
 20
-143.1061752420014
 30
0.0
 10
60.92221594574478
 20
-143.1061752420014
 30
0.0
 10
60.92221594574478
 20
-143.1061752420014
 30
0.0
 10
60.73841872821162
 20
-142.9242477420469
 30
0.0
 10
60.73841872821162
 20
-142.9242477420469
 30
0.0
 10
60.73841872821162
 20
-142.9242477420469
 30
0.0
 10
60.92221594574478
 20
-142.7423555198699
 30
0.0
 10
60.92221594574478
 20
-142.7423555198699
 30
0.0
 10
60.92221594574478
 20
-142.7423555198699
 30
0.0
 10
60.73841872821162
 20
-142.5608160754707
 30
0.0
 10
60.73841872821162
 20
-142.5608160754707
 30
0.0
 10
60.73841872821162
 20
-142.5608160754707
 30
0.0
 10
60.92221594574478
 20
-142.3785710755166
 30
0.0
 10
60.92221594574478
 20
-142.3785710755166
 30
0.0
 10
60.92221594574478
 20
-142.3785710755166
 30
0.0
 10
60.73841872821162
 20
-142.1966435755621
 30
0.0
 10
60.73841872821162
 20
-142.1966435755621
 30
0.0
 10
60.73841872821162
 20
-142.1966435755621
 30
0.0
 10
60.92221594574478
 20
-142.0140810756078
 30
0.0
 10
60.92221594574478
 20
-142.0140810756078
 30
0.0
 10
60.92221594574478
 20
-142.0140810756078
 30
0.0
 10
60.73841872821162
 20
-141.8325063534311
 30
0.0
 10
60.73841872821162
 20
-141.8325063534311
 30
0.0
 10
60.73841872821162
 20
-141.8325063534311
 30
0.0
 10
60.92221594574478
 20
-141.6506141312541
 30
0.0
 10
60.92221594574478
 20
-141.6506141312541
 30
0.0
 10
60.92221594574478
 20
-141.6506141312541
 30
0.0
 10
60.73841872821162
 20
-141.4683691312993
 30
0.0
 10
60.73841872821162
 20
-141.4683691312993
 30
0.0
 10
60.73841872821162
 20
-141.4683691312993
 30
0.0
 10
60.92221594574478
 20
-141.2871471869004
 30
0.0
 10
60.92221594574478
 20
-141.2871471869004
 30
0.0
 10
60.92221594574478
 20
-141.2871471869004
 30
0.0
 10
60.73841872821162
 20
-141.1052549647234
 30
0.0
 10
60.73841872821162
 20
-141.1052549647234
 30
0.0
 10
60.73841872821162
 20
-141.1052549647234
 30
0.0
 10
60.92221594574478
 20
-140.9226571869916
 30
0.0
 10
60.92221594574478
 20
-140.9226571869916
 30
0.0
 10
60.92221594574478
 20
-140.9226571869916
 30
0.0
 10
60.73841872821162
 20
-140.7407649648146
 30
0.0
 10
60.73841872821162
 20
-140.7407649648146
 30
0.0
 10
60.73841872821162
 20
-140.7407649648146
 30
0.0
 10
60.92221594574478
 20
-140.5588727426382
 30
0.0
 10
60.92221594574478
 20
-140.5588727426382
 30
0.0
 10
60.92221594574478
 20
-140.5588727426382
 30
0.0
 10
60.73841872821162
 20
-140.3769452426837
 30
0.0
 10
60.73841872821162
 20
-140.3769452426837
 30
0.0
 10
60.73841872821162
 20
-140.3769452426837
 30
0.0
 10
60.92221594574478
 20
-140.1957585760623
 30
0.0
 10
60.92221594574478
 20
-140.1957585760623
 30
0.0
 10
60.92221594574478
 20
-140.1957585760623
 30
0.0
 10
60.73841872821162
 20
-140.0131607983298
 30
0.0
 10
60.73841872821162
 20
-140.0131607983298
 30
0.0
 10
60.73841872821162
 20
-140.0131607983298
 30
0.0
 10
60.92221594574478
 20
-139.8312685761535
 30
0.0
 10
60.92221594574478
 20
-139.8312685761535
 30
0.0
 10
60.92221594574478
 20
-139.8312685761535
 30
0.0
 10
60.73841872821162
 20
-139.6500466317539
 30
0.0
 10
60.73841872821162
 20
-139.6500466317539
 30
0.0
 10
60.73841872821162
 20
-139.6500466317539
 30
0.0
 10
60.92221594574478
 20
-139.467448854022
 30
0.0
 10
60.92221594574478
 20
-139.467448854022
 30
0.0
 10
60.92221594574478
 20
-139.467448854022
 30
0.0
 10
60.73841872821162
 20
-139.2859094096228
 30
0.0
 10
60.73841872821162
 20
-139.2859094096228
 30
0.0
 10
60.73841872821162
 20
-139.2859094096228
 30
0.0
 10
60.92221594574478
 20
-139.1039819096683
 30
0.0
 10
60.92221594574478
 20
-139.1039819096683
 30
0.0
 10
60.92221594574478
 20
-139.1039819096683
 30
0.0
 10
60.73841872821162
 20
-138.9217369097142
 30
0.0
 10
60.73841872821162
 20
-138.9217369097142
 30
0.0
 10
60.73841872821162
 20
-138.9217369097142
 30
0.0
 10
60.92221594574478
 20
-138.7398446875372
 30
0.0
 10
60.92221594574478
 20
-138.7398446875372
 30
0.0
 10
60.92221594574478
 20
-138.7398446875372
 30
0.0
 10
60.73841872821162
 20
-138.5579524653603
 30
0.0
 10
60.73841872821162
 20
-138.5579524653603
 30
0.0
 10
60.73841872821162
 20
-138.5579524653603
 30
0.0
 10
60.92221594574478
 20
-138.3767305209613
 30
0.0
 10
60.92221594574478
 20
-138.3767305209613
 30
0.0
 10
60.92221594574478
 20
-138.3767305209613
 30
0.0
 10
60.73841872821162
 20
-138.1948382987843
 30
0.0
 10
60.73841872821162
 20
-138.1948382987843
 30
0.0
 10
60.73841872821162
 20
-138.1948382987843
 30
0.0
 10
60.92221594574478
 20
-138.0136163543854
 30
0.0
 10
60.92221594574478
 20
-138.0136163543854
 30
0.0
 10
60.92221594574478
 20
-138.0136163543854
 30
0.0
 10
60.73841872821162
 20
-137.831724132209
 30
0.0
 10
60.73841872821162
 20
-137.831724132209
 30
0.0
 10
60.73841872821162
 20
-137.831724132209
 30
0.0
 10
60.92221594574478
 20
-137.6505021878094
 30
0.0
 10
60.92221594574478
 20
-137.6505021878094
 30
0.0
 10
60.92221594574478
 20
-137.6505021878094
 30
0.0
 10
60.73841872821162
 20
-137.4686099656331
 30
0.0
 10
60.73841872821162
 20
-137.4686099656331
 30
0.0
 10
60.73841872821162
 20
-137.4686099656331
 30
0.0
 10
60.92221594574478
 20
-137.2867177434561
 30
0.0
 10
60.92221594574478
 20
-137.2867177434561
 30
0.0
 10
60.92221594574478
 20
-137.2867177434561
 30
0.0
 10
60.73841872821162
 20
-137.1048255212791
 30
0.0
 10
60.73841872821162
 20
-137.1048255212791
 30
0.0
 10
60.73841872821162
 20
-137.1048255212791
 30
0.0
 10
60.92221594574478
 20
-136.9228980213247
 30
0.0
 10
60.92221594574478
 20
-136.9228980213247
 30
0.0
 10
60.92221594574478
 20
-136.9228980213247
 30
0.0
 10
60.73841872821162
 20
-136.7410057991483
 30
0.0
 10
60.73841872821162
 20
-136.7410057991483
 30
0.0
 10
60.73841872821162
 20
-136.7410057991483
 30
0.0
 10
60.92221594574478
 20
-136.5591135769714
 30
0.0
 10
60.92221594574478
 20
-136.5591135769714
 30
0.0
 10
60.92221594574478
 20
-136.5591135769714
 30
0.0
 10
60.73841872821162
 20
-136.3772213547944
 30
0.0
 10
60.73841872821162
 20
-136.3772213547944
 30
0.0
 10
60.73841872821162
 20
-136.3772213547944
 30
0.0
 10
60.92221594574478
 20
-136.1956466326177
 30
0.0
 10
60.92221594574478
 20
-136.1956466326177
 30
0.0
 10
60.92221594574478
 20
-136.1956466326177
 30
0.0
 10
60.73841872821162
 20
-136.0141071882184
 30
0.0
 10
60.73841872821162
 20
-136.0141071882184
 30
0.0
 10
60.73841872821162
 20
-136.0141071882184
 30
0.0
 10
60.92221594574478
 20
-135.8325324660417
 30
0.0
 10
60.92221594574478
 20
-135.8325324660417
 30
0.0
 10
60.92221594574478
 20
-135.8325324660417
 30
0.0
 10
60.73841872821162
 20
-135.6506402438654
 30
0.0
 10
60.73841872821162
 20
-135.6506402438654
 30
0.0
 10
60.73841872821162
 20
-135.6506402438654
 30
0.0
 10
60.92221594574478
 20
-135.469065521688
 30
0.0
 10
60.92221594574478
 20
-135.469065521688
 30
0.0
 10
60.92221594574478
 20
-135.469065521688
 30
0.0
 10
60.73841872821162
 20
-135.2875260772894
 30
0.0
 10
60.73841872821162
 20
-135.2875260772894
 30
0.0
 10
60.73841872821162
 20
-135.2875260772894
 30
0.0
 10
60.92221594574478
 20
-135.1059513551127
 30
0.0
 10
60.92221594574478
 20
-135.1059513551127
 30
0.0
 10
60.92221594574478
 20
-135.1059513551127
 30
0.0
 10
60.73841872821162
 20
-134.9247646884913
 30
0.0
 10
60.73841872821162
 20
-134.9247646884913
 30
0.0
 10
60.73841872821162
 20
-134.9247646884913
 30
0.0
 10
60.92221594574478
 20
-134.7435427440917
 30
0.0
 10
60.92221594574478
 20
-134.7435427440917
 30
0.0
 10
60.92221594574478
 20
-134.7435427440917
 30
0.0
 10
60.73841872821162
 20
-134.5623207996927
 30
0.0
 10
60.73841872821162
 20
-134.5623207996927
 30
0.0
 10
60.73841872821162
 20
-134.5623207996927
 30
0.0
 10
60.92221594574478
 20
-134.3804285775157
 30
0.0
 10
60.92221594574478
 20
-134.3804285775157
 30
0.0
 10
60.92221594574478
 20
-134.3804285775157
 30
0.0
 10
60.73841872821162
 20
-134.1985363553394
 30
0.0
 10
60.73841872821162
 20
-134.1985363553394
 30
0.0
 10
60.73841872821162
 20
-134.1985363553394
 30
0.0
 10
60.92221594574478
 20
-134.0173144109404
 30
0.0
 10
60.92221594574478
 20
-134.0173144109404
 30
0.0
 10
60.92221594574478
 20
-134.0173144109404
 30
0.0
 10
60.73841872821162
 20
-133.8357749665412
 30
0.0
 10
60.73841872821162
 20
-133.8357749665412
 30
0.0
 10
60.73841872821162
 20
-133.8357749665412
 30
0.0
 10
60.92221594574478
 20
-133.6538474665867
 30
0.0
 10
60.92221594574478
 20
-133.6538474665867
 30
0.0
 10
60.92221594574478
 20
-133.6538474665867
 30
0.0
 10
60.73841872821162
 20
-133.4723080221875
 30
0.0
 10
60.73841872821162
 20
-133.4723080221875
 30
0.0
 10
60.73841872821162
 20
-133.4723080221875
 30
0.0
 10
60.92221594574478
 20
-133.2897102444556
 30
0.0
 10
60.92221594574478
 20
-133.2897102444556
 30
0.0
 10
60.92221594574478
 20
-133.2897102444556
 30
0.0
 10
60.73841872821162
 20
-133.1084883000561
 30
0.0
 10
60.73841872821162
 20
-133.1084883000561
 30
0.0
 10
60.73841872821162
 20
-133.1084883000561
 30
0.0
 10
60.92221594574478
 20
-132.9265960778797
 30
0.0
 10
60.92221594574478
 20
-132.9265960778797
 30
0.0
 10
60.92221594574478
 20
-132.9265960778797
 30
0.0
 10
60.73841872821162
 20
-132.7453741334801
 30
0.0
 10
60.73841872821162
 20
-132.7453741334801
 30
0.0
 10
60.73841872821162
 20
-132.7453741334801
 30
0.0
 10
60.92221594574478
 20
-132.5634819113038
 30
0.0
 10
60.92221594574478
 20
-132.5634819113038
 30
0.0
 10
60.92221594574478
 20
-132.5634819113038
 30
0.0
 10
60.73841872821162
 20
-132.3822599669042
 30
0.0
 10
60.73841872821162
 20
-132.3822599669042
 30
0.0
 10
60.73841872821162
 20
-132.3822599669042
 30
0.0
 10
60.92221594574478
 20
-132.2007205225056
 30
0.0
 10
60.92221594574478
 20
-132.2007205225056
 30
0.0
 10
60.92221594574478
 20
-132.2007205225056
 30
0.0
 10
60.73841872821162
 20
-132.0191458003289
 30
0.0
 10
60.73841872821162
 20
-132.0191458003289
 30
0.0
 10
60.73841872821162
 20
-132.0191458003289
 30
0.0
 10
60.92221594574478
 20
-131.8379591337074
 30
0.0
 10
60.92221594574478
 20
-131.8379591337074
 30
0.0
 10
60.92221594574478
 20
-131.8379591337074
 30
0.0
 10
60.73841872821162
 20
-131.6567371893078
 30
0.0
 10
60.73841872821162
 20
-131.6567371893078
 30
0.0
 10
60.73841872821162
 20
-131.6567371893078
 30
0.0
 10
60.92221594574478
 20
-131.4755152449088
 30
0.0
 10
60.92221594574478
 20
-131.4755152449088
 30
0.0
 10
60.92221594574478
 20
-131.4755152449088
 30
0.0
 10
60.73841872821162
 20
-131.2943285782874
 30
0.0
 10
60.73841872821162
 20
-131.2943285782874
 30
0.0
 10
60.73841872821162
 20
-131.2943285782874
 30
0.0
 10
60.92221594574478
 20
-131.1131066338884
 30
0.0
 10
60.92221594574478
 20
-131.1131066338884
 30
0.0
 10
60.92221594574478
 20
-131.1131066338884
 30
0.0
 10
60.6000945650739
 20
-131.1131066338884
 30
0.0
 10
60.6000945650739
 20
-131.1131066338884
 30
0.0
 10
60.6000945650739
 20
-131.1131066338884
 30
0.0
 10
60.6000945650739
 20
-129.6540883009198
 30
0.0
 10
60.6000945650739
 20
-129.6540883009198
 30
0.0
 10
60.6000945650739
 20
-129.6540883009198
 30
0.0
 10
113.2227196114478
 20
-110.5007596945969
 30
0.0
 10
113.2227196114478
 20
-110.5007596945969
 30
0.0
 10
113.7301904318344
 20
-110.5007596945969
 30
0.0
 10
114.1415293102292
 20
-110.9131216389385
 30
0.0
 10
114.1415293102292
 20
-111.4216155277001
 30
0.0
 10
114.1415293102292
 20
-111.4216155277001
 30
0.0
 10
114.1415293102292
 20
-131.2247255227493
 30
0.0
 10
114.1415293102292
 20
-131.2247255227493
 30
0.0
 10
114.1415293102292
 20
-131.3773371893778
 30
0.0
 10
114.0181982022645
 20
-131.5010210782357
 30
0.0
 10
113.8659040394832
 20
-131.5010210782357
 30
0.0
  0
HATCH
  5
46
330
41
100
AcDbEntity
  8
_U+30EC_U+30A4_U+30E4_U+30FC 1
 62
     9
420
 13224394
100
AcDbHatch
 10
0.0
 20
0.0
 30
0.0
210
0.0
220
0.0
230
1.0
  2
SOLID
 70
     1
 71
     0
 91
        1
 92
        1
 93
        1
 72
     4
 94
        3
 73
     0
 74
     1
 95
      323
 96
      319
 40
0.0
 40
0.0
 40
0.0
 40
0.0
 40
1.0
 40
1.0
 40
1.0
 40
2.0
 40
2.0
 40
2.0
 40
3.0
 40
3.0
 40
3.0
 40
4.0
 40
4.0
 40
4.0
 40
5.0
 40
5.0
 40
5.0
 40
6.0
 40
6.0
 40
6.0
 40
7.0
 40
7.0
 40
7.0
 40
8.0
 40
8.0
 40
8.0
 40
9.0
 40
9.0
 40
9.0
 40
10.0
 40
10.0
 40
10.0
 40
11.0
 40
11.0
 40
11.0
 40
12.0
 40
12.0
 40
12.0
 40
13.0
 40
13.0
 40
13.0
 40
14.0
 40
14.0
 40
14.0
 40
15.0
 40
15.0
 40
15.0
 40
16.0
 40
16.0
 40
16.0
 40
17.0
 40
17.0
 40
17.0
 40
18.0
 40
18.0
 40
18.0
 40
19.0
 40
19.0
 40
19.0
 40
20.0
 40
20.0
 40
20.0
 40
21.0
 40
21.0
 40
21.0
 40
22.0
 40
22.0
 40
22.0
 40
23.0
 40
23.0
 40
23.0
 40
24.0
 40
24.0
 40
24.0
 40
25.0
 40
25.0
 40
25.0
 40
26.0
 40
26.0
 40
26.0
 40
27.0
 40
27.0
 40
27.0
 40
28.0
 40
28.0
 40
28.0
 40
29.0
 40
29.0
 40
29.0
 40
30.0
 40
30.0
 40
30.0
 40
31.0
 40
31.0
 40
31.0
 40
32.0
 40
32.0
 40
32.0
 40
33.0
 40
33.0
 40
33.0
 40
34.0
 40
34.0
 40
34.0
 40
35.0
 40
35.0
 40
35.0
 40
36.0
 40
36.0
 40
36.0
 40
37.0
 40
37.0
 40
37.0
 40
38.0
 40
38.0
 40
38.0
 40
39.0
 40
39.0
 40
39.0
 40
40.0
 40
40.0
 40
40.0
 40
41.0
 40
41.0
 40
41.0
 40
42.0
 40
42.0
 40
42.0
 40
43.0
 40
43.0
 40
43.0
 40
44.0
 40
44.0
 40
44.0
 40
45.0
 40
45.0
 40
45.0
 40
46.0
 40
46.0
 40
46.0
 40
47.0
 40
47.0
 40
47.0
 40
48.0
 40
48.0
 40
48.0
 40
49.0
 40
49.0
 40
49.0
 40
50.0
 40
50.0
 40
50.0
 40
51.0
 40
51.0
 40
51.0
 40
52.0
 40
52.0
 40
52.0
 40
53.0
 40
53.0
 40
53.0
 40
54.0
 40
54.0
 40
54.0
 40
55.0
 40
55.0
 40
55.0
 40
56.0
 40
56.0
 40
56.0
 40
57.0
 40
57.0
 40
57.0
 40
58.0
 40
58.0
 40
58.0
 40
59.0
 40
59.0
 40
59.0
 40
60.0
 40
60.0
 40
60.0
 40
61.0
 40
61.0
 40
61.0
 40
62.0
 40
62.0
 40
62.0
 40
63.0
 40
63.0
 40
63.0
 40
64.0
 40
64.0
 40
64.0
 40
65.0
 40
65.0
 40
65.0
 40
66.0
 40
66.0
 40
66.0
 40
67.0
 40
67.0
 40
67.0
 40
68.0
 40
68.0
 40
68.0
 40
69.0
 40
69.0
 40
69.0
 40
70.0
 40
70.0
 40
70.0
 40
71.0
 40
71.0
 40
71.0
 40
72.0
 40
72.0
 40
72.0
 40
73.0
 40
73.0
 40
73.0
 40
74.0
 40
74.0
 40
74.0
 40
75.0
 40
75.0
 40
75.0
 40
76.0
 40
76.0
 40
76.0
 40
77.0
 40
77.0
 40
77.0
 40
78.0
 40
78.0
 40
78.0
 40
79.0
 40
79.0
 40
79.0
 40
80.0
 40
80.0
 40
80.0
 40
81.0
 40
81.0
 40
81.0
 40
82.0
 40
82.0
 40
82.0
 40
83.0
 40
83.0
 40
83.0
 40
84.0
 40
84.0
 40
84.0
 40
85.0
 40
85.0
 40
85.0
 40
86.0
 40
86.0
 40
86.0
 40
87.0
 40
87.0
 40
87.0
 40
88.0
 40
88.0
 40
88.0
 40
89.0
 40
89.0
 40
89.0
 40
90.0
 40
90.0
 40
90.0
 40
91.0
 40
91.0
 40
91.0
 40
92.0
 40
92.0
 40
92.0
 40
93.0
 40
93.0
 40
93.0
 40
94.0
 40
94.0
 40
94.0
 40
95.0
 40
95.0
 40
95.0
 40
96.0
 40
96.0
 40
96.0
 40
97.0
 40
97.0
 40
97.0
 40
98.0
 40
98.0
 40
98.0
 40
99.0
 40
99.0
 40
99.0
 40
100.0
 40
100.0
 40
100.0
 40
101.0
 40
101.0
 40
101.0
 40
102.0
 40
102.0
 40
102.0
 40
103.0
 40
103.0
 40
103.0
 40
104.0
 40
104.0
 40
104.0
 40
105.0
 40
105.0
 40
105.0
 40
106.0
 40
106.0
 40
106.0
 40
106.0
 10
113.8659040394832
 20
-131.5010210782357
 10
113.8659040394832
 20
-131.5010210782357
 10
89.12478772623723
 20
-140.4820377426573
 10
89.12478772623723
 20
-140.4820377426573
 10
89.12478772623723
 20
-140.4820377426573
 10
88.1171133075007
 20
-139.8643238539228
 10
88.1171133075007
 20
-139.8643238539228
 10
88.1171133075007
 20
-139.8643238539228
 10
87.90678720175546
 20
-140.8830402425568
 10
87.90678720175546
 20
-140.8830402425568
 10
87.90678720175546
 20
-140.8830402425568
 10
61.39641982253573
 20
-150.654032184559
 10
61.39641982253573
 20
-150.654032184559
 10
61.39641982253573
 20
-150.654032184559
 10
61.1261583180517
 20
-150.654032184559
 10
61.1261583180517
 20
-150.654032184559
 10
61.1261583180517
 20
-150.654032184559
 10
60.6000945650739
 20
-149.3796930182107
 10
60.6000945650739
 20
-149.3796930182107
 10
60.6000945650739
 20
-149.3796930182107
 10
60.6000945650739
 20
-147.8390419074846
 10
60.6000945650739
 20
-147.8390419074846
 10
60.6000945650739
 20
-147.8390419074846
 10
60.92221594574478
 20
-147.8390419074846
 10
60.92221594574478
 20
-147.8390419074846
 10
60.92221594574478
 20
-147.8390419074846
 10
60.73841872821162
 20
-147.6571496853082
 10
60.73841872821162
 20
-147.6571496853082
 10
60.73841872821162
 20
-147.6571496853082
 10
60.92221594574478
 20
-147.4745519075757
 10
60.92221594574478
 20
-147.4745519075757
 10
60.92221594574478
 20
-147.4745519075757
 10
60.73841872821162
 20
-147.2923069076216
 10
60.73841872821162
 20
-147.2923069076216
 10
60.73841872821162
 20
-147.2923069076216
 10
60.92221594574478
 20
-147.1093563521114
 10
60.92221594574478
 20
-147.1093563521114
 10
60.92221594574478
 20
-147.1093563521114
 10
60.73841872821162
 20
-146.9271113521573
 10
60.73841872821162
 20
-146.9271113521573
 10
60.73841872821162
 20
-146.9271113521573
 10
60.92221594574478
 20
-146.7448663522026
 10
60.92221594574478
 20
-146.7448663522026
 10
60.92221594574478
 20
-146.7448663522026
 10
60.73841872821162
 20
-146.5622685744707
 10
60.73841872821162
 20
-146.5622685744707
 10
60.73841872821162
 20
-146.5622685744707
 10
60.92221594574478
 20
-146.3807291300715
 10
60.92221594574478
 20
-146.3807291300715
 10
60.92221594574478
 20
-146.3807291300715
 10
60.73841872821162
 20
-146.1977785745619
 10
60.73841872821162
 20
-146.1977785745619
 10
60.73841872821162
 20
-146.1977785745619
 10
60.92221594574478
 20
-146.0155335746071
 10
60.92221594574478
 20
-146.0155335746071
 10
60.92221594574478
 20
-146.0155335746071
 10
60.73841872821162
 20
-145.8339941302079
 10
60.73841872821162
 20
-145.8339941302079
 10
60.73841872821162
 20
-145.8339941302079
 10
60.92221594574478
 20
-145.6521019080316
 10
60.92221594574478
 20
-145.6521019080316
 10
60.92221594574478
 20
-145.6521019080316
 10
60.73841872821162
 20
-145.4695041302991
 10
60.73841872821162
 20
-145.4695041302991
 10
60.73841872821162
 20
-145.4695041302991
 10
60.92221594574478
 20
-145.287259130345
 10
60.92221594574478
 20
-145.287259130345
 10
60.92221594574478
 20
-145.287259130345
 10
60.73841872821162
 20
-145.1050141303903
 10
60.73841872821162
 20
-145.1050141303903
 10
60.73841872821162
 20
-145.1050141303903
 10
60.92221594574478
 20
-144.9237921859913
 10
60.92221594574478
 20
-144.9237921859913
 10
60.92221594574478
 20
-144.9237921859913
 10
60.73841872821162
 20
-144.7418999638143
 10
60.73841872821162
 20
-144.7418999638143
 10
60.73841872821162
 20
-144.7418999638143
 10
60.92221594574478
 20
-144.560007741638
 10
60.92221594574478
 20
-144.560007741638
 10
60.92221594574478
 20
-144.560007741638
 10
60.73841872821162
 20
-144.3780802416835
 10
60.73841872821162
 20
-144.3780802416835
 10
60.73841872821162
 20
-144.3780802416835
 10
60.92221594574478
 20
-144.1958352417288
 10
60.92221594574478
 20
-144.1958352417288
 10
60.92221594574478
 20
-144.1958352417288
 10
60.73841872821162
 20
-144.0139430195518
 10
60.73841872821162
 20
-144.0139430195518
 10
60.73841872821162
 20
-144.0139430195518
 10
60.92221594574478
 20
-143.8316980195977
 10
60.92221594574478
 20
-143.8316980195977
 10
60.92221594574478
 20
-143.8316980195977
 10
60.73841872821162
 20
-143.6498057974208
 10
60.73841872821162
 20
-143.6498057974208
 10
60.73841872821162
 20
-143.6498057974208
 10
60.92221594574478
 20
-143.4685838530218
 10
60.92221594574478
 20
-143.4685838530218
 10
60.92221594574478
 20
-143.4685838530218
 10
60.73841872821162
 20
-143.2873619086228
 10
60.73841872821162
 20
-143.2873619086228
 10
60.73841872821162
 20
-143.2873619086228
 10
60.92221594574478
 20
-143.1061752420014
 10
60.92221594574478
 20
-143.1061752420014
 10
60.92221594574478
 20
-143.1061752420014
 10
60.73841872821162
 20
-142.9242477420469
 10
60.73841872821162
 20
-142.9242477420469
 10
60.73841872821162
 20
-142.9242477420469
 10
60.92221594574478
 20
-142.7423555198699
 10
60.92221594574478
 20
-142.7423555198699
 10
60.92221594574478
 20
-142.7423555198699
 10
60.73841872821162
 20
-142.5608160754707
 10
60.73841872821162
 20
-142.5608160754707
 10
60.73841872821162
 20
-142.5608160754707
 10
60.92221594574478
 20
-142.3785710755166
 10
60.92221594574478
 20
-142.3785710755166
 10
60.92221594574478
 20
-142.3785710755166
 10
60.73841872821162
 20
-142.1966435755621
 10
60.73841872821162
 20
-142.1966435755621
 10
60.73841872821162
 20
-142.1966435755621
 10
60.92221594574478
 20
-142.0140810756078
 10
60.92221594574478
 20
-142.0140810756078
 10
60.92221594574478
 20
-142.0140810756078
 10
60.73841872821162
 20
-141.8325063534311
 10
60.73841872821162
 20
-141.8325063534311
 10
60.73841872821162
 20
-141.8325063534311
 10
60.92221594574478
 20
-141.6506141312541
 10
60.92221594574478
 20
-141.6506141312541
 10
60.92221594574478
 20
-141.6506141312541
 10
60.73841872821162
 20
-141.4683691312993
 10
60.73841872821162
 20
-141.4683691312993
 10
60.73841872821162
 20
-141.4683691312993
 10
60.92221594574478
 20
-141.2871471869004
 10
60.92221594574478
 20
-141.2871471869004
 10
60.92221594574478
 20
-141.2871471869004
 10
60.73841872821162
 20
-141.1052549647234
 10
60.73841872821162
 20
-141.1052549647234
 10
60.73841872821162
 20
-141.1052549647234
 10
60.92221594574478
 20
-140.9226571869916
 10
60.92221594574478
 20
-140.9226571869916
 10
60.92221594574478
 20
-140.9226571869916
 10
60.73841872821162
 20
-140.7407649648146
 10
60.73841872821162
 20
-140.7407649648146
 10
60.73841872821162
 20
-140.7407649648146
 10
60.92221594574478
 20
-140.5588727426382
 10
60.92221594574478
 20
-140.5588727426382
 10
60.92221594574478
 20
-140.5588727426382
 10
60.73841872821162
 20
-140.3769452426837
 10
60.73841872821162
 20
-140.3769452426837
 10
60.73841872821162
 20
-140.3769452426837
 10
60.92221594574478
 20
-140.1957585760623
 10
60.92221594574478
 20
-140.1957585760623
 10
60.92221594574478
 20
-140.1957585760623
 10
60.73841872821162
 20
-140.0131607983298
 10
60.73841872821162
 20
-140.0131607983298
 10
60.73841872821162
 20
-140.0131607983298
 10
60.92221594574478
 20
-139.8312685761535
 10
60.92221594574478
 20
-139.8312685761535
 10
60.92221594574478
 20
-139.8312685761535
 10
60.73841872821162
 20
-139.6500466317539
 10
60.73841872821162
 20
-139.6500466317539
 10
60.73841872821162
 20
-139.6500466317539
 10
60.92221594574478
 20
-139.467448854022
 10
60.92221594574478
 20
-139.467448854022
 10
60.92221594574478
 20
-139.467448854022
 10
60.73841872821162
 20
-139.2859094096228
 10
60.73841872821162
 20
-139.2859094096228
 10
60.73841872821162
 20
-139.2859094096228
 10
60.92221594574478
 20
-139.1039819096683
 10
60.92221594574478
 20
-139.1039819096683
 10
60.92221594574478
 20
-139.1039819096683
 10
60.73841872821162
 20
-138.9217369097142
 10
60.73841872821162
 20
-138.9217369097142
 10
60.73841872821162
 20
-138.9217369097142
 10
60.92221594574478
 20
-138.7398446875372
 10
60.92221594574478
 20
-138.7398446875372
 10
60.92221594574478
 20
-138.7398446875372
 10
60.73841872821162
 20
-138.5579524653603
 10
60.73841872821162
 20
-138.5579524653603
 10
60.73841872821162
 20
-138.5579524653603
 10
60.92221594574478
 20
-138.3767305209613
 10
60.92221594574478
 20
-138.3767305209613
 10
60.92221594574478
 20
-138.3767305209613
 10
60.73841872821162
 20
-138.1948382987843
 10
60.73841872821162
 20
-138.1948382987843
 10
60.73841872821162
 20
-138.1948382987843
 10
60.92221594574478
 20
-138.0136163543854
 10
60.92221594574478
 20
-138.0136163543854
 10
60.92221594574478
 20
-138.0136163543854
 10
60.73841872821162
 20
-137.831724132209
 10
60.73841872821162
 20
-137.831724132209
 10
60.73841872821162
 20
-137.831724132209
 10
60.92221594574478
 20
-137.6505021878094
 10
60.92221594574478
 20
-137.6505021878094
 10
60.92221594574478
 20
-137.6505021878094
 10
60.73841872821162
 20
-137.4686099656331
 10
60.73841872821162
 20
-137.4686099656331
 10
60.73841872821162
 20
-137.4686099656331
 10
60.92221594574478
 20
-137.2867177434561
 10
60.92221594574478
 20
-137.2867177434561
 10
60.92221594574478
 20
-137.2867177434561
 10
60.73841872821162
 20
-137.1048255212791
 10
60.73841872821162
 20
-137.1048255212791
 10
60.73841872821162
 20
-137.1048255212791
 10
60.92221594574478
 20
-136.9228980213247
 10
60.92221594574478
 20
-136.9228980213247
 10
60.92221594574478
 20
-136.9228980213247
 10
60.73841872821162
 20
-136.7410057991483
 10
60.73841872821162
 20
-136.7410057991483
 10
60.73841872821162
 20
-136.7410057991483
 10
60.92221594574478
 20
-136.5591135769714
 10
60.92221594574478
 20
-136.5591135769714
 10
60.92221594574478
 20
-136.5591135769714
 10
60.73841872821162
 20
-136.3772213547944
 10
60.73841872821162
 20
-136.3772213547944
 10
60.73841872821162
 20
-136.3772213547944
 10
60.92221594574478
 20
-136.1956466326177
 10
60.92221594574478
 20
-136.1956466326177
 10
60.92221594574478
 20
-136.1956466326177
 10
60.73841872821162
 20
-136.0141071882184
 10
60.73841872821162
 20
-136.0141071882184
 10
60.73841872821162
 20
-136.0141071882184
 10
60.92221594574478
 20
-135.8325324660417
 10
60.92221594574478
 20
-135.8325324660417
 10
60.92221594574478
 20
-135.8325324660417
 10
60.73841872821162
 20
-135.6506402438654
 10
60.73841872821162
 20
-135.6506402438654
 10
60.73841872821162
 20
-135.6506402438654
 10
60.92221594574478
 20
-135.469065521688
 10
60.92221594574478
 20
-135.469065521688
 10
60.92221594574478
 20
-135.469065521688
 10
60.73841872821162
 20
-135.2875260772894
 10
60.73841872821162
 20
-135.2875260772894
 10
60.73841872821162
 20
-135.2875260772894
 10
60.92221594574478
 20
-135.1059513551127
 10
60.92221594574478
 20
-135.1059513551127
 10
60.92221594574478
 20
-135.1059513551127
 10
60.73841872821162
 20
-134.9247646884913
 10
60.73841872821162
 20
-134.9247646884913
 10
60.73841872821162
 20
-134.9247646884913
 10
60.92221594574478
 20
-134.7435427440917
 10
60.92221594574478
 20
-134.7435427440917
 10
60.92221594574478
 20
-134.7435427440917
 10
60.73841872821162
 20
-134.5623207996927
 10
60.73841872821162
 20
-134.5623207996927
 10
60.73841872821162
 20
-134.5623207996927
 10
60.92221594574478
 20
-134.3804285775157
 10
60.92221594574478
 20
-134.3804285775157
 10
60.92221594574478
 20
-134.3804285775157
 10
60.73841872821162
 20
-134.1985363553394
 10
60.73841872821162
 20
-134.1985363553394
 10
60.73841872821162
 20
-134.1985363553394
 10
60.92221594574478
 20
-134.0173144109404
 10
60.92221594574478
 20
-134.0173144109404
 10
60.92221594574478
 20
-134.0173144109404
 10
60.73841872821162
 20
-133.8357749665412
 10
60.73841872821162
 20
-133.8357749665412
 10
60.73841872821162
 20
-133.8357749665412
 10
60.92221594574478
 20
-133.6538474665867
 10
60.92221594574478
 20
-133.6538474665867
 10
60.92221594574478
 20
-133.6538474665867
 10
60.73841872821162
 20
-133.4723080221875
 10
60.73841872821162
 20
-133.4723080221875
 10
60.73841872821162
 20
-133.4723080221875
 10
60.92221594574478
 20
-133.2897102444556
 10
60.92221594574478
 20
-133.2897102444556
 10
60.92221594574478
 20
-133.2897102444556
 10
60.73841872821162
 20
-133.1084883000561
 10
60.73841872821162
 20
-133.1084883000561
 10
60.73841872821162
 20
-133.1084883000561
 10
60.92221594574478
 20
-132.9265960778797
 10
60.92221594574478
 20
-132.9265960778797
 10
60.92221594574478
 20
-132.9265960778797
 10
60.73841872821162
 20
-132.7453741334801
 10
60.73841872821162
 20
-132.7453741334801
 10
60.73841872821162
 20
-132.7453741334801
 10
60.92221594574478
 20
-132.5634819113038
 10
60.92221594574478
 20
-132.5634819113038
 10
60.92221594574478
 20
-132.5634819113038
 10
60.73841872821162
 20
-132.3822599669042
 10
60.73841872821162
 20
-132.3822599669042
 10
60.73841872821162
 20
-132.3822599669042
 10
60.92221594574478
 20
-132.2007205225056
 10
60.92221594574478
 20
-132.2007205225056
 10
60.92221594574478
 20
-132.2007205225056
 10
60.73841872821162
 20
-132.0191458003289
 10
60.73841872821162
 20
-132.0191458003289
 10
60.73841872821162
 20
-132.0191458003289
 10
60.92221594574478
 20
-131.8379591337074
 10
60.92221594574478
 20
-131.8379591337074
 10
60.92221594574478
 20
-131.8379591337074
 10
60.73841872821162
 20
-131.6567371893078
 10
60.73841872821162
 20
-131.6567371893078
 10
60.73841872821162
 20
-131.6567371893078
 10
60.92221594574478
 20
-131.4755152449088
 10
60.92221594574478
 20
-131.4755152449088
 10
60.92221594574478
 20
-131.4755152449088
 10
60.73841872821162
 20
-131.2943285782874
 10
60.73841872821162
 20
-131.2943285782874
 10
60.73841872821162
 20
-131.2943285782874
 10
60.92221594574478
 20
-131.1131066338884
 10
60.92221594574478
 20
-131.1131066338884
 10
60.92221594574478
 20
-131.1131066338884
 10
60.6000945650739
 20
-131.1131066338884
 10
60.6000945650739
 20
-131.1131066338884
 10
60.6000945650739
 20
-131.1131066338884
 10
60.6000945650739
 20
-129.6540883009198
 10
60.6000945650739
 20
-129.6540883009198
 10
60.6000945650739
 20
-129.6540883009198
 10
113.2227196114478
 20
-110.5007596945969
 10
113.2227196114478
 20
-110.5007596945969
 10
113.7301904318344
 20
-110.5007596945969
 10
114.1415293102292
 20
-110.9131216389385
 10
114.1415293102292
 20
-111.4216155277001
 10
114.1415293102292
 20
-111.4216155277001
 10
114.1415293102292
 20
-131.2247255227493
 10
114.1415293102292
 20
-131.2247255227493
 10
114.1415293102292
 20
-131.3773371893778
 10
114.0181982022645
 20
-131.5010210782357
 10
113.8659040394832
 20
-131.5010210782357
 97
        0
 97
        0
 75
     2
 76
     1
 98
        0
  0
INSERT
  5
48
330
41
100
AcDbEntity
  8
_U+30EC_U+30A4_U+30E4_U+30FC 1
100
AcDbBlockReference
  2
block 3
 10
0.0
 20
0.0
 30
0.0
  0
INSERT
  5
EA
330
41
100
AcDbEntity
  8
_U+30EC_U+30A4_U+30E4_U+30FC 1
100
AcDbBlockReference
  2
block 6
 10
0.0
 20
0.0
 30
0.0
  0
ENDBLK
  5
44
330
41
100
AcDbEntity
  8
0
100
AcDbBlockEnd
  0
BLOCK
  5
49
330
47
100
AcDbEntity
  8
0
100
AcDbBlockBegin
  2
block 3
 70
     0
 10
0.0
 20
0.0
 30
0.0
  3
block 3
  1

  0
INSERT
  5
4C
330
47
100
AcDbEntity
  8
_U+30EC_U+30A4_U+30E4_U+30FC 1
100
AcDbBlockReference
  2
block 4
 10
0.0
 20
0.0
 30
0.0
  0
INSERT
  5
C2
330
47
100
AcDbEntity
  8
_U+30EC_U+30A4_U+30E4_U+30FC 1
100
AcDbBlockReference
  2
block 5
 10
0.0
 20
0.0
 30
0.0
  0
POLYLINE
  5
CB
330
47
100
AcDbEntity
  8
_U+30EC_U+30A4_U+30E4_U+30FC 1
 62
   179
420
  2234388
370
    25
100
AcDb2dPolyline
 66
     1
 10
0.0
 20
0.0
 30
0.0
  0
VERTEX
  5
CC
330
CB
100
AcDbEntity
  8
_U+30EC_U+30A4_U+30E4_U+30FC 1
 62
   179
420
  2234388
370
    25
100
AcDbVertex
100
AcDb2dVertex
 10
60.6000945650739
 20
-129.6540883009198
 30
0.0
  0
VERTEX
  5
CD
330
CB
100
AcDbEntity
  8
_U+30EC_U+30A4_U+30E4_U+30FC 1
 62
   179
420
  2234388
370
    25
100
AcDbVertex
100
AcDb2dVertex
 10
113.2227196114478
 20
-110.5007596945969
 30
0.0
  0
SEQEND
  5
CE
330
CB
100
AcDbEntity
  8
_U+30EC_U+30A4_U+30E4_U+30FC 1
 62
   179
420
  2234388
370
    25
  0
POLYLINE
  5
CF
330
47
100
AcDbEntity
  8
_U+30EC_U+30A4_U+30E4_U+30FC 1
 62
   179
420
  2234388
370
    25
100
AcDb2dPolyline
 66
     1
 10
0.0
 20
0.0
 30
0.0
  0
VERTEX
  5
D0
330
CF
100
AcDbEntity
  8
_U+30EC_U+30A4_U+30E4_U+30FC 1
 62
   179
420
  2234388
370
    25
100
AcDbVertex
100
AcDb2dVertex
 10
61.67186870439733
 20
-130.2725077452099
 30
0.0
  0
VERTEX
  5
D1
330
CF
100
AcDbEntity
  8
_U+30EC_U+30A4_U+30E4_U+30FC 1
 62
   179
420
  2234388
370
    25
100
AcDbVertex
100
AcDb2dVertex
 10
87.90678720175546
 20
-120.7781641364721
 30
0.0
  0
VERTEX
  5
D2
330
CF
100
AcDbEntity
  8
_U+30EC_U+30A4_U+30E4_U+30FC 1
 62
   179
420
  2234388
370
    25
100
AcDbVertex
100
AcDb2dVertex
 10
88.1171133075007
 20
-119.7594477478378
 30
0.0
  0
VERTEX
  5
D3
330
CF
100
AcDbEntity
  8
_U+30EC_U+30A4_U+30E4_U+30FC 1
 62
   179
420
  2234388
370
    25
100
AcDbVertex
100
AcDb2dVertex
 10
89.12478772623723
 20
-120.3771616365724
 30
0.0
  0
VERTEX
  5
D4
330
CF
100
AcDbEntity
  8
_U+30EC_U+30A4_U+30E4_U+30FC 1
 62
   179
420
  2234388
370
    25
100
AcDbVertex
100
AcDb2dVertex
 10
114.141882087998
 20
-111.2576444166301
 30
0.0
  0
SEQEND
  5
D5
330
CF
100
AcDbEntity
  8
_U+30EC_U+30A4_U+30E4_U+30FC 1
 62
   179
420
  2234388
370
    25
  0
POLYLINE
  5
D6
330
47
100
AcDbEntity
  8
_U+30EC_U+30A4_U+30E4_U+30FC 1
 62
   179
420
  2234388
370
    25
100
AcDb2dPolyline
 66
     1
 10
0.0
 20
0.0
 30
0.0
  0
VERTEX
  5
D7
330
D6
100
AcDbEntity
  8
_U+30EC_U+30A4_U+30E4_U+30FC 1
 62
   179
420
  2234388
370
    25
100
AcDbVertex
100
AcDb2dVertex
 10
61.39641982253573
 20
-150.654032184559
 30
0.0
  0
VERTEX
  5
D8
330
D6
100
AcDbEntity
  8
_U+30EC_U+30A4_U+30E4_U+30FC 1
 62
   179
420
  2234388
370
    25
100
AcDbVertex
100
AcDb2dVertex
 10
87.90678720175546
 20
-140.8830402425568
 30
0.0
  0
VERTEX
  5
D9
330
D6
100
AcDbEntity
  8
_U+30EC_U+30A4_U+30E4_U+30FC 1
 62
   179
420
  2234388
370
    25
100
AcDbVertex
100
AcDb2dVertex
 10
88.1171133075007
 20
-139.8643238539228
 30
0.0
  0
VERTEX
  5
DA
330
D6
100
AcDbEntity
  8
_U+30EC_U+30A4_U+30E4_U+30FC 1
 62
   179
420
  2234388
370
    25
100
AcDbVertex
100
AcDb2dVertex
 10
89.12478772623723
 20
-140.4820377426573
 30
0.0
  0
VERTEX
  5
DB
330
D6
100
AcDbEntity
  8
_U+30EC_U+30A4_U+30E4_U+30FC 1
 62
   179
420
  2234388
370
    25
100
AcDbVertex
100
AcDb2dVertex
 10
113.7894218192122
 20
-131.5347819115606
 30
0.0
  0
SEQEND
  5
DC
330
D6
100
AcDbEntity
  8
_U+30EC_U+30A4_U+30E4_U+30FC 1
 62
   179
420
  2234388
370
    25
  0
POLYLINE
  5
DD
330
47
100
AcDbEntity
  8
_U+30EC_U+30A4_U+30E4_U+30FC 1
 62
   179
420
  2234388
370
    25
100
AcDb2dPolyline
 66
     1
 10
0.0
 20
0.0
 30
0.0
  0
VERTEX
  5
DE
330
DD
100
AcDbEntity
  8
_U+30EC_U+30A4_U+30E4_U+30FC 1
 62
   179
420
  2234388
370
    25
100
AcDbVertex
100
AcDb2dVertex
 10
87.90678720175546
 20
-120.7781641364721
 30
0.0
  0
VERTEX
  5
DF
330
DD
100
AcDbEntity
  8
_U+30EC_U+30A4_U+30E4_U+30FC 1
 62
   179
420
  2234388
370
    25
100
AcDbVertex
100
AcDb2dVertex
 10
87.90678720175546
 20
-140.8830402425568
 30
0.0
  0
SEQEND
  5
E0
330
DD
100
AcDbEntity
  8
_U+30EC_U+30A4_U+30E4_U+30FC 1
 62
   179
420
  2234388
370
    25
  0
POLYLINE
  5
E1
330
47
100
AcDbEntity
  8
_U+30EC_U+30A4_U+30E4_U+30FC 1
 62
   179
420
  2234388
370
    25
100
AcDb2dPolyline
 66
     1
 10
0.0
 20
0.0
 30
0.0
  0
VERTEX
  5
E2
330
E1
100
AcDbEntity
  8
_U+30EC_U+30A4_U+30E4_U+30FC 1
 62
   179
420
  2234388
370
    25
100
AcDbVertex
100
AcDb2dVertex
 10
89.12478772623723
 20
-120.3771616365724
 30
0.0
  0
VERTEX
  5
E3
330
E1
100
AcDbEntity
  8
_U+30EC_U+30A4_U+30E4_U+30FC 1
 62
   179
420
  2234388
370
    25
100
AcDbVertex
100
AcDb2dVertex
 10
89.12478772623723
 20
-140.4820377426573
 30
0.0
  0
SEQEND
  5
E4
330
E1
100
AcDbEntity
  8
_U+30EC_U+30A4_U+30E4_U+30FC 1
 62
   179
420
  2234388
370
    25
  0
POLYLINE
  5
E5
330
47
100
AcDbEntity
  8
_U+30EC_U+30A4_U+30E4_U+30FC 1
 62
   179
420
  2234388
370
    25
100
AcDb2dPolyline
 66
     1
 10
0.0
 20
0.0
 30
0.0
  0
VERTEX
  5
E6
330
E5
100
AcDbEntity
  8
_U+30EC_U+30A4_U+30E4_U+30FC 1
 62
   179
420
  2234388
370
    25
100
AcDbVertex
100
AcDb2dVertex
 10
88.1171133075007
 20
-119.7594477478378
 30
0.0
  0
VERTEX
  5
E7
330
E5
100
AcDbEntity
  8
_U+30EC_U+30A4_U+30E4_U+30FC 1
 62
   179
420
  2234388
370
    25
100
AcDbVertex
100
AcDb2dVertex
 10
88.1171133075007
 20
-139.8643238539228
 30
0.0
  0
SEQEND
  5
E8
330
E5
100
AcDbEntity
  8
_U+30EC_U+30A4_U+30E4_U+30FC 1
 62
   179
420
  2234388
370
    25
  0
ENDBLK
  5
4A
330
47
100
AcDbEntity
  8
0
100
AcDbBlockEnd
  0
BLOCK
  5
4D
330
4B
100
AcDbEntity
  8
0
100
AcDbBlockBegin
  2
block 4
 70
     0
 10
0.0
 20
0.0
 30
0.0
  3
block 4
  1

  0
POLYLINE
  5
4F
330
4B
100
AcDbEntity
  8
_U+30EC_U+30A4_U+30E4_U+30FC 1
 62
   179
420
  2234388
370
    25
100
AcDb2dPolyline
 66
     1
 10
0.0
 20
0.0
 30
0.0
  0
VERTEX
  5
50
330
4F
100
AcDbEntity
  8
_U+30EC_U+30A4_U+30E4_U+30FC 1
 62
   179
420
  2234388
370
    25
100
AcDbVertex
100
AcDb2dVertex
 10
60.92221594574478
 20
-131.1131066338884
 30
0.0
  0
VERTEX
  5
51
330
4F
100
AcDbEntity
  8
_U+30EC_U+30A4_U+30E4_U+30FC 1
 62
   179
420
  2234388
370
    25
100
AcDbVertex
100
AcDb2dVertex
 10
60.73841872821162
 20
-131.2943285782874
 30
0.0
  0
VERTEX
  5
52
330
4F
100
AcDbEntity
  8
_U+30EC_U+30A4_U+30E4_U+30FC 1
 62
   179
420
  2234388
370
    25
100
AcDbVertex
100
AcDb2dVertex
 10
60.92221594574478
 20
-131.4755152449088
 30
0.0
  0
VERTEX
  5
53
330
4F
100
AcDbEntity
  8
_U+30EC_U+30A4_U+30E4_U+30FC 1
 62
   179
420
  2234388
370
    25
100
AcDbVertex
100
AcDb2dVertex
 10
60.73841872821162
 20
-131.6567371893078
 30
0.0
  0
VERTEX
  5
54
330
4F
100
AcDbEntity
  8
_U+30EC_U+30A4_U+30E4_U+30FC 1
 62
   179
420
  2234388
370
    25
100
AcDbVertex
100
AcDb2dVertex
 10
60.92221594574478
 20
-131.8379591337074
 30
0.0
  0
VERTEX
  5
55
330
4F
100
AcDbEntity
  8
_U+30EC_U+30A4_U+30E4_U+30FC 1
 62
   179
420
  2234388
370
    25
100
AcDbVertex
100
AcDb2dVertex
 10
60.73841872821162
 20
-132.0191458003289
 30
0.0
  0
VERTEX
  5
56
330
4F
100
AcDbEntity
  8
_U+30EC_U+30A4_U+30E4_U+30FC 1
 62
   179
420
  2234388
370
    25
100
AcDbVertex
100
AcDb2dVertex
 10
60.92221594574478
 20
-132.2007205225056
 30
0.0
  0
VERTEX
  5
57
330
4F
100
AcDbEntity
  8
_U+30EC_U+30A4_U+30E4_U+30FC 1
 62
   179
420
  2234388
370
    25
100
AcDbVertex
100
AcDb2dVertex
 10
60.73841872821162
 20
-132.3822599669042
 30
0.0
  0
VERTEX
  5
58
330
4F
100
AcDbEntity
  8
_U+30EC_U+30A4_U+30E4_U+30FC 1
 62
   179
420
  2234388
370
    25
100
AcDbVertex
100
AcDb2dVertex
 10
60.92221594574478
 20
-132.5634819113038
 30
0.0
  0
VERTEX
  5
59
330
4F
100
AcDbEntity
  8
_U+30EC_U+30A4_U+30E4_U+30FC 1
 62
   179
420
  2234388
370
    25
100
AcDbVertex
100
AcDb2dVertex
 10
60.73841872821162
 20
-132.7453741334801
 30
0.0
  0
VERTEX
  5
5A
330
4F
100
AcDbEntity
  8
_U+30EC_U+30A4_U+30E4_U+30FC 1
 62
   179
420
  2234388
370
    25
100
AcDbVertex
100
AcDb2dVertex
 10
60.92221594574478
 20
-132.9265960778797
 30
0.0
  0
VERTEX
  5
5B
330
4F
100
AcDbEntity
  8
_U+30EC_U+30A4_U+30E4_U+30FC 1
 62
   179
420
  2234388
370
    25
100
AcDbVertex
100
AcDb2dVertex
 10
60.73841872821162
 20
-133.1084883000561
 30
0.0
  0
VERTEX
  5
5C
330
4F
100
AcDbEntity
  8
_U+30EC_U+30A4_U+30E4_U+30FC 1
 62
   179
420
  2234388
370
    25
100
AcDbVertex
100
AcDb2dVertex
 10
60.92221594574478
 20
-133.2897102444556
 30
0.0
  0
VERTEX
  5
5D
330
4F
100
AcDbEntity
  8
_U+30EC_U+30A4_U+30E4_U+30FC 1
 62
   179
420
  2234388
370
    25
100
AcDbVertex
100
AcDb2dVertex
 10
60.73841872821162
 20
-133.4723080221875
 30
0.0
  0
VERTEX
  5
5E
330
4F
100
AcDbEntity
  8
_U+30EC_U+30A4_U+30E4_U+30FC 1
 62
   179
420
  2234388
370
    25
100
AcDbVertex
100
AcDb2dVertex
 10
60.92221594574478
 20
-133.6538474665867
 30
0.0
  0
VERTEX
  5
5F
330
4F
100
AcDbEntity
  8
_U+30EC_U+30A4_U+30E4_U+30FC 1
 62
   179
420
  2234388
370
    25
100
AcDbVertex
100
AcDb2dVertex
 10
60.73841872821162
 20
-133.8357749665412
 30
0.0
  0
VERTEX
  5
60
330
4F
100
AcDbEntity
  8
_U+30EC_U+30A4_U+30E4_U+30FC 1
 62
   179
420
  2234388
370
    25
100
AcDbVertex
100
AcDb2dVertex
 10
60.92221594574478
 20
-134.0173144109404
 30
0.0
  0
VERTEX
  5
61
330
4F
100
AcDbEntity
  8
_U+30EC_U+30A4_U+30E4_U+30FC 1
 62
   179
420
  2234388
370
    25
100
AcDbVertex
100
AcDb2dVertex
 10
60.73841872821162
 20
-134.1985363553394
 30
0.0
  0
VERTEX
  5
62
330
4F
100
AcDbEntity
  8
_U+30EC_U+30A4_U+30E4_U+30FC 1
 62
   179
420
  2234388
370
    25
100
AcDbVertex
100
AcDb2dVertex
 10
60.92221594574478
 20
-134.3804285775157
 30
0.0
  0
VERTEX
  5
63
330
4F
100
AcDbEntity
  8
_U+30EC_U+30A4_U+30E4_U+30FC 1
 62
   179
420
  2234388
370
    25
100
AcDbVertex
100
AcDb2dVertex
 10
60.73841872821162
 20
-134.5623207996927
 30
0.0
  0
VERTEX
  5
64
330
4F
100
AcDbEntity
  8
_U+30EC_U+30A4_U+30E4_U+30FC 1
 62
   179
420
  2234388
370
    25
100
AcDbVertex
100
AcDb2dVertex
 10
60.92221594574478
 20
-134.7435427440917
 30
0.0
  0
VERTEX
  5
65
330
4F
100
AcDbEntity
  8
_U+30EC_U+30A4_U+30E4_U+30FC 1
 62
   179
420
  2234388
370
    25
100
AcDbVertex
100
AcDb2dVertex
 10
60.73841872821162
 20
-134.9247646884913
 30
0.0
  0
VERTEX
  5
66
330
4F
100
AcDbEntity
  8
_U+30EC_U+30A4_U+30E4_U+30FC 1
 62
   179
420
  2234388
370
    25
100
AcDbVertex
100
AcDb2dVertex
 10
60.92221594574478
 20
-135.1059513551127
 30
0.0
  0
VERTEX
  5
67
330
4F
100
AcDbEntity
  8
_U+30EC_U+30A4_U+30E4_U+30FC 1
 62
   179
420
  2234388
370
    25
100
AcDbVertex
100
AcDb2dVertex
 10
60.73841872821162
 20
-135.2875260772894
 30
0.0
  0
VERTEX
  5
68
330
4F
100
AcDbEntity
  8
_U+30EC_U+30A4_U+30E4_U+30FC 1
 62
   179
420
  2234388
370
    25
100
AcDbVertex
100
AcDb2dVertex
 10
60.92221594574478
 20
-135.469065521688
 30
0.0
  0
VERTEX
  5
69
330
4F
100
AcDbEntity
  8
_U+30EC_U+30A4_U+30E4_U+30FC 1
 62
   179
420
  2234388
370
    25
100
AcDbVertex
100
AcDb2dVertex
 10
60.73841872821162
 20
-135.6506402438654
 30
0.0
  0
VERTEX
  5
6A
330
4F
100
AcDbEntity
  8
_U+30EC_U+30A4_U+30E4_U+30FC 1
 62
   179
420
  2234388
370
    25
100
AcDbVertex
100
AcDb2dVertex
 10
60.92221594574478
 20
-135.8325324660417
 30
0.0
  0
VERTEX
  5
6B
330
4F
100
AcDbEntity
  8
_U+30EC_U+30A4_U+30E4_U+30FC 1
 62
   179
420
  2234388
370
    25
100
AcDbVertex
100
AcDb2dVertex
 10
60.73841872821162
 20
-136.0141071882184
 30
0.0
  0
VERTEX
  5
6C
330
4F
100
AcDbEntity
  8
_U+30EC_U+30A4_U+30E4_U+30FC 1
 62
   179
420
  2234388
370
    25
100
AcDbVertex
100
AcDb2dVertex
 10
60.92221594574478
 20
-136.1956466326177
 30
0.0
  0
VERTEX
  5
6D
330
4F
100
AcDbEntity
  8
_U+30EC_U+30A4_U+30E4_U+30FC 1
 62
   179
420
  2234388
370
    25
100
AcDbVertex
100
AcDb2dVertex
 10
60.73841872821162
 20
-136.3772213547944
 30
0.0
  0
VERTEX
  5
6E
330
4F
100
AcDbEntity
  8
_U+30EC_U+30A4_U+30E4_U+30FC 1
 62
   179
420
  2234388
370
    25
100
AcDbVertex
100
AcDb2dVertex
 10
60.92221594574478
 20
-136.5591135769714
 30
0.0
  0
VERTEX
  5
6F
330
4F
100
AcDbEntity
  8
_U+30EC_U+30A4_U+30E4_U+30FC 1
 62
   179
420
  2234388
370
    25
100
AcDbVertex
100
AcDb2dVertex
 10
60.73841872821162
 20
-136.7410057991483
 30
0.0
  0
VERTEX
  5
70
330
4F
100
AcDbEntity
  8
_U+30EC_U+30A4_U+30E4_U+30FC 1
 62
   179
420
  2234388
370
    25
100
AcDbVertex
100
AcDb2dVertex
 10
60.92221594574478
 20
-136.9228980213247
 30
0.0
  0
VERTEX
  5
71
330
4F
100
AcDbEntity
  8
_U+30EC_U+30A4_U+30E4_U+30FC 1
 62
   179
420
  2234388
370
    25
100
AcDbVertex
100
AcDb2dVertex
 10
60.73841872821162
 20
-137.1048255212791
 30
0.0
  0
VERTEX
  5
72
330
4F
100
AcDbEntity
  8
_U+30EC_U+30A4_U+30E4_U+30FC 1
 62
   179
420
  2234388
370
    25
100
AcDbVertex
100
AcDb2dVertex
 10
60.92221594574478
 20
-137.2867177434561
 30
0.0
  0
VERTEX
  5
73
330
4F
100
AcDbEntity
  8
_U+30EC_U+30A4_U+30E4_U+30FC 1
 62
   179
420
  2234388
370
    25
100
AcDbVertex
100
AcDb2dVertex
 10
60.73841872821162
 20
-137.4686099656331
 30
0.0
  0
VERTEX
  5
74
330
4F
100
AcDbEntity
  8
_U+30EC_U+30A4_U+30E4_U+30FC 1
 62
   179
420
  2234388
370
    25
100
AcDbVertex
100
AcDb2dVertex
 10
60.92221594574478
 20
-137.6505021878094
 30
0.0
  0
VERTEX
  5
75
330
4F
100
AcDbEntity
  8
_U+30EC_U+30A4_U+30E4_U+30FC 1
 62
   179
420
  2234388
370
    25
100
AcDbVertex
100
AcDb2dVertex
 10
60.73841872821162
 20
-137.831724132209
 30
0.0
  0
VERTEX
  5
76
330
4F
100
AcDbEntity
  8
_U+30EC_U+30A4_U+30E4_U+30FC 1
 62
   179
420
  2234388
370
    25
100
AcDbVertex
100
AcDb2dVertex
 10
60.92221594574478
 20
-138.0136163543854
 30
0.0
  0
VERTEX
  5
77
330
4F
100
AcDbEntity
  8
_U+30EC_U+30A4_U+30E4_U+30FC 1
 62
   179
420
  2234388
370
    25
100
AcDbVertex
100
AcDb2dVertex
 10
60.73841872821162
 20
-138.1948382987843
 30
0.0
  0
VERTEX
  5
78
330
4F
100
AcDbEntity
  8
_U+30EC_U+30A4_U+30E4_U+30FC 1
 62
   179
420
  2234388
370
    25
100
AcDbVertex
100
AcDb2dVertex
 10
60.92221594574478
 20
-138.3767305209613
 30
0.0
  0
VERTEX
  5
79
330
4F
100
AcDbEntity
  8
_U+30EC_U+30A4_U+30E4_U+30FC 1
 62
   179
420
  2234388
370
    25
100
AcDbVertex
100
AcDb2dVertex
 10
60.73841872821162
 20
-138.5579524653603
 30
0.0
  0
VERTEX
  5
7A
330
4F
100
AcDbEntity
  8
_U+30EC_U+30A4_U+30E4_U+30FC 1
 62
   179
420
  2234388
370
    25
100
AcDbVertex
100
AcDb2dVertex
 10
60.92221594574478
 20
-138.7398446875372
 30
0.0
  0
VERTEX
  5
7B
330
4F
100
AcDbEntity
  8
_U+30EC_U+30A4_U+30E4_U+30FC 1
 62
   179
420
  2234388
370
    25
100
AcDbVertex
100
AcDb2dVertex
 10
60.73841872821162
 20
-138.9217369097142
 30
0.0
  0
VERTEX
  5
7C
330
4F
100
AcDbEntity
  8
_U+30EC_U+30A4_U+30E4_U+30FC 1
 62
   179
420
  2234388
370
    25
100
AcDbVertex
100
AcDb2dVertex
 10
60.92221594574478
 20
-139.1039819096683
 30
0.0
  0
VERTEX
  5
7D
330
4F
100
AcDbEntity
  8
_U+30EC_U+30A4_U+30E4_U+30FC 1
 62
   179
420
  2234388
370
    25
100
AcDbVertex
100
AcDb2dVertex
 10
60.73841872821162
 20
-139.2859094096228
 30
0.0
  0
VERTEX
  5
7E
330
4F
100
AcDbEntity
  8
_U+30EC_U+30A4_U+30E4_U+30FC 1
 62
   179
420
  2234388
370
    25
100
AcDbVertex
100
AcDb2dVertex
 10
60.92221594574478
 20
-139.467448854022
 30
0.0
  0
VERTEX
  5
7F
330
4F
100
AcDbEntity
  8
_U+30EC_U+30A4_U+30E4_U+30FC 1
 62
   179
420
  2234388
370
    25
100
AcDbVertex
100
AcDb2dVertex
 10
60.73841872821162
 20
-139.6500466317539
 30
0.0
  0
VERTEX
  5
80
330
4F
100
AcDbEntity
  8
_U+30EC_U+30A4_U+30E4_U+30FC 1
 62
   179
420
  2234388
370
    25
100
AcDbVertex
100
AcDb2dVertex
 10
60.92221594574478
 20
-139.8312685761535
 30
0.0
  0
VERTEX
  5
81
330
4F
100
AcDbEntity
  8
_U+30EC_U+30A4_U+30E4_U+30FC 1
 62
   179
420
  2234388
370
    25
100
AcDbVertex
100
AcDb2dVertex
 10
60.73841872821162
 20
-140.0131607983298
 30
0.0
  0
VERTEX
  5
82
330
4F
100
AcDbEntity
  8
_U+30EC_U+30A4_U+30E4_U+30FC 1
 62
   179
420
  2234388
370
    25
100
AcDbVertex
100
AcDb2dVertex
 10
60.92221594574478
 20
-140.1957585760623
 30
0.0
  0
VERTEX
  5
83
330
4F
100
AcDbEntity
  8
_U+30EC_U+30A4_U+30E4_U+30FC 1
 62
   179
420
  2234388
370
    25
100
AcDbVertex
100
AcDb2dVertex
 10
60.73841872821162
 20
-140.3769452426837
 30
0.0
  0
VERTEX
  5
84
330
4F
100
AcDbEntity
  8
_U+30EC_U+30A4_U+30E4_U+30FC 1
 62
   179
420
  2234388
370
    25
100
AcDbVertex
100
AcDb2dVertex
 10
60.92221594574478
 20
-140.5588727426382
 30
0.0
  0
VERTEX
  5
85
330
4F
100
AcDbEntity
  8
_U+30EC_U+30A4_U+30E4_U+30FC 1
 62
   179
420
  2234388
370
    25
100
AcDbVertex
100
AcDb2dVertex
 10
60.73841872821162
 20
-140.7407649648146
 30
0.0
  0
VERTEX
  5
86
330
4F
100
AcDbEntity
  8
_U+30EC_U+30A4_U+30E4_U+30FC 1
 62
   179
420
  2234388
370
    25
100
AcDbVertex
100
AcDb2dVertex
 10
60.92221594574478
 20
-140.9226571869916
 30
0.0
  0
VERTEX
  5
87
330
4F
100
AcDbEntity
  8
_U+30EC_U+30A4_U+30E4_U+30FC 1
 62
   179
420
  2234388
370
    25
100
AcDbVertex
100
AcDb2dVertex
 10
60.73841872821162
 20
-141.1052549647234
 30
0.0
  0
VERTEX
  5
88
330
4F
100
AcDbEntity
  8
_U+30EC_U+30A4_U+30E4_U+30FC 1
 62
   179
420
  2234388
370
    25
100
AcDbVertex
100
AcDb2dVertex
 10
60.92221594574478
 20
-141.2871471869004
 30
0.0
  0
VERTEX
  5
89
330
4F
100
AcDbEntity
  8
_U+30EC_U+30A4_U+30E4_U+30FC 1
 62
   179
420
  2234388
370
    25
100
AcDbVertex
100
AcDb2dVertex
 10
60.73841872821162
 20
-141.4683691312993
 30
0.0
  0
VERTEX
  5
8A
330
4F
100
AcDbEntity
  8
_U+30EC_U+30A4_U+30E4_U+30FC 1
 62
   179
420
  2234388
370
    25
100
AcDbVertex
100
AcDb2dVertex
 10
60.92221594574478
 20
-141.6506141312541
 30
0.0
  0
VERTEX
  5
8B
330
4F
100
AcDbEntity
  8
_U+30EC_U+30A4_U+30E4_U+30FC 1
 62
   179
420
  2234388
370
    25
100
AcDbVertex
100
AcDb2dVertex
 10
60.73841872821162
 20
-141.8325063534311
 30
0.0
  0
VERTEX
  5
8C
330
4F
100
AcDbEntity
  8
_U+30EC_U+30A4_U+30E4_U+30FC 1
 62
   179
420
  2234388
370
    25
100
AcDbVertex
100
AcDb2dVertex
 10
60.92221594574478
 20
-142.0140810756078
 30
0.0
  0
VERTEX
  5
8D
330
4F
100
AcDbEntity
  8
_U+30EC_U+30A4_U+30E4_U+30FC 1
 62
   179
420
  2234388
370
    25
100
AcDbVertex
100
AcDb2dVertex
 10
60.73841872821162
 20
-142.1966435755621
 30
0.0
  0
VERTEX
  5
8E
330
4F
100
AcDbEntity
  8
_U+30EC_U+30A4_U+30E4_U+30FC 1
 62
   179
420
  2234388
370
    25
100
AcDbVertex
100
AcDb2dVertex
 10
60.92221594574478
 20
-142.3785710755166
 30
0.0
  0
VERTEX
  5
8F
330
4F
100
AcDbEntity
  8
_U+30EC_U+30A4_U+30E4_U+30FC 1
 62
   179
420
  2234388
370
    25
100
AcDbVertex
100
AcDb2dVertex
 10
60.73841872821162
 20
-142.5608160754707
 30
0.0
  0
VERTEX
  5
90
330
4F
100
AcDbEntity
  8
_U+30EC_U+30A4_U+30E4_U+30FC 1
 62
   179
420
  2234388
370
    25
100
AcDbVertex
100
AcDb2dVertex
 10
60.92221594574478
 20
-142.7423555198699
 30
0.0
  0
VERTEX
  5
91
330
4F
100
AcDbEntity
  8
_U+30EC_U+30A4_U+30E4_U+30FC 1
 62
   179
420
  2234388
370
    25
100
AcDbVertex
100
AcDb2dVertex
 10
60.73841872821162
 20
-142.9242477420469
 30
0.0
  0
VERTEX
  5
92
330
4F
100
AcDbEntity
  8
_U+30EC_U+30A4_U+30E4_U+30FC 1
 62
   179
420
  2234388
370
    25
100
AcDbVertex
100
AcDb2dVertex
 10
60.92221594574478
 20
-143.1061752420014
 30
0.0
  0
VERTEX
  5
93
330
4F
100
AcDbEntity
  8
_U+30EC_U+30A4_U+30E4_U+30FC 1
 62
   179
420
  2234388
370
    25
100
AcDbVertex
100
AcDb2dVertex
 10
60.73841872821162
 20
-143.2873619086228
 30
0.0
  0
VERTEX
  5
94
330
4F
100
AcDbEntity
  8
_U+30EC_U+30A4_U+30E4_U+30FC 1
 62
   179
420
  2234388
370
    25
100
AcDbVertex
100
AcDb2dVertex
 10
60.92221594574478
 20
-143.4685838530218
 30
0.0
  0
VERTEX
  5
95
330
4F
100
AcDbEntity
  8
_U+30EC_U+30A4_U+30E4_U+30FC 1
 62
   179
420
  2234388
370
    25
100
AcDbVertex
100
AcDb2dVertex
 10
60.73841872821162
 20
-143.6498057974208
 30
0.0
  0
VERTEX
  5
96
330
4F
100
AcDbEntity
  8
_U+30EC_U+30A4_U+30E4_U+30FC 1
 62
   179
420
  2234388
370
    25
100
AcDbVertex
100
AcDb2dVertex
 10
60.92221594574478
 20
-143.8316980195977
 30
0.0
  0
VERTEX
  5
97
330
4F
100
AcDbEntity
  8
_U+30EC_U+30A4_U+30E4_U+30FC 1
 62
   179
420
  2234388
370
    25
100
AcDbVertex
100
AcDb2dVertex
 10
60.73841872821162
 20
-144.0139430195518
 30
0.0
  0
VERTEX
  5
98
330
4F
100
AcDbEntity
  8
_U+30EC_U+30A4_U+30E4_U+30FC 1
 62
   179
420
  2234388
370
    25
100
AcDbVertex
100
AcDb2dVertex
 10
60.92221594574478
 20
-144.1958352417288
 30
0.0
  0
VERTEX
  5
99
330
4F
100
AcDbEntity
  8
_U+30EC_U+30A4_U+30E4_U+30FC 1
 62
   179
420
  2234388
370
    25
100
AcDbVertex
100
AcDb2dVertex
 10
60.73841872821162
 20
-144.3780802416835
 30
0.0
  0
VERTEX
  5
9A
330
4F
100
AcDbEntity
  8
_U+30EC_U+30A4_U+30E4_U+30FC 1
 62
   179
420
  2234388
370
    25
100
AcDbVertex
100
AcDb2dVertex
 10
60.92221594574478
 20
-144.560007741638
 30
0.0
  0
VERTEX
  5
9B
330
4F
100
AcDbEntity
  8
_U+30EC_U+30A4_U+30E4_U+30FC 1
 62
   179
420
  2234388
370
    25
100
AcDbVertex
100
AcDb2dVertex
 10
60.73841872821162
 20
-144.7418999638143
 30
0.0
  0
VERTEX
  5
9C
330
4F
100
AcDbEntity
  8
_U+30EC_U+30A4_U+30E4_U+30FC 1
 62
   179
420
  2234388
370
    25
100
AcDbVertex
100
AcDb2dVertex
 10
60.92221594574478
 20
-144.9237921859913
 30
0.0
  0
VERTEX
  5
9D
330
4F
100
AcDbEntity
  8
_U+30EC_U+30A4_U+30E4_U+30FC 1
 62
   179
420
  2234388
370
    25
100
AcDbVertex
100
AcDb2dVertex
 10
60.73841872821162
 20
-145.1050141303903
 30
0.0
  0
VERTEX
  5
9E
330
4F
100
AcDbEntity
  8
_U+30EC_U+30A4_U+30E4_U+30FC 1
 62
   179
420
  2234388
370
    25
100
AcDbVertex
100
AcDb2dVertex
 10
60.92221594574478
 20
-145.287259130345
 30
0.0
  0
VERTEX
  5
9F
330
4F
100
AcDbEntity
  8
_U+30EC_U+30A4_U+30E4_U+30FC 1
 62
   179
420
  2234388
370
    25
100
AcDbVertex
100
AcDb2dVertex
 10
60.73841872821162
 20
-145.4695041302991
 30
0.0
  0
VERTEX
  5
A0
330
4F
100
AcDbEntity
  8
_U+30EC_U+30A4_U+30E4_U+30FC 1
 62
   179
420
  2234388
370
    25
100
AcDbVertex
100
AcDb2dVertex
 10
60.92221594574478
 20
-145.6521019080316
 30
0.0
  0
VERTEX
  5
A1
330
4F
100
AcDbEntity
  8
_U+30EC_U+30A4_U+30E4_U+30FC 1
 62
   179
420
  2234388
370
    25
100
AcDbVertex
100
AcDb2dVertex
 10
60.73841872821162
 20
-145.8339941302079
 30
0.0
  0
VERTEX
  5
A2
330
4F
100
AcDbEntity
  8
_U+30EC_U+30A4_U+30E4_U+30FC 1
 62
   179
420
  2234388
370
    25
100
AcDbVertex
100
AcDb2dVertex
 10
60.92221594574478
 20
-146.0155335746071
 30
0.0
  0
VERTEX
  5
A3
330
4F
100
AcDbEntity
  8
_U+30EC_U+30A4_U+30E4_U+30FC 1
 62
   179
420
  2234388
370
    25
100
AcDbVertex
100
AcDb2dVertex
 10
60.73841872821162
 20
-146.1977785745619
 30
0.0
  0
VERTEX
  5
A4
330
4F
100
AcDbEntity
  8
_U+30EC_U+30A4_U+30E4_U+30FC 1
 62
   179
420
  2234388
370
    25
100
AcDbVertex
100
AcDb2dVertex
 10
60.92221594574478
 20
-146.3807291300715
 30
0.0
  0
VERTEX
  5
A5
330
4F
100
AcDbEntity
  8
_U+30EC_U+30A4_U+30E4_U+30FC 1
 62
   179
420
  2234388
370
    25
100
AcDbVertex
100
AcDb2dVertex
 10
60.73841872821162
 20
-146.5622685744707
 30
0.0
  0
VERTEX
  5
A6
330
4F
100
AcDbEntity
  8
_U+30EC_U+30A4_U+30E4_U+30FC 1
 62
   179
420
  2234388
370
    25
100
AcDbVertex
100
AcDb2dVertex
 10
60.92221594574478
 20
-146.7448663522026
 30
0.0
  0
VERTEX
  5
A7
330
4F
100
AcDbEntity
  8
_U+30EC_U+30A4_U+30E4_U+30FC 1
 62
   179
420
  2234388
370
    25
100
AcDbVertex
100
AcDb2dVertex
 10
60.73841872821162
 20
-146.9271113521573
 30
0.0
  0
VERTEX
  5
A8
330
4F
100
AcDbEntity
  8
_U+30EC_U+30A4_U+30E4_U+30FC 1
 62
   179
420
  2234388
370
    25
100
AcDbVertex
100
AcDb2dVertex
 10
60.92221594574478
 20
-147.1093563521114
 30
0.0
  0
VERTEX
  5
A9
330
4F
100
AcDbEntity
  8
_U+30EC_U+30A4_U+30E4_U+30FC 1
 62
   179
420
  2234388
370
    25
100
AcDbVertex
100
AcDb2dVertex
 10
60.73841872821162
 20
-147.2923069076216
 30
0.0
  0
VERTEX
  5
AA
330
4F
100
AcDbEntity
  8
_U+30EC_U+30A4_U+30E4_U+30FC 1
 62
   179
420
  2234388
370
    25
100
AcDbVertex
100
AcDb2dVertex
 10
60.92221594574478
 20
-147.4745519075757
 30
0.0
  0
VERTEX
  5
AB
330
4F
100
AcDbEntity
  8
_U+30EC_U+30A4_U+30E4_U+30FC 1
 62
   179
420
  2234388
370
    25
100
AcDbVertex
100
AcDb2dVertex
 10
60.73841872821162
 20
-147.6571496853082
 30
0.0
  0
VERTEX
  5
AC
330
4F
100
AcDbEntity
  8
_U+30EC_U+30A4_U+30E4_U+30FC 1
 62
   179
420
  2234388
370
    25
100
AcDbVertex
100
AcDb2dVertex
 10
60.92221594574478
 20
-147.8390419074846
 30
0.0
  0
SEQEND
  5
AD
330
4F
100
AcDbEntity
  8
_U+30EC_U+30A4_U+30E4_U+30FC 1
 62
   179
420
  2234388
370
    25
  0
POLYLINE
  5
AE
330
4B
100
AcDbEntity
  8
_U+30EC_U+30A4_U+30E4_U+30FC 1
 62
   179
420
  2234388
370
    25
100
AcDb2dPolyline
 66
     1
 10
0.0
 20
0.0
 30
0.0
  0
VERTEX
  5
AF
330
AE
100
AcDbEntity
  8
_U+30EC_U+30A4_U+30E4_U+30FC 1
 62
   179
420
  2234388
370
    25
100
AcDbVertex
100
AcDb2dVertex
 10
61.67186870439733
 20
-130.5749794118006
 30
0.0
  0
VERTEX
  5
B0
330
AE
100
AcDbEntity
  8
_U+30EC_U+30A4_U+30E4_U+30FC 1
 62
   179
420
  2234388
370
    25
100
AcDbVertex
100
AcDb2dVertex
 10
61.67186870439733
 20
-150.3773838512948
 30
0.0
  0
SEQEND
  5
B1
330
AE
100
AcDbEntity
  8
_U+30EC_U+30A4_U+30E4_U+30FC 1
 62
   179
420
  2234388
370
    25
  0
SPLINE
  5
B2
330
4B
100
AcDbEntity
  8
_U+30EC_U+30A4_U+30E4_U+30FC 1
 62
   179
420
  2234388
370
    25
100
AcDbSpline
210
0.0
220
0.0
230
1.0
 70
     8
 71
     3
 72
     8
 73
     4
 74
     0
 42
0.0000000001
 43
0.0000000001
 12
1.0
 22
0.0
 32
0.0
 13
1.0
 23
0.0
 33
0.0
 40
0.0
 40
0.0
 40
0.0
 40
0.0
 40
1.0
 40
1.0
 40
1.0
 40
1.0
 10
61.67186870439733
 20
-150.3773838512948
 30
0.0
 10
61.67186870439733
 20
-150.5303482957005
 30
0.0
 10
61.54836120754827
 20
-150.654032184559
 30
0.0
 10
61.39641982253573
 20
-150.654032184559
 30
0.0
  0
POLYLINE
  5
B3
330
4B
100
AcDbEntity
  8
_U+30EC_U+30A4_U+30E4_U+30FC 1
 62
   179
420
  2234388
370
    25
100
AcDb2dPolyline
 66
     1
 10
0.0
 20
0.0
 30
0.0
  0
VERTEX
  5
B4
330
B3
100
AcDbEntity
  8
_U+30EC_U+30A4_U+30E4_U+30FC 1
 62
   179
420
  2234388
370
    25
100
AcDbVertex
100
AcDb2dVertex
 10
61.39641982253573
 20
-150.654032184559
 30
0.0
  0
VERTEX
  5
B5
330
B3
100
AcDbEntity
  8
_U+30EC_U+30A4_U+30E4_U+30FC 1
 62
   179
420
  2234388
370
    25
100
AcDbVertex
100
AcDb2dVertex
 10
61.1261583180517
 20
-150.654032184559
 30
0.0
  0
VERTEX
  5
B6
330
B3
100
AcDbEntity
  8
_U+30EC_U+30A4_U+30E4_U+30FC 1
 62
   179
420
  2234388
370
    25
100
AcDbVertex
100
AcDb2dVertex
 10
60.6000945650739
 20
-149.3796930182107
 30
0.0
  0
VERTEX
  5
B7
330
B3
100
AcDbEntity
  8
_U+30EC_U+30A4_U+30E4_U+30FC 1
 62
   179
420
  2234388
370
    25
100
AcDbVertex
100
AcDb2dVertex
 10
60.6000945650739
 20
-147.8390419074846
 30
0.0
  0
VERTEX
  5
B8
330
B3
100
AcDbEntity
  8
_U+30EC_U+30A4_U+30E4_U+30FC 1
 62
   179
420
  2234388
370
    25
100
AcDbVertex
100
AcDb2dVertex
 10
60.92221594574478
 20
-147.8390419074846
 30
0.0
  0
SEQEND
  5
B9
330
B3
100
AcDbEntity
  8
_U+30EC_U+30A4_U+30E4_U+30FC 1
 62
   179
420
  2234388
370
    25
  0
POLYLINE
  5
BA
330
4B
100
AcDbEntity
  8
_U+30EC_U+30A4_U+30E4_U+30FC 1
 62
   179
420
  2234388
370
    25
100
AcDb2dPolyline
 66
     1
 10
0.0
 20
0.0
 30
0.0
  0
VERTEX
  5
BB
330
BA
100
AcDbEntity
  8
_U+30EC_U+30A4_U+30E4_U+30FC 1
 62
   179
420
  2234388
370
    25
100
AcDbVertex
100
AcDb2dVertex
 10
60.7530590056159
 20
-129.6540883009198
 30
0.0
  0
VERTEX
  5
BC
330
BA
100
AcDbEntity
  8
_U+30EC_U+30A4_U+30E4_U+30FC 1
 62
   179
420
  2234388
370
    25
100
AcDbVertex
100
AcDb2dVertex
 10
60.6000945650739
 20
-129.6540883009198
 30
0.0
  0
VERTEX
  5
BD
330
BA
100
AcDbEntity
  8
_U+30EC_U+30A4_U+30E4_U+30FC 1
 62
   179
420
  2234388
370
    25
100
AcDbVertex
100
AcDb2dVertex
 10
60.6000945650739
 20
-131.1131066338884
 30
0.0
  0
VERTEX
  5
BE
330
BA
100
AcDbEntity
  8
_U+30EC_U+30A4_U+30E4_U+30FC 1
 62
   179
420
  2234388
370
    25
100
AcDbVertex
100
AcDb2dVertex
 10
60.92221594574478
 20
-131.1131066338884
 30
0.0
  0
SEQEND
  5
BF
330
BA
100
AcDbEntity
  8
_U+30EC_U+30A4_U+30E4_U+30FC 1
 62
   179
420
  2234388
370
    25
  0
SPLINE
  5
C0
330
4B
100
AcDbEntity
  8
_U+30EC_U+30A4_U+30E4_U+30FC 1
 62
   179
420
  2234388
370
    25
100
AcDbSpline
210
0.0
220
0.0
230
1.0
 70
     8
 71
     3
 72
     8
 73
     4
 74
     0
 42
0.0000000001
 43
0.0000000001
 12
1.0
 22
0.0
 32
0.0
 13
1.0
 23
0.0
 33
0.0
 40
0.0
 40
0.0
 40
0.0
 40
0.0
 40
1.0
 40
1.0
 40
1.0
 40
1.0
 10
60.7530590056159
 20
-129.6540883009198
 30
0.0
 10
61.26035343711818
 20
-129.6540883009198
 30
0.0
 10
61.67186870439733
 20
-130.0661327452611
 30
0.0
 10
61.67186870439733
 20
-130.5749794118006
 30
0.0
  0
ENDBLK
  5
4E
330
4B
100
AcDbEntity
  8
0
100
AcDbBlockEnd
  0
BLOCK
  5
C3
330
C1
100
AcDbEntity
  8
0
100
AcDbBlockBegin
  2
block 5
 70
     0
 10
0.0
 20
0.0
 30
0.0
  3
block 5
  1

  0
POLYLINE
  5
C5
330
C1
100
AcDbEntity
  8
_U+30EC_U+30A4_U+30E4_U+30FC 1
 62
   179
420
  2234388
370
    25
100
AcDb2dPolyline
 66
     1
 10
0.0
 20
0.0
 30
0.0
  0
VERTEX
  5
C6
330
C5
100
AcDbEntity
  8
_U+30EC_U+30A4_U+30E4_U+30FC 1
 62
   179
420
  2234388
370
    25
100
AcDbVertex
100
AcDb2dVertex
 10
114.1415293102292
 20
-111.4216155277001
 30
0.0
  0
VERTEX
  5
C7
330
C5
100
AcDbEntity
  8
_U+30EC_U+30A4_U+30E4_U+30FC 1
 62
   179
420
  2234388
370
    25
100
AcDbVertex
100
AcDb2dVertex
 10
114.1415293102292
 20
-131.2247255227493
 30
0.0
  0
SEQEND
  5
C8
330
C5
100
AcDbEntity
  8
_U+30EC_U+30A4_U+30E4_U+30FC 1
 62
   179
420
  2234388
370
    25
  0
SPLINE
  5
C9
330
C1
100
AcDbEntity
  8
_U+30EC_U+30A4_U+30E4_U+30FC 1
 62
   179
420
  2234388
370
    25
100
AcDbSpline
210
0.0
220
0.0
230
1.0
 70
     8
 71
     3
 72
     8
 73
     4
 74
     0
 42
0.0000000001
 43
0.0000000001
 12
1.0
 22
0.0
 32
0.0
 13
1.0
 23
0.0
 33
0.0
 40
0.0
 40
0.0
 40
0.0
 40
0.0
 40
1.0
 40
1.0
 40
1.0
 40
1.0
 10
114.1415293102292
 20
-131.2247255227493
 30
0.0
 10
114.1415293102292
 20
-131.3773371893778
 30
0.0
 10
114.0181982022645
 20
-131.5010210782357
 30
0.0
 10
113.8659040394832
 20
-131.5010210782357
 30
0.0
  0
SPLINE
  5
CA
330
C1
100
AcDbEntity
  8
_U+30EC_U+30A4_U+30E4_U+30FC 1
 62
   179
420
  2234388
370
    25
100
AcDbSpline
210
0.0
220
0.0
230
1.0
 70
     8
 71
     3
 72
     8
 73
     4
 74
     0
 42
0.0000000001
 43
0.0000000001
 12
1.0
 22
0.0
 32
0.0
 13
1.0
 23
0.0
 33
0.0
 40
0.0
 40
0.0
 40
0.0
 40
0.0
 40
1.0
 40
1.0
 40
1.0
 40
1.0
 10
113.2227196114478
 20
-110.5007596945969
 30
0.0
 10
113.7301904318344
 20
-110.5007596945969
 30
0.0
 10
114.1415293102292
 20
-110.9131216389385
 30
0.0
 10
114.1415293102292
 20
-111.4216155277001
 30
0.0
  0
ENDBLK
  5
C4
330
C1
100
AcDbEntity
  8
0
100
AcDbBlockEnd
  0
BLOCK
  5
EB
330
E9
100
AcDbEntity
  8
0
100
AcDbBlockBegin
  2
block 6
 70
     0
 10
0.0
 20
0.0
 30
0.0
  3
block 6
  1

  0
POLYLINE
  5
ED
330
E9
100
AcDbEntity
  8
_U+30EC_U+30A4_U+30E4_U+30FC 1
 62
   179
420
  2234388
370
     9
100
AcDb2dPolyline
 66
     1
 10
0.0
 20
0.0
 30
0.0
  0
VERTEX
  5
EE
330
ED
100
AcDbEntity
  8
_U+30EC_U+30A4_U+30E4_U+30FC 1
 62
   179
420
  2234388
370
     9
100
AcDbVertex
100
AcDb2dVertex
 10
114.9187340126233
 20
-110.625819416788
 30
0.0
  0
VERTEX
  5
EF
330
ED
100
AcDbEntity
  8
_U+30EC_U+30A4_U+30E4_U+30FC 1
 62
   179
420
  2234388
370
     9
100
AcDbVertex
100
AcDb2dVertex
 10
118.1585039299699
 20
-110.625819416788
 30
0.0
  0
SEQEND
  5
F0
330
ED
100
AcDbEntity
  8
_U+30EC_U+30A4_U+30E4_U+30FC 1
 62
   179
420
  2234388
370
     9
  0
POLYLINE
  5
F1
330
E9
100
AcDbEntity
  8
_U+30EC_U+30A4_U+30E4_U+30FC 1
 62
   179
420
  2234388
370
     9
100
AcDb2dPolyline
 66
     1
 10
0.0
 20
0.0
 30
0.0
  0
VERTEX
  5
F2
330
F1
100
AcDbEntity
  8
_U+30EC_U+30A4_U+30E4_U+30FC 1
 62
   179
420
  2234388
370
     9
100
AcDbVertex
100
AcDb2dVertex
 10
114.9187340126233
 20
-131.5013738560135
 30
0.0
  0
VERTEX
  5
F3
330
F1
100
AcDbEntity
  8
_U+30EC_U+30A4_U+30E4_U+30FC 1
 62
   179
420
  2234388
370
     9
100
AcDbVertex
100
AcDb2dVertex
 10
118.1585039299699
 20
-131.5013738560135
 30
0.0
  0
SEQEND
  5
F4
330
F1
100
AcDbEntity
  8
_U+30EC_U+30A4_U+30E4_U+30FC 1
 62
   179
420
  2234388
370
     9
  0
INSERT
  5
F6
330
E9
100
AcDbEntity
  8
_U+30EC_U+30A4_U+30E4_U+30FC 1
100
AcDbBlockReference
  2
block 7
 10
0.0
 20
0.0
 30
0.0
  0
INSERT
  5
12E
330
E9
100
AcDbEntity
  8
_U+30EC_U+30A4_U+30E4_U+30FC 1
100
AcDbBlockReference
  2
block 8
 10
0.0
 20
0.0
 30
0.0
  0
INSERT
  5
13A
330
E9
100
AcDbEntity
  8
_U+30EC_U+30A4_U+30E4_U+30FC 1
100
AcDbBlockReference
  2
block 9
 10
0.0
 20
0.0
 30
0.0
  0
POLYLINE
  5
145
330
E9
100
AcDbEntity
  8
_U+30EC_U+30A4_U+30E4_U+30FC 1
 62
   179
420
  2234388
370
     9
100
AcDb2dPolyline
 66
     1
 10
0.0
 20
0.0
 30
0.0
  0
VERTEX
  5
146
330
145
100
AcDbEntity
  8
_U+30EC_U+30A4_U+30E4_U+30FC 1
 62
   179
420
  2234388
370
     9
100
AcDbVertex
100
AcDb2dVertex
 10
60.6000945650739
 20
-125.134123024272
 30
0.0
  0
VERTEX
  5
147
330
145
100
AcDbEntity
  8
_U+30EC_U+30A4_U+30E4_U+30FC 1
 62
   179
420
  2234388
370
     9
100
AcDbVertex
100
AcDb2dVertex
 10
60.6000945650739
 20
-128.2319705234975
 30
0.0
  0
SEQEND
  5
148
330
145
100
AcDbEntity
  8
_U+30EC_U+30A4_U+30E4_U+30FC 1
 62
   179
420
  2234388
370
     9
  0
POLYLINE
  5
149
330
E9
100
AcDbEntity
  8
_U+30EC_U+30A4_U+30E4_U+30FC 1
 62
   179
420
  2234388
370
     9
100
AcDb2dPolyline
 66
     1
 10
0.0
 20
0.0
 30
0.0
  0
VERTEX
  5
14A
330
149
100
AcDbEntity
  8
_U+30EC_U+30A4_U+30E4_U+30FC 1
 62
   179
420
  2234388
370
     9
100
AcDbVertex
100
AcDb2dVertex
 10
60.6000945650739
 20
-125.134123024272
 30
0.0
  0
VERTEX
  5
14B
330
149
100
AcDbEntity
  8
_U+30EC_U+30A4_U+30E4_U+30FC 1
 62
   179
420
  2234388
370
     9
100
AcDbVertex
100
AcDb2dVertex
 10
60.6000945650739
 20
-128.2319705234975
 30
0.0
  0
SEQEND
  5
14C
330
149
100
AcDbEntity
  8
_U+30EC_U+30A4_U+30E4_U+30FC 1
 62
   179
420
  2234388
370
     9
  0
POLYLINE
  5
14D
330
E9
100
AcDbEntity
  8
_U+30EC_U+30A4_U+30E4_U+30FC 1
 62
   179
420
  2234388
370
     9
100
AcDb2dPolyline
 66
     1
 10
0.0
 20
0.0
 30
0.0
  0
VERTEX
  5
14E
330
14D
100
AcDbEntity
  8
_U+30EC_U+30A4_U+30E4_U+30FC 1
 62
   179
420
  2234388
370
     9
100
AcDbVertex
100
AcDb2dVertex
 10
86.91131889381865
 20
-115.5450585822249
 30
0.0
  0
VERTEX
  5
14F
330
14D
100
AcDbEntity
  8
_U+30EC_U+30A4_U+30E4_U+30FC 1
 62
   179
420
  2234388
370
     9
100
AcDbVertex
100
AcDb2dVertex
 10
86.91131889381865
 20
-118.6428708036725
 30
0.0
  0
SEQEND
  5
150
330
14D
100
AcDbEntity
  8
_U+30EC_U+30A4_U+30E4_U+30FC 1
 62
   179
420
  2234388
370
     9
  0
POLYLINE
  5
151
330
E9
100
AcDbEntity
  8
_U+30EC_U+30A4_U+30E4_U+30FC 1
 62
   179
420
  2234388
370
     9
100
AcDb2dPolyline
 66
     1
 10
0.0
 20
0.0
 30
0.0
  0
VERTEX
  5
152
330
151
100
AcDbEntity
  8
_U+30EC_U+30A4_U+30E4_U+30FC 1
 62
   179
420
  2234388
370
     9
100
AcDbVertex
100
AcDb2dVertex
 10
113.2227196114478
 20
-105.9804416401717
 30
0.0
  0
VERTEX
  5
153
330
151
100
AcDbEntity
  8
_U+30EC_U+30A4_U+30E4_U+30FC 1
 62
   179
420
  2234388
370
     9
100
AcDbVertex
100
AcDb2dVertex
 10
113.2227196114478
 20
-109.0782538616193
 30
0.0
  0
SEQEND
  5
154
330
151
100
AcDbEntity
  8
_U+30EC_U+30A4_U+30E4_U+30FC 1
 62
   179
420
  2234388
370
     9
  0
POLYLINE
  5
155
330
E9
100
AcDbEntity
  8
_U+30EC_U+30A4_U+30E4_U+30FC 1
 62
   179
420
  2234388
370
     9
100
AcDb2dPolyline
 66
     1
 10
0.0
 20
0.0
 30
0.0
  0
VERTEX
  5
156
330
155
100
AcDbEntity
  8
_U+30EC_U+30A4_U+30E4_U+30FC 1
 62
   179
420
  2234388
370
     9
100
AcDbVertex
100
AcDb2dVertex
 10
116.5386189712966
 20
-110.625819416788
 30
0.0
  0
VERTEX
  5
157
330
155
100
AcDbEntity
  8
_U+30EC_U+30A4_U+30E4_U+30FC 1
 62
   179
420
  2234388
370
     9
100
AcDbVertex
100
AcDb2dVertex
 10
116.5386189712966
 20
-131.5013738560135
 30
0.0
  0
SEQEND
  5
158
330
155
100
AcDbEntity
  8
_U+30EC_U+30A4_U+30E4_U+30FC 1
 62
   179
420
  2234388
370
     9
  0
SPLINE
  5
159
330
E9
100
AcDbEntity
  8
_U+30EC_U+30A4_U+30E4_U+30FC 1
370
     0
100
AcDbSpline
210
0.0
220
0.0
230
1.0
 70
    11
 71
     3
 72
    17
 73
    13
 74
     0
 42
0.0000000001
 43
0.0000000001
 12
1.0
 22
0.0
 32
0.0
 13
1.0
 23
0.0
 33
0.0
 40
0.0
 40
0.0
 40
0.0
 40
0.0
 40
1.0
 40
1.0
 40
1.0
 40
2.0
 40
2.0
 40
2.0
 40
3.0
 40
3.0
 40
3.0
 40
4.0
 40
4.0
 40
4.0
 40
4.0
 10
60.75013095013504
 20
-126.6906138572161
 30
0.0
 10
60.75013095013504
 20
-126.7740105238622
 30
0.0
 10
60.68292678518289
 20
-126.8408266349566
 30
0.0
 10
60.59991817618951
 20
-126.8408266349566
 30
0.0
 10
60.51722706718802
 20
-126.8408266349566
 30
0.0
 10
60.45005818001275
 20
-126.7740105238622
 30
0.0
 10
60.45005818001275
 20
-126.6906138572161
 30
0.0
 10
60.45005818001275
 20
-126.6079580239037
 30
0.0
 10
60.51722706718802
 20
-126.5411066350314
 30
0.0
 10
60.59991817618951
 20
-126.5411066350314
 30
0.0
 10
60.68292678518289
 20
-126.5411066350314
 30
0.0
 10
60.75013095013504
 20
-126.6079580239037
 30
0.0
 10
60.75013095013504
 20
-126.6906138572161
 30
0.0
  0
HATCH
  5
15A
330
E9
100
AcDbEntity
  8
_U+30EC_U+30A4_U+30E4_U+30FC 1
 62
   179
420
  2234388
100
AcDbHatch
 10
0.0
 20
0.0
 30
0.0
210
0.0
220
0.0
230
1.0
  2
SOLID
 70
     1
 71
     0
 91
        1
 92
        1
 93
        1
 72
     4
 94
        3
 73
     0
 74
     1
 95
       17
 96
       13
 40
0.0
 40
0.0
 40
0.0
 40
0.0
 40
1.0
 40
1.0
 40
1.0
 40
2.0
 40
2.0
 40
2.0
 40
3.0
 40
3.0
 40
3.0
 40
4.0
 40
4.0
 40
4.0
 40
4.0
 10
60.75013095013504
 20
-126.6906138572161
 10
60.75013095013504
 20
-126.7740105238622
 10
60.68292678518289
 20
-126.8408266349566
 10
60.59991817618951
 20
-126.8408266349566
 10
60.51722706718802
 20
-126.8408266349566
 10
60.45005818001275
 20
-126.7740105238622
 10
60.45005818001275
 20
-126.6906138572161
 10
60.45005818001275
 20
-126.6079580239037
 10
60.51722706718802
 20
-126.5411066350314
 10
60.59991817618951
 20
-126.5411066350314
 10
60.68292678518289
 20
-126.5411066350314
 10
60.75013095013504
 20
-126.6079580239037
 10
60.75013095013504
 20
-126.6906138572161
 97
        0
 97
        0
 75
     2
 76
     1
 98
        0
  0
POLYLINE
  5
15B
330
E9
100
AcDbEntity
  8
_U+30EC_U+30A4_U+30E4_U+30FC 1
 62
   179
420
  2234388
370
     9
100
AcDb2dPolyline
 66
     1
 10
0.0
 20
0.0
 30
0.0
  0
VERTEX
  5
15C
330
15B
100
AcDbEntity
  8
_U+30EC_U+30A4_U+30E4_U+30FC 1
 62
   179
420
  2234388
370
     9
100
AcDbVertex
100
AcDb2dVertex
 10
113.2227196114478
 20
-107.5371088620046
 30
0.0
  0
VERTEX
  5
15D
330
15B
100
AcDbEntity
  8
_U+30EC_U+30A4_U+30E4_U+30FC 1
 62
   179
420
  2234388
370
     9
100
AcDbVertex
100
AcDb2dVertex
 10
60.6000945650739
 20
-126.6906138572161
 30
0.0
  0
SEQEND
  5
15E
330
15B
100
AcDbEntity
  8
_U+30EC_U+30A4_U+30E4_U+30FC 1
 62
   179
420
  2234388
370
     9
  0
SPLINE
  5
15F
330
E9
100
AcDbEntity
  8
_U+30EC_U+30A4_U+30E4_U+30FC 1
370
     0
100
AcDbSpline
210
0.0
220
0.0
230
1.0
 70
    11
 71
     3
 72
    17
 73
    13
 74
     0
 42
0.0000000001
 43
0.0000000001
 12
1.0
 22
0.0
 32
0.0
 13
1.0
 23
0.0
 33
0.0
 40
0.0
 40
0.0
 40
0.0
 40
0.0
 40
1.0
 40
1.0
 40
1.0
 40
2.0
 40
2.0
 40
2.0
 40
3.0
 40
3.0
 40
3.0
 40
4.0
 40
4.0
 40
4.0
 40
4.0
 10
87.06135527887979
 20
-117.1132616373882
 30
0.0
 10
87.06135527887979
 20
-117.1966230262564
 30
0.0
 10
86.99418639170452
 20
-117.2634744151287
 30
0.0
 10
86.91114250493425
 20
-117.2634744151287
 30
0.0
 10
86.82845139593277
 20
-117.2634744151287
 30
0.0
 10
86.7612825087575
 20
-117.1966230262564
 30
0.0
 10
86.7612825087575
 20
-117.1132616373882
 30
0.0
 10
86.7612825087575
 20
-117.030570526298
 30
0.0
 10
86.82845139593277
 20
-116.9637544152035
 30
0.0
 10
86.91114250493425
 20
-116.9637544152035
 30
0.0
 10
86.99418639170452
 20
-116.9637544152035
 30
0.0
 10
87.06135527887979
 20
-117.030570526298
 30
0.0
 10
87.06135527887979
 20
-117.1132616373882
 30
0.0
  0
HATCH
  5
160
330
E9
100
AcDbEntity
  8
_U+30EC_U+30A4_U+30E4_U+30FC 1
 62
   179
420
  2234388
100
AcDbHatch
 10
0.0
 20
0.0
 30
0.0
210
0.0
220
0.0
230
1.0
  2
SOLID
 70
     1
 71
     0
 91
        1
 92
        1
 93
        1
 72
     4
 94
        3
 73
     0
 74
     1
 95
       17
 96
       13
 40
0.0
 40
0.0
 40
0.0
 40
0.0
 40
1.0
 40
1.0
 40
1.0
 40
2.0
 40
2.0
 40
2.0
 40
3.0
 40
3.0
 40
3.0
 40
4.0
 40
4.0
 40
4.0
 40
4.0
 10
87.06135527887979
 20
-117.1132616373882
 10
87.06135527887979
 20
-117.1966230262564
 10
86.99418639170452
 20
-117.2634744151287
 10
86.91114250493425
 20
-117.2634744151287
 10
86.82845139593277
 20
-117.2634744151287
 10
86.7612825087575
 20
-117.1966230262564
 10
86.7612825087575
 20
-117.1132616373882
 10
86.7612825087575
 20
-117.030570526298
 10
86.82845139593277
 20
-116.9637544152035
 10
86.91114250493425
 20
-116.9637544152035
 10
86.99418639170452
 20
-116.9637544152035
 10
87.06135527887979
 20
-117.030570526298
 10
87.06135527887979
 20
-117.1132616373882
 97
        0
 97
        0
 75
     2
 76
     1
 98
        0
  0
SPLINE
  5
161
330
E9
100
AcDbEntity
  8
_U+30EC_U+30A4_U+30E4_U+30FC 1
370
     0
100
AcDbSpline
210
0.0
220
0.0
230
1.0
 70
    11
 71
     3
 72
    17
 73
    13
 74
     0
 42
0.0000000001
 43
0.0000000001
 12
1.0
 22
0.0
 32
0.0
 13
1.0
 23
0.0
 33
0.0
 40
0.0
 40
0.0
 40
0.0
 40
0.0
 40
1.0
 40
1.0
 40
1.0
 40
2.0
 40
2.0
 40
2.0
 40
3.0
 40
3.0
 40
3.0
 40
4.0
 40
4.0
 40
4.0
 40
4.0
 10
113.3725796076245
 20
-107.5369324731157
 30
0.0
 10
113.3725796076245
 20
-107.6201174730951
 30
0.0
 10
113.3054107204493
 20
-107.687145250856
 30
0.0
 10
113.2227196114478
 20
-107.687145250856
 30
0.0
 10
113.1400285024463
 20
-107.687145250856
 30
0.0
 10
113.072859615271
 20
-107.6201174730951
 30
0.0
 10
113.072859615271
 20
-107.5369324731157
 30
0.0
 10
113.072859615271
 20
-107.4540649731363
 30
0.0
 10
113.1400285024463
 20
-107.3870724731533
 30
0.0
 10
113.2227196114478
 20
-107.3870724731533
 30
0.0
 10
113.3054107204493
 20
-107.3870724731533
 30
0.0
 10
113.3725796076245
 20
-107.4540649731363
 30
0.0
 10
113.3725796076245
 20
-107.5369324731157
 30
0.0
  0
HATCH
  5
162
330
E9
100
AcDbEntity
  8
_U+30EC_U+30A4_U+30E4_U+30FC 1
 62
   179
420
  2234388
100
AcDbHatch
 10
0.0
 20
0.0
 30
0.0
210
0.0
220
0.0
230
1.0
  2
SOLID
 70
     1
 71
     0
 91
        1
 92
        1
 93
        1
 72
     4
 94
        3
 73
     0
 74
     1
 95
       17
 96
       13
 40
0.0
 40
0.0
 40
0.0
 40
0.0
 40
1.0
 40
1.0
 40
1.0
 40
2.0
 40
2.0
 40
2.0
 40
3.0
 40
3.0
 40
3.0
 40
4.0
 40
4.0
 40
4.0
 40
4.0
 10
113.3725796076245
 20
-107.5369324731157
 10
113.3725796076245
 20
-107.6201174730951
 10
113.3054107204493
 20
-107.687145250856
 10
113.2227196114478
 20
-107.687145250856
 10
113.1400285024463
 20
-107.687145250856
 10
113.072859615271
 20
-107.6201174730951
 10
113.072859615271
 20
-107.5369324731157
 10
113.072859615271
 20
-107.4540649731363
 10
113.1400285024463
 20
-107.3870724731533
 10
113.2227196114478
 20
-107.3870724731533
 10
113.3054107204493
 20
-107.3870724731533
 10
113.3725796076245
 20
-107.4540649731363
 10
113.3725796076245
 20
-107.5369324731157
 97
        0
 97
        0
 75
     2
 76
     1
 98
        0
  0
SPLINE
  5
163
330
E9
100
AcDbEntity
  8
_U+30EC_U+30A4_U+30E4_U+30FC 1
370
     0
100
AcDbSpline
210
0.0
220
0.0
230
1.0
 70
    11
 71
     3
 72
    17
 73
    13
 74
     0
 42
0.0000000001
 43
0.0000000001
 12
1.0
 22
0.0
 32
0.0
 13
1.0
 23
0.0
 33
0.0
 40
0.0
 40
0.0
 40
0.0
 40
0.0
 40
1.0
 40
1.0
 40
1.0
 40
2.0
 40
2.0
 40
2.0
 40
3.0
 40
3.0
 40
3.0
 40
4.0
 40
4.0
 40
4.0
 40
4.0
 10
116.6881261897045
 20
-110.624761083455
 30
0.0
 10
116.6881261897045
 20
-110.7081577501008
 30
0.0
 10
116.6213100802981
 20
-110.7749738611953
 30
0.0
 10
116.5386189712966
 20
-110.7749738611953
 30
0.0
 10
116.4562806400639
 20
-110.7749738611953
 30
0.0
 10
116.388406197351
 20
-110.7081577501008
 30
0.0
 10
116.388406197351
 20
-110.624761083455
 30
0.0
 10
116.388406197351
 20
-110.5421052501423
 30
0.0
 10
116.4562806400639
 20
-110.47525386127
 30
0.0
 10
116.5386189712966
 20
-110.47525386127
 30
0.0
 10
116.6213100802981
 20
-110.47525386127
 30
0.0
 10
116.6881261897045
 20
-110.5421052501423
 30
0.0
 10
116.6881261897045
 20
-110.624761083455
 30
0.0
  0
HATCH
  5
164
330
E9
100
AcDbEntity
  8
_U+30EC_U+30A4_U+30E4_U+30FC 1
 62
   179
420
  2234388
100
AcDbHatch
 10
0.0
 20
0.0
 30
0.0
210
0.0
220
0.0
230
1.0
  2
SOLID
 70
     1
 71
     0
 91
        1
 92
        1
 93
        1
 72
     4
 94
        3
 73
     0
 74
     1
 95
       17
 96
       13
 40
0.0
 40
0.0
 40
0.0
 40
0.0
 40
1.0
 40
1.0
 40
1.0
 40
2.0
 40
2.0
 40
2.0
 40
3.0
 40
3.0
 40
3.0
 40
4.0
 40
4.0
 40
4.0
 40
4.0
 10
116.6881261897045
 20
-110.624761083455
 10
116.6881261897045
 20
-110.7081577501008
 10
116.6213100802981
 20
-110.7749738611953
 10
116.5386189712966
 20
-110.7749738611953
 10
116.4562806400639
 20
-110.7749738611953
 10
116.388406197351
 20
-110.7081577501008
 10
116.388406197351
 20
-110.624761083455
 10
116.388406197351
 20
-110.5421052501423
 10
116.4562806400639
 20
-110.47525386127
 10
116.5386189712966
 20
-110.47525386127
 10
116.6213100802981
 20
-110.47525386127
 10
116.6881261897045
 20
-110.5421052501423
 10
116.6881261897045
 20
-110.624761083455
 97
        0
 97
        0
 75
     2
 76
     1
 98
        0
  0
SPLINE
  5
165
330
E9
100
AcDbEntity
  8
_U+30EC_U+30A4_U+30E4_U+30FC 1
370
     0
100
AcDbSpline
210
0.0
220
0.0
230
1.0
 70
    11
 71
     3
 72
    17
 73
    13
 74
     0
 42
0.0000000001
 43
0.0000000001
 12
1.0
 22
0.0
 32
0.0
 13
1.0
 23
0.0
 33
0.0
 40
0.0
 40
0.0
 40
0.0
 40
0.0
 40
1.0
 40
1.0
 40
1.0
 40
2.0
 40
2.0
 40
2.0
 40
3.0
 40
3.0
 40
3.0
 40
4.0
 40
4.0
 40
4.0
 40
4.0
 10
116.6881261897045
 20
-131.5010210782357
 30
0.0
 10
116.6881261897045
 20
-131.5843824671039
 30
0.0
 10
116.6213100802981
 20
-131.6508810781985
 30
0.0
 10
116.5386189712966
 20
-131.6508810781985
 30
0.0
 10
116.4562806400639
 20
-131.6508810781985
 30
0.0
 10
116.388406197351
 20
-131.5843824671039
 30
0.0
 10
116.388406197351
 20
-131.5010210782357
 30
0.0
 10
116.388406197351
 20
-131.4179771893677
 30
0.0
 10
116.4562806400639
 20
-131.3511610782736
 30
0.0
 10
116.5386189712966
 20
-131.3511610782736
 30
0.0
 10
116.6213100802981
 20
-131.3511610782736
 30
0.0
 10
116.6881261897045
 20
-131.4179771893677
 30
0.0
 10
116.6881261897045
 20
-131.5010210782357
 30
0.0
  0
HATCH
  5
166
330
E9
100
AcDbEntity
  8
_U+30EC_U+30A4_U+30E4_U+30FC 1
 62
   179
420
  2234388
100
AcDbHatch
 10
0.0
 20
0.0
 30
0.0
210
0.0
220
0.0
230
1.0
  2
SOLID
 70
     1
 71
     0
 91
        1
 92
        1
 93
        1
 72
     4
 94
        3
 73
     0
 74
     1
 95
       17
 96
       13
 40
0.0
 40
0.0
 40
0.0
 40
0.0
 40
1.0
 40
1.0
 40
1.0
 40
2.0
 40
2.0
 40
2.0
 40
3.0
 40
3.0
 40
3.0
 40
4.0
 40
4.0
 40
4.0
 40
4.0
 10
116.6881261897045
 20
-131.5010210782357
 10
116.6881261897045
 20
-131.5843824671039
 10
116.6213100802981
 20
-131.6508810781985
 10
116.5386189712966
 20
-131.6508810781985
 10
116.4562806400639
 20
-131.6508810781985
 10
116.388406197351
 20
-131.5843824671039
 10
116.388406197351
 20
-131.5010210782357
 10
116.388406197351
 20
-131.4179771893677
 10
116.4562806400639
 20
-131.3511610782736
 10
116.5386189712966
 20
-131.3511610782736
 10
116.6213100802981
 20
-131.3511610782736
 10
116.6881261897045
 20
-131.4179771893677
 10
116.6881261897045
 20
-131.5010210782357
 97
        0
 97
        0
 75
     2
 76
     1
 98
        0
  0
ENDBLK
  5
EC
330
E9
100
AcDbEntity
  8
0
100
AcDbBlockEnd
  0
BLOCK
  5
F7
330
F5
100
AcDbEntity
  8
0
100
AcDbBlockBegin
  2
block 7
 70
     0
 10
0.0
 20
0.0
 30
0.0
  3
block 7
  1

  0
SPLINE
  5
F9
330
F5
100
AcDbEntity
  8
_U+30EC_U+30A4_U+30E4_U+30FC 1
370
     0
100
AcDbSpline
210
0.0
220
0.0
230
1.0
 70
    11
 71
     3
 72
    62
 73
    58
 74
     0
 42
0.0000000001
 43
0.0000000001
 12
1.0
 22
0.0
 32
0.0
 13
1.0
 23
0.0
 33
0.0
 40
0.0
 40
0.0
 40
0.0
 40
0.0
 40
1.0
 40
1.0
 40
1.0
 40
2.0
 40
2.0
 40
2.0
 40
3.0
 40
3.0
 40
3.0
 40
4.0
 40
4.0
 40
4.0
 40
5.0
 40
5.0
 40
5.0
 40
6.0
 40
6.0
 40
6.0
 40
7.0
 40
7.0
 40
7.0
 40
8.0
 40
8.0
 40
8.0
 40
9.0
 40
9.0
 40
9.0
 40
10.0
 40
10.0
 40
10.0
 40
11.0
 40
11.0
 40
11.0
 40
12.0
 40
12.0
 40
12.0
 40
13.0
 40
13.0
 40
13.0
 40
14.0
 40
14.0
 40
14.0
 40
15.0
 40
15.0
 40
15.0
 40
16.0
 40
16.0
 40
16.0
 40
17.0
 40
17.0
 40
17.0
 40
18.0
 40
18.0
 40
18.0
 40
19.0
 40
19.0
 40
19.0
 40
19.0
 10
117.8835882951819
 20
-114.9692097694348
 30
0.0
 10
117.788503659789
 20
-114.9692097694348
 30
0.0
 10
117.5704291155727
 20
-114.9481946869748
 30
0.0
 10
117.4457166590066
 20
-114.7621595307713
 30
0.0
 10
117.3716471060738
 20
-114.6498494179521
 30
0.0
 10
117.3675129914915
 20
-114.5506306679769
 30
0.0
 10
117.3633788769092
 20
-114.4658813190398
 30
0.0
 10
117.3633788769092
 20
-114.4658813190398
 30
0.0
 10
117.5831759688681
 20
-114.4658813190398
 30
0.0
 10
117.5831759688681
 20
-114.4658813190398
 30
0.0
 10
117.5852430261592
 20
-114.5399508719726
 30
0.0
 10
117.5959228221635
 20
-114.7745618745182
 30
0.0
 10
117.8794541805996
 20
-114.7745618745182
 30
0.0
 10
118.0169134904611
 20
-114.7745618745182
 30
0.0
 10
118.1691867109091
 20
-114.7049709457161
 30
0.0
 10
118.1691867109091
 20
-114.4765611150441
 30
0.0
 10
118.1691867109091
 20
-114.3601168876426
 30
0.0
 10
118.1309461510228
 20
-114.3115410413006
 30
0.0
 10
118.0992512725585
 20
-114.2798461628363
 30
0.0
 10
118.0255262291742
 20
-114.2057766099034
 30
0.0
 10
117.9090820017727
 20
-114.193029756608
 30
0.0
 10
117.8539604740087
 20
-114.193029756608
 30
0.0
 10
117.8350124488399
 20
-114.193029756608
 30
0.0
 10
117.7988389462447
 20
-114.1950968138991
 30
0.0
 10
117.7712781823627
 20
-114.1992309284814
 30
0.0
 10
117.7712781823627
 20
-114.1992309284814
 30
0.0
 10
117.7712781823627
 20
-114.0045830335648
 30
0.0
 10
117.7712781823627
 20
-114.0045830335648
 30
0.0
 10
117.809518742249
 20
-114.0111287149868
 30
0.0
 10
117.8518934167176
 20
-114.013195772278
 30
0.0
 10
117.858094588591
 20
-114.013195772278
 30
0.0
 10
117.9235514028108
 20
-114.013195772278
 30
0.0
 10
118.1226779218582
 20
-113.9918361802694
 30
0.0
 10
118.1226779218582
 20
-113.7551581204327
 30
0.0
 10
118.1226779218582
 20
-113.5773911933939
 30
0.0
 10
117.9914197838702
 20
-113.5222696656298
 30
0.0
 10
117.8815212378907
 20
-113.5222696656298
 30
0.0
 10
117.6169379046236
 20
-113.5222696656298
 30
0.0
 10
117.608669675459
 20
-113.7551581204327
 30
0.0
 10
117.6045355608767
 20
-113.8268161065259
 30
0.0
 10
117.6045355608767
 20
-113.8268161065259
 30
0.0
 10
117.4012749272469
 20
-113.8268161065259
 30
0.0
 10
117.4012749272469
 20
-113.8268161065259
 30
0.0
 10
117.4095431564115
 20
-113.7021036499599
 30
0.0
 10
117.4371039202935
 20
-113.3255547134221
 30
0.0
 10
117.8939235816376
 20
-113.3255547134221
 30
0.0
 10
118.1185438072759
 20
-113.3255547134221
 30
0.0
 10
118.3597004912434
 20
-113.4526787368278
 30
0.0
 10
118.3597004912434
 20
-113.7486124390108
 30
0.0
 10
118.3597004912434
 20
-113.9349921047628
 30
0.0
 10
118.2646158558505
 20
-114.0173298868603
 30
0.0
 10
118.1647080867783
 20
-114.0786525864977
 30
0.0
 10
118.2263752959642
 20
-114.1062133503797
 30
0.0
 10
118.4082763375854
 20
-114.186484075186
 30
0.0
 10
118.4082763375854
 20
-114.4638142617486
 30
0.0
 10
118.4082763375854
 20
-114.8021226384002
 30
0.0
 10
118.160573972196
 20
-114.9692097694348
 30
0.0
 10
117.8835882951819
 20
-114.9692097694348
 30
0.0
  0
HATCH
  5
FA
330
F5
100
AcDbEntity
  8
_U+30EC_U+30A4_U+30E4_U+30FC 1
 62
   179
420
  2234388
100
AcDbHatch
 10
0.0
 20
0.0
 30
0.0
210
0.0
220
0.0
230
1.0
  2
SOLID
 70
     1
 71
     0
 91
        1
 92
        1
 93
        1
 72
     4
 94
        3
 73
     0
 74
     1
 95
       62
 96
       58
 40
0.0
 40
0.0
 40
0.0
 40
0.0
 40
1.0
 40
1.0
 40
1.0
 40
2.0
 40
2.0
 40
2.0
 40
3.0
 40
3.0
 40
3.0
 40
4.0
 40
4.0
 40
4.0
 40
5.0
 40
5.0
 40
5.0
 40
6.0
 40
6.0
 40
6.0
 40
7.0
 40
7.0
 40
7.0
 40
8.0
 40
8.0
 40
8.0
 40
9.0
 40
9.0
 40
9.0
 40
10.0
 40
10.0
 40
10.0
 40
11.0
 40
11.0
 40
11.0
 40
12.0
 40
12.0
 40
12.0
 40
13.0
 40
13.0
 40
13.0
 40
14.0
 40
14.0
 40
14.0
 40
15.0
 40
15.0
 40
15.0
 40
16.0
 40
16.0
 40
16.0
 40
17.0
 40
17.0
 40
17.0
 40
18.0
 40
18.0
 40
18.0
 40
19.0
 40
19.0
 40
19.0
 40
19.0
 10
117.8835882951819
 20
-114.9692097694348
 10
117.788503659789
 20
-114.9692097694348
 10
117.5704291155727
 20
-114.9481946869748
 10
117.4457166590066
 20
-114.7621595307713
 10
117.3716471060738
 20
-114.6498494179521
 10
117.3675129914915
 20
-114.5506306679769
 10
117.3633788769092
 20
-114.4658813190398
 10
117.3633788769092
 20
-114.4658813190398
 10
117.5831759688681
 20
-114.4658813190398
 10
117.5831759688681
 20
-114.4658813190398
 10
117.5852430261592
 20
-114.5399508719726
 10
117.5959228221635
 20
-114.7745618745182
 10
117.8794541805996
 20
-114.7745618745182
 10
118.0169134904611
 20
-114.7745618745182
 10
118.1691867109091
 20
-114.7049709457161
 10
118.1691867109091
 20
-114.4765611150441
 10
118.1691867109091
 20
-114.3601168876426
 10
118.1309461510228
 20
-114.3115410413006
 10
118.0992512725585
 20
-114.2798461628363
 10
118.0255262291742
 20
-114.2057766099034
 10
117.9090820017727
 20
-114.193029756608
 10
117.8539604740087
 20
-114.193029756608
 10
117.8350124488399
 20
-114.193029756608
 10
117.7988389462447
 20
-114.1950968138991
 10
117.7712781823627
 20
-114.1992309284814
 10
117.7712781823627
 20
-114.1992309284814
 10
117.7712781823627
 20
-114.0045830335648
 10
117.7712781823627
 20
-114.0045830335648
 10
117.809518742249
 20
-114.0111287149868
 10
117.8518934167176
 20
-114.013195772278
 10
117.858094588591
 20
-114.013195772278
 10
117.9235514028108
 20
-114.013195772278
 10
118.1226779218582
 20
-113.9918361802694
 10
118.1226779218582
 20
-113.7551581204327
 10
118.1226779218582
 20
-113.5773911933939
 10
117.9914197838702
 20
-113.5222696656298
 10
117.8815212378907
 20
-113.5222696656298
 10
117.6169379046236
 20
-113.5222696656298
 10
117.608669675459
 20
-113.7551581204327
 10
117.6045355608767
 20
-113.8268161065259
 10
117.6045355608767
 20
-113.8268161065259
 10
117.4012749272469
 20
-113.8268161065259
 10
117.4012749272469
 20
-113.8268161065259
 10
117.4095431564115
 20
-113.7021036499599
 10
117.4371039202935
 20
-113.3255547134221
 10
117.8939235816376
 20
-113.3255547134221
 10
118.1185438072759
 20
-113.3255547134221
 10
118.3597004912434
 20
-113.4526787368278
 10
118.3597004912434
 20
-113.7486124390108
 10
118.3597004912434
 20
-113.9349921047628
 10
118.2646158558505
 20
-114.0173298868603
 10
118.1647080867783
 20
-114.0786525864977
 10
118.2263752959642
 20
-114.1062133503797
 10
118.4082763375854
 20
-114.186484075186
 10
118.4082763375854
 20
-114.4638142617486
 10
118.4082763375854
 20
-114.8021226384002
 10
118.160573972196
 20
-114.9692097694348
 10
117.8835882951819
 20
-114.9692097694348
 97
        0
 97
        0
 75
     2
 76
     1
 98
        0
  0
SPLINE
  5
FB
330
F5
100
AcDbEntity
  8
_U+30EC_U+30A4_U+30E4_U+30FC 1
370
     0
100
AcDbSpline
210
0.0
220
0.0
230
1.0
 70
    11
 71
     3
 72
    29
 73
    25
 74
     0
 42
0.0000000001
 43
0.0000000001
 12
1.0
 22
0.0
 32
0.0
 13
1.0
 23
0.0
 33
0.0
 40
0.0
 40
0.0
 40
0.0
 40
0.0
 40
1.0
 40
1.0
 40
1.0
 40
2.0
 40
2.0
 40
2.0
 40
3.0
 40
3.0
 40
3.0
 40
4.0
 40
4.0
 40
4.0
 40
5.0
 40
5.0
 40
5.0
 40
6.0
 40
6.0
 40
6.0
 40
7.0
 40
7.0
 40
7.0
 40
8.0
 40
8.0
 40
8.0
 40
8.0
 10
119.4666096706542
 20
-114.7407999387627
 30
0.0
 10
119.3587781819659
 20
-114.9502617442659
 30
0.0
 10
119.1851453695093
 20
-114.9692097694348
 30
0.0
 10
119.0687011421078
 20
-114.9692097694348
 30
0.0
 10
118.9081596924952
 20
-114.9692097694348
 30
0.0
 10
118.7662217585029
 20
-114.9227009803839
 30
0.0
 10
118.67113712311
 20
-114.7407999387627
 30
0.0
 10
118.5677842585525
 20
-114.5461520438461
 30
0.0
 10
118.5484917238351
 20
-114.3094739840094
 30
0.0
 10
118.5484917238351
 20
-114.1465209675571
 30
0.0
 10
118.5484917238351
 20
-114.0025159762737
 30
0.0
 10
118.5653726917128
 20
-113.7506794963019
 30
0.0
 10
118.67113712311
 20
-113.551897486803
 30
0.0
 10
118.7793131213468
 20
-113.3489813627218
 30
0.0
 10
118.9398545709595
 20
-113.3255547134221
 30
0.0
 10
119.0687011421078
 20
-113.3255547134221
 30
0.0
 10
119.2275200439778
 20
-113.3255547134221
 30
0.0
 10
119.3711805257128
 20
-113.3699964451818
 30
0.0
 10
119.4666096706542
 20
-113.551897486803
 30
0.0
 10
119.5661729301779
 20
-113.7444783244285
 30
0.0
 10
119.5892550699291
 20
-113.9728881551005
 30
0.0
 10
119.5892550699291
 20
-114.1465209675571
 30
0.0
 10
119.5892550699291
 20
-114.317742213174
 30
0.0
 10
119.5682399874691
 20
-114.5482191011372
 30
0.0
 10
119.4666096706542
 20
-114.7407999387627
 30
0.0
  0
SPLINE
  5
FC
330
F5
100
AcDbEntity
  8
_U+30EC_U+30A4_U+30E4_U+30FC 1
370
     0
100
AcDbSpline
210
0.0
220
0.0
230
1.0
 70
    11
 71
     3
 72
    17
 73
    13
 74
     0
 42
0.0000000001
 43
0.0000000001
 12
1.0
 22
0.0
 32
0.0
 13
1.0
 23
0.0
 33
0.0
 40
0.0
 40
0.0
 40
0.0
 40
0.0
 40
1.0
 40
1.0
 40
1.0
 40
2.0
 40
2.0
 40
2.0
 40
3.0
 40
3.0
 40
3.0
 40
4.0
 40
4.0
 40
4.0
 40
4.0
 10
119.0687011421078
 20
-113.5181355510475
 30
0.0
 10
118.8192762289757
 20
-113.5181355510475
 30
0.0
 10
118.7727674399249
 20
-113.8016669094836
 30
0.0
 10
118.7727674399249
 20
-114.1465209675571
 30
0.0
 10
118.7727674399249
 20
-114.4658813190398
 30
0.0
 10
118.80894094252
 20
-114.7745618745182
 30
0.0
 10
119.0687011421078
 20
-114.7745618745182
 30
0.0
 10
119.3164035074973
 20
-114.7745618745182
 30
0.0
 10
119.3649793538393
 20
-114.4934420829218
 30
0.0
 10
119.3649793538393
 20
-114.1465209675571
 30
0.0
 10
119.3649793538393
 20
-113.8268161065259
 30
0.0
 10
119.3270833035016
 20
-113.5181355510475
 30
0.0
 10
119.0687011421078
 20
-113.5181355510475
 30
0.0
  0
HATCH
  5
FD
330
F5
100
AcDbEntity
  8
_U+30EC_U+30A4_U+30E4_U+30FC 1
 62
   179
420
  2234388
100
AcDbHatch
 10
0.0
 20
0.0
 30
0.0
210
0.0
220
0.0
230
1.0
  2
SOLID
 70
     1
 71
     0
 91
        2
 92
        1
 93
        1
 72
     4
 94
        3
 73
     0
 74
     1
 95
       29
 96
       25
 40
0.0
 40
0.0
 40
0.0
 40
0.0
 40
1.0
 40
1.0
 40
1.0
 40
2.0
 40
2.0
 40
2.0
 40
3.0
 40
3.0
 40
3.0
 40
4.0
 40
4.0
 40
4.0
 40
5.0
 40
5.0
 40
5.0
 40
6.0
 40
6.0
 40
6.0
 40
7.0
 40
7.0
 40
7.0
 40
8.0
 40
8.0
 40
8.0
 40
8.0
 10
119.4666096706542
 20
-114.7407999387627
 10
119.3587781819659
 20
-114.9502617442659
 10
119.1851453695093
 20
-114.9692097694348
 10
119.0687011421078
 20
-114.9692097694348
 10
118.9081596924952
 20
-114.9692097694348
 10
118.7662217585029
 20
-114.9227009803839
 10
118.67113712311
 20
-114.7407999387627
 10
118.5677842585525
 20
-114.5461520438461
 10
118.5484917238351
 20
-114.3094739840094
 10
118.5484917238351
 20
-114.1465209675571
 10
118.5484917238351
 20
-114.0025159762737
 10
118.5653726917128
 20
-113.7506794963019
 10
118.67113712311
 20
-113.551897486803
 10
118.7793131213468
 20
-113.3489813627218
 10
118.9398545709595
 20
-113.3255547134221
 10
119.0687011421078
 20
-113.3255547134221
 10
119.2275200439778
 20
-113.3255547134221
 10
119.3711805257128
 20
-113.3699964451818
 10
119.4666096706542
 20
-113.551897486803
 10
119.5661729301779
 20
-113.7444783244285
 10
119.5892550699291
 20
-113.9728881551005
 10
119.5892550699291
 20
-114.1465209675571
 10
119.5892550699291
 20
-114.317742213174
 10
119.5682399874691
 20
-114.5482191011372
 10
119.4666096706542
 20
-114.7407999387627
 97
        0
 97
        0
 92
        1
 93
        1
 72
     4
 94
        3
 73
     0
 74
     1
 95
       17
 96
       13
 40
0.0
 40
0.0
 40
0.0
 40
0.0
 40
1.0
 40
1.0
 40
1.0
 40
2.0
 40
2.0
 40
2.0
 40
3.0
 40
3.0
 40
3.0
 40
4.0
 40
4.0
 40
4.0
 40
4.0
 10
119.0687011421078
 20
-113.5181355510475
 10
118.8192762289757
 20
-113.5181355510475
 10
118.7727674399249
 20
-113.8016669094836
 10
118.7727674399249
 20
-114.1465209675571
 10
118.7727674399249
 20
-114.4658813190398
 10
118.80894094252
 20
-114.7745618745182
 10
119.0687011421078
 20
-114.7745618745182
 10
119.3164035074973
 20
-114.7745618745182
 10
119.3649793538393
 20
-114.4934420829218
 10
119.3649793538393
 20
-114.1465209675571
 10
119.3649793538393
 20
-113.8268161065259
 10
119.3270833035016
 20
-113.5181355510475
 10
119.0687011421078
 20
-113.5181355510475
 97
        0
 97
        0
 75
     2
 76
     1
 98
        0
  0
POLYLINE
  5
FE
330
F5
100
AcDbEntity
  8
_U+30EC_U+30A4_U+30E4_U+30FC 1
370
     0
100
AcDb2dPolyline
 66
     1
 10
0.0
 20
0.0
 30
0.0
  0
VERTEX
  5
FF
330
FE
100
AcDbEntity
  8
_U+30EC_U+30A4_U+30E4_U+30FC 1
370
     0
100
AcDbVertex
100
AcDb2dVertex
 10
118.2239637291246
 20
-117.3325452723162
 30
0.0
  0
VERTEX
  5
100
330
FE
100
AcDbEntity
  8
_U+30EC_U+30A4_U+30E4_U+30FC 1
370
     0
100
AcDbVertex
100
AcDb2dVertex
 10
118.2239637291246
 20
-117.6794663876808
 30
0.0
  0
VERTEX
  5
101
330
FE
100
AcDbEntity
  8
_U+30EC_U+30A4_U+30E4_U+30FC 1
370
     0
100
AcDbVertex
100
AcDb2dVertex
 10
118.0062336944568
 20
-117.6794663876808
 30
0.0
  0
VERTEX
  5
102
330
FE
100
AcDbEntity
  8
_U+30EC_U+30A4_U+30E4_U+30FC 1
370
     0
100
AcDbVertex
100
AcDb2dVertex
 10
118.0062336944568
 20
-117.3325452723162
 30
0.0
  0
VERTEX
  5
103
330
FE
100
AcDbEntity
  8
_U+30EC_U+30A4_U+30E4_U+30FC 1
370
     0
100
AcDbVertex
100
AcDb2dVertex
 10
117.3502875140652
 20
-117.3325452723162
 30
0.0
  0
VERTEX
  5
104
330
FE
100
AcDbEntity
  8
_U+30EC_U+30A4_U+30E4_U+30FC 1
370
     0
100
AcDbVertex
100
AcDb2dVertex
 10
117.3502875140652
 20
-117.1082695562264
 30
0.0
  0
VERTEX
  5
105
330
FE
100
AcDbEntity
  8
_U+30EC_U+30A4_U+30E4_U+30FC 1
370
     0
100
AcDbVertex
100
AcDb2dVertex
 10
118.0296603437565
 20
-116.1350300816433
 30
0.0
  0
VERTEX
  5
106
330
FE
100
AcDbEntity
  8
_U+30EC_U+30A4_U+30E4_U+30FC 1
370
     0
100
AcDbVertex
100
AcDb2dVertex
 10
118.2239637291246
 20
-116.1350300816433
 30
0.0
  0
VERTEX
  5
107
330
FE
100
AcDbEntity
  8
_U+30EC_U+30A4_U+30E4_U+30FC 1
370
     0
100
AcDbVertex
100
AcDb2dVertex
 10
118.2239637291246
 20
-117.1337632628173
 30
0.0
  0
VERTEX
  5
108
330
FE
100
AcDbEntity
  8
_U+30EC_U+30A4_U+30E4_U+30FC 1
370
     0
100
AcDbVertex
100
AcDb2dVertex
 10
118.4313584773366
 20
-117.1337632628173
 30
0.0
  0
VERTEX
  5
109
330
FE
100
AcDbEntity
  8
_U+30EC_U+30A4_U+30E4_U+30FC 1
370
     0
100
AcDbVertex
100
AcDb2dVertex
 10
118.4313584773366
 20
-117.3325452723162
 30
0.0
  0
VERTEX
  5
10A
330
FE
100
AcDbEntity
  8
_U+30EC_U+30A4_U+30E4_U+30FC 1
370
     0
100
AcDbVertex
100
AcDb2dVertex
 10
118.2239637291246
 20
-117.3325452723162
 30
0.0
  0
SEQEND
  5
10B
330
FE
100
AcDbEntity
  8
_U+30EC_U+30A4_U+30E4_U+30FC 1
370
     0
  0
POLYLINE
  5
10C
330
F5
100
AcDbEntity
  8
_U+30EC_U+30A4_U+30E4_U+30FC 1
370
     0
100
AcDb2dPolyline
 66
     1
 10
0.0
 20
0.0
 30
0.0
  0
VERTEX
  5
10D
330
10C
100
AcDbEntity
  8
_U+30EC_U+30A4_U+30E4_U+30FC 1
370
     0
100
AcDbVertex
100
AcDb2dVertex
 10
118.0062336944568
 20
-116.4778170824257
 30
0.0
  0
VERTEX
  5
10E
330
10C
100
AcDbEntity
  8
_U+30EC_U+30A4_U+30E4_U+30FC 1
370
     0
100
AcDbVertex
100
AcDb2dVertex
 10
117.5494140331127
 20
-117.1337632628173
 30
0.0
  0
VERTEX
  5
10F
330
10C
100
AcDbEntity
  8
_U+30EC_U+30A4_U+30E4_U+30FC 1
370
     0
100
AcDbVertex
100
AcDb2dVertex
 10
118.0062336944568
 20
-117.1337632628173
 30
0.0
  0
VERTEX
  5
110
330
10C
100
AcDbEntity
  8
_U+30EC_U+30A4_U+30E4_U+30FC 1
370
     0
100
AcDbVertex
100
AcDb2dVertex
 10
118.0062336944568
 20
-116.4778170824257
 30
0.0
  0
SEQEND
  5
111
330
10C
100
AcDbEntity
  8
_U+30EC_U+30A4_U+30E4_U+30FC 1
370
     0
  0
HATCH
  5
112
330
F5
100
AcDbEntity
  8
_U+30EC_U+30A4_U+30E4_U+30FC 1
 62
   179
420
  2234388
100
AcDbHatch
 10
0.0
 20
0.0
 30
0.0
210
0.0
220
0.0
230
1.0
  2
SOLID
 70
     1
 71
     0
 91
        2
 92
        1
 93
       11
 72
     1
 10
118.2239637291246
 20
-117.3325452723162
 11
118.2239637291246
 21
-117.6794663876808
 72
     1
 10
118.2239637291246
 20
-117.6794663876808
 11
118.0062336944568
 21
-117.6794663876808
 72
     1
 10
118.0062336944568
 20
-117.6794663876808
 11
118.0062336944568
 21
-117.3325452723162
 72
     1
 10
118.0062336944568
 20
-117.3325452723162
 11
117.3502875140652
 21
-117.3325452723162
 72
     1
 10
117.3502875140652
 20
-117.3325452723162
 11
117.3502875140652
 21
-117.1082695562264
 72
     1
 10
117.3502875140652
 20
-117.1082695562264
 11
118.0296603437565
 21
-116.1350300816433
 72
     1
 10
118.0296603437565
 20
-116.1350300816433
 11
118.2239637291246
 21
-116.1350300816433
 72
     1
 10
118.2239637291246
 20
-116.1350300816433
 11
118.2239637291246
 21
-117.1337632628173
 72
     1
 10
118.2239637291246
 20
-117.1337632628173
 11
118.4313584773366
 21
-117.1337632628173
 72
     1
 10
118.4313584773366
 20
-117.1337632628173
 11
118.4313584773366
 21
-117.3325452723162
 72
     1
 10
118.4313584773366
 20
-117.3325452723162
 11
118.2239637291246
 21
-117.3325452723162
 97
        0
 92
        1
 93
        3
 72
     1
 10
118.0062336944568
 20
-116.4778170824257
 11
117.5494140331127
 21
-117.1337632628173
 72
     1
 10
117.5494140331127
 20
-117.1337632628173
 11
118.0062336944568
 21
-117.1337632628173
 72
     1
 10
118.0062336944568
 20
-117.1337632628173
 11
118.0062336944568
 21
-116.4778170824257
 97
        0
 75
     2
 76
     1
 98
        0
  0
SPLINE
  5
113
330
F5
100
AcDbEntity
  8
_U+30EC_U+30A4_U+30E4_U+30FC 1
370
     0
100
AcDbSpline
210
0.0
220
0.0
230
1.0
 70
    11
 71
     3
 72
    29
 73
    25
 74
     0
 42
0.0000000001
 43
0.0000000001
 12
1.0
 22
0.0
 32
0.0
 13
1.0
 23
0.0
 33
0.0
 40
0.0
 40
0.0
 40
0.0
 40
0.0
 40
1.0
 40
1.0
 40
1.0
 40
2.0
 40
2.0
 40
2.0
 40
3.0
 40
3.0
 40
3.0
 40
4.0
 40
4.0
 40
4.0
 40
5.0
 40
5.0
 40
5.0
 40
6.0
 40
6.0
 40
6.0
 40
7.0
 40
7.0
 40
7.0
 40
8.0
 40
8.0
 40
8.0
 40
8.0
 10
119.4666096706542
 20
-117.5016994606419
 30
0.0
 10
119.3587781819659
 20
-117.7111612661451
 30
0.0
 10
119.1851453695093
 20
-117.730109291314
 30
0.0
 10
119.0687011421078
 20
-117.730109291314
 30
0.0
 10
118.9081596924952
 20
-117.730109291314
 30
0.0
 10
118.7662217585029
 20
-117.6836005022631
 30
0.0
 10
118.67113712311
 20
-117.5016994606419
 30
0.0
 10
118.5677842585525
 20
-117.3070515657253
 30
0.0
 10
118.5484917238351
 20
-117.0703735058887
 30
0.0
 10
118.5484917238351
 20
-116.9074204894363
 30
0.0
 10
118.5484917238351
 20
-116.7634154981529
 30
0.0
 10
118.5653726917128
 20
-116.5115790181811
 30
0.0
 10
118.67113712311
 20
-116.3127970086822
 30
0.0
 10
118.7793131213468
 20
-116.109880884601
 30
0.0
 10
118.9398545709595
 20
-116.0864542353013
 30
0.0
 10
119.0687011421078
 20
-116.0864542353013
 30
0.0
 10
119.2275200439778
 20
-116.0864542353013
 30
0.0
 10
119.3711805257128
 20
-116.130895967061
 30
0.0
 10
119.4666096706542
 20
-116.3127970086822
 30
0.0
 10
119.5661729301779
 20
-116.5053778463077
 30
0.0
 10
119.5892550699291
 20
-116.7337876769798
 30
0.0
 10
119.5892550699291
 20
-116.9074204894363
 30
0.0
 10
119.5892550699291
 20
-117.0786417350533
 30
0.0
 10
119.5682399874691
 20
-117.3091186230165
 30
0.0
 10
119.4666096706542
 20
-117.5016994606419
 30
0.0
  0
SPLINE
  5
114
330
F5
100
AcDbEntity
  8
_U+30EC_U+30A4_U+30E4_U+30FC 1
370
     0
100
AcDbSpline
210
0.0
220
0.0
230
1.0
 70
    11
 71
     3
 72
    17
 73
    13
 74
     0
 42
0.0000000001
 43
0.0000000001
 12
1.0
 22
0.0
 32
0.0
 13
1.0
 23
0.0
 33
0.0
 40
0.0
 40
0.0
 40
0.0
 40
0.0
 40
1.0
 40
1.0
 40
1.0
 40
2.0
 40
2.0
 40
2.0
 40
3.0
 40
3.0
 40
3.0
 40
4.0
 40
4.0
 40
4.0
 40
4.0
 10
119.0687011421078
 20
-116.2790350729268
 30
0.0
 10
118.8192762289757
 20
-116.2790350729268
 30
0.0
 10
118.7727674399249
 20
-116.5625664313628
 30
0.0
 10
118.7727674399249
 20
-116.9074204894363
 30
0.0
 10
118.7727674399249
 20
-117.226780840919
 30
0.0
 10
118.80894094252
 20
-117.5354613963974
 30
0.0
 10
119.0687011421078
 20
-117.5354613963974
 30
0.0
 10
119.3164035074973
 20
-117.5354613963974
 30
0.0
 10
119.3649793538393
 20
-117.254341604801
 30
0.0
 10
119.3649793538393
 20
-116.9074204894363
 30
0.0
 10
119.3649793538393
 20
-116.5877156284052
 30
0.0
 10
119.3270833035016
 20
-116.2790350729268
 30
0.0
 10
119.0687011421078
 20
-116.2790350729268
 30
0.0
  0
HATCH
  5
115
330
F5
100
AcDbEntity
  8
_U+30EC_U+30A4_U+30E4_U+30FC 1
 62
   179
420
  2234388
100
AcDbHatch
 10
0.0
 20
0.0
 30
0.0
210
0.0
220
0.0
230
1.0
  2
SOLID
 70
     1
 71
     0
 91
        2
 92
        1
 93
        1
 72
     4
 94
        3
 73
     0
 74
     1
 95
       29
 96
       25
 40
0.0
 40
0.0
 40
0.0
 40
0.0
 40
1.0
 40
1.0
 40
1.0
 40
2.0
 40
2.0
 40
2.0
 40
3.0
 40
3.0
 40
3.0
 40
4.0
 40
4.0
 40
4.0
 40
5.0
 40
5.0
 40
5.0
 40
6.0
 40
6.0
 40
6.0
 40
7.0
 40
7.0
 40
7.0
 40
8.0
 40
8.0
 40
8.0
 40
8.0
 10
119.4666096706542
 20
-117.5016994606419
 10
119.3587781819659
 20
-117.7111612661451
 10
119.1851453695093
 20
-117.730109291314
 10
119.0687011421078
 20
-117.730109291314
 10
118.9081596924952
 20
-117.730109291314
 10
118.7662217585029
 20
-117.6836005022631
 10
118.67113712311
 20
-117.5016994606419
 10
118.5677842585525
 20
-117.3070515657253
 10
118.5484917238351
 20
-117.0703735058887
 10
118.5484917238351
 20
-116.9074204894363
 10
118.5484917238351
 20
-116.7634154981529
 10
118.5653726917128
 20
-116.5115790181811
 10
118.67113712311
 20
-116.3127970086822
 10
118.7793131213468
 20
-116.109880884601
 10
118.9398545709595
 20
-116.0864542353013
 10
119.0687011421078
 20
-116.0864542353013
 10
119.2275200439778
 20
-116.0864542353013
 10
119.3711805257128
 20
-116.130895967061
 10
119.4666096706542
 20
-116.3127970086822
 10
119.5661729301779
 20
-116.5053778463077
 10
119.5892550699291
 20
-116.7337876769798
 10
119.5892550699291
 20
-116.9074204894363
 10
119.5892550699291
 20
-117.0786417350533
 10
119.5682399874691
 20
-117.3091186230165
 10
119.4666096706542
 20
-117.5016994606419
 97
        0
 97
        0
 92
        1
 93
        1
 72
     4
 94
        3
 73
     0
 74
     1
 95
       17
 96
       13
 40
0.0
 40
0.0
 40
0.0
 40
0.0
 40
1.0
 40
1.0
 40
1.0
 40
2.0
 40
2.0
 40
2.0
 40
3.0
 40
3.0
 40
3.0
 40
4.0
 40
4.0
 40
4.0
 40
4.0
 10
119.0687011421078
 20
-116.2790350729268
 10
118.8192762289757
 20
-116.2790350729268
 10
118.7727674399249
 20
-116.5625664313628
 10
118.7727674399249
 20
-116.9074204894363
 10
118.7727674399249
 20
-117.226780840919
 10
118.80894094252
 20
-117.5354613963974
 10
119.0687011421078
 20
-117.5354613963974
 10
119.3164035074973
 20
-117.5354613963974
 10
119.3649793538393
 20
-117.254341604801
 10
119.3649793538393
 20
-116.9074204894363
 10
119.3649793538393
 20
-116.5877156284052
 10
119.3270833035016
 20
-116.2790350729268
 10
119.0687011421078
 20
-116.2790350729268
 97
        0
 97
        0
 75
     2
 76
     1
 98
        0
  0
SPLINE
  5
116
330
F5
100
AcDbEntity
  8
_U+30EC_U+30A4_U+30E4_U+30FC 1
370
     0
100
AcDbSpline
210
0.0
220
0.0
230
1.0
 70
    11
 71
     3
 72
    53
 73
    49
 74
     0
 42
0.0000000001
 43
0.0000000001
 12
1.0
 22
0.0
 32
0.0
 13
1.0
 23
0.0
 33
0.0
 40
0.0
 40
0.0
 40
0.0
 40
0.0
 40
1.0
 40
1.0
 40
1.0
 40
2.0
 40
2.0
 40
2.0
 40
3.0
 40
3.0
 40
3.0
 40
4.0
 40
4.0
 40
4.0
 40
5.0
 40
5.0
 40
5.0
 40
6.0
 40
6.0
 40
6.0
 40
7.0
 40
7.0
 40
7.0
 40
8.0
 40
8.0
 40
8.0
 40
9.0
 40
9.0
 40
9.0
 40
10.0
 40
10.0
 40
10.0
 40
11.0
 40
11.0
 40
11.0
 40
12.0
 40
12.0
 40
12.0
 40
13.0
 40
13.0
 40
13.0
 40
14.0
 40
14.0
 40
14.0
 40
15.0
 40
15.0
 40
15.0
 40
16.0
 40
16.0
 40
16.0
 40
16.0
 10
117.8732530087261
 20
-120.4906643036447
 30
0.0
 10
117.7947048316624
 20
-120.4906643036447
 30
0.0
 10
117.6934190243961
 20
-120.473783335767
 30
0.0
 10
117.5914441980327
 20
-120.4103935788384
 30
0.0
 10
117.4181558951246
 20
-120.3004950328589
 30
0.0
 10
117.3971408126646
 20
-120.1692368948709
 30
0.0
 10
117.3778482779472
 20
-120.0614054061826
 30
0.0
 10
117.3778482779472
 20
-120.0614054061826
 30
0.0
 10
117.6000569367458
 20
-120.0614054061826
 30
0.0
 10
117.6000569367458
 20
-120.0614054061826
 30
0.0
 10
117.6551784645098
 20
-120.2601874156815
 30
0.0
 10
117.7823024879155
 20
-120.2898152368546
 30
0.0
 10
117.8753200660173
 20
-120.2898152368546
 30
0.0
 10
118.0145019236214
 20
-120.2898152368546
 30
0.0
 10
118.1671196536179
 20
-120.1902519773309
 30
0.0
 10
118.1671196536179
 20
-119.9577080320766
 30
0.0
 10
118.1671196536179
 20
-119.7017374375225
 30
0.0
 10
117.9872856692879
 20
-119.6318019991719
 30
0.0
 10
117.8667073273042
 20
-119.6318019991719
 30
0.0
 10
117.8350124488399
 20
-119.6318019991719
 30
0.0
 10
117.6934190243961
 20
-119.6318019991719
 30
0.0
 10
117.6045355608767
 20
-119.7609930798688
 30
0.0
 10
117.6045355608767
 20
-119.7609930798688
 30
0.0
 10
117.4288356911289
 20
-119.7420450546999
 30
0.0
 10
117.4288356911289
 20
-119.7420450546999
 30
0.0
 10
117.4288356911289
 20
-119.7420450546999
 30
0.0
 10
117.5494140331127
 20
-118.895585093974
 30
0.0
 10
117.5494140331127
 20
-118.895585093974
 30
0.0
 10
117.5494140331127
 20
-118.895585093974
 30
0.0
 10
118.3280056127791
 20
-118.895585093974
 30
0.0
 10
118.3280056127791
 20
-118.895585093974
 30
0.0
 10
118.3280056127791
 20
-118.895585093974
 30
0.0
 10
118.3280056127791
 20
-119.0902329888906
 30
0.0
 10
118.3280056127791
 20
-119.0902329888906
 30
0.0
 10
118.3280056127791
 20
-119.0902329888906
 30
0.0
 10
117.7120225400164
 20
-119.0902329888906
 30
0.0
 10
117.7120225400164
 20
-119.0902329888906
 30
0.0
 10
117.7120225400164
 20
-119.0902329888906
 30
0.0
 10
117.6465657257967
 20
-119.5132907144793
 30
0.0
 10
117.6465657257967
 20
-119.5132907144793
 30
0.0
 10
117.7078884254341
 20
-119.4795287787239
 30
0.0
 10
117.7905707170801
 20
-119.4392211615465
 30
0.0
 10
117.9090820017727
 20
-119.4392211615465
 30
0.0
 10
118.1626410294871
 20
-119.4392211615465
 30
0.0
 10
118.3996635988723
 20
-119.6256008272985
 30
0.0
 10
118.3996635988723
 20
-119.9387600069077
 30
0.0
 10
118.3996635988723
 20
-120.2560533010992
 30
0.0
 10
118.1757323923311
 20
-120.4906643036447
 30
0.0
 10
117.8732530087261
 20
-120.4906643036447
 30
0.0
  0
HATCH
  5
117
330
F5
100
AcDbEntity
  8
_U+30EC_U+30A4_U+30E4_U+30FC 1
 62
   179
420
  2234388
100
AcDbHatch
 10
0.0
 20
0.0
 30
0.0
210
0.0
220
0.0
230
1.0
  2
SOLID
 70
     1
 71
     0
 91
        1
 92
        1
 93
        1
 72
     4
 94
        3
 73
     0
 74
     1
 95
       53
 96
       49
 40
0.0
 40
0.0
 40
0.0
 40
0.0
 40
1.0
 40
1.0
 40
1.0
 40
2.0
 40
2.0
 40
2.0
 40
3.0
 40
3.0
 40
3.0
 40
4.0
 40
4.0
 40
4.0
 40
5.0
 40
5.0
 40
5.0
 40
6.0
 40
6.0
 40
6.0
 40
7.0
 40
7.0
 40
7.0
 40
8.0
 40
8.0
 40
8.0
 40
9.0
 40
9.0
 40
9.0
 40
10.0
 40
10.0
 40
10.0
 40
11.0
 40
11.0
 40
11.0
 40
12.0
 40
12.0
 40
12.0
 40
13.0
 40
13.0
 40
13.0
 40
14.0
 40
14.0
 40
14.0
 40
15.0
 40
15.0
 40
15.0
 40
16.0
 40
16.0
 40
16.0
 40
16.0
 10
117.8732530087261
 20
-120.4906643036447
 10
117.7947048316624
 20
-120.4906643036447
 10
117.6934190243961
 20
-120.473783335767
 10
117.5914441980327
 20
-120.4103935788384
 10
117.4181558951246
 20
-120.3004950328589
 10
117.3971408126646
 20
-120.1692368948709
 10
117.3778482779472
 20
-120.0614054061826
 10
117.3778482779472
 20
-120.0614054061826
 10
117.6000569367458
 20
-120.0614054061826
 10
117.6000569367458
 20
-120.0614054061826
 10
117.6551784645098
 20
-120.2601874156815
 10
117.7823024879155
 20
-120.2898152368546
 10
117.8753200660173
 20
-120.2898152368546
 10
118.0145019236214
 20
-120.2898152368546
 10
118.1671196536179
 20
-120.1902519773309
 10
118.1671196536179
 20
-119.9577080320766
 10
118.1671196536179
 20
-119.7017374375225
 10
117.9872856692879
 20
-119.6318019991719
 10
117.8667073273042
 20
-119.6318019991719
 10
117.8350124488399
 20
-119.6318019991719
 10
117.6934190243961
 20
-119.6318019991719
 10
117.6045355608767
 20
-119.7609930798688
 10
117.6045355608767
 20
-119.7609930798688
 10
117.4288356911289
 20
-119.7420450546999
 10
117.4288356911289
 20
-119.7420450546999
 10
117.4288356911289
 20
-119.7420450546999
 10
117.5494140331127
 20
-118.895585093974
 10
117.5494140331127
 20
-118.895585093974
 10
117.5494140331127
 20
-118.895585093974
 10
118.3280056127791
 20
-118.895585093974
 10
118.3280056127791
 20
-118.895585093974
 10
118.3280056127791
 20
-118.895585093974
 10
118.3280056127791
 20
-119.0902329888906
 10
118.3280056127791
 20
-119.0902329888906
 10
118.3280056127791
 20
-119.0902329888906
 10
117.7120225400164
 20
-119.0902329888906
 10
117.7120225400164
 20
-119.0902329888906
 10
117.7120225400164
 20
-119.0902329888906
 10
117.6465657257967
 20
-119.5132907144793
 10
117.6465657257967
 20
-119.5132907144793
 10
117.7078884254341
 20
-119.4795287787239
 10
117.7905707170801
 20
-119.4392211615465
 10
117.9090820017727
 20
-119.4392211615465
 10
118.1626410294871
 20
-119.4392211615465
 10
118.3996635988723
 20
-119.6256008272985
 10
118.3996635988723
 20
-119.9387600069077
 10
118.3996635988723
 20
-120.2560533010992
 10
118.1757323923311
 20
-120.4906643036447
 10
117.8732530087261
 20
-120.4906643036447
 97
        0
 97
        0
 75
     2
 76
     1
 98
        0
  0
SPLINE
  5
118
330
F5
100
AcDbEntity
  8
_U+30EC_U+30A4_U+30E4_U+30FC 1
370
     0
100
AcDbSpline
210
0.0
220
0.0
230
1.0
 70
    11
 71
     3
 72
    29
 73
    25
 74
     0
 42
0.0000000001
 43
0.0000000001
 12
1.0
 22
0.0
 32
0.0
 13
1.0
 23
0.0
 33
0.0
 40
0.0
 40
0.0
 40
0.0
 40
0.0
 40
1.0
 40
1.0
 40
1.0
 40
2.0
 40
2.0
 40
2.0
 40
3.0
 40
3.0
 40
3.0
 40
4.0
 40
4.0
 40
4.0
 40
5.0
 40
5.0
 40
5.0
 40
6.0
 40
6.0
 40
6.0
 40
7.0
 40
7.0
 40
7.0
 40
8.0
 40
8.0
 40
8.0
 40
8.0
 10
119.4666096706542
 20
-120.2622544729726
 30
0.0
 10
119.3587781819659
 20
-120.4717162784758
 30
0.0
 10
119.1851453695093
 20
-120.4906643036447
 30
0.0
 10
119.0687011421078
 20
-120.4906643036447
 30
0.0
 10
118.9081596924952
 20
-120.4906643036447
 30
0.0
 10
118.7662217585029
 20
-120.4441555145938
 30
0.0
 10
118.67113712311
 20
-120.2622544729726
 30
0.0
 10
118.5677842585525
 20
-120.067606578056
 30
0.0
 10
118.5484917238351
 20
-119.8305840086708
 30
0.0
 10
118.5484917238351
 20
-119.667975501767
 30
0.0
 10
118.5484917238351
 20
-119.5239705104836
 30
0.0
 10
118.5653726917128
 20
-119.2721340305118
 30
0.0
 10
118.67113712311
 20
-119.0733520210129
 30
0.0
 10
118.7793131213468
 20
-118.8704358969317
 30
0.0
 10
118.9398545709595
 20
-118.847009247632
 30
0.0
 10
119.0687011421078
 20
-118.847009247632
 30
0.0
 10
119.2275200439778
 20
-118.847009247632
 30
0.0
 10
119.3711805257128
 20
-118.8914509793917
 30
0.0
 10
119.4666096706542
 20
-119.0733520210129
 30
0.0
 10
119.5661729301779
 20
-119.2659328586384
 30
0.0
 10
119.5892550699291
 20
-119.4943426893104
 30
0.0
 10
119.5892550699291
 20
-119.667975501767
 30
0.0
 10
119.5892550699291
 20
-119.839196747384
 30
0.0
 10
119.5682399874691
 20
-120.0696736353472
 30
0.0
 10
119.4666096706542
 20
-120.2622544729726
 30
0.0
  0
SPLINE
  5
119
330
F5
100
AcDbEntity
  8
_U+30EC_U+30A4_U+30E4_U+30FC 1
370
     0
100
AcDbSpline
210
0.0
220
0.0
230
1.0
 70
    11
 71
     3
 72
    17
 73
    13
 74
     0
 42
0.0000000001
 43
0.0000000001
 12
1.0
 22
0.0
 32
0.0
 13
1.0
 23
0.0
 33
0.0
 40
0.0
 40
0.0
 40
0.0
 40
0.0
 40
1.0
 40
1.0
 40
1.0
 40
2.0
 40
2.0
 40
2.0
 40
3.0
 40
3.0
 40
3.0
 40
4.0
 40
4.0
 40
4.0
 40
4.0
 10
119.0687011421078
 20
-119.0395900852575
 30
0.0
 10
118.8192762289757
 20
-119.0395900852575
 30
0.0
 10
118.7727674399249
 20
-119.3231214436935
 30
0.0
 10
118.7727674399249
 20
-119.667975501767
 30
0.0
 10
118.7727674399249
 20
-119.9873358532497
 30
0.0
 10
118.80894094252
 20
-120.2960164087281
 30
0.0
 10
119.0687011421078
 20
-120.2960164087281
 30
0.0
 10
119.3164035074973
 20
-120.2960164087281
 30
0.0
 10
119.3649793538393
 20
-120.0148966171317
 30
0.0
 10
119.3649793538393
 20
-119.667975501767
 30
0.0
 10
119.3649793538393
 20
-119.3482706407358
 30
0.0
 10
119.3270833035016
 20
-119.0395900852575
 30
0.0
 10
119.0687011421078
 20
-119.0395900852575
 30
0.0
  0
HATCH
  5
11A
330
F5
100
AcDbEntity
  8
_U+30EC_U+30A4_U+30E4_U+30FC 1
 62
   179
420
  2234388
100
AcDbHatch
 10
0.0
 20
0.0
 30
0.0
210
0.0
220
0.0
230
1.0
  2
SOLID
 70
     1
 71
     0
 91
        2
 92
        1
 93
        1
 72
     4
 94
        3
 73
     0
 74
     1
 95
       29
 96
       25
 40
0.0
 40
0.0
 40
0.0
 40
0.0
 40
1.0
 40
1.0
 40
1.0
 40
2.0
 40
2.0
 40
2.0
 40
3.0
 40
3.0
 40
3.0
 40
4.0
 40
4.0
 40
4.0
 40
5.0
 40
5.0
 40
5.0
 40
6.0
 40
6.0
 40
6.0
 40
7.0
 40
7.0
 40
7.0
 40
8.0
 40
8.0
 40
8.0
 40
8.0
 10
119.4666096706542
 20
-120.2622544729726
 10
119.3587781819659
 20
-120.4717162784758
 10
119.1851453695093
 20
-120.4906643036447
 10
119.0687011421078
 20
-120.4906643036447
 10
118.9081596924952
 20
-120.4906643036447
 10
118.7662217585029
 20
-120.4441555145938
 10
118.67113712311
 20
-120.2622544729726
 10
118.5677842585525
 20
-120.067606578056
 10
118.5484917238351
 20
-119.8305840086708
 10
118.5484917238351
 20
-119.667975501767
 10
118.5484917238351
 20
-119.5239705104836
 10
118.5653726917128
 20
-119.2721340305118
 10
118.67113712311
 20
-119.0733520210129
 10
118.7793131213468
 20
-118.8704358969317
 10
118.9398545709595
 20
-118.847009247632
 10
119.0687011421078
 20
-118.847009247632
 10
119.2275200439778
 20
-118.847009247632
 10
119.3711805257128
 20
-118.8914509793917
 10
119.4666096706542
 20
-119.0733520210129
 10
119.5661729301779
 20
-119.2659328586384
 10
119.5892550699291
 20
-119.4943426893104
 10
119.5892550699291
 20
-119.667975501767
 10
119.5892550699291
 20
-119.839196747384
 10
119.5682399874691
 20
-120.0696736353472
 10
119.4666096706542
 20
-120.2622544729726
 97
        0
 97
        0
 92
        1
 93
        1
 72
     4
 94
        3
 73
     0
 74
     1
 95
       17
 96
       13
 40
0.0
 40
0.0
 40
0.0
 40
0.0
 40
1.0
 40
1.0
 40
1.0
 40
2.0
 40
2.0
 40
2.0
 40
3.0
 40
3.0
 40
3.0
 40
4.0
 40
4.0
 40
4.0
 40
4.0
 10
119.0687011421078
 20
-119.0395900852575
 10
118.8192762289757
 20
-119.0395900852575
 10
118.7727674399249
 20
-119.3231214436935
 10
118.7727674399249
 20
-119.667975501767
 10
118.7727674399249
 20
-119.9873358532497
 10
118.80894094252
 20
-120.2960164087281
 10
119.0687011421078
 20
-120.2960164087281
 10
119.3164035074973
 20
-120.2960164087281
 10
119.3649793538393
 20
-120.0148966171317
 10
119.3649793538393
 20
-119.667975501767
 10
119.3649793538393
 20
-119.3482706407358
 10
119.3270833035016
 20
-119.0395900852575
 10
119.0687011421078
 20
-119.0395900852575
 97
        0
 97
        0
 75
     2
 76
     1
 98
        0
  0
SPLINE
  5
11B
330
F5
100
AcDbEntity
  8
_U+30EC_U+30A4_U+30E4_U+30FC 1
370
     0
100
AcDbSpline
210
0.0
220
0.0
230
1.0
 70
    11
 71
     3
 72
    32
 73
    28
 74
     0
 42
0.0000000001
 43
0.0000000001
 12
1.0
 22
0.0
 32
0.0
 13
1.0
 23
0.0
 33
0.0
 40
0.0
 40
0.0
 40
0.0
 40
0.0
 40
1.0
 40
1.0
 40
1.0
 40
2.0
 40
2.0
 40
2.0
 40
3.0
 40
3.0
 40
3.0
 40
4.0
 40
4.0
 40
4.0
 40
5.0
 40
5.0
 40
5.0
 40
6.0
 40
6.0
 40
6.0
 40
7.0
 40
7.0
 40
7.0
 40
8.0
 40
8.0
 40
8.0
 40
9.0
 40
9.0
 40
9.0
 40
9.0
 10
117.8963351484773
 20
-123.2515638255239
 30
0.0
 10
117.3799153352384
 20
-123.2515638255239
 30
0.0
 10
117.3716471060738
 20
-122.6975924714958
 30
0.0
 10
117.3716471060738
 20
-122.4836520418617
 30
0.0
 10
117.3716471060738
 20
-122.2531751538985
 30
0.0
 10
117.3909396407912
 20
-121.6058417122201
 30
0.0
 10
117.9345757083636
 20
-121.6058417122201
 30
0.0
 10
118.1078640112716
 20
-121.6058417122201
 30
0.0
 10
118.35349931937
 20
-121.6757771505706
 30
0.0
 10
118.3913953697077
 20
-122.0078843553487
 30
0.0
 10
118.3913953697077
 20
-122.0078843553487
 30
0.0
 10
118.1777994496222
 20
-122.0078843553487
 30
0.0
 10
118.1777994496222
 20
-122.0078843553487
 30
0.0
 10
118.1671196536179
 20
-121.9506957702936
 30
0.0
 10
118.1354247751537
 20
-121.8025566644278
 30
0.0
 10
117.9325086510724
 20
-121.8025566644278
 30
0.0
 10
117.6403645539232
 20
-121.8025566644278
 30
0.0
 10
117.6000569367458
 20
-122.1305297546236
 30
0.0
 10
117.5873100834504
 20
-122.335512935996
 30
0.0
 10
117.6803276615521
 20
-122.2573092684808
 30
0.0
 10
117.7481960426116
 20
-122.1980536261345
 30
0.0
 10
117.9300970842328
 20
-122.1980536261345
 30
0.0
 10
118.1099310685628
 20
-122.1980536261345
 30
0.0
 10
118.4124104521677
 20
-122.3062296243714
 30
0.0
 10
118.4124104521677
 20
-122.7124063820823
 30
0.0
 10
118.4124104521677
 20
-123.031766733565
 30
0.0
 10
118.2136284426688
 20
-123.2515638255239
 30
0.0
 10
117.8963351484773
 20
-123.2515638255239
 30
0.0
  0
SPLINE
  5
11C
330
F5
100
AcDbEntity
  8
_U+30EC_U+30A4_U+30E4_U+30FC 1
370
     0
100
AcDbSpline
210
0.0
220
0.0
230
1.0
 70
    11
 71
     3
 72
    17
 73
    13
 74
     0
 42
0.0000000001
 43
0.0000000001
 12
1.0
 22
0.0
 32
0.0
 13
1.0
 23
0.0
 33
0.0
 40
0.0
 40
0.0
 40
0.0
 40
0.0
 40
1.0
 40
1.0
 40
1.0
 40
2.0
 40
2.0
 40
2.0
 40
3.0
 40
3.0
 40
3.0
 40
4.0
 40
4.0
 40
4.0
 40
4.0
 10
117.913216116355
 20
-122.3927015210511
 30
0.0
 10
117.650699840379
 20
-122.3927015210511
 30
0.0
 10
117.6128037900413
 20
-122.6042303838455
 30
0.0
 10
117.6128037900413
 20
-122.7206746112469
 30
0.0
 10
117.6128037900413
 20
-122.8963744809947
 30
0.0
 10
117.7078884254341
 20
-123.059327497447
 30
0.0
 10
117.8918565243465
 20
-123.059327497447
 30
0.0
 10
118.0124348663302
 20
-123.059327497447
 30
0.0
 10
118.188134736078
 20
-123.0000718551007
 30
0.0
 10
118.188134736078
 20
-122.7144734393735
 30
0.0
 10
118.188134736078
 20
-122.4901977232837
 30
0.0
 10
118.0486083689254
 20
-122.3927015210511
 30
0.0
 10
117.913216116355
 20
-122.3927015210511
 30
0.0
  0
HATCH
  5
11D
330
F5
100
AcDbEntity
  8
_U+30EC_U+30A4_U+30E4_U+30FC 1
 62
   179
420
  2234388
100
AcDbHatch
 10
0.0
 20
0.0
 30
0.0
210
0.0
220
0.0
230
1.0
  2
SOLID
 70
     1
 71
     0
 91
        2
 92
        1
 93
        1
 72
     4
 94
        3
 73
     0
 74
     1
 95
       32
 96
       28
 40
0.0
 40
0.0
 40
0.0
 40
0.0
 40
1.0
 40
1.0
 40
1.0
 40
2.0
 40
2.0
 40
2.0
 40
3.0
 40
3.0
 40
3.0
 40
4.0
 40
4.0
 40
4.0
 40
5.0
 40
5.0
 40
5.0
 40
6.0
 40
6.0
 40
6.0
 40
7.0
 40
7.0
 40
7.0
 40
8.0
 40
8.0
 40
8.0
 40
9.0
 40
9.0
 40
9.0
 40
9.0
 10
117.8963351484773
 20
-123.2515638255239
 10
117.3799153352384
 20
-123.2515638255239
 10
117.3716471060738
 20
-122.6975924714958
 10
117.3716471060738
 20
-122.4836520418617
 10
117.3716471060738
 20
-122.2531751538985
 10
117.3909396407912
 20
-121.6058417122201
 10
117.9345757083636
 20
-121.6058417122201
 10
118.1078640112716
 20
-121.6058417122201
 10
118.35349931937
 20
-121.6757771505706
 10
118.3913953697077
 20
-122.0078843553487
 10
118.3913953697077
 20
-122.0078843553487
 10
118.1777994496222
 20
-122.0078843553487
 10
118.1777994496222
 20
-122.0078843553487
 10
118.1671196536179
 20
-121.9506957702936
 10
118.1354247751537
 20
-121.8025566644278
 10
117.9325086510724
 20
-121.8025566644278
 10
117.6403645539232
 20
-121.8025566644278
 10
117.6000569367458
 20
-122.1305297546236
 10
117.5873100834504
 20
-122.335512935996
 10
117.6803276615521
 20
-122.2573092684808
 10
117.7481960426116
 20
-122.1980536261345
 10
117.9300970842328
 20
-122.1980536261345
 10
118.1099310685628
 20
-122.1980536261345
 10
118.4124104521677
 20
-122.3062296243714
 10
118.4124104521677
 20
-122.7124063820823
 10
118.4124104521677
 20
-123.031766733565
 10
118.2136284426688
 20
-123.2515638255239
 10
117.8963351484773
 20
-123.2515638255239
 97
        0
 97
        0
 92
        1
 93
        1
 72
     4
 94
        3
 73
     0
 74
     1
 95
       17
 96
       13
 40
0.0
 40
0.0
 40
0.0
 40
0.0
 40
1.0
 40
1.0
 40
1.0
 40
2.0
 40
2.0
 40
2.0
 40
3.0
 40
3.0
 40
3.0
 40
4.0
 40
4.0
 40
4.0
 40
4.0
 10
117.913216116355
 20
-122.3927015210511
 10
117.650699840379
 20
-122.3927015210511
 10
117.6128037900413
 20
-122.6042303838455
 10
117.6128037900413
 20
-122.7206746112469
 10
117.6128037900413
 20
-122.8963744809947
 10
117.7078884254341
 20
-123.059327497447
 10
117.8918565243465
 20
-123.059327497447
 10
118.0124348663302
 20
-123.059327497447
 10
118.188134736078
 20
-123.0000718551007
 10
118.188134736078
 20
-122.7144734393735
 10
118.188134736078
 20
-122.4901977232837
 10
118.0486083689254
 20
-122.3927015210511
 10
117.913216116355
 20
-122.3927015210511
 97
        0
 97
        0
 75
     2
 76
     1
 98
        0
  0
SPLINE
  5
11E
330
F5
100
AcDbEntity
  8
_U+30EC_U+30A4_U+30E4_U+30FC 1
370
     0
100
AcDbSpline
210
0.0
220
0.0
230
1.0
 70
    11
 71
     3
 72
    29
 73
    25
 74
     0
 42
0.0000000001
 43
0.0000000001
 12
1.0
 22
0.0
 32
0.0
 13
1.0
 23
0.0
 33
0.0
 40
0.0
 40
0.0
 40
0.0
 40
0.0
 40
1.0
 40
1.0
 40
1.0
 40
2.0
 40
2.0
 40
2.0
 40
3.0
 40
3.0
 40
3.0
 40
4.0
 40
4.0
 40
4.0
 40
5.0
 40
5.0
 40
5.0
 40
6.0
 40
6.0
 40
6.0
 40
7.0
 40
7.0
 40
7.0
 40
8.0
 40
8.0
 40
8.0
 40
8.0
 10
119.4666096706542
 20
-123.0231539948519
 30
0.0
 10
119.3587781819659
 20
-123.232615800355
 30
0.0
 10
119.1851453695093
 20
-123.2515638255239
 30
0.0
 10
119.0687011421078
 20
-123.2515638255239
 30
0.0
 10
118.9081596924952
 20
-123.2515638255239
 30
0.0
 10
118.7662217585029
 20
-123.205055036473
 30
0.0
 10
118.67113712311
 20
-123.0231539948519
 30
0.0
 10
118.5677842585525
 20
-122.8285060999352
 30
0.0
 10
118.5484917238351
 20
-122.5914835305501
 30
0.0
 10
118.5484917238351
 20
-122.4288750236463
 30
0.0
 10
118.5484917238351
 20
-122.2848700323628
 30
0.0
 10
118.5653726917128
 20
-122.033033552391
 30
0.0
 10
118.67113712311
 20
-121.8342515428921
 30
0.0
 10
118.7793131213468
 20
-121.6313354188109
 30
0.0
 10
118.9398545709595
 20
-121.6079087695112
 30
0.0
 10
119.0687011421078
 20
-121.6079087695112
 30
0.0
 10
119.2275200439778
 20
-121.6079087695112
 30
0.0
 10
119.3711805257128
 20
-121.6523505012709
 30
0.0
 10
119.4666096706542
 20
-121.8342515428921
 30
0.0
 10
119.5661729301779
 20
-122.0268323805176
 30
0.0
 10
119.5892550699291
 20
-122.2552422111897
 30
0.0
 10
119.5892550699291
 20
-122.4288750236463
 30
0.0
 10
119.5892550699291
 20
-122.6000962692632
 30
0.0
 10
119.5682399874691
 20
-122.8305731572264
 30
0.0
 10
119.4666096706542
 20
-123.0231539948519
 30
0.0
  0
SPLINE
  5
11F
330
F5
100
AcDbEntity
  8
_U+30EC_U+30A4_U+30E4_U+30FC 1
370
     0
100
AcDbSpline
210
0.0
220
0.0
230
1.0
 70
    11
 71
     3
 72
    17
 73
    13
 74
     0
 42
0.0000000001
 43
0.0000000001
 12
1.0
 22
0.0
 32
0.0
 13
1.0
 23
0.0
 33
0.0
 40
0.0
 40
0.0
 40
0.0
 40
0.0
 40
1.0
 40
1.0
 40
1.0
 40
2.0
 40
2.0
 40
2.0
 40
3.0
 40
3.0
 40
3.0
 40
4.0
 40
4.0
 40
4.0
 40
4.0
 10
119.0687011421078
 20
-121.8004896071367
 30
0.0
 10
118.8192762289757
 20
-121.8004896071367
 30
0.0
 10
118.7727674399249
 20
-122.0840209655727
 30
0.0
 10
118.7727674399249
 20
-122.4288750236463
 30
0.0
 10
118.7727674399249
 20
-122.7482353751289
 30
0.0
 10
118.80894094252
 20
-123.0569159306073
 30
0.0
 10
119.0687011421078
 20
-123.0569159306073
 30
0.0
 10
119.3164035074973
 20
-123.0569159306073
 30
0.0
 10
119.3649793538393
 20
-122.7757961390109
 30
0.0
 10
119.3649793538393
 20
-122.4288750236463
 30
0.0
 10
119.3649793538393
 20
-122.1091701626151
 30
0.0
 10
119.3270833035016
 20
-121.8004896071367
 30
0.0
 10
119.0687011421078
 20
-121.8004896071367
 30
0.0
  0
HATCH
  5
120
330
F5
100
AcDbEntity
  8
_U+30EC_U+30A4_U+30E4_U+30FC 1
 62
   179
420
  2234388
100
AcDbHatch
 10
0.0
 20
0.0
 30
0.0
210
0.0
220
0.0
230
1.0
  2
SOLID
 70
     1
 71
     0
 91
        2
 92
        1
 93
        1
 72
     4
 94
        3
 73
     0
 74
     1
 95
       29
 96
       25
 40
0.0
 40
0.0
 40
0.0
 40
0.0
 40
1.0
 40
1.0
 40
1.0
 40
2.0
 40
2.0
 40
2.0
 40
3.0
 40
3.0
 40
3.0
 40
4.0
 40
4.0
 40
4.0
 40
5.0
 40
5.0
 40
5.0
 40
6.0
 40
6.0
 40
6.0
 40
7.0
 40
7.0
 40
7.0
 40
8.0
 40
8.0
 40
8.0
 40
8.0
 10
119.4666096706542
 20
-123.0231539948519
 10
119.3587781819659
 20
-123.232615800355
 10
119.1851453695093
 20
-123.2515638255239
 10
119.0687011421078
 20
-123.2515638255239
 10
118.9081596924952
 20
-123.2515638255239
 10
118.7662217585029
 20
-123.205055036473
 10
118.67113712311
 20
-123.0231539948519
 10
118.5677842585525
 20
-122.8285060999352
 10
118.5484917238351
 20
-122.5914835305501
 10
118.5484917238351
 20
-122.4288750236463
 10
118.5484917238351
 20
-122.2848700323628
 10
118.5653726917128
 20
-122.033033552391
 10
118.67113712311
 20
-121.8342515428921
 10
118.7793131213468
 20
-121.6313354188109
 10
118.9398545709595
 20
-121.6079087695112
 10
119.0687011421078
 20
-121.6079087695112
 10
119.2275200439778
 20
-121.6079087695112
 10
119.3711805257128
 20
-121.6523505012709
 10
119.4666096706542
 20
-121.8342515428921
 10
119.5661729301779
 20
-122.0268323805176
 10
119.5892550699291
 20
-122.2552422111897
 10
119.5892550699291
 20
-122.4288750236463
 10
119.5892550699291
 20
-122.6000962692632
 10
119.5682399874691
 20
-122.8305731572264
 10
119.4666096706542
 20
-123.0231539948519
 97
        0
 97
        0
 92
        1
 93
        1
 72
     4
 94
        3
 73
     0
 74
     1
 95
       17
 96
       13
 40
0.0
 40
0.0
 40
0.0
 40
0.0
 40
1.0
 40
1.0
 40
1.0
 40
2.0
 40
2.0
 40
2.0
 40
3.0
 40
3.0
 40
3.0
 40
4.0
 40
4.0
 40
4.0
 40
4.0
 10
119.0687011421078
 20
-121.8004896071367
 10
118.8192762289757
 20
-121.8004896071367
 10
118.7727674399249
 20
-122.0840209655727
 10
118.7727674399249
 20
-122.4288750236463
 10
118.7727674399249
 20
-122.7482353751289
 10
118.80894094252
 20
-123.0569159306073
 10
119.0687011421078
 20
-123.0569159306073
 10
119.3164035074973
 20
-123.0569159306073
 10
119.3649793538393
 20
-122.7757961390109
 10
119.3649793538393
 20
-122.4288750236463
 10
119.3649793538393
 20
-122.1091701626151
 10
119.3270833035016
 20
-121.8004896071367
 10
119.0687011421078
 20
-121.8004896071367
 97
        0
 97
        0
 75
     2
 76
     1
 98
        0
  0
SPLINE
  5
121
330
F5
100
AcDbEntity
  8
_U+30EC_U+30A4_U+30E4_U+30FC 1
370
     0
100
AcDbSpline
210
0.0
220
0.0
230
1.0
 70
    11
 71
     3
 72
    26
 73
    22
 74
     0
 42
0.0000000001
 43
0.0000000001
 12
1.0
 22
0.0
 32
0.0
 13
1.0
 23
0.0
 33
0.0
 40
0.0
 40
0.0
 40
0.0
 40
0.0
 40
1.0
 40
1.0
 40
1.0
 40
2.0
 40
2.0
 40
2.0
 40
3.0
 40
3.0
 40
3.0
 40
4.0
 40
4.0
 40
4.0
 40
5.0
 40
5.0
 40
5.0
 40
6.0
 40
6.0
 40
6.0
 40
7.0
 40
7.0
 40
7.0
 40
7.0
 10
117.802973060827
 20
-125.96182044377
 30
0.0
 10
117.802973060827
 20
-125.96182044377
 30
0.0
 10
117.5662950009904
 20
-125.96182044377
 30
0.0
 10
117.5662950009904
 20
-125.96182044377
 30
0.0
 10
117.5914441980327
 20
-125.6527953787431
 30
0.0
 10
117.7843695452067
 20
-125.1346530177615
 30
0.0
 10
118.1902017933691
 20
-124.6289130005268
 30
0.0
 10
118.1902017933691
 20
-124.6289130005268
 30
0.0
 10
117.3523545713564
 20
-124.6289130005268
 30
0.0
 10
117.3523545713564
 20
-124.6289130005268
 30
0.0
 10
117.3523545713564
 20
-124.6289130005268
 30
0.0
 10
117.3523545713564
 20
-124.4173841377325
 30
0.0
 10
117.3523545713564
 20
-124.4173841377325
 30
0.0
 10
117.3523545713564
 20
-124.4173841377325
 30
0.0
 10
118.4272243627543
 20
-124.4173841377325
 30
0.0
 10
118.4272243627543
 20
-124.4173841377325
 30
0.0
 10
118.4272243627543
 20
-124.4173841377325
 30
0.0
 10
118.4272243627543
 20
-124.6289130005268
 30
0.0
 10
118.4272243627543
 20
-124.6289130005268
 30
0.0
 10
118.1033853871408
 20
-124.9189900403848
 30
0.0
 10
117.837079506131
 20
-125.5112019542993
 30
0.0
 10
117.802973060827
 20
-125.96182044377
 30
0.0
  0
HATCH
  5
122
330
F5
100
AcDbEntity
  8
_U+30EC_U+30A4_U+30E4_U+30FC 1
 62
   179
420
  2234388
100
AcDbHatch
 10
0.0
 20
0.0
 30
0.0
210
0.0
220
0.0
230
1.0
  2
SOLID
 70
     1
 71
     0
 91
        1
 92
        1
 93
        1
 72
     4
 94
        3
 73
     0
 74
     1
 95
       26
 96
       22
 40
0.0
 40
0.0
 40
0.0
 40
0.0
 40
1.0
 40
1.0
 40
1.0
 40
2.0
 40
2.0
 40
2.0
 40
3.0
 40
3.0
 40
3.0
 40
4.0
 40
4.0
 40
4.0
 40
5.0
 40
5.0
 40
5.0
 40
6.0
 40
6.0
 40
6.0
 40
7.0
 40
7.0
 40
7.0
 40
7.0
 10
117.802973060827
 20
-125.96182044377
 10
117.802973060827
 20
-125.96182044377
 10
117.5662950009904
 20
-125.96182044377
 10
117.5662950009904
 20
-125.96182044377
 10
117.5914441980327
 20
-125.6527953787431
 10
117.7843695452067
 20
-125.1346530177615
 10
118.1902017933691
 20
-124.6289130005268
 10
118.1902017933691
 20
-124.6289130005268
 10
117.3523545713564
 20
-124.6289130005268
 10
117.3523545713564
 20
-124.6289130005268
 10
117.3523545713564
 20
-124.6289130005268
 10
117.3523545713564
 20
-124.4173841377325
 10
117.3523545713564
 20
-124.4173841377325
 10
117.3523545713564
 20
-124.4173841377325
 10
118.4272243627543
 20
-124.4173841377325
 10
118.4272243627543
 20
-124.4173841377325
 10
118.4272243627543
 20
-124.4173841377325
 10
118.4272243627543
 20
-124.6289130005268
 10
118.4272243627543
 20
-124.6289130005268
 10
118.1033853871408
 20
-124.9189900403848
 10
117.837079506131
 20
-125.5112019542993
 10
117.802973060827
 20
-125.96182044377
 97
        0
 97
        0
 75
     2
 76
     1
 98
        0
  0
SPLINE
  5
123
330
F5
100
AcDbEntity
  8
_U+30EC_U+30A4_U+30E4_U+30FC 1
370
     0
100
AcDbSpline
210
0.0
220
0.0
230
1.0
 70
    11
 71
     3
 72
    53
 73
    49
 74
     0
 42
0.0000000001
 43
0.0000000001
 12
1.0
 22
0.0
 32
0.0
 13
1.0
 23
0.0
 33
0.0
 40
0.0
 40
0.0
 40
0.0
 40
0.0
 40
1.0
 40
1.0
 40
1.0
 40
2.0
 40
2.0
 40
2.0
 40
3.0
 40
3.0
 40
3.0
 40
4.0
 40
4.0
 40
4.0
 40
5.0
 40
5.0
 40
5.0
 40
6.0
 40
6.0
 40
6.0
 40
7.0
 40
7.0
 40
7.0
 40
8.0
 40
8.0
 40
8.0
 40
9.0
 40
9.0
 40
9.0
 40
10.0
 40
10.0
 40
10.0
 40
11.0
 40
11.0
 40
11.0
 40
12.0
 40
12.0
 40
12.0
 40
13.0
 40
13.0
 40
13.0
 40
14.0
 40
14.0
 40
14.0
 40
15.0
 40
15.0
 40
15.0
 40
16.0
 40
16.0
 40
16.0
 40
16.0
 10
119.0500976264875
 20
-126.0124633474031
 30
0.0
 10
118.9715494494238
 20
-126.0124633474031
 30
0.0
 10
118.8702636421574
 20
-125.9955823795254
 30
0.0
 10
118.7682888157941
 20
-125.9321926225968
 30
0.0
 10
118.595000512886
 20
-125.8222940766174
 30
0.0
 10
118.5739854304259
 20
-125.6910359386293
 30
0.0
 10
118.5546928957086
 20
-125.583204449941
 30
0.0
 10
118.5546928957086
 20
-125.583204449941
 30
0.0
 10
118.7769015545072
 20
-125.583204449941
 30
0.0
 10
118.7769015545072
 20
-125.583204449941
 30
0.0
 10
118.8320230822712
 20
-125.7819864594399
 30
0.0
 10
118.9591471056769
 20
-125.8116142806131
 30
0.0
 10
119.0521646837786
 20
-125.8116142806131
 30
0.0
 10
119.1913465413827
 20
-125.8116142806131
 30
0.0
 10
119.3439642713793
 20
-125.7120510210894
 30
0.0
 10
119.3439642713793
 20
-125.479507075835
 30
0.0
 10
119.3439642713793
 20
-125.2235364812809
 30
0.0
 10
119.1641302870492
 20
-125.1536010429304
 30
0.0
 10
119.0435519450655
 20
-125.1536010429304
 30
0.0
 10
119.0118570666012
 20
-125.1536010429304
 30
0.0
 10
118.8702636421574
 20
-125.1536010429304
 30
0.0
 10
118.781380178638
 20
-125.2827921236272
 30
0.0
 10
118.781380178638
 20
-125.2827921236272
 30
0.0
 10
118.6056803088903
 20
-125.2638440984583
 30
0.0
 10
118.6056803088903
 20
-125.2638440984583
 30
0.0
 10
118.6056803088903
 20
-125.2638440984583
 30
0.0
 10
118.726258650874
 20
-124.4173841377325
 30
0.0
 10
118.726258650874
 20
-124.4173841377325
 30
0.0
 10
118.726258650874
 20
-124.4173841377325
 30
0.0
 10
119.5048502305405
 20
-124.4173841377325
 30
0.0
 10
119.5048502305405
 20
-124.4173841377325
 30
0.0
 10
119.5048502305405
 20
-124.4173841377325
 30
0.0
 10
119.5048502305405
 20
-124.6120320326491
 30
0.0
 10
119.5048502305405
 20
-124.6120320326491
 30
0.0
 10
119.5048502305405
 20
-124.6120320326491
 30
0.0
 10
118.8888671577778
 20
-124.6120320326491
 30
0.0
 10
118.8888671577778
 20
-124.6120320326491
 30
0.0
 10
118.8888671577778
 20
-124.6120320326491
 30
0.0
 10
118.823410343558
 20
-125.0350897582378
 30
0.0
 10
118.823410343558
 20
-125.0350897582378
 30
0.0
 10
118.8847330431955
 20
-125.0013278224823
 30
0.0
 10
118.9674153348415
 20
-124.9610202053049
 30
0.0
 10
119.0859266195341
 20
-124.9610202053049
 30
0.0
 10
119.3394856472485
 20
-124.9610202053049
 30
0.0
 10
119.5765082166337
 20
-125.1473998710569
 30
0.0
 10
119.5765082166337
 20
-125.4605590506661
 30
0.0
 10
119.5765082166337
 20
-125.7778523448576
 30
0.0
 10
119.3525770100924
 20
-126.0124633474031
 30
0.0
 10
119.0500976264875
 20
-126.0124633474031
 30
0.0
  0
HATCH
  5
124
330
F5
100
AcDbEntity
  8
_U+30EC_U+30A4_U+30E4_U+30FC 1
 62
   179
420
  2234388
100
AcDbHatch
 10
0.0
 20
0.0
 30
0.0
210
0.0
220
0.0
230
1.0
  2
SOLID
 70
     1
 71
     0
 91
        1
 92
        1
 93
        1
 72
     4
 94
        3
 73
     0
 74
     1
 95
       53
 96
       49
 40
0.0
 40
0.0
 40
0.0
 40
0.0
 40
1.0
 40
1.0
 40
1.0
 40
2.0
 40
2.0
 40
2.0
 40
3.0
 40
3.0
 40
3.0
 40
4.0
 40
4.0
 40
4.0
 40
5.0
 40
5.0
 40
5.0
 40
6.0
 40
6.0
 40
6.0
 40
7.0
 40
7.0
 40
7.0
 40
8.0
 40
8.0
 40
8.0
 40
9.0
 40
9.0
 40
9.0
 40
10.0
 40
10.0
 40
10.0
 40
11.0
 40
11.0
 40
11.0
 40
12.0
 40
12.0
 40
12.0
 40
13.0
 40
13.0
 40
13.0
 40
14.0
 40
14.0
 40
14.0
 40
15.0
 40
15.0
 40
15.0
 40
16.0
 40
16.0
 40
16.0
 40
16.0
 10
119.0500976264875
 20
-126.0124633474031
 10
118.9715494494238
 20
-126.0124633474031
 10
118.8702636421574
 20
-125.9955823795254
 10
118.7682888157941
 20
-125.9321926225968
 10
118.595000512886
 20
-125.8222940766174
 10
118.5739854304259
 20
-125.6910359386293
 10
118.5546928957086
 20
-125.583204449941
 10
118.5546928957086
 20
-125.583204449941
 10
118.7769015545072
 20
-125.583204449941
 10
118.7769015545072
 20
-125.583204449941
 10
118.8320230822712
 20
-125.7819864594399
 10
118.9591471056769
 20
-125.8116142806131
 10
119.0521646837786
 20
-125.8116142806131
 10
119.1913465413827
 20
-125.8116142806131
 10
119.3439642713793
 20
-125.7120510210894
 10
119.3439642713793
 20
-125.479507075835
 10
119.3439642713793
 20
-125.2235364812809
 10
119.1641302870492
 20
-125.1536010429304
 10
119.0435519450655
 20
-125.1536010429304
 10
119.0118570666012
 20
-125.1536010429304
 10
118.8702636421574
 20
-125.1536010429304
 10
118.781380178638
 20
-125.2827921236272
 10
118.781380178638
 20
-125.2827921236272
 10
118.6056803088903
 20
-125.2638440984583
 10
118.6056803088903
 20
-125.2638440984583
 10
118.6056803088903
 20
-125.2638440984583
 10
118.726258650874
 20
-124.4173841377325
 10
118.726258650874
 20
-124.4173841377325
 10
118.726258650874
 20
-124.4173841377325
 10
119.5048502305405
 20
-124.4173841377325
 10
119.5048502305405
 20
-124.4173841377325
 10
119.5048502305405
 20
-124.4173841377325
 10
119.5048502305405
 20
-124.6120320326491
 10
119.5048502305405
 20
-124.6120320326491
 10
119.5048502305405
 20
-124.6120320326491
 10
118.8888671577778
 20
-124.6120320326491
 10
118.8888671577778
 20
-124.6120320326491
 10
118.8888671577778
 20
-124.6120320326491
 10
118.823410343558
 20
-125.0350897582378
 10
118.823410343558
 20
-125.0350897582378
 10
118.8847330431955
 20
-125.0013278224823
 10
118.9674153348415
 20
-124.9610202053049
 10
119.0859266195341
 20
-124.9610202053049
 10
119.3394856472485
 20
-124.9610202053049
 10
119.5765082166337
 20
-125.1473998710569
 10
119.5765082166337
 20
-125.4605590506661
 10
119.5765082166337
 20
-125.7778523448576
 10
119.3525770100924
 20
-126.0124633474031
 10
119.0500976264875
 20
-126.0124633474031
 97
        0
 97
        0
 75
     2
 76
     1
 98
        0
  0
SPLINE
  5
125
330
F5
100
AcDbEntity
  8
_U+30EC_U+30A4_U+30E4_U+30FC 1
370
     0
100
AcDbSpline
210
0.0
220
0.0
230
1.0
 70
    11
 71
     3
 72
    26
 73
    22
 74
     0
 42
0.0000000001
 43
0.0000000001
 12
1.0
 22
0.0
 32
0.0
 13
1.0
 23
0.0
 33
0.0
 40
0.0
 40
0.0
 40
0.0
 40
0.0
 40
1.0
 40
1.0
 40
1.0
 40
2.0
 40
2.0
 40
2.0
 40
3.0
 40
3.0
 40
3.0
 40
4.0
 40
4.0
 40
4.0
 40
5.0
 40
5.0
 40
5.0
 40
6.0
 40
6.0
 40
6.0
 40
7.0
 40
7.0
 40
7.0
 40
7.0
 10
117.2552028786723
 20
-128.7227199656492
 30
0.0
 10
117.2552028786723
 20
-128.7227199656492
 30
0.0
 10
117.2552028786723
 20
-127.6185668626266
 30
0.0
 10
117.2552028786723
 20
-127.6185668626266
 30
0.0
 10
117.2552028786723
 20
-127.6185668626266
 30
0.0
 10
116.9251627311854
 20
-127.6185668626266
 30
0.0
 10
116.9251627311854
 20
-127.6185668626266
 30
0.0
 10
116.9251627311854
 20
-127.6185668626266
 30
0.0
 10
116.9251627311854
 20
-127.4704277567609
 30
0.0
 10
116.9251627311854
 20
-127.4704277567609
 30
0.0
 10
117.2572699359635
 20
-127.4556138461743
 30
0.0
 10
117.3034342154658
 20
-127.292660829722
 30
0.0
 10
117.333062036639
 20
-127.1782836596117
 30
0.0
 10
117.333062036639
 20
-127.1782836596117
 30
0.0
 10
117.4791340852136
 20
-127.1782836596117
 30
0.0
 10
117.4791340852136
 20
-127.1782836596117
 30
0.0
 10
117.4791340852136
 20
-127.1782836596117
 30
0.0
 10
117.4791340852136
 20
-128.7227199656492
 30
0.0
 10
117.4791340852136
 20
-128.7227199656492
 30
0.0
 10
117.4791340852136
 20
-128.7227199656492
 30
0.0
 10
117.2552028786723
 20
-128.7227199656492
 30
0.0
 10
117.2552028786723
 20
-128.7227199656492
 30
0.0
  0
HATCH
  5
126
330
F5
100
AcDbEntity
  8
_U+30EC_U+30A4_U+30E4_U+30FC 1
 62
   179
420
  2234388
100
AcDbHatch
 10
0.0
 20
0.0
 30
0.0
210
0.0
220
0.0
230
1.0
  2
SOLID
 70
     1
 71
     0
 91
        1
 92
        1
 93
        1
 72
     4
 94
        3
 73
     0
 74
     1
 95
       26
 96
       22
 40
0.0
 40
0.0
 40
0.0
 40
0.0
 40
1.0
 40
1.0
 40
1.0
 40
2.0
 40
2.0
 40
2.0
 40
3.0
 40
3.0
 40
3.0
 40
4.0
 40
4.0
 40
4.0
 40
5.0
 40
5.0
 40
5.0
 40
6.0
 40
6.0
 40
6.0
 40
7.0
 40
7.0
 40
7.0
 40
7.0
 10
117.2552028786723
 20
-128.7227199656492
 10
117.2552028786723
 20
-128.7227199656492
 10
117.2552028786723
 20
-127.6185668626266
 10
117.2552028786723
 20
-127.6185668626266
 10
117.2552028786723
 20
-127.6185668626266
 10
116.9251627311854
 20
-127.6185668626266
 10
116.9251627311854
 20
-127.6185668626266
 10
116.9251627311854
 20
-127.6185668626266
 10
116.9251627311854
 20
-127.4704277567609
 10
116.9251627311854
 20
-127.4704277567609
 10
117.2572699359635
 20
-127.4556138461743
 10
117.3034342154658
 20
-127.292660829722
 10
117.333062036639
 20
-127.1782836596117
 10
117.333062036639
 20
-127.1782836596117
 10
117.4791340852136
 20
-127.1782836596117
 10
117.4791340852136
 20
-127.1782836596117
 10
117.4791340852136
 20
-127.1782836596117
 10
117.4791340852136
 20
-128.7227199656492
 10
117.4791340852136
 20
-128.7227199656492
 10
117.4791340852136
 20
-128.7227199656492
 10
117.2552028786723
 20
-128.7227199656492
 10
117.2552028786723
 20
-128.7227199656492
 97
        0
 97
        0
 75
     2
 76
     1
 98
        0
  0
SPLINE
  5
127
330
F5
100
AcDbEntity
  8
_U+30EC_U+30A4_U+30E4_U+30FC 1
370
     0
100
AcDbSpline
210
0.0
220
0.0
230
1.0
 70
    11
 71
     3
 72
    29
 73
    25
 74
     0
 42
0.0000000001
 43
0.0000000001
 12
1.0
 22
0.0
 32
0.0
 13
1.0
 23
0.0
 33
0.0
 40
0.0
 40
0.0
 40
0.0
 40
0.0
 40
1.0
 40
1.0
 40
1.0
 40
2.0
 40
2.0
 40
2.0
 40
3.0
 40
3.0
 40
3.0
 40
4.0
 40
4.0
 40
4.0
 40
5.0
 40
5.0
 40
5.0
 40
6.0
 40
6.0
 40
6.0
 40
7.0
 40
7.0
 40
7.0
 40
8.0
 40
8.0
 40
8.0
 40
8.0
 10
118.8781873617735
 20
-128.5449530386103
 30
0.0
 10
118.7703558730852
 20
-128.7544148441135
 30
0.0
 10
118.5967230606286
 20
-128.7731906145081
 30
0.0
 10
118.4802788332272
 20
-128.7731906145081
 30
0.0
 10
118.3197373836145
 20
-128.7731906145081
 30
0.0
 10
118.1777994496222
 20
-128.7268540802315
 30
0.0
 10
118.0827148142293
 20
-128.5449530386103
 30
0.0
 10
117.9793619496718
 20
-128.3503051436937
 30
0.0
 10
117.9600694149544
 20
-128.1132825743085
 30
0.0
 10
117.9600694149544
 20
-127.9506740674047
 30
0.0
 10
117.9600694149544
 20
-127.8066690761213
 30
0.0
 10
117.9769503828322
 20
-127.5548325961495
 30
0.0
 10
118.0827148142293
 20
-127.3560505866506
 30
0.0
 10
118.1908908124662
 20
-127.1531344625694
 30
0.0
 10
118.3514322620788
 20
-127.1297078132697
 30
0.0
 10
118.4802788332272
 20
-127.1297078132697
 30
0.0
 10
118.6390977350972
 20
-127.1297078132697
 30
0.0
 10
118.7827582168321
 20
-127.1741495450294
 30
0.0
 10
118.8781873617735
 20
-127.3560505866506
 30
0.0
 10
118.9777506212972
 20
-127.548631424276
 30
0.0
 10
119.0008327610484
 20
-127.7770412549481
 30
0.0
 10
119.0008327610484
 20
-127.9506740674047
 30
0.0
 10
119.0008327610484
 20
-128.1218953130216
 30
0.0
 10
118.9798176785884
 20
-128.3523722009848
 30
0.0
 10
118.8781873617735
 20
-128.5449530386103
 30
0.0
  0
SPLINE
  5
128
330
F5
100
AcDbEntity
  8
_U+30EC_U+30A4_U+30E4_U+30FC 1
370
     0
100
AcDbSpline
210
0.0
220
0.0
230
1.0
 70
    11
 71
     3
 72
    17
 73
    13
 74
     0
 42
0.0000000001
 43
0.0000000001
 12
1.0
 22
0.0
 32
0.0
 13
1.0
 23
0.0
 33
0.0
 40
0.0
 40
0.0
 40
0.0
 40
0.0
 40
1.0
 40
1.0
 40
1.0
 40
2.0
 40
2.0
 40
2.0
 40
3.0
 40
3.0
 40
3.0
 40
4.0
 40
4.0
 40
4.0
 40
4.0
 10
118.4802788332272
 20
-127.3222886508951
 30
0.0
 10
118.2308539200951
 20
-127.3222886508951
 30
0.0
 10
118.1843451310442
 20
-127.6058200093312
 30
0.0
 10
118.1843451310442
 20
-127.9506740674047
 30
0.0
 10
118.1843451310442
 20
-128.2700344188873
 30
0.0
 10
118.2205186336393
 20
-128.5787149743657
 30
0.0
 10
118.4802788332272
 20
-128.5787149743657
 30
0.0
 10
118.7279811986166
 20
-128.5787149743657
 30
0.0
 10
118.7765570449587
 20
-128.2975951827694
 30
0.0
 10
118.7765570449587
 20
-127.9506740674047
 30
0.0
 10
118.7765570449587
 20
-127.6309692063735
 30
0.0
 10
118.7386609946209
 20
-127.3222886508951
 30
0.0
 10
118.4802788332272
 20
-127.3222886508951
 30
0.0
  0
HATCH
  5
129
330
F5
100
AcDbEntity
  8
_U+30EC_U+30A4_U+30E4_U+30FC 1
 62
   179
420
  2234388
100
AcDbHatch
 10
0.0
 20
0.0
 30
0.0
210
0.0
220
0.0
230
1.0
  2
SOLID
 70
     1
 71
     0
 91
        2
 92
        1
 93
        1
 72
     4
 94
        3
 73
     0
 74
     1
 95
       29
 96
       25
 40
0.0
 40
0.0
 40
0.0
 40
0.0
 40
1.0
 40
1.0
 40
1.0
 40
2.0
 40
2.0
 40
2.0
 40
3.0
 40
3.0
 40
3.0
 40
4.0
 40
4.0
 40
4.0
 40
5.0
 40
5.0
 40
5.0
 40
6.0
 40
6.0
 40
6.0
 40
7.0
 40
7.0
 40
7.0
 40
8.0
 40
8.0
 40
8.0
 40
8.0
 10
118.8781873617735
 20
-128.5449530386103
 10
118.7703558730852
 20
-128.7544148441135
 10
118.5967230606286
 20
-128.7731906145081
 10
118.4802788332272
 20
-128.7731906145081
 10
118.3197373836145
 20
-128.7731906145081
 10
118.1777994496222
 20
-128.7268540802315
 10
118.0827148142293
 20
-128.5449530386103
 10
117.9793619496718
 20
-128.3503051436937
 10
117.9600694149544
 20
-128.1132825743085
 10
117.9600694149544
 20
-127.9506740674047
 10
117.9600694149544
 20
-127.8066690761213
 10
117.9769503828322
 20
-127.5548325961495
 10
118.0827148142293
 20
-127.3560505866506
 10
118.1908908124662
 20
-127.1531344625694
 10
118.3514322620788
 20
-127.1297078132697
 10
118.4802788332272
 20
-127.1297078132697
 10
118.6390977350972
 20
-127.1297078132697
 10
118.7827582168321
 20
-127.1741495450294
 10
118.8781873617735
 20
-127.3560505866506
 10
118.9777506212972
 20
-127.548631424276
 10
119.0008327610484
 20
-127.7770412549481
 10
119.0008327610484
 20
-127.9506740674047
 10
119.0008327610484
 20
-128.1218953130216
 10
118.9798176785884
 20
-128.3523722009848
 10
118.8781873617735
 20
-128.5449530386103
 97
        0
 97
        0
 92
        1
 93
        1
 72
     4
 94
        3
 73
     0
 74
     1
 95
       17
 96
       13
 40
0.0
 40
0.0
 40
0.0
 40
0.0
 40
1.0
 40
1.0
 40
1.0
 40
2.0
 40
2.0
 40
2.0
 40
3.0
 40
3.0
 40
3.0
 40
4.0
 40
4.0
 40
4.0
 40
4.0
 10
118.4802788332272
 20
-127.3222886508951
 10
118.2308539200951
 20
-127.3222886508951
 10
118.1843451310442
 20
-127.6058200093312
 10
118.1843451310442
 20
-127.9506740674047
 10
118.1843451310442
 20
-128.2700344188873
 10
118.2205186336393
 20
-128.5787149743657
 10
118.4802788332272
 20
-128.5787149743657
 10
118.7279811986166
 20
-128.5787149743657
 10
118.7765570449587
 20
-128.2975951827694
 10
118.7765570449587
 20
-127.9506740674047
 10
118.7765570449587
 20
-127.6309692063735
 10
118.7386609946209
 20
-127.3222886508951
 10
118.4802788332272
 20
-127.3222886508951
 97
        0
 97
        0
 75
     2
 76
     1
 98
        0
  0
SPLINE
  5
12A
330
F5
100
AcDbEntity
  8
_U+30EC_U+30A4_U+30E4_U+30FC 1
370
     0
100
AcDbSpline
210
0.0
220
0.0
230
1.0
 70
    11
 71
     3
 72
    29
 73
    25
 74
     0
 42
0.0000000001
 43
0.0000000001
 12
1.0
 22
0.0
 32
0.0
 13
1.0
 23
0.0
 33
0.0
 40
0.0
 40
0.0
 40
0.0
 40
0.0
 40
1.0
 40
1.0
 40
1.0
 40
2.0
 40
2.0
 40
2.0
 40
3.0
 40
3.0
 40
3.0
 40
4.0
 40
4.0
 40
4.0
 40
5.0
 40
5.0
 40
5.0
 40
6.0
 40
6.0
 40
6.0
 40
7.0
 40
7.0
 40
7.0
 40
8.0
 40
8.0
 40
8.0
 40
8.0
 10
120.0550319795349
 20
-128.5449530386103
 30
0.0
 10
119.9472004908465
 20
-128.7544148441135
 30
0.0
 10
119.77356767839
 20
-128.7731906145081
 30
0.0
 10
119.6571234509885
 20
-128.7731906145081
 30
0.0
 10
119.4965820013759
 20
-128.7731906145081
 30
0.0
 10
119.3546440673836
 20
-128.7268540802315
 30
0.0
 10
119.2595594319907
 20
-128.5449530386103
 30
0.0
 10
119.1562065674332
 20
-128.3503051436937
 30
0.0
 10
119.1369140327158
 20
-128.1132825743085
 30
0.0
 10
119.1369140327158
 20
-127.9506740674047
 30
0.0
 10
119.1369140327158
 20
-127.8066690761213
 30
0.0
 10
119.1537950005935
 20
-127.5548325961495
 30
0.0
 10
119.2595594319907
 20
-127.3560505866506
 30
0.0
 10
119.3677354302275
 20
-127.1531344625694
 30
0.0
 10
119.5282768798402
 20
-127.1297078132697
 30
0.0
 10
119.6571234509885
 20
-127.1297078132697
 30
0.0
 10
119.8159423528585
 20
-127.1297078132697
 30
0.0
 10
119.9596028345934
 20
-127.1741495450294
 30
0.0
 10
120.0550319795349
 20
-127.3560505866506
 30
0.0
 10
120.1545952390586
 20
-127.548631424276
 30
0.0
 10
120.1776773788097
 20
-127.7770412549481
 30
0.0
 10
120.1776773788097
 20
-127.9506740674047
 30
0.0
 10
120.1776773788097
 20
-128.1218953130216
 30
0.0
 10
120.1566622963497
 20
-128.3523722009848
 30
0.0
 10
120.0550319795349
 20
-128.5449530386103
 30
0.0
  0
SPLINE
  5
12B
330
F5
100
AcDbEntity
  8
_U+30EC_U+30A4_U+30E4_U+30FC 1
370
     0
100
AcDbSpline
210
0.0
220
0.0
230
1.0
 70
    11
 71
     3
 72
    17
 73
    13
 74
     0
 42
0.0000000001
 43
0.0000000001
 12
1.0
 22
0.0
 32
0.0
 13
1.0
 23
0.0
 33
0.0
 40
0.0
 40
0.0
 40
0.0
 40
0.0
 40
1.0
 40
1.0
 40
1.0
 40
2.0
 40
2.0
 40
2.0
 40
3.0
 40
3.0
 40
3.0
 40
4.0
 40
4.0
 40
4.0
 40
4.0
 10
119.6571234509885
 20
-127.3222886508951
 30
0.0
 10
119.4076985378564
 20
-127.3222886508951
 30
0.0
 10
119.3611897488055
 20
-127.6058200093312
 30
0.0
 10
119.3611897488055
 20
-127.9506740674047
 30
0.0
 10
119.3611897488055
 20
-128.2700344188873
 30
0.0
 10
119.3973632514007
 20
-128.5787149743657
 30
0.0
 10
119.6571234509885
 20
-128.5787149743657
 30
0.0
 10
119.904825816378
 20
-128.5787149743657
 30
0.0
 10
119.95340166272
 20
-128.2975951827694
 30
0.0
 10
119.95340166272
 20
-127.9506740674047
 30
0.0
 10
119.95340166272
 20
-127.6309692063735
 30
0.0
 10
119.9155056123822
 20
-127.3222886508951
 30
0.0
 10
119.6571234509885
 20
-127.3222886508951
 30
0.0
  0
HATCH
  5
12C
330
F5
100
AcDbEntity
  8
_U+30EC_U+30A4_U+30E4_U+30FC 1
 62
   179
420
  2234388
100
AcDbHatch
 10
0.0
 20
0.0
 30
0.0
210
0.0
220
0.0
230
1.0
  2
SOLID
 70
     1
 71
     0
 91
        2
 92
        1
 93
        1
 72
     4
 94
        3
 73
     0
 74
     1
 95
       29
 96
       25
 40
0.0
 40
0.0
 40
0.0
 40
0.0
 40
1.0
 40
1.0
 40
1.0
 40
2.0
 40
2.0
 40
2.0
 40
3.0
 40
3.0
 40
3.0
 40
4.0
 40
4.0
 40
4.0
 40
5.0
 40
5.0
 40
5.0
 40
6.0
 40
6.0
 40
6.0
 40
7.0
 40
7.0
 40
7.0
 40
8.0
 40
8.0
 40
8.0
 40
8.0
 10
120.0550319795349
 20
-128.5449530386103
 10
119.9472004908465
 20
-128.7544148441135
 10
119.77356767839
 20
-128.7731906145081
 10
119.6571234509885
 20
-128.7731906145081
 10
119.4965820013759
 20
-128.7731906145081
 10
119.3546440673836
 20
-128.7268540802315
 10
119.2595594319907
 20
-128.5449530386103
 10
119.1562065674332
 20
-128.3503051436937
 10
119.1369140327158
 20
-128.1132825743085
 10
119.1369140327158
 20
-127.9506740674047
 10
119.1369140327158
 20
-127.8066690761213
 10
119.1537950005935
 20
-127.5548325961495
 10
119.2595594319907
 20
-127.3560505866506
 10
119.3677354302275
 20
-127.1531344625694
 10
119.5282768798402
 20
-127.1297078132697
 10
119.6571234509885
 20
-127.1297078132697
 10
119.8159423528585
 20
-127.1297078132697
 10
119.9596028345934
 20
-127.1741495450294
 10
120.0550319795349
 20
-127.3560505866506
 10
120.1545952390586
 20
-127.548631424276
 10
120.1776773788097
 20
-127.7770412549481
 10
120.1776773788097
 20
-127.9506740674047
 10
120.1776773788097
 20
-128.1218953130216
 10
120.1566622963497
 20
-128.3523722009848
 10
120.0550319795349
 20
-128.5449530386103
 97
        0
 97
        0
 92
        1
 93
        1
 72
     4
 94
        3
 73
     0
 74
     1
 95
       17
 96
       13
 40
0.0
 40
0.0
 40
0.0
 40
0.0
 40
1.0
 40
1.0
 40
1.0
 40
2.0
 40
2.0
 40
2.0
 40
3.0
 40
3.0
 40
3.0
 40
4.0
 40
4.0
 40
4.0
 40
4.0
 10
119.6571234509885
 20
-127.3222886508951
 10
119.4076985378564
 20
-127.3222886508951
 10
119.3611897488055
 20
-127.6058200093312
 10
119.3611897488055
 20
-127.9506740674047
 10
119.3611897488055
 20
-128.2700344188873
 10
119.3973632514007
 20
-128.5787149743657
 10
119.6571234509885
 20
-128.5787149743657
 10
119.904825816378
 20
-128.5787149743657
 10
119.95340166272
 20
-128.2975951827694
 10
119.95340166272
 20
-127.9506740674047
 10
119.95340166272
 20
-127.6309692063735
 10
119.9155056123822
 20
-127.3222886508951
 10
119.6571234509885
 20
-127.3222886508951
 97
        0
 97
        0
 75
     2
 76
     1
 98
        0
  0
ENDBLK
  5
F8
330
F5
100
AcDbEntity
  8
0
100
AcDbBlockEnd
  0
BLOCK
  5
12F
330
12D
100
AcDbEntity
  8
0
100
AcDbBlockBegin
  2
block 8
 70
     0
 10
0.0
 20
0.0
 30
0.0
  3
block 8
  1

  0
SPLINE
  5
131
330
12D
100
AcDbEntity
  8
_U+30EC_U+30A4_U+30E4_U+30FC 1
370
     0
100
AcDbSpline
210
0.0
220
0.0
230
1.0
 70
    11
 71
     3
 72
    62
 73
    58
 74
     0
 42
0.0000000001
 43
0.0000000001
 12
1.0
 22
0.0
 32
0.0
 13
1.0
 23
0.0
 33
0.0
 40
0.0
 40
0.0
 40
0.0
 40
0.0
 40
1.0
 40
1.0
 40
1.0
 40
2.0
 40
2.0
 40
2.0
 40
3.0
 40
3.0
 40
3.0
 40
4.0
 40
4.0
 40
4.0
 40
5.0
 40
5.0
 40
5.0
 40
6.0
 40
6.0
 40
6.0
 40
7.0
 40
7.0
 40
7.0
 40
8.0
 40
8.0
 40
8.0
 40
9.0
 40
9.0
 40
9.0
 40
10.0
 40
10.0
 40
10.0
 40
11.0
 40
11.0
 40
11.0
 40
12.0
 40
12.0
 40
12.0
 40
13.0
 40
13.0
 40
13.0
 40
14.0
 40
14.0
 40
14.0
 40
15.0
 40
15.0
 40
15.0
 40
16.0
 40
16.0
 40
16.0
 40
17.0
 40
17.0
 40
17.0
 40
18.0
 40
18.0
 40
18.0
 40
19.0
 40
19.0
 40
19.0
 40
19.0
 10
72.11015487563566
 20
-120.874103431153
 30
0.0
 10
72.01489798546851
 20
-120.874103431153
 30
0.0
 10
71.79699569602644
 20
-120.853088348693
 30
0.0
 10
71.6722832394604
 20
-120.6670531924895
 30
0.0
 10
71.59821368652753
 20
-120.5547430796703
 30
0.0
 10
71.59390731717097
 20
-120.4555243296952
 30
0.0
 10
71.58977320258867
 20
-120.370774980758
 30
0.0
 10
71.58977320258867
 20
-120.370774980758
 30
0.0
 10
71.80974254932187
 20
-120.370774980758
 30
0.0
 10
71.80974254932187
 20
-120.370774980758
 30
0.0
 10
71.81180960661302
 20
-120.4448445336909
 30
0.0
 10
71.8224894026173
 20
-120.6794555362364
 30
0.0
 10
72.1058485062791
 20
-120.6794555362364
 30
0.0
 10
72.24348007091483
 20
-120.6794555362364
 30
0.0
 10
72.39575329136287
 20
-120.6098646074343
 30
0.0
 10
72.39575329136287
 20
-120.3814547767623
 30
0.0
 10
72.39575329136287
 20
-120.2650105493608
 30
0.0
 10
72.35768498625086
 20
-120.2164347030188
 30
0.0
 10
72.32599010778657
 20
-120.1847398245545
 30
0.0
 10
72.25192055485368
 20
-120.1106702716216
 30
0.0
 10
72.13547632745224
 20
-120.0979234183262
 30
0.0
 10
72.08052705446251
 20
-120.0979234183262
 30
0.0
 10
72.06157902929364
 20
-120.0979234183262
 30
0.0
 10
72.02557778147278
 20
-120.0999904756174
 30
0.0
 10
71.99801701759078
 20
-120.1041245901997
 30
0.0
 10
71.99801701759078
 20
-120.1041245901997
 30
0.0
 10
71.99801701759078
 20
-119.909476695283
 30
0.0
 10
71.99801701759078
 20
-119.909476695283
 30
0.0
 10
72.03608532270279
 20
-119.916022376705
 30
0.0
 10
72.07845999717136
 20
-119.9180894339962
 30
0.0
 10
72.08483342381908
 20
-119.9180894339962
 30
0.0
 10
72.15029023803882
 20
-119.9180894339962
 30
0.0
 10
72.349244502312
 20
-119.8967298419876
 30
0.0
 10
72.349244502312
 20
-119.660051782151
 30
0.0
 10
72.349244502312
 20
-119.4822848551121
 30
0.0
 10
72.21798636432398
 20
-119.4271633273481
 30
0.0
 10
72.10808781834452
 20
-119.4271633273481
 30
0.0
 10
71.84367673985159
 20
-119.4271633273481
 30
0.0
 10
71.83506400113846
 20
-119.660051782151
 30
0.0
 10
71.83092988655616
 20
-119.7317097682442
 30
0.0
 10
71.83092988655616
 20
-119.7317097682442
 30
0.0
 10
71.62784150770068
 20
-119.7317097682442
 30
0.0
 10
71.62784150770068
 20
-119.7317097682442
 30
0.0
 10
71.63628199163955
 20
-119.6069973116781
 30
0.0
 10
71.66384275552154
 20
-119.2304483751403
 30
0.0
 10
72.12066241686567
 20
-119.2304483751403
 30
0.0
 10
72.34493813295543
 20
-119.2304483751403
 30
0.0
 10
72.58609481692292
 20
-119.357572398546
 30
0.0
 10
72.58609481692292
 20
-119.653506100729
 30
0.0
 10
72.58609481692292
 20
-119.839885766481
 30
0.0
 10
72.49101018153003
 20
-119.9222235485785
 30
0.0
 10
72.39144692200631
 20
-119.9835462482159
 30
0.0
 10
72.45294187641802
 20
-120.0111070120979
 30
0.0
 10
72.63484291803921
 20
-120.0913777369042
 30
0.0
 10
72.63484291803921
 20
-120.3687079234669
 30
0.0
 10
72.63484291803921
 20
-120.7070163001184
 30
0.0
 10
72.38731280742401
 20
-120.874103431153
 30
0.0
 10
72.11015487563566
 20
-120.874103431153
 30
0.0
  0
HATCH
  5
132
330
12D
100
AcDbEntity
  8
_U+30EC_U+30A4_U+30E4_U+30FC 1
 62
   179
420
  2234388
100
AcDbHatch
 10
0.0
 20
0.0
 30
0.0
210
0.0
220
0.0
230
1.0
  2
SOLID
 70
     1
 71
     0
 91
        1
 92
        1
 93
        1
 72
     4
 94
        3
 73
     0
 74
     1
 95
       62
 96
       58
 40
0.0
 40
0.0
 40
0.0
 40
0.0
 40
1.0
 40
1.0
 40
1.0
 40
2.0
 40
2.0
 40
2.0
 40
3.0
 40
3.0
 40
3.0
 40
4.0
 40
4.0
 40
4.0
 40
5.0
 40
5.0
 40
5.0
 40
6.0
 40
6.0
 40
6.0
 40
7.0
 40
7.0
 40
7.0
 40
8.0
 40
8.0
 40
8.0
 40
9.0
 40
9.0
 40
9.0
 40
10.0
 40
10.0
 40
10.0
 40
11.0
 40
11.0
 40
11.0
 40
12.0
 40
12.0
 40
12.0
 40
13.0
 40
13.0
 40
13.0
 40
14.0
 40
14.0
 40
14.0
 40
15.0
 40
15.0
 40
15.0
 40
16.0
 40
16.0
 40
16.0
 40
17.0
 40
17.0
 40
17.0
 40
18.0
 40
18.0
 40
18.0
 40
19.0
 40
19.0
 40
19.0
 40
19.0
 10
72.11015487563566
 20
-120.874103431153
 10
72.01489798546851
 20
-120.874103431153
 10
71.79699569602644
 20
-120.853088348693
 10
71.6722832394604
 20
-120.6670531924895
 10
71.59821368652753
 20
-120.5547430796703
 10
71.59390731717097
 20
-120.4555243296952
 10
71.58977320258867
 20
-120.370774980758
 10
71.58977320258867
 20
-120.370774980758
 10
71.80974254932187
 20
-120.370774980758
 10
71.80974254932187
 20
-120.370774980758
 10
71.81180960661302
 20
-120.4448445336909
 10
71.8224894026173
 20
-120.6794555362364
 10
72.1058485062791
 20
-120.6794555362364
 10
72.24348007091483
 20
-120.6794555362364
 10
72.39575329136287
 20
-120.6098646074343
 10
72.39575329136287
 20
-120.3814547767623
 10
72.39575329136287
 20
-120.2650105493608
 10
72.35768498625086
 20
-120.2164347030188
 10
72.32599010778657
 20
-120.1847398245545
 10
72.25192055485368
 20
-120.1106702716216
 10
72.13547632745224
 20
-120.0979234183262
 10
72.08052705446251
 20
-120.0979234183262
 10
72.06157902929364
 20
-120.0979234183262
 10
72.02557778147278
 20
-120.0999904756174
 10
71.99801701759078
 20
-120.1041245901997
 10
71.99801701759078
 20
-120.1041245901997
 10
71.99801701759078
 20
-119.909476695283
 10
71.99801701759078
 20
-119.909476695283
 10
72.03608532270279
 20
-119.916022376705
 10
72.07845999717136
 20
-119.9180894339962
 10
72.08483342381908
 20
-119.9180894339962
 10
72.15029023803882
 20
-119.9180894339962
 10
72.349244502312
 20
-119.8967298419876
 10
72.349244502312
 20
-119.660051782151
 10
72.349244502312
 20
-119.4822848551121
 10
72.21798636432398
 20
-119.4271633273481
 10
72.10808781834452
 20
-119.4271633273481
 10
71.84367673985159
 20
-119.4271633273481
 10
71.83506400113846
 20
-119.660051782151
 10
71.83092988655616
 20
-119.7317097682442
 10
71.83092988655616
 20
-119.7317097682442
 10
71.62784150770068
 20
-119.7317097682442
 10
71.62784150770068
 20
-119.7317097682442
 10
71.63628199163955
 20
-119.6069973116781
 10
71.66384275552154
 20
-119.2304483751403
 10
72.12066241686567
 20
-119.2304483751403
 10
72.34493813295543
 20
-119.2304483751403
 10
72.58609481692292
 20
-119.357572398546
 10
72.58609481692292
 20
-119.653506100729
 10
72.58609481692292
 20
-119.839885766481
 10
72.49101018153003
 20
-119.9222235485785
 10
72.39144692200631
 20
-119.9835462482159
 10
72.45294187641802
 20
-120.0111070120979
 10
72.63484291803921
 20
-120.0913777369042
 10
72.63484291803921
 20
-120.3687079234669
 10
72.63484291803921
 20
-120.7070163001184
 10
72.38731280742401
 20
-120.874103431153
 10
72.11015487563566
 20
-120.874103431153
 97
        0
 97
        0
 75
     2
 76
     1
 98
        0
  0
SPLINE
  5
133
330
12D
100
AcDbEntity
  8
_U+30EC_U+30A4_U+30E4_U+30FC 1
370
     0
100
AcDbSpline
210
0.0
220
0.0
230
1.0
 70
    11
 71
     3
 72
    29
 73
    25
 74
     0
 42
0.0000000001
 43
0.0000000001
 12
1.0
 22
0.0
 32
0.0
 13
1.0
 23
0.0
 33
0.0
 40
0.0
 40
0.0
 40
0.0
 40
0.0
 40
1.0
 40
1.0
 40
1.0
 40
2.0
 40
2.0
 40
2.0
 40
3.0
 40
3.0
 40
3.0
 40
4.0
 40
4.0
 40
4.0
 40
5.0
 40
5.0
 40
5.0
 40
6.0
 40
6.0
 40
6.0
 40
7.0
 40
7.0
 40
7.0
 40
8.0
 40
8.0
 40
8.0
 40
8.0
 10
73.69317625110796
 20
-120.6456936004809
 30
0.0
 10
73.58534476241964
 20
-120.8551554059841
 30
0.0
 10
73.4118842047373
 20
-120.874103431153
 30
0.0
 10
73.29543997733586
 20
-120.874103431153
 30
0.0
 10
73.13472627294897
 20
-120.874103431153
 30
0.0
 10
72.99296059373093
 20
-120.8275946421021
 30
0.0
 10
72.89770370356378
 20
-120.6456936004809
 30
0.0
 10
72.79417858423201
 20
-120.4510457055643
 30
0.0
 10
72.77505830428888
 20
-120.2143676457277
 30
0.0
 10
72.77505830428888
 20
-120.0514146292753
 30
0.0
 10
72.77505830428888
 20
-119.9074096379919
 30
0.0
 10
72.7919392721666
 20
-119.6555731580201
 30
0.0
 10
72.89770370356378
 20
-119.4567911485212
 30
0.0
 10
73.00570744702635
 20
-119.25387502444
 30
0.0
 10
73.16642115141326
 20
-119.2304483751403
 30
0.0
 10
73.29543997733586
 20
-119.2304483751403
 30
0.0
 10
73.45408662443162
 20
-119.2304483751403
 30
0.0
 10
73.59791936094081
 20
-119.2748901069
 30
0.0
 10
73.69317625110796
 20
-119.4567911485212
 30
0.0
 10
73.79256725585742
 20
-119.6493719861467
 30
0.0
 10
73.81582165038286
 20
-119.8777818168188
 30
0.0
 10
73.81582165038286
 20
-120.0514146292753
 30
0.0
 10
73.81582165038286
 20
-120.2226358748923
 30
0.0
 10
73.79480656792283
 20
-120.4531127628555
 30
0.0
 10
73.69317625110796
 20
-120.6456936004809
 30
0.0
  0
SPLINE
  5
134
330
12D
100
AcDbEntity
  8
_U+30EC_U+30A4_U+30E4_U+30FC 1
370
     0
100
AcDbSpline
210
0.0
220
0.0
230
1.0
 70
    11
 71
     3
 72
    17
 73
    13
 74
     0
 42
0.0000000001
 43
0.0000000001
 12
1.0
 22
0.0
 32
0.0
 13
1.0
 23
0.0
 33
0.0
 40
0.0
 40
0.0
 40
0.0
 40
0.0
 40
1.0
 40
1.0
 40
1.0
 40
2.0
 40
2.0
 40
2.0
 40
3.0
 40
3.0
 40
3.0
 40
4.0
 40
4.0
 40
4.0
 40
4.0
 10
73.29543997733586
 20
-119.4230292127658
 30
0.0
 10
73.04584280942952
 20
-119.4230292127658
 30
0.0
 10
72.99933402037864
 20
-119.7065605712018
 30
0.0
 10
72.99933402037864
 20
-120.0514146292753
 30
0.0
 10
72.99933402037864
 20
-120.370774980758
 30
0.0
 10
73.0353352681995
 20
-120.6794555362364
 30
0.0
 10
73.29543997733586
 20
-120.6794555362364
 30
0.0
 10
73.54297008795106
 20
-120.6794555362364
 30
0.0
 10
73.59171818906735
 20
-120.39833574464
 30
0.0
 10
73.59171818906735
 20
-120.0514146292753
 30
0.0
 10
73.59171818906735
 20
-119.7317097682442
 30
0.0
 10
73.55347762918107
 20
-119.4230292127658
 30
0.0
 10
73.29543997733586
 20
-119.4230292127658
 30
0.0
  0
HATCH
  5
135
330
12D
100
AcDbEntity
  8
_U+30EC_U+30A4_U+30E4_U+30FC 1
 62
   179
420
  2234388
100
AcDbHatch
 10
0.0
 20
0.0
 30
0.0
210
0.0
220
0.0
230
1.0
  2
SOLID
 70
     1
 71
     0
 91
        2
 92
        1
 93
        1
 72
     4
 94
        3
 73
     0
 74
     1
 95
       29
 96
       25
 40
0.0
 40
0.0
 40
0.0
 40
0.0
 40
1.0
 40
1.0
 40
1.0
 40
2.0
 40
2.0
 40
2.0
 40
3.0
 40
3.0
 40
3.0
 40
4.0
 40
4.0
 40
4.0
 40
5.0
 40
5.0
 40
5.0
 40
6.0
 40
6.0
 40
6.0
 40
7.0
 40
7.0
 40
7.0
 40
8.0
 40
8.0
 40
8.0
 40
8.0
 10
73.69317625110796
 20
-120.6456936004809
 10
73.58534476241964
 20
-120.8551554059841
 10
73.4118842047373
 20
-120.874103431153
 10
73.29543997733586
 20
-120.874103431153
 10
73.13472627294897
 20
-120.874103431153
 10
72.99296059373093
 20
-120.8275946421021
 10
72.89770370356378
 20
-120.6456936004809
 10
72.79417858423201
 20
-120.4510457055643
 10
72.77505830428888
 20
-120.2143676457277
 10
72.77505830428888
 20
-120.0514146292753
 10
72.77505830428888
 20
-119.9074096379919
 10
72.7919392721666
 20
-119.6555731580201
 10
72.89770370356378
 20
-119.4567911485212
 10
73.00570744702635
 20
-119.25387502444
 10
73.16642115141326
 20
-119.2304483751403
 10
73.29543997733586
 20
-119.2304483751403
 10
73.45408662443162
 20
-119.2304483751403
 10
73.59791936094081
 20
-119.2748901069
 10
73.69317625110796
 20
-119.4567911485212
 10
73.79256725585742
 20
-119.6493719861467
 10
73.81582165038286
 20
-119.8777818168188
 10
73.81582165038286
 20
-120.0514146292753
 10
73.81582165038286
 20
-120.2226358748923
 10
73.79480656792283
 20
-120.4531127628555
 10
73.69317625110796
 20
-120.6456936004809
 97
        0
 97
        0
 92
        1
 93
        1
 72
     4
 94
        3
 73
     0
 74
     1
 95
       17
 96
       13
 40
0.0
 40
0.0
 40
0.0
 40
0.0
 40
1.0
 40
1.0
 40
1.0
 40
2.0
 40
2.0
 40
2.0
 40
3.0
 40
3.0
 40
3.0
 40
4.0
 40
4.0
 40
4.0
 40
4.0
 10
73.29543997733586
 20
-119.4230292127658
 10
73.04584280942952
 20
-119.4230292127658
 10
72.99933402037864
 20
-119.7065605712018
 10
72.99933402037864
 20
-120.0514146292753
 10
72.99933402037864
 20
-120.370774980758
 10
73.0353352681995
 20
-120.6794555362364
 10
73.29543997733586
 20
-120.6794555362364
 10
73.54297008795106
 20
-120.6794555362364
 10
73.59171818906735
 20
-120.39833574464
 10
73.59171818906735
 20
-120.0514146292753
 10
73.59171818906735
 20
-119.7317097682442
 10
73.55347762918107
 20
-119.4230292127658
 10
73.29543997733586
 20
-119.4230292127658
 97
        0
 97
        0
 75
     2
 76
     1
 98
        0
  0
SPLINE
  5
136
330
12D
100
AcDbEntity
  8
_U+30EC_U+30A4_U+30E4_U+30FC 1
370
     0
100
AcDbSpline
210
0.0
220
0.0
230
1.0
 70
    11
 71
     3
 72
    29
 73
    25
 74
     0
 42
0.0000000001
 43
0.0000000001
 12
1.0
 22
0.0
 32
0.0
 13
1.0
 23
0.0
 33
0.0
 40
0.0
 40
0.0
 40
0.0
 40
0.0
 40
1.0
 40
1.0
 40
1.0
 40
2.0
 40
2.0
 40
2.0
 40
3.0
 40
3.0
 40
3.0
 40
4.0
 40
4.0
 40
4.0
 40
5.0
 40
5.0
 40
5.0
 40
6.0
 40
6.0
 40
6.0
 40
7.0
 40
7.0
 40
7.0
 40
8.0
 40
8.0
 40
8.0
 40
8.0
 10
74.8700208688693
 20
-120.6456936004809
 30
0.0
 10
74.76218938018098
 20
-120.8551554059841
 30
0.0
 10
74.58872882249865
 20
-120.874103431153
 30
0.0
 10
74.47228459509721
 20
-120.874103431153
 30
0.0
 10
74.3115708907103
 20
-120.874103431153
 30
0.0
 10
74.16980521149227
 20
-120.8275946421021
 30
0.0
 10
74.07454832132511
 20
-120.6456936004809
 30
0.0
 10
73.97102320199336
 20
-120.4510457055643
 30
0.0
 10
73.95190292205022
 20
-120.2143676457277
 30
0.0
 10
73.95190292205022
 20
-120.0514146292753
 30
0.0
 10
73.95190292205022
 20
-119.9074096379919
 30
0.0
 10
73.96878388992795
 20
-119.6555731580201
 30
0.0
 10
74.07454832132511
 20
-119.4567911485212
 30
0.0
 10
74.1825520647877
 20
-119.25387502444
 30
0.0
 10
74.34326576917461
 20
-119.2304483751403
 30
0.0
 10
74.47228459509721
 20
-119.2304483751403
 30
0.0
 10
74.63093124219297
 20
-119.2304483751403
 30
0.0
 10
74.77476397870214
 20
-119.2748901069
 30
0.0
 10
74.8700208688693
 20
-119.4567911485212
 30
0.0
 10
74.96941187361877
 20
-119.6493719861467
 30
0.0
 10
74.99266626814419
 20
-119.8777818168188
 30
0.0
 10
74.99266626814419
 20
-120.0514146292753
 30
0.0
 10
74.99266626814419
 20
-120.2226358748923
 30
0.0
 10
74.97165118568418
 20
-120.4531127628555
 30
0.0
 10
74.8700208688693
 20
-120.6456936004809
 30
0.0
  0
SPLINE
  5
137
330
12D
100
AcDbEntity
  8
_U+30EC_U+30A4_U+30E4_U+30FC 1
370
     0
100
AcDbSpline
210
0.0
220
0.0
230
1.0
 70
    11
 71
     3
 72
    17
 73
    13
 74
     0
 42
0.0000000001
 43
0.0000000001
 12
1.0
 22
0.0
 32
0.0
 13
1.0
 23
0.0
 33
0.0
 40
0.0
 40
0.0
 40
0.0
 40
0.0
 40
1.0
 40
1.0
 40
1.0
 40
2.0
 40
2.0
 40
2.0
 40
3.0
 40
3.0
 40
3.0
 40
4.0
 40
4.0
 40
4.0
 40
4.0
 10
74.47228459509721
 20
-119.4230292127658
 30
0.0
 10
74.22268742719086
 20
-119.4230292127658
 30
0.0
 10
74.17617863813999
 20
-119.7065605712018
 30
0.0
 10
74.17617863813999
 20
-120.0514146292753
 30
0.0
 10
74.17617863813999
 20
-120.370774980758
 30
0.0
 10
74.21217988596085
 20
-120.6794555362364
 30
0.0
 10
74.47228459509721
 20
-120.6794555362364
 30
0.0
 10
74.71981470571241
 20
-120.6794555362364
 30
0.0
 10
74.7685628068287
 20
-120.39833574464
 30
0.0
 10
74.7685628068287
 20
-120.0514146292753
 30
0.0
 10
74.7685628068287
 20
-119.7317097682442
 30
0.0
 10
74.73032224694242
 20
-119.4230292127658
 30
0.0
 10
74.47228459509721
 20
-119.4230292127658
 30
0.0
  0
HATCH
  5
138
330
12D
100
AcDbEntity
  8
_U+30EC_U+30A4_U+30E4_U+30FC 1
 62
   179
420
  2234388
100
AcDbHatch
 10
0.0
 20
0.0
 30
0.0
210
0.0
220
0.0
230
1.0
  2
SOLID
 70
     1
 71
     0
 91
        2
 92
        1
 93
        1
 72
     4
 94
        3
 73
     0
 74
     1
 95
       29
 96
       25
 40
0.0
 40
0.0
 40
0.0
 40
0.0
 40
1.0
 40
1.0
 40
1.0
 40
2.0
 40
2.0
 40
2.0
 40
3.0
 40
3.0
 40
3.0
 40
4.0
 40
4.0
 40
4.0
 40
5.0
 40
5.0
 40
5.0
 40
6.0
 40
6.0
 40
6.0
 40
7.0
 40
7.0
 40
7.0
 40
8.0
 40
8.0
 40
8.0
 40
8.0
 10
74.8700208688693
 20
-120.6456936004809
 10
74.76218938018098
 20
-120.8551554059841
 10
74.58872882249865
 20
-120.874103431153
 10
74.47228459509721
 20
-120.874103431153
 10
74.3115708907103
 20
-120.874103431153
 10
74.16980521149227
 20
-120.8275946421021
 10
74.07454832132511
 20
-120.6456936004809
 10
73.97102320199336
 20
-120.4510457055643
 10
73.95190292205022
 20
-120.2143676457277
 10
73.95190292205022
 20
-120.0514146292753
 10
73.95190292205022
 20
-119.9074096379919
 10
73.96878388992795
 20
-119.6555731580201
 10
74.07454832132511
 20
-119.4567911485212
 10
74.1825520647877
 20
-119.25387502444
 10
74.34326576917461
 20
-119.2304483751403
 10
74.47228459509721
 20
-119.2304483751403
 10
74.63093124219297
 20
-119.2304483751403
 10
74.77476397870214
 20
-119.2748901069
 10
74.8700208688693
 20
-119.4567911485212
 10
74.96941187361877
 20
-119.6493719861467
 10
74.99266626814419
 20
-119.8777818168188
 10
74.99266626814419
 20
-120.0514146292753
 10
74.99266626814419
 20
-120.2226358748923
 10
74.97165118568418
 20
-120.4531127628555
 10
74.8700208688693
 20
-120.6456936004809
 97
        0
 97
        0
 92
        1
 93
        1
 72
     4
 94
        3
 73
     0
 74
     1
 95
       17
 96
       13
 40
0.0
 40
0.0
 40
0.0
 40
0.0
 40
1.0
 40
1.0
 40
1.0
 40
2.0
 40
2.0
 40
2.0
 40
3.0
 40
3.0
 40
3.0
 40
4.0
 40
4.0
 40
4.0
 40
4.0
 10
74.47228459509721
 20
-119.4230292127658
 10
74.22268742719086
 20
-119.4230292127658
 10
74.17617863813999
 20
-119.7065605712018
 10
74.17617863813999
 20
-120.0514146292753
 10
74.17617863813999
 20
-120.370774980758
 10
74.21217988596085
 20
-120.6794555362364
 10
74.47228459509721
 20
-120.6794555362364
 10
74.71981470571241
 20
-120.6794555362364
 10
74.7685628068287
 20
-120.39833574464
 10
74.7685628068287
 20
-120.0514146292753
 10
74.7685628068287
 20
-119.7317097682442
 10
74.73032224694242
 20
-119.4230292127658
 10
74.47228459509721
 20
-119.4230292127658
 97
        0
 97
        0
 75
     2
 76
     1
 98
        0
  0
ENDBLK
  5
130
330
12D
100
AcDbEntity
  8
0
100
AcDbBlockEnd
  0
BLOCK
  5
13B
330
139
100
AcDbEntity
  8
0
100
AcDbBlockBegin
  2
block 9
 70
     0
 10
0.0
 20
0.0
 30
0.0
  3
block 9
  1

  0
SPLINE
  5
13D
330
139
100
AcDbEntity
  8
_U+30EC_U+30A4_U+30E4_U+30FC 1
370
     0
100
AcDbSpline
210
0.0
220
0.0
230
1.0
 70
    11
 71
     3
 72
    62
 73
    58
 74
     0
 42
0.0000000001
 43
0.0000000001
 12
1.0
 22
0.0
 32
0.0
 13
1.0
 23
0.0
 33
0.0
 40
0.0
 40
0.0
 40
0.0
 40
0.0
 40
1.0
 40
1.0
 40
1.0
 40
2.0
 40
2.0
 40
2.0
 40
3.0
 40
3.0
 40
3.0
 40
4.0
 40
4.0
 40
4.0
 40
5.0
 40
5.0
 40
5.0
 40
6.0
 40
6.0
 40
6.0
 40
7.0
 40
7.0
 40
7.0
 40
8.0
 40
8.0
 40
8.0
 40
9.0
 40
9.0
 40
9.0
 40
10.0
 40
10.0
 40
10.0
 40
11.0
 40
11.0
 40
11.0
 40
12.0
 40
12.0
 40
12.0
 40
13.0
 40
13.0
 40
13.0
 40
14.0
 40
14.0
 40
14.0
 40
15.0
 40
15.0
 40
15.0
 40
16.0
 40
16.0
 40
16.0
 40
17.0
 40
17.0
 40
17.0
 40
18.0
 40
18.0
 40
18.0
 40
19.0
 40
19.0
 40
19.0
 40
19.0
 10
103.3897270791873
 20
-109.3206312118191
 30
0.0
 10
103.2946424437944
 20
-109.3206312118191
 30
0.0
 10
103.0765678995781
 20
-109.2996161293591
 30
0.0
 10
102.951855443012
 20
-109.1135809731556
 30
0.0
 10
102.8777858900792
 20
-109.0012708603365
 30
0.0
 10
102.8736517754969
 20
-108.9020521103613
 30
0.0
 10
102.8695176609146
 20
-108.8173027614241
 30
0.0
 10
102.8695176609146
 20
-108.8173027614241
 30
0.0
 10
103.0893147528735
 20
-108.8173027614241
 30
0.0
 10
103.0893147528735
 20
-108.8173027614241
 30
0.0
 10
103.0913818101647
 20
-108.891372314357
 30
0.0
 10
103.1020616061689
 20
-109.1259833169025
 30
0.0
 10
103.385592964605
 20
-109.1259833169025
 30
0.0
 10
103.5230522744665
 20
-109.1259833169025
 30
0.0
 10
103.6753254949145
 20
-109.0563923881005
 30
0.0
 10
103.6753254949145
 20
-108.8279825574284
 30
0.0
 10
103.6753254949145
 20
-108.711538330027
 30
0.0
 10
103.6374294445768
 20
-108.662962483685
 30
0.0
 10
103.6057345661125
 20
-108.6312676052207
 30
0.0
 10
103.5316650131796
 20
-108.5571980522878
 30
0.0
 10
103.4152207857781
 20
-108.5444511989924
 30
0.0
 10
103.3600992580141
 20
-108.5444511989924
 30
0.0
 10
103.3411512328453
 20
-108.5444511989924
 30
0.0
 10
103.3053222397987
 20
-108.5465182562835
 30
0.0
 10
103.2777614759167
 20
-108.5506523708658
 30
0.0
 10
103.2777614759167
 20
-108.5506523708658
 30
0.0
 10
103.2777614759167
 20
-108.3560044759492
 30
0.0
 10
103.2777614759167
 20
-108.3560044759492
 30
0.0
 10
103.3156575262544
 20
-108.3625501573712
 30
0.0
 10
103.358032200723
 20
-108.3646172146623
 30
0.0
 10
103.364577882145
 20
-108.3646172146623
 30
0.0
 10
103.4300346963647
 20
-108.3646172146623
 30
0.0
 10
103.6288167058636
 20
-108.3432576226538
 30
0.0
 10
103.6288167058636
 20
-108.1065795628171
 30
0.0
 10
103.6288167058636
 20
-107.9288126357782
 30
0.0
 10
103.4975585678756
 20
-107.8736911080142
 30
0.0
 10
103.3876600218961
 20
-107.8736911080142
 30
0.0
 10
103.1234211981775
 20
-107.8736911080142
 30
0.0
 10
103.1148084594644
 20
-108.1065795628171
 30
0.0
 10
103.1106743448821
 20
-108.1782375489103
 30
0.0
 10
103.1106743448821
 20
-108.1782375489103
 30
0.0
 10
102.9074137112523
 20
-108.1782375489103
 30
0.0
 10
102.9074137112523
 20
-108.1782375489103
 30
0.0
 10
102.9160264499654
 20
-108.0535250923443
 30
0.0
 10
102.9435872138474
 20
-107.6769761558065
 30
0.0
 10
103.4004068751916
 20
-107.6769761558065
 30
0.0
 10
103.6246825912813
 20
-107.6769761558065
 30
0.0
 10
103.8658392752488
 20
-107.8041001792122
 30
0.0
 10
103.8658392752488
 20
-108.1000338813951
 30
0.0
 10
103.8658392752488
 20
-108.2864135471471
 30
0.0
 10
103.7707546398559
 20
-108.3687513292446
 30
0.0
 10
103.6711913803322
 20
-108.4300740288821
 30
0.0
 10
103.7325140799696
 20
-108.4576347927641
 30
0.0
 10
103.9144151215908
 20
-108.5379055175704
 30
0.0
 10
103.9144151215908
 20
-108.815235704133
 30
0.0
 10
103.9144151215908
 20
-109.1535440807845
 30
0.0
 10
103.6670572657499
 20
-109.3206312118191
 30
0.0
 10
103.3897270791873
 20
-109.3206312118191
 30
0.0
  0
HATCH
  5
13E
330
139
100
AcDbEntity
  8
_U+30EC_U+30A4_U+30E4_U+30FC 1
 62
   179
420
  2234388
100
AcDbHatch
 10
0.0
 20
0.0
 30
0.0
210
0.0
220
0.0
230
1.0
  2
SOLID
 70
     1
 71
     0
 91
        1
 92
        1
 93
        1
 72
     4
 94
        3
 73
     0
 74
     1
 95
       62
 96
       58
 40
0.0
 40
0.0
 40
0.0
 40
0.0
 40
1.0
 40
1.0
 40
1.0
 40
2.0
 40
2.0
 40
2.0
 40
3.0
 40
3.0
 40
3.0
 40
4.0
 40
4.0
 40
4.0
 40
5.0
 40
5.0
 40
5.0
 40
6.0
 40
6.0
 40
6.0
 40
7.0
 40
7.0
 40
7.0
 40
8.0
 40
8.0
 40
8.0
 40
9.0
 40
9.0
 40
9.0
 40
10.0
 40
10.0
 40
10.0
 40
11.0
 40
11.0
 40
11.0
 40
12.0
 40
12.0
 40
12.0
 40
13.0
 40
13.0
 40
13.0
 40
14.0
 40
14.0
 40
14.0
 40
15.0
 40
15.0
 40
15.0
 40
16.0
 40
16.0
 40
16.0
 40
17.0
 40
17.0
 40
17.0
 40
18.0
 40
18.0
 40
18.0
 40
19.0
 40
19.0
 40
19.0
 40
19.0
 10
103.3897270791873
 20
-109.3206312118191
 10
103.2946424437944
 20
-109.3206312118191
 10
103.0765678995781
 20
-109.2996161293591
 10
102.951855443012
 20
-109.1135809731556
 10
102.8777858900792
 20
-109.0012708603365
 10
102.8736517754969
 20
-108.9020521103613
 10
102.8695176609146
 20
-108.8173027614241
 10
102.8695176609146
 20
-108.8173027614241
 10
103.0893147528735
 20
-108.8173027614241
 10
103.0893147528735
 20
-108.8173027614241
 10
103.0913818101647
 20
-108.891372314357
 10
103.1020616061689
 20
-109.1259833169025
 10
103.385592964605
 20
-109.1259833169025
 10
103.5230522744665
 20
-109.1259833169025
 10
103.6753254949145
 20
-109.0563923881005
 10
103.6753254949145
 20
-108.8279825574284
 10
103.6753254949145
 20
-108.711538330027
 10
103.6374294445768
 20
-108.662962483685
 10
103.6057345661125
 20
-108.6312676052207
 10
103.5316650131796
 20
-108.5571980522878
 10
103.4152207857781
 20
-108.5444511989924
 10
103.3600992580141
 20
-108.5444511989924
 10
103.3411512328453
 20
-108.5444511989924
 10
103.3053222397987
 20
-108.5465182562835
 10
103.2777614759167
 20
-108.5506523708658
 10
103.2777614759167
 20
-108.5506523708658
 10
103.2777614759167
 20
-108.3560044759492
 10
103.2777614759167
 20
-108.3560044759492
 10
103.3156575262544
 20
-108.3625501573712
 10
103.358032200723
 20
-108.3646172146623
 10
103.364577882145
 20
-108.3646172146623
 10
103.4300346963647
 20
-108.3646172146623
 10
103.6288167058636
 20
-108.3432576226538
 10
103.6288167058636
 20
-108.1065795628171
 10
103.6288167058636
 20
-107.9288126357782
 10
103.4975585678756
 20
-107.8736911080142
 10
103.3876600218961
 20
-107.8736911080142
 10
103.1234211981775
 20
-107.8736911080142
 10
103.1148084594644
 20
-108.1065795628171
 10
103.1106743448821
 20
-108.1782375489103
 10
103.1106743448821
 20
-108.1782375489103
 10
102.9074137112523
 20
-108.1782375489103
 10
102.9074137112523
 20
-108.1782375489103
 10
102.9160264499654
 20
-108.0535250923443
 10
102.9435872138474
 20
-107.6769761558065
 10
103.4004068751916
 20
-107.6769761558065
 10
103.6246825912813
 20
-107.6769761558065
 10
103.8658392752488
 20
-107.8041001792122
 10
103.8658392752488
 20
-108.1000338813951
 10
103.8658392752488
 20
-108.2864135471471
 10
103.7707546398559
 20
-108.3687513292446
 10
103.6711913803322
 20
-108.4300740288821
 10
103.7325140799696
 20
-108.4576347927641
 10
103.9144151215908
 20
-108.5379055175704
 10
103.9144151215908
 20
-108.815235704133
 10
103.9144151215908
 20
-109.1535440807845
 10
103.6670572657499
 20
-109.3206312118191
 10
103.3897270791873
 20
-109.3206312118191
 97
        0
 97
        0
 75
     2
 76
     1
 98
        0
  0
SPLINE
  5
13F
330
139
100
AcDbEntity
  8
_U+30EC_U+30A4_U+30E4_U+30FC 1
370
     0
100
AcDbSpline
210
0.0
220
0.0
230
1.0
 70
    11
 71
     3
 72
    29
 73
    25
 74
     0
 42
0.0000000001
 43
0.0000000001
 12
1.0
 22
0.0
 32
0.0
 13
1.0
 23
0.0
 33
0.0
 40
0.0
 40
0.0
 40
0.0
 40
0.0
 40
1.0
 40
1.0
 40
1.0
 40
2.0
 40
2.0
 40
2.0
 40
3.0
 40
3.0
 40
3.0
 40
4.0
 40
4.0
 40
4.0
 40
5.0
 40
5.0
 40
5.0
 40
6.0
 40
6.0
 40
6.0
 40
7.0
 40
7.0
 40
7.0
 40
8.0
 40
8.0
 40
8.0
 40
8.0
 10
104.9727484546596
 20
-109.0922213811471
 30
0.0
 10
104.8649169659713
 20
-109.3016831866503
 30
0.0
 10
104.6916286630632
 20
-109.3206312118191
 30
0.0
 10
104.5751844356618
 20
-109.3206312118191
 30
0.0
 10
104.4142984765006
 20
-109.3206312118191
 30
0.0
 10
104.2727050520568
 20
-109.2741224227683
 30
0.0
 10
104.1772759071154
 20
-109.0922213811471
 30
0.0
 10
104.0739230425579
 20
-108.8975734862305
 30
0.0
 10
104.0546305078405
 20
-108.6608954263938
 30
0.0
 10
104.0546305078405
 20
-108.4979424099415
 30
0.0
 10
104.0546305078405
 20
-108.353937418658
 30
0.0
 10
104.0715114757182
 20
-108.1021009386863
 30
0.0
 10
104.1772759071154
 20
-107.9033189291874
 30
0.0
 10
104.2854519053522
 20
-107.7004028051062
 30
0.0
 10
104.4459933549649
 20
-107.6769761558065
 30
0.0
 10
104.5751844356618
 20
-107.6769761558065
 30
0.0
 10
104.7336588279833
 20
-107.6769761558065
 30
0.0
 10
104.8776638192667
 20
-107.7214178875662
 30
0.0
 10
104.9727484546596
 20
-107.9033189291874
 30
0.0
 10
105.0723117141833
 20
-108.0958997668128
 30
0.0
 10
105.0953938539345
 20
-108.3243095974849
 30
0.0
 10
105.0953938539345
 20
-108.4979424099415
 30
0.0
 10
105.0953938539345
 20
-108.6691636555584
 30
0.0
 10
105.0743787714745
 20
-108.8996405435216
 30
0.0
 10
104.9727484546596
 20
-109.0922213811471
 30
0.0
  0
SPLINE
  5
140
330
139
100
AcDbEntity
  8
_U+30EC_U+30A4_U+30E4_U+30FC 1
370
     0
100
AcDbSpline
210
0.0
220
0.0
230
1.0
 70
    11
 71
     3
 72
    17
 73
    13
 74
     0
 42
0.0000000001
 43
0.0000000001
 12
1.0
 22
0.0
 32
0.0
 13
1.0
 23
0.0
 33
0.0
 40
0.0
 40
0.0
 40
0.0
 40
0.0
 40
1.0
 40
1.0
 40
1.0
 40
2.0
 40
2.0
 40
2.0
 40
3.0
 40
3.0
 40
3.0
 40
4.0
 40
4.0
 40
4.0
 40
4.0
 10
104.5751844356618
 20
-107.8695569934319
 30
0.0
 10
104.3254150129812
 20
-107.8695569934319
 30
0.0
 10
104.2789062239303
 20
-108.153088351868
 30
0.0
 10
104.2789062239303
 20
-108.4979424099415
 30
0.0
 10
104.2789062239303
 20
-108.8173027614241
 30
0.0
 10
104.3150797265254
 20
-109.1259833169025
 30
0.0
 10
104.5751844356618
 20
-109.1259833169025
 30
0.0
 10
104.8225422915027
 20
-109.1259833169025
 30
0.0
 10
104.8714626473932
 20
-108.8448635253062
 30
0.0
 10
104.8714626473932
 20
-108.4979424099415
 30
0.0
 10
104.8714626473932
 20
-108.1782375489103
 30
0.0
 10
104.833222087507
 20
-107.8695569934319
 30
0.0
 10
104.5751844356618
 20
-107.8695569934319
 30
0.0
  0
HATCH
  5
141
330
139
100
AcDbEntity
  8
_U+30EC_U+30A4_U+30E4_U+30FC 1
 62
   179
420
  2234388
100
AcDbHatch
 10
0.0
 20
0.0
 30
0.0
210
0.0
220
0.0
230
1.0
  2
SOLID
 70
     1
 71
     0
 91
        2
 92
        1
 93
        1
 72
     4
 94
        3
 73
     0
 74
     1
 95
       29
 96
       25
 40
0.0
 40
0.0
 40
0.0
 40
0.0
 40
1.0
 40
1.0
 40
1.0
 40
2.0
 40
2.0
 40
2.0
 40
3.0
 40
3.0
 40
3.0
 40
4.0
 40
4.0
 40
4.0
 40
5.0
 40
5.0
 40
5.0
 40
6.0
 40
6.0
 40
6.0
 40
7.0
 40
7.0
 40
7.0
 40
8.0
 40
8.0
 40
8.0
 40
8.0
 10
104.9727484546596
 20
-109.0922213811471
 10
104.8649169659713
 20
-109.3016831866503
 10
104.6916286630632
 20
-109.3206312118191
 10
104.5751844356618
 20
-109.3206312118191
 10
104.4142984765006
 20
-109.3206312118191
 10
104.2727050520568
 20
-109.2741224227683
 10
104.1772759071154
 20
-109.0922213811471
 10
104.0739230425579
 20
-108.8975734862305
 10
104.0546305078405
 20
-108.6608954263938
 10
104.0546305078405
 20
-108.4979424099415
 10
104.0546305078405
 20
-108.353937418658
 10
104.0715114757182
 20
-108.1021009386863
 10
104.1772759071154
 20
-107.9033189291874
 10
104.2854519053522
 20
-107.7004028051062
 10
104.4459933549649
 20
-107.6769761558065
 10
104.5751844356618
 20
-107.6769761558065
 10
104.7336588279833
 20
-107.6769761558065
 10
104.8776638192667
 20
-107.7214178875662
 10
104.9727484546596
 20
-107.9033189291874
 10
105.0723117141833
 20
-108.0958997668128
 10
105.0953938539345
 20
-108.3243095974849
 10
105.0953938539345
 20
-108.4979424099415
 10
105.0953938539345
 20
-108.6691636555584
 10
105.0743787714745
 20
-108.8996405435216
 10
104.9727484546596
 20
-109.0922213811471
 97
        0
 97
        0
 92
        1
 93
        1
 72
     4
 94
        3
 73
     0
 74
     1
 95
       17
 96
       13
 40
0.0
 40
0.0
 40
0.0
 40
0.0
 40
1.0
 40
1.0
 40
1.0
 40
2.0
 40
2.0
 40
2.0
 40
3.0
 40
3.0
 40
3.0
 40
4.0
 40
4.0
 40
4.0
 40
4.0
 10
104.5751844356618
 20
-107.8695569934319
 10
104.3254150129812
 20
-107.8695569934319
 10
104.2789062239303
 20
-108.153088351868
 10
104.2789062239303
 20
-108.4979424099415
 10
104.2789062239303
 20
-108.8173027614241
 10
104.3150797265254
 20
-109.1259833169025
 10
104.5751844356618
 20
-109.1259833169025
 10
104.8225422915027
 20
-109.1259833169025
 10
104.8714626473932
 20
-108.8448635253062
 10
104.8714626473932
 20
-108.4979424099415
 10
104.8714626473932
 20
-108.1782375489103
 10
104.833222087507
 20
-107.8695569934319
 10
104.5751844356618
 20
-107.8695569934319
 97
        0
 97
        0
 75
     2
 76
     1
 98
        0
  0
SPLINE
  5
142
330
139
100
AcDbEntity
  8
_U+30EC_U+30A4_U+30E4_U+30FC 1
370
     0
100
AcDbSpline
210
0.0
220
0.0
230
1.0
 70
    11
 71
     3
 72
    29
 73
    25
 74
     0
 42
0.0000000001
 43
0.0000000001
 12
1.0
 22
0.0
 32
0.0
 13
1.0
 23
0.0
 33
0.0
 40
0.0
 40
0.0
 40
0.0
 40
0.0
 40
1.0
 40
1.0
 40
1.0
 40
2.0
 40
2.0
 40
2.0
 40
3.0
 40
3.0
 40
3.0
 40
4.0
 40
4.0
 40
4.0
 40
5.0
 40
5.0
 40
5.0
 40
6.0
 40
6.0
 40
6.0
 40
7.0
 40
7.0
 40
7.0
 40
8.0
 40
8.0
 40
8.0
 40
8.0
 10
106.1495930724209
 20
-109.0922213811471
 30
0.0
 10
106.0417615837326
 20
-109.3016831866503
 30
0.0
 10
105.8684732808246
 20
-109.3206312118191
 30
0.0
 10
105.7520290534231
 20
-109.3206312118191
 30
0.0
 10
105.5911430942619
 20
-109.3206312118191
 30
0.0
 10
105.4495496698182
 20
-109.2741224227683
 30
0.0
 10
105.3541205248767
 20
-109.0922213811471
 30
0.0
 10
105.2507676603193
 20
-108.8975734862305
 30
0.0
 10
105.2314751256019
 20
-108.6608954263938
 30
0.0
 10
105.2314751256019
 20
-108.4979424099415
 30
0.0
 10
105.2314751256019
 20
-108.353937418658
 30
0.0
 10
105.2483560934796
 20
-108.1021009386863
 30
0.0
 10
105.3541205248767
 20
-107.9033189291874
 30
0.0
 10
105.4622965231136
 20
-107.7004028051062
 30
0.0
 10
105.6228379727262
 20
-107.6769761558065
 30
0.0
 10
105.7520290534231
 20
-107.6769761558065
 30
0.0
 10
105.9105034457446
 20
-107.6769761558065
 30
0.0
 10
106.054508437028
 20
-107.7214178875662
 30
0.0
 10
106.1495930724209
 20
-107.9033189291874
 30
0.0
 10
106.2491563319447
 20
-108.0958997668128
 30
0.0
 10
106.2722384716958
 20
-108.3243095974849
 30
0.0
 10
106.2722384716958
 20
-108.4979424099415
 30
0.0
 10
106.2722384716958
 20
-108.6691636555584
 30
0.0
 10
106.2512233892358
 20
-108.8996405435216
 30
0.0
 10
106.1495930724209
 20
-109.0922213811471
 30
0.0
  0
SPLINE
  5
143
330
139
100
AcDbEntity
  8
_U+30EC_U+30A4_U+30E4_U+30FC 1
370
     0
100
AcDbSpline
210
0.0
220
0.0
230
1.0
 70
    11
 71
     3
 72
    17
 73
    13
 74
     0
 42
0.0000000001
 43
0.0000000001
 12
1.0
 22
0.0
 32
0.0
 13
1.0
 23
0.0
 33
0.0
 40
0.0
 40
0.0
 40
0.0
 40
0.0
 40
1.0
 40
1.0
 40
1.0
 40
2.0
 40
2.0
 40
2.0
 40
3.0
 40
3.0
 40
3.0
 40
4.0
 40
4.0
 40
4.0
 40
4.0
 10
105.7520290534231
 20
-107.8695569934319
 30
0.0
 10
105.5022596307425
 20
-107.8695569934319
 30
0.0
 10
105.4557508416916
 20
-108.153088351868
 30
0.0
 10
105.4557508416916
 20
-108.4979424099415
 30
0.0
 10
105.4557508416916
 20
-108.8173027614241
 30
0.0
 10
105.4919243442867
 20
-109.1259833169025
 30
0.0
 10
105.7520290534231
 20
-109.1259833169025
 30
0.0
 10
105.999386909264
 20
-109.1259833169025
 30
0.0
 10
106.0483072651546
 20
-108.8448635253062
 30
0.0
 10
106.0483072651546
 20
-108.4979424099415
 30
0.0
 10
106.0483072651546
 20
-108.1782375489103
 30
0.0
 10
106.0100667052683
 20
-107.8695569934319
 30
0.0
 10
105.7520290534231
 20
-107.8695569934319
 30
0.0
  0
HATCH
  5
144
330
139
100
AcDbEntity
  8
_U+30EC_U+30A4_U+30E4_U+30FC 1
 62
   179
420
  2234388
100
AcDbHatch
 10
0.0
 20
0.0
 30
0.0
210
0.0
220
0.0
230
1.0
  2
SOLID
 70
     1
 71
     0
 91
        2
 92
        1
 93
        1
 72
     4
 94
        3
 73
     0
 74
     1
 95
       29
 96
       25
 40
0.0
 40
0.0
 40
0.0
 40
0.0
 40
1.0
 40
1.0
 40
1.0
 40
2.0
 40
2.0
 40
2.0
 40
3.0
 40
3.0
 40
3.0
 40
4.0
 40
4.0
 40
4.0
 40
5.0
 40
5.0
 40
5.0
 40
6.0
 40
6.0
 40
6.0
 40
7.0
 40
7.0
 40
7.0
 40
8.0
 40
8.0
 40
8.0
 40
8.0
 10
106.1495930724209
 20
-109.0922213811471
 10
106.0417615837326
 20
-109.3016831866503
 10
105.8684732808246
 20
-109.3206312118191
 10
105.7520290534231
 20
-109.3206312118191
 10
105.5911430942619
 20
-109.3206312118191
 10
105.4495496698182
 20
-109.2741224227683
 10
105.3541205248767
 20
-109.0922213811471
 10
105.2507676603193
 20
-108.8975734862305
 10
105.2314751256019
 20
-108.6608954263938
 10
105.2314751256019
 20
-108.4979424099415
 10
105.2314751256019
 20
-108.353937418658
 10
105.2483560934796
 20
-108.1021009386863
 10
105.3541205248767
 20
-107.9033189291874
 10
105.4622965231136
 20
-107.7004028051062
 10
105.6228379727262
 20
-107.6769761558065
 10
105.7520290534231
 20
-107.6769761558065
 10
105.9105034457446
 20
-107.6769761558065
 10
106.054508437028
 20
-107.7214178875662
 10
106.1495930724209
 20
-107.9033189291874
 10
106.2491563319447
 20
-108.0958997668128
 10
106.2722384716958
 20
-108.3243095974849
 10
106.2722384716958
 20
-108.4979424099415
 10
106.2722384716958
 20
-108.6691636555584
 10
106.2512233892358
 20
-108.8996405435216
 10
106.1495930724209
 20
-109.0922213811471
 97
        0
 97
        0
 92
        1
 93
        1
 72
     4
 94
        3
 73
     0
 74
     1
 95
       17
 96
       13
 40
0.0
 40
0.0
 40
0.0
 40
0.0
 40
1.0
 40
1.0
 40
1.0
 40
2.0
 40
2.0
 40
2.0
 40
3.0
 40
3.0
 40
3.0
 40
4.0
 40
4.0
 40
4.0
 40
4.0
 10
105.7520290534231
 20
-107.8695569934319
 10
105.5022596307425
 20
-107.8695569934319
 10
105.4557508416916
 20
-108.153088351868
 10
105.4557508416916
 20
-108.4979424099415
 10
105.4557508416916
 20
-108.8173027614241
 10
105.4919243442867
 20
-109.1259833169025
 10
105.7520290534231
 20
-109.1259833169025
 10
105.999386909264
 20
-109.1259833169025
 10
106.0483072651546
 20
-108.8448635253062
 10
106.0483072651546
 20
-108.4979424099415
 10
106.0483072651546
 20
-108.1782375489103
 10
106.0100667052683
 20
-107.8695569934319
 10
105.7520290534231
 20
-107.8695569934319
 97
        0
 97
        0
 75
     2
 76
     1
 98
        0
  0
ENDBLK
  5
13C
330
139
100
AcDbEntity
  8
0
100
AcDbBlockEnd
  0
ENDSEC
  0
SECTION
  2
ENTITIES
  0
INSERT
  5
42
330
1F
100
AcDbEntity
  8
_U+30EC_U+30A4_U+30E4_U+30FC 1
100
AcDbBlockReference
  2
block 2
 10
0.0
 20
0.0
 30
0.0
  0
ENDSEC
  0
SECTION
  2
OBJECTS
  0
DICTIONARY
  5
C
330
0
100
AcDbDictionary
281
     1
  3
ACAD_GROUP
350
D
  3
ACAD_LAYOUT
350
1A
  3
ACAD_MATERIAL
350
3B
  3
ACAD_MLEADERSTYLE
350
168
  3
ACAD_MLINESTYLE
350
17
  3
ACAD_PLOTSETTINGS
350
19
  3
ACAD_PLOTSTYLENAME
350
E
  3
ACAD_TABLESTYLE
350
167
  3
ACAD_VISUALSTYLE
350
2A
  0
SUN
  5
3F
330
29
100
AcDbSun
 90
        1
290
     0
 63
     7
421
 16777215
 40
1.0
291
     1
 91
  2455826
 92
 54000000
292
     0
 70
     2
 71
   256
280
     1
  0
DICTIONARY
  5
D
102
{ACAD_REACTORS
330
C
102
}
330
C
100
AcDbDictionary
281
     1
  0
DICTIONARY
  5
1A
102
{ACAD_REACTORS
330
C
102
}
330
C
100
AcDbDictionary
281
     1
  3
Layout1
350
1E
  3
Layout2
350
26
  3
Model
350
22
  0
DICTIONARY
  5
3B
102
{ACAD_REACTORS
330
C
102
}
330
C
100
AcDbDictionary
281
     1
  3
ByBlock
350
3D
  3
ByLayer
350
3C
  3
Global
350
3E
  0
DICTIONARY
  5
168
102
{ACAD_REACTORS
330
C
102
}
330
C
100
AcDbDictionary
281
     1
  0
DICTIONARY
  5
17
102
{ACAD_REACTORS
330
C
102
}
330
C
100
AcDbDictionary
281
     1
  3
Standard
350
18
  0
DICTIONARY
  5
19
102
{ACAD_REACTORS
330
C
102
}
330
C
100
AcDbDictionary
281
     1
  0
ACDBDICTIONARYWDFLT
  5
E
102
{ACAD_REACTORS
330
C
102
}
330
C
100
AcDbDictionary
281
     1
  3
Normal
350
F
100
AcDbDictionaryWithDefault
340
F
  0
DICTIONARY
  5
167
102
{ACAD_REACTORS
330
C
102
}
330
C
100
AcDbDictionary
281
     1
  0
DICTIONARY
  5
2A
102
{ACAD_REACTORS
330
C
102
}
330
C
100
AcDbDictionary
281
     1
  3
2dWireframe
350
2F
  3
3D Hidden
350
31
  3
3dWireframe
350
30
  3
Basic
350
32
  3
Brighten
350
36
  3
ColorChange
350
3A
  3
Conceptual
350
34
  3
Dim
350
35
  3
Facepattern
350
39
  3
Flat
350
2B
  3
FlatWithEdges
350
2C
  3
Gouraud
350
2D
  3
GouraudWithEdges
350
2E
  3
Linepattern
350
38
  3
Realistic
350
33
  3
Thicken
350
37
  0
LAYOUT
  5
1E
102
{ACAD_REACTORS
330
1A
102
}
330
1A
100
AcDbPlotSettings
  1

  2
none_device
  4

  6

 40
0.0
 41
0.0
 42
0.0
 43
0.0
 44
0.0
 45
0.0
 46
0.0
 47
0.0
 48
0.0
 49
0.0
140
0.0
141
0.0
142
1.0
143
1.0
 70
   688
 72
     0
 73
     0
 74
     5
  7

 75
    16
 76
     0
 77
     2
 78
   300
147
1.0
148
0.0
149
0.0
100
AcDbLayout
  1
Layout1
 70
     1
 71
     1
 10
0.0
 20
0.0
 11
12.0
 21
9.0
 12
0.0
 22
0.0
 32
0.0
 14
1.000000000000000E+20
 24
1.000000000000000E+20
 34
1.000000000000000E+20
 15
-1.000000000000000E+20
 25
-1.000000000000000E+20
 35
-1.000000000000000E+20
146
0.0
 13
0.0
 23
0.0
 33
0.0
 16
1.0
 26
0.0
 36
0.0
 17
0.0
 27
1.0
 37
0.0
 76
     0
330
1B
  0
LAYOUT
  5
26
102
{ACAD_REACTORS
330
1A
102
}
330
1A
100
AcDbPlotSettings
  1

  2
none_device
  4

  6

 40
0.0
 41
0.0
 42
0.0
 43
0.0
 44
0.0
 45
0.0
 46
0.0
 47
0.0
 48
0.0
 49
0.0
140
0.0
141
0.0
142
1.0
143
1.0
 70
   688
 72
     0
 73
     0
 74
     5
  7

 75
    16
 76
     0
 77
     2
 78
   300
147
1.0
148
0.0
149
0.0
100
AcDbLayout
  1
Layout2
 70
     1
 71
     2
 10
0.0
 20
0.0
 11
0.0
 21
0.0
 12
0.0
 22
0.0
 32
0.0
 14
0.0
 24
0.0
 34
0.0
 15
0.0
 25
0.0
 35
0.0
146
0.0
 13
0.0
 23
0.0
 33
0.0
 16
1.0
 26
0.0
 36
0.0
 17
0.0
 27
1.0
 37
0.0
 76
     0
330
23
  0
LAYOUT
  5
22
102
{ACAD_REACTORS
330
1A
102
}
330
1A
100
AcDbPlotSettings
  1

  2
none_device
  4

  6

 40
0.0
 41
0.0
 42
0.0
 43
0.0
 44
0.0
 45
0.0
 46
0.0
 47
0.0
 48
0.0
 49
0.0
140
0.0
141
0.0
142
1.0
143
1.0
 70
  1712
 72
     0
 73
     0
 74
     0
  7

 75
     0
 76
     0
 77
     2
 78
   300
147
1.0
148
0.0
149
0.0
100
AcDbLayout
  1
Model
 70
     1
 71
     0
 10
0.0
 20
0.0
 11
12.0
 21
9.0
 12
0.0
 22
0.0
 32
0.0
 14
1.000000000000000E+20
 24
1.000000000000000E+20
 34
1.000000000000000E+20
 15
-1.000000000000000E+20
 25
-1.000000000000000E+20
 35
-1.000000000000000E+20
146
0.0
 13
0.0
 23
0.0
 33
0.0
 16
1.0
 26
0.0
 36
0.0
 17
0.0
 27
1.0
 37
0.0
 76
     0
330
1F
331
29
  0
MATERIAL
  5
3D
102
{ACAD_REACTORS
330
3B
102
}
330
3B
100
AcDbMaterial
  1
ByBlock
 72
     1
 94
      127
  0
MATERIAL
  5
3C
102
{ACAD_REACTORS
330
3B
102
}
330
3B
100
AcDbMaterial
  1
ByLayer
 72
     1
 94
      127
  0
MATERIAL
  5
3E
102
{ACAD_REACTORS
330
3B
102
}
330
3B
100
AcDbMaterial
  1
Global
 72
     1
 94
      127
  0
MLINESTYLE
  5
18
102
{ACAD_REACTORS
330
17
102
}
330
17
100
AcDbMlineStyle
  2
Standard
 70
     0
  3

 62
   256
 51
90.0
 52
90.0
 71
     2
 49
0.5
 62
   256
  6
BYLAYER
 49
-0.5
 62
   256
  6
BYLAYER
  0
ACDBPLACEHOLDER
  5
F
102
{ACAD_REACTORS
330
E
102
}
330
E
  0
VISUALSTYLE
  5
2F
102
{ACAD_REACTORS
330
2A
102
}
330
2A
100
AcDbVisualStyle
  2
2dWireframe
 70
     4
177
     2
291
     0
 71
     0
176
     1
 72
     2
176
     1
 73
     0
176
     1
 90
        0
176
     1
 40
-0.6
176
     1
 41
-30.0
176
     1
 62
     5
 63
     7
421
 16777215
176
     1
 74
     1
176
     1
 91
        4
176
     1
 64
     7
176
     1
 65
   257
176
     1
 75
     1
176
     1
175
     1
176
     1
 42
1.0
176
     1
 92
        0
176
     1
 66
   257
176
     1
 43
1.0
176
     1
 76
     1
176
     1
 77
     6
176
     1
 78
     2
176
     1
 67
     7
176
     1
 79
     5
176
     1
170
     0
176
     1
171
     0
176
     1
290
     0
176
     1
 93
        1
176
     1
 44
0.0
176
     1
173
     0
176
     1
  0
VISUALSTYLE
  5
31
102
{ACAD_REACTORS
330
2A
102
}
330
2A
100
AcDbVisualStyle
  2
3D Hidden
 70
     6
177
     2
291
     0
 71
     1
176
     1
 72
     2
176
     1
 73
     2
176
     1
 90
        0
176
     1
 40
-0.6
176
     1
 41
-30.0
176
     1
 62
     5
 63
     7
421
 16777215
176
     1
 74
     2
176
     1
 91
        2
176
     1
 64
     7
176
     1
 65
   257
176
     1
 75
     2
176
     1
175
     1
176
     1
 42
40.0
176
     1
 92
        0
176
     1
 66
   257
176
     1
 43
1.0
176
     1
 76
     1
176
     1
 77
     6
176
     1
 78
     2
176
     1
 67
     7
176
     1
 79
     3
176
     1
170
     0
176
     1
171
     0
176
     1
290
     0
176
     1
 93
        1
176
     1
 44
0.0
176
     1
173
     0
176
     1
  0
VISUALSTYLE
  5
30
102
{ACAD_REACTORS
330
2A
102
}
330
2A
100
AcDbVisualStyle
  2
3dWireframe
 70
     5
177
     2
291
     0
 71
     0
176
     1
 72
     2
176
     1
 73
     0
176
     1
 90
        0
176
     1
 40
-0.6
176
     1
 41
-30.0
176
     1
 62
     5
 63
     7
421
 16777215
176
     1
 74
     1
176
     1
 91
        4
176
     1
 64
     7
176
     1
 65
   257
176
     1
 75
     1
176
     1
175
     1
176
     1
 42
1.0
176
     1
 92
        0
176
     1
 66
   257
176
     1
 43
1.0
176
     1
 76
     1
176
     1
 77
     6
176
     1
 78
     2
176
     1
 67
     7
176
     1
 79
     5
176
     1
170
     0
176
     1
171
     0
176
     1
290
     0
176
     1
 93
        1
176
     1
 44
0.0
176
     1
173
     0
176
     1
  0
VISUALSTYLE
  5
32
102
{ACAD_REACTORS
330
2A
102
}
330
2A
100
AcDbVisualStyle
  2
Basic
 70
     7
177
     2
291
     1
 71
     1
176
     1
 72
     0
176
     1
 73
     1
176
     1
 90
        0
176
     1
 40
-0.6
176
     1
 41
-30.0
176
     1
 62
     5
 63
     7
421
 16777215
176
     1
 74
     0
176
     1
 91
        4
176
     1
 64
     7
176
     1
 65
   257
176
     1
 75
     1
176
     1
175
     1
176
     1
 42
1.0
176
     1
 92
        8
176
     1
 66
     7
176
     1
 43
1.0
176
     1
 76
     1
176
     1
 77
     6
176
     1
 78
     2
176
     1
 67
     7
176
     1
 79
     5
176
     1
170
     0
176
     1
171
     0
176
     1
290
     0
176
     1
 93
        1
176
     1
 44
0.0
176
     1
173
     0
176
     1
  0
VISUALSTYLE
  5
36
102
{ACAD_REACTORS
330
2A
102
}
330
2A
100
AcDbVisualStyle
  2
Brighten
 70
    12
177
     2
291
     1
 71
     2
176
     1
 72
     2
176
     1
 73
     0
176
     1
 90
        0
176
     1
 40
-0.6
176
     1
 41
-30.0
176
     1
 62
     5
 63
     7
421
 16777215
176
     1
 74
     1
176
     1
 91
        4
176
     1
 64
     7
176
     1
 65
   257
176
     1
 75
     1
176
     1
175
     1
176
     1
 42
1.0
176
     1
 92
        8
176
     1
 66
     7
176
     1
 43
1.0
176
     1
 76
     1
176
     1
 77
     6
176
     1
 78
     2
176
     1
 67
     7
176
     1
 79
     5
176
     1
170
     0
176
     1
171
     0
176
     1
290
     0
176
     1
 93
        1
176
     1
 44
50.0
176
     1
173
     0
176
     1
  0
VISUALSTYLE
  5
3A
102
{ACAD_REACTORS
330
2A
102
}
330
2A
100
AcDbVisualStyle
  2
ColorChange
 70
    16
177
     2
291
     1
 71
     2
176
     1
 72
     2
176
     1
 73
     3
176
     1
 90
        0
176
     1
 40
-0.6
176
     1
 41
-30.0
176
     1
 62
     5
 63
     8
421
  8421504
176
     1
 74
     1
176
     1
 91
        4
176
     1
 64
     7
176
     1
 65
   257
176
     1
 75
     1
176
     1
175
     1
176
     1
 42
1.0
176
     1
 92
        8
176
     1
 66
     8
424
  8421504
176
     1
 43
1.0
176
     1
 76
     1
176
     1
 77
     6
176
     1
 78
     2
176
     1
 67
     7
176
     1
 79
     5
176
     1
170
     0
176
     1
171
     0
176
     1
290
     0
176
     1
 93
        1
176
     1
 44
0.0
176
     1
173
     0
176
     1
  0
VISUALSTYLE
  5
34
102
{ACAD_REACTORS
330
2A
102
}
330
2A
100
AcDbVisualStyle
  2
Conceptual
 70
     9
177
     2
291
     0
 71
     3
176
     1
 72
     2
176
     1
 73
     0
176
     1
 90
        0
176
     1
 40
-0.6
176
     1
 41
-30.0
176
     1
 62
     5
 63
     7
421
 16777215
176
     1
 74
     2
176
     1
 91
        2
176
     1
 64
     7
176
     1
 65
   257
176
     1
 75
     1
176
     1
175
     1
176
     1
 42
40.0
176
     1
 92
        8
176
     1
 66
     7
176
     1
 43
1.0
176
     1
 76
     1
176
     1
 77
     6
176
     1
 78
     2
176
     1
 67
     7
176
     1
 79
     3
176
     1
170
     0
176
     1
171
     0
176
     1
290
     0
176
     1
 93
        1
176
     1
 44
0.0
176
     1
173
     0
176
     1
  0
VISUALSTYLE
  5
35
102
{ACAD_REACTORS
330
2A
102
}
330
2A
100
AcDbVisualStyle
  2
Dim
 70
    11
177
     2
291
     1
 71
     2
176
     1
 72
     2
176
     1
 73
     0
176
     1
 90
        0
176
     1
 40
-0.6
176
     1
 41
-30.0
176
     1
 62
     5
 63
     7
421
 16777215
176
     1
 74
     1
176
     1
 91
        4
176
     1
 64
     7
176
     1
 65
   257
176
     1
 75
     1
176
     1
175
     1
176
     1
 42
1.0
176
     1
 92
        8
176
     1
 66
     7
176
     1
 43
1.0
176
     1
 76
     1
176
     1
 77
     6
176
     1
 78
     2
176
     1
 67
     7
176
     1
 79
     5
176
     1
170
     0
176
     1
171
     0
176
     1
290
     0
176
     1
 93
        1
176
     1
 44
-50.0
176
     1
173
     0
176
     1
  0
VISUALSTYLE
  5
39
102
{ACAD_REACTORS
330
2A
102
}
330
2A
100
AcDbVisualStyle
  2
Facepattern
 70
    15
177
     2
291
     1
 71
     2
176
     1
 72
     2
176
     1
 73
     0
176
     1
 90
        0
176
     1
 40
-0.6
176
     1
 41
-30.0
176
     1
 62
     5
 63
     7
421
 16777215
176
     1
 74
     1
176
     1
 91
        4
176
     1
 64
     7
176
     1
 65
   257
176
     1
 75
     1
176
     1
175
     1
176
     1
 42
1.0
176
     1
 92
        8
176
     1
 66
     7
176
     1
 43
1.0
176
     1
 76
     1
176
     1
 77
     6
176
     1
 78
     2
176
     1
 67
     7
176
     1
 79
     5
176
     1
170
     0
176
     1
171
     0
176
     1
290
     0
176
     1
 93
        1
176
     1
 44
0.0
176
     1
173
     0
176
     1
  0
VISUALSTYLE
  5
2B
102
{ACAD_REACTORS
330
2A
102
}
330
2A
100
AcDbVisualStyle
  2
Flat
 70
     0
177
     2
291
     1
 71
     2
176
     1
 72
     1
176
     1
 73
     1
176
     1
 90
        2
176
     1
 40
-0.6
176
     1
 41
30.0
176
     1
 62
     5
 63
     7
421
 16777215
176
     1
 74
     0
176
     1
 91
        4
176
     1
 64
     7
176
     1
 65
   257
176
     1
 75
     1
176
     1
175
     1
176
     1
 42
1.0
176
     1
 92
        8
176
     1
 66
     7
176
     1
 43
1.0
176
     1
 76
     1
176
     1
 77
     6
176
     1
 78
     2
176
     1
 67
     7
176
     1
 79
     5
176
     1
170
     0
176
     1
171
     0
176
     1
290
     0
176
     1
 93
       13
176
     1
 44
0.0
176
     1
173
     0
176
     1
  0
VISUALSTYLE
  5
2C
102
{ACAD_REACTORS
330
2A
102
}
330
2A
100
AcDbVisualStyle
  2
FlatWithEdges
 70
     1
177
     2
291
     1
 71
     2
176
     1
 72
     1
176
     1
 73
     1
176
     1
 90
        2
176
     1
 40
-0.6
176
     1
 41
30.0
176
     1
 62
     5
 63
     7
421
 16777215
176
     1
 74
     1
176
     1
 91
        4
176
     1
 64
     7
176
     1
 65
   257
176
     1
 75
     1
176
     1
175
     1
176
     1
 42
1.0
176
     1
 92
        0
176
     1
 66
   257
176
     1
 43
1.0
176
     1
 76
     1
176
     1
 77
     6
176
     1
 78
     2
176
     1
 67
     7
176
     1
 79
     5
176
     1
170
     0
176
     1
171
     0
176
     1
290
     0
176
     1
 93
       13
176
     1
 44
0.0
176
     1
173
     0
176
     1
  0
VISUALSTYLE
  5
2D
102
{ACAD_REACTORS
330
2A
102
}
330
2A
100
AcDbVisualStyle
  2
Gouraud
 70
     2
177
     2
291
     1
 71
     2
176
     1
 72
     2
176
     1
 73
     1
176
     1
 90
        2
176
     1
 40
-0.6
176
     1
 41
30.0
176
     1
 62
     5
 63
     7
421
 16777215
176
     1
 74
     0
176
     1
 91
        4
176
     1
 64
     7
176
     1
 65
   257
176
     1
 75
     1
176
     1
175
     1
176
     1
 42
1.0
176
     1
 92
        0
176
     1
 66
     7
176
     1
 43
1.0
176
     1
 76
     1
176
     1
 77
     6
176
     1
 78
     2
176
     1
 67
     7
176
     1
 79
     5
176
     1
170
     0
176
     1
171
     0
176
     1
290
     0
176
     1
 93
       13
176
     1
 44
0.0
176
     1
173
     0
176
     1
  0
VISUALSTYLE
  5
2E
102
{ACAD_REACTORS
330
2A
102
}
330
2A
100
AcDbVisualStyle
  2
GouraudWithEdges
 70
     3
177
     2
291
     1
 71
     2
176
     1
 72
     2
176
     1
 73
     1
176
     1
 90
        2
176
     1
 40
-0.6
176
     1
 41
30.0
176
     1
 62
     5
 63
     7
421
 16777215
176
     1
 74
     1
176
     1
 91
        4
176
     1
 64
     7
176
     1
 65
   257
176
     1
 75
     1
176
     1
175
     1
176
     1
 42
1.0
176
     1
 92
        0
176
     1
 66
   257
176
     1
 43
1.0
176
     1
 76
     1
176
     1
 77
     6
176
     1
 78
     2
176
     1
 67
     7
176
     1
 79
     5
176
     1
170
     0
176
     1
171
     0
176
     1
290
     0
176
     1
 93
       13
176
     1
 44
0.0
176
     1
173
     0
176
     1
  0
VISUALSTYLE
  5
38
102
{ACAD_REACTORS
330
2A
102
}
330
2A
100
AcDbVisualStyle
  2
Linepattern
 70
    14
177
     2
291
     1
 71
     2
176
     1
 72
     2
176
     1
 73
     0
176
     1
 90
        0
176
     1
 40
-0.6
176
     1
 41
-30.0
176
     1
 62
     5
 63
     7
421
 16777215
176
     1
 74
     1
176
     1
 91
        4
176
     1
 64
     7
176
     1
 65
   257
176
     1
 75
     7
176
     1
175
     7
176
     1
 42
1.0
176
     1
 92
        8
176
     1
 66
     7
176
     1
 43
1.0
176
     1
 76
     1
176
     1
 77
     6
176
     1
 78
     2
176
     1
 67
     7
176
     1
 79
     5
176
     1
170
     0
176
     1
171
     0
176
     1
290
     0
176
     1
 93
        1
176
     1
 44
0.0
176
     1
173
     0
176
     1
  0
VISUALSTYLE
  5
33
102
{ACAD_REACTORS
330
2A
102
}
330
2A
100
AcDbVisualStyle
  2
Realistic
 70
     8
177
     2
291
     0
 71
     2
176
     1
 72
     2
176
     1
 73
     0
176
     1
 90
        0
176
     1
 40
-0.6
176
     1
 41
-30.0
176
     1
 62
     5
 63
     7
421
 16777215
176
     1
 74
     1
176
     1
 91
        0
176
     1
 64
     7
176
     1
 65
   257
176
     1
 75
     1
176
     1
175
     1
176
     1
 42
1.0
176
     1
 92
        8
176
     1
 66
     8
424
  7895160
176
     1
 43
1.0
176
     1
 76
     1
176
     1
 77
     6
176
     1
 78
     2
176
     1
 67
     7
176
     1
 79
     5
176
     1
170
     0
176
     1
171
     0
176
     1
290
     0
176
     1
 93
       13
176
     1
 44
0.0
176
     1
173
     0
176
     1
  0
VISUALSTYLE
  5
37
102
{ACAD_REACTORS
330
2A
102
}
330
2A
100
AcDbVisualStyle
  2
Thicken
 70
    13
177
     2
291
     1
 71
     2
176
     1
 72
     2
176
     1
 73
     0
176
     1
 90
        0
176
     1
 40
-0.6
176
     1
 41
-30.0
176
     1
 62
     5
 63
     7
421
 16777215
176
     1
 74
     1
176
     1
 91
        4
176
     1
 64
     7
176
     1
 65
   257
176
     1
 75
     1
176
     1
175
     1
176
     1
 42
1.0
176
     1
 92
       12
176
     1
 66
     7
176
     1
 43
1.0
176
     1
 76
     1
176
     1
 77
     6
176
     1
 78
     2
176
     1
 67
     7
176
     1
 79
     5
176
     1
170
     0
176
     1
171
     0
176
     1
290
     0
176
     1
 93
        1
176
     1
 44
0.0
176
     1
173
     0
176
     1
  0
ENDSEC
  0
EOF
