  0
SECTION
  2
HEADER
  9
$ACADVER
  1
AC1024
  9
$ACADMAINTVER
 70
     6
  9
$DWGCODEPAGE
  3
UNDEFINED
  9
$INSBASE
 10
0.0
 20
0.0
 30
0.0
  9
$EXTMIN
 10
1.000000000000000E+20
 20
1.000000000000000E+20
 30
1.000000000000000E+20
  9
$EXTMAX
 10
-1.000000000000000E+20
 20
-1.000000000000000E+20
 30
-1.000000000000000E+20
  9
$LIMMIN
 10
0.0
 20
0.0
  9
$LIMMAX
 10
12.0
 20
9.0
  9
$ORTHOMODE
 70
     0
  9
$REGENMODE
 70
     1
  9
$FILLMODE
 70
     1
  9
$QTEXTMODE
 70
     0
  9
$MIRRTEXT
 70
     1
  9
$LTSCALE
 40
1.0
  9
$ATTMODE
 70
     1
  9
$TEXTSIZE
 40
0.2
  9
$TRACEWID
 40
0.05
  9
$TEXTSTYLE
  7
Standard
  9
$CLAYER
  8
0
  9
$CELTYPE
  6
ByLayer
  9
$CECOLOR
 62
   256
  9
$CELTSCALE
 40
1.0
  9
$DISPSILH
 70
     0
  9
$DIMSCALE
 40
1.0
  9
$DIMASZ
 40
0.18
  9
$DIMEXO
 40
0.0625
  9
$DIMDLI
 40
0.38
  9
$DIMRND
 40
0.0
  9
$DIMDLE
 40
0.0
  9
$DIMEXE
 40
0.18
  9
$DIMTP
 40
0.0
  9
$DIMTM
 40
0.0
  9
$DIMTXT
 40
0.18
  9
$DIMCEN
 40
0.09
  9
$DIMTSZ
 40
0.0
  9
$DIMTOL
 70
     0
  9
$DIMLIM
 70
     0
  9
$DIMTIH
 70
     1
  9
$DIMTOH
 70
     1
  9
$DIMSE1
 70
     0
  9
$DIMSE2
 70
     0
  9
$DIMTAD
 70
     0
  9
$DIMZIN
 70
     0
  9
$DIMBLK
  1

  9
$DIMASO
 70
     1
  9
$DIMSHO
 70
     1
  9
$DIMPOST
  1

  9
$DIMAPOST
  1

  9
$DIMALT
 70
     0
  9
$DIMALTD
 70
     2
  9
$DIMALTF
 40
25.4
  9
$DIMLFAC
 40
1.0
  9
$DIMTOFL
 70
     0
  9
$DIMTVP
 40
0.0
  9
$DIMTIX
 70
     0
  9
$DIMSOXD
 70
     0
  9
$DIMSAH
 70
     0
  9
$DIMBLK1
  1

  9
$DIMBLK2
  1

  9
$DIMSTYLE
  2
Standard
  9
$DIMCLRD
 70
     0
  9
$DIMCLRE
 70
     0
  9
$DIMCLRT
 70
     0
  9
$DIMTFAC
 40
1.0
  9
$DIMGAP
 40
0.09
  9
$DIMJUST
 70
     0
  9
$DIMSD1
 70
     0
  9
$DIMSD2
 70
     0
  9
$DIMTOLJ
 70
     1
  9
$DIMTZIN
 70
     0
  9
$DIMALTZ
 70
     0
  9
$DIMALTTZ
 70
     0
  9
$DIMUPT
 70
     0
  9
$DIMDEC
 70
     4
  9
$DIMTDEC
 70
     4
  9
$DIMALTU
 70
     2
  9
$DIMALTTD
 70
     2
  9
$DIMTXSTY
  7
Standard
  9
$DIMAUNIT
 70
     0
  9
$DIMADEC
 70
     0
  9
$DIMALTRND
 40
0.0
  9
$DIMAZIN
 70
     0
  9
$DIMDSEP
 70
    46
  9
$DIMATFIT
 70
     3
  9
$DIMFRAC
 70
     0
  9
$DIMLDRBLK
  1

  9
$DIMLUNIT
 70
     2
  9
$DIMLWD
 70
    -2
  9
$DIMLWE
 70
    -2
  9
$DIMTMOVE
 70
     0
  9
$DIMFXL
 40
1.0
  9
$DIMFXLON
 70
     0
  9
$DIMJOGANG
 40
0.7853981633974483
  9
$DIMTFILL
 70
     0
  9
$DIMTFILLCLR
 70
     0
  9
$DIMARCSYM
 70
     0
  9
$DIMLTYPE
  6

  9
$DIMLTEX1
  6

  9
$DIMLTEX2
  6

  9
$DIMTXTDIRECTION
 70
     0
  9
$LUNITS
 70
     2
  9
$LUPREC
 70
     4
  9
$SKETCHINC
 40
0.1
  9
$FILLETRAD
 40
0.5
  9
$AUNITS
 70
     0
  9
$AUPREC
 70
     0
  9
$MENU
  1
.
  9
$ELEVATION
 40
0.0
  9
$PELEVATION
 40
0.0
  9
$THICKNESS
 40
0.0
  9
$LIMCHECK
 70
     0
  9
$CHAMFERA
 40
0.5
  9
$CHAMFERB
 40
0.5
  9
$CHAMFERC
 40
1.0
  9
$CHAMFERD
 40
0.0
  9
$SKPOLY
 70
     0
  9
$TDCREATE
 40
2457917.628206007
  9
$TDUCREATE
 40
2457917.253206018
  9
$TDUPDATE
 40
2457917.628206007
  9
$TDUUPDATE
 40
2457917.253206018
  9
$TDINDWG
 40
0.0000000116
  9
$TDUSRTIMER
 40
0.0000000116
  9
$USRTIMER
 70
     1
  9
$ANGBASE
 50
0.0
  9
$ANGDIR
 70
     0
  9
$PDMODE
 70
     0
  9
$PDSIZE
 40
0.0
  9
$PLINEWID
 40
0.0
  9
$SPLFRAME
 70
     0
  9
$SPLINETYPE
 70
     6
  9
$SPLINESEGS
 70
     8
  9
$HANDSEED
  5
D0
  9
$SURFTAB1
 70
     6
  9
$SURFTAB2
 70
     6
  9
$SURFTYPE
 70
     6
  9
$SURFU
 70
     6
  9
$SURFV
 70
     6
  9
$UCSBASE
  2

  9
$UCSNAME
  2

  9
$UCSORG
 10
0.0
 20
0.0
 30
0.0
  9
$UCSXDIR
 10
1.0
 20
0.0
 30
0.0
  9
$UCSYDIR
 10
0.0
 20
1.0
 30
0.0
  9
$UCSORTHOREF
  2

  9
$UCSORTHOVIEW
 70
     0
  9
$UCSORGTOP
 10
0.0
 20
0.0
 30
0.0
  9
$UCSORGBOTTOM
 10
0.0
 20
0.0
 30
0.0
  9
$UCSORGLEFT
 10
0.0
 20
0.0
 30
0.0
  9
$UCSORGRIGHT
 10
0.0
 20
0.0
 30
0.0
  9
$UCSORGFRONT
 10
0.0
 20
0.0
 30
0.0
  9
$UCSORGBACK
 10
0.0
 20
0.0
 30
0.0
  9
$PUCSBASE
  2

  9
$PUCSNAME
  2

  9
$PUCSORG
 10
0.0
 20
0.0
 30
0.0
  9
$PUCSXDIR
 10
1.0
 20
0.0
 30
0.0
  9
$PUCSYDIR
 10
0.0
 20
1.0
 30
0.0
  9
$PUCSORTHOREF
  2

  9
$PUCSORTHOVIEW
 70
     0
  9
$PUCSORGTOP
 10
0.0
 20
0.0
 30
0.0
  9
$PUCSORGBOTTOM
 10
0.0
 20
0.0
 30
0.0
  9
$PUCSORGLEFT
 10
0.0
 20
0.0
 30
0.0
  9
$PUCSORGRIGHT
 10
0.0
 20
0.0
 30
0.0
  9
$PUCSORGFRONT
 10
0.0
 20
0.0
 30
0.0
  9
$PUCSORGBACK
 10
0.0
 20
0.0
 30
0.0
  9
$USERI1
 70
     0
  9
$USERI2
 70
     0
  9
$USERI3
 70
     0
  9
$USERI4
 70
     0
  9
$USERI5
 70
     0
  9
$USERR1
 40
0.0
  9
$USERR2
 40
0.0
  9
$USERR3
 40
0.0
  9
$USERR4
 40
0.0
  9
$USERR5
 40
0.0
  9
$WORLDVIEW
 70
     1
  9
$SHADEDGE
 70
     3
  9
$SHADEDIF
 70
    70
  9
$TILEMODE
 70
     1
  9
$MAXACTVP
 70
    64
  9
$PINSBASE
 10
0.0
 20
0.0
 30
0.0
  9
$PLIMCHECK
 70
     0
  9
$PEXTMIN
 10
1.000000000000000E+20
 20
1.000000000000000E+20
 30
1.000000000000000E+20
  9
$PEXTMAX
 10
-1.000000000000000E+20
 20
-1.000000000000000E+20
 30
-1.000000000000000E+20
  9
$PLIMMIN
 10
0.0
 20
0.0
  9
$PLIMMAX
 10
12.0
 20
9.0
  9
$UNITMODE
 70
     0
  9
$VISRETAIN
 70
     1
  9
$PLINEGEN
 70
     0
  9
$PSLTSCALE
 70
     1
  9
$TREEDEPTH
 70
  3020
  9
$CMLSTYLE
  2
Standard
  9
$CMLJUST
 70
     0
  9
$CMLSCALE
 40
1.0
  9
$PROXYGRAPHICS
 70
     1
  9
$MEASUREMENT
 70
     0
  9
$CELWEIGHT
370
    -1
  9
$ENDCAPS
280
     0
  9
$JOINSTYLE
280
     0
  9
$LWDISPLAY
290
     1
  9
$INSUNITS
 70
     1
  9
$HYPERLINKBASE
  1

  9
$STYLESHEET
  1

  9
$XEDIT
290
     1
  9
$CEPSNTYPE
380
     0
  9
$PSTYLEMODE
290
     1
  9
$FINGERPRINTGUID
  2
{F2DAA305-CB1F-803B-A055-6D7673814188}
  9
$VERSIONGUID
  2
{FAEB1C32-E019-11D5-929B-00C0DF256EC4}
  9
$EXTNAMES
290
     1
  9
$PSVPSCALE
 40
0.0
  9
$OLESTARTUP
290
     0
  9
$SORTENTS
280
   127
  9
$INDEXCTL
280
     0
  9
$HIDETEXT
280
     1
  9
$XCLIPFRAME
280
     2
  9
$HALOGAP
280
     0
  9
$OBSCOLOR
 70
   257
  9
$OBSLTYPE
280
     0
  9
$INTERSECTIONDISPLAY
280
     0
  9
$INTERSECTIONCOLOR
 70
   257
  9
$DIMASSOC
280
     2
  9
$PROJECTNAME
  1

  9
$CAMERADISPLAY
290
     0
  9
$LENSLENGTH
 40
50.0
  9
$CAMERAHEIGHT
 40
0.0
  9
$STEPSPERSEC
 40
2.0
  9
$STEPSIZE
 40
6.0
  9
$3DDWFPREC
 40
2.0
  9
$PSOLWIDTH
 40
0.25
  9
$PSOLHEIGHT
 40
4.0
  9
$LOFTANG1
 40
1.570796326794897
  9
$LOFTANG2
 40
1.570796326794897
  9
$LOFTMAG1
 40
0.0
  9
$LOFTMAG2
 40
0.0
  9
$LOFTPARAM
 70
     7
  9
$LOFTNORMALS
280
     1
  9
$LATITUDE
 40
37.795
  9
$LONGITUDE
 40
-122.394
  9
$NORTHDIRECTION
 40
0.0
  9
$TIMEZONE
 70
 -8000
  9
$LIGHTGLYPHDISPLAY
280
     1
  9
$TILEMODELIGHTSYNCH
280
     1
  9
$CMATERIAL
347
3C
  9
$SOLIDHIST
280
     1
  9
$SHOWHIST
280
     1
  9
$DWFFRAME
280
     2
  9
$DGNFRAME
280
     2
  9
$REALWORLDSCALE
290
     1
  9
$INTERFERECOLOR
 62
   256
  9
$CSHADOW
280
     0
  9
$SHADOWPLANELOCATION
 40
0.0
  0
ENDSEC
  0
SECTION
  2
CLASSES
  0
CLASS
  1
ACDBDICTIONARYWDFLT
  2
AcDbDictionaryWithDefault
  3
ObjectDBX Classes
 90
        0
 91
        4
280
     0
281
     0
  0
CLASS
  1
VISUALSTYLE
  2
AcDbVisualStyle
  3
ObjectDBX Classes
 90
     4095
 91
        4
280
     0
281
     0
  0
CLASS
  1
MATERIAL
  2
AcDbMaterial
  3
ObjectDBX Classes
 90
     1153
 91
        4
280
     0
281
     0
  0
CLASS
  1
SUN
  2
AcDbSun
  3
SCENEOE
 90
     1024
 91
        4
280
     0
281
     0
  0
ENDSEC
  0
SECTION
  2
TABLES
  0
TABLE
  2
VPORT
  5
8
330
0
100
AcDbSymbolTable
 70
     1
  0
VPORT
  5
29
330
8
100
AcDbSymbolTableRecord
100
AcDbViewportTableRecord
  2
*Active
 70
     0
 10
0.0
 20
0.0
 11
1.0
 21
1.0
 12
0.0
 22
0.0
 13
0.0
 23
0.0
 14
0.5
 24
0.5
 15
0.5
 25
0.5
 16
0.0
 26
0.0
 36
1.0
 17
91.00082462281999
 27
-128.4993055234307
 37
0.0
 40
256.9986110468615
 41
0.7081814508812795
 42
50.0
 43
0.0
 44
0.0
 50
0.0
 51
0.0
 71
     0
 72
   100
 73
     1
 74
     3
 75
     0
 76
     0
 77
     0
 78
     0
281
     0
 65
     1
110
0.0
120
0.0
130
0.0
111
1.0
121
0.0
131
0.0
112
0.0
122
1.0
132
0.0
 79
     0
146
0.0
 60
     3
 61
     5
292
     1
282
     1
141
0.0
142
0.0
 63
   250
361
3F
  0
ENDTAB
  0
TABLE
  2
LTYPE
  5
5
330
0
100
AcDbSymbolTable
 70
     1
  0
LTYPE
  5
14
330
5
100
AcDbSymbolTableRecord
100
AcDbLinetypeTableRecord
  2
ByBlock
 70
     0
  3

 72
    65
 73
     0
 40
0.0
  0
LTYPE
  5
15
330
5
100
AcDbSymbolTableRecord
100
AcDbLinetypeTableRecord
  2
ByLayer
 70
     0
  3

 72
    65
 73
     0
 40
0.0
  0
LTYPE
  5
16
330
5
100
AcDbSymbolTableRecord
100
AcDbLinetypeTableRecord
  2
Continuous
 70
     0
  3
Solid line
 72
    65
 73
     0
 40
0.0
  0
ENDTAB
  0
TABLE
  2
LAYER
  5
2
330
0
100
AcDbSymbolTable
 70
     2
  0
LAYER
  5
10
330
2
100
AcDbSymbolTableRecord
100
AcDbLayerTableRecord
  2
0
 70
     0
 62
     7
  6
Continuous
370
    -3
390
F
347
3E
  0
LAYER
  5
40
330
2
100
AcDbSymbolTableRecord
100
AcDbLayerTableRecord
  2
_U+30EC_U+30A4_U+30E4_U+30FC 1
 70
     0
 62
     7
  6
Continuous
370
    -3
390
F
347
3E
  0
ENDTAB
  0
TABLE
  2
STYLE
  5
3
330
0
100
AcDbSymbolTable
 70
     1
  0
STYLE
  5
11
330
3
100
AcDbSymbolTableRecord
100
AcDbTextStyleTableRecord
  2
Standard
 70
     0
 40
0.0
 41
1.0
 50
0.0
 71
     0
 42
0.2
  3
txt
  4

  0
ENDTAB
  0
TABLE
  2
VIEW
  5
6
330
0
100
AcDbSymbolTable
 70
     0
  0
ENDTAB
  0
TABLE
  2
UCS
  5
7
330
0
100
AcDbSymbolTable
 70
     0
  0
ENDTAB
  0
TABLE
  2
APPID
  5
9
330
0
100
AcDbSymbolTable
 70
     1
  0
APPID
  5
12
330
9
100
AcDbSymbolTableRecord
100
AcDbRegAppTableRecord
  2
ACAD
 70
     0
  0
ENDTAB
  0
TABLE
  2
DIMSTYLE
  5
A
330
0
100
AcDbSymbolTable
 70
     1
100
AcDbDimStyleTable
  0
DIMSTYLE
105
27
330
A
100
AcDbSymbolTableRecord
100
AcDbDimStyleTableRecord
  2
Standard
 70
     0
178
     0
340
11
  0
ENDTAB
  0
TABLE
  2
BLOCK_RECORD
  5
1
330
0
100
AcDbSymbolTable
 70
     5
  0
BLOCK_RECORD
  5
1F
330
1
100
AcDbSymbolTableRecord
100
AcDbBlockTableRecord
  2
*Model_Space
340
22
 70
     0
280
     1
281
     0
  0
BLOCK_RECORD
  5
1B
330
1
100
AcDbSymbolTableRecord
100
AcDbBlockTableRecord
  2
*Paper_Space
340
1E
 70
     0
280
     1
281
     0
  0
BLOCK_RECORD
  5
23
330
1
100
AcDbSymbolTableRecord
100
AcDbBlockTableRecord
  2
*Paper_Space0
340
26
 70
     0
280
     1
281
     0
  0
BLOCK_RECORD
  5
5B
330
1
100
AcDbSymbolTableRecord
100
AcDbBlockTableRecord
  2
block 2
340
0
102
{BLKREFS
331
5C
102
}
 70
     0
280
     1
281
     0
  0
BLOCK_RECORD
  5
7A
330
1
100
AcDbSymbolTableRecord
100
AcDbBlockTableRecord
  2
block 3
340
0
102
{BLKREFS
331
7B
102
}
 70
     0
280
     1
281
     0
  0
BLOCK_RECORD
  5
8E
330
1
100
AcDbSymbolTableRecord
100
AcDbBlockTableRecord
  2
block 4
340
0
102
{BLKREFS
331
8F
102
}
 70
     0
280
     1
281
     0
  0
BLOCK_RECORD
  5
AA
330
1
100
AcDbSymbolTableRecord
100
AcDbBlockTableRecord
  2
block 5
340
0
102
{BLKREFS
331
AB
102
}
 70
     0
280
     1
281
     0
  0
ENDTAB
  0
ENDSEC
  0
SECTION
  2
BLOCKS
  0
BLOCK
  5
20
330
1F
100
AcDbEntity
  8
0
100
AcDbBlockBegin
  2
*Model_Space
 70
     0
 10
0.0
 20
0.0
 30
0.0
  3
*Model_Space
  1

  0
ENDBLK
  5
21
330
1F
100
AcDbEntity
  8
0
100
AcDbBlockEnd
  0
BLOCK
  5
1C
330
1B
100
AcDbEntity
 67
     1
  8
0
100
AcDbBlockBegin
  2
*Paper_Space
 70
     0
 10
0.0
 20
0.0
 30
0.0
  3
*Paper_Space
  1

  0
ENDBLK
  5
1D
330
1B
100
AcDbEntity
 67
     1
  8
0
100
AcDbBlockEnd
  0
BLOCK
  5
24
330
23
100
AcDbEntity
  8
0
100
AcDbBlockBegin
  2
*Paper_Space0
 70
     0
 10
0.0
 20
0.0
 30
0.0
  3
*Paper_Space0
  1

  0
ENDBLK
  5
25
330
23
100
AcDbEntity
  8
0
100
AcDbBlockEnd
  0
BLOCK
  5
5D
330
5B
100
AcDbEntity
  8
0
100
AcDbBlockBegin
  2
block 2
 70
     0
 10
0.0
 20
0.0
 30
0.0
  3
block 2
  1

  0
SPLINE
  5
5F
330
5B
100
AcDbEntity
  8
_U+30EC_U+30A4_U+30E4_U+30FC 1
370
     0
100
AcDbSpline
210
0.0
220
0.0
230
1.0
 70
    11
 71
     3
 72
    44
 73
    40
 74
     0
 42
0.0000000001
 43
0.0000000001
 12
1.0
 22
0.0
 32
0.0
 13
1.0
 23
0.0
 33
0.0
 40
0.0
 40
0.0
 40
0.0
 40
0.0
 40
1.0
 40
1.0
 40
1.0
 40
2.0
 40
2.0
 40
2.0
 40
3.0
 40
3.0
 40
3.0
 40
4.0
 40
4.0
 40
4.0
 40
5.0
 40
5.0
 40
5.0
 40
6.0
 40
6.0
 40
6.0
 40
7.0
 40
7.0
 40
7.0
 40
8.0
 40
8.0
 40
8.0
 40
9.0
 40
9.0
 40
9.0
 40
10.0
 40
10.0
 40
10.0
 40
11.0
 40
11.0
 40
11.0
 40
12.0
 40
12.0
 40
12.0
 40
13.0
 40
13.0
 40
13.0
 40
13.0
 10
92.02780216883333
 20
-107.4980034453477
 30
0.0
 10
92.00437551953364
 20
-107.453561713588
 30
0.0
 10
91.98336043707361
 20
-107.4008517526637
 30
0.0
 10
91.98094887023393
 20
-107.1700303551519
 30
0.0
 10
91.97681475565163
 20
-106.9268066138933
 30
0.0
 10
91.91755911330533
 20
-106.8568711755427
 30
0.0
 10
91.73979218626644
 20
-106.8568711755427
 30
0.0
 10
91.73979218626644
 20
-106.8568711755427
 30
0.0
 10
91.33154837126433
 20
-106.8568711755427
 30
0.0
 10
91.33154837126433
 20
-106.8568711755427
 30
0.0
 10
91.33154837126433
 20
-106.8568711755427
 30
0.0
 10
91.33154837126433
 20
-107.4980034453477
 30
0.0
 10
91.33154837126433
 20
-107.4980034453477
 30
0.0
 10
91.33154837126433
 20
-107.4980034453477
 30
0.0
 10
91.09676511394456
 20
-107.4980034453477
 30
0.0
 10
91.09676511394456
 20
-107.4980034453477
 30
0.0
 10
91.09676511394456
 20
-107.4980034453477
 30
0.0
 10
91.09676511394456
 20
-105.9535671393102
 30
0.0
 10
91.09676511394456
 20
-105.9535671393102
 30
0.0
 10
91.09676511394456
 20
-105.9535671393102
 30
0.0
 10
91.77148706473075
 20
-105.9535671393102
 30
0.0
 10
91.77148706473075
 20
-105.9535671393102
 30
0.0
 10
92.07844507246651
 20
-105.9535671393102
 30
0.0
 10
92.24553220350113
 20
-106.1251328944757
 30
0.0
 10
92.24553220350113
 20
-106.3811034890297
 30
0.0
 10
92.24553220350113
 20
-106.4317463926629
 30
0.0
 10
92.236919464788
 20
-106.5144286843089
 30
0.0
 10
92.19247773302827
 20
-106.5946994091152
 30
0.0
 10
92.1335666002305
 20
-106.6983967832212
 30
0.0
 10
92.06776527646223
 20
-106.7173448083901
 30
0.0
 10
92.00644257682478
 20
-106.7342257762678
 30
0.0
 10
92.14390188668625
 20
-106.7766004507364
 30
0.0
 10
92.21177026774568
 20
-106.8251762970784
 30
0.0
 10
92.21590438232798
 20
-107.1404025339788
 30
0.0
 10
92.22003849691028
 20
-107.4111870391194
 30
0.0
 10
92.2562119995054
 20
-107.4428819175837
 30
0.0
 10
92.3237358710163
 20
-107.4980034453477
 30
0.0
 10
92.3237358710163
 20
-107.4980034453477
 30
0.0
 10
92.02780216883333
 20
-107.4980034453477
 30
0.0
 10
92.02780216883333
 20
-107.4980034453477
 30
0.0
  0
SPLINE
  5
60
330
5B
100
AcDbEntity
  8
_U+30EC_U+30A4_U+30E4_U+30FC 1
370
     0
100
AcDbSpline
210
0.0
220
0.0
230
1.0
 70
    11
 71
     3
 72
    20
 73
    16
 74
     0
 42
0.0000000001
 43
0.0000000001
 12
1.0
 22
0.0
 32
0.0
 13
1.0
 23
0.0
 33
0.0
 40
0.0
 40
0.0
 40
0.0
 40
0.0
 40
1.0
 40
1.0
 40
1.0
 40
2.0
 40
2.0
 40
2.0
 40
3.0
 40
3.0
 40
3.0
 40
4.0
 40
4.0
 40
4.0
 40
5.0
 40
5.0
 40
5.0
 40
5.0
 10
91.77596568886158
 20
-106.1650960021046
 30
0.0
 10
91.77596568886158
 20
-106.1650960021046
 30
0.0
 10
91.33154837126433
 20
-106.1650960021046
 30
0.0
 10
91.33154837126433
 20
-106.1650960021046
 30
0.0
 10
91.33154837126433
 20
-106.1650960021046
 30
0.0
 10
91.33154837126433
 20
-106.6453423127484
 30
0.0
 10
91.33154837126433
 20
-106.6453423127484
 30
0.0
 10
91.33154837126433
 20
-106.6453423127484
 30
0.0
 10
91.77389863157042
 20
-106.6453423127484
 30
0.0
 10
91.77389863157042
 20
-106.6453423127484
 30
0.0
 10
91.87311738154561
 20
-106.6453423127484
 30
0.0
 10
92.00850963411594
 20
-106.5692057025244
 30
0.0
 10
92.00850963411594
 20
-106.3979844569075
 30
0.0
 10
92.00850963411594
 20
-106.3197807893923
 30
0.0
 10
91.97474769836049
 20
-106.1650960021046
 30
0.0
 10
91.77596568886158
 20
-106.1650960021046
 30
0.0
  0
HATCH
  5
61
330
5B
100
AcDbEntity
  8
_U+30EC_U+30A4_U+30E4_U+30FC 1
 62
   179
420
  2234388
100
AcDbHatch
 10
0.0
 20
0.0
 30
0.0
210
0.0
220
0.0
230
1.0
  2
SOLID
 70
     1
 71
     0
 91
        2
 92
        1
 93
        1
 72
     4
 94
        3
 73
     0
 74
     1
 95
       44
 96
       40
 40
0.0
 40
0.0
 40
0.0
 40
0.0
 40
1.0
 40
1.0
 40
1.0
 40
2.0
 40
2.0
 40
2.0
 40
3.0
 40
3.0
 40
3.0
 40
4.0
 40
4.0
 40
4.0
 40
5.0
 40
5.0
 40
5.0
 40
6.0
 40
6.0
 40
6.0
 40
7.0
 40
7.0
 40
7.0
 40
8.0
 40
8.0
 40
8.0
 40
9.0
 40
9.0
 40
9.0
 40
10.0
 40
10.0
 40
10.0
 40
11.0
 40
11.0
 40
11.0
 40
12.0
 40
12.0
 40
12.0
 40
13.0
 40
13.0
 40
13.0
 40
13.0
 10
92.02780216883333
 20
-107.4980034453477
 10
92.00437551953364
 20
-107.453561713588
 10
91.98336043707361
 20
-107.4008517526637
 10
91.98094887023393
 20
-107.1700303551519
 10
91.97681475565163
 20
-106.9268066138933
 10
91.91755911330533
 20
-106.8568711755427
 10
91.73979218626644
 20
-106.8568711755427
 10
91.73979218626644
 20
-106.8568711755427
 10
91.33154837126433
 20
-106.8568711755427
 10
91.33154837126433
 20
-106.8568711755427
 10
91.33154837126433
 20
-106.8568711755427
 10
91.33154837126433
 20
-107.4980034453477
 10
91.33154837126433
 20
-107.4980034453477
 10
91.33154837126433
 20
-107.4980034453477
 10
91.09676511394456
 20
-107.4980034453477
 10
91.09676511394456
 20
-107.4980034453477
 10
91.09676511394456
 20
-107.4980034453477
 10
91.09676511394456
 20
-105.9535671393102
 10
91.09676511394456
 20
-105.9535671393102
 10
91.09676511394456
 20
-105.9535671393102
 10
91.77148706473075
 20
-105.9535671393102
 10
91.77148706473075
 20
-105.9535671393102
 10
92.07844507246651
 20
-105.9535671393102
 10
92.24553220350113
 20
-106.1251328944757
 10
92.24553220350113
 20
-106.3811034890297
 10
92.24553220350113
 20
-106.4317463926629
 10
92.236919464788
 20
-106.5144286843089
 10
92.19247773302827
 20
-106.5946994091152
 10
92.1335666002305
 20
-106.6983967832212
 10
92.06776527646223
 20
-106.7173448083901
 10
92.00644257682478
 20
-106.7342257762678
 10
92.14390188668625
 20
-106.7766004507364
 10
92.21177026774568
 20
-106.8251762970784
 10
92.21590438232798
 20
-107.1404025339788
 10
92.22003849691028
 20
-107.4111870391194
 10
92.2562119995054
 20
-107.4428819175837
 10
92.3237358710163
 20
-107.4980034453477
 10
92.3237358710163
 20
-107.4980034453477
 10
92.02780216883333
 20
-107.4980034453477
 10
92.02780216883333
 20
-107.4980034453477
 97
        0
 97
        0
 92
        1
 93
        1
 72
     4
 94
        3
 73
     0
 74
     1
 95
       20
 96
       16
 40
0.0
 40
0.0
 40
0.0
 40
0.0
 40
1.0
 40
1.0
 40
1.0
 40
2.0
 40
2.0
 40
2.0
 40
3.0
 40
3.0
 40
3.0
 40
4.0
 40
4.0
 40
4.0
 40
5.0
 40
5.0
 40
5.0
 40
5.0
 10
91.77596568886158
 20
-106.1650960021046
 10
91.77596568886158
 20
-106.1650960021046
 10
91.33154837126433
 20
-106.1650960021046
 10
91.33154837126433
 20
-106.1650960021046
 10
91.33154837126433
 20
-106.1650960021046
 10
91.33154837126433
 20
-106.6453423127484
 10
91.33154837126433
 20
-106.6453423127484
 10
91.33154837126433
 20
-106.6453423127484
 10
91.77389863157042
 20
-106.6453423127484
 10
91.77389863157042
 20
-106.6453423127484
 10
91.87311738154561
 20
-106.6453423127484
 10
92.00850963411594
 20
-106.5692057025244
 10
92.00850963411594
 20
-106.3979844569075
 10
92.00850963411594
 20
-106.3197807893923
 10
91.97474769836049
 20
-106.1650960021046
 10
91.77596568886158
 20
-106.1650960021046
 97
        0
 97
        0
 75
     2
 76
     1
 98
        0
  0
SPLINE
  5
62
330
5B
100
AcDbEntity
  8
_U+30EC_U+30A4_U+30E4_U+30FC 1
370
     0
100
AcDbSpline
210
0.0
220
0.0
230
1.0
 70
    11
 71
     3
 72
    26
 73
    22
 74
     0
 42
0.0000000001
 43
0.0000000001
 12
1.0
 22
0.0
 32
0.0
 13
1.0
 23
0.0
 33
0.0
 40
0.0
 40
0.0
 40
0.0
 40
0.0
 40
1.0
 40
1.0
 40
1.0
 40
2.0
 40
2.0
 40
2.0
 40
3.0
 40
3.0
 40
3.0
 40
4.0
 40
4.0
 40
4.0
 40
5.0
 40
5.0
 40
5.0
 40
6.0
 40
6.0
 40
6.0
 40
7.0
 40
7.0
 40
7.0
 40
7.0
 10
92.91491425628516
 20
-107.4980034453477
 30
0.0
 10
92.91491425628516
 20
-107.4980034453477
 30
0.0
 10
92.91491425628516
 20
-106.3938503423252
 30
0.0
 10
92.91491425628516
 20
-106.3938503423252
 30
0.0
 10
92.91491425628516
 20
-106.3938503423252
 30
0.0
 10
92.58487410879823
 20
-106.3938503423252
 30
0.0
 10
92.58487410879823
 20
-106.3938503423252
 30
0.0
 10
92.58487410879823
 20
-106.3938503423252
 30
0.0
 10
92.58487410879823
 20
-106.2457112364594
 30
0.0
 10
92.58487410879823
 20
-106.2457112364594
 30
0.0
 10
92.91698131357631
 20
-106.2308973258728
 30
0.0
 10
92.96349010262719
 20
-106.0679443094205
 30
0.0
 10
92.99311792380034
 20
-105.9535671393102
 30
0.0
 10
92.99311792380034
 20
-105.9535671393102
 30
0.0
 10
93.13918997237492
 20
-105.9535671393102
 30
0.0
 10
93.13918997237492
 20
-105.9535671393102
 30
0.0
 10
93.13918997237492
 20
-105.9535671393102
 30
0.0
 10
93.13918997237492
 20
-107.4980034453477
 30
0.0
 10
93.13918997237492
 20
-107.4980034453477
 30
0.0
 10
93.13918997237492
 20
-107.4980034453477
 30
0.0
 10
92.91491425628516
 20
-107.4980034453477
 30
0.0
 10
92.91491425628516
 20
-107.4980034453477
 30
0.0
  0
HATCH
  5
63
330
5B
100
AcDbEntity
  8
_U+30EC_U+30A4_U+30E4_U+30FC 1
 62
   179
420
  2234388
100
AcDbHatch
 10
0.0
 20
0.0
 30
0.0
210
0.0
220
0.0
230
1.0
  2
SOLID
 70
     1
 71
     0
 91
        1
 92
        1
 93
        1
 72
     4
 94
        3
 73
     0
 74
     1
 95
       26
 96
       22
 40
0.0
 40
0.0
 40
0.0
 40
0.0
 40
1.0
 40
1.0
 40
1.0
 40
2.0
 40
2.0
 40
2.0
 40
3.0
 40
3.0
 40
3.0
 40
4.0
 40
4.0
 40
4.0
 40
5.0
 40
5.0
 40
5.0
 40
6.0
 40
6.0
 40
6.0
 40
7.0
 40
7.0
 40
7.0
 40
7.0
 10
92.91491425628516
 20
-107.4980034453477
 10
92.91491425628516
 20
-107.4980034453477
 10
92.91491425628516
 20
-106.3938503423252
 10
92.91491425628516
 20
-106.3938503423252
 10
92.91491425628516
 20
-106.3938503423252
 10
92.58487410879823
 20
-106.3938503423252
 10
92.58487410879823
 20
-106.3938503423252
 10
92.58487410879823
 20
-106.3938503423252
 10
92.58487410879823
 20
-106.2457112364594
 10
92.58487410879823
 20
-106.2457112364594
 10
92.91698131357631
 20
-106.2308973258728
 10
92.96349010262719
 20
-106.0679443094205
 10
92.99311792380034
 20
-105.9535671393102
 10
92.99311792380034
 20
-105.9535671393102
 10
93.13918997237492
 20
-105.9535671393102
 10
93.13918997237492
 20
-105.9535671393102
 10
93.13918997237492
 20
-105.9535671393102
 10
93.13918997237492
 20
-107.4980034453477
 10
93.13918997237492
 20
-107.4980034453477
 10
93.13918997237492
 20
-107.4980034453477
 10
92.91491425628516
 20
-107.4980034453477
 10
92.91491425628516
 20
-107.4980034453477
 97
        0
 97
        0
 75
     2
 76
     1
 98
        0
  0
POLYLINE
  5
64
330
5B
100
AcDbEntity
  8
_U+30EC_U+30A4_U+30E4_U+30FC 1
370
     0
100
AcDb2dPolyline
 66
     1
 10
0.0
 20
0.0
 30
0.0
  0
VERTEX
  5
65
330
64
100
AcDbEntity
  8
_U+30EC_U+30A4_U+30E4_U+30FC 1
370
     0
100
AcDbVertex
100
AcDb2dVertex
 10
93.70039602692212
 20
-107.4980034453477
 30
0.0
  0
VERTEX
  5
66
330
64
100
AcDbEntity
  8
_U+30EC_U+30A4_U+30E4_U+30FC 1
370
     0
100
AcDbVertex
100
AcDb2dVertex
 10
93.70039602692212
 20
-107.246166965376
 30
0.0
  0
VERTEX
  5
67
330
64
100
AcDbEntity
  8
_U+30EC_U+30A4_U+30E4_U+30FC 1
370
     0
100
AcDbVertex
100
AcDb2dVertex
 10
93.95223250689389
 20
-107.246166965376
 30
0.0
  0
VERTEX
  5
68
330
64
100
AcDbEntity
  8
_U+30EC_U+30A4_U+30E4_U+30FC 1
370
     0
100
AcDbVertex
100
AcDb2dVertex
 10
93.95223250689389
 20
-107.4980034453477
 30
0.0
  0
VERTEX
  5
69
330
64
100
AcDbEntity
  8
_U+30EC_U+30A4_U+30E4_U+30FC 1
370
     0
100
AcDbVertex
100
AcDb2dVertex
 10
93.70039602692212
 20
-107.4980034453477
 30
0.0
  0
SEQEND
  5
6A
330
64
100
AcDbEntity
  8
_U+30EC_U+30A4_U+30E4_U+30FC 1
370
     0
  0
HATCH
  5
6B
330
5B
100
AcDbEntity
  8
_U+30EC_U+30A4_U+30E4_U+30FC 1
 62
   179
420
  2234388
100
AcDbHatch
 10
0.0
 20
0.0
 30
0.0
210
0.0
220
0.0
230
1.0
  2
SOLID
 70
     1
 71
     0
 91
        1
 92
        1
 93
        4
 72
     1
 10
93.70039602692212
 20
-107.4980034453477
 11
93.70039602692212
 21
-107.246166965376
 72
     1
 10
93.70039602692212
 20
-107.246166965376
 11
93.95223250689389
 21
-107.246166965376
 72
     1
 10
93.95223250689389
 20
-107.246166965376
 11
93.95223250689389
 21
-107.4980034453477
 72
     1
 10
93.95223250689389
 20
-107.4980034453477
 11
93.70039602692212
 21
-107.4980034453477
 97
        0
 75
     2
 76
     1
 98
        0
  0
SPLINE
  5
6C
330
5B
100
AcDbEntity
  8
_U+30EC_U+30A4_U+30E4_U+30FC 1
370
     0
100
AcDbSpline
210
0.0
220
0.0
230
1.0
 70
    11
 71
     3
 72
    53
 73
    49
 74
     0
 42
0.0000000001
 43
0.0000000001
 12
1.0
 22
0.0
 32
0.0
 13
1.0
 23
0.0
 33
0.0
 40
0.0
 40
0.0
 40
0.0
 40
0.0
 40
1.0
 40
1.0
 40
1.0
 40
2.0
 40
2.0
 40
2.0
 40
3.0
 40
3.0
 40
3.0
 40
4.0
 40
4.0
 40
4.0
 40
5.0
 40
5.0
 40
5.0
 40
6.0
 40
6.0
 40
6.0
 40
7.0
 40
7.0
 40
7.0
 40
8.0
 40
8.0
 40
8.0
 40
9.0
 40
9.0
 40
9.0
 40
10.0
 40
10.0
 40
10.0
 40
11.0
 40
11.0
 40
11.0
 40
12.0
 40
12.0
 40
12.0
 40
13.0
 40
13.0
 40
13.0
 40
14.0
 40
14.0
 40
14.0
 40
15.0
 40
15.0
 40
15.0
 40
16.0
 40
16.0
 40
16.0
 40
16.0
 10
94.6695013869229
 20
-107.5486463489809
 30
0.0
 10
94.59129771940773
 20
-107.5486463489809
 30
0.0
 10
94.48966740259287
 20
-107.5317653811032
 30
0.0
 10
94.388037085778
 20
-107.4683756241746
 30
0.0
 10
94.21474878286993
 20
-107.3584770781951
 30
0.0
 10
94.19338919086138
 20
-107.2272189402071
 30
0.0
 10
94.1744411656925
 20
-107.1193874515188
 30
0.0
 10
94.1744411656925
 20
-107.1193874515188
 30
0.0
 10
94.39664982449112
 20
-107.1193874515188
 30
0.0
 10
94.39664982449112
 20
-107.1193874515188
 30
0.0
 10
94.4514268427066
 20
-107.3181694610177
 30
0.0
 10
94.57855086611231
 20
-107.3477972821908
 30
0.0
 10
94.67156844421406
 20
-107.3477972821908
 30
0.0
 10
94.81109481136667
 20
-107.3477972821908
 30
0.0
 10
94.96336803181472
 20
-107.2482340226671
 30
0.0
 10
94.96336803181472
 20
-107.0156900774127
 30
0.0
 10
94.96336803181472
 20
-106.7597194828587
 30
0.0
 10
94.78353404748468
 20
-106.6897840445081
 30
0.0
 10
94.66295570550093
 20
-106.6897840445081
 30
0.0
 10
94.63126082703663
 20
-106.6897840445081
 30
0.0
 10
94.48966740259287
 20
-106.6897840445081
 30
0.0
 10
94.40078393907342
 20
-106.818975125205
 30
0.0
 10
94.40078393907342
 20
-106.818975125205
 30
0.0
 10
94.22508406932567
 20
-106.8000271000361
 30
0.0
 10
94.22508406932567
 20
-106.8000271000361
 30
0.0
 10
94.22508406932567
 20
-106.8000271000361
 30
0.0
 10
94.34566241130942
 20
-105.9535671393102
 30
0.0
 10
94.34566241130942
 20
-105.9535671393102
 30
0.0
 10
94.34566241130942
 20
-105.9535671393102
 30
0.0
 10
95.12425399097589
 20
-105.9535671393102
 30
0.0
 10
95.12425399097589
 20
-105.9535671393102
 30
0.0
 10
95.12425399097589
 20
-105.9535671393102
 30
0.0
 10
95.12425399097589
 20
-106.1482150342268
 30
0.0
 10
95.12425399097589
 20
-106.1482150342268
 30
0.0
 10
95.12425399097589
 20
-106.1482150342268
 30
0.0
 10
94.50861542776174
 20
-106.1482150342268
 30
0.0
 10
94.50861542776174
 20
-106.1482150342268
 30
0.0
 10
94.50861542776174
 20
-106.1482150342268
 30
0.0
 10
94.443158613542
 20
-106.5712727598155
 30
0.0
 10
94.443158613542
 20
-106.5712727598155
 30
0.0
 10
94.50448131317944
 20
-106.5375108240601
 30
0.0
 10
94.58681909527691
 20
-106.4972032068826
 30
0.0
 10
94.70533037996951
 20
-106.4972032068826
 30
0.0
 10
94.95923391723242
 20
-106.4972032068826
 30
0.0
 10
95.19625648661761
 20
-106.6835828726347
 30
0.0
 10
95.19625648661761
 20
-106.9967420522439
 30
0.0
 10
95.19625648661761
 20
-107.3140353464354
 30
0.0
 10
94.97198077052784
 20
-107.5486463489809
 30
0.0
 10
94.6695013869229
 20
-107.5486463489809
 30
0.0
  0
HATCH
  5
6D
330
5B
100
AcDbEntity
  8
_U+30EC_U+30A4_U+30E4_U+30FC 1
 62
   179
420
  2234388
100
AcDbHatch
 10
0.0
 20
0.0
 30
0.0
210
0.0
220
0.0
230
1.0
  2
SOLID
 70
     1
 71
     0
 91
        1
 92
        1
 93
        1
 72
     4
 94
        3
 73
     0
 74
     1
 95
       53
 96
       49
 40
0.0
 40
0.0
 40
0.0
 40
0.0
 40
1.0
 40
1.0
 40
1.0
 40
2.0
 40
2.0
 40
2.0
 40
3.0
 40
3.0
 40
3.0
 40
4.0
 40
4.0
 40
4.0
 40
5.0
 40
5.0
 40
5.0
 40
6.0
 40
6.0
 40
6.0
 40
7.0
 40
7.0
 40
7.0
 40
8.0
 40
8.0
 40
8.0
 40
9.0
 40
9.0
 40
9.0
 40
10.0
 40
10.0
 40
10.0
 40
11.0
 40
11.0
 40
11.0
 40
12.0
 40
12.0
 40
12.0
 40
13.0
 40
13.0
 40
13.0
 40
14.0
 40
14.0
 40
14.0
 40
15.0
 40
15.0
 40
15.0
 40
16.0
 40
16.0
 40
16.0
 40
16.0
 10
94.6695013869229
 20
-107.5486463489809
 10
94.59129771940773
 20
-107.5486463489809
 10
94.48966740259287
 20
-107.5317653811032
 10
94.388037085778
 20
-107.4683756241746
 10
94.21474878286993
 20
-107.3584770781951
 10
94.19338919086138
 20
-107.2272189402071
 10
94.1744411656925
 20
-107.1193874515188
 10
94.1744411656925
 20
-107.1193874515188
 10
94.39664982449112
 20
-107.1193874515188
 10
94.39664982449112
 20
-107.1193874515188
 10
94.4514268427066
 20
-107.3181694610177
 10
94.57855086611231
 20
-107.3477972821908
 10
94.67156844421406
 20
-107.3477972821908
 10
94.81109481136667
 20
-107.3477972821908
 10
94.96336803181472
 20
-107.2482340226671
 10
94.96336803181472
 20
-107.0156900774127
 10
94.96336803181472
 20
-106.7597194828587
 10
94.78353404748468
 20
-106.6897840445081
 10
94.66295570550093
 20
-106.6897840445081
 10
94.63126082703663
 20
-106.6897840445081
 10
94.48966740259287
 20
-106.6897840445081
 10
94.40078393907342
 20
-106.818975125205
 10
94.40078393907342
 20
-106.818975125205
 10
94.22508406932567
 20
-106.8000271000361
 10
94.22508406932567
 20
-106.8000271000361
 10
94.22508406932567
 20
-106.8000271000361
 10
94.34566241130942
 20
-105.9535671393102
 10
94.34566241130942
 20
-105.9535671393102
 10
94.34566241130942
 20
-105.9535671393102
 10
95.12425399097589
 20
-105.9535671393102
 10
95.12425399097589
 20
-105.9535671393102
 10
95.12425399097589
 20
-105.9535671393102
 10
95.12425399097589
 20
-106.1482150342268
 10
95.12425399097589
 20
-106.1482150342268
 10
95.12425399097589
 20
-106.1482150342268
 10
94.50861542776174
 20
-106.1482150342268
 10
94.50861542776174
 20
-106.1482150342268
 10
94.50861542776174
 20
-106.1482150342268
 10
94.443158613542
 20
-106.5712727598155
 10
94.443158613542
 20
-106.5712727598155
 10
94.50448131317944
 20
-106.5375108240601
 10
94.58681909527691
 20
-106.4972032068826
 10
94.70533037996951
 20
-106.4972032068826
 10
94.95923391723242
 20
-106.4972032068826
 10
95.19625648661761
 20
-106.6835828726347
 10
95.19625648661761
 20
-106.9967420522439
 10
95.19625648661761
 20
-107.3140353464354
 10
94.97198077052784
 20
-107.5486463489809
 10
94.6695013869229
 20
-107.5486463489809
 97
        0
 97
        0
 75
     2
 76
     1
 98
        0
  0
ENDBLK
  5
5E
330
5B
100
AcDbEntity
  8
0
100
AcDbBlockEnd
  0
BLOCK
  5
7C
330
7A
100
AcDbEntity
  8
0
100
AcDbBlockBegin
  2
block 3
 70
     0
 10
0.0
 20
0.0
 30
0.0
  3
block 3
  1

  0
SPLINE
  5
7E
330
7A
100
AcDbEntity
  8
_U+30EC_U+30A4_U+30E4_U+30FC 1
370
     0
100
AcDbSpline
210
0.0
220
0.0
230
1.0
 70
    11
 71
     3
 72
    44
 73
    40
 74
     0
 42
0.0000000001
 43
0.0000000001
 12
1.0
 22
0.0
 32
0.0
 13
1.0
 23
0.0
 33
0.0
 40
0.0
 40
0.0
 40
0.0
 40
0.0
 40
1.0
 40
1.0
 40
1.0
 40
2.0
 40
2.0
 40
2.0
 40
3.0
 40
3.0
 40
3.0
 40
4.0
 40
4.0
 40
4.0
 40
5.0
 40
5.0
 40
5.0
 40
6.0
 40
6.0
 40
6.0
 40
7.0
 40
7.0
 40
7.0
 40
8.0
 40
8.0
 40
8.0
 40
9.0
 40
9.0
 40
9.0
 40
10.0
 40
10.0
 40
10.0
 40
11.0
 40
11.0
 40
11.0
 40
12.0
 40
12.0
 40
12.0
 40
13.0
 40
13.0
 40
13.0
 40
13.0
 10
92.02780216883333
 20
-154.2410589892175
 30
0.0
 10
92.00437551953364
 20
-154.1966172574578
 30
0.0
 10
91.98336043707361
 20
-154.1439072965335
 30
0.0
 10
91.98094887023393
 20
-153.9130858990217
 30
0.0
 10
91.97681475565163
 20
-153.6698621577631
 30
0.0
 10
91.91755911330533
 20
-153.5999267194125
 30
0.0
 10
91.73979218626644
 20
-153.5999267194125
 30
0.0
 10
91.73979218626644
 20
-153.5999267194125
 30
0.0
 10
91.33154837126433
 20
-153.5999267194125
 30
0.0
 10
91.33154837126433
 20
-153.5999267194125
 30
0.0
 10
91.33154837126433
 20
-153.5999267194125
 30
0.0
 10
91.33154837126433
 20
-154.2410589892175
 30
0.0
 10
91.33154837126433
 20
-154.2410589892175
 30
0.0
 10
91.33154837126433
 20
-154.2410589892175
 30
0.0
 10
91.09676511394456
 20
-154.2410589892175
 30
0.0
 10
91.09676511394456
 20
-154.2410589892175
 30
0.0
 10
91.09676511394456
 20
-154.2410589892175
 30
0.0
 10
91.09676511394456
 20
-152.69662268318
 30
0.0
 10
91.09676511394456
 20
-152.69662268318
 30
0.0
 10
91.09676511394456
 20
-152.69662268318
 30
0.0
 10
91.77148706473075
 20
-152.69662268318
 30
0.0
 10
91.77148706473075
 20
-152.69662268318
 30
0.0
 10
92.07844507246651
 20
-152.69662268318
 30
0.0
 10
92.24553220350113
 20
-152.8681884383455
 30
0.0
 10
92.24553220350113
 20
-153.1241590328995
 30
0.0
 10
92.24553220350113
 20
-153.1748019365327
 30
0.0
 10
92.236919464788
 20
-153.2574842281787
 30
0.0
 10
92.19247773302827
 20
-153.337754952985
 30
0.0
 10
92.1335666002305
 20
-153.441452327091
 30
0.0
 10
92.06776527646223
 20
-153.4604003522599
 30
0.0
 10
92.00644257682478
 20
-153.4772813201376
 30
0.0
 10
92.14390188668625
 20
-153.5196559946062
 30
0.0
 10
92.21177026774568
 20
-153.5682318409482
 30
0.0
 10
92.21590438232798
 20
-153.8834580778486
 30
0.0
 10
92.22003849691028
 20
-154.1542425829892
 30
0.0
 10
92.2562119995054
 20
-154.1859374614535
 30
0.0
 10
92.3237358710163
 20
-154.2410589892175
 30
0.0
 10
92.3237358710163
 20
-154.2410589892175
 30
0.0
 10
92.02780216883333
 20
-154.2410589892175
 30
0.0
 10
92.02780216883333
 20
-154.2410589892175
 30
0.0
  0
SPLINE
  5
7F
330
7A
100
AcDbEntity
  8
_U+30EC_U+30A4_U+30E4_U+30FC 1
370
     0
100
AcDbSpline
210
0.0
220
0.0
230
1.0
 70
    11
 71
     3
 72
    20
 73
    16
 74
     0
 42
0.0000000001
 43
0.0000000001
 12
1.0
 22
0.0
 32
0.0
 13
1.0
 23
0.0
 33
0.0
 40
0.0
 40
0.0
 40
0.0
 40
0.0
 40
1.0
 40
1.0
 40
1.0
 40
2.0
 40
2.0
 40
2.0
 40
3.0
 40
3.0
 40
3.0
 40
4.0
 40
4.0
 40
4.0
 40
5.0
 40
5.0
 40
5.0
 40
5.0
 10
91.77596568886158
 20
-152.9081515459744
 30
0.0
 10
91.77596568886158
 20
-152.9081515459744
 30
0.0
 10
91.33154837126433
 20
-152.9081515459744
 30
0.0
 10
91.33154837126433
 20
-152.9081515459744
 30
0.0
 10
91.33154837126433
 20
-152.9081515459744
 30
0.0
 10
91.33154837126433
 20
-153.3883978566182
 30
0.0
 10
91.33154837126433
 20
-153.3883978566182
 30
0.0
 10
91.33154837126433
 20
-153.3883978566182
 30
0.0
 10
91.77389863157042
 20
-153.3883978566182
 30
0.0
 10
91.77389863157042
 20
-153.3883978566182
 30
0.0
 10
91.87311738154561
 20
-153.3883978566182
 30
0.0
 10
92.00850963411594
 20
-153.3122612463942
 30
0.0
 10
92.00850963411594
 20
-153.1410400007773
 30
0.0
 10
92.00850963411594
 20
-153.0628363332621
 30
0.0
 10
91.97474769836049
 20
-152.9081515459744
 30
0.0
 10
91.77596568886158
 20
-152.9081515459744
 30
0.0
  0
HATCH
  5
80
330
7A
100
AcDbEntity
  8
_U+30EC_U+30A4_U+30E4_U+30FC 1
 62
   179
420
  2234388
100
AcDbHatch
 10
0.0
 20
0.0
 30
0.0
210
0.0
220
0.0
230
1.0
  2
SOLID
 70
     1
 71
     0
 91
        2
 92
        1
 93
        1
 72
     4
 94
        3
 73
     0
 74
     1
 95
       44
 96
       40
 40
0.0
 40
0.0
 40
0.0
 40
0.0
 40
1.0
 40
1.0
 40
1.0
 40
2.0
 40
2.0
 40
2.0
 40
3.0
 40
3.0
 40
3.0
 40
4.0
 40
4.0
 40
4.0
 40
5.0
 40
5.0
 40
5.0
 40
6.0
 40
6.0
 40
6.0
 40
7.0
 40
7.0
 40
7.0
 40
8.0
 40
8.0
 40
8.0
 40
9.0
 40
9.0
 40
9.0
 40
10.0
 40
10.0
 40
10.0
 40
11.0
 40
11.0
 40
11.0
 40
12.0
 40
12.0
 40
12.0
 40
13.0
 40
13.0
 40
13.0
 40
13.0
 10
92.02780216883333
 20
-154.2410589892175
 10
92.00437551953364
 20
-154.1966172574578
 10
91.98336043707361
 20
-154.1439072965335
 10
91.98094887023393
 20
-153.9130858990217
 10
91.97681475565163
 20
-153.6698621577631
 10
91.91755911330533
 20
-153.5999267194125
 10
91.73979218626644
 20
-153.5999267194125
 10
91.73979218626644
 20
-153.5999267194125
 10
91.33154837126433
 20
-153.5999267194125
 10
91.33154837126433
 20
-153.5999267194125
 10
91.33154837126433
 20
-153.5999267194125
 10
91.33154837126433
 20
-154.2410589892175
 10
91.33154837126433
 20
-154.2410589892175
 10
91.33154837126433
 20
-154.2410589892175
 10
91.09676511394456
 20
-154.2410589892175
 10
91.09676511394456
 20
-154.2410589892175
 10
91.09676511394456
 20
-154.2410589892175
 10
91.09676511394456
 20
-152.69662268318
 10
91.09676511394456
 20
-152.69662268318
 10
91.09676511394456
 20
-152.69662268318
 10
91.77148706473075
 20
-152.69662268318
 10
91.77148706473075
 20
-152.69662268318
 10
92.07844507246651
 20
-152.69662268318
 10
92.24553220350113
 20
-152.8681884383455
 10
92.24553220350113
 20
-153.1241590328995
 10
92.24553220350113
 20
-153.1748019365327
 10
92.236919464788
 20
-153.2574842281787
 10
92.19247773302827
 20
-153.337754952985
 10
92.1335666002305
 20
-153.441452327091
 10
92.06776527646223
 20
-153.4604003522599
 10
92.00644257682478
 20
-153.4772813201376
 10
92.14390188668625
 20
-153.5196559946062
 10
92.21177026774568
 20
-153.5682318409482
 10
92.21590438232798
 20
-153.8834580778486
 10
92.22003849691028
 20
-154.1542425829892
 10
92.2562119995054
 20
-154.1859374614535
 10
92.3237358710163
 20
-154.2410589892175
 10
92.3237358710163
 20
-154.2410589892175
 10
92.02780216883333
 20
-154.2410589892175
 10
92.02780216883333
 20
-154.2410589892175
 97
        0
 97
        0
 92
        1
 93
        1
 72
     4
 94
        3
 73
     0
 74
     1
 95
       20
 96
       16
 40
0.0
 40
0.0
 40
0.0
 40
0.0
 40
1.0
 40
1.0
 40
1.0
 40
2.0
 40
2.0
 40
2.0
 40
3.0
 40
3.0
 40
3.0
 40
4.0
 40
4.0
 40
4.0
 40
5.0
 40
5.0
 40
5.0
 40
5.0
 10
91.77596568886158
 20
-152.9081515459744
 10
91.77596568886158
 20
-152.9081515459744
 10
91.33154837126433
 20
-152.9081515459744
 10
91.33154837126433
 20
-152.9081515459744
 10
91.33154837126433
 20
-152.9081515459744
 10
91.33154837126433
 20
-153.3883978566182
 10
91.33154837126433
 20
-153.3883978566182
 10
91.33154837126433
 20
-153.3883978566182
 10
91.77389863157042
 20
-153.3883978566182
 10
91.77389863157042
 20
-153.3883978566182
 10
91.87311738154561
 20
-153.3883978566182
 10
92.00850963411594
 20
-153.3122612463942
 10
92.00850963411594
 20
-153.1410400007773
 10
92.00850963411594
 20
-153.0628363332621
 10
91.97474769836049
 20
-152.9081515459744
 10
91.77596568886158
 20
-152.9081515459744
 97
        0
 97
        0
 75
     2
 76
     1
 98
        0
  0
SPLINE
  5
81
330
7A
100
AcDbEntity
  8
_U+30EC_U+30A4_U+30E4_U+30FC 1
370
     0
100
AcDbSpline
210
0.0
220
0.0
230
1.0
 70
    11
 71
     3
 72
    29
 73
    25
 74
     0
 42
0.0000000001
 43
0.0000000001
 12
1.0
 22
0.0
 32
0.0
 13
1.0
 23
0.0
 33
0.0
 40
0.0
 40
0.0
 40
0.0
 40
0.0
 40
1.0
 40
1.0
 40
1.0
 40
2.0
 40
2.0
 40
2.0
 40
3.0
 40
3.0
 40
3.0
 40
4.0
 40
4.0
 40
4.0
 40
5.0
 40
5.0
 40
5.0
 40
6.0
 40
6.0
 40
6.0
 40
7.0
 40
7.0
 40
7.0
 40
8.0
 40
8.0
 40
8.0
 40
8.0
 10
93.36105412162502
 20
-154.0632920621786
 30
0.0
 10
93.2532226329367
 20
-154.2727538676818
 30
0.0
 10
93.07993433002864
 20
-154.2917018928507
 30
0.0
 10
92.96349010262719
 20
-154.2917018928507
 30
0.0
 10
92.80260414346601
 20
-154.2917018928507
 30
0.0
 10
92.66101071902226
 20
-154.2451931037998
 30
0.0
 10
92.56558157408084
 20
-154.0632920621786
 30
0.0
 10
92.46222870952333
 20
-153.868644167262
 30
0.0
 10
92.44293617480594
 20
-153.6319661074253
 30
0.0
 10
92.44293617480594
 20
-153.469013090973
 30
0.0
 10
92.44293617480594
 20
-153.3250080996896
 30
0.0
 10
92.45981714268366
 20
-153.0731716197178
 30
0.0
 10
92.56558157408084
 20
-152.8743896102189
 30
0.0
 10
92.67375757231767
 20
-152.6714734861377
 30
0.0
 10
92.83429902193032
 20
-152.648046836838
 30
0.0
 10
92.96349010262719
 20
-152.648046836838
 30
0.0
 10
93.12196449494868
 20
-152.648046836838
 30
0.0
 10
93.26596948623212
 20
-152.6924885685977
 30
0.0
 10
93.36105412162502
 20
-152.8743896102189
 30
0.0
 10
93.46061738114874
 20
-153.0669704478444
 30
0.0
 10
93.48369952089992
 20
-153.2953802785164
 30
0.0
 10
93.48369952089992
 20
-153.469013090973
 30
0.0
 10
93.48369952089992
 20
-153.6402343365899
 30
0.0
 10
93.4626844384399
 20
-153.8707112245532
 30
0.0
 10
93.36105412162502
 20
-154.0632920621786
 30
0.0
  0
SPLINE
  5
82
330
7A
100
AcDbEntity
  8
_U+30EC_U+30A4_U+30E4_U+30FC 1
370
     0
100
AcDbSpline
210
0.0
220
0.0
230
1.0
 70
    11
 71
     3
 72
    17
 73
    13
 74
     0
 42
0.0000000001
 43
0.0000000001
 12
1.0
 22
0.0
 32
0.0
 13
1.0
 23
0.0
 33
0.0
 40
0.0
 40
0.0
 40
0.0
 40
0.0
 40
1.0
 40
1.0
 40
1.0
 40
2.0
 40
2.0
 40
2.0
 40
3.0
 40
3.0
 40
3.0
 40
4.0
 40
4.0
 40
4.0
 40
4.0
 10
92.96349010262719
 20
-152.8406276744635
 30
0.0
 10
92.71372067994658
 20
-152.8406276744635
 30
0.0
 10
92.6672118908957
 20
-153.1241590328995
 30
0.0
 10
92.6672118908957
 20
-153.469013090973
 30
0.0
 10
92.6672118908957
 20
-153.7883734424557
 30
0.0
 10
92.70338539349082
 20
-154.0970539979341
 30
0.0
 10
92.96349010262719
 20
-154.0970539979341
 30
0.0
 10
93.21084795846812
 20
-154.0970539979341
 30
0.0
 10
93.25976831435867
 20
-153.8159342063377
 30
0.0
 10
93.25976831435867
 20
-153.469013090973
 30
0.0
 10
93.25976831435867
 20
-153.1493082299419
 30
0.0
 10
93.2215277544724
 20
-152.8406276744635
 30
0.0
 10
92.96349010262719
 20
-152.8406276744635
 30
0.0
  0
HATCH
  5
83
330
7A
100
AcDbEntity
  8
_U+30EC_U+30A4_U+30E4_U+30FC 1
 62
   179
420
  2234388
100
AcDbHatch
 10
0.0
 20
0.0
 30
0.0
210
0.0
220
0.0
230
1.0
  2
SOLID
 70
     1
 71
     0
 91
        2
 92
        1
 93
        1
 72
     4
 94
        3
 73
     0
 74
     1
 95
       29
 96
       25
 40
0.0
 40
0.0
 40
0.0
 40
0.0
 40
1.0
 40
1.0
 40
1.0
 40
2.0
 40
2.0
 40
2.0
 40
3.0
 40
3.0
 40
3.0
 40
4.0
 40
4.0
 40
4.0
 40
5.0
 40
5.0
 40
5.0
 40
6.0
 40
6.0
 40
6.0
 40
7.0
 40
7.0
 40
7.0
 40
8.0
 40
8.0
 40
8.0
 40
8.0
 10
93.36105412162502
 20
-154.0632920621786
 10
93.2532226329367
 20
-154.2727538676818
 10
93.07993433002864
 20
-154.2917018928507
 10
92.96349010262719
 20
-154.2917018928507
 10
92.80260414346601
 20
-154.2917018928507
 10
92.66101071902226
 20
-154.2451931037998
 10
92.56558157408084
 20
-154.0632920621786
 10
92.46222870952333
 20
-153.868644167262
 10
92.44293617480594
 20
-153.6319661074253
 10
92.44293617480594
 20
-153.469013090973
 10
92.44293617480594
 20
-153.3250080996896
 10
92.45981714268366
 20
-153.0731716197178
 10
92.56558157408084
 20
-152.8743896102189
 10
92.67375757231767
 20
-152.6714734861377
 10
92.83429902193032
 20
-152.648046836838
 10
92.96349010262719
 20
-152.648046836838
 10
93.12196449494868
 20
-152.648046836838
 10
93.26596948623212
 20
-152.6924885685977
 10
93.36105412162502
 20
-152.8743896102189
 10
93.46061738114874
 20
-153.0669704478444
 10
93.48369952089992
 20
-153.2953802785164
 10
93.48369952089992
 20
-153.469013090973
 10
93.48369952089992
 20
-153.6402343365899
 10
93.4626844384399
 20
-153.8707112245532
 10
93.36105412162502
 20
-154.0632920621786
 97
        0
 97
        0
 92
        1
 93
        1
 72
     4
 94
        3
 73
     0
 74
     1
 95
       17
 96
       13
 40
0.0
 40
0.0
 40
0.0
 40
0.0
 40
1.0
 40
1.0
 40
1.0
 40
2.0
 40
2.0
 40
2.0
 40
3.0
 40
3.0
 40
3.0
 40
4.0
 40
4.0
 40
4.0
 40
4.0
 10
92.96349010262719
 20
-152.8406276744635
 10
92.71372067994658
 20
-152.8406276744635
 10
92.6672118908957
 20
-153.1241590328995
 10
92.6672118908957
 20
-153.469013090973
 10
92.6672118908957
 20
-153.7883734424557
 10
92.70338539349082
 20
-154.0970539979341
 10
92.96349010262719
 20
-154.0970539979341
 10
93.21084795846812
 20
-154.0970539979341
 10
93.25976831435867
 20
-153.8159342063377
 10
93.25976831435867
 20
-153.469013090973
 10
93.25976831435867
 20
-153.1493082299419
 10
93.2215277544724
 20
-152.8406276744635
 10
92.96349010262719
 20
-152.8406276744635
 97
        0
 97
        0
 75
     2
 76
     1
 98
        0
  0
POLYLINE
  5
84
330
7A
100
AcDbEntity
  8
_U+30EC_U+30A4_U+30E4_U+30FC 1
370
     0
100
AcDb2dPolyline
 66
     1
 10
0.0
 20
0.0
 30
0.0
  0
VERTEX
  5
85
330
84
100
AcDbEntity
  8
_U+30EC_U+30A4_U+30E4_U+30FC 1
370
     0
100
AcDbVertex
100
AcDb2dVertex
 10
93.70039602692212
 20
-154.2410589892175
 30
0.0
  0
VERTEX
  5
86
330
84
100
AcDbEntity
  8
_U+30EC_U+30A4_U+30E4_U+30FC 1
370
     0
100
AcDbVertex
100
AcDb2dVertex
 10
93.70039602692212
 20
-153.9892225092458
 30
0.0
  0
VERTEX
  5
87
330
84
100
AcDbEntity
  8
_U+30EC_U+30A4_U+30E4_U+30FC 1
370
     0
100
AcDbVertex
100
AcDb2dVertex
 10
93.95223250689389
 20
-153.9892225092458
 30
0.0
  0
VERTEX
  5
88
330
84
100
AcDbEntity
  8
_U+30EC_U+30A4_U+30E4_U+30FC 1
370
     0
100
AcDbVertex
100
AcDb2dVertex
 10
93.95223250689389
 20
-154.2410589892175
 30
0.0
  0
VERTEX
  5
89
330
84
100
AcDbEntity
  8
_U+30EC_U+30A4_U+30E4_U+30FC 1
370
     0
100
AcDbVertex
100
AcDb2dVertex
 10
93.70039602692212
 20
-154.2410589892175
 30
0.0
  0
SEQEND
  5
8A
330
84
100
AcDbEntity
  8
_U+30EC_U+30A4_U+30E4_U+30FC 1
370
     0
  0
HATCH
  5
8B
330
7A
100
AcDbEntity
  8
_U+30EC_U+30A4_U+30E4_U+30FC 1
 62
   179
420
  2234388
100
AcDbHatch
 10
0.0
 20
0.0
 30
0.0
210
0.0
220
0.0
230
1.0
  2
SOLID
 70
     1
 71
     0
 91
        1
 92
        1
 93
        4
 72
     1
 10
93.70039602692212
 20
-154.2410589892175
 11
93.70039602692212
 21
-153.9892225092458
 72
     1
 10
93.70039602692212
 20
-153.9892225092458
 11
93.95223250689389
 21
-153.9892225092458
 72
     1
 10
93.95223250689389
 20
-153.9892225092458
 11
93.95223250689389
 21
-154.2410589892175
 72
     1
 10
93.95223250689389
 20
-154.2410589892175
 11
93.70039602692212
 21
-154.2410589892175
 97
        0
 75
     2
 76
     1
 98
        0
  0
SPLINE
  5
8C
330
7A
100
AcDbEntity
  8
_U+30EC_U+30A4_U+30E4_U+30FC 1
370
     0
100
AcDbSpline
210
0.0
220
0.0
230
1.0
 70
    11
 71
     3
 72
    53
 73
    49
 74
     0
 42
0.0000000001
 43
0.0000000001
 12
1.0
 22
0.0
 32
0.0
 13
1.0
 23
0.0
 33
0.0
 40
0.0
 40
0.0
 40
0.0
 40
0.0
 40
1.0
 40
1.0
 40
1.0
 40
2.0
 40
2.0
 40
2.0
 40
3.0
 40
3.0
 40
3.0
 40
4.0
 40
4.0
 40
4.0
 40
5.0
 40
5.0
 40
5.0
 40
6.0
 40
6.0
 40
6.0
 40
7.0
 40
7.0
 40
7.0
 40
8.0
 40
8.0
 40
8.0
 40
9.0
 40
9.0
 40
9.0
 40
10.0
 40
10.0
 40
10.0
 40
11.0
 40
11.0
 40
11.0
 40
12.0
 40
12.0
 40
12.0
 40
13.0
 40
13.0
 40
13.0
 40
14.0
 40
14.0
 40
14.0
 40
15.0
 40
15.0
 40
15.0
 40
16.0
 40
16.0
 40
16.0
 40
16.0
 10
94.6695013869229
 20
-154.2917018928507
 30
0.0
 10
94.59129771940773
 20
-154.2917018928507
 30
0.0
 10
94.48966740259287
 20
-154.274820924973
 30
0.0
 10
94.388037085778
 20
-154.2114311680444
 30
0.0
 10
94.21474878286993
 20
-154.1015326220649
 30
0.0
 10
94.19338919086138
 20
-153.9702744840769
 30
0.0
 10
94.1744411656925
 20
-153.8624429953886
 30
0.0
 10
94.1744411656925
 20
-153.8624429953886
 30
0.0
 10
94.39664982449112
 20
-153.8624429953886
 30
0.0
 10
94.39664982449112
 20
-153.8624429953886
 30
0.0
 10
94.4514268427066
 20
-154.0612250048875
 30
0.0
 10
94.57855086611231
 20
-154.0908528260606
 30
0.0
 10
94.67156844421406
 20
-154.0908528260606
 30
0.0
 10
94.81109481136667
 20
-154.0908528260606
 30
0.0
 10
94.96336803181472
 20
-153.9912895665369
 30
0.0
 10
94.96336803181472
 20
-153.7587456212825
 30
0.0
 10
94.96336803181472
 20
-153.5027750267285
 30
0.0
 10
94.78353404748468
 20
-153.4328395883779
 30
0.0
 10
94.66295570550093
 20
-153.4328395883779
 30
0.0
 10
94.63126082703663
 20
-153.4328395883779
 30
0.0
 10
94.48966740259287
 20
-153.4328395883779
 30
0.0
 10
94.40078393907342
 20
-153.5620306690748
 30
0.0
 10
94.40078393907342
 20
-153.5620306690748
 30
0.0
 10
94.22508406932567
 20
-153.5430826439059
 30
0.0
 10
94.22508406932567
 20
-153.5430826439059
 30
0.0
 10
94.22508406932567
 20
-153.5430826439059
 30
0.0
 10
94.34566241130942
 20
-152.69662268318
 30
0.0
 10
94.34566241130942
 20
-152.69662268318
 30
0.0
 10
94.34566241130942
 20
-152.69662268318
 30
0.0
 10
95.12425399097589
 20
-152.69662268318
 30
0.0
 10
95.12425399097589
 20
-152.69662268318
 30
0.0
 10
95.12425399097589
 20
-152.69662268318
 30
0.0
 10
95.12425399097589
 20
-152.8912705780966
 30
0.0
 10
95.12425399097589
 20
-152.8912705780966
 30
0.0
 10
95.12425399097589
 20
-152.8912705780966
 30
0.0
 10
94.50861542776174
 20
-152.8912705780966
 30
0.0
 10
94.50861542776174
 20
-152.8912705780966
 30
0.0
 10
94.50861542776174
 20
-152.8912705780966
 30
0.0
 10
94.443158613542
 20
-153.3143283036853
 30
0.0
 10
94.443158613542
 20
-153.3143283036853
 30
0.0
 10
94.50448131317944
 20
-153.2805663679299
 30
0.0
 10
94.58681909527691
 20
-153.2402587507524
 30
0.0
 10
94.70533037996951
 20
-153.2402587507524
 30
0.0
 10
94.95923391723242
 20
-153.2402587507524
 30
0.0
 10
95.19625648661761
 20
-153.4266384165045
 30
0.0
 10
95.19625648661761
 20
-153.7397975961137
 30
0.0
 10
95.19625648661761
 20
-154.0570908903052
 30
0.0
 10
94.97198077052784
 20
-154.2917018928507
 30
0.0
 10
94.6695013869229
 20
-154.2917018928507
 30
0.0
  0
HATCH
  5
8D
330
7A
100
AcDbEntity
  8
_U+30EC_U+30A4_U+30E4_U+30FC 1
 62
   179
420
  2234388
100
AcDbHatch
 10
0.0
 20
0.0
 30
0.0
210
0.0
220
0.0
230
1.0
  2
SOLID
 70
     1
 71
     0
 91
        1
 92
        1
 93
        1
 72
     4
 94
        3
 73
     0
 74
     1
 95
       53
 96
       49
 40
0.0
 40
0.0
 40
0.0
 40
0.0
 40
1.0
 40
1.0
 40
1.0
 40
2.0
 40
2.0
 40
2.0
 40
3.0
 40
3.0
 40
3.0
 40
4.0
 40
4.0
 40
4.0
 40
5.0
 40
5.0
 40
5.0
 40
6.0
 40
6.0
 40
6.0
 40
7.0
 40
7.0
 40
7.0
 40
8.0
 40
8.0
 40
8.0
 40
9.0
 40
9.0
 40
9.0
 40
10.0
 40
10.0
 40
10.0
 40
11.0
 40
11.0
 40
11.0
 40
12.0
 40
12.0
 40
12.0
 40
13.0
 40
13.0
 40
13.0
 40
14.0
 40
14.0
 40
14.0
 40
15.0
 40
15.0
 40
15.0
 40
16.0
 40
16.0
 40
16.0
 40
16.0
 10
94.6695013869229
 20
-154.2917018928507
 10
94.59129771940773
 20
-154.2917018928507
 10
94.48966740259287
 20
-154.274820924973
 10
94.388037085778
 20
-154.2114311680444
 10
94.21474878286993
 20
-154.1015326220649
 10
94.19338919086138
 20
-153.9702744840769
 10
94.1744411656925
 20
-153.8624429953886
 10
94.1744411656925
 20
-153.8624429953886
 10
94.39664982449112
 20
-153.8624429953886
 10
94.39664982449112
 20
-153.8624429953886
 10
94.4514268427066
 20
-154.0612250048875
 10
94.57855086611231
 20
-154.0908528260606
 10
94.67156844421406
 20
-154.0908528260606
 10
94.81109481136667
 20
-154.0908528260606
 10
94.96336803181472
 20
-153.9912895665369
 10
94.96336803181472
 20
-153.7587456212825
 10
94.96336803181472
 20
-153.5027750267285
 10
94.78353404748468
 20
-153.4328395883779
 10
94.66295570550093
 20
-153.4328395883779
 10
94.63126082703663
 20
-153.4328395883779
 10
94.48966740259287
 20
-153.4328395883779
 10
94.40078393907342
 20
-153.5620306690748
 10
94.40078393907342
 20
-153.5620306690748
 10
94.22508406932567
 20
-153.5430826439059
 10
94.22508406932567
 20
-153.5430826439059
 10
94.22508406932567
 20
-153.5430826439059
 10
94.34566241130942
 20
-152.69662268318
 10
94.34566241130942
 20
-152.69662268318
 10
94.34566241130942
 20
-152.69662268318
 10
95.12425399097589
 20
-152.69662268318
 10
95.12425399097589
 20
-152.69662268318
 10
95.12425399097589
 20
-152.69662268318
 10
95.12425399097589
 20
-152.8912705780966
 10
95.12425399097589
 20
-152.8912705780966
 10
95.12425399097589
 20
-152.8912705780966
 10
94.50861542776174
 20
-152.8912705780966
 10
94.50861542776174
 20
-152.8912705780966
 10
94.50861542776174
 20
-152.8912705780966
 10
94.443158613542
 20
-153.3143283036853
 10
94.443158613542
 20
-153.3143283036853
 10
94.50448131317944
 20
-153.2805663679299
 10
94.58681909527691
 20
-153.2402587507524
 10
94.70533037996951
 20
-153.2402587507524
 10
94.95923391723242
 20
-153.2402587507524
 10
95.19625648661761
 20
-153.4266384165045
 10
95.19625648661761
 20
-153.7397975961137
 10
95.19625648661761
 20
-154.0570908903052
 10
94.97198077052784
 20
-154.2917018928507
 10
94.6695013869229
 20
-154.2917018928507
 97
        0
 97
        0
 75
     2
 76
     1
 98
        0
  0
ENDBLK
  5
7D
330
7A
100
AcDbEntity
  8
0
100
AcDbBlockEnd
  0
BLOCK
  5
90
330
8E
100
AcDbEntity
  8
0
100
AcDbBlockBegin
  2
block 4
 70
     0
 10
0.0
 20
0.0
 30
0.0
  3
block 4
  1

  0
SPLINE
  5
92
330
8E
100
AcDbEntity
  8
_U+30EC_U+30A4_U+30E4_U+30FC 1
370
     0
100
AcDbSpline
210
0.0
220
0.0
230
1.0
 70
    11
 71
     3
 72
    26
 73
    22
 74
     0
 42
0.0000000001
 43
0.0000000001
 12
1.0
 22
0.0
 32
0.0
 13
1.0
 23
0.0
 33
0.0
 40
0.0
 40
0.0
 40
0.0
 40
0.0
 40
1.0
 40
1.0
 40
1.0
 40
2.0
 40
2.0
 40
2.0
 40
3.0
 40
3.0
 40
3.0
 40
4.0
 40
4.0
 40
4.0
 40
5.0
 40
5.0
 40
5.0
 40
6.0
 40
6.0
 40
6.0
 40
7.0
 40
7.0
 40
7.0
 40
7.0
 10
86.29223495021515
 20
-104.0143228906631
 30
0.0
 10
86.29223495021515
 20
-104.0143228906631
 30
0.0
 10
86.29223495021515
 20
-102.9101697876405
 30
0.0
 10
86.29223495021515
 20
-102.9101697876405
 30
0.0
 10
86.29223495021515
 20
-102.9101697876405
 30
0.0
 10
85.9621948027282
 20
-102.9101697876405
 30
0.0
 10
85.9621948027282
 20
-102.9101697876405
 30
0.0
 10
85.9621948027282
 20
-102.9101697876405
 30
0.0
 10
85.9621948027282
 20
-102.7620306817748
 30
0.0
 10
85.9621948027282
 20
-102.7620306817748
 30
0.0
 10
86.29430200750629
 20
-102.7472167711882
 30
0.0
 10
86.34081079655716
 20
-102.5842637547359
 30
0.0
 10
86.37043861773031
 20
-102.4698865846256
 30
0.0
 10
86.37043861773031
 20
-102.4698865846256
 30
0.0
 10
86.51651066630491
 20
-102.4698865846256
 30
0.0
 10
86.51651066630491
 20
-102.4698865846256
 30
0.0
 10
86.51651066630491
 20
-102.4698865846256
 30
0.0
 10
86.51651066630491
 20
-104.0143228906631
 30
0.0
 10
86.51651066630491
 20
-104.0143228906631
 30
0.0
 10
86.51651066630491
 20
-104.0143228906631
 30
0.0
 10
86.29223495021515
 20
-104.0143228906631
 30
0.0
 10
86.29223495021515
 20
-104.0143228906631
 30
0.0
  0
HATCH
  5
93
330
8E
100
AcDbEntity
  8
_U+30EC_U+30A4_U+30E4_U+30FC 1
 62
   179
420
  2234388
100
AcDbHatch
 10
0.0
 20
0.0
 30
0.0
210
0.0
220
0.0
230
1.0
  2
SOLID
 70
     1
 71
     0
 91
        1
 92
        1
 93
        1
 72
     4
 94
        3
 73
     0
 74
     1
 95
       26
 96
       22
 40
0.0
 40
0.0
 40
0.0
 40
0.0
 40
1.0
 40
1.0
 40
1.0
 40
2.0
 40
2.0
 40
2.0
 40
3.0
 40
3.0
 40
3.0
 40
4.0
 40
4.0
 40
4.0
 40
5.0
 40
5.0
 40
5.0
 40
6.0
 40
6.0
 40
6.0
 40
7.0
 40
7.0
 40
7.0
 40
7.0
 10
86.29223495021515
 20
-104.0143228906631
 10
86.29223495021515
 20
-104.0143228906631
 10
86.29223495021515
 20
-102.9101697876405
 10
86.29223495021515
 20
-102.9101697876405
 10
86.29223495021515
 20
-102.9101697876405
 10
85.9621948027282
 20
-102.9101697876405
 10
85.9621948027282
 20
-102.9101697876405
 10
85.9621948027282
 20
-102.9101697876405
 10
85.9621948027282
 20
-102.7620306817748
 10
85.9621948027282
 20
-102.7620306817748
 10
86.29430200750629
 20
-102.7472167711882
 10
86.34081079655716
 20
-102.5842637547359
 10
86.37043861773031
 20
-102.4698865846256
 10
86.37043861773031
 20
-102.4698865846256
 10
86.51651066630491
 20
-102.4698865846256
 10
86.51651066630491
 20
-102.4698865846256
 10
86.51651066630491
 20
-102.4698865846256
 10
86.51651066630491
 20
-104.0143228906631
 10
86.51651066630491
 20
-104.0143228906631
 10
86.51651066630491
 20
-104.0143228906631
 10
86.29223495021515
 20
-104.0143228906631
 10
86.29223495021515
 20
-104.0143228906631
 97
        0
 97
        0
 75
     2
 76
     1
 98
        0
  0
POLYLINE
  5
94
330
8E
100
AcDbEntity
  8
_U+30EC_U+30A4_U+30E4_U+30FC 1
370
     0
100
AcDb2dPolyline
 66
     1
 10
0.0
 20
0.0
 30
0.0
  0
VERTEX
  5
95
330
94
100
AcDbEntity
  8
_U+30EC_U+30A4_U+30E4_U+30FC 1
370
     0
100
AcDbVertex
100
AcDb2dVertex
 10
87.07771672085211
 20
-104.0143228906631
 30
0.0
  0
VERTEX
  5
96
330
94
100
AcDbEntity
  8
_U+30EC_U+30A4_U+30E4_U+30FC 1
370
     0
100
AcDbVertex
100
AcDb2dVertex
 10
87.07771672085211
 20
-103.7624864106913
 30
0.0
  0
VERTEX
  5
97
330
94
100
AcDbEntity
  8
_U+30EC_U+30A4_U+30E4_U+30FC 1
370
     0
100
AcDbVertex
100
AcDb2dVertex
 10
87.3293809460496
 20
-103.7624864106913
 30
0.0
  0
VERTEX
  5
98
330
94
100
AcDbEntity
  8
_U+30EC_U+30A4_U+30E4_U+30FC 1
370
     0
100
AcDbVertex
100
AcDb2dVertex
 10
87.3293809460496
 20
-104.0143228906631
 30
0.0
  0
VERTEX
  5
99
330
94
100
AcDbEntity
  8
_U+30EC_U+30A4_U+30E4_U+30FC 1
370
     0
100
AcDbVertex
100
AcDb2dVertex
 10
87.07771672085211
 20
-104.0143228906631
 30
0.0
  0
SEQEND
  5
9A
330
94
100
AcDbEntity
  8
_U+30EC_U+30A4_U+30E4_U+30FC 1
370
     0
  0
HATCH
  5
9B
330
8E
100
AcDbEntity
  8
_U+30EC_U+30A4_U+30E4_U+30FC 1
 62
   179
420
  2234388
100
AcDbHatch
 10
0.0
 20
0.0
 30
0.0
210
0.0
220
0.0
230
1.0
  2
SOLID
 70
     1
 71
     0
 91
        1
 92
        1
 93
        4
 72
     1
 10
87.07771672085211
 20
-104.0143228906631
 11
87.07771672085211
 21
-103.7624864106913
 72
     1
 10
87.07771672085211
 20
-103.7624864106913
 11
87.3293809460496
 21
-103.7624864106913
 72
     1
 10
87.3293809460496
 20
-103.7624864106913
 11
87.3293809460496
 21
-104.0143228906631
 72
     1
 10
87.3293809460496
 20
-104.0143228906631
 11
87.07771672085211
 21
-104.0143228906631
 97
        0
 75
     2
 76
     1
 98
        0
  0
SPLINE
  5
9C
330
8E
100
AcDbEntity
  8
_U+30EC_U+30A4_U+30E4_U+30FC 1
370
     0
100
AcDbSpline
210
0.0
220
0.0
230
1.0
 70
    11
 71
     3
 72
    53
 73
    49
 74
     0
 42
0.0000000001
 43
0.0000000001
 12
1.0
 22
0.0
 32
0.0
 13
1.0
 23
0.0
 33
0.0
 40
0.0
 40
0.0
 40
0.0
 40
0.0
 40
1.0
 40
1.0
 40
1.0
 40
2.0
 40
2.0
 40
2.0
 40
3.0
 40
3.0
 40
3.0
 40
4.0
 40
4.0
 40
4.0
 40
5.0
 40
5.0
 40
5.0
 40
6.0
 40
6.0
 40
6.0
 40
7.0
 40
7.0
 40
7.0
 40
8.0
 40
8.0
 40
8.0
 40
9.0
 40
9.0
 40
9.0
 40
10.0
 40
10.0
 40
10.0
 40
11.0
 40
11.0
 40
11.0
 40
12.0
 40
12.0
 40
12.0
 40
13.0
 40
13.0
 40
13.0
 40
14.0
 40
14.0
 40
14.0
 40
15.0
 40
15.0
 40
15.0
 40
16.0
 40
16.0
 40
16.0
 40
16.0
 10
88.04699433562715
 20
-104.0649657942963
 30
0.0
 10
87.96861841333771
 20
-104.0649657942963
 30
0.0
 10
87.8671603512971
 20
-104.0480848264185
 30
0.0
 10
87.76553003448224
 20
-103.9846950694899
 30
0.0
 10
87.5920694767999
 20
-103.8747965235105
 30
0.0
 10
87.57088213956561
 20
-103.7435383855225
 30
0.0
 10
87.55193411439674
 20
-103.6357068968341
 30
0.0
 10
87.55193411439674
 20
-103.6357068968341
 30
0.0
 10
87.7739705184211
 20
-103.6357068968341
 30
0.0
 10
87.7739705184211
 20
-103.6357068968341
 30
0.0
 10
87.8290920461851
 20
-103.834488906333
 30
0.0
 10
87.95604381481655
 20
-103.8641167275062
 30
0.0
 10
88.04906139291829
 20
-103.8641167275062
 30
0.0
 10
88.18858776007092
 20
-103.8641167275062
 30
0.0
 10
88.34103323529322
 20
-103.7645534679825
 30
0.0
 10
88.34103323529322
 20
-103.5320095227281
 30
0.0
 10
88.34103323529322
 20
-103.276038928174
 30
0.0
 10
88.16119925096318
 20
-103.2061034898235
 30
0.0
 10
88.04062090897943
 20
-103.2061034898235
 30
0.0
 10
88.00892603051513
 20
-103.2061034898235
 30
0.0
 10
87.8671603512971
 20
-103.2061034898235
 30
0.0
 10
87.77827688777765
 20
-103.3352945705203
 30
0.0
 10
87.77827688777765
 20
-103.3352945705203
 30
0.0
 10
87.60274927280418
 20
-103.3163465453515
 30
0.0
 10
87.60274927280418
 20
-103.3163465453515
 30
0.0
 10
87.60274927280418
 20
-103.3163465453515
 30
0.0
 10
87.72332761478792
 20
-102.4698865846256
 30
0.0
 10
87.72332761478792
 20
-102.4698865846256
 30
0.0
 10
87.72332761478792
 20
-102.4698865846256
 30
0.0
 10
88.50174693968012
 20
-102.4698865846256
 30
0.0
 10
88.50174693968012
 20
-102.4698865846256
 30
0.0
 10
88.50174693968012
 20
-102.4698865846256
 30
0.0
 10
88.50174693968012
 20
-102.6645344795422
 30
0.0
 10
88.50174693968012
 20
-102.6645344795422
 30
0.0
 10
88.50174693968012
 20
-102.6645344795422
 30
0.0
 10
87.88610837646598
 20
-102.6645344795422
 30
0.0
 10
87.88610837646598
 20
-102.6645344795422
 30
0.0
 10
87.88610837646598
 20
-102.6645344795422
 30
0.0
 10
87.82065156224623
 20
-103.0875922051309
 30
0.0
 10
87.82065156224623
 20
-103.0875922051309
 30
0.0
 10
87.88197426188368
 20
-103.0538302693754
 30
0.0
 10
87.96448429875541
 20
-103.013522652198
 30
0.0
 10
88.08282332867374
 20
-103.013522652198
 30
0.0
 10
88.33672686593665
 20
-103.013522652198
 30
0.0
 10
88.57374943532184
 20
-103.19990231795
 30
0.0
 10
88.57374943532184
 20
-103.5130614975592
 30
0.0
 10
88.57374943532184
 20
-103.8303547917508
 30
0.0
 10
88.34947371923208
 20
-104.0649657942963
 30
0.0
 10
88.04699433562715
 20
-104.0649657942963
 30
0.0
  0
HATCH
  5
9D
330
8E
100
AcDbEntity
  8
_U+30EC_U+30A4_U+30E4_U+30FC 1
 62
   179
420
  2234388
100
AcDbHatch
 10
0.0
 20
0.0
 30
0.0
210
0.0
220
0.0
230
1.0
  2
SOLID
 70
     1
 71
     0
 91
        1
 92
        1
 93
        1
 72
     4
 94
        3
 73
     0
 74
     1
 95
       53
 96
       49
 40
0.0
 40
0.0
 40
0.0
 40
0.0
 40
1.0
 40
1.0
 40
1.0
 40
2.0
 40
2.0
 40
2.0
 40
3.0
 40
3.0
 40
3.0
 40
4.0
 40
4.0
 40
4.0
 40
5.0
 40
5.0
 40
5.0
 40
6.0
 40
6.0
 40
6.0
 40
7.0
 40
7.0
 40
7.0
 40
8.0
 40
8.0
 40
8.0
 40
9.0
 40
9.0
 40
9.0
 40
10.0
 40
10.0
 40
10.0
 40
11.0
 40
11.0
 40
11.0
 40
12.0
 40
12.0
 40
12.0
 40
13.0
 40
13.0
 40
13.0
 40
14.0
 40
14.0
 40
14.0
 40
15.0
 40
15.0
 40
15.0
 40
16.0
 40
16.0
 40
16.0
 40
16.0
 10
88.04699433562715
 20
-104.0649657942963
 10
87.96861841333771
 20
-104.0649657942963
 10
87.8671603512971
 20
-104.0480848264185
 10
87.76553003448224
 20
-103.9846950694899
 10
87.5920694767999
 20
-103.8747965235105
 10
87.57088213956561
 20
-103.7435383855225
 10
87.55193411439674
 20
-103.6357068968341
 10
87.55193411439674
 20
-103.6357068968341
 10
87.7739705184211
 20
-103.6357068968341
 10
87.7739705184211
 20
-103.6357068968341
 10
87.8290920461851
 20
-103.834488906333
 10
87.95604381481655
 20
-103.8641167275062
 10
88.04906139291829
 20
-103.8641167275062
 10
88.18858776007092
 20
-103.8641167275062
 10
88.34103323529322
 20
-103.7645534679825
 10
88.34103323529322
 20
-103.5320095227281
 10
88.34103323529322
 20
-103.276038928174
 10
88.16119925096318
 20
-103.2061034898235
 10
88.04062090897943
 20
-103.2061034898235
 10
88.00892603051513
 20
-103.2061034898235
 10
87.8671603512971
 20
-103.2061034898235
 10
87.77827688777765
 20
-103.3352945705203
 10
87.77827688777765
 20
-103.3352945705203
 10
87.60274927280418
 20
-103.3163465453515
 10
87.60274927280418
 20
-103.3163465453515
 10
87.60274927280418
 20
-103.3163465453515
 10
87.72332761478792
 20
-102.4698865846256
 10
87.72332761478792
 20
-102.4698865846256
 10
87.72332761478792
 20
-102.4698865846256
 10
88.50174693968012
 20
-102.4698865846256
 10
88.50174693968012
 20
-102.4698865846256
 10
88.50174693968012
 20
-102.4698865846256
 10
88.50174693968012
 20
-102.6645344795422
 10
88.50174693968012
 20
-102.6645344795422
 10
88.50174693968012
 20
-102.6645344795422
 10
87.88610837646598
 20
-102.6645344795422
 10
87.88610837646598
 20
-102.6645344795422
 10
87.88610837646598
 20
-102.6645344795422
 10
87.82065156224623
 20
-103.0875922051309
 10
87.82065156224623
 20
-103.0875922051309
 10
87.88197426188368
 20
-103.0538302693754
 10
87.96448429875541
 20
-103.013522652198
 10
88.08282332867374
 20
-103.013522652198
 10
88.33672686593665
 20
-103.013522652198
 10
88.57374943532184
 20
-103.19990231795
 10
88.57374943532184
 20
-103.5130614975592
 10
88.57374943532184
 20
-103.8303547917508
 10
88.34947371923208
 20
-104.0649657942963
 10
88.04699433562715
 20
-104.0649657942963
 97
        0
 97
        0
 75
     2
 76
     1
 98
        0
  0
ENDBLK
  5
91
330
8E
100
AcDbEntity
  8
0
100
AcDbBlockEnd
  0
BLOCK
  5
AC
330
AA
100
AcDbEntity
  8
0
100
AcDbBlockBegin
  2
block 5
 70
     0
 10
0.0
 20
0.0
 30
0.0
  3
block 5
  1

  0
POLYLINE
  5
AE
330
AA
100
AcDbEntity
  8
_U+30EC_U+30A4_U+30E4_U+30FC 1
370
     0
100
AcDb2dPolyline
 66
     1
 10
0.0
 20
0.0
 30
0.0
  0
VERTEX
  5
AF
330
AE
100
AcDbEntity
  8
_U+30EC_U+30A4_U+30E4_U+30FC 1
370
     0
100
AcDbVertex
100
AcDb2dVertex
 10
91.31122230790136
 20
-129.9462456272357
 30
0.0
  0
VERTEX
  5
B0
330
AE
100
AcDbEntity
  8
_U+30EC_U+30A4_U+30E4_U+30FC 1
370
     0
100
AcDbVertex
100
AcDb2dVertex
 10
91.65814342326603
 20
-129.9462456272357
 30
0.0
  0
VERTEX
  5
B1
330
AE
100
AcDbEntity
  8
_U+30EC_U+30A4_U+30E4_U+30FC 1
370
     0
100
AcDbVertex
100
AcDb2dVertex
 10
91.65814342326603
 20
-130.1639756619035
 30
0.0
  0
VERTEX
  5
B2
330
AE
100
AcDbEntity
  8
_U+30EC_U+30A4_U+30E4_U+30FC 1
370
     0
100
AcDbVertex
100
AcDb2dVertex
 10
91.31122230790136
 20
-130.1639756619035
 30
0.0
  0
VERTEX
  5
B3
330
AE
100
AcDbEntity
  8
_U+30EC_U+30A4_U+30E4_U+30FC 1
370
     0
100
AcDbVertex
100
AcDb2dVertex
 10
91.31122230790136
 20
-130.819921842295
 30
0.0
  0
VERTEX
  5
B4
330
AE
100
AcDbEntity
  8
_U+30EC_U+30A4_U+30E4_U+30FC 1
370
     0
100
AcDbVertex
100
AcDb2dVertex
 10
91.0869465918116
 20
-130.819921842295
 30
0.0
  0
VERTEX
  5
B5
330
AE
100
AcDbEntity
  8
_U+30EC_U+30A4_U+30E4_U+30FC 1
370
     0
100
AcDbVertex
100
AcDb2dVertex
 10
90.11370711722853
 20
-130.1412380317008
 30
0.0
  0
VERTEX
  5
B6
330
AE
100
AcDbEntity
  8
_U+30EC_U+30A4_U+30E4_U+30FC 1
370
     0
100
AcDbVertex
100
AcDb2dVertex
 10
90.11370711722853
 20
-129.9462456272357
 30
0.0
  0
VERTEX
  5
B7
330
AE
100
AcDbEntity
  8
_U+30EC_U+30A4_U+30E4_U+30FC 1
370
     0
100
AcDbVertex
100
AcDb2dVertex
 10
91.11244029840245
 20
-129.9462456272357
 30
0.0
  0
VERTEX
  5
B8
330
AE
100
AcDbEntity
  8
_U+30EC_U+30A4_U+30E4_U+30FC 1
370
     0
100
AcDbVertex
100
AcDb2dVertex
 10
91.11244029840245
 20
-129.7388508790236
 30
0.0
  0
VERTEX
  5
B9
330
AE
100
AcDbEntity
  8
_U+30EC_U+30A4_U+30E4_U+30FC 1
370
     0
100
AcDbVertex
100
AcDb2dVertex
 10
91.31122230790136
 20
-129.7388508790236
 30
0.0
  0
VERTEX
  5
BA
330
AE
100
AcDbEntity
  8
_U+30EC_U+30A4_U+30E4_U+30FC 1
370
     0
100
AcDbVertex
100
AcDb2dVertex
 10
91.31122230790136
 20
-129.9462456272357
 30
0.0
  0
SEQEND
  5
BB
330
AE
100
AcDbEntity
  8
_U+30EC_U+30A4_U+30E4_U+30FC 1
370
     0
  0
POLYLINE
  5
BC
330
AA
100
AcDbEntity
  8
_U+30EC_U+30A4_U+30E4_U+30FC 1
370
     0
100
AcDb2dPolyline
 66
     1
 10
0.0
 20
0.0
 30
0.0
  0
VERTEX
  5
BD
330
BC
100
AcDbEntity
  8
_U+30EC_U+30A4_U+30E4_U+30FC 1
370
     0
100
AcDbVertex
100
AcDb2dVertex
 10
90.45649411801088
 20
-130.1639756619035
 30
0.0
  0
VERTEX
  5
BE
330
BC
100
AcDbEntity
  8
_U+30EC_U+30A4_U+30E4_U+30FC 1
370
     0
100
AcDbVertex
100
AcDb2dVertex
 10
91.11244029840245
 20
-130.6214843423446
 30
0.0
  0
VERTEX
  5
BF
330
BC
100
AcDbEntity
  8
_U+30EC_U+30A4_U+30E4_U+30FC 1
370
     0
100
AcDbVertex
100
AcDb2dVertex
 10
91.11244029840245
 20
-130.1639756619035
 30
0.0
  0
VERTEX
  5
C0
330
BC
100
AcDbEntity
  8
_U+30EC_U+30A4_U+30E4_U+30FC 1
370
     0
100
AcDbVertex
100
AcDb2dVertex
 10
90.45649411801088
 20
-130.1639756619035
 30
0.0
  0
SEQEND
  5
C1
330
BC
100
AcDbEntity
  8
_U+30EC_U+30A4_U+30E4_U+30FC 1
370
     0
  0
HATCH
  5
C2
330
AA
100
AcDbEntity
  8
_U+30EC_U+30A4_U+30E4_U+30FC 1
 62
   179
420
  2234388
100
AcDbHatch
 10
0.0
 20
0.0
 30
0.0
210
0.0
220
0.0
230
1.0
  2
SOLID
 70
     1
 71
     0
 91
        2
 92
        1
 93
       11
 72
     1
 10
91.31122230790136
 20
-129.9462456272357
 11
91.65814342326603
 21
-129.9462456272357
 72
     1
 10
91.65814342326603
 20
-129.9462456272357
 11
91.65814342326603
 21
-130.1639756619035
 72
     1
 10
91.65814342326603
 20
-130.1639756619035
 11
91.31122230790136
 21
-130.1639756619035
 72
     1
 10
91.31122230790136
 20
-130.1639756619035
 11
91.31122230790136
 21
-130.819921842295
 72
     1
 10
91.31122230790136
 20
-130.819921842295
 11
91.0869465918116
 21
-130.819921842295
 72
     1
 10
91.0869465918116
 20
-130.819921842295
 11
90.11370711722853
 21
-130.1412380317008
 72
     1
 10
90.11370711722853
 20
-130.1412380317008
 11
90.11370711722853
 21
-129.9462456272357
 72
     1
 10
90.11370711722853
 20
-129.9462456272357
 11
91.11244029840245
 21
-129.9462456272357
 72
     1
 10
91.11244029840245
 20
-129.9462456272357
 11
91.11244029840245
 21
-129.7388508790236
 72
     1
 10
91.11244029840245
 20
-129.7388508790236
 11
91.31122230790136
 21
-129.7388508790236
 72
     1
 10
91.31122230790136
 20
-129.7388508790236
 11
91.31122230790136
 21
-129.9462456272357
 97
        0
 92
        1
 93
        3
 72
     1
 10
90.45649411801088
 20
-130.1639756619035
 11
91.11244029840245
 21
-130.6214843423446
 72
     1
 10
91.11244029840245
 20
-130.6214843423446
 11
91.11244029840245
 21
-130.1639756619035
 72
     1
 10
91.11244029840245
 20
-130.1639756619035
 11
90.45649411801088
 21
-130.1639756619035
 97
        0
 75
     2
 76
     1
 98
        0
  0
SPLINE
  5
C3
330
AA
100
AcDbEntity
  8
_U+30EC_U+30A4_U+30E4_U+30FC 1
370
     0
100
AcDbSpline
210
0.0
220
0.0
230
1.0
 70
    11
 71
     3
 72
    29
 73
    25
 74
     0
 42
0.0000000001
 43
0.0000000001
 12
1.0
 22
0.0
 32
0.0
 13
1.0
 23
0.0
 33
0.0
 40
0.0
 40
0.0
 40
0.0
 40
0.0
 40
1.0
 40
1.0
 40
1.0
 40
2.0
 40
2.0
 40
2.0
 40
3.0
 40
3.0
 40
3.0
 40
4.0
 40
4.0
 40
4.0
 40
5.0
 40
5.0
 40
5.0
 40
6.0
 40
6.0
 40
6.0
 40
7.0
 40
7.0
 40
7.0
 40
8.0
 40
8.0
 40
8.0
 40
8.0
 10
91.48037649622714
 20
-128.7037719404803
 30
0.0
 10
91.68983830173032
 20
-128.8121201934914
 30
0.0
 10
91.7087863268992
 20
-128.985063986851
 30
0.0
 10
91.7087863268992
 20
-129.1015082142524
 30
0.0
 10
91.7087863268992
 20
-129.2627386829621
 30
0.0
 10
91.66227753784833
 20
-129.4039875978573
 30
0.0
 10
91.48037649622714
 20
-129.4990722332502
 30
0.0
 10
91.28572860131051
 20
-129.6031141169048
 30
0.0
 10
91.04870603192533
 20
-129.6224066516222
 30
0.0
 10
90.88609752502154
 20
-129.6224066516222
 30
0.0
 10
90.74209253373809
 20
-129.6224066516222
 30
0.0
 10
90.49025605376633
 20
-129.6051811741959
 30
0.0
 10
90.29147404426742
 20
-129.4990722332502
 30
0.0
 10
90.0885579201862
 20
-129.3915852541105
 30
0.0
 10
90.0651312708865
 20
-129.2303547854007
 30
0.0
 10
90.0651312708865
 20
-129.1015082142524
 30
0.0
 10
90.0651312708865
 20
-128.9430338219309
 30
0.0
 10
90.10957300264621
 20
-128.7990288306475
 30
0.0
 10
90.29147404426742
 20
-128.7037719404803
 30
0.0
 10
90.48405488189287
 20
-128.6045531905051
 30
0.0
 10
90.71246471256494
 20
-128.5811265412054
 30
0.0
 10
90.88609752502154
 20
-128.5811265412054
 30
0.0
 10
91.05731877063845
 20
-128.5811265412054
 30
0.0
 10
91.28779565860167
 20
-128.602486133214
 30
0.0
 10
91.48037649622714
 20
-128.7037719404803
 30
0.0
  0
SPLINE
  5
C4
330
AA
100
AcDbEntity
  8
_U+30EC_U+30A4_U+30E4_U+30FC 1
370
     0
100
AcDbSpline
210
0.0
220
0.0
230
1.0
 70
    11
 71
     3
 72
    17
 73
    13
 74
     0
 42
0.0000000001
 43
0.0000000001
 12
1.0
 22
0.0
 32
0.0
 13
1.0
 23
0.0
 33
0.0
 40
0.0
 40
0.0
 40
0.0
 40
0.0
 40
1.0
 40
1.0
 40
1.0
 40
2.0
 40
2.0
 40
2.0
 40
3.0
 40
3.0
 40
3.0
 40
4.0
 40
4.0
 40
4.0
 40
4.0
 10
90.25771210851197
 20
-129.1015082142524
 30
0.0
 10
90.25771210851197
 20
-129.3516221464815
 30
0.0
 10
90.54124346694803
 20
-129.3977864259839
 30
0.0
 10
90.88609752502154
 20
-129.3977864259839
 30
0.0
 10
91.2054578765042
 20
-129.3977864259839
 30
0.0
 10
91.51413843198259
 20
-129.3619574329373
 30
0.0
 10
91.51413843198259
 20
-129.1015082142524
 30
0.0
 10
91.51413843198259
 20
-128.8541503584115
 30
0.0
 10
91.23301864038619
 20
-128.8052300025209
 30
0.0
 10
90.88609752502154
 20
-128.8052300025209
 30
0.0
 10
90.56639266399036
 20
-128.8052300025209
 30
0.0
 10
90.25771210851197
 20
-128.8438150719557
 30
0.0
 10
90.25771210851197
 20
-129.1015082142524
 30
0.0
  0
HATCH
  5
C5
330
AA
100
AcDbEntity
  8
_U+30EC_U+30A4_U+30E4_U+30FC 1
 62
   179
420
  2234388
100
AcDbHatch
 10
0.0
 20
0.0
 30
0.0
210
0.0
220
0.0
230
1.0
  2
SOLID
 70
     1
 71
     0
 91
        2
 92
        1
 93
        1
 72
     4
 94
        3
 73
     0
 74
     1
 95
       29
 96
       25
 40
0.0
 40
0.0
 40
0.0
 40
0.0
 40
1.0
 40
1.0
 40
1.0
 40
2.0
 40
2.0
 40
2.0
 40
3.0
 40
3.0
 40
3.0
 40
4.0
 40
4.0
 40
4.0
 40
5.0
 40
5.0
 40
5.0
 40
6.0
 40
6.0
 40
6.0
 40
7.0
 40
7.0
 40
7.0
 40
8.0
 40
8.0
 40
8.0
 40
8.0
 10
91.48037649622714
 20
-128.7037719404803
 10
91.68983830173032
 20
-128.8121201934914
 10
91.7087863268992
 20
-128.985063986851
 10
91.7087863268992
 20
-129.1015082142524
 10
91.7087863268992
 20
-129.2627386829621
 10
91.66227753784833
 20
-129.4039875978573
 10
91.48037649622714
 20
-129.4990722332502
 10
91.28572860131051
 20
-129.6031141169048
 10
91.04870603192533
 20
-129.6224066516222
 10
90.88609752502154
 20
-129.6224066516222
 10
90.74209253373809
 20
-129.6224066516222
 10
90.49025605376633
 20
-129.6051811741959
 10
90.29147404426742
 20
-129.4990722332502
 10
90.0885579201862
 20
-129.3915852541105
 10
90.0651312708865
 20
-129.2303547854007
 10
90.0651312708865
 20
-129.1015082142524
 10
90.0651312708865
 20
-128.9430338219309
 10
90.10957300264621
 20
-128.7990288306475
 10
90.29147404426742
 20
-128.7037719404803
 10
90.48405488189287
 20
-128.6045531905051
 10
90.71246471256494
 20
-128.5811265412054
 10
90.88609752502154
 20
-128.5811265412054
 10
91.05731877063845
 20
-128.5811265412054
 10
91.28779565860167
 20
-128.602486133214
 10
91.48037649622714
 20
-128.7037719404803
 97
        0
 97
        0
 92
        1
 93
        1
 72
     4
 94
        3
 73
     0
 74
     1
 95
       17
 96
       13
 40
0.0
 40
0.0
 40
0.0
 40
0.0
 40
1.0
 40
1.0
 40
1.0
 40
2.0
 40
2.0
 40
2.0
 40
3.0
 40
3.0
 40
3.0
 40
4.0
 40
4.0
 40
4.0
 40
4.0
 10
90.25771210851197
 20
-129.1015082142524
 10
90.25771210851197
 20
-129.3516221464815
 10
90.54124346694803
 20
-129.3977864259839
 10
90.88609752502154
 20
-129.3977864259839
 10
91.2054578765042
 20
-129.3977864259839
 10
91.51413843198259
 20
-129.3619574329373
 10
91.51413843198259
 20
-129.1015082142524
 10
91.51413843198259
 20
-128.8541503584115
 10
91.23301864038619
 20
-128.8052300025209
 10
90.88609752502154
 20
-128.8052300025209
 10
90.56639266399036
 20
-128.8052300025209
 10
90.25771210851197
 20
-128.8438150719557
 10
90.25771210851197
 20
-129.1015082142524
 97
        0
 97
        0
 75
     2
 76
     1
 98
        0
  0
ENDBLK
  5
AD
330
AA
100
AcDbEntity
  8
0
100
AcDbBlockEnd
  0
ENDSEC
  0
SECTION
  2
ENTITIES
  0
SPLINE
  5
41
330
1F
100
AcDbEntity
  8
_U+30EC_U+30A4_U+30E4_U+30FC 1
 62
   179
420
  2234388
370
    25
100
AcDbSpline
210
0.0
220
0.0
230
1.0
 70
    11
 71
     3
 72
   425
 73
   421
 74
     0
 42
0.0000000001
 43
0.0000000001
 12
1.0
 22
0.0
 32
0.0
 13
1.0
 23
0.0
 33
0.0
 40
0.0
 40
0.0
 40
0.0
 40
0.0
 40
1.0
 40
1.0
 40
1.0
 40
2.0
 40
2.0
 40
2.0
 40
3.0
 40
3.0
 40
3.0
 40
4.0
 40
4.0
 40
4.0
 40
5.0
 40
5.0
 40
5.0
 40
6.0
 40
6.0
 40
6.0
 40
7.0
 40
7.0
 40
7.0
 40
8.0
 40
8.0
 40
8.0
 40
9.0
 40
9.0
 40
9.0
 40
10.0
 40
10.0
 40
10.0
 40
11.0
 40
11.0
 40
11.0
 40
12.0
 40
12.0
 40
12.0
 40
13.0
 40
13.0
 40
13.0
 40
14.0
 40
14.0
 40
14.0
 40
15.0
 40
15.0
 40
15.0
 40
16.0
 40
16.0
 40
16.0
 40
17.0
 40
17.0
 40
17.0
 40
18.0
 40
18.0
 40
18.0
 40
19.0
 40
19.0
 40
19.0
 40
20.0
 40
20.0
 40
20.0
 40
21.0
 40
21.0
 40
21.0
 40
22.0
 40
22.0
 40
22.0
 40
23.0
 40
23.0
 40
23.0
 40
24.0
 40
24.0
 40
24.0
 40
25.0
 40
25.0
 40
25.0
 40
26.0
 40
26.0
 40
26.0
 40
27.0
 40
27.0
 40
27.0
 40
28.0
 40
28.0
 40
28.0
 40
29.0
 40
29.0
 40
29.0
 40
30.0
 40
30.0
 40
30.0
 40
31.0
 40
31.0
 40
31.0
 40
32.0
 40
32.0
 40
32.0
 40
33.0
 40
33.0
 40
33.0
 40
34.0
 40
34.0
 40
34.0
 40
35.0
 40
35.0
 40
35.0
 40
36.0
 40
36.0
 40
36.0
 40
37.0
 40
37.0
 40
37.0
 40
38.0
 40
38.0
 40
38.0
 40
39.0
 40
39.0
 40
39.0
 40
40.0
 40
40.0
 40
40.0
 40
41.0
 40
41.0
 40
41.0
 40
42.0
 40
42.0
 40
42.0
 40
43.0
 40
43.0
 40
43.0
 40
44.0
 40
44.0
 40
44.0
 40
45.0
 40
45.0
 40
45.0
 40
46.0
 40
46.0
 40
46.0
 40
47.0
 40
47.0
 40
47.0
 40
48.0
 40
48.0
 40
48.0
 40
49.0
 40
49.0
 40
49.0
 40
50.0
 40
50.0
 40
50.0
 40
51.0
 40
51.0
 40
51.0
 40
52.0
 40
52.0
 40
52.0
 40
53.0
 40
53.0
 40
53.0
 40
54.0
 40
54.0
 40
54.0
 40
55.0
 40
55.0
 40
55.0
 40
56.0
 40
56.0
 40
56.0
 40
57.0
 40
57.0
 40
57.0
 40
58.0
 40
58.0
 40
58.0
 40
59.0
 40
59.0
 40
59.0
 40
60.0
 40
60.0
 40
60.0
 40
61.0
 40
61.0
 40
61.0
 40
62.0
 40
62.0
 40
62.0
 40
63.0
 40
63.0
 40
63.0
 40
64.0
 40
64.0
 40
64.0
 40
65.0
 40
65.0
 40
65.0
 40
66.0
 40
66.0
 40
66.0
 40
67.0
 40
67.0
 40
67.0
 40
68.0
 40
68.0
 40
68.0
 40
69.0
 40
69.0
 40
69.0
 40
70.0
 40
70.0
 40
70.0
 40
71.0
 40
71.0
 40
71.0
 40
72.0
 40
72.0
 40
72.0
 40
73.0
 40
73.0
 40
73.0
 40
74.0
 40
74.0
 40
74.0
 40
75.0
 40
75.0
 40
75.0
 40
76.0
 40
76.0
 40
76.0
 40
77.0
 40
77.0
 40
77.0
 40
78.0
 40
78.0
 40
78.0
 40
79.0
 40
79.0
 40
79.0
 40
80.0
 40
80.0
 40
80.0
 40
81.0
 40
81.0
 40
81.0
 40
82.0
 40
82.0
 40
82.0
 40
83.0
 40
83.0
 40
83.0
 40
84.0
 40
84.0
 40
84.0
 40
85.0
 40
85.0
 40
85.0
 40
86.0
 40
86.0
 40
86.0
 40
87.0
 40
87.0
 40
87.0
 40
88.0
 40
88.0
 40
88.0
 40
89.0
 40
89.0
 40
89.0
 40
90.0
 40
90.0
 40
90.0
 40
91.0
 40
91.0
 40
91.0
 40
92.0
 40
92.0
 40
92.0
 40
93.0
 40
93.0
 40
93.0
 40
94.0
 40
94.0
 40
94.0
 40
95.0
 40
95.0
 40
95.0
 40
96.0
 40
96.0
 40
96.0
 40
97.0
 40
97.0
 40
97.0
 40
98.0
 40
98.0
 40
98.0
 40
99.0
 40
99.0
 40
99.0
 40
100.0
 40
100.0
 40
100.0
 40
101.0
 40
101.0
 40
101.0
 40
102.0
 40
102.0
 40
102.0
 40
103.0
 40
103.0
 40
103.0
 40
104.0
 40
104.0
 40
104.0
 40
105.0
 40
105.0
 40
105.0
 40
106.0
 40
106.0
 40
106.0
 40
107.0
 40
107.0
 40
107.0
 40
108.0
 40
108.0
 40
108.0
 40
109.0
 40
109.0
 40
109.0
 40
110.0
 40
110.0
 40
110.0
 40
111.0
 40
111.0
 40
111.0
 40
112.0
 40
112.0
 40
112.0
 40
113.0
 40
113.0
 40
113.0
 40
114.0
 40
114.0
 40
114.0
 40
115.0
 40
115.0
 40
115.0
 40
116.0
 40
116.0
 40
116.0
 40
117.0
 40
117.0
 40
117.0
 40
118.0
 40
118.0
 40
118.0
 40
119.0
 40
119.0
 40
119.0
 40
120.0
 40
120.0
 40
120.0
 40
121.0
 40
121.0
 40
121.0
 40
122.0
 40
122.0
 40
122.0
 40
123.0
 40
123.0
 40
123.0
 40
124.0
 40
124.0
 40
124.0
 40
125.0
 40
125.0
 40
125.0
 40
126.0
 40
126.0
 40
126.0
 40
127.0
 40
127.0
 40
127.0
 40
128.0
 40
128.0
 40
128.0
 40
129.0
 40
129.0
 40
129.0
 40
130.0
 40
130.0
 40
130.0
 40
131.0
 40
131.0
 40
131.0
 40
132.0
 40
132.0
 40
132.0
 40
133.0
 40
133.0
 40
133.0
 40
134.0
 40
134.0
 40
134.0
 40
135.0
 40
135.0
 40
135.0
 40
136.0
 40
136.0
 40
136.0
 40
137.0
 40
137.0
 40
137.0
 40
138.0
 40
138.0
 40
138.0
 40
139.0
 40
139.0
 40
139.0
 40
140.0
 40
140.0
 40
140.0
 40
140.0
 10
87.52349415597853
 20
-149.5826107959375
 30
0.0
 10
87.52349415597853
 20
-149.5826107959375
 30
0.0
 10
87.13748472138201
 20
-149.5826107959375
 30
0.0
 10
87.13748472138201
 20
-149.5826107959375
 30
0.0
 10
87.13748472138201
 20
-149.5826107959375
 30
0.0
 10
86.38610553395897
 20
-147.7663344075029
 30
0.0
 10
86.38610553395897
 20
-147.7663344075029
 30
0.0
 10
86.38610553395897
 20
-147.7663344075029
 30
0.0
 10
86.38610553395897
 20
-145.5704338524965
 30
0.0
 10
86.38610553395897
 20
-145.5704338524965
 30
0.0
 10
86.38610553395897
 20
-145.5704338524965
 30
0.0
 10
86.84619611770229
 20
-145.5704338524965
 30
0.0
 10
86.84619611770229
 20
-145.5704338524965
 30
0.0
 10
86.84619611770229
 20
-145.5704338524965
 30
0.0
 10
86.58351779107043
 20
-145.3106835747835
 30
0.0
 10
86.58351779107043
 20
-145.3106835747835
 30
0.0
 10
86.58351779107043
 20
-145.3106835747835
 30
0.0
 10
86.84619611770229
 20
-145.0523091304034
 30
0.0
 10
86.84619611770229
 20
-145.0523091304034
 30
0.0
 10
86.84619611770229
 20
-145.0523091304034
 30
0.0
 10
86.58351779107043
 20
-144.7932291304684
 30
0.0
 10
86.58351779107043
 20
-144.7932291304684
 30
0.0
 10
86.58351779107043
 20
-144.7932291304684
 30
0.0
 10
86.84619611770229
 20
-144.5341491305334
 30
0.0
 10
86.84619611770229
 20
-144.5341491305334
 30
0.0
 10
86.84619611770229
 20
-144.5341491305334
 30
0.0
 10
86.58351779107043
 20
-144.2757746861532
 30
0.0
 10
86.58351779107043
 20
-144.2757746861532
 30
0.0
 10
86.58351779107043
 20
-144.2757746861532
 30
0.0
 10
86.84619611770229
 20
-144.0166946862182
 30
0.0
 10
86.84619611770229
 20
-144.0166946862182
 30
0.0
 10
86.84619611770229
 20
-144.0166946862182
 30
0.0
 10
86.58351779107043
 20
-143.7576499640607
 30
0.0
 10
86.58351779107043
 20
-143.7576499640607
 30
0.0
 10
86.58351779107043
 20
-143.7576499640607
 30
0.0
 10
86.84619611770229
 20
-143.4992402419031
 30
0.0
 10
86.84619611770229
 20
-143.4992402419031
 30
0.0
 10
86.84619611770229
 20
-143.4992402419031
 30
0.0
 10
86.58351779107043
 20
-143.240865797523
 30
0.0
 10
86.58351779107043
 20
-143.240865797523
 30
0.0
 10
86.58351779107043
 20
-143.240865797523
 30
0.0
 10
86.84619611770229
 20
-142.9817857975879
 30
0.0
 10
86.84619611770229
 20
-142.9817857975879
 30
0.0
 10
86.84619611770229
 20
-142.9817857975879
 30
0.0
 10
86.58351779107043
 20
-142.7234113532078
 30
0.0
 10
86.58351779107043
 20
-142.7234113532078
 30
0.0
 10
86.58351779107043
 20
-142.7234113532078
 30
0.0
 10
86.84619611770229
 20
-142.4643313532728
 30
0.0
 10
86.84619611770229
 20
-142.4643313532728
 30
0.0
 10
86.84619611770229
 20
-142.4643313532728
 30
0.0
 10
86.58351779107043
 20
-142.2059569088927
 30
0.0
 10
86.58351779107043
 20
-142.2059569088927
 30
0.0
 10
86.58351779107043
 20
-142.2059569088927
 30
0.0
 10
86.84619611770229
 20
-141.9468769089577
 30
0.0
 10
86.84619611770229
 20
-141.9468769089577
 30
0.0
 10
86.84619611770229
 20
-141.9468769089577
 30
0.0
 10
86.58351779107043
 20
-141.6878321868002
 30
0.0
 10
86.58351779107043
 20
-141.6878321868002
 30
0.0
 10
86.58351779107043
 20
-141.6878321868002
 30
0.0
 10
86.84619611770229
 20
-141.4287521868652
 30
0.0
 10
86.84619611770229
 20
-141.4287521868652
 30
0.0
 10
86.84619611770229
 20
-141.4287521868652
 30
0.0
 10
86.58351779107043
 20
-141.1696721869295
 30
0.0
 10
86.58351779107043
 20
-141.1696721869295
 30
0.0
 10
86.58351779107043
 20
-141.1696721869295
 30
0.0
 10
86.84619611770229
 20
-140.9105921869945
 30
0.0
 10
86.84619611770229
 20
-140.9105921869945
 30
0.0
 10
86.84619611770229
 20
-140.9105921869945
 30
0.0
 10
86.58351779107043
 20
-140.6508419092815
 30
0.0
 10
86.58351779107043
 20
-140.6508419092815
 30
0.0
 10
86.58351779107043
 20
-140.6508419092815
 30
0.0
 10
86.84619611770229
 20
-140.3917619093465
 30
0.0
 10
86.84619611770229
 20
-140.3917619093465
 30
0.0
 10
86.84619611770229
 20
-140.3917619093465
 30
0.0
 10
86.58351779107043
 20
-140.132717187189
 30
0.0
 10
86.58351779107043
 20
-140.132717187189
 30
0.0
 10
86.58351779107043
 20
-140.132717187189
 30
0.0
 10
86.84619611770229
 20
-139.8743074650314
 30
0.0
 10
86.84619611770229
 20
-139.8743074650314
 30
0.0
 10
86.84619611770229
 20
-139.8743074650314
 30
0.0
 10
86.58351779107043
 20
-139.6159330206513
 30
0.0
 10
86.58351779107043
 20
-139.6159330206513
 30
0.0
 10
86.58351779107043
 20
-139.6159330206513
 30
0.0
 10
86.84619611770229
 20
-139.3568530207162
 30
0.0
 10
86.84619611770229
 20
-139.3568530207162
 30
0.0
 10
86.84619611770229
 20
-139.3568530207162
 30
0.0
 10
86.58351779107043
 20
-139.0984785763368
 30
0.0
 10
86.58351779107043
 20
-139.0984785763368
 30
0.0
 10
86.58351779107043
 20
-139.0984785763368
 30
0.0
 10
86.84619611770229
 20
-138.8401041319567
 30
0.0
 10
86.84619611770229
 20
-138.8401041319567
 30
0.0
 10
86.84619611770229
 20
-138.8401041319567
 30
0.0
 10
86.58351779107043
 20
-138.5817296875765
 30
0.0
 10
86.58351779107043
 20
-138.5817296875765
 30
0.0
 10
86.58351779107043
 20
-138.5817296875765
 30
0.0
 10
86.84619611770229
 20
-138.323355243197
 30
0.0
 10
86.84619611770229
 20
-138.323355243197
 30
0.0
 10
86.84619611770229
 20
-138.323355243197
 30
0.0
 10
86.58351779107043
 20
-138.0656510765949
 30
0.0
 10
86.58351779107043
 20
-138.0656510765949
 30
0.0
 10
86.58351779107043
 20
-138.0656510765949
 30
0.0
 10
86.84619611770229
 20
-137.8038194099935
 30
0.0
 10
86.84619611770229
 20
-137.8038194099935
 30
0.0
 10
86.84619611770229
 20
-137.8038194099935
 30
0.0
 10
86.58351779107043
 20
-137.5426932989476
 30
0.0
 10
86.58351779107043
 20
-137.5426932989476
 30
0.0
 10
86.58351779107043
 20
-137.5426932989476
 30
0.0
 10
86.84619611770229
 20
-137.2815319101242
 30
0.0
 10
86.84619611770229
 20
-137.2815319101242
 30
0.0
 10
86.84619611770229
 20
-137.2815319101242
 30
0.0
 10
86.58351779107043
 20
-137.0217816324112
 30
0.0
 10
86.58351779107043
 20
-137.0217816324112
 30
0.0
 10
86.58351779107043
 20
-137.0217816324112
 30
0.0
 10
86.84619611770229
 20
-136.7606555213653
 30
0.0
 10
86.84619611770229
 20
-136.7606555213653
 30
0.0
 10
86.84619611770229
 20
-136.7606555213653
 30
0.0
 10
86.58351779107043
 20
-136.5001996880974
 30
0.0
 10
86.58351779107043
 20
-136.5001996880974
 30
0.0
 10
86.58351779107043
 20
-136.5001996880974
 30
0.0
 10
86.84619611770229
 20
-136.2411196881617
 30
0.0
 10
86.84619611770229
 20
-136.2411196881617
 30
0.0
 10
86.84619611770229
 20
-136.2411196881617
 30
0.0
 10
86.58351779107043
 20
-135.9799935771158
 30
0.0
 10
86.58351779107043
 20
-135.9799935771158
 30
0.0
 10
86.58351779107043
 20
-135.9799935771158
 30
0.0
 10
86.84619611770229
 20
-135.7209135771808
 30
0.0
 10
86.84619611770229
 20
-135.7209135771808
 30
0.0
 10
86.84619611770229
 20
-135.7209135771808
 30
0.0
 10
86.58351779107043
 20
-135.4611632994678
 30
0.0
 10
86.58351779107043
 20
-135.4611632994678
 30
0.0
 10
86.58351779107043
 20
-135.4611632994678
 30
0.0
 10
86.84619611770229
 20
-135.2007074661999
 30
0.0
 10
86.84619611770229
 20
-135.2007074661999
 30
0.0
 10
86.84619611770229
 20
-135.2007074661999
 30
0.0
 10
86.58351779107043
 20
-134.9409571884869
 30
0.0
 10
86.58351779107043
 20
-134.9409571884869
 30
0.0
 10
86.58351779107043
 20
-134.9409571884869
 30
0.0
 10
86.84619611770229
 20
-134.680501355219
 30
0.0
 10
86.84619611770229
 20
-134.680501355219
 30
0.0
 10
86.84619611770229
 20
-134.680501355219
 30
0.0
 10
86.58351779107043
 20
-134.420751077506
 30
0.0
 10
86.58351779107043
 20
-134.420751077506
 30
0.0
 10
86.58351779107043
 20
-134.420751077506
 30
0.0
 10
86.84619611770229
 20
-134.1609655220155
 30
0.0
 10
86.84619611770229
 20
-134.1609655220155
 30
0.0
 10
86.84619611770229
 20
-134.1609655220155
 30
0.0
 10
86.58351779107043
 20
-133.900509688747
 30
0.0
 10
86.58351779107043
 20
-133.900509688747
 30
0.0
 10
86.58351779107043
 20
-133.900509688747
 30
0.0
 10
86.84619611770229
 20
-133.6414649665895
 30
0.0
 10
86.84619611770229
 20
-133.6414649665895
 30
0.0
 10
86.84619611770229
 20
-133.6414649665895
 30
0.0
 10
86.58351779107043
 20
-133.3810091333216
 30
0.0
 10
86.58351779107043
 20
-133.3810091333216
 30
0.0
 10
86.58351779107043
 20
-133.3810091333216
 30
0.0
 10
86.84619611770229
 20
-133.1212588556086
 30
0.0
 10
86.84619611770229
 20
-133.1212588556086
 30
0.0
 10
86.84619611770229
 20
-133.1212588556086
 30
0.0
 10
86.58351779107043
 20
-132.8621788556736
 30
0.0
 10
86.58351779107043
 20
-132.8621788556736
 30
0.0
 10
86.58351779107043
 20
-132.8621788556736
 30
0.0
 10
86.84619611770229
 20
-132.6024285779606
 30
0.0
 10
86.84619611770229
 20
-132.6024285779606
 30
0.0
 10
86.84619611770229
 20
-132.6024285779606
 30
0.0
 10
86.58351779107043
 20
-132.34264302247
 30
0.0
 10
86.58351779107043
 20
-132.34264302247
 30
0.0
 10
86.58351779107043
 20
-132.34264302247
 30
0.0
 10
86.84619611770229
 20
-132.082892744757
 30
0.0
 10
86.84619611770229
 20
-132.082892744757
 30
0.0
 10
86.84619611770229
 20
-132.082892744757
 30
0.0
 10
86.58351779107043
 20
-131.823142467044
 30
0.0
 10
86.58351779107043
 20
-131.823142467044
 30
0.0
 10
86.58351779107043
 20
-131.823142467044
 30
0.0
 10
86.84619611770229
 20
-131.564062467109
 30
0.0
 10
86.84619611770229
 20
-131.564062467109
 30
0.0
 10
86.84619611770229
 20
-131.564062467109
 30
0.0
 10
86.58351779107043
 20
-131.304982467174
 30
0.0
 10
86.58351779107043
 20
-131.304982467174
 30
0.0
 10
86.58351779107043
 20
-131.304982467174
 30
0.0
 10
86.84619611770229
 20
-131.0459377450165
 30
0.0
 10
86.84619611770229
 20
-131.0459377450165
 30
0.0
 10
86.84619611770229
 20
-131.0459377450165
 30
0.0
 10
86.58351779107043
 20
-130.7868577450809
 30
0.0
 10
86.58351779107043
 20
-130.7868577450809
 30
0.0
 10
86.58351779107043
 20
-130.7868577450809
 30
0.0
 10
86.84619611770229
 20
-130.5270721895903
 30
0.0
 10
86.84619611770229
 20
-130.5270721895903
 30
0.0
 10
86.84619611770229
 20
-130.5270721895903
 30
0.0
 10
86.58351779107043
 20
-130.2673219118773
 30
0.0
 10
86.58351779107043
 20
-130.2673219118773
 30
0.0
 10
86.58351779107043
 20
-130.2673219118773
 30
0.0
 10
86.84619611770229
 20
-130.0075716341649
 30
0.0
 10
86.84619611770229
 20
-130.0075716341649
 30
0.0
 10
86.84619611770229
 20
-130.0075716341649
 30
0.0
 10
86.58351779107043
 20
-129.7484916342293
 30
0.0
 10
86.58351779107043
 20
-129.7484916342293
 30
0.0
 10
86.58351779107043
 20
-129.7484916342293
 30
0.0
 10
86.84619611770229
 20
-129.4901171898498
 30
0.0
 10
86.84619611770229
 20
-129.4901171898498
 30
0.0
 10
86.84619611770229
 20
-129.4901171898498
 30
0.0
 10
86.58351779107043
 20
-129.2317427454697
 30
0.0
 10
86.58351779107043
 20
-129.2317427454697
 30
0.0
 10
86.58351779107043
 20
-129.2317427454697
 30
0.0
 10
86.84619611770229
 20
-128.9733683010902
 30
0.0
 10
86.84619611770229
 20
-128.9733683010902
 30
0.0
 10
86.84619611770229
 20
-128.9733683010902
 30
0.0
 10
86.58351779107043
 20
-128.7144646900437
 30
0.0
 10
86.58351779107043
 20
-128.7144646900437
 30
0.0
 10
86.58351779107043
 20
-128.7144646900437
 30
0.0
 10
86.84619611770229
 20
-128.4550319123307
 30
0.0
 10
86.84619611770229
 20
-128.4550319123307
 30
0.0
 10
86.84619611770229
 20
-128.4550319123307
 30
0.0
 10
86.58351779107043
 20
-128.1959519123953
 30
0.0
 10
86.58351779107043
 20
-128.1959519123953
 30
0.0
 10
86.58351779107043
 20
-128.1959519123953
 30
0.0
 10
86.84619611770229
 20
-127.9362016346826
 30
0.0
 10
86.84619611770229
 20
-127.9362016346826
 30
0.0
 10
86.84619611770229
 20
-127.9362016346826
 30
0.0
 10
86.58351779107043
 20
-127.6764513569696
 30
0.0
 10
86.58351779107043
 20
-127.6764513569696
 30
0.0
 10
86.58351779107043
 20
-127.6764513569696
 30
0.0
 10
86.84619611770229
 20
-127.4167010792569
 30
0.0
 10
86.84619611770229
 20
-127.4167010792569
 30
0.0
 10
86.84619611770229
 20
-127.4167010792569
 30
0.0
 10
86.58351779107043
 20
-127.1576210793216
 30
0.0
 10
86.58351779107043
 20
-127.1576210793216
 30
0.0
 10
86.58351779107043
 20
-127.1576210793216
 30
0.0
 10
86.84619611770229
 20
-126.8985410793866
 30
0.0
 10
86.84619611770229
 20
-126.8985410793866
 30
0.0
 10
86.84619611770229
 20
-126.8985410793866
 30
0.0
 10
86.58351779107043
 20
-126.6387908016736
 30
0.0
 10
86.58351779107043
 20
-126.6387908016736
 30
0.0
 10
86.58351779107043
 20
-126.6387908016736
 30
0.0
 10
86.84619611770229
 20
-126.3797108017386
 30
0.0
 10
86.84619611770229
 20
-126.3797108017386
 30
0.0
 10
86.84619611770229
 20
-126.3797108017386
 30
0.0
 10
86.58351779107043
 20
-126.1206308018033
 30
0.0
 10
86.58351779107043
 20
-126.1206308018033
 30
0.0
 10
86.58351779107043
 20
-126.1206308018033
 30
0.0
 10
86.84619611770229
 20
-125.8608805240902
 30
0.0
 10
86.84619611770229
 20
-125.8608805240902
 30
0.0
 10
86.84619611770229
 20
-125.8608805240902
 30
0.0
 10
86.58351779107043
 20
-125.6014477463775
 30
0.0
 10
86.58351779107043
 20
-125.6014477463775
 30
0.0
 10
86.58351779107043
 20
-125.6014477463775
 30
0.0
 10
86.84619611770229
 20
-125.3420502464422
 30
0.0
 10
86.84619611770229
 20
-125.3420502464422
 30
0.0
 10
86.84619611770229
 20
-125.3420502464422
 30
0.0
 10
86.58351779107043
 20
-125.0822999687295
 30
0.0
 10
86.58351779107043
 20
-125.0822999687295
 30
0.0
 10
86.58351779107043
 20
-125.0822999687295
 30
0.0
 10
86.84619611770229
 20
-124.8238902465719
 30
0.0
 10
86.84619611770229
 20
-124.8238902465719
 30
0.0
 10
86.84619611770229
 20
-124.8238902465719
 30
0.0
 10
86.58351779107043
 20
-124.5641399688589
 30
0.0
 10
86.58351779107043
 20
-124.5641399688589
 30
0.0
 10
86.58351779107043
 20
-124.5641399688589
 30
0.0
 10
86.84619611770229
 20
-124.3050599689239
 30
0.0
 10
86.84619611770229
 20
-124.3050599689239
 30
0.0
 10
86.84619611770229
 20
-124.3050599689239
 30
0.0
 10
86.58351779107043
 20
-124.0463327467663
 30
0.0
 10
86.58351779107043
 20
-124.0463327467663
 30
0.0
 10
86.58351779107043
 20
-124.0463327467663
 30
0.0
 10
86.84619611770229
 20
-123.7869352468311
 30
0.0
 10
86.84619611770229
 20
-123.7869352468311
 30
0.0
 10
86.84619611770229
 20
-123.7869352468311
 30
0.0
 10
86.58351779107043
 20
-123.527502469118
 30
0.0
 10
86.58351779107043
 20
-123.527502469118
 30
0.0
 10
86.58351779107043
 20
-123.527502469118
 30
0.0
 10
86.84619611770229
 20
-123.268104969183
 30
0.0
 10
86.84619611770229
 20
-123.268104969183
 30
0.0
 10
86.84619611770229
 20
-123.268104969183
 30
0.0
 10
86.58351779107043
 20
-123.00835469147
 30
0.0
 10
86.58351779107043
 20
-123.00835469147
 30
0.0
 10
86.58351779107043
 20
-123.00835469147
 30
0.0
 10
86.84619611770229
 20
-122.749274691535
 30
0.0
 10
86.84619611770229
 20
-122.749274691535
 30
0.0
 10
86.84619611770229
 20
-122.749274691535
 30
0.0
 10
86.58351779107043
 20
-122.4901946915997
 30
0.0
 10
86.58351779107043
 20
-122.4901946915997
 30
0.0
 10
86.58351779107043
 20
-122.4901946915997
 30
0.0
 10
86.84619611770229
 20
-122.2311146916644
 30
0.0
 10
86.84619611770229
 20
-122.2311146916644
 30
0.0
 10
86.84619611770229
 20
-122.2311146916644
 30
0.0
 10
86.58351779107043
 20
-121.9720699695069
 30
0.0
 10
86.58351779107043
 20
-121.9720699695069
 30
0.0
 10
86.58351779107043
 20
-121.9720699695069
 30
0.0
 10
86.84619611770229
 20
-121.7133427473493
 30
0.0
 10
86.84619611770229
 20
-121.7133427473493
 30
0.0
 10
86.84619611770229
 20
-121.7133427473493
 30
0.0
 10
86.58351779107043
 20
-121.4542627474143
 30
0.0
 10
86.58351779107043
 20
-121.4542627474143
 30
0.0
 10
86.58351779107043
 20
-121.4542627474143
 30
0.0
 10
86.84619611770229
 20
-121.1955355252567
 30
0.0
 10
86.84619611770229
 20
-121.1955355252567
 30
0.0
 10
86.84619611770229
 20
-121.1955355252567
 30
0.0
 10
86.58351779107043
 20
-120.9364555253214
 30
0.0
 10
86.58351779107043
 20
-120.9364555253214
 30
0.0
 10
86.58351779107043
 20
-120.9364555253214
 30
0.0
 10
86.84619611770229
 20
-120.6773755253861
 30
0.0
 10
86.84619611770229
 20
-120.6773755253861
 30
0.0
 10
86.84619611770229
 20
-120.6773755253861
 30
0.0
 10
86.58351779107043
 20
-120.4183308032289
 30
0.0
 10
86.58351779107043
 20
-120.4183308032289
 30
0.0
 10
86.58351779107043
 20
-120.4183308032289
 30
0.0
 10
86.84619611770229
 20
-120.1592508032936
 30
0.0
 10
86.84619611770229
 20
-120.1592508032936
 30
0.0
 10
86.84619611770229
 20
-120.1592508032936
 30
0.0
 10
86.58351779107043
 20
-119.8995005255806
 30
0.0
 10
86.58351779107043
 20
-119.8995005255806
 30
0.0
 10
86.58351779107043
 20
-119.8995005255806
 30
0.0
 10
86.84619611770229
 20
-119.6404205256456
 30
0.0
 10
86.84619611770229
 20
-119.6404205256456
 30
0.0
 10
86.84619611770229
 20
-119.6404205256456
 30
0.0
 10
86.58351779107043
 20
-119.3809877479325
 30
0.0
 10
86.58351779107043
 20
-119.3809877479325
 30
0.0
 10
86.58351779107043
 20
-119.3809877479325
 30
0.0
 10
86.84619611770229
 20
-119.121943025775
 30
0.0
 10
86.84619611770229
 20
-119.121943025775
 30
0.0
 10
86.84619611770229
 20
-119.121943025775
 30
0.0
 10
86.58351779107043
 20
-118.8632158036174
 30
0.0
 10
86.58351779107043
 20
-118.8632158036174
 30
0.0
 10
86.58351779107043
 20
-118.8632158036174
 30
0.0
 10
86.84619611770229
 20
-118.6041358036824
 30
0.0
 10
86.84619611770229
 20
-118.6041358036824
 30
0.0
 10
86.84619611770229
 20
-118.6041358036824
 30
0.0
 10
86.58351779107043
 20
-118.3454085815249
 30
0.0
 10
86.58351779107043
 20
-118.3454085815249
 30
0.0
 10
86.58351779107043
 20
-118.3454085815249
 30
0.0
 10
86.84619611770229
 20
-118.0863285815895
 30
0.0
 10
86.84619611770229
 20
-118.0863285815895
 30
0.0
 10
86.84619611770229
 20
-118.0863285815895
 30
0.0
 10
86.58351779107043
 20
-117.827601359432
 30
0.0
 10
86.58351779107043
 20
-117.827601359432
 30
0.0
 10
86.58351779107043
 20
-117.827601359432
 30
0.0
 10
86.84619611770229
 20
-117.5692269150522
 30
0.0
 10
86.84619611770229
 20
-117.5692269150522
 30
0.0
 10
86.84619611770229
 20
-117.5692269150522
 30
0.0
 10
86.58351779107043
 20
-117.3104996928946
 30
0.0
 10
86.58351779107043
 20
-117.3104996928946
 30
0.0
 10
86.58351779107043
 20
-117.3104996928946
 30
0.0
 10
86.84619611770229
 20
-117.051772470737
 30
0.0
 10
86.84619611770229
 20
-117.051772470737
 30
0.0
 10
86.84619611770229
 20
-117.051772470737
 30
0.0
 10
86.58351779107043
 20
-116.7933980263572
 30
0.0
 10
86.58351779107043
 20
-116.7933980263572
 30
0.0
 10
86.58351779107043
 20
-116.7933980263572
 30
0.0
 10
86.84619611770229
 20
-116.5343180264219
 30
0.0
 10
86.84619611770229
 20
-116.5343180264219
 30
0.0
 10
86.84619611770229
 20
-116.5343180264219
 30
0.0
 10
86.58351779107043
 20
-116.2752380264869
 30
0.0
 10
86.58351779107043
 20
-116.2752380264869
 30
0.0
 10
86.58351779107043
 20
-116.2752380264869
 30
0.0
 10
86.84619611770229
 20
-116.0168635821071
 30
0.0
 10
86.84619611770229
 20
-116.0168635821071
 30
0.0
 10
86.84619611770229
 20
-116.0168635821071
 30
0.0
 10
86.58351779107043
 20
-115.7577835821717
 30
0.0
 10
86.58351779107043
 20
-115.7577835821717
 30
0.0
 10
86.58351779107043
 20
-115.7577835821717
 30
0.0
 10
86.84619611770229
 20
-115.4987035822364
 30
0.0
 10
86.84619611770229
 20
-115.4987035822364
 30
0.0
 10
86.84619611770229
 20
-115.4987035822364
 30
0.0
 10
86.58351779107043
 20
-115.2396588600789
 30
0.0
 10
86.58351779107043
 20
-115.2396588600789
 30
0.0
 10
86.58351779107043
 20
-115.2396588600789
 30
0.0
 10
86.84619611770229
 20
-114.9798733045884
 30
0.0
 10
86.84619611770229
 20
-114.9798733045884
 30
0.0
 10
86.84619611770229
 20
-114.9798733045884
 30
0.0
 10
86.58351779107043
 20
-114.7208285824309
 30
0.0
 10
86.58351779107043
 20
-114.7208285824309
 30
0.0
 10
86.58351779107043
 20
-114.7208285824309
 30
0.0
 10
86.84619611770229
 20
-114.4617485824956
 30
0.0
 10
86.84619611770229
 20
-114.4617485824956
 30
0.0
 10
86.84619611770229
 20
-114.4617485824956
 30
0.0
 10
86.58351779107043
 20
-114.2033741381158
 30
0.0
 10
86.58351779107043
 20
-114.2033741381158
 30
0.0
 10
86.58351779107043
 20
-114.2033741381158
 30
0.0
 10
86.84619611770229
 20
-113.9442941381808
 30
0.0
 10
86.84619611770229
 20
-113.9442941381808
 30
0.0
 10
86.84619611770229
 20
-113.9442941381808
 30
0.0
 10
86.58351779107043
 20
-113.6855669160232
 30
0.0
 10
86.58351779107043
 20
-113.6855669160232
 30
0.0
 10
86.58351779107043
 20
-113.6855669160232
 30
0.0
 10
86.84619611770229
 20
-113.4268396938656
 30
0.0
 10
86.84619611770229
 20
-113.4268396938656
 30
0.0
 10
86.84619611770229
 20
-113.4268396938656
 30
0.0
 10
86.58351779107043
 20
-113.1684652494855
 30
0.0
 10
86.58351779107043
 20
-113.1684652494855
 30
0.0
 10
86.58351779107043
 20
-113.1684652494855
 30
0.0
 10
86.84619611770229
 20
-112.9100908051057
 30
0.0
 10
86.84619611770229
 20
-112.9100908051057
 30
0.0
 10
86.84619611770229
 20
-112.9100908051057
 30
0.0
 10
86.58351779107043
 20
-112.6516810829481
 30
0.0
 10
86.58351779107043
 20
-112.6516810829481
 30
0.0
 10
86.58351779107043
 20
-112.6516810829481
 30
0.0
 10
86.84619611770229
 20
-112.3933066385683
 30
0.0
 10
86.84619611770229
 20
-112.3933066385683
 30
0.0
 10
86.84619611770229
 20
-112.3933066385683
 30
0.0
 10
86.58351779107043
 20
-112.1352849719662
 30
0.0
 10
86.58351779107043
 20
-112.1352849719662
 30
0.0
 10
86.58351779107043
 20
-112.1352849719662
 30
0.0
 10
86.84619611770229
 20
-111.8768752498086
 30
0.0
 10
86.84619611770229
 20
-111.8768752498086
 30
0.0
 10
86.84619611770229
 20
-111.8768752498086
 30
0.0
 10
86.38610553395897
 20
-111.8768752498086
 30
0.0
 10
86.38610553395897
 20
-111.8768752498086
 30
0.0
 10
86.38610553395897
 20
-111.8768752498086
 30
0.0
 10
86.38610553395897
 20
-109.7964035836621
 30
0.0
 10
86.38610553395897
 20
-109.7964035836621
 30
0.0
 10
86.38610553395897
 20
-109.7964035836621
 30
0.0
 10
86.60436695720519
 20
-109.7964035836621
 30
0.0
 10
86.60436695720519
 20
-109.7964035836621
 30
0.0
 10
87.32921943871267
 20
-109.7964035836621
 30
0.0
 10
87.91694720149626
 20
-110.384131361293
 30
0.0
 10
87.91694720149626
 20
-111.1089838611117
 30
0.0
 10
87.91694720149626
 20
-111.1089838611117
 30
0.0
 10
87.91694720149626
 20
-149.1891577404805
 30
0.0
 10
87.91694720149626
 20
-149.1891577404805
 30
0.0
 10
87.91694720149626
 20
-149.4068921848707
 30
0.0
 10
87.74055831710743
 20
-149.5826107959375
 30
0.0
 10
87.52349415597853
 20
-149.5826107959375
 30
0.0
  0
HATCH
  5
42
330
1F
100
AcDbEntity
  8
_U+30EC_U+30A4_U+30E4_U+30FC 1
 62
     9
420
 13224394
100
AcDbHatch
 10
0.0
 20
0.0
 30
0.0
210
0.0
220
0.0
230
1.0
  2
SOLID
 70
     1
 71
     0
 91
        1
 92
        1
 93
        1
 72
     4
 94
        3
 73
     0
 74
     1
 95
      425
 96
      421
 40
0.0
 40
0.0
 40
0.0
 40
0.0
 40
1.0
 40
1.0
 40
1.0
 40
2.0
 40
2.0
 40
2.0
 40
3.0
 40
3.0
 40
3.0
 40
4.0
 40
4.0
 40
4.0
 40
5.0
 40
5.0
 40
5.0
 40
6.0
 40
6.0
 40
6.0
 40
7.0
 40
7.0
 40
7.0
 40
8.0
 40
8.0
 40
8.0
 40
9.0
 40
9.0
 40
9.0
 40
10.0
 40
10.0
 40
10.0
 40
11.0
 40
11.0
 40
11.0
 40
12.0
 40
12.0
 40
12.0
 40
13.0
 40
13.0
 40
13.0
 40
14.0
 40
14.0
 40
14.0
 40
15.0
 40
15.0
 40
15.0
 40
16.0
 40
16.0
 40
16.0
 40
17.0
 40
17.0
 40
17.0
 40
18.0
 40
18.0
 40
18.0
 40
19.0
 40
19.0
 40
19.0
 40
20.0
 40
20.0
 40
20.0
 40
21.0
 40
21.0
 40
21.0
 40
22.0
 40
22.0
 40
22.0
 40
23.0
 40
23.0
 40
23.0
 40
24.0
 40
24.0
 40
24.0
 40
25.0
 40
25.0
 40
25.0
 40
26.0
 40
26.0
 40
26.0
 40
27.0
 40
27.0
 40
27.0
 40
28.0
 40
28.0
 40
28.0
 40
29.0
 40
29.0
 40
29.0
 40
30.0
 40
30.0
 40
30.0
 40
31.0
 40
31.0
 40
31.0
 40
32.0
 40
32.0
 40
32.0
 40
33.0
 40
33.0
 40
33.0
 40
34.0
 40
34.0
 40
34.0
 40
35.0
 40
35.0
 40
35.0
 40
36.0
 40
36.0
 40
36.0
 40
37.0
 40
37.0
 40
37.0
 40
38.0
 40
38.0
 40
38.0
 40
39.0
 40
39.0
 40
39.0
 40
40.0
 40
40.0
 40
40.0
 40
41.0
 40
41.0
 40
41.0
 40
42.0
 40
42.0
 40
42.0
 40
43.0
 40
43.0
 40
43.0
 40
44.0
 40
44.0
 40
44.0
 40
45.0
 40
45.0
 40
45.0
 40
46.0
 40
46.0
 40
46.0
 40
47.0
 40
47.0
 40
47.0
 40
48.0
 40
48.0
 40
48.0
 40
49.0
 40
49.0
 40
49.0
 40
50.0
 40
50.0
 40
50.0
 40
51.0
 40
51.0
 40
51.0
 40
52.0
 40
52.0
 40
52.0
 40
53.0
 40
53.0
 40
53.0
 40
54.0
 40
54.0
 40
54.0
 40
55.0
 40
55.0
 40
55.0
 40
56.0
 40
56.0
 40
56.0
 40
57.0
 40
57.0
 40
57.0
 40
58.0
 40
58.0
 40
58.0
 40
59.0
 40
59.0
 40
59.0
 40
60.0
 40
60.0
 40
60.0
 40
61.0
 40
61.0
 40
61.0
 40
62.0
 40
62.0
 40
62.0
 40
63.0
 40
63.0
 40
63.0
 40
64.0
 40
64.0
 40
64.0
 40
65.0
 40
65.0
 40
65.0
 40
66.0
 40
66.0
 40
66.0
 40
67.0
 40
67.0
 40
67.0
 40
68.0
 40
68.0
 40
68.0
 40
69.0
 40
69.0
 40
69.0
 40
70.0
 40
70.0
 40
70.0
 40
71.0
 40
71.0
 40
71.0
 40
72.0
 40
72.0
 40
72.0
 40
73.0
 40
73.0
 40
73.0
 40
74.0
 40
74.0
 40
74.0
 40
75.0
 40
75.0
 40
75.0
 40
76.0
 40
76.0
 40
76.0
 40
77.0
 40
77.0
 40
77.0
 40
78.0
 40
78.0
 40
78.0
 40
79.0
 40
79.0
 40
79.0
 40
80.0
 40
80.0
 40
80.0
 40
81.0
 40
81.0
 40
81.0
 40
82.0
 40
82.0
 40
82.0
 40
83.0
 40
83.0
 40
83.0
 40
84.0
 40
84.0
 40
84.0
 40
85.0
 40
85.0
 40
85.0
 40
86.0
 40
86.0
 40
86.0
 40
87.0
 40
87.0
 40
87.0
 40
88.0
 40
88.0
 40
88.0
 40
89.0
 40
89.0
 40
89.0
 40
90.0
 40
90.0
 40
90.0
 40
91.0
 40
91.0
 40
91.0
 40
92.0
 40
92.0
 40
92.0
 40
93.0
 40
93.0
 40
93.0
 40
94.0
 40
94.0
 40
94.0
 40
95.0
 40
95.0
 40
95.0
 40
96.0
 40
96.0
 40
96.0
 40
97.0
 40
97.0
 40
97.0
 40
98.0
 40
98.0
 40
98.0
 40
99.0
 40
99.0
 40
99.0
 40
100.0
 40
100.0
 40
100.0
 40
101.0
 40
101.0
 40
101.0
 40
102.0
 40
102.0
 40
102.0
 40
103.0
 40
103.0
 40
103.0
 40
104.0
 40
104.0
 40
104.0
 40
105.0
 40
105.0
 40
105.0
 40
106.0
 40
106.0
 40
106.0
 40
107.0
 40
107.0
 40
107.0
 40
108.0
 40
108.0
 40
108.0
 40
109.0
 40
109.0
 40
109.0
 40
110.0
 40
110.0
 40
110.0
 40
111.0
 40
111.0
 40
111.0
 40
112.0
 40
112.0
 40
112.0
 40
113.0
 40
113.0
 40
113.0
 40
114.0
 40
114.0
 40
114.0
 40
115.0
 40
115.0
 40
115.0
 40
116.0
 40
116.0
 40
116.0
 40
117.0
 40
117.0
 40
117.0
 40
118.0
 40
118.0
 40
118.0
 40
119.0
 40
119.0
 40
119.0
 40
120.0
 40
120.0
 40
120.0
 40
121.0
 40
121.0
 40
121.0
 40
122.0
 40
122.0
 40
122.0
 40
123.0
 40
123.0
 40
123.0
 40
124.0
 40
124.0
 40
124.0
 40
125.0
 40
125.0
 40
125.0
 40
126.0
 40
126.0
 40
126.0
 40
127.0
 40
127.0
 40
127.0
 40
128.0
 40
128.0
 40
128.0
 40
129.0
 40
129.0
 40
129.0
 40
130.0
 40
130.0
 40
130.0
 40
131.0
 40
131.0
 40
131.0
 40
132.0
 40
132.0
 40
132.0
 40
133.0
 40
133.0
 40
133.0
 40
134.0
 40
134.0
 40
134.0
 40
135.0
 40
135.0
 40
135.0
 40
136.0
 40
136.0
 40
136.0
 40
137.0
 40
137.0
 40
137.0
 40
138.0
 40
138.0
 40
138.0
 40
139.0
 40
139.0
 40
139.0
 40
140.0
 40
140.0
 40
140.0
 40
140.0
 10
87.52349415597853
 20
-149.5826107959375
 10
87.52349415597853
 20
-149.5826107959375
 10
87.13748472138201
 20
-149.5826107959375
 10
87.13748472138201
 20
-149.5826107959375
 10
87.13748472138201
 20
-149.5826107959375
 10
86.38610553395897
 20
-147.7663344075029
 10
86.38610553395897
 20
-147.7663344075029
 10
86.38610553395897
 20
-147.7663344075029
 10
86.38610553395897
 20
-145.5704338524965
 10
86.38610553395897
 20
-145.5704338524965
 10
86.38610553395897
 20
-145.5704338524965
 10
86.84619611770229
 20
-145.5704338524965
 10
86.84619611770229
 20
-145.5704338524965
 10
86.84619611770229
 20
-145.5704338524965
 10
86.58351779107043
 20
-145.3106835747835
 10
86.58351779107043
 20
-145.3106835747835
 10
86.58351779107043
 20
-145.3106835747835
 10
86.84619611770229
 20
-145.0523091304034
 10
86.84619611770229
 20
-145.0523091304034
 10
86.84619611770229
 20
-145.0523091304034
 10
86.58351779107043
 20
-144.7932291304684
 10
86.58351779107043
 20
-144.7932291304684
 10
86.58351779107043
 20
-144.7932291304684
 10
86.84619611770229
 20
-144.5341491305334
 10
86.84619611770229
 20
-144.5341491305334
 10
86.84619611770229
 20
-144.5341491305334
 10
86.58351779107043
 20
-144.2757746861532
 10
86.58351779107043
 20
-144.2757746861532
 10
86.58351779107043
 20
-144.2757746861532
 10
86.84619611770229
 20
-144.0166946862182
 10
86.84619611770229
 20
-144.0166946862182
 10
86.84619611770229
 20
-144.0166946862182
 10
86.58351779107043
 20
-143.7576499640607
 10
86.58351779107043
 20
-143.7576499640607
 10
86.58351779107043
 20
-143.7576499640607
 10
86.84619611770229
 20
-143.4992402419031
 10
86.84619611770229
 20
-143.4992402419031
 10
86.84619611770229
 20
-143.4992402419031
 10
86.58351779107043
 20
-143.240865797523
 10
86.58351779107043
 20
-143.240865797523
 10
86.58351779107043
 20
-143.240865797523
 10
86.84619611770229
 20
-142.9817857975879
 10
86.84619611770229
 20
-142.9817857975879
 10
86.84619611770229
 20
-142.9817857975879
 10
86.58351779107043
 20
-142.7234113532078
 10
86.58351779107043
 20
-142.7234113532078
 10
86.58351779107043
 20
-142.7234113532078
 10
86.84619611770229
 20
-142.4643313532728
 10
86.84619611770229
 20
-142.4643313532728
 10
86.84619611770229
 20
-142.4643313532728
 10
86.58351779107043
 20
-142.2059569088927
 10
86.58351779107043
 20
-142.2059569088927
 10
86.58351779107043
 20
-142.2059569088927
 10
86.84619611770229
 20
-141.9468769089577
 10
86.84619611770229
 20
-141.9468769089577
 10
86.84619611770229
 20
-141.9468769089577
 10
86.58351779107043
 20
-141.6878321868002
 10
86.58351779107043
 20
-141.6878321868002
 10
86.58351779107043
 20
-141.6878321868002
 10
86.84619611770229
 20
-141.4287521868652
 10
86.84619611770229
 20
-141.4287521868652
 10
86.84619611770229
 20
-141.4287521868652
 10
86.58351779107043
 20
-141.1696721869295
 10
86.58351779107043
 20
-141.1696721869295
 10
86.58351779107043
 20
-141.1696721869295
 10
86.84619611770229
 20
-140.9105921869945
 10
86.84619611770229
 20
-140.9105921869945
 10
86.84619611770229
 20
-140.9105921869945
 10
86.58351779107043
 20
-140.6508419092815
 10
86.58351779107043
 20
-140.6508419092815
 10
86.58351779107043
 20
-140.6508419092815
 10
86.84619611770229
 20
-140.3917619093465
 10
86.84619611770229
 20
-140.3917619093465
 10
86.84619611770229
 20
-140.3917619093465
 10
86.58351779107043
 20
-140.132717187189
 10
86.58351779107043
 20
-140.132717187189
 10
86.58351779107043
 20
-140.132717187189
 10
86.84619611770229
 20
-139.8743074650314
 10
86.84619611770229
 20
-139.8743074650314
 10
86.84619611770229
 20
-139.8743074650314
 10
86.58351779107043
 20
-139.6159330206513
 10
86.58351779107043
 20
-139.6159330206513
 10
86.58351779107043
 20
-139.6159330206513
 10
86.84619611770229
 20
-139.3568530207162
 10
86.84619611770229
 20
-139.3568530207162
 10
86.84619611770229
 20
-139.3568530207162
 10
86.58351779107043
 20
-139.0984785763368
 10
86.58351779107043
 20
-139.0984785763368
 10
86.58351779107043
 20
-139.0984785763368
 10
86.84619611770229
 20
-138.8401041319567
 10
86.84619611770229
 20
-138.8401041319567
 10
86.84619611770229
 20
-138.8401041319567
 10
86.58351779107043
 20
-138.5817296875765
 10
86.58351779107043
 20
-138.5817296875765
 10
86.58351779107043
 20
-138.5817296875765
 10
86.84619611770229
 20
-138.323355243197
 10
86.84619611770229
 20
-138.323355243197
 10
86.84619611770229
 20
-138.323355243197
 10
86.58351779107043
 20
-138.0656510765949
 10
86.58351779107043
 20
-138.0656510765949
 10
86.58351779107043
 20
-138.0656510765949
 10
86.84619611770229
 20
-137.8038194099935
 10
86.84619611770229
 20
-137.8038194099935
 10
86.84619611770229
 20
-137.8038194099935
 10
86.58351779107043
 20
-137.5426932989476
 10
86.58351779107043
 20
-137.5426932989476
 10
86.58351779107043
 20
-137.5426932989476
 10
86.84619611770229
 20
-137.2815319101242
 10
86.84619611770229
 20
-137.2815319101242
 10
86.84619611770229
 20
-137.2815319101242
 10
86.58351779107043
 20
-137.0217816324112
 10
86.58351779107043
 20
-137.0217816324112
 10
86.58351779107043
 20
-137.0217816324112
 10
86.84619611770229
 20
-136.7606555213653
 10
86.84619611770229
 20
-136.7606555213653
 10
86.84619611770229
 20
-136.7606555213653
 10
86.58351779107043
 20
-136.5001996880974
 10
86.58351779107043
 20
-136.5001996880974
 10
86.58351779107043
 20
-136.5001996880974
 10
86.84619611770229
 20
-136.2411196881617
 10
86.84619611770229
 20
-136.2411196881617
 10
86.84619611770229
 20
-136.2411196881617
 10
86.58351779107043
 20
-135.9799935771158
 10
86.58351779107043
 20
-135.9799935771158
 10
86.58351779107043
 20
-135.9799935771158
 10
86.84619611770229
 20
-135.7209135771808
 10
86.84619611770229
 20
-135.7209135771808
 10
86.84619611770229
 20
-135.7209135771808
 10
86.58351779107043
 20
-135.4611632994678
 10
86.58351779107043
 20
-135.4611632994678
 10
86.58351779107043
 20
-135.4611632994678
 10
86.84619611770229
 20
-135.2007074661999
 10
86.84619611770229
 20
-135.2007074661999
 10
86.84619611770229
 20
-135.2007074661999
 10
86.58351779107043
 20
-134.9409571884869
 10
86.58351779107043
 20
-134.9409571884869
 10
86.58351779107043
 20
-134.9409571884869
 10
86.84619611770229
 20
-134.680501355219
 10
86.84619611770229
 20
-134.680501355219
 10
86.84619611770229
 20
-134.680501355219
 10
86.58351779107043
 20
-134.420751077506
 10
86.58351779107043
 20
-134.420751077506
 10
86.58351779107043
 20
-134.420751077506
 10
86.84619611770229
 20
-134.1609655220155
 10
86.84619611770229
 20
-134.1609655220155
 10
86.84619611770229
 20
-134.1609655220155
 10
86.58351779107043
 20
-133.900509688747
 10
86.58351779107043
 20
-133.900509688747
 10
86.58351779107043
 20
-133.900509688747
 10
86.84619611770229
 20
-133.6414649665895
 10
86.84619611770229
 20
-133.6414649665895
 10
86.84619611770229
 20
-133.6414649665895
 10
86.58351779107043
 20
-133.3810091333216
 10
86.58351779107043
 20
-133.3810091333216
 10
86.58351779107043
 20
-133.3810091333216
 10
86.84619611770229
 20
-133.1212588556086
 10
86.84619611770229
 20
-133.1212588556086
 10
86.84619611770229
 20
-133.1212588556086
 10
86.58351779107043
 20
-132.8621788556736
 10
86.58351779107043
 20
-132.8621788556736
 10
86.58351779107043
 20
-132.8621788556736
 10
86.84619611770229
 20
-132.6024285779606
 10
86.84619611770229
 20
-132.6024285779606
 10
86.84619611770229
 20
-132.6024285779606
 10
86.58351779107043
 20
-132.34264302247
 10
86.58351779107043
 20
-132.34264302247
 10
86.58351779107043
 20
-132.34264302247
 10
86.84619611770229
 20
-132.082892744757
 10
86.84619611770229
 20
-132.082892744757
 10
86.84619611770229
 20
-132.082892744757
 10
86.58351779107043
 20
-131.823142467044
 10
86.58351779107043
 20
-131.823142467044
 10
86.58351779107043
 20
-131.823142467044
 10
86.84619611770229
 20
-131.564062467109
 10
86.84619611770229
 20
-131.564062467109
 10
86.84619611770229
 20
-131.564062467109
 10
86.58351779107043
 20
-131.304982467174
 10
86.58351779107043
 20
-131.304982467174
 10
86.58351779107043
 20
-131.304982467174
 10
86.84619611770229
 20
-131.0459377450165
 10
86.84619611770229
 20
-131.0459377450165
 10
86.84619611770229
 20
-131.0459377450165
 10
86.58351779107043
 20
-130.7868577450809
 10
86.58351779107043
 20
-130.7868577450809
 10
86.58351779107043
 20
-130.7868577450809
 10
86.84619611770229
 20
-130.5270721895903
 10
86.84619611770229
 20
-130.5270721895903
 10
86.84619611770229
 20
-130.5270721895903
 10
86.58351779107043
 20
-130.2673219118773
 10
86.58351779107043
 20
-130.2673219118773
 10
86.58351779107043
 20
-130.2673219118773
 10
86.84619611770229
 20
-130.0075716341649
 10
86.84619611770229
 20
-130.0075716341649
 10
86.84619611770229
 20
-130.0075716341649
 10
86.58351779107043
 20
-129.7484916342293
 10
86.58351779107043
 20
-129.7484916342293
 10
86.58351779107043
 20
-129.7484916342293
 10
86.84619611770229
 20
-129.4901171898498
 10
86.84619611770229
 20
-129.4901171898498
 10
86.84619611770229
 20
-129.4901171898498
 10
86.58351779107043
 20
-129.2317427454697
 10
86.58351779107043
 20
-129.2317427454697
 10
86.58351779107043
 20
-129.2317427454697
 10
86.84619611770229
 20
-128.9733683010902
 10
86.84619611770229
 20
-128.9733683010902
 10
86.84619611770229
 20
-128.9733683010902
 10
86.58351779107043
 20
-128.7144646900437
 10
86.58351779107043
 20
-128.7144646900437
 10
86.58351779107043
 20
-128.7144646900437
 10
86.84619611770229
 20
-128.4550319123307
 10
86.84619611770229
 20
-128.4550319123307
 10
86.84619611770229
 20
-128.4550319123307
 10
86.58351779107043
 20
-128.1959519123953
 10
86.58351779107043
 20
-128.1959519123953
 10
86.58351779107043
 20
-128.1959519123953
 10
86.84619611770229
 20
-127.9362016346826
 10
86.84619611770229
 20
-127.9362016346826
 10
86.84619611770229
 20
-127.9362016346826
 10
86.58351779107043
 20
-127.6764513569696
 10
86.58351779107043
 20
-127.6764513569696
 10
86.58351779107043
 20
-127.6764513569696
 10
86.84619611770229
 20
-127.4167010792569
 10
86.84619611770229
 20
-127.4167010792569
 10
86.84619611770229
 20
-127.4167010792569
 10
86.58351779107043
 20
-127.1576210793216
 10
86.58351779107043
 20
-127.1576210793216
 10
86.58351779107043
 20
-127.1576210793216
 10
86.84619611770229
 20
-126.8985410793866
 10
86.84619611770229
 20
-126.8985410793866
 10
86.84619611770229
 20
-126.8985410793866
 10
86.58351779107043
 20
-126.6387908016736
 10
86.58351779107043
 20
-126.6387908016736
 10
86.58351779107043
 20
-126.6387908016736
 10
86.84619611770229
 20
-126.3797108017386
 10
86.84619611770229
 20
-126.3797108017386
 10
86.84619611770229
 20
-126.3797108017386
 10
86.58351779107043
 20
-126.1206308018033
 10
86.58351779107043
 20
-126.1206308018033
 10
86.58351779107043
 20
-126.1206308018033
 10
86.84619611770229
 20
-125.8608805240902
 10
86.84619611770229
 20
-125.8608805240902
 10
86.84619611770229
 20
-125.8608805240902
 10
86.58351779107043
 20
-125.6014477463775
 10
86.58351779107043
 20
-125.6014477463775
 10
86.58351779107043
 20
-125.6014477463775
 10
86.84619611770229
 20
-125.3420502464422
 10
86.84619611770229
 20
-125.3420502464422
 10
86.84619611770229
 20
-125.3420502464422
 10
86.58351779107043
 20
-125.0822999687295
 10
86.58351779107043
 20
-125.0822999687295
 10
86.58351779107043
 20
-125.0822999687295
 10
86.84619611770229
 20
-124.8238902465719
 10
86.84619611770229
 20
-124.8238902465719
 10
86.84619611770229
 20
-124.8238902465719
 10
86.58351779107043
 20
-124.5641399688589
 10
86.58351779107043
 20
-124.5641399688589
 10
86.58351779107043
 20
-124.5641399688589
 10
86.84619611770229
 20
-124.3050599689239
 10
86.84619611770229
 20
-124.3050599689239
 10
86.84619611770229
 20
-124.3050599689239
 10
86.58351779107043
 20
-124.0463327467663
 10
86.58351779107043
 20
-124.0463327467663
 10
86.58351779107043
 20
-124.0463327467663
 10
86.84619611770229
 20
-123.7869352468311
 10
86.84619611770229
 20
-123.7869352468311
 10
86.84619611770229
 20
-123.7869352468311
 10
86.58351779107043
 20
-123.527502469118
 10
86.58351779107043
 20
-123.527502469118
 10
86.58351779107043
 20
-123.527502469118
 10
86.84619611770229
 20
-123.268104969183
 10
86.84619611770229
 20
-123.268104969183
 10
86.84619611770229
 20
-123.268104969183
 10
86.58351779107043
 20
-123.00835469147
 10
86.58351779107043
 20
-123.00835469147
 10
86.58351779107043
 20
-123.00835469147
 10
86.84619611770229
 20
-122.749274691535
 10
86.84619611770229
 20
-122.749274691535
 10
86.84619611770229
 20
-122.749274691535
 10
86.58351779107043
 20
-122.4901946915997
 10
86.58351779107043
 20
-122.4901946915997
 10
86.58351779107043
 20
-122.4901946915997
 10
86.84619611770229
 20
-122.2311146916644
 10
86.84619611770229
 20
-122.2311146916644
 10
86.84619611770229
 20
-122.2311146916644
 10
86.58351779107043
 20
-121.9720699695069
 10
86.58351779107043
 20
-121.9720699695069
 10
86.58351779107043
 20
-121.9720699695069
 10
86.84619611770229
 20
-121.7133427473493
 10
86.84619611770229
 20
-121.7133427473493
 10
86.84619611770229
 20
-121.7133427473493
 10
86.58351779107043
 20
-121.4542627474143
 10
86.58351779107043
 20
-121.4542627474143
 10
86.58351779107043
 20
-121.4542627474143
 10
86.84619611770229
 20
-121.1955355252567
 10
86.84619611770229
 20
-121.1955355252567
 10
86.84619611770229
 20
-121.1955355252567
 10
86.58351779107043
 20
-120.9364555253214
 10
86.58351779107043
 20
-120.9364555253214
 10
86.58351779107043
 20
-120.9364555253214
 10
86.84619611770229
 20
-120.6773755253861
 10
86.84619611770229
 20
-120.6773755253861
 10
86.84619611770229
 20
-120.6773755253861
 10
86.58351779107043
 20
-120.4183308032289
 10
86.58351779107043
 20
-120.4183308032289
 10
86.58351779107043
 20
-120.4183308032289
 10
86.84619611770229
 20
-120.1592508032936
 10
86.84619611770229
 20
-120.1592508032936
 10
86.84619611770229
 20
-120.1592508032936
 10
86.58351779107043
 20
-119.8995005255806
 10
86.58351779107043
 20
-119.8995005255806
 10
86.58351779107043
 20
-119.8995005255806
 10
86.84619611770229
 20
-119.6404205256456
 10
86.84619611770229
 20
-119.6404205256456
 10
86.84619611770229
 20
-119.6404205256456
 10
86.58351779107043
 20
-119.3809877479325
 10
86.58351779107043
 20
-119.3809877479325
 10
86.58351779107043
 20
-119.3809877479325
 10
86.84619611770229
 20
-119.121943025775
 10
86.84619611770229
 20
-119.121943025775
 10
86.84619611770229
 20
-119.121943025775
 10
86.58351779107043
 20
-118.8632158036174
 10
86.58351779107043
 20
-118.8632158036174
 10
86.58351779107043
 20
-118.8632158036174
 10
86.84619611770229
 20
-118.6041358036824
 10
86.84619611770229
 20
-118.6041358036824
 10
86.84619611770229
 20
-118.6041358036824
 10
86.58351779107043
 20
-118.3454085815249
 10
86.58351779107043
 20
-118.3454085815249
 10
86.58351779107043
 20
-118.3454085815249
 10
86.84619611770229
 20
-118.0863285815895
 10
86.84619611770229
 20
-118.0863285815895
 10
86.84619611770229
 20
-118.0863285815895
 10
86.58351779107043
 20
-117.827601359432
 10
86.58351779107043
 20
-117.827601359432
 10
86.58351779107043
 20
-117.827601359432
 10
86.84619611770229
 20
-117.5692269150522
 10
86.84619611770229
 20
-117.5692269150522
 10
86.84619611770229
 20
-117.5692269150522
 10
86.58351779107043
 20
-117.3104996928946
 10
86.58351779107043
 20
-117.3104996928946
 10
86.58351779107043
 20
-117.3104996928946
 10
86.84619611770229
 20
-117.051772470737
 10
86.84619611770229
 20
-117.051772470737
 10
86.84619611770229
 20
-117.051772470737
 10
86.58351779107043
 20
-116.7933980263572
 10
86.58351779107043
 20
-116.7933980263572
 10
86.58351779107043
 20
-116.7933980263572
 10
86.84619611770229
 20
-116.5343180264219
 10
86.84619611770229
 20
-116.5343180264219
 10
86.84619611770229
 20
-116.5343180264219
 10
86.58351779107043
 20
-116.2752380264869
 10
86.58351779107043
 20
-116.2752380264869
 10
86.58351779107043
 20
-116.2752380264869
 10
86.84619611770229
 20
-116.0168635821071
 10
86.84619611770229
 20
-116.0168635821071
 10
86.84619611770229
 20
-116.0168635821071
 10
86.58351779107043
 20
-115.7577835821717
 10
86.58351779107043
 20
-115.7577835821717
 10
86.58351779107043
 20
-115.7577835821717
 10
86.84619611770229
 20
-115.4987035822364
 10
86.84619611770229
 20
-115.4987035822364
 10
86.84619611770229
 20
-115.4987035822364
 10
86.58351779107043
 20
-115.2396588600789
 10
86.58351779107043
 20
-115.2396588600789
 10
86.58351779107043
 20
-115.2396588600789
 10
86.84619611770229
 20
-114.9798733045884
 10
86.84619611770229
 20
-114.9798733045884
 10
86.84619611770229
 20
-114.9798733045884
 10
86.58351779107043
 20
-114.7208285824309
 10
86.58351779107043
 20
-114.7208285824309
 10
86.58351779107043
 20
-114.7208285824309
 10
86.84619611770229
 20
-114.4617485824956
 10
86.84619611770229
 20
-114.4617485824956
 10
86.84619611770229
 20
-114.4617485824956
 10
86.58351779107043
 20
-114.2033741381158
 10
86.58351779107043
 20
-114.2033741381158
 10
86.58351779107043
 20
-114.2033741381158
 10
86.84619611770229
 20
-113.9442941381808
 10
86.84619611770229
 20
-113.9442941381808
 10
86.84619611770229
 20
-113.9442941381808
 10
86.58351779107043
 20
-113.6855669160232
 10
86.58351779107043
 20
-113.6855669160232
 10
86.58351779107043
 20
-113.6855669160232
 10
86.84619611770229
 20
-113.4268396938656
 10
86.84619611770229
 20
-113.4268396938656
 10
86.84619611770229
 20
-113.4268396938656
 10
86.58351779107043
 20
-113.1684652494855
 10
86.58351779107043
 20
-113.1684652494855
 10
86.58351779107043
 20
-113.1684652494855
 10
86.84619611770229
 20
-112.9100908051057
 10
86.84619611770229
 20
-112.9100908051057
 10
86.84619611770229
 20
-112.9100908051057
 10
86.58351779107043
 20
-112.6516810829481
 10
86.58351779107043
 20
-112.6516810829481
 10
86.58351779107043
 20
-112.6516810829481
 10
86.84619611770229
 20
-112.3933066385683
 10
86.84619611770229
 20
-112.3933066385683
 10
86.84619611770229
 20
-112.3933066385683
 10
86.58351779107043
 20
-112.1352849719662
 10
86.58351779107043
 20
-112.1352849719662
 10
86.58351779107043
 20
-112.1352849719662
 10
86.84619611770229
 20
-111.8768752498086
 10
86.84619611770229
 20
-111.8768752498086
 10
86.84619611770229
 20
-111.8768752498086
 10
86.38610553395897
 20
-111.8768752498086
 10
86.38610553395897
 20
-111.8768752498086
 10
86.38610553395897
 20
-111.8768752498086
 10
86.38610553395897
 20
-109.7964035836621
 10
86.38610553395897
 20
-109.7964035836621
 10
86.38610553395897
 20
-109.7964035836621
 10
86.60436695720519
 20
-109.7964035836621
 10
86.60436695720519
 20
-109.7964035836621
 10
87.32921943871267
 20
-109.7964035836621
 10
87.91694720149626
 20
-110.384131361293
 10
87.91694720149626
 20
-111.1089838611117
 10
87.91694720149626
 20
-111.1089838611117
 10
87.91694720149626
 20
-149.1891577404805
 10
87.91694720149626
 20
-149.1891577404805
 10
87.91694720149626
 20
-149.4068921848707
 10
87.74055831710743
 20
-149.5826107959375
 10
87.52349415597853
 20
-149.5826107959375
 97
        0
 97
        0
 75
     2
 76
     1
 98
        0
  0
POLYLINE
  5
43
330
1F
100
AcDbEntity
  8
_U+30EC_U+30A4_U+30E4_U+30FC 1
 62
   179
420
  2234388
370
     9
100
AcDb2dPolyline
 66
     1
 10
0.0
 20
0.0
 30
0.0
  0
VERTEX
  5
44
330
43
100
AcDbEntity
  8
_U+30EC_U+30A4_U+30E4_U+30FC 1
 62
   179
420
  2234388
370
     9
100
AcDbVertex
100
AcDb2dVertex
 10
90.9141824028082
 20
-106.9664202510363
 30
0.0
  0
VERTEX
  5
45
330
43
100
AcDbEntity
  8
_U+30EC_U+30A4_U+30E4_U+30FC 1
 62
   179
420
  2234388
370
     9
100
AcDbVertex
100
AcDb2dVertex
 10
87.87489609145796
 20
-110.000873583611
 30
0.0
  0
SEQEND
  5
46
330
43
100
AcDbEntity
  8
_U+30EC_U+30A4_U+30E4_U+30FC 1
 62
   179
420
  2234388
370
     9
  0
POLYLINE
  5
47
330
1F
100
AcDbEntity
  8
_U+30EC_U+30A4_U+30E4_U+30FC 1
 62
   179
420
  2234388
370
     9
100
AcDb2dPolyline
 66
     1
 10
0.0
 20
0.0
 30
0.0
  0
VERTEX
  5
48
330
47
100
AcDbEntity
  8
_U+30EC_U+30A4_U+30E4_U+30FC 1
 62
   179
420
  2234388
370
     9
100
AcDbVertex
100
AcDb2dVertex
 10
88.91428523160761
 20
-109.4007280282053
 30
0.0
  0
VERTEX
  5
49
330
47
100
AcDbEntity
  8
_U+30EC_U+30A4_U+30E4_U+30FC 1
 62
   179
420
  2234388
370
     9
100
AcDbVertex
100
AcDb2dVertex
 10
87.87489609145796
 20
-110.000873583611
 30
0.0
  0
SEQEND
  5
4A
330
47
100
AcDbEntity
  8
_U+30EC_U+30A4_U+30E4_U+30FC 1
 62
   179
420
  2234388
370
     9
  0
POLYLINE
  5
4B
330
1F
100
AcDbEntity
  8
_U+30EC_U+30A4_U+30E4_U+30FC 1
 62
   179
420
  2234388
370
     9
100
AcDb2dPolyline
 66
     1
 10
0.0
 20
0.0
 30
0.0
  0
VERTEX
  5
4C
330
4B
100
AcDbEntity
  8
_U+30EC_U+30A4_U+30E4_U+30FC 1
 62
   179
420
  2234388
370
     9
100
AcDbVertex
100
AcDb2dVertex
 10
88.47504163170252
 20
-108.9618371949817
 30
0.0
  0
VERTEX
  5
4D
330
4B
100
AcDbEntity
  8
_U+30EC_U+30A4_U+30E4_U+30FC 1
 62
   179
420
  2234388
370
     9
100
AcDbVertex
100
AcDb2dVertex
 10
87.87489609145796
 20
-110.000873583611
 30
0.0
  0
SEQEND
  5
4E
330
4B
100
AcDbEntity
  8
_U+30EC_U+30A4_U+30E4_U+30FC 1
 62
   179
420
  2234388
370
     9
  0
POLYLINE
  5
4F
330
1F
100
AcDbEntity
  8
_U+30EC_U+30A4_U+30E4_U+30FC 1
 62
   179
420
  2234388
370
     9
100
AcDb2dPolyline
 66
     1
 10
0.0
 20
0.0
 30
0.0
  0
VERTEX
  5
50
330
4F
100
AcDbEntity
  8
_U+30EC_U+30A4_U+30E4_U+30FC 1
 62
   179
420
  2234388
370
     9
100
AcDbVertex
100
AcDb2dVertex
 10
89.04728245043678
 20
-149.5826107959375
 30
0.0
  0
VERTEX
  5
51
330
4F
100
AcDbEntity
  8
_U+30EC_U+30A4_U+30E4_U+30FC 1
 62
   179
420
  2234388
370
     9
100
AcDbVertex
100
AcDb2dVertex
 10
93.67558566569227
 20
-149.5826107959375
 30
0.0
  0
SEQEND
  5
52
330
4F
100
AcDbEntity
  8
_U+30EC_U+30A4_U+30E4_U+30FC 1
 62
   179
420
  2234388
370
     9
  0
POLYLINE
  5
53
330
1F
100
AcDbEntity
  8
_U+30EC_U+30A4_U+30E4_U+30FC 1
 62
   179
420
  2234388
370
     9
100
AcDb2dPolyline
 66
     1
 10
0.0
 20
0.0
 30
0.0
  0
VERTEX
  5
54
330
53
100
AcDbEntity
  8
_U+30EC_U+30A4_U+30E4_U+30FC 1
 62
   179
420
  2234388
370
     9
100
AcDbVertex
100
AcDb2dVertex
 10
89.04728245043678
 20
-109.7964035836621
 30
0.0
  0
VERTEX
  5
55
330
53
100
AcDbEntity
  8
_U+30EC_U+30A4_U+30E4_U+30FC 1
 62
   179
420
  2234388
370
     9
100
AcDbVertex
100
AcDb2dVertex
 10
93.67558566569227
 20
-109.7964035836621
 30
0.0
  0
SEQEND
  5
56
330
53
100
AcDbEntity
  8
_U+30EC_U+30A4_U+30E4_U+30FC 1
 62
   179
420
  2234388
370
     9
  0
POLYLINE
  5
57
330
1F
100
AcDbEntity
  8
_U+30EC_U+30A4_U+30E4_U+30FC 1
 62
   179
420
  2234388
370
     9
100
AcDb2dPolyline
 66
     1
 10
0.0
 20
0.0
 30
0.0
  0
VERTEX
  5
58
330
57
100
AcDbEntity
  8
_U+30EC_U+30A4_U+30E4_U+30FC 1
 62
   179
420
  2234388
370
     9
100
AcDbVertex
100
AcDb2dVertex
 10
86.43813807255715
 20
-105.6807216402465
 30
0.0
  0
VERTEX
  5
59
330
57
100
AcDbEntity
  8
_U+30EC_U+30A4_U+30E4_U+30FC 1
 62
   179
420
  2234388
370
     9
100
AcDbVertex
100
AcDb2dVertex
 10
87.96929942238286
 20
-105.6807216402465
 30
0.0
  0
SEQEND
  5
5A
330
57
100
AcDbEntity
  8
_U+30EC_U+30A4_U+30E4_U+30FC 1
 62
   179
420
  2234388
370
     9
  0
INSERT
  5
5C
330
1F
100
AcDbEntity
  8
_U+30EC_U+30A4_U+30E4_U+30FC 1
100
AcDbBlockReference
  2
block 2
 10
0.0
 20
0.0
 30
0.0
  0
POLYLINE
  5
6E
330
1F
100
AcDbEntity
  8
_U+30EC_U+30A4_U+30E4_U+30FC 1
 62
   179
420
  2234388
370
     9
100
AcDb2dPolyline
 66
     1
 10
0.0
 20
0.0
 30
0.0
  0
VERTEX
  5
6F
330
6E
100
AcDbEntity
  8
_U+30EC_U+30A4_U+30E4_U+30FC 1
 62
   179
420
  2234388
370
     9
100
AcDbVertex
100
AcDb2dVertex
 10
90.9141824028082
 20
-152.9519207950955
 30
0.0
  0
VERTEX
  5
70
330
6E
100
AcDbEntity
  8
_U+30EC_U+30A4_U+30E4_U+30FC 1
 62
   179
420
  2234388
370
     9
100
AcDbVertex
100
AcDb2dVertex
 10
87.87489609145796
 20
-149.9174674625208
 30
0.0
  0
SEQEND
  5
71
330
6E
100
AcDbEntity
  8
_U+30EC_U+30A4_U+30E4_U+30FC 1
 62
   179
420
  2234388
370
     9
  0
POLYLINE
  5
72
330
1F
100
AcDbEntity
  8
_U+30EC_U+30A4_U+30E4_U+30FC 1
 62
   179
420
  2234388
370
     9
100
AcDb2dPolyline
 66
     1
 10
0.0
 20
0.0
 30
0.0
  0
VERTEX
  5
73
330
72
100
AcDbEntity
  8
_U+30EC_U+30A4_U+30E4_U+30FC 1
 62
   179
420
  2234388
370
     9
100
AcDbVertex
100
AcDb2dVertex
 10
88.91428523160761
 20
-150.5176130179262
 30
0.0
  0
VERTEX
  5
74
330
72
100
AcDbEntity
  8
_U+30EC_U+30A4_U+30E4_U+30FC 1
 62
   179
420
  2234388
370
     9
100
AcDbVertex
100
AcDb2dVertex
 10
87.87489609145796
 20
-149.9174674625208
 30
0.0
  0
SEQEND
  5
75
330
72
100
AcDbEntity
  8
_U+30EC_U+30A4_U+30E4_U+30FC 1
 62
   179
420
  2234388
370
     9
  0
POLYLINE
  5
76
330
1F
100
AcDbEntity
  8
_U+30EC_U+30A4_U+30E4_U+30FC 1
 62
   179
420
  2234388
370
     9
100
AcDb2dPolyline
 66
     1
 10
0.0
 20
0.0
 30
0.0
  0
VERTEX
  5
77
330
76
100
AcDbEntity
  8
_U+30EC_U+30A4_U+30E4_U+30FC 1
 62
   179
420
  2234388
370
     9
100
AcDbVertex
100
AcDb2dVertex
 10
88.47504163170252
 20
-150.9565038511497
 30
0.0
  0
VERTEX
  5
78
330
76
100
AcDbEntity
  8
_U+30EC_U+30A4_U+30E4_U+30FC 1
 62
   179
420
  2234388
370
     9
100
AcDbVertex
100
AcDb2dVertex
 10
87.87489609145796
 20
-149.9174674625208
 30
0.0
  0
SEQEND
  5
79
330
76
100
AcDbEntity
  8
_U+30EC_U+30A4_U+30E4_U+30FC 1
 62
   179
420
  2234388
370
     9
  0
INSERT
  5
7B
330
1F
100
AcDbEntity
  8
_U+30EC_U+30A4_U+30E4_U+30FC 1
100
AcDbBlockReference
  2
block 3
 10
0.0
 20
0.0
 30
0.0
  0
INSERT
  5
8F
330
1F
100
AcDbEntity
  8
_U+30EC_U+30A4_U+30E4_U+30FC 1
100
AcDbBlockReference
  2
block 4
 10
0.0
 20
0.0
 30
0.0
  0
POLYLINE
  5
9E
330
1F
100
AcDbEntity
  8
_U+30EC_U+30A4_U+30E4_U+30FC 1
 62
   179
420
  2234388
370
     9
100
AcDb2dPolyline
 66
     1
 10
0.0
 20
0.0
 30
0.0
  0
VERTEX
  5
9F
330
9E
100
AcDbEntity
  8
_U+30EC_U+30A4_U+30E4_U+30FC 1
 62
   179
420
  2234388
370
     9
100
AcDbVertex
100
AcDb2dVertex
 10
86.43813807255715
 20
-104.4423658072227
 30
0.0
  0
VERTEX
  5
A0
330
9E
100
AcDbEntity
  8
_U+30EC_U+30A4_U+30E4_U+30FC 1
 62
   179
420
  2234388
370
     9
100
AcDbVertex
100
AcDb2dVertex
 10
86.43813807255715
 20
-108.8679630283386
 30
0.0
  0
SEQEND
  5
A1
330
9E
100
AcDbEntity
  8
_U+30EC_U+30A4_U+30E4_U+30FC 1
 62
   179
420
  2234388
370
     9
  0
POLYLINE
  5
A2
330
1F
100
AcDbEntity
  8
_U+30EC_U+30A4_U+30E4_U+30FC 1
 62
   179
420
  2234388
370
     9
100
AcDb2dPolyline
 66
     1
 10
0.0
 20
0.0
 30
0.0
  0
VERTEX
  5
A3
330
A2
100
AcDbEntity
  8
_U+30EC_U+30A4_U+30E4_U+30FC 1
 62
   179
420
  2234388
370
     9
100
AcDbVertex
100
AcDb2dVertex
 10
87.96929942238286
 20
-104.4423658072227
 30
0.0
  0
VERTEX
  5
A4
330
A2
100
AcDbEntity
  8
_U+30EC_U+30A4_U+30E4_U+30FC 1
 62
   179
420
  2234388
370
     9
100
AcDbVertex
100
AcDb2dVertex
 10
87.96929942238286
 20
-108.8679630283386
 30
0.0
  0
SEQEND
  5
A5
330
A2
100
AcDbEntity
  8
_U+30EC_U+30A4_U+30E4_U+30FC 1
 62
   179
420
  2234388
370
     9
  0
POLYLINE
  5
A6
330
1F
100
AcDbEntity
  8
_U+30EC_U+30A4_U+30E4_U+30FC 1
 62
   179
420
  2234388
370
     9
100
AcDb2dPolyline
 66
     1
 10
0.0
 20
0.0
 30
0.0
  0
VERTEX
  5
A7
330
A6
100
AcDbEntity
  8
_U+30EC_U+30A4_U+30E4_U+30FC 1
 62
   179
420
  2234388
370
     9
100
AcDbVertex
100
AcDb2dVertex
 10
92.08462848405874
 20
-109.7964035836621
 30
0.0
  0
VERTEX
  5
A8
330
A6
100
AcDbEntity
  8
_U+30EC_U+30A4_U+30E4_U+30FC 1
 62
   179
420
  2234388
370
     9
100
AcDbVertex
100
AcDb2dVertex
 10
92.08462848405874
 20
-149.5826107959375
 30
0.0
  0
SEQEND
  5
A9
330
A6
100
AcDbEntity
  8
_U+30EC_U+30A4_U+30E4_U+30FC 1
 62
   179
420
  2234388
370
     9
  0
INSERT
  5
AB
330
1F
100
AcDbEntity
  8
_U+30EC_U+30A4_U+30E4_U+30FC 1
100
AcDbBlockReference
  2
block 5
 10
0.0
 20
0.0
 30
0.0
  0
SPLINE
  5
C6
330
1F
100
AcDbEntity
  8
_U+30EC_U+30A4_U+30E4_U+30FC 1
370
     0
100
AcDbSpline
210
0.0
220
0.0
230
1.0
 70
    11
 71
     3
 72
    17
 73
    13
 74
     0
 42
0.0000000001
 43
0.0000000001
 12
1.0
 22
0.0
 32
0.0
 13
1.0
 23
0.0
 33
0.0
 40
0.0
 40
0.0
 40
0.0
 40
0.0
 40
1.0
 40
1.0
 40
1.0
 40
2.0
 40
2.0
 40
2.0
 40
3.0
 40
3.0
 40
3.0
 40
4.0
 40
4.0
 40
4.0
 40
4.0
 10
86.5881744576183
 20
-105.6805452513576
 30
0.0
 10
86.5881744576183
 20
-105.763553862448
 30
0.0
 10
86.52097029266615
 20
-105.8307580290978
 30
0.0
 10
86.43813807255715
 20
-105.8307580290978
 30
0.0
 10
86.35527057467128
 20
-105.8307580290978
 30
0.0
 10
86.28810168749601
 20
-105.763553862448
 30
0.0
 10
86.28810168749601
 20
-105.6805452513576
 30
0.0
 10
86.28810168749601
 20
-105.5978541402674
 30
0.0
 10
86.35527057467128
 20
-105.5306852513951
 30
0.0
 10
86.43813807255715
 20
-105.5306852513951
 30
0.0
 10
86.52097029266615
 20
-105.5306852513951
 30
0.0
 10
86.5881744576183
 20
-105.5978541402674
 30
0.0
 10
86.5881744576183
 20
-105.6805452513576
 30
0.0
  0
HATCH
  5
C7
330
1F
100
AcDbEntity
  8
_U+30EC_U+30A4_U+30E4_U+30FC 1
 62
   179
420
  2234388
100
AcDbHatch
 10
0.0
 20
0.0
 30
0.0
210
0.0
220
0.0
230
1.0
  2
SOLID
 70
     1
 71
     0
 91
        1
 92
        1
 93
        1
 72
     4
 94
        3
 73
     0
 74
     1
 95
       17
 96
       13
 40
0.0
 40
0.0
 40
0.0
 40
0.0
 40
1.0
 40
1.0
 40
1.0
 40
2.0
 40
2.0
 40
2.0
 40
3.0
 40
3.0
 40
3.0
 40
4.0
 40
4.0
 40
4.0
 40
4.0
 10
86.5881744576183
 20
-105.6805452513576
 10
86.5881744576183
 20
-105.763553862448
 10
86.52097029266615
 20
-105.8307580290978
 10
86.43813807255715
 20
-105.8307580290978
 10
86.35527057467128
 20
-105.8307580290978
 10
86.28810168749601
 20
-105.763553862448
 10
86.28810168749601
 20
-105.6805452513576
 10
86.28810168749601
 20
-105.5978541402674
 10
86.35527057467128
 20
-105.5306852513951
 10
86.43813807255715
 20
-105.5306852513951
 10
86.52097029266615
 20
-105.5306852513951
 10
86.5881744576183
 20
-105.5978541402674
 10
86.5881744576183
 20
-105.6805452513576
 97
        0
 97
        0
 75
     2
 76
     1
 98
        0
  0
SPLINE
  5
C8
330
1F
100
AcDbEntity
  8
_U+30EC_U+30A4_U+30E4_U+30FC 1
370
     0
100
AcDbSpline
210
0.0
220
0.0
230
1.0
 70
    11
 71
     3
 72
    17
 73
    13
 74
     0
 42
0.0000000001
 43
0.0000000001
 12
1.0
 22
0.0
 32
0.0
 13
1.0
 23
0.0
 33
0.0
 40
0.0
 40
0.0
 40
0.0
 40
0.0
 40
1.0
 40
1.0
 40
1.0
 40
2.0
 40
2.0
 40
2.0
 40
3.0
 40
3.0
 40
3.0
 40
4.0
 40
4.0
 40
4.0
 40
4.0
 10
88.11915941855962
 20
-105.6805452513576
 30
0.0
 10
88.11915941855962
 20
-105.763553862448
 30
0.0
 10
88.05199053138435
 20
-105.8307580290978
 30
0.0
 10
87.96929942238286
 20
-105.8307580290978
 30
0.0
 10
87.88629081338948
 20
-105.8307580290978
 30
0.0
 10
87.81908886693401
 20
-105.763553862448
 30
0.0
 10
87.81908886693401
 20
-105.6805452513576
 30
0.0
 10
87.81908886693401
 20
-105.5978541402674
 30
0.0
 10
87.88629081338948
 20
-105.5306852513951
 30
0.0
 10
87.96929942238286
 20
-105.5306852513951
 30
0.0
 10
88.05199053138435
 20
-105.5306852513951
 30
0.0
 10
88.11915941855962
 20
-105.5978541402674
 30
0.0
 10
88.11915941855962
 20
-105.6805452513576
 30
0.0
  0
HATCH
  5
C9
330
1F
100
AcDbEntity
  8
_U+30EC_U+30A4_U+30E4_U+30FC 1
 62
   179
420
  2234388
100
AcDbHatch
 10
0.0
 20
0.0
 30
0.0
210
0.0
220
0.0
230
1.0
  2
SOLID
 70
     1
 71
     0
 91
        1
 92
        1
 93
        1
 72
     4
 94
        3
 73
     0
 74
     1
 95
       17
 96
       13
 40
0.0
 40
0.0
 40
0.0
 40
0.0
 40
1.0
 40
1.0
 40
1.0
 40
2.0
 40
2.0
 40
2.0
 40
3.0
 40
3.0
 40
3.0
 40
4.0
 40
4.0
 40
4.0
 40
4.0
 10
88.11915941855962
 20
-105.6805452513576
 10
88.11915941855962
 20
-105.763553862448
 10
88.05199053138435
 20
-105.8307580290978
 10
87.96929942238286
 20
-105.8307580290978
 10
87.88629081338948
 20
-105.8307580290978
 10
87.81908886693401
 20
-105.763553862448
 10
87.81908886693401
 20
-105.6805452513576
 10
87.81908886693401
 20
-105.5978541402674
 10
87.88629081338948
 20
-105.5306852513951
 10
87.96929942238286
 20
-105.5306852513951
 10
88.05199053138435
 20
-105.5306852513951
 10
88.11915941855962
 20
-105.5978541402674
 10
88.11915941855962
 20
-105.6805452513576
 97
        0
 97
        0
 75
     2
 76
     1
 98
        0
  0
SPLINE
  5
CA
330
1F
100
AcDbEntity
  8
_U+30EC_U+30A4_U+30E4_U+30FC 1
370
     0
100
AcDbSpline
210
0.0
220
0.0
230
1.0
 70
    11
 71
     3
 72
    17
 73
    13
 74
     0
 42
0.0000000001
 43
0.0000000001
 12
1.0
 22
0.0
 32
0.0
 13
1.0
 23
0.0
 33
0.0
 40
0.0
 40
0.0
 40
0.0
 40
0.0
 40
1.0
 40
1.0
 40
1.0
 40
2.0
 40
2.0
 40
2.0
 40
3.0
 40
3.0
 40
3.0
 40
4.0
 40
4.0
 40
4.0
 40
4.0
 10
92.23484125800427
 20
-109.7962271947732
 30
0.0
 10
92.23484125800427
 20
-109.8792710836412
 30
0.0
 10
92.16802514859778
 20
-109.9464399725134
 30
0.0
 10
92.08462848405874
 20
-109.9464399725134
 30
0.0
 10
92.00197497699939
 20
-109.9464399725134
 30
0.0
 10
91.93512126565076
 20
-109.8792710836412
 30
0.0
 10
91.93512126565076
 20
-109.7962271947732
 30
0.0
 10
91.93512126565076
 20
-109.7135360836827
 30
0.0
 10
92.00197497699939
 20
-109.6463671948107
 30
0.0
 10
92.08462848405874
 20
-109.6463671948107
 30
0.0
 10
92.16802514859778
 20
-109.6463671948107
 30
0.0
 10
92.23484125800427
 20
-109.7135360836827
 30
0.0
 10
92.23484125800427
 20
-109.7962271947732
 30
0.0
  0
HATCH
  5
CB
330
1F
100
AcDbEntity
  8
_U+30EC_U+30A4_U+30E4_U+30FC 1
 62
   179
420
  2234388
100
AcDbHatch
 10
0.0
 20
0.0
 30
0.0
210
0.0
220
0.0
230
1.0
  2
SOLID
 70
     1
 71
     0
 91
        1
 92
        1
 93
        1
 72
     4
 94
        3
 73
     0
 74
     1
 95
       17
 96
       13
 40
0.0
 40
0.0
 40
0.0
 40
0.0
 40
1.0
 40
1.0
 40
1.0
 40
2.0
 40
2.0
 40
2.0
 40
3.0
 40
3.0
 40
3.0
 40
4.0
 40
4.0
 40
4.0
 40
4.0
 10
92.23484125800427
 20
-109.7962271947732
 10
92.23484125800427
 20
-109.8792710836412
 10
92.16802514859778
 20
-109.9464399725134
 10
92.08462848405874
 20
-109.9464399725134
 10
92.00197497699939
 20
-109.9464399725134
 10
91.93512126565076
 20
-109.8792710836412
 10
91.93512126565076
 20
-109.7962271947732
 10
91.93512126565076
 20
-109.7135360836827
 10
92.00197497699939
 20
-109.6463671948107
 10
92.08462848405874
 20
-109.6463671948107
 10
92.16802514859778
 20
-109.6463671948107
 10
92.23484125800427
 20
-109.7135360836827
 10
92.23484125800427
 20
-109.7962271947732
 97
        0
 97
        0
 75
     2
 76
     1
 98
        0
  0
SPLINE
  5
CC
330
1F
100
AcDbEntity
  8
_U+30EC_U+30A4_U+30E4_U+30FC 1
370
     0
100
AcDbSpline
210
0.0
220
0.0
230
1.0
 70
    11
 71
     3
 72
    17
 73
    13
 74
     0
 42
0.0000000001
 43
0.0000000001
 12
1.0
 22
0.0
 32
0.0
 13
1.0
 23
0.0
 33
0.0
 40
0.0
 40
0.0
 40
0.0
 40
0.0
 40
1.0
 40
1.0
 40
1.0
 40
2.0
 40
2.0
 40
2.0
 40
3.0
 40
3.0
 40
3.0
 40
4.0
 40
4.0
 40
4.0
 40
4.0
 10
92.23484125800427
 20
-149.5826107959375
 30
0.0
 10
92.23484125800427
 20
-149.6659721848057
 30
0.0
 10
92.16802514859778
 20
-149.732823573678
 30
0.0
 10
92.08462848405874
 20
-149.732823573678
 30
0.0
 10
92.00197497699939
 20
-149.732823573678
 30
0.0
 10
91.93512126565076
 20
-149.6659721848057
 30
0.0
 10
91.93512126565076
 20
-149.5826107959375
 30
0.0
 10
91.93512126565076
 20
-149.4999196848473
 30
0.0
 10
92.00197497699939
 20
-149.433068295975
 30
0.0
 10
92.08462848405874
 20
-149.433068295975
 30
0.0
 10
92.16802514859778
 20
-149.433068295975
 30
0.0
 10
92.23484125800427
 20
-149.4999196848473
 30
0.0
 10
92.23484125800427
 20
-149.5826107959375
 30
0.0
  0
HATCH
  5
CD
330
1F
100
AcDbEntity
  8
_U+30EC_U+30A4_U+30E4_U+30FC 1
 62
   179
420
  2234388
100
AcDbHatch
 10
0.0
 20
0.0
 30
0.0
210
0.0
220
0.0
230
1.0
  2
SOLID
 70
     1
 71
     0
 91
        1
 92
        1
 93
        1
 72
     4
 94
        3
 73
     0
 74
     1
 95
       17
 96
       13
 40
0.0
 40
0.0
 40
0.0
 40
0.0
 40
1.0
 40
1.0
 40
1.0
 40
2.0
 40
2.0
 40
2.0
 40
3.0
 40
3.0
 40
3.0
 40
4.0
 40
4.0
 40
4.0
 40
4.0
 10
92.23484125800427
 20
-149.5826107959375
 10
92.23484125800427
 20
-149.6659721848057
 10
92.16802514859778
 20
-149.732823573678
 10
92.08462848405874
 20
-149.732823573678
 10
92.00197497699939
 20
-149.732823573678
 10
91.93512126565076
 20
-149.6659721848057
 10
91.93512126565076
 20
-149.5826107959375
 10
91.93512126565076
 20
-149.4999196848473
 10
92.00197497699939
 20
-149.433068295975
 10
92.08462848405874
 20
-149.433068295975
 10
92.16802514859778
 20
-149.433068295975
 10
92.23484125800427
 20
-149.4999196848473
 10
92.23484125800427
 20
-149.5826107959375
 97
        0
 97
        0
 75
     2
 76
     1
 98
        0
  0
ENDSEC
  0
SECTION
  2
OBJECTS
  0
DICTIONARY
  5
C
330
0
100
AcDbDictionary
281
     1
  3
ACAD_GROUP
350
D
  3
ACAD_LAYOUT
350
1A
  3
ACAD_MATERIAL
350
3B
  3
ACAD_MLEADERSTYLE
350
CF
  3
ACAD_MLINESTYLE
350
17
  3
ACAD_PLOTSETTINGS
350
19
  3
ACAD_PLOTSTYLENAME
350
E
  3
ACAD_TABLESTYLE
350
CE
  3
ACAD_VISUALSTYLE
350
2A
  0
SUN
  5
3F
330
29
100
AcDbSun
 90
        1
290
     0
 63
     7
421
 16777215
 40
1.0
291
     1
 91
  2455826
 92
 54000000
292
     0
 70
     2
 71
   256
280
     1
  0
DICTIONARY
  5
D
102
{ACAD_REACTORS
330
C
102
}
330
C
100
AcDbDictionary
281
     1
  0
DICTIONARY
  5
1A
102
{ACAD_REACTORS
330
C
102
}
330
C
100
AcDbDictionary
281
     1
  3
Layout1
350
1E
  3
Layout2
350
26
  3
Model
350
22
  0
DICTIONARY
  5
3B
102
{ACAD_REACTORS
330
C
102
}
330
C
100
AcDbDictionary
281
     1
  3
ByBlock
350
3D
  3
ByLayer
350
3C
  3
Global
350
3E
  0
DICTIONARY
  5
CF
102
{ACAD_REACTORS
330
C
102
}
330
C
100
AcDbDictionary
281
     1
  0
DICTIONARY
  5
17
102
{ACAD_REACTORS
330
C
102
}
330
C
100
AcDbDictionary
281
     1
  3
Standard
350
18
  0
DICTIONARY
  5
19
102
{ACAD_REACTORS
330
C
102
}
330
C
100
AcDbDictionary
281
     1
  0
ACDBDICTIONARYWDFLT
  5
E
102
{ACAD_REACTORS
330
C
102
}
330
C
100
AcDbDictionary
281
     1
  3
Normal
350
F
100
AcDbDictionaryWithDefault
340
F
  0
DICTIONARY
  5
CE
102
{ACAD_REACTORS
330
C
102
}
330
C
100
AcDbDictionary
281
     1
  0
DICTIONARY
  5
2A
102
{ACAD_REACTORS
330
C
102
}
330
C
100
AcDbDictionary
281
     1
  3
2dWireframe
350
2F
  3
3D Hidden
350
31
  3
3dWireframe
350
30
  3
Basic
350
32
  3
Brighten
350
36
  3
ColorChange
350
3A
  3
Conceptual
350
34
  3
Dim
350
35
  3
Facepattern
350
39
  3
Flat
350
2B
  3
FlatWithEdges
350
2C
  3
Gouraud
350
2D
  3
GouraudWithEdges
350
2E
  3
Linepattern
350
38
  3
Realistic
350
33
  3
Thicken
350
37
  0
LAYOUT
  5
1E
102
{ACAD_REACTORS
330
1A
102
}
330
1A
100
AcDbPlotSettings
  1

  2
none_device
  4

  6

 40
0.0
 41
0.0
 42
0.0
 43
0.0
 44
0.0
 45
0.0
 46
0.0
 47
0.0
 48
0.0
 49
0.0
140
0.0
141
0.0
142
1.0
143
1.0
 70
   688
 72
     0
 73
     0
 74
     5
  7

 75
    16
 76
     0
 77
     2
 78
   300
147
1.0
148
0.0
149
0.0
100
AcDbLayout
  1
Layout1
 70
     1
 71
     1
 10
0.0
 20
0.0
 11
12.0
 21
9.0
 12
0.0
 22
0.0
 32
0.0
 14
1.000000000000000E+20
 24
1.000000000000000E+20
 34
1.000000000000000E+20
 15
-1.000000000000000E+20
 25
-1.000000000000000E+20
 35
-1.000000000000000E+20
146
0.0
 13
0.0
 23
0.0
 33
0.0
 16
1.0
 26
0.0
 36
0.0
 17
0.0
 27
1.0
 37
0.0
 76
     0
330
1B
  0
LAYOUT
  5
26
102
{ACAD_REACTORS
330
1A
102
}
330
1A
100
AcDbPlotSettings
  1

  2
none_device
  4

  6

 40
0.0
 41
0.0
 42
0.0
 43
0.0
 44
0.0
 45
0.0
 46
0.0
 47
0.0
 48
0.0
 49
0.0
140
0.0
141
0.0
142
1.0
143
1.0
 70
   688
 72
     0
 73
     0
 74
     5
  7

 75
    16
 76
     0
 77
     2
 78
   300
147
1.0
148
0.0
149
0.0
100
AcDbLayout
  1
Layout2
 70
     1
 71
     2
 10
0.0
 20
0.0
 11
0.0
 21
0.0
 12
0.0
 22
0.0
 32
0.0
 14
0.0
 24
0.0
 34
0.0
 15
0.0
 25
0.0
 35
0.0
146
0.0
 13
0.0
 23
0.0
 33
0.0
 16
1.0
 26
0.0
 36
0.0
 17
0.0
 27
1.0
 37
0.0
 76
     0
330
23
  0
LAYOUT
  5
22
102
{ACAD_REACTORS
330
1A
102
}
330
1A
100
AcDbPlotSettings
  1

  2
none_device
  4

  6

 40
0.0
 41
0.0
 42
0.0
 43
0.0
 44
0.0
 45
0.0
 46
0.0
 47
0.0
 48
0.0
 49
0.0
140
0.0
141
0.0
142
1.0
143
1.0
 70
  1712
 72
     0
 73
     0
 74
     0
  7

 75
     0
 76
     0
 77
     2
 78
   300
147
1.0
148
0.0
149
0.0
100
AcDbLayout
  1
Model
 70
     1
 71
     0
 10
0.0
 20
0.0
 11
12.0
 21
9.0
 12
0.0
 22
0.0
 32
0.0
 14
1.000000000000000E+20
 24
1.000000000000000E+20
 34
1.000000000000000E+20
 15
-1.000000000000000E+20
 25
-1.000000000000000E+20
 35
-1.000000000000000E+20
146
0.0
 13
0.0
 23
0.0
 33
0.0
 16
1.0
 26
0.0
 36
0.0
 17
0.0
 27
1.0
 37
0.0
 76
     0
330
1F
331
29
  0
MATERIAL
  5
3D
102
{ACAD_REACTORS
330
3B
102
}
330
3B
100
AcDbMaterial
  1
ByBlock
 72
     1
 94
      127
  0
MATERIAL
  5
3C
102
{ACAD_REACTORS
330
3B
102
}
330
3B
100
AcDbMaterial
  1
ByLayer
 72
     1
 94
      127
  0
MATERIAL
  5
3E
102
{ACAD_REACTORS
330
3B
102
}
330
3B
100
AcDbMaterial
  1
Global
 72
     1
 94
      127
  0
MLINESTYLE
  5
18
102
{ACAD_REACTORS
330
17
102
}
330
17
100
AcDbMlineStyle
  2
Standard
 70
     0
  3

 62
   256
 51
90.0
 52
90.0
 71
     2
 49
0.5
 62
   256
  6
BYLAYER
 49
-0.5
 62
   256
  6
BYLAYER
  0
ACDBPLACEHOLDER
  5
F
102
{ACAD_REACTORS
330
E
102
}
330
E
  0
VISUALSTYLE
  5
2F
102
{ACAD_REACTORS
330
2A
102
}
330
2A
100
AcDbVisualStyle
  2
2dWireframe
 70
     4
177
     2
291
     0
 71
     0
176
     1
 72
     2
176
     1
 73
     0
176
     1
 90
        0
176
     1
 40
-0.6
176
     1
 41
-30.0
176
     1
 62
     5
 63
     7
421
 16777215
176
     1
 74
     1
176
     1
 91
        4
176
     1
 64
     7
176
     1
 65
   257
176
     1
 75
     1
176
     1
175
     1
176
     1
 42
1.0
176
     1
 92
        0
176
     1
 66
   257
176
     1
 43
1.0
176
     1
 76
     1
176
     1
 77
     6
176
     1
 78
     2
176
     1
 67
     7
176
     1
 79
     5
176
     1
170
     0
176
     1
171
     0
176
     1
290
     0
176
     1
 93
        1
176
     1
 44
0.0
176
     1
173
     0
176
     1
  0
VISUALSTYLE
  5
31
102
{ACAD_REACTORS
330
2A
102
}
330
2A
100
AcDbVisualStyle
  2
3D Hidden
 70
     6
177
     2
291
     0
 71
     1
176
     1
 72
     2
176
     1
 73
     2
176
     1
 90
        0
176
     1
 40
-0.6
176
     1
 41
-30.0
176
     1
 62
     5
 63
     7
421
 16777215
176
     1
 74
     2
176
     1
 91
        2
176
     1
 64
     7
176
     1
 65
   257
176
     1
 75
     2
176
     1
175
     1
176
     1
 42
40.0
176
     1
 92
        0
176
     1
 66
   257
176
     1
 43
1.0
176
     1
 76
     1
176
     1
 77
     6
176
     1
 78
     2
176
     1
 67
     7
176
     1
 79
     3
176
     1
170
     0
176
     1
171
     0
176
     1
290
     0
176
     1
 93
        1
176
     1
 44
0.0
176
     1
173
     0
176
     1
  0
VISUALSTYLE
  5
30
102
{ACAD_REACTORS
330
2A
102
}
330
2A
100
AcDbVisualStyle
  2
3dWireframe
 70
     5
177
     2
291
     0
 71
     0
176
     1
 72
     2
176
     1
 73
     0
176
     1
 90
        0
176
     1
 40
-0.6
176
     1
 41
-30.0
176
     1
 62
     5
 63
     7
421
 16777215
176
     1
 74
     1
176
     1
 91
        4
176
     1
 64
     7
176
     1
 65
   257
176
     1
 75
     1
176
     1
175
     1
176
     1
 42
1.0
176
     1
 92
        0
176
     1
 66
   257
176
     1
 43
1.0
176
     1
 76
     1
176
     1
 77
     6
176
     1
 78
     2
176
     1
 67
     7
176
     1
 79
     5
176
     1
170
     0
176
     1
171
     0
176
     1
290
     0
176
     1
 93
        1
176
     1
 44
0.0
176
     1
173
     0
176
     1
  0
VISUALSTYLE
  5
32
102
{ACAD_REACTORS
330
2A
102
}
330
2A
100
AcDbVisualStyle
  2
Basic
 70
     7
177
     2
291
     1
 71
     1
176
     1
 72
     0
176
     1
 73
     1
176
     1
 90
        0
176
     1
 40
-0.6
176
     1
 41
-30.0
176
     1
 62
     5
 63
     7
421
 16777215
176
     1
 74
     0
176
     1
 91
        4
176
     1
 64
     7
176
     1
 65
   257
176
     1
 75
     1
176
     1
175
     1
176
     1
 42
1.0
176
     1
 92
        8
176
     1
 66
     7
176
     1
 43
1.0
176
     1
 76
     1
176
     1
 77
     6
176
     1
 78
     2
176
     1
 67
     7
176
     1
 79
     5
176
     1
170
     0
176
     1
171
     0
176
     1
290
     0
176
     1
 93
        1
176
     1
 44
0.0
176
     1
173
     0
176
     1
  0
VISUALSTYLE
  5
36
102
{ACAD_REACTORS
330
2A
102
}
330
2A
100
AcDbVisualStyle
  2
Brighten
 70
    12
177
     2
291
     1
 71
     2
176
     1
 72
     2
176
     1
 73
     0
176
     1
 90
        0
176
     1
 40
-0.6
176
     1
 41
-30.0
176
     1
 62
     5
 63
     7
421
 16777215
176
     1
 74
     1
176
     1
 91
        4
176
     1
 64
     7
176
     1
 65
   257
176
     1
 75
     1
176
     1
175
     1
176
     1
 42
1.0
176
     1
 92
        8
176
     1
 66
     7
176
     1
 43
1.0
176
     1
 76
     1
176
     1
 77
     6
176
     1
 78
     2
176
     1
 67
     7
176
     1
 79
     5
176
     1
170
     0
176
     1
171
     0
176
     1
290
     0
176
     1
 93
        1
176
     1
 44
50.0
176
     1
173
     0
176
     1
  0
VISUALSTYLE
  5
3A
102
{ACAD_REACTORS
330
2A
102
}
330
2A
100
AcDbVisualStyle
  2
ColorChange
 70
    16
177
     2
291
     1
 71
     2
176
     1
 72
     2
176
     1
 73
     3
176
     1
 90
        0
176
     1
 40
-0.6
176
     1
 41
-30.0
176
     1
 62
     5
 63
     8
421
  8421504
176
     1
 74
     1
176
     1
 91
        4
176
     1
 64
     7
176
     1
 65
   257
176
     1
 75
     1
176
     1
175
     1
176
     1
 42
1.0
176
     1
 92
        8
176
     1
 66
     8
424
  8421504
176
     1
 43
1.0
176
     1
 76
     1
176
     1
 77
     6
176
     1
 78
     2
176
     1
 67
     7
176
     1
 79
     5
176
     1
170
     0
176
     1
171
     0
176
     1
290
     0
176
     1
 93
        1
176
     1
 44
0.0
176
     1
173
     0
176
     1
  0
VISUALSTYLE
  5
34
102
{ACAD_REACTORS
330
2A
102
}
330
2A
100
AcDbVisualStyle
  2
Conceptual
 70
     9
177
     2
291
     0
 71
     3
176
     1
 72
     2
176
     1
 73
     0
176
     1
 90
        0
176
     1
 40
-0.6
176
     1
 41
-30.0
176
     1
 62
     5
 63
     7
421
 16777215
176
     1
 74
     2
176
     1
 91
        2
176
     1
 64
     7
176
     1
 65
   257
176
     1
 75
     1
176
     1
175
     1
176
     1
 42
40.0
176
     1
 92
        8
176
     1
 66
     7
176
     1
 43
1.0
176
     1
 76
     1
176
     1
 77
     6
176
     1
 78
     2
176
     1
 67
     7
176
     1
 79
     3
176
     1
170
     0
176
     1
171
     0
176
     1
290
     0
176
     1
 93
        1
176
     1
 44
0.0
176
     1
173
     0
176
     1
  0
VISUALSTYLE
  5
35
102
{ACAD_REACTORS
330
2A
102
}
330
2A
100
AcDbVisualStyle
  2
Dim
 70
    11
177
     2
291
     1
 71
     2
176
     1
 72
     2
176
     1
 73
     0
176
     1
 90
        0
176
     1
 40
-0.6
176
     1
 41
-30.0
176
     1
 62
     5
 63
     7
421
 16777215
176
     1
 74
     1
176
     1
 91
        4
176
     1
 64
     7
176
     1
 65
   257
176
     1
 75
     1
176
     1
175
     1
176
     1
 42
1.0
176
     1
 92
        8
176
     1
 66
     7
176
     1
 43
1.0
176
     1
 76
     1
176
     1
 77
     6
176
     1
 78
     2
176
     1
 67
     7
176
     1
 79
     5
176
     1
170
     0
176
     1
171
     0
176
     1
290
     0
176
     1
 93
        1
176
     1
 44
-50.0
176
     1
173
     0
176
     1
  0
VISUALSTYLE
  5
39
102
{ACAD_REACTORS
330
2A
102
}
330
2A
100
AcDbVisualStyle
  2
Facepattern
 70
    15
177
     2
291
     1
 71
     2
176
     1
 72
     2
176
     1
 73
     0
176
     1
 90
        0
176
     1
 40
-0.6
176
     1
 41
-30.0
176
     1
 62
     5
 63
     7
421
 16777215
176
     1
 74
     1
176
     1
 91
        4
176
     1
 64
     7
176
     1
 65
   257
176
     1
 75
     1
176
     1
175
     1
176
     1
 42
1.0
176
     1
 92
        8
176
     1
 66
     7
176
     1
 43
1.0
176
     1
 76
     1
176
     1
 77
     6
176
     1
 78
     2
176
     1
 67
     7
176
     1
 79
     5
176
     1
170
     0
176
     1
171
     0
176
     1
290
     0
176
     1
 93
        1
176
     1
 44
0.0
176
     1
173
     0
176
     1
  0
VISUALSTYLE
  5
2B
102
{ACAD_REACTORS
330
2A
102
}
330
2A
100
AcDbVisualStyle
  2
Flat
 70
     0
177
     2
291
     1
 71
     2
176
     1
 72
     1
176
     1
 73
     1
176
     1
 90
        2
176
     1
 40
-0.6
176
     1
 41
30.0
176
     1
 62
     5
 63
     7
421
 16777215
176
     1
 74
     0
176
     1
 91
        4
176
     1
 64
     7
176
     1
 65
   257
176
     1
 75
     1
176
     1
175
     1
176
     1
 42
1.0
176
     1
 92
        8
176
     1
 66
     7
176
     1
 43
1.0
176
     1
 76
     1
176
     1
 77
     6
176
     1
 78
     2
176
     1
 67
     7
176
     1
 79
     5
176
     1
170
     0
176
     1
171
     0
176
     1
290
     0
176
     1
 93
       13
176
     1
 44
0.0
176
     1
173
     0
176
     1
  0
VISUALSTYLE
  5
2C
102
{ACAD_REACTORS
330
2A
102
}
330
2A
100
AcDbVisualStyle
  2
FlatWithEdges
 70
     1
177
     2
291
     1
 71
     2
176
     1
 72
     1
176
     1
 73
     1
176
     1
 90
        2
176
     1
 40
-0.6
176
     1
 41
30.0
176
     1
 62
     5
 63
     7
421
 16777215
176
     1
 74
     1
176
     1
 91
        4
176
     1
 64
     7
176
     1
 65
   257
176
     1
 75
     1
176
     1
175
     1
176
     1
 42
1.0
176
     1
 92
        0
176
     1
 66
   257
176
     1
 43
1.0
176
     1
 76
     1
176
     1
 77
     6
176
     1
 78
     2
176
     1
 67
     7
176
     1
 79
     5
176
     1
170
     0
176
     1
171
     0
176
     1
290
     0
176
     1
 93
       13
176
     1
 44
0.0
176
     1
173
     0
176
     1
  0
VISUALSTYLE
  5
2D
102
{ACAD_REACTORS
330
2A
102
}
330
2A
100
AcDbVisualStyle
  2
Gouraud
 70
     2
177
     2
291
     1
 71
     2
176
     1
 72
     2
176
     1
 73
     1
176
     1
 90
        2
176
     1
 40
-0.6
176
     1
 41
30.0
176
     1
 62
     5
 63
     7
421
 16777215
176
     1
 74
     0
176
     1
 91
        4
176
     1
 64
     7
176
     1
 65
   257
176
     1
 75
     1
176
     1
175
     1
176
     1
 42
1.0
176
     1
 92
        0
176
     1
 66
     7
176
     1
 43
1.0
176
     1
 76
     1
176
     1
 77
     6
176
     1
 78
     2
176
     1
 67
     7
176
     1
 79
     5
176
     1
170
     0
176
     1
171
     0
176
     1
290
     0
176
     1
 93
       13
176
     1
 44
0.0
176
     1
173
     0
176
     1
  0
VISUALSTYLE
  5
2E
102
{ACAD_REACTORS
330
2A
102
}
330
2A
100
AcDbVisualStyle
  2
GouraudWithEdges
 70
     3
177
     2
291
     1
 71
     2
176
     1
 72
     2
176
     1
 73
     1
176
     1
 90
        2
176
     1
 40
-0.6
176
     1
 41
30.0
176
     1
 62
     5
 63
     7
421
 16777215
176
     1
 74
     1
176
     1
 91
        4
176
     1
 64
     7
176
     1
 65
   257
176
     1
 75
     1
176
     1
175
     1
176
     1
 42
1.0
176
     1
 92
        0
176
     1
 66
   257
176
     1
 43
1.0
176
     1
 76
     1
176
     1
 77
     6
176
     1
 78
     2
176
     1
 67
     7
176
     1
 79
     5
176
     1
170
     0
176
     1
171
     0
176
     1
290
     0
176
     1
 93
       13
176
     1
 44
0.0
176
     1
173
     0
176
     1
  0
VISUALSTYLE
  5
38
102
{ACAD_REACTORS
330
2A
102
}
330
2A
100
AcDbVisualStyle
  2
Linepattern
 70
    14
177
     2
291
     1
 71
     2
176
     1
 72
     2
176
     1
 73
     0
176
     1
 90
        0
176
     1
 40
-0.6
176
     1
 41
-30.0
176
     1
 62
     5
 63
     7
421
 16777215
176
     1
 74
     1
176
     1
 91
        4
176
     1
 64
     7
176
     1
 65
   257
176
     1
 75
     7
176
     1
175
     7
176
     1
 42
1.0
176
     1
 92
        8
176
     1
 66
     7
176
     1
 43
1.0
176
     1
 76
     1
176
     1
 77
     6
176
     1
 78
     2
176
     1
 67
     7
176
     1
 79
     5
176
     1
170
     0
176
     1
171
     0
176
     1
290
     0
176
     1
 93
        1
176
     1
 44
0.0
176
     1
173
     0
176
     1
  0
VISUALSTYLE
  5
33
102
{ACAD_REACTORS
330
2A
102
}
330
2A
100
AcDbVisualStyle
  2
Realistic
 70
     8
177
     2
291
     0
 71
     2
176
     1
 72
     2
176
     1
 73
     0
176
     1
 90
        0
176
     1
 40
-0.6
176
     1
 41
-30.0
176
     1
 62
     5
 63
     7
421
 16777215
176
     1
 74
     1
176
     1
 91
        0
176
     1
 64
     7
176
     1
 65
   257
176
     1
 75
     1
176
     1
175
     1
176
     1
 42
1.0
176
     1
 92
        8
176
     1
 66
     8
424
  7895160
176
     1
 43
1.0
176
     1
 76
     1
176
     1
 77
     6
176
     1
 78
     2
176
     1
 67
     7
176
     1
 79
     5
176
     1
170
     0
176
     1
171
     0
176
     1
290
     0
176
     1
 93
       13
176
     1
 44
0.0
176
     1
173
     0
176
     1
  0
VISUALSTYLE
  5
37
102
{ACAD_REACTORS
330
2A
102
}
330
2A
100
AcDbVisualStyle
  2
Thicken
 70
    13
177
     2
291
     1
 71
     2
176
     1
 72
     2
176
     1
 73
     0
176
     1
 90
        0
176
     1
 40
-0.6
176
     1
 41
-30.0
176
     1
 62
     5
 63
     7
421
 16777215
176
     1
 74
     1
176
     1
 91
        4
176
     1
 64
     7
176
     1
 65
   257
176
     1
 75
     1
176
     1
175
     1
176
     1
 42
1.0
176
     1
 92
       12
176
     1
 66
     7
176
     1
 43
1.0
176
     1
 76
     1
176
     1
 77
     6
176
     1
 78
     2
176
     1
 67
     7
176
     1
 79
     5
176
     1
170
     0
176
     1
171
     0
176
     1
290
     0
176
     1
 93
        1
176
     1
 44
0.0
176
     1
173
     0
176
     1
  0
ENDSEC
  0
EOF
