  0
SECTION
  2
HEADER
  9
$ACADVER
  1
AC1024
  9
$ACADMAINTVER
 70
     6
  9
$DWGCODEPAGE
  3
UNDEFINED
  9
$INSBASE
 10
0.0
 20
0.0
 30
0.0
  9
$EXTMIN
 10
1.000000000000000E+20
 20
1.000000000000000E+20
 30
1.000000000000000E+20
  9
$EXTMAX
 10
-1.000000000000000E+20
 20
-1.000000000000000E+20
 30
-1.000000000000000E+20
  9
$LIMMIN
 10
0.0
 20
0.0
  9
$LIMMAX
 10
12.0
 20
9.0
  9
$ORTHOMODE
 70
     0
  9
$REGENMODE
 70
     1
  9
$FILLMODE
 70
     1
  9
$QTEXTMODE
 70
     0
  9
$MIRRTEXT
 70
     1
  9
$LTSCALE
 40
1.0
  9
$ATTMODE
 70
     1
  9
$TEXTSIZE
 40
0.2
  9
$TRACEWID
 40
0.05
  9
$TEXTSTYLE
  7
Standard
  9
$CLAYER
  8
0
  9
$CELTYPE
  6
ByLayer
  9
$CECOLOR
 62
   256
  9
$CELTSCALE
 40
1.0
  9
$DISPSILH
 70
     0
  9
$DIMSCALE
 40
1.0
  9
$DIMASZ
 40
0.18
  9
$DIMEXO
 40
0.0625
  9
$DIMDLI
 40
0.38
  9
$DIMRND
 40
0.0
  9
$DIMDLE
 40
0.0
  9
$DIMEXE
 40
0.18
  9
$DIMTP
 40
0.0
  9
$DIMTM
 40
0.0
  9
$DIMTXT
 40
0.18
  9
$DIMCEN
 40
0.09
  9
$DIMTSZ
 40
0.0
  9
$DIMTOL
 70
     0
  9
$DIMLIM
 70
     0
  9
$DIMTIH
 70
     1
  9
$DIMTOH
 70
     1
  9
$DIMSE1
 70
     0
  9
$DIMSE2
 70
     0
  9
$DIMTAD
 70
     0
  9
$DIMZIN
 70
     0
  9
$DIMBLK
  1

  9
$DIMASO
 70
     1
  9
$DIMSHO
 70
     1
  9
$DIMPOST
  1

  9
$DIMAPOST
  1

  9
$DIMALT
 70
     0
  9
$DIMALTD
 70
     2
  9
$DIMALTF
 40
25.4
  9
$DIMLFAC
 40
1.0
  9
$DIMTOFL
 70
     0
  9
$DIMTVP
 40
0.0
  9
$DIMTIX
 70
     0
  9
$DIMSOXD
 70
     0
  9
$DIMSAH
 70
     0
  9
$DIMBLK1
  1

  9
$DIMBLK2
  1

  9
$DIMSTYLE
  2
Standard
  9
$DIMCLRD
 70
     0
  9
$DIMCLRE
 70
     0
  9
$DIMCLRT
 70
     0
  9
$DIMTFAC
 40
1.0
  9
$DIMGAP
 40
0.09
  9
$DIMJUST
 70
     0
  9
$DIMSD1
 70
     0
  9
$DIMSD2
 70
     0
  9
$DIMTOLJ
 70
     1
  9
$DIMTZIN
 70
     0
  9
$DIMALTZ
 70
     0
  9
$DIMALTTZ
 70
     0
  9
$DIMUPT
 70
     0
  9
$DIMDEC
 70
     4
  9
$DIMTDEC
 70
     4
  9
$DIMALTU
 70
     2
  9
$DIMALTTD
 70
     2
  9
$DIMTXSTY
  7
Standard
  9
$DIMAUNIT
 70
     0
  9
$DIMADEC
 70
     0
  9
$DIMALTRND
 40
0.0
  9
$DIMAZIN
 70
     0
  9
$DIMDSEP
 70
    46
  9
$DIMATFIT
 70
     3
  9
$DIMFRAC
 70
     0
  9
$DIMLDRBLK
  1

  9
$DIMLUNIT
 70
     2
  9
$DIMLWD
 70
    -2
  9
$DIMLWE
 70
    -2
  9
$DIMTMOVE
 70
     0
  9
$DIMFXL
 40
1.0
  9
$DIMFXLON
 70
     0
  9
$DIMJOGANG
 40
0.7853981633974483
  9
$DIMTFILL
 70
     0
  9
$DIMTFILLCLR
 70
     0
  9
$DIMARCSYM
 70
     0
  9
$DIMLTYPE
  6

  9
$DIMLTEX1
  6

  9
$DIMLTEX2
  6

  9
$DIMTXTDIRECTION
 70
     0
  9
$LUNITS
 70
     2
  9
$LUPREC
 70
     4
  9
$SKETCHINC
 40
0.1
  9
$FILLETRAD
 40
0.5
  9
$AUNITS
 70
     0
  9
$AUPREC
 70
     0
  9
$MENU
  1
.
  9
$ELEVATION
 40
0.0
  9
$PELEVATION
 40
0.0
  9
$THICKNESS
 40
0.0
  9
$LIMCHECK
 70
     0
  9
$CHAMFERA
 40
0.5
  9
$CHAMFERB
 40
0.5
  9
$CHAMFERC
 40
1.0
  9
$CHAMFERD
 40
0.0
  9
$SKPOLY
 70
     0
  9
$TDCREATE
 40
2457917.62810184
  9
$TDUCREATE
 40
2457917.253101852
  9
$TDUPDATE
 40
2457917.62810184
  9
$TDUUPDATE
 40
2457917.253101852
  9
$TDINDWG
 40
0.0000000116
  9
$TDUSRTIMER
 40
0.0000000116
  9
$USRTIMER
 70
     1
  9
$ANGBASE
 50
0.0
  9
$ANGDIR
 70
     0
  9
$PDMODE
 70
     0
  9
$PDSIZE
 40
0.0
  9
$PLINEWID
 40
0.0
  9
$SPLFRAME
 70
     0
  9
$SPLINETYPE
 70
     6
  9
$SPLINESEGS
 70
     8
  9
$HANDSEED
  5
E2
  9
$SURFTAB1
 70
     6
  9
$SURFTAB2
 70
     6
  9
$SURFTYPE
 70
     6
  9
$SURFU
 70
     6
  9
$SURFV
 70
     6
  9
$UCSBASE
  2

  9
$UCSNAME
  2

  9
$UCSORG
 10
0.0
 20
0.0
 30
0.0
  9
$UCSXDIR
 10
1.0
 20
0.0
 30
0.0
  9
$UCSYDIR
 10
0.0
 20
1.0
 30
0.0
  9
$UCSORTHOREF
  2

  9
$UCSORTHOVIEW
 70
     0
  9
$UCSORGTOP
 10
0.0
 20
0.0
 30
0.0
  9
$UCSORGBOTTOM
 10
0.0
 20
0.0
 30
0.0
  9
$UCSORGLEFT
 10
0.0
 20
0.0
 30
0.0
  9
$UCSORGRIGHT
 10
0.0
 20
0.0
 30
0.0
  9
$UCSORGFRONT
 10
0.0
 20
0.0
 30
0.0
  9
$UCSORGBACK
 10
0.0
 20
0.0
 30
0.0
  9
$PUCSBASE
  2

  9
$PUCSNAME
  2

  9
$PUCSORG
 10
0.0
 20
0.0
 30
0.0
  9
$PUCSXDIR
 10
1.0
 20
0.0
 30
0.0
  9
$PUCSYDIR
 10
0.0
 20
1.0
 30
0.0
  9
$PUCSORTHOREF
  2

  9
$PUCSORTHOVIEW
 70
     0
  9
$PUCSORGTOP
 10
0.0
 20
0.0
 30
0.0
  9
$PUCSORGBOTTOM
 10
0.0
 20
0.0
 30
0.0
  9
$PUCSORGLEFT
 10
0.0
 20
0.0
 30
0.0
  9
$PUCSORGRIGHT
 10
0.0
 20
0.0
 30
0.0
  9
$PUCSORGFRONT
 10
0.0
 20
0.0
 30
0.0
  9
$PUCSORGBACK
 10
0.0
 20
0.0
 30
0.0
  9
$USERI1
 70
     0
  9
$USERI2
 70
     0
  9
$USERI3
 70
     0
  9
$USERI4
 70
     0
  9
$USERI5
 70
     0
  9
$USERR1
 40
0.0
  9
$USERR2
 40
0.0
  9
$USERR3
 40
0.0
  9
$USERR4
 40
0.0
  9
$USERR5
 40
0.0
  9
$WORLDVIEW
 70
     1
  9
$SHADEDGE
 70
     3
  9
$SHADEDIF
 70
    70
  9
$TILEMODE
 70
     1
  9
$MAXACTVP
 70
    64
  9
$PINSBASE
 10
0.0
 20
0.0
 30
0.0
  9
$PLIMCHECK
 70
     0
  9
$PEXTMIN
 10
1.000000000000000E+20
 20
1.000000000000000E+20
 30
1.000000000000000E+20
  9
$PEXTMAX
 10
-1.000000000000000E+20
 20
-1.000000000000000E+20
 30
-1.000000000000000E+20
  9
$PLIMMIN
 10
0.0
 20
0.0
  9
$PLIMMAX
 10
12.0
 20
9.0
  9
$UNITMODE
 70
     0
  9
$VISRETAIN
 70
     1
  9
$PLINEGEN
 70
     0
  9
$PSLTSCALE
 70
     1
  9
$TREEDEPTH
 70
  3020
  9
$CMLSTYLE
  2
Standard
  9
$CMLJUST
 70
     0
  9
$CMLSCALE
 40
1.0
  9
$PROXYGRAPHICS
 70
     1
  9
$MEASUREMENT
 70
     0
  9
$CELWEIGHT
370
    -1
  9
$ENDCAPS
280
     0
  9
$JOINSTYLE
280
     0
  9
$LWDISPLAY
290
     1
  9
$INSUNITS
 70
     1
  9
$HYPERLINKBASE
  1

  9
$STYLESHEET
  1

  9
$XEDIT
290
     1
  9
$CEPSNTYPE
380
     0
  9
$PSTYLEMODE
290
     1
  9
$FINGERPRINTGUID
  2
{25AD81F5-BD0F-D5CD-EE2C-5253225E16B6}
  9
$VERSIONGUID
  2
{FAEB1C32-E019-11D5-929B-00C0DF256EC4}
  9
$EXTNAMES
290
     1
  9
$PSVPSCALE
 40
0.0
  9
$OLESTARTUP
290
     0
  9
$SORTENTS
280
   127
  9
$INDEXCTL
280
     0
  9
$HIDETEXT
280
     1
  9
$XCLIPFRAME
280
     2
  9
$HALOGAP
280
     0
  9
$OBSCOLOR
 70
   257
  9
$OBSLTYPE
280
     0
  9
$INTERSECTIONDISPLAY
280
     0
  9
$INTERSECTIONCOLOR
 70
   257
  9
$DIMASSOC
280
     2
  9
$PROJECTNAME
  1

  9
$CAMERADISPLAY
290
     0
  9
$LENSLENGTH
 40
50.0
  9
$CAMERAHEIGHT
 40
0.0
  9
$STEPSPERSEC
 40
2.0
  9
$STEPSIZE
 40
6.0
  9
$3DDWFPREC
 40
2.0
  9
$PSOLWIDTH
 40
0.25
  9
$PSOLHEIGHT
 40
4.0
  9
$LOFTANG1
 40
1.570796326794897
  9
$LOFTANG2
 40
1.570796326794897
  9
$LOFTMAG1
 40
0.0
  9
$LOFTMAG2
 40
0.0
  9
$LOFTPARAM
 70
     7
  9
$LOFTNORMALS
280
     1
  9
$LATITUDE
 40
37.795
  9
$LONGITUDE
 40
-122.394
  9
$NORTHDIRECTION
 40
0.0
  9
$TIMEZONE
 70
 -8000
  9
$LIGHTGLYPHDISPLAY
280
     1
  9
$TILEMODELIGHTSYNCH
280
     1
  9
$CMATERIAL
347
3C
  9
$SOLIDHIST
280
     1
  9
$SHOWHIST
280
     1
  9
$DWFFRAME
280
     2
  9
$DGNFRAME
280
     2
  9
$REALWORLDSCALE
290
     1
  9
$INTERFERECOLOR
 62
   256
  9
$CSHADOW
280
     0
  9
$SHADOWPLANELOCATION
 40
0.0
  0
ENDSEC
  0
SECTION
  2
CLASSES
  0
CLASS
  1
ACDBDICTIONARYWDFLT
  2
AcDbDictionaryWithDefault
  3
ObjectDBX Classes
 90
        0
 91
        4
280
     0
281
     0
  0
CLASS
  1
VISUALSTYLE
  2
AcDbVisualStyle
  3
ObjectDBX Classes
 90
     4095
 91
        4
280
     0
281
     0
  0
CLASS
  1
MATERIAL
  2
AcDbMaterial
  3
ObjectDBX Classes
 90
     1153
 91
        4
280
     0
281
     0
  0
CLASS
  1
SUN
  2
AcDbSun
  3
SCENEOE
 90
     1024
 91
        4
280
     0
281
     0
  0
ENDSEC
  0
SECTION
  2
TABLES
  0
TABLE
  2
VPORT
  5
8
330
0
100
AcDbSymbolTable
 70
     1
  0
VPORT
  5
29
330
8
100
AcDbSymbolTableRecord
100
AcDbViewportTableRecord
  2
*Active
 70
     0
 10
0.0
 20
0.0
 11
1.0
 21
1.0
 12
0.0
 22
0.0
 13
0.0
 23
0.0
 14
0.5
 24
0.5
 15
0.5
 25
0.5
 16
0.0
 26
0.0
 36
1.0
 17
91.00082462281999
 27
-128.4993055234307
 37
0.0
 40
256.9986110468615
 41
0.7081814508812795
 42
50.0
 43
0.0
 44
0.0
 50
0.0
 51
0.0
 71
     0
 72
   100
 73
     1
 74
     3
 75
     0
 76
     0
 77
     0
 78
     0
281
     0
 65
     1
110
0.0
120
0.0
130
0.0
111
1.0
121
0.0
131
0.0
112
0.0
122
1.0
132
0.0
 79
     0
146
0.0
 60
     3
 61
     5
292
     1
282
     1
141
0.0
142
0.0
 63
   250
361
3F
  0
ENDTAB
  0
TABLE
  2
LTYPE
  5
5
330
0
100
AcDbSymbolTable
 70
     1
  0
LTYPE
  5
14
330
5
100
AcDbSymbolTableRecord
100
AcDbLinetypeTableRecord
  2
ByBlock
 70
     0
  3

 72
    65
 73
     0
 40
0.0
  0
LTYPE
  5
15
330
5
100
AcDbSymbolTableRecord
100
AcDbLinetypeTableRecord
  2
ByLayer
 70
     0
  3

 72
    65
 73
     0
 40
0.0
  0
LTYPE
  5
16
330
5
100
AcDbSymbolTableRecord
100
AcDbLinetypeTableRecord
  2
Continuous
 70
     0
  3
Solid line
 72
    65
 73
     0
 40
0.0
  0
ENDTAB
  0
TABLE
  2
LAYER
  5
2
330
0
100
AcDbSymbolTable
 70
     2
  0
LAYER
  5
10
330
2
100
AcDbSymbolTableRecord
100
AcDbLayerTableRecord
  2
0
 70
     0
 62
     7
  6
Continuous
370
    -3
390
F
347
3E
  0
LAYER
  5
40
330
2
100
AcDbSymbolTableRecord
100
AcDbLayerTableRecord
  2
_U+30EC_U+30A4_U+30E4_U+30FC 1
 70
     0
 62
     7
  6
Continuous
370
    -3
390
F
347
3E
  0
ENDTAB
  0
TABLE
  2
STYLE
  5
3
330
0
100
AcDbSymbolTable
 70
     1
  0
STYLE
  5
11
330
3
100
AcDbSymbolTableRecord
100
AcDbTextStyleTableRecord
  2
Standard
 70
     0
 40
0.0
 41
1.0
 50
0.0
 71
     0
 42
0.2
  3
txt
  4

  0
ENDTAB
  0
TABLE
  2
VIEW
  5
6
330
0
100
AcDbSymbolTable
 70
     0
  0
ENDTAB
  0
TABLE
  2
UCS
  5
7
330
0
100
AcDbSymbolTable
 70
     0
  0
ENDTAB
  0
TABLE
  2
APPID
  5
9
330
0
100
AcDbSymbolTable
 70
     1
  0
APPID
  5
12
330
9
100
AcDbSymbolTableRecord
100
AcDbRegAppTableRecord
  2
ACAD
 70
     0
  0
ENDTAB
  0
TABLE
  2
DIMSTYLE
  5
A
330
0
100
AcDbSymbolTable
 70
     1
100
AcDbDimStyleTable
  0
DIMSTYLE
105
27
330
A
100
AcDbSymbolTableRecord
100
AcDbDimStyleTableRecord
  2
Standard
 70
     0
178
     0
340
11
  0
ENDTAB
  0
TABLE
  2
BLOCK_RECORD
  5
1
330
0
100
AcDbSymbolTable
 70
     5
  0
BLOCK_RECORD
  5
1F
330
1
100
AcDbSymbolTableRecord
100
AcDbBlockTableRecord
  2
*Model_Space
340
22
 70
     0
280
     1
281
     0
  0
BLOCK_RECORD
  5
1B
330
1
100
AcDbSymbolTableRecord
100
AcDbBlockTableRecord
  2
*Paper_Space
340
1E
 70
     0
280
     1
281
     0
  0
BLOCK_RECORD
  5
23
330
1
100
AcDbSymbolTableRecord
100
AcDbBlockTableRecord
  2
*Paper_Space0
340
26
 70
     0
280
     1
281
     0
  0
BLOCK_RECORD
  5
74
330
1
100
AcDbSymbolTableRecord
100
AcDbBlockTableRecord
  2
block 2
340
0
102
{BLKREFS
331
75
102
}
 70
     0
280
     1
281
     0
  0
BLOCK_RECORD
  5
8B
330
1
100
AcDbSymbolTableRecord
100
AcDbBlockTableRecord
  2
block 3
340
0
102
{BLKREFS
331
8C
102
}
 70
     0
280
     1
281
     0
  0
BLOCK_RECORD
  5
AD
330
1
100
AcDbSymbolTableRecord
100
AcDbBlockTableRecord
  2
block 4
340
0
102
{BLKREFS
331
AE
102
}
 70
     0
280
     1
281
     0
  0
BLOCK_RECORD
  5
C5
330
1
100
AcDbSymbolTableRecord
100
AcDbBlockTableRecord
  2
block 5
340
0
102
{BLKREFS
331
C6
102
}
 70
     0
280
     1
281
     0
  0
ENDTAB
  0
ENDSEC
  0
SECTION
  2
BLOCKS
  0
BLOCK
  5
20
330
1F
100
AcDbEntity
  8
0
100
AcDbBlockBegin
  2
*Model_Space
 70
     0
 10
0.0
 20
0.0
 30
0.0
  3
*Model_Space
  1

  0
ENDBLK
  5
21
330
1F
100
AcDbEntity
  8
0
100
AcDbBlockEnd
  0
BLOCK
  5
1C
330
1B
100
AcDbEntity
 67
     1
  8
0
100
AcDbBlockBegin
  2
*Paper_Space
 70
     0
 10
0.0
 20
0.0
 30
0.0
  3
*Paper_Space
  1

  0
ENDBLK
  5
1D
330
1B
100
AcDbEntity
 67
     1
  8
0
100
AcDbBlockEnd
  0
BLOCK
  5
24
330
23
100
AcDbEntity
  8
0
100
AcDbBlockBegin
  2
*Paper_Space0
 70
     0
 10
0.0
 20
0.0
 30
0.0
  3
*Paper_Space0
  1

  0
ENDBLK
  5
25
330
23
100
AcDbEntity
  8
0
100
AcDbBlockEnd
  0
BLOCK
  5
76
330
74
100
AcDbEntity
  8
0
100
AcDbBlockBegin
  2
block 2
 70
     0
 10
0.0
 20
0.0
 30
0.0
  3
block 2
  1

  0
SPLINE
  5
78
330
74
100
AcDbEntity
  8
_U+30EC_U+30A4_U+30E4_U+30FC 1
370
     0
100
AcDbSpline
210
0.0
220
0.0
230
1.0
 70
    11
 71
     3
 72
    26
 73
    22
 74
     0
 42
0.0000000001
 43
0.0000000001
 12
1.0
 22
0.0
 32
0.0
 13
1.0
 23
0.0
 33
0.0
 40
0.0
 40
0.0
 40
0.0
 40
0.0
 40
1.0
 40
1.0
 40
1.0
 40
2.0
 40
2.0
 40
2.0
 40
3.0
 40
3.0
 40
3.0
 40
4.0
 40
4.0
 40
4.0
 40
5.0
 40
5.0
 40
5.0
 40
6.0
 40
6.0
 40
6.0
 40
7.0
 40
7.0
 40
7.0
 40
7.0
 10
82.36964923070967
 20
-144.0242838181606
 30
0.0
 10
82.36964923070967
 20
-144.0242838181606
 30
0.0
 10
82.36964923070967
 20
-142.920130715138
 30
0.0
 10
82.36964923070967
 20
-142.920130715138
 30
0.0
 10
82.36964923070967
 20
-142.920130715138
 30
0.0
 10
82.03960908322274
 20
-142.920130715138
 30
0.0
 10
82.03960908322274
 20
-142.920130715138
 30
0.0
 10
82.03960908322274
 20
-142.920130715138
 30
0.0
 10
82.03960908322274
 20
-142.7719916092723
 30
0.0
 10
82.03960908322274
 20
-142.7719916092723
 30
0.0
 10
82.37171628800083
 20
-142.7571776986857
 30
0.0
 10
82.4182250770517
 20
-142.5942246822334
 30
0.0
 10
82.44785289822485
 20
-142.4798475121231
 30
0.0
 10
82.44785289822485
 20
-142.4798475121231
 30
0.0
 10
82.59392494679943
 20
-142.4798475121231
 30
0.0
 10
82.59392494679943
 20
-142.4798475121231
 30
0.0
 10
82.59392494679943
 20
-142.4798475121231
 30
0.0
 10
82.59392494679943
 20
-144.0242838181606
 30
0.0
 10
82.59392494679943
 20
-144.0242838181606
 30
0.0
 10
82.59392494679943
 20
-144.0242838181606
 30
0.0
 10
82.36964923070967
 20
-144.0242838181606
 30
0.0
 10
82.36964923070967
 20
-144.0242838181606
 30
0.0
  0
HATCH
  5
79
330
74
100
AcDbEntity
  8
_U+30EC_U+30A4_U+30E4_U+30FC 1
 62
   179
420
  2234388
100
AcDbHatch
 10
0.0
 20
0.0
 30
0.0
210
0.0
220
0.0
230
1.0
  2
SOLID
 70
     1
 71
     0
 91
        1
 92
        1
 93
        1
 72
     4
 94
        3
 73
     0
 74
     1
 95
       26
 96
       22
 40
0.0
 40
0.0
 40
0.0
 40
0.0
 40
1.0
 40
1.0
 40
1.0
 40
2.0
 40
2.0
 40
2.0
 40
3.0
 40
3.0
 40
3.0
 40
4.0
 40
4.0
 40
4.0
 40
5.0
 40
5.0
 40
5.0
 40
6.0
 40
6.0
 40
6.0
 40
7.0
 40
7.0
 40
7.0
 40
7.0
 10
82.36964923070967
 20
-144.0242838181606
 10
82.36964923070967
 20
-144.0242838181606
 10
82.36964923070967
 20
-142.920130715138
 10
82.36964923070967
 20
-142.920130715138
 10
82.36964923070967
 20
-142.920130715138
 10
82.03960908322274
 20
-142.920130715138
 10
82.03960908322274
 20
-142.920130715138
 10
82.03960908322274
 20
-142.920130715138
 10
82.03960908322274
 20
-142.7719916092723
 10
82.03960908322274
 20
-142.7719916092723
 10
82.37171628800083
 20
-142.7571776986857
 10
82.4182250770517
 20
-142.5942246822334
 10
82.44785289822485
 20
-142.4798475121231
 10
82.44785289822485
 20
-142.4798475121231
 10
82.59392494679943
 20
-142.4798475121231
 10
82.59392494679943
 20
-142.4798475121231
 10
82.59392494679943
 20
-142.4798475121231
 10
82.59392494679943
 20
-144.0242838181606
 10
82.59392494679943
 20
-144.0242838181606
 10
82.59392494679943
 20
-144.0242838181606
 10
82.36964923070967
 20
-144.0242838181606
 10
82.36964923070967
 20
-144.0242838181606
 97
        0
 97
        0
 75
     2
 76
     1
 98
        0
  0
SPLINE
  5
7A
330
74
100
AcDbEntity
  8
_U+30EC_U+30A4_U+30E4_U+30FC 1
370
     0
100
AcDbSpline
210
0.0
220
0.0
230
1.0
 70
    11
 71
     3
 72
    53
 73
    49
 74
     0
 42
0.0000000001
 43
0.0000000001
 12
1.0
 22
0.0
 32
0.0
 13
1.0
 23
0.0
 33
0.0
 40
0.0
 40
0.0
 40
0.0
 40
0.0
 40
1.0
 40
1.0
 40
1.0
 40
2.0
 40
2.0
 40
2.0
 40
3.0
 40
3.0
 40
3.0
 40
4.0
 40
4.0
 40
4.0
 40
5.0
 40
5.0
 40
5.0
 40
6.0
 40
6.0
 40
6.0
 40
7.0
 40
7.0
 40
7.0
 40
8.0
 40
8.0
 40
8.0
 40
9.0
 40
9.0
 40
9.0
 40
10.0
 40
10.0
 40
10.0
 40
11.0
 40
11.0
 40
11.0
 40
12.0
 40
12.0
 40
12.0
 40
13.0
 40
13.0
 40
13.0
 40
14.0
 40
14.0
 40
14.0
 40
15.0
 40
15.0
 40
15.0
 40
16.0
 40
16.0
 40
16.0
 40
16.0
 10
83.57612166964417
 20
-144.0749267217938
 30
0.0
 10
83.49774574735473
 20
-144.0749267217938
 30
0.0
 10
83.39628768531412
 20
-144.058045753916
 30
0.0
 10
83.29465736849926
 20
-143.9946559969875
 30
0.0
 10
83.12119681081693
 20
-143.884757451008
 30
0.0
 10
83.10000947358265
 20
-143.75349931302
 30
0.0
 10
83.08106144841376
 20
-143.6456678243316
 30
0.0
 10
83.08106144841376
 20
-143.6456678243316
 30
0.0
 10
83.30309785243811
 20
-143.6456678243316
 30
0.0
 10
83.30309785243811
 20
-143.6456678243316
 30
0.0
 10
83.35821938020212
 20
-143.8444498338306
 30
0.0
 10
83.48517114883357
 20
-143.8740776550037
 30
0.0
 10
83.57818872693532
 20
-143.8740776550037
 30
0.0
 10
83.71788734886219
 20
-143.8740776550037
 30
0.0
 10
83.87016056931024
 20
-143.77451439548
 30
0.0
 10
83.87016056931024
 20
-143.5419704502256
 30
0.0
 10
83.87016056931024
 20
-143.2859998556715
 30
0.0
 10
83.6903265849802
 20
-143.216064417321
 30
0.0
 10
83.56974824299645
 20
-143.216064417321
 30
0.0
 10
83.53805336453216
 20
-143.216064417321
 30
0.0
 10
83.39628768531412
 20
-143.216064417321
 30
0.0
 10
83.30740422179468
 20
-143.3452554980178
 30
0.0
 10
83.30740422179468
 20
-143.3452554980178
 30
0.0
 10
83.1318766068212
 20
-143.326307472849
 30
0.0
 10
83.1318766068212
 20
-143.326307472849
 30
0.0
 10
83.1318766068212
 20
-143.326307472849
 30
0.0
 10
83.25245494880494
 20
-142.4798475121231
 30
0.0
 10
83.25245494880494
 20
-142.4798475121231
 30
0.0
 10
83.25245494880494
 20
-142.4798475121231
 30
0.0
 10
84.03087427369715
 20
-142.4798475121231
 30
0.0
 10
84.03087427369715
 20
-142.4798475121231
 30
0.0
 10
84.03087427369715
 20
-142.4798475121231
 30
0.0
 10
84.03087427369715
 20
-142.6744954070397
 30
0.0
 10
84.03087427369715
 20
-142.6744954070397
 30
0.0
 10
84.03087427369715
 20
-142.6744954070397
 30
0.0
 10
83.415235710483
 20
-142.6744954070397
 30
0.0
 10
83.415235710483
 20
-142.6744954070397
 30
0.0
 10
83.415235710483
 20
-142.6744954070397
 30
0.0
 10
83.34977889626326
 20
-143.0975531326284
 30
0.0
 10
83.34977889626326
 20
-143.0975531326284
 30
0.0
 10
83.4111015959007
 20
-143.063791196873
 30
0.0
 10
83.49361163277243
 20
-143.0234835796955
 30
0.0
 10
83.61195066269076
 20
-143.0234835796955
 30
0.0
 10
83.86585419995367
 20
-143.0234835796955
 30
0.0
 10
84.10287676933886
 20
-143.2098632454475
 30
0.0
 10
84.10287676933886
 20
-143.5230224250568
 30
0.0
 10
84.10287676933886
 20
-143.8403157192483
 30
0.0
 10
83.8786010532491
 20
-144.0749267217938
 30
0.0
 10
83.57612166964417
 20
-144.0749267217938
 30
0.0
  0
HATCH
  5
7B
330
74
100
AcDbEntity
  8
_U+30EC_U+30A4_U+30E4_U+30FC 1
 62
   179
420
  2234388
100
AcDbHatch
 10
0.0
 20
0.0
 30
0.0
210
0.0
220
0.0
230
1.0
  2
SOLID
 70
     1
 71
     0
 91
        1
 92
        1
 93
        1
 72
     4
 94
        3
 73
     0
 74
     1
 95
       53
 96
       49
 40
0.0
 40
0.0
 40
0.0
 40
0.0
 40
1.0
 40
1.0
 40
1.0
 40
2.0
 40
2.0
 40
2.0
 40
3.0
 40
3.0
 40
3.0
 40
4.0
 40
4.0
 40
4.0
 40
5.0
 40
5.0
 40
5.0
 40
6.0
 40
6.0
 40
6.0
 40
7.0
 40
7.0
 40
7.0
 40
8.0
 40
8.0
 40
8.0
 40
9.0
 40
9.0
 40
9.0
 40
10.0
 40
10.0
 40
10.0
 40
11.0
 40
11.0
 40
11.0
 40
12.0
 40
12.0
 40
12.0
 40
13.0
 40
13.0
 40
13.0
 40
14.0
 40
14.0
 40
14.0
 40
15.0
 40
15.0
 40
15.0
 40
16.0
 40
16.0
 40
16.0
 40
16.0
 10
83.57612166964417
 20
-144.0749267217938
 10
83.49774574735473
 20
-144.0749267217938
 10
83.39628768531412
 20
-144.058045753916
 10
83.29465736849926
 20
-143.9946559969875
 10
83.12119681081693
 20
-143.884757451008
 10
83.10000947358265
 20
-143.75349931302
 10
83.08106144841376
 20
-143.6456678243316
 10
83.08106144841376
 20
-143.6456678243316
 10
83.30309785243811
 20
-143.6456678243316
 10
83.30309785243811
 20
-143.6456678243316
 10
83.35821938020212
 20
-143.8444498338306
 10
83.48517114883357
 20
-143.8740776550037
 10
83.57818872693532
 20
-143.8740776550037
 10
83.71788734886219
 20
-143.8740776550037
 10
83.87016056931024
 20
-143.77451439548
 10
83.87016056931024
 20
-143.5419704502256
 10
83.87016056931024
 20
-143.2859998556715
 10
83.6903265849802
 20
-143.216064417321
 10
83.56974824299645
 20
-143.216064417321
 10
83.53805336453216
 20
-143.216064417321
 10
83.39628768531412
 20
-143.216064417321
 10
83.30740422179468
 20
-143.3452554980178
 10
83.30740422179468
 20
-143.3452554980178
 10
83.1318766068212
 20
-143.326307472849
 10
83.1318766068212
 20
-143.326307472849
 10
83.1318766068212
 20
-143.326307472849
 10
83.25245494880494
 20
-142.4798475121231
 10
83.25245494880494
 20
-142.4798475121231
 10
83.25245494880494
 20
-142.4798475121231
 10
84.03087427369715
 20
-142.4798475121231
 10
84.03087427369715
 20
-142.4798475121231
 10
84.03087427369715
 20
-142.4798475121231
 10
84.03087427369715
 20
-142.6744954070397
 10
84.03087427369715
 20
-142.6744954070397
 10
84.03087427369715
 20
-142.6744954070397
 10
83.415235710483
 20
-142.6744954070397
 10
83.415235710483
 20
-142.6744954070397
 10
83.415235710483
 20
-142.6744954070397
 10
83.34977889626326
 20
-143.0975531326284
 10
83.34977889626326
 20
-143.0975531326284
 10
83.4111015959007
 20
-143.063791196873
 10
83.49361163277243
 20
-143.0234835796955
 10
83.61195066269076
 20
-143.0234835796955
 10
83.86585419995367
 20
-143.0234835796955
 10
84.10287676933886
 20
-143.2098632454475
 10
84.10287676933886
 20
-143.5230224250568
 10
84.10287676933886
 20
-143.8403157192483
 10
83.8786010532491
 20
-144.0749267217938
 10
83.57612166964417
 20
-144.0749267217938
 97
        0
 97
        0
 75
     2
 76
     1
 98
        0
  0
ENDBLK
  5
77
330
74
100
AcDbEntity
  8
0
100
AcDbBlockEnd
  0
BLOCK
  5
8D
330
8B
100
AcDbEntity
  8
0
100
AcDbBlockBegin
  2
block 3
 70
     0
 10
0.0
 20
0.0
 30
0.0
  3
block 3
  1

  0
SPLINE
  5
8F
330
8B
100
AcDbEntity
  8
_U+30EC_U+30A4_U+30E4_U+30FC 1
370
     0
100
AcDbSpline
210
0.0
220
0.0
230
1.0
 70
    11
 71
     3
 72
    26
 73
    22
 74
     0
 42
0.0000000001
 43
0.0000000001
 12
1.0
 22
0.0
 32
0.0
 13
1.0
 23
0.0
 33
0.0
 40
0.0
 40
0.0
 40
0.0
 40
0.0
 40
1.0
 40
1.0
 40
1.0
 40
2.0
 40
2.0
 40
2.0
 40
3.0
 40
3.0
 40
3.0
 40
4.0
 40
4.0
 40
4.0
 40
5.0
 40
5.0
 40
5.0
 40
6.0
 40
6.0
 40
6.0
 40
7.0
 40
7.0
 40
7.0
 40
7.0
 10
90.13213837807461
 20
-144.0235947990635
 30
0.0
 10
90.13213837807461
 20
-144.0235947990635
 30
0.0
 10
90.13213837807461
 20
-142.919441696041
 30
0.0
 10
90.13213837807461
 20
-142.919441696041
 30
0.0
 10
90.13213837807461
 20
-142.919441696041
 30
0.0
 10
89.80209823058767
 20
-142.919441696041
 30
0.0
 10
89.80209823058767
 20
-142.919441696041
 30
0.0
 10
89.80209823058767
 20
-142.919441696041
 30
0.0
 10
89.80209823058767
 20
-142.7713025901752
 30
0.0
 10
89.80209823058767
 20
-142.7713025901752
 30
0.0
 10
90.13420543536576
 20
-142.7564886795887
 30
0.0
 10
90.18071422441663
 20
-142.5935356631364
 30
0.0
 10
90.21034204558978
 20
-142.4791584930261
 30
0.0
 10
90.21034204558978
 20
-142.4791584930261
 30
0.0
 10
90.35641409416438
 20
-142.4791584930261
 30
0.0
 10
90.35641409416438
 20
-142.4791584930261
 30
0.0
 10
90.35641409416438
 20
-142.4791584930261
 30
0.0
 10
90.35641409416438
 20
-144.0235947990635
 30
0.0
 10
90.35641409416438
 20
-144.0235947990635
 30
0.0
 10
90.35641409416438
 20
-144.0235947990635
 30
0.0
 10
90.13213837807461
 20
-144.0235947990635
 30
0.0
 10
90.13213837807461
 20
-144.0235947990635
 30
0.0
  0
HATCH
  5
90
330
8B
100
AcDbEntity
  8
_U+30EC_U+30A4_U+30E4_U+30FC 1
 62
   179
420
  2234388
100
AcDbHatch
 10
0.0
 20
0.0
 30
0.0
210
0.0
220
0.0
230
1.0
  2
SOLID
 70
     1
 71
     0
 91
        1
 92
        1
 93
        1
 72
     4
 94
        3
 73
     0
 74
     1
 95
       26
 96
       22
 40
0.0
 40
0.0
 40
0.0
 40
0.0
 40
1.0
 40
1.0
 40
1.0
 40
2.0
 40
2.0
 40
2.0
 40
3.0
 40
3.0
 40
3.0
 40
4.0
 40
4.0
 40
4.0
 40
5.0
 40
5.0
 40
5.0
 40
6.0
 40
6.0
 40
6.0
 40
7.0
 40
7.0
 40
7.0
 40
7.0
 10
90.13213837807461
 20
-144.0235947990635
 10
90.13213837807461
 20
-144.0235947990635
 10
90.13213837807461
 20
-142.919441696041
 10
90.13213837807461
 20
-142.919441696041
 10
90.13213837807461
 20
-142.919441696041
 10
89.80209823058767
 20
-142.919441696041
 10
89.80209823058767
 20
-142.919441696041
 10
89.80209823058767
 20
-142.919441696041
 10
89.80209823058767
 20
-142.7713025901752
 10
89.80209823058767
 20
-142.7713025901752
 10
90.13420543536576
 20
-142.7564886795887
 10
90.18071422441663
 20
-142.5935356631364
 10
90.21034204558978
 20
-142.4791584930261
 10
90.21034204558978
 20
-142.4791584930261
 10
90.35641409416438
 20
-142.4791584930261
 10
90.35641409416438
 20
-142.4791584930261
 10
90.35641409416438
 20
-142.4791584930261
 10
90.35641409416438
 20
-144.0235947990635
 10
90.35641409416438
 20
-144.0235947990635
 10
90.35641409416438
 20
-144.0235947990635
 10
90.13213837807461
 20
-144.0235947990635
 10
90.13213837807461
 20
-144.0235947990635
 97
        0
 97
        0
 75
     2
 76
     1
 98
        0
  0
SPLINE
  5
91
330
8B
100
AcDbEntity
  8
_U+30EC_U+30A4_U+30E4_U+30FC 1
370
     0
100
AcDbSpline
210
0.0
220
0.0
230
1.0
 70
    11
 71
     3
 72
    32
 73
    28
 74
     0
 42
0.0000000001
 43
0.0000000001
 12
1.0
 22
0.0
 32
0.0
 13
1.0
 23
0.0
 33
0.0
 40
0.0
 40
0.0
 40
0.0
 40
0.0
 40
1.0
 40
1.0
 40
1.0
 40
2.0
 40
2.0
 40
2.0
 40
3.0
 40
3.0
 40
3.0
 40
4.0
 40
4.0
 40
4.0
 40
5.0
 40
5.0
 40
5.0
 40
6.0
 40
6.0
 40
6.0
 40
7.0
 40
7.0
 40
7.0
 40
8.0
 40
8.0
 40
8.0
 40
9.0
 40
9.0
 40
9.0
 40
9.0
 10
91.31535642248366
 20
-144.0742377026967
 30
0.0
 10
91.14172361002707
 20
-144.0742377026967
 30
0.0
 10
90.89643281147728
 20
-144.0046467738947
 30
0.0
 10
90.85836450636528
 20
-143.6725395691166
 30
0.0
 10
90.85836450636528
 20
-143.6725395691166
 30
0.0
 10
91.07196042645076
 20
-143.6725395691166
 30
0.0
 10
91.07196042645076
 20
-143.6725395691166
 30
0.0
 10
91.08264022245504
 20
-143.7317952114629
 30
0.0
 10
91.11433510091933
 20
-143.8795898077801
 30
0.0
 10
91.31742347977482
 20
-143.8795898077801
 30
0.0
 10
91.60922306737548
 20
-143.8795898077801
 30
0.0
 10
91.64746362726174
 20
-143.5495496602932
 30
0.0
 10
91.66021048055717
 20
-143.3445664789208
 30
0.0
 10
91.56925995974657
 20
-143.4248372037271
 30
0.0
 10
91.50139157868716
 20
-143.4820257887823
 30
0.0
 10
91.31949053706596
 20
-143.4820257887823
 30
0.0
 10
91.13965655273593
 20
-143.4820257887823
 30
0.0
 10
90.83717716913098
 20
-143.3762613573851
 30
0.0
 10
90.83717716913098
 20
-142.9700845996742
 30
0.0
 10
90.83717716913098
 20
-142.6507242481915
 30
0.0
 10
91.03595917862991
 20
-142.430582646684
 30
0.0
 10
91.35342472759568
 20
-142.430582646684
 30
0.0
 10
91.86760522876921
 20
-142.430582646684
 30
0.0
 10
91.87794051522496
 20
-142.9848985102607
 30
0.0
 10
91.87794051522496
 20
-143.1984944303462
 30
0.0
 10
91.87794051522496
 20
-143.4289713183094
 30
0.0
 10
91.8589924900561
 20
-144.0742377026967
 30
0.0
 10
91.31535642248366
 20
-144.0742377026967
 30
0.0
  0
SPLINE
  5
92
330
8B
100
AcDbEntity
  8
_U+30EC_U+30A4_U+30E4_U+30FC 1
370
     0
100
AcDbSpline
210
0.0
220
0.0
230
1.0
 70
    11
 71
     3
 72
    17
 73
    13
 74
     0
 42
0.0000000001
 43
0.0000000001
 12
1.0
 22
0.0
 32
0.0
 13
1.0
 23
0.0
 33
0.0
 40
0.0
 40
0.0
 40
0.0
 40
0.0
 40
1.0
 40
1.0
 40
1.0
 40
2.0
 40
2.0
 40
2.0
 40
3.0
 40
3.0
 40
3.0
 40
4.0
 40
4.0
 40
4.0
 40
4.0
 10
91.35549178488682
 20
-142.6231634843095
 30
0.0
 10
91.23698050019424
 20
-142.6231634843095
 30
0.0
 10
91.06145288522075
 20
-142.6803520693646
 30
0.0
 10
91.06145288522075
 20
-142.9659504850918
 30
0.0
 10
91.06145288522075
 20
-143.1922932584728
 30
0.0
 10
91.20097925237337
 20
-143.2873778938657
 30
0.0
 10
91.33637150494368
 20
-143.2873778938657
 30
0.0
 10
91.59888778091972
 20
-143.2873778938657
 30
0.0
 10
91.63678383125747
 20
-143.0779160883625
 30
0.0
 10
91.63678383125747
 20
-142.961471860961
 30
0.0
 10
91.63678383125747
 20
-142.7861165007618
 30
0.0
 10
91.54169919586458
 20
-142.6231634843095
 30
0.0
 10
91.35549178488682
 20
-142.6231634843095
 30
0.0
  0
HATCH
  5
93
330
8B
100
AcDbEntity
  8
_U+30EC_U+30A4_U+30E4_U+30FC 1
 62
   179
420
  2234388
100
AcDbHatch
 10
0.0
 20
0.0
 30
0.0
210
0.0
220
0.0
230
1.0
  2
SOLID
 70
     1
 71
     0
 91
        2
 92
        1
 93
        1
 72
     4
 94
        3
 73
     0
 74
     1
 95
       32
 96
       28
 40
0.0
 40
0.0
 40
0.0
 40
0.0
 40
1.0
 40
1.0
 40
1.0
 40
2.0
 40
2.0
 40
2.0
 40
3.0
 40
3.0
 40
3.0
 40
4.0
 40
4.0
 40
4.0
 40
5.0
 40
5.0
 40
5.0
 40
6.0
 40
6.0
 40
6.0
 40
7.0
 40
7.0
 40
7.0
 40
8.0
 40
8.0
 40
8.0
 40
9.0
 40
9.0
 40
9.0
 40
9.0
 10
91.31535642248366
 20
-144.0742377026967
 10
91.14172361002707
 20
-144.0742377026967
 10
90.89643281147728
 20
-144.0046467738947
 10
90.85836450636528
 20
-143.6725395691166
 10
90.85836450636528
 20
-143.6725395691166
 10
91.07196042645076
 20
-143.6725395691166
 10
91.07196042645076
 20
-143.6725395691166
 10
91.08264022245504
 20
-143.7317952114629
 10
91.11433510091933
 20
-143.8795898077801
 10
91.31742347977482
 20
-143.8795898077801
 10
91.60922306737548
 20
-143.8795898077801
 10
91.64746362726174
 20
-143.5495496602932
 10
91.66021048055717
 20
-143.3445664789208
 10
91.56925995974657
 20
-143.4248372037271
 10
91.50139157868716
 20
-143.4820257887823
 10
91.31949053706596
 20
-143.4820257887823
 10
91.13965655273593
 20
-143.4820257887823
 10
90.83717716913098
 20
-143.3762613573851
 10
90.83717716913098
 20
-142.9700845996742
 10
90.83717716913098
 20
-142.6507242481915
 10
91.03595917862991
 20
-142.430582646684
 10
91.35342472759568
 20
-142.430582646684
 10
91.86760522876921
 20
-142.430582646684
 10
91.87794051522496
 20
-142.9848985102607
 10
91.87794051522496
 20
-143.1984944303462
 10
91.87794051522496
 20
-143.4289713183094
 10
91.8589924900561
 20
-144.0742377026967
 10
91.31535642248366
 20
-144.0742377026967
 97
        0
 97
        0
 92
        1
 93
        1
 72
     4
 94
        3
 73
     0
 74
     1
 95
       17
 96
       13
 40
0.0
 40
0.0
 40
0.0
 40
0.0
 40
1.0
 40
1.0
 40
1.0
 40
2.0
 40
2.0
 40
2.0
 40
3.0
 40
3.0
 40
3.0
 40
4.0
 40
4.0
 40
4.0
 40
4.0
 10
91.35549178488682
 20
-142.6231634843095
 10
91.23698050019424
 20
-142.6231634843095
 10
91.06145288522075
 20
-142.6803520693646
 10
91.06145288522075
 20
-142.9659504850918
 10
91.06145288522075
 20
-143.1922932584728
 10
91.20097925237337
 20
-143.2873778938657
 10
91.33637150494368
 20
-143.2873778938657
 10
91.59888778091972
 20
-143.2873778938657
 10
91.63678383125747
 20
-143.0779160883625
 10
91.63678383125747
 20
-142.961471860961
 10
91.63678383125747
 20
-142.7861165007618
 10
91.54169919586458
 20
-142.6231634843095
 10
91.35549178488682
 20
-142.6231634843095
 97
        0
 97
        0
 75
     2
 76
     1
 98
        0
  0
POLYLINE
  5
94
330
8B
100
AcDbEntity
  8
_U+30EC_U+30A4_U+30E4_U+30FC 1
370
     0
100
AcDb2dPolyline
 66
     1
 10
0.0
 20
0.0
 30
0.0
  0
VERTEX
  5
95
330
94
100
AcDbEntity
  8
_U+30EC_U+30A4_U+30E4_U+30FC 1
370
     0
100
AcDbVertex
100
AcDb2dVertex
 10
92.09429251169865
 20
-144.0235947990635
 30
0.0
  0
VERTEX
  5
96
330
94
100
AcDbEntity
  8
_U+30EC_U+30A4_U+30E4_U+30FC 1
370
     0
100
AcDbVertex
100
AcDb2dVertex
 10
92.09429251169865
 20
-143.7717583190918
 30
0.0
  0
VERTEX
  5
97
330
94
100
AcDbEntity
  8
_U+30EC_U+30A4_U+30E4_U+30FC 1
370
     0
100
AcDbVertex
100
AcDb2dVertex
 10
92.34612899167041
 20
-143.7717583190918
 30
0.0
  0
VERTEX
  5
98
330
94
100
AcDbEntity
  8
_U+30EC_U+30A4_U+30E4_U+30FC 1
370
     0
100
AcDbVertex
100
AcDb2dVertex
 10
92.34612899167041
 20
-144.0235947990635
 30
0.0
  0
VERTEX
  5
99
330
94
100
AcDbEntity
  8
_U+30EC_U+30A4_U+30E4_U+30FC 1
370
     0
100
AcDbVertex
100
AcDb2dVertex
 10
92.09429251169865
 20
-144.0235947990635
 30
0.0
  0
SEQEND
  5
9A
330
94
100
AcDbEntity
  8
_U+30EC_U+30A4_U+30E4_U+30FC 1
370
     0
  0
HATCH
  5
9B
330
8B
100
AcDbEntity
  8
_U+30EC_U+30A4_U+30E4_U+30FC 1
 62
   179
420
  2234388
100
AcDbHatch
 10
0.0
 20
0.0
 30
0.0
210
0.0
220
0.0
230
1.0
  2
SOLID
 70
     1
 71
     0
 91
        1
 92
        1
 93
        4
 72
     1
 10
92.09429251169865
 20
-144.0235947990635
 11
92.09429251169865
 21
-143.7717583190918
 72
     1
 10
92.09429251169865
 20
-143.7717583190918
 11
92.34612899167041
 21
-143.7717583190918
 72
     1
 10
92.34612899167041
 20
-143.7717583190918
 11
92.34612899167041
 21
-144.0235947990635
 72
     1
 10
92.34612899167041
 20
-144.0235947990635
 11
92.09429251169865
 21
-144.0235947990635
 97
        0
 75
     2
 76
     1
 98
        0
  0
SPLINE
  5
9C
330
8B
100
AcDbEntity
  8
_U+30EC_U+30A4_U+30E4_U+30FC 1
370
     0
100
AcDbSpline
210
0.0
220
0.0
230
1.0
 70
    11
 71
     3
 72
    53
 73
    49
 74
     0
 42
0.0000000001
 43
0.0000000001
 12
1.0
 22
0.0
 32
0.0
 13
1.0
 23
0.0
 33
0.0
 40
0.0
 40
0.0
 40
0.0
 40
0.0
 40
1.0
 40
1.0
 40
1.0
 40
2.0
 40
2.0
 40
2.0
 40
3.0
 40
3.0
 40
3.0
 40
4.0
 40
4.0
 40
4.0
 40
5.0
 40
5.0
 40
5.0
 40
6.0
 40
6.0
 40
6.0
 40
7.0
 40
7.0
 40
7.0
 40
8.0
 40
8.0
 40
8.0
 40
9.0
 40
9.0
 40
9.0
 40
10.0
 40
10.0
 40
10.0
 40
11.0
 40
11.0
 40
11.0
 40
12.0
 40
12.0
 40
12.0
 40
13.0
 40
13.0
 40
13.0
 40
14.0
 40
14.0
 40
14.0
 40
15.0
 40
15.0
 40
15.0
 40
16.0
 40
16.0
 40
16.0
 40
16.0
 10
93.06374238124796
 20
-144.0742377026967
 30
0.0
 10
92.98519420418427
 20
-144.0742377026967
 30
0.0
 10
92.88390839691792
 20
-144.057356734819
 30
0.0
 10
92.78193357055451
 20
-143.9939669778904
 30
0.0
 10
92.60864526764645
 20
-143.8840684319109
 30
0.0
 10
92.58763018518643
 20
-143.7528102939229
 30
0.0
 10
92.56833765046903
 20
-143.6449788052346
 30
0.0
 10
92.56833765046903
 20
-143.6449788052346
 30
0.0
 10
92.79054630926764
 20
-143.6449788052346
 30
0.0
 10
92.79054630926764
 20
-143.6449788052346
 30
0.0
 10
92.84566783703164
 20
-143.8437608147335
 30
0.0
 10
92.97279186043737
 20
-143.8733886359067
 30
0.0
 10
93.0658094385391
 20
-143.8733886359067
 30
0.0
 10
93.20533580569173
 20
-143.8733886359067
 30
0.0
 10
93.35760902613977
 20
-143.7738253763829
 30
0.0
 10
93.35760902613977
 20
-143.5412814311286
 30
0.0
 10
93.35760902613977
 20
-143.2853108365745
 30
0.0
 10
93.17777504180972
 20
-143.2153753982239
 30
0.0
 10
93.05719669982598
 20
-143.2153753982239
 30
0.0
 10
93.02550182136169
 20
-143.2153753982239
 30
0.0
 10
92.88390839691792
 20
-143.2153753982239
 30
0.0
 10
92.79502493339847
 20
-143.3445664789208
 30
0.0
 10
92.79502493339847
 20
-143.3445664789208
 30
0.0
 10
92.61932506365073
 20
-143.3256184537519
 30
0.0
 10
92.61932506365073
 20
-143.3256184537519
 30
0.0
 10
92.61932506365073
 20
-143.3256184537519
 30
0.0
 10
92.73990340563448
 20
-142.4791584930261
 30
0.0
 10
92.73990340563448
 20
-142.4791584930261
 30
0.0
 10
92.73990340563448
 20
-142.4791584930261
 30
0.0
 10
93.51849498530093
 20
-142.4791584930261
 30
0.0
 10
93.51849498530093
 20
-142.4791584930261
 30
0.0
 10
93.51849498530093
 20
-142.4791584930261
 30
0.0
 10
93.51849498530093
 20
-142.6738063879427
 30
0.0
 10
93.51849498530093
 20
-142.6738063879427
 30
0.0
 10
93.51849498530093
 20
-142.6738063879427
 30
0.0
 10
92.90251191253826
 20
-142.6738063879427
 30
0.0
 10
92.90251191253826
 20
-142.6738063879427
 30
0.0
 10
92.90251191253826
 20
-142.6738063879427
 30
0.0
 10
92.83705509831852
 20
-143.0968641135314
 30
0.0
 10
92.83705509831852
 20
-143.0968641135314
 30
0.0
 10
92.89837779795596
 20
-143.0631021777759
 30
0.0
 10
92.98106008960197
 20
-143.0227945605985
 30
0.0
 10
93.09957137429456
 20
-143.0227945605985
 30
0.0
 10
93.35313040200894
 20
-143.0227945605985
 30
0.0
 10
93.59015297139413
 20
-143.2091742263505
 30
0.0
 10
93.59015297139413
 20
-143.5223334059597
 30
0.0
 10
93.59015297139413
 20
-143.8396267001512
 30
0.0
 10
93.3662217648529
 20
-144.0742377026967
 30
0.0
 10
93.06374238124796
 20
-144.0742377026967
 30
0.0
  0
HATCH
  5
9D
330
8B
100
AcDbEntity
  8
_U+30EC_U+30A4_U+30E4_U+30FC 1
 62
   179
420
  2234388
100
AcDbHatch
 10
0.0
 20
0.0
 30
0.0
210
0.0
220
0.0
230
1.0
  2
SOLID
 70
     1
 71
     0
 91
        1
 92
        1
 93
        1
 72
     4
 94
        3
 73
     0
 74
     1
 95
       53
 96
       49
 40
0.0
 40
0.0
 40
0.0
 40
0.0
 40
1.0
 40
1.0
 40
1.0
 40
2.0
 40
2.0
 40
2.0
 40
3.0
 40
3.0
 40
3.0
 40
4.0
 40
4.0
 40
4.0
 40
5.0
 40
5.0
 40
5.0
 40
6.0
 40
6.0
 40
6.0
 40
7.0
 40
7.0
 40
7.0
 40
8.0
 40
8.0
 40
8.0
 40
9.0
 40
9.0
 40
9.0
 40
10.0
 40
10.0
 40
10.0
 40
11.0
 40
11.0
 40
11.0
 40
12.0
 40
12.0
 40
12.0
 40
13.0
 40
13.0
 40
13.0
 40
14.0
 40
14.0
 40
14.0
 40
15.0
 40
15.0
 40
15.0
 40
16.0
 40
16.0
 40
16.0
 40
16.0
 10
93.06374238124796
 20
-144.0742377026967
 10
92.98519420418427
 20
-144.0742377026967
 10
92.88390839691792
 20
-144.057356734819
 10
92.78193357055451
 20
-143.9939669778904
 10
92.60864526764645
 20
-143.8840684319109
 10
92.58763018518643
 20
-143.7528102939229
 10
92.56833765046903
 20
-143.6449788052346
 10
92.56833765046903
 20
-143.6449788052346
 10
92.79054630926764
 20
-143.6449788052346
 10
92.79054630926764
 20
-143.6449788052346
 10
92.84566783703164
 20
-143.8437608147335
 10
92.97279186043737
 20
-143.8733886359067
 10
93.0658094385391
 20
-143.8733886359067
 10
93.20533580569173
 20
-143.8733886359067
 10
93.35760902613977
 20
-143.7738253763829
 10
93.35760902613977
 20
-143.5412814311286
 10
93.35760902613977
 20
-143.2853108365745
 10
93.17777504180972
 20
-143.2153753982239
 10
93.05719669982598
 20
-143.2153753982239
 10
93.02550182136169
 20
-143.2153753982239
 10
92.88390839691792
 20
-143.2153753982239
 10
92.79502493339847
 20
-143.3445664789208
 10
92.79502493339847
 20
-143.3445664789208
 10
92.61932506365073
 20
-143.3256184537519
 10
92.61932506365073
 20
-143.3256184537519
 10
92.61932506365073
 20
-143.3256184537519
 10
92.73990340563448
 20
-142.4791584930261
 10
92.73990340563448
 20
-142.4791584930261
 10
92.73990340563448
 20
-142.4791584930261
 10
93.51849498530093
 20
-142.4791584930261
 10
93.51849498530093
 20
-142.4791584930261
 10
93.51849498530093
 20
-142.4791584930261
 10
93.51849498530093
 20
-142.6738063879427
 10
93.51849498530093
 20
-142.6738063879427
 10
93.51849498530093
 20
-142.6738063879427
 10
92.90251191253826
 20
-142.6738063879427
 10
92.90251191253826
 20
-142.6738063879427
 10
92.90251191253826
 20
-142.6738063879427
 10
92.83705509831852
 20
-143.0968641135314
 10
92.83705509831852
 20
-143.0968641135314
 10
92.89837779795596
 20
-143.0631021777759
 10
92.98106008960197
 20
-143.0227945605985
 10
93.09957137429456
 20
-143.0227945605985
 10
93.35313040200894
 20
-143.0227945605985
 10
93.59015297139413
 20
-143.2091742263505
 10
93.59015297139413
 20
-143.5223334059597
 10
93.59015297139413
 20
-143.8396267001512
 10
93.3662217648529
 20
-144.0742377026967
 10
93.06374238124796
 20
-144.0742377026967
 97
        0
 97
        0
 75
     2
 76
     1
 98
        0
  0
ENDBLK
  5
8E
330
8B
100
AcDbEntity
  8
0
100
AcDbBlockEnd
  0
BLOCK
  5
AF
330
AD
100
AcDbEntity
  8
0
100
AcDbBlockBegin
  2
block 4
 70
     0
 10
0.0
 20
0.0
 30
0.0
  3
block 4
  1

  0
SPLINE
  5
B1
330
AD
100
AcDbEntity
  8
_U+30EC_U+30A4_U+30E4_U+30FC 1
370
     0
100
AcDbSpline
210
0.0
220
0.0
230
1.0
 70
    11
 71
     3
 72
    26
 73
    22
 74
     0
 42
0.0000000001
 43
0.0000000001
 12
1.0
 22
0.0
 32
0.0
 13
1.0
 23
0.0
 33
0.0
 40
0.0
 40
0.0
 40
0.0
 40
0.0
 40
1.0
 40
1.0
 40
1.0
 40
2.0
 40
2.0
 40
2.0
 40
3.0
 40
3.0
 40
3.0
 40
4.0
 40
4.0
 40
4.0
 40
5.0
 40
5.0
 40
5.0
 40
6.0
 40
6.0
 40
6.0
 40
7.0
 40
7.0
 40
7.0
 40
7.0
 10
98.74022621229412
 20
-114.9142604964451
 30
0.0
 10
98.74022621229412
 20
-114.9142604964451
 30
0.0
 10
97.63607310927154
 20
-114.9142604964451
 30
0.0
 10
97.63607310927154
 20
-114.9142604964451
 30
0.0
 10
97.63607310927154
 20
-114.9142604964451
 30
0.0
 10
97.63607310927154
 20
-115.244300643932
 30
0.0
 10
97.63607310927154
 20
-115.244300643932
 30
0.0
 10
97.63607310927154
 20
-115.244300643932
 30
0.0
 10
97.4879340034058
 20
-115.244300643932
 30
0.0
 10
97.4879340034058
 20
-115.244300643932
 30
0.0
 10
97.47312009281923
 20
-114.9121934391539
 30
0.0
 10
97.31016707636691
 20
-114.865684650103
 30
0.0
 10
97.1957899062566
 20
-114.8360568289299
 30
0.0
 10
97.1957899062566
 20
-114.8360568289299
 30
0.0
 10
97.1957899062566
 20
-114.6899847803553
 30
0.0
 10
97.1957899062566
 20
-114.6899847803553
 30
0.0
 10
97.1957899062566
 20
-114.6899847803553
 30
0.0
 10
98.74022621229412
 20
-114.6899847803553
 30
0.0
 10
98.74022621229412
 20
-114.6899847803553
 30
0.0
 10
98.74022621229412
 20
-114.6899847803553
 30
0.0
 10
98.74022621229412
 20
-114.9142604964451
 30
0.0
 10
98.74022621229412
 20
-114.9142604964451
 30
0.0
  0
HATCH
  5
B2
330
AD
100
AcDbEntity
  8
_U+30EC_U+30A4_U+30E4_U+30FC 1
 62
   179
420
  2234388
100
AcDbHatch
 10
0.0
 20
0.0
 30
0.0
210
0.0
220
0.0
230
1.0
  2
SOLID
 70
     1
 71
     0
 91
        1
 92
        1
 93
        1
 72
     4
 94
        3
 73
     0
 74
     1
 95
       26
 96
       22
 40
0.0
 40
0.0
 40
0.0
 40
0.0
 40
1.0
 40
1.0
 40
1.0
 40
2.0
 40
2.0
 40
2.0
 40
3.0
 40
3.0
 40
3.0
 40
4.0
 40
4.0
 40
4.0
 40
5.0
 40
5.0
 40
5.0
 40
6.0
 40
6.0
 40
6.0
 40
7.0
 40
7.0
 40
7.0
 40
7.0
 10
98.74022621229412
 20
-114.9142604964451
 10
98.74022621229412
 20
-114.9142604964451
 10
97.63607310927154
 20
-114.9142604964451
 10
97.63607310927154
 20
-114.9142604964451
 10
97.63607310927154
 20
-114.9142604964451
 10
97.63607310927154
 20
-115.244300643932
 10
97.63607310927154
 20
-115.244300643932
 10
97.63607310927154
 20
-115.244300643932
 10
97.4879340034058
 20
-115.244300643932
 10
97.4879340034058
 20
-115.244300643932
 10
97.47312009281923
 20
-114.9121934391539
 10
97.31016707636691
 20
-114.865684650103
 10
97.1957899062566
 20
-114.8360568289299
 10
97.1957899062566
 20
-114.8360568289299
 10
97.1957899062566
 20
-114.6899847803553
 10
97.1957899062566
 20
-114.6899847803553
 10
97.1957899062566
 20
-114.6899847803553
 10
98.74022621229412
 20
-114.6899847803553
 10
98.74022621229412
 20
-114.6899847803553
 10
98.74022621229412
 20
-114.6899847803553
 10
98.74022621229412
 20
-114.9142604964451
 10
98.74022621229412
 20
-114.9142604964451
 97
        0
 97
        0
 75
     2
 76
     1
 98
        0
  0
SPLINE
  5
B3
330
AD
100
AcDbEntity
  8
_U+30EC_U+30A4_U+30E4_U+30FC 1
370
     0
100
AcDbSpline
210
0.0
220
0.0
230
1.0
 70
    11
 71
     3
 72
    29
 73
    25
 74
     0
 42
0.0000000001
 43
0.0000000001
 12
1.0
 22
0.0
 32
0.0
 13
1.0
 23
0.0
 33
0.0
 40
0.0
 40
0.0
 40
0.0
 40
0.0
 40
1.0
 40
1.0
 40
1.0
 40
2.0
 40
2.0
 40
2.0
 40
3.0
 40
3.0
 40
3.0
 40
4.0
 40
4.0
 40
4.0
 40
5.0
 40
5.0
 40
5.0
 40
6.0
 40
6.0
 40
6.0
 40
7.0
 40
7.0
 40
7.0
 40
8.0
 40
8.0
 40
8.0
 40
8.0
 10
98.56245928525523
 20
-113.2909315037953
 30
0.0
 10
98.77192109075841
 20
-113.3991075020322
 30
0.0
 10
98.7908691159273
 20
-113.5723958049402
 30
0.0
 10
98.7908691159273
 20
-113.6888400323417
 30
0.0
 10
98.7908691159273
 20
-113.8497259915029
 30
0.0
 10
98.74470483642494
 20
-113.9913194159466
 30
0.0
 10
98.56245928525523
 20
-114.0864040513395
 30
0.0
 10
98.3678113903386
 20
-114.1901014254455
 30
0.0
 10
98.13078882095341
 20
-114.2090494506144
 30
0.0
 10
97.96818031404963
 20
-114.2090494506144
 30
0.0
 10
97.82417532276618
 20
-114.2090494506144
 30
0.0
 10
97.57268335234295
 20
-114.1921684827367
 30
0.0
 10
97.37355683329551
 20
-114.0864040513395
 30
0.0
 10
97.17029619966577
 20
-113.9785725626512
 30
0.0
 10
97.14721405991459
 20
-113.81768660349
 30
0.0
 10
97.14721405991459
 20
-113.6888400323417
 30
0.0
 10
97.14721405991459
 20
-113.5300211304717
 30
0.0
 10
97.19165579167431
 20
-113.3863606487368
 30
0.0
 10
97.37355683329551
 20
-113.2909315037953
 30
0.0
 10
97.56613767092097
 20
-113.1917127538201
 30
0.0
 10
97.79454750159303
 20
-113.1682861045204
 30
0.0
 10
97.96818031404963
 20
-113.1682861045204
 30
0.0
 10
98.13940155966654
 20
-113.1682861045204
 30
0.0
 10
98.36987844762976
 20
-113.189645696529
 30
0.0
 10
98.56245928525523
 20
-113.2909315037953
 30
0.0
  0
SPLINE
  5
B4
330
AD
100
AcDbEntity
  8
_U+30EC_U+30A4_U+30E4_U+30FC 1
370
     0
100
AcDbSpline
210
0.0
220
0.0
230
1.0
 70
    11
 71
     3
 72
    17
 73
    13
 74
     0
 42
0.0000000001
 43
0.0000000001
 12
1.0
 22
0.0
 32
0.0
 13
1.0
 23
0.0
 33
0.0
 40
0.0
 40
0.0
 40
0.0
 40
0.0
 40
1.0
 40
1.0
 40
1.0
 40
2.0
 40
2.0
 40
2.0
 40
3.0
 40
3.0
 40
3.0
 40
4.0
 40
4.0
 40
4.0
 40
4.0
 10
97.33979489754006
 20
-113.6888400323417
 30
0.0
 10
97.33979489754006
 20
-113.9382649454738
 30
0.0
 10
97.62332625597612
 20
-113.9851182440732
 30
0.0
 10
97.96818031404963
 20
-113.9851182440732
 30
0.0
 10
98.28754066553229
 20
-113.9851182440732
 30
0.0
 10
98.59656573055919
 20
-113.948944741478
 30
0.0
 10
98.59656573055919
 20
-113.6888400323417
 30
0.0
 10
98.59656573055919
 20
-113.4411376669522
 30
0.0
 10
98.31475691986576
 20
-113.3925618206102
 30
0.0
 10
97.96818031404963
 20
-113.3925618206102
 30
0.0
 10
97.64847545301843
 20
-113.3925618206102
 30
0.0
 10
97.33979489754006
 20
-113.4308023804965
 30
0.0
 10
97.33979489754006
 20
-113.6888400323417
 30
0.0
  0
HATCH
  5
B5
330
AD
100
AcDbEntity
  8
_U+30EC_U+30A4_U+30E4_U+30FC 1
 62
   179
420
  2234388
100
AcDbHatch
 10
0.0
 20
0.0
 30
0.0
210
0.0
220
0.0
230
1.0
  2
SOLID
 70
     1
 71
     0
 91
        2
 92
        1
 93
        1
 72
     4
 94
        3
 73
     0
 74
     1
 95
       29
 96
       25
 40
0.0
 40
0.0
 40
0.0
 40
0.0
 40
1.0
 40
1.0
 40
1.0
 40
2.0
 40
2.0
 40
2.0
 40
3.0
 40
3.0
 40
3.0
 40
4.0
 40
4.0
 40
4.0
 40
5.0
 40
5.0
 40
5.0
 40
6.0
 40
6.0
 40
6.0
 40
7.0
 40
7.0
 40
7.0
 40
8.0
 40
8.0
 40
8.0
 40
8.0
 10
98.56245928525523
 20
-113.2909315037953
 10
98.77192109075841
 20
-113.3991075020322
 10
98.7908691159273
 20
-113.5723958049402
 10
98.7908691159273
 20
-113.6888400323417
 10
98.7908691159273
 20
-113.8497259915029
 10
98.74470483642494
 20
-113.9913194159466
 10
98.56245928525523
 20
-114.0864040513395
 10
98.3678113903386
 20
-114.1901014254455
 10
98.13078882095341
 20
-114.2090494506144
 10
97.96818031404963
 20
-114.2090494506144
 10
97.82417532276618
 20
-114.2090494506144
 10
97.57268335234295
 20
-114.1921684827367
 10
97.37355683329551
 20
-114.0864040513395
 10
97.17029619966577
 20
-113.9785725626512
 10
97.14721405991459
 20
-113.81768660349
 10
97.14721405991459
 20
-113.6888400323417
 10
97.14721405991459
 20
-113.5300211304717
 10
97.19165579167431
 20
-113.3863606487368
 10
97.37355683329551
 20
-113.2909315037953
 10
97.56613767092097
 20
-113.1917127538201
 10
97.79454750159303
 20
-113.1682861045204
 10
97.96818031404963
 20
-113.1682861045204
 10
98.13940155966654
 20
-113.1682861045204
 10
98.36987844762976
 20
-113.189645696529
 10
98.56245928525523
 20
-113.2909315037953
 97
        0
 97
        0
 92
        1
 93
        1
 72
     4
 94
        3
 73
     0
 74
     1
 95
       17
 96
       13
 40
0.0
 40
0.0
 40
0.0
 40
0.0
 40
1.0
 40
1.0
 40
1.0
 40
2.0
 40
2.0
 40
2.0
 40
3.0
 40
3.0
 40
3.0
 40
4.0
 40
4.0
 40
4.0
 40
4.0
 10
97.33979489754006
 20
-113.6888400323417
 10
97.33979489754006
 20
-113.9382649454738
 10
97.62332625597612
 20
-113.9851182440732
 10
97.96818031404963
 20
-113.9851182440732
 10
98.28754066553229
 20
-113.9851182440732
 10
98.59656573055919
 20
-113.948944741478
 10
98.59656573055919
 20
-113.6888400323417
 10
98.59656573055919
 20
-113.4411376669522
 10
98.31475691986576
 20
-113.3925618206102
 10
97.96818031404963
 20
-113.3925618206102
 10
97.64847545301843
 20
-113.3925618206102
 10
97.33979489754006
 20
-113.4308023804965
 10
97.33979489754006
 20
-113.6888400323417
 97
        0
 97
        0
 75
     2
 76
     1
 98
        0
  0
ENDBLK
  5
B0
330
AD
100
AcDbEntity
  8
0
100
AcDbBlockEnd
  0
BLOCK
  5
C7
330
C5
100
AcDbEntity
  8
0
100
AcDbBlockBegin
  2
block 5
 70
     0
 10
0.0
 20
0.0
 30
0.0
  3
block 5
  1

  0
SPLINE
  5
C9
330
C5
100
AcDbEntity
  8
_U+30EC_U+30A4_U+30E4_U+30FC 1
370
     0
100
AcDbSpline
210
0.0
220
0.0
230
1.0
 70
    11
 71
     3
 72
    32
 73
    28
 74
     0
 42
0.0000000001
 43
0.0000000001
 12
1.0
 22
0.0
 32
0.0
 13
1.0
 23
0.0
 33
0.0
 40
0.0
 40
0.0
 40
0.0
 40
0.0
 40
1.0
 40
1.0
 40
1.0
 40
2.0
 40
2.0
 40
2.0
 40
3.0
 40
3.0
 40
3.0
 40
4.0
 40
4.0
 40
4.0
 40
5.0
 40
5.0
 40
5.0
 40
6.0
 40
6.0
 40
6.0
 40
7.0
 40
7.0
 40
7.0
 40
8.0
 40
8.0
 40
8.0
 40
9.0
 40
9.0
 40
9.0
 40
9.0
 10
100.7966037074397
 20
-130.5367349934075
 30
0.0
 10
100.7966037074397
 20
-131.0528102970979
 30
0.0
 10
100.2426323534116
 20
-131.0610785262625
 30
0.0
 10
100.0290364333261
 20
-131.0610785262625
 30
0.0
 10
99.79821503581434
 20
-131.0610785262625
 30
0.0
 10
99.1508815941359
 20
-131.0421305010937
 30
0.0
 10
99.1508815941359
 20
-130.4984944335212
 30
0.0
 10
99.1508815941359
 20
-130.3252061306131
 30
0.0
 10
99.22081703248647
 20
-130.0795708225148
 30
0.0
 10
99.55292423726455
 20
-130.0416747721771
 30
0.0
 10
99.55292423726455
 20
-130.0416747721771
 30
0.0
 10
99.55292423726455
 20
-130.2552706922626
 30
0.0
 10
99.55292423726455
 20
-130.2552706922626
 30
0.0
 10
99.4957356522094
 20
-130.2659504882668
 30
0.0
 10
99.34759654634367
 20
-130.2976453667312
 30
0.0
 10
99.34759654634367
 20
-130.5005614908124
 30
0.0
 10
99.34759654634367
 20
-130.7927055879616
 30
0.0
 10
99.67556963653945
 20
-130.8326686955905
 30
0.0
 10
99.88089732746033
 20
-130.8454155488859
 30
0.0
 10
99.80234915039664
 20
-130.7523979707841
 30
0.0
 10
99.74309350805034
 20
-130.6845295897247
 30
0.0
 10
99.74309350805034
 20
-130.5026285481035
 30
0.0
 10
99.74309350805034
 20
-130.3227945637735
 30
0.0
 10
99.85126950628718
 20
-130.0203151801686
 30
0.0
 10
100.2571017544496
 20
-130.0203151801686
 30
0.0
 10
100.5768066154808
 20
-130.0203151801686
 30
0.0
 10
100.7966037074397
 20
-130.219441699216
 30
0.0
 10
100.7966037074397
 20
-130.5367349934075
 30
0.0
  0
SPLINE
  5
CA
330
C5
100
AcDbEntity
  8
_U+30EC_U+30A4_U+30E4_U+30FC 1
370
     0
100
AcDbSpline
210
0.0
220
0.0
230
1.0
 70
    11
 71
     3
 72
    17
 73
    13
 74
     0
 42
0.0000000001
 43
0.0000000001
 12
1.0
 22
0.0
 32
0.0
 13
1.0
 23
0.0
 33
0.0
 40
0.0
 40
0.0
 40
0.0
 40
0.0
 40
1.0
 40
1.0
 40
1.0
 40
2.0
 40
2.0
 40
2.0
 40
3.0
 40
3.0
 40
3.0
 40
4.0
 40
4.0
 40
4.0
 40
4.0
 10
99.93808591251549
 20
-130.5195095159812
 30
0.0
 10
99.93808591251549
 20
-130.7820257919573
 30
0.0
 10
100.1496147753098
 20
-130.819921842295
 30
0.0
 10
100.2657144931627
 20
-130.819921842295
 30
0.0
 10
100.4414143629105
 20
-130.819921842295
 30
0.0
 10
100.6043673793628
 20
-130.7248372069021
 30
0.0
 10
100.6043673793628
 20
-130.5408691079898
 30
0.0
 10
100.6043673793628
 20
-130.420290766006
 30
0.0
 10
100.5451117370165
 20
-130.2445908962583
 30
0.0
 10
100.2591688117408
 20
-130.2445908962583
 30
0.0
 10
100.0352376051995
 20
-130.2445908962583
 30
0.0
 10
99.93808591251549
 20
-130.3844617729594
 30
0.0
 10
99.93808591251549
 20
-130.5195095159812
 30
0.0
  0
HATCH
  5
CB
330
C5
100
AcDbEntity
  8
_U+30EC_U+30A4_U+30E4_U+30FC 1
 62
   179
420
  2234388
100
AcDbHatch
 10
0.0
 20
0.0
 30
0.0
210
0.0
220
0.0
230
1.0
  2
SOLID
 70
     1
 71
     0
 91
        2
 92
        1
 93
        1
 72
     4
 94
        3
 73
     0
 74
     1
 95
       32
 96
       28
 40
0.0
 40
0.0
 40
0.0
 40
0.0
 40
1.0
 40
1.0
 40
1.0
 40
2.0
 40
2.0
 40
2.0
 40
3.0
 40
3.0
 40
3.0
 40
4.0
 40
4.0
 40
4.0
 40
5.0
 40
5.0
 40
5.0
 40
6.0
 40
6.0
 40
6.0
 40
7.0
 40
7.0
 40
7.0
 40
8.0
 40
8.0
 40
8.0
 40
9.0
 40
9.0
 40
9.0
 40
9.0
 10
100.7966037074397
 20
-130.5367349934075
 10
100.7966037074397
 20
-131.0528102970979
 10
100.2426323534116
 20
-131.0610785262625
 10
100.0290364333261
 20
-131.0610785262625
 10
99.79821503581434
 20
-131.0610785262625
 10
99.1508815941359
 20
-131.0421305010937
 10
99.1508815941359
 20
-130.4984944335212
 10
99.1508815941359
 20
-130.3252061306131
 10
99.22081703248647
 20
-130.0795708225148
 10
99.55292423726455
 20
-130.0416747721771
 10
99.55292423726455
 20
-130.0416747721771
 10
99.55292423726455
 20
-130.2552706922626
 10
99.55292423726455
 20
-130.2552706922626
 10
99.4957356522094
 20
-130.2659504882668
 10
99.34759654634367
 20
-130.2976453667312
 10
99.34759654634367
 20
-130.5005614908124
 10
99.34759654634367
 20
-130.7927055879616
 10
99.67556963653945
 20
-130.8326686955905
 10
99.88089732746033
 20
-130.8454155488859
 10
99.80234915039664
 20
-130.7523979707841
 10
99.74309350805034
 20
-130.6845295897247
 10
99.74309350805034
 20
-130.5026285481035
 10
99.74309350805034
 20
-130.3227945637735
 10
99.85126950628718
 20
-130.0203151801686
 10
100.2571017544496
 20
-130.0203151801686
 10
100.5768066154808
 20
-130.0203151801686
 10
100.7966037074397
 20
-130.219441699216
 10
100.7966037074397
 20
-130.5367349934075
 97
        0
 97
        0
 92
        1
 93
        1
 72
     4
 94
        3
 73
     0
 74
     1
 95
       17
 96
       13
 40
0.0
 40
0.0
 40
0.0
 40
0.0
 40
1.0
 40
1.0
 40
1.0
 40
2.0
 40
2.0
 40
2.0
 40
3.0
 40
3.0
 40
3.0
 40
4.0
 40
4.0
 40
4.0
 40
4.0
 10
99.93808591251549
 20
-130.5195095159812
 10
99.93808591251549
 20
-130.7820257919573
 10
100.1496147753098
 20
-130.819921842295
 10
100.2657144931627
 20
-130.819921842295
 10
100.4414143629105
 20
-130.819921842295
 10
100.6043673793628
 20
-130.7248372069021
 10
100.6043673793628
 20
-130.5408691079898
 10
100.6043673793628
 20
-130.420290766006
 10
100.5451117370165
 20
-130.2445908962583
 10
100.2591688117408
 20
-130.2445908962583
 10
100.0352376051995
 20
-130.2445908962583
 10
99.93808591251549
 20
-130.3844617729594
 10
99.93808591251549
 20
-130.5195095159812
 97
        0
 97
        0
 75
     2
 76
     1
 98
        0
  0
SPLINE
  5
CC
330
C5
100
AcDbEntity
  8
_U+30EC_U+30A4_U+30E4_U+30FC 1
370
     0
100
AcDbSpline
210
0.0
220
0.0
230
1.0
 70
    11
 71
     3
 72
    29
 73
    25
 74
     0
 42
0.0000000001
 43
0.0000000001
 12
1.0
 22
0.0
 32
0.0
 13
1.0
 23
0.0
 33
0.0
 40
0.0
 40
0.0
 40
0.0
 40
0.0
 40
1.0
 40
1.0
 40
1.0
 40
2.0
 40
2.0
 40
2.0
 40
3.0
 40
3.0
 40
3.0
 40
4.0
 40
4.0
 40
4.0
 40
5.0
 40
5.0
 40
5.0
 40
6.0
 40
6.0
 40
6.0
 40
7.0
 40
7.0
 40
7.0
 40
8.0
 40
8.0
 40
8.0
 40
8.0
 10
100.5681938767677
 20
-128.9661159616821
 30
0.0
 10
100.7776556822709
 20
-129.0742919599189
 30
0.0
 10
100.7966037074397
 20
-129.247580262827
 30
0.0
 10
100.7966037074397
 20
-129.3640244902284
 30
0.0
 10
100.7966037074397
 20
-129.5249104493896
 30
0.0
 10
100.7504394279374
 20
-129.6665038738334
 30
0.0
 10
100.5681938767677
 20
-129.7615885092263
 30
0.0
 10
100.3735459818511
 20
-129.8652858833323
 30
0.0
 10
100.1365234124659
 20
-129.8842339085012
 30
0.0
 10
99.97391490556208
 20
-129.8842339085012
 30
0.0
 10
99.82990991427864
 20
-129.8842339085012
 30
0.0
 10
99.5784179438554
 20
-129.8673529406234
 30
0.0
 10
99.37929142480796
 20
-129.7615885092263
 30
0.0
 10
99.17603079117822
 20
-129.653757020538
 30
0.0
 10
99.15294865142704
 20
-129.4928710613768
 30
0.0
 10
99.15294865142704
 20
-129.3640244902284
 30
0.0
 10
99.15294865142704
 20
-129.2052055883584
 30
0.0
 10
99.19739038318677
 20
-129.0615451066235
 30
0.0
 10
99.37929142480796
 20
-128.9661159616821
 30
0.0
 10
99.57187226243343
 20
-128.8668972117069
 30
0.0
 10
99.8002820931055
 20
-128.8434705624072
 30
0.0
 10
99.97391490556208
 20
-128.8434705624072
 30
0.0
 10
100.145136151179
 20
-128.8434705624072
 30
0.0
 10
100.3756130391422
 20
-128.8648301544158
 30
0.0
 10
100.5681938767677
 20
-128.9661159616821
 30
0.0
  0
SPLINE
  5
CD
330
C5
100
AcDbEntity
  8
_U+30EC_U+30A4_U+30E4_U+30FC 1
370
     0
100
AcDbSpline
210
0.0
220
0.0
230
1.0
 70
    11
 71
     3
 72
    17
 73
    13
 74
     0
 42
0.0000000001
 43
0.0000000001
 12
1.0
 22
0.0
 32
0.0
 13
1.0
 23
0.0
 33
0.0
 40
0.0
 40
0.0
 40
0.0
 40
0.0
 40
1.0
 40
1.0
 40
1.0
 40
2.0
 40
2.0
 40
2.0
 40
3.0
 40
3.0
 40
3.0
 40
4.0
 40
4.0
 40
4.0
 40
4.0
 10
99.34552948905251
 20
-129.3640244902284
 30
0.0
 10
99.34552948905251
 20
-129.6134494033605
 30
0.0
 10
99.62906084748857
 20
-129.6603027019599
 30
0.0
 10
99.97391490556208
 20
-129.6603027019599
 30
0.0
 10
100.2932752570447
 20
-129.6603027019599
 30
0.0
 10
100.6023003220717
 20
-129.6241291993648
 30
0.0
 10
100.6023003220717
 20
-129.3640244902284
 30
0.0
 10
100.6023003220717
 20
-129.116322124839
 30
0.0
 10
100.3204915113782
 20
-129.067746278497
 30
0.0
 10
99.97391490556208
 20
-129.067746278497
 30
0.0
 10
99.6542100445309
 20
-129.067746278497
 30
0.0
 10
99.34552948905251
 20
-129.1059868383832
 30
0.0
 10
99.34552948905251
 20
-129.3640244902284
 30
0.0
  0
HATCH
  5
CE
330
C5
100
AcDbEntity
  8
_U+30EC_U+30A4_U+30E4_U+30FC 1
 62
   179
420
  2234388
100
AcDbHatch
 10
0.0
 20
0.0
 30
0.0
210
0.0
220
0.0
230
1.0
  2
SOLID
 70
     1
 71
     0
 91
        2
 92
        1
 93
        1
 72
     4
 94
        3
 73
     0
 74
     1
 95
       29
 96
       25
 40
0.0
 40
0.0
 40
0.0
 40
0.0
 40
1.0
 40
1.0
 40
1.0
 40
2.0
 40
2.0
 40
2.0
 40
3.0
 40
3.0
 40
3.0
 40
4.0
 40
4.0
 40
4.0
 40
5.0
 40
5.0
 40
5.0
 40
6.0
 40
6.0
 40
6.0
 40
7.0
 40
7.0
 40
7.0
 40
8.0
 40
8.0
 40
8.0
 40
8.0
 10
100.5681938767677
 20
-128.9661159616821
 10
100.7776556822709
 20
-129.0742919599189
 10
100.7966037074397
 20
-129.247580262827
 10
100.7966037074397
 20
-129.3640244902284
 10
100.7966037074397
 20
-129.5249104493896
 10
100.7504394279374
 20
-129.6665038738334
 10
100.5681938767677
 20
-129.7615885092263
 10
100.3735459818511
 20
-129.8652858833323
 10
100.1365234124659
 20
-129.8842339085012
 10
99.97391490556208
 20
-129.8842339085012
 10
99.82990991427864
 20
-129.8842339085012
 10
99.5784179438554
 20
-129.8673529406234
 10
99.37929142480796
 20
-129.7615885092263
 10
99.17603079117822
 20
-129.653757020538
 10
99.15294865142704
 20
-129.4928710613768
 10
99.15294865142704
 20
-129.3640244902284
 10
99.15294865142704
 20
-129.2052055883584
 10
99.19739038318677
 20
-129.0615451066235
 10
99.37929142480796
 20
-128.9661159616821
 10
99.57187226243343
 20
-128.8668972117069
 10
99.8002820931055
 20
-128.8434705624072
 10
99.97391490556208
 20
-128.8434705624072
 10
100.145136151179
 20
-128.8434705624072
 10
100.3756130391422
 20
-128.8648301544158
 10
100.5681938767677
 20
-128.9661159616821
 97
        0
 97
        0
 92
        1
 93
        1
 72
     4
 94
        3
 73
     0
 74
     1
 95
       17
 96
       13
 40
0.0
 40
0.0
 40
0.0
 40
0.0
 40
1.0
 40
1.0
 40
1.0
 40
2.0
 40
2.0
 40
2.0
 40
3.0
 40
3.0
 40
3.0
 40
4.0
 40
4.0
 40
4.0
 40
4.0
 10
99.34552948905251
 20
-129.3640244902284
 10
99.34552948905251
 20
-129.6134494033605
 10
99.62906084748857
 20
-129.6603027019599
 10
99.97391490556208
 20
-129.6603027019599
 10
100.2932752570447
 20
-129.6603027019599
 10
100.6023003220717
 20
-129.6241291993648
 10
100.6023003220717
 20
-129.3640244902284
 10
100.6023003220717
 20
-129.116322124839
 10
100.3204915113782
 20
-129.067746278497
 10
99.97391490556208
 20
-129.067746278497
 10
99.6542100445309
 20
-129.067746278497
 10
99.34552948905251
 20
-129.1059868383832
 10
99.34552948905251
 20
-129.3640244902284
 97
        0
 97
        0
 75
     2
 76
     1
 98
        0
  0
SPLINE
  5
CF
330
C5
100
AcDbEntity
  8
_U+30EC_U+30A4_U+30E4_U+30FC 1
370
     0
100
AcDbSpline
210
0.0
220
0.0
230
1.0
 70
    11
 71
     3
 72
    17
 73
    13
 74
     0
 42
0.0000000001
 43
0.0000000001
 12
1.0
 22
0.0
 32
0.0
 13
1.0
 23
0.0
 33
0.0
 40
0.0
 40
0.0
 40
0.0
 40
0.0
 40
1.0
 40
1.0
 40
1.0
 40
2.0
 40
2.0
 40
2.0
 40
3.0
 40
3.0
 40
3.0
 40
4.0
 40
4.0
 40
4.0
 40
4.0
 10
99.94222002709779
 20
-128.1599636181336
 30
0.0
 10
100.0562526876596
 20
-128.1599636181336
 30
0.0
 10
100.1472032084701
 20
-128.2529811962354
 30
0.0
 10
100.1472032084701
 20
-128.3652913090545
 30
0.0
 10
100.1472032084701
 20
-128.4793239696163
 30
0.0
 10
100.0541856303684
 20
-128.5702744904269
 30
0.0
 10
99.94222002709779
 20
-128.5702744904269
 30
0.0
 10
99.82784285698749
 20
-128.5702744904269
 30
0.0
 10
99.7368923361769
 20
-128.4772569123251
 30
0.0
 10
99.7368923361769
 20
-128.3652913090545
 30
0.0
 10
99.7368923361769
 20
-128.2550482535265
 30
0.0
 10
99.82577579969634
 20
-128.1599636181336
 30
0.0
 10
99.94222002709779
 20
-128.1599636181336
 30
0.0
  0
HATCH
  5
D0
330
C5
100
AcDbEntity
  8
_U+30EC_U+30A4_U+30E4_U+30FC 1
 62
   179
420
  2234388
100
AcDbHatch
 10
0.0
 20
0.0
 30
0.0
210
0.0
220
0.0
230
1.0
  2
SOLID
 70
     1
 71
     0
 91
        1
 92
        1
 93
        1
 72
     4
 94
        3
 73
     0
 74
     1
 95
       17
 96
       13
 40
0.0
 40
0.0
 40
0.0
 40
0.0
 40
1.0
 40
1.0
 40
1.0
 40
2.0
 40
2.0
 40
2.0
 40
3.0
 40
3.0
 40
3.0
 40
4.0
 40
4.0
 40
4.0
 40
4.0
 10
99.94222002709779
 20
-128.1599636181336
 10
100.0562526876596
 20
-128.1599636181336
 10
100.1472032084701
 20
-128.2529811962354
 10
100.1472032084701
 20
-128.3652913090545
 10
100.1472032084701
 20
-128.4793239696163
 10
100.0541856303684
 20
-128.5702744904269
 10
99.94222002709779
 20
-128.5702744904269
 10
99.82784285698749
 20
-128.5702744904269
 10
99.7368923361769
 20
-128.4772569123251
 10
99.7368923361769
 20
-128.3652913090545
 10
99.7368923361769
 20
-128.2550482535265
 10
99.82577579969634
 20
-128.1599636181336
 10
99.94222002709779
 20
-128.1599636181336
 97
        0
 97
        0
 75
     2
 76
     1
 98
        0
  0
SPLINE
  5
D1
330
C5
100
AcDbEntity
  8
_U+30EC_U+30A4_U+30E4_U+30FC 1
370
     0
100
AcDbSpline
210
0.0
220
0.0
230
1.0
 70
    11
 71
     3
 72
    26
 73
    22
 74
     0
 42
0.0000000001
 43
0.0000000001
 12
1.0
 22
0.0
 32
0.0
 13
1.0
 23
0.0
 33
0.0
 40
0.0
 40
0.0
 40
0.0
 40
0.0
 40
1.0
 40
1.0
 40
1.0
 40
2.0
 40
2.0
 40
2.0
 40
3.0
 40
3.0
 40
3.0
 40
4.0
 40
4.0
 40
4.0
 40
5.0
 40
5.0
 40
5.0
 40
6.0
 40
6.0
 40
6.0
 40
7.0
 40
7.0
 40
7.0
 40
7.0
 10
100.7459608038066
 20
-127.454752572303
 30
0.0
 10
100.7459608038066
 20
-127.454752572303
 30
0.0
 10
100.7459608038066
 20
-127.6917751416882
 30
0.0
 10
100.7459608038066
 20
-127.6917751416882
 30
0.0
 10
100.4369357387797
 20
-127.6662814350973
 30
0.0
 10
99.91879337779808
 20
-127.4737005974719
 30
0.0
 10
99.41305336056341
 20
-127.0675238397609
 30
0.0
 10
99.41305336056341
 20
-127.0675238397609
 30
0.0
 10
99.41305336056341
 20
-127.9053710617737
 30
0.0
 10
99.41305336056341
 20
-127.9053710617737
 30
0.0
 10
99.41305336056341
 20
-127.9053710617737
 30
0.0
 10
99.20152449776907
 20
-127.9053710617737
 30
0.0
 10
99.20152449776907
 20
-127.9053710617737
 30
0.0
 10
99.20152449776907
 20
-127.9053710617737
 30
0.0
 10
99.20152449776907
 20
-126.8305012703757
 30
0.0
 10
99.20152449776907
 20
-126.8305012703757
 30
0.0
 10
99.20152449776907
 20
-126.8305012703757
 30
0.0
 10
99.41305336056341
 20
-126.8305012703757
 30
0.0
 10
99.41305336056341
 20
-126.8305012703757
 30
0.0
 10
99.70313040042144
 20
-127.1543402459892
 30
0.0
 10
100.2953423143359
 20
-127.4209906365475
 30
0.0
 10
100.7459608038066
 20
-127.454752572303
 30
0.0
  0
HATCH
  5
D2
330
C5
100
AcDbEntity
  8
_U+30EC_U+30A4_U+30E4_U+30FC 1
 62
   179
420
  2234388
100
AcDbHatch
 10
0.0
 20
0.0
 30
0.0
210
0.0
220
0.0
230
1.0
  2
SOLID
 70
     1
 71
     0
 91
        1
 92
        1
 93
        1
 72
     4
 94
        3
 73
     0
 74
     1
 95
       26
 96
       22
 40
0.0
 40
0.0
 40
0.0
 40
0.0
 40
1.0
 40
1.0
 40
1.0
 40
2.0
 40
2.0
 40
2.0
 40
3.0
 40
3.0
 40
3.0
 40
4.0
 40
4.0
 40
4.0
 40
5.0
 40
5.0
 40
5.0
 40
6.0
 40
6.0
 40
6.0
 40
7.0
 40
7.0
 40
7.0
 40
7.0
 10
100.7459608038066
 20
-127.454752572303
 10
100.7459608038066
 20
-127.454752572303
 10
100.7459608038066
 20
-127.6917751416882
 10
100.7459608038066
 20
-127.6917751416882
 10
100.4369357387797
 20
-127.6662814350973
 10
99.91879337779808
 20
-127.4737005974719
 10
99.41305336056341
 20
-127.0675238397609
 10
99.41305336056341
 20
-127.0675238397609
 10
99.41305336056341
 20
-127.9053710617737
 10
99.41305336056341
 20
-127.9053710617737
 10
99.41305336056341
 20
-127.9053710617737
 10
99.20152449776907
 20
-127.9053710617737
 10
99.20152449776907
 20
-127.9053710617737
 10
99.20152449776907
 20
-127.9053710617737
 10
99.20152449776907
 20
-126.8305012703757
 10
99.20152449776907
 20
-126.8305012703757
 10
99.20152449776907
 20
-126.8305012703757
 10
99.41305336056341
 20
-126.8305012703757
 10
99.41305336056341
 20
-126.8305012703757
 10
99.70313040042144
 20
-127.1543402459892
 10
100.2953423143359
 20
-127.4209906365475
 10
100.7459608038066
 20
-127.454752572303
 97
        0
 97
        0
 75
     2
 76
     1
 98
        0
  0
SPLINE
  5
D3
330
C5
100
AcDbEntity
  8
_U+30EC_U+30A4_U+30E4_U+30FC 1
370
     0
100
AcDbSpline
210
0.0
220
0.0
230
1.0
 70
    11
 71
     3
 72
    53
 73
    49
 74
     0
 42
0.0000000001
 43
0.0000000001
 12
1.0
 22
0.0
 32
0.0
 13
1.0
 23
0.0
 33
0.0
 40
0.0
 40
0.0
 40
0.0
 40
0.0
 40
1.0
 40
1.0
 40
1.0
 40
2.0
 40
2.0
 40
2.0
 40
3.0
 40
3.0
 40
3.0
 40
4.0
 40
4.0
 40
4.0
 40
5.0
 40
5.0
 40
5.0
 40
6.0
 40
6.0
 40
6.0
 40
7.0
 40
7.0
 40
7.0
 40
8.0
 40
8.0
 40
8.0
 40
9.0
 40
9.0
 40
9.0
 40
10.0
 40
10.0
 40
10.0
 40
11.0
 40
11.0
 40
11.0
 40
12.0
 40
12.0
 40
12.0
 40
13.0
 40
13.0
 40
13.0
 40
14.0
 40
14.0
 40
14.0
 40
15.0
 40
15.0
 40
15.0
 40
16.0
 40
16.0
 40
16.0
 40
16.0
 10
100.7966037074397
 20
-126.2079725161911
 30
0.0
 10
100.7966037074397
 20
-126.2861761837062
 30
0.0
 10
100.779722739562
 20
-126.3878065005211
 30
0.0
 10
100.7163329826334
 20
-126.489436817336
 30
0.0
 10
100.606434436654
 20
-126.662725120244
 30
0.0
 10
100.4751762986659
 20
-126.6840847122526
 30
0.0
 10
100.3673448099776
 20
-126.7030327374215
 30
0.0
 10
100.3673448099776
 20
-126.7030327374215
 30
0.0
 10
100.3673448099776
 20
-126.4808240786229
 30
0.0
 10
100.3673448099776
 20
-126.4808240786229
 30
0.0
 10
100.5661268194765
 20
-126.4260470604074
 30
0.0
 10
100.5957546406497
 20
-126.2989230370017
 30
0.0
 10
100.5957546406497
 20
-126.2059054588999
 30
0.0
 10
100.5957546406497
 20
-126.0663790917473
 30
0.0
 10
100.496191381126
 20
-125.9141058712993
 30
0.0
 10
100.2636474358716
 20
-125.9141058712993
 30
0.0
 10
100.0076768413175
 20
-125.9141058712993
 30
0.0
 10
99.93808591251549
 20
-126.0939398556293
 30
0.0
 10
99.93808591251549
 20
-126.214518197613
 30
0.0
 10
99.93808591251549
 20
-126.2462130760773
 30
0.0
 10
99.93808591251549
 20
-126.3878065005211
 30
0.0
 10
100.0669324836638
 20
-126.4766899640406
 30
0.0
 10
100.0669324836638
 20
-126.4766899640406
 30
0.0
 10
100.0476399489464
 20
-126.6523898337883
 30
0.0
 10
100.0476399489464
 20
-126.6523898337883
 30
0.0
 10
100.0476399489464
 20
-126.6523898337883
 30
0.0
 10
99.20152449776907
 20
-126.5318114918045
 30
0.0
 10
99.20152449776907
 20
-126.5318114918045
 30
0.0
 10
99.20152449776907
 20
-126.5318114918045
 30
0.0
 10
99.20152449776907
 20
-125.7532199121381
 30
0.0
 10
99.20152449776907
 20
-125.7532199121381
 30
0.0
 10
99.20152449776907
 20
-125.7532199121381
 30
0.0
 10
99.39651690223421
 20
-125.7532199121381
 30
0.0
 10
99.39651690223421
 20
-125.7532199121381
 30
0.0
 10
99.39651690223421
 20
-125.7532199121381
 30
0.0
 10
99.39651690223421
 20
-126.3688584753522
 30
0.0
 10
99.39651690223421
 20
-126.3688584753522
 30
0.0
 10
99.39651690223421
 20
-126.3688584753522
 30
0.0
 10
99.81957462782289
 20
-126.434315289572
 30
0.0
 10
99.81957462782289
 20
-126.434315289572
 30
0.0
 10
99.78546818251891
 20
-126.3729925899345
 30
0.0
 10
99.7451605653415
 20
-126.2906548078371
 30
0.0
 10
99.7451605653415
 20
-126.1721435231445
 30
0.0
 10
99.7451605653415
 20
-125.9182399858816
 30
0.0
 10
99.9315402310935
 20
-125.6812174164964
 30
0.0
 10
100.2446994107027
 20
-125.6812174164964
 30
0.0
 10
100.5619927048942
 20
-125.6812174164964
 30
0.0
 10
100.7966037074397
 20
-125.9054931325861
 30
0.0
 10
100.7966037074397
 20
-126.2079725161911
 30
0.0
  0
HATCH
  5
D4
330
C5
100
AcDbEntity
  8
_U+30EC_U+30A4_U+30E4_U+30FC 1
 62
   179
420
  2234388
100
AcDbHatch
 10
0.0
 20
0.0
 30
0.0
210
0.0
220
0.0
230
1.0
  2
SOLID
 70
     1
 71
     0
 91
        1
 92
        1
 93
        1
 72
     4
 94
        3
 73
     0
 74
     1
 95
       53
 96
       49
 40
0.0
 40
0.0
 40
0.0
 40
0.0
 40
1.0
 40
1.0
 40
1.0
 40
2.0
 40
2.0
 40
2.0
 40
3.0
 40
3.0
 40
3.0
 40
4.0
 40
4.0
 40
4.0
 40
5.0
 40
5.0
 40
5.0
 40
6.0
 40
6.0
 40
6.0
 40
7.0
 40
7.0
 40
7.0
 40
8.0
 40
8.0
 40
8.0
 40
9.0
 40
9.0
 40
9.0
 40
10.0
 40
10.0
 40
10.0
 40
11.0
 40
11.0
 40
11.0
 40
12.0
 40
12.0
 40
12.0
 40
13.0
 40
13.0
 40
13.0
 40
14.0
 40
14.0
 40
14.0
 40
15.0
 40
15.0
 40
15.0
 40
16.0
 40
16.0
 40
16.0
 40
16.0
 10
100.7966037074397
 20
-126.2079725161911
 10
100.7966037074397
 20
-126.2861761837062
 10
100.779722739562
 20
-126.3878065005211
 10
100.7163329826334
 20
-126.489436817336
 10
100.606434436654
 20
-126.662725120244
 10
100.4751762986659
 20
-126.6840847122526
 10
100.3673448099776
 20
-126.7030327374215
 10
100.3673448099776
 20
-126.7030327374215
 10
100.3673448099776
 20
-126.4808240786229
 10
100.3673448099776
 20
-126.4808240786229
 10
100.5661268194765
 20
-126.4260470604074
 10
100.5957546406497
 20
-126.2989230370017
 10
100.5957546406497
 20
-126.2059054588999
 10
100.5957546406497
 20
-126.0663790917473
 10
100.496191381126
 20
-125.9141058712993
 10
100.2636474358716
 20
-125.9141058712993
 10
100.0076768413175
 20
-125.9141058712993
 10
99.93808591251549
 20
-126.0939398556293
 10
99.93808591251549
 20
-126.214518197613
 10
99.93808591251549
 20
-126.2462130760773
 10
99.93808591251549
 20
-126.3878065005211
 10
100.0669324836638
 20
-126.4766899640406
 10
100.0669324836638
 20
-126.4766899640406
 10
100.0476399489464
 20
-126.6523898337883
 10
100.0476399489464
 20
-126.6523898337883
 10
100.0476399489464
 20
-126.6523898337883
 10
99.20152449776907
 20
-126.5318114918045
 10
99.20152449776907
 20
-126.5318114918045
 10
99.20152449776907
 20
-126.5318114918045
 10
99.20152449776907
 20
-125.7532199121381
 10
99.20152449776907
 20
-125.7532199121381
 10
99.20152449776907
 20
-125.7532199121381
 10
99.39651690223421
 20
-125.7532199121381
 10
99.39651690223421
 20
-125.7532199121381
 10
99.39651690223421
 20
-125.7532199121381
 10
99.39651690223421
 20
-126.3688584753522
 10
99.39651690223421
 20
-126.3688584753522
 10
99.39651690223421
 20
-126.3688584753522
 10
99.81957462782289
 20
-126.434315289572
 10
99.81957462782289
 20
-126.434315289572
 10
99.78546818251891
 20
-126.3729925899345
 10
99.7451605653415
 20
-126.2906548078371
 10
99.7451605653415
 20
-126.1721435231445
 10
99.7451605653415
 20
-125.9182399858816
 10
99.9315402310935
 20
-125.6812174164964
 10
100.2446994107027
 20
-125.6812174164964
 10
100.5619927048942
 20
-125.6812174164964
 10
100.7966037074397
 20
-125.9054931325861
 10
100.7966037074397
 20
-126.2079725161911
 97
        0
 97
        0
 75
     2
 76
     1
 98
        0
  0
SPLINE
  5
D5
330
C5
100
AcDbEntity
  8
_U+30EC_U+30A4_U+30E4_U+30FC 1
370
     0
100
AcDbSpline
210
0.0
220
0.0
230
1.0
 70
    11
 71
     3
 72
    17
 73
    13
 74
     0
 42
0.0000000001
 43
0.0000000001
 12
1.0
 22
0.0
 32
0.0
 13
1.0
 23
0.0
 33
0.0
 40
0.0
 40
0.0
 40
0.0
 40
0.0
 40
1.0
 40
1.0
 40
1.0
 40
2.0
 40
2.0
 40
2.0
 40
3.0
 40
3.0
 40
3.0
 40
4.0
 40
4.0
 40
4.0
 40
4.0
 10
99.94222002709779
 20
-124.9849636189274
 30
0.0
 10
100.0562526876596
 20
-124.9849636189274
 30
0.0
 10
100.1472032084701
 20
-125.0779811970291
 30
0.0
 10
100.1472032084701
 20
-125.1902913098483
 30
0.0
 10
100.1472032084701
 20
-125.30432397041
 30
0.0
 10
100.0541856303684
 20
-125.3952744912206
 30
0.0
 10
99.94222002709779
 20
-125.3952744912206
 30
0.0
 10
99.82784285698749
 20
-125.3952744912206
 30
0.0
 10
99.7368923361769
 20
-125.3022569131189
 30
0.0
 10
99.7368923361769
 20
-125.1902913098483
 30
0.0
 10
99.7368923361769
 20
-125.0800482543203
 30
0.0
 10
99.82577579969634
 20
-124.9849636189274
 30
0.0
 10
99.94222002709779
 20
-124.9849636189274
 30
0.0
  0
HATCH
  5
D6
330
C5
100
AcDbEntity
  8
_U+30EC_U+30A4_U+30E4_U+30FC 1
 62
   179
420
  2234388
100
AcDbHatch
 10
0.0
 20
0.0
 30
0.0
210
0.0
220
0.0
230
1.0
  2
SOLID
 70
     1
 71
     0
 91
        1
 92
        1
 93
        1
 72
     4
 94
        3
 73
     0
 74
     1
 95
       17
 96
       13
 40
0.0
 40
0.0
 40
0.0
 40
0.0
 40
1.0
 40
1.0
 40
1.0
 40
2.0
 40
2.0
 40
2.0
 40
3.0
 40
3.0
 40
3.0
 40
4.0
 40
4.0
 40
4.0
 40
4.0
 10
99.94222002709779
 20
-124.9849636189274
 10
100.0562526876596
 20
-124.9849636189274
 10
100.1472032084701
 20
-125.0779811970291
 10
100.1472032084701
 20
-125.1902913098483
 10
100.1472032084701
 20
-125.30432397041
 10
100.0541856303684
 20
-125.3952744912206
 10
99.94222002709779
 20
-125.3952744912206
 10
99.82784285698749
 20
-125.3952744912206
 10
99.7368923361769
 20
-125.3022569131189
 10
99.7368923361769
 20
-125.1902913098483
 10
99.7368923361769
 20
-125.0800482543203
 10
99.82577579969634
 20
-124.9849636189274
 10
99.94222002709779
 20
-124.9849636189274
 97
        0
 97
        0
 75
     2
 76
     1
 98
        0
  0
SPLINE
  5
D7
330
C5
100
AcDbEntity
  8
_U+30EC_U+30A4_U+30E4_U+30FC 1
370
     0
100
AcDbSpline
210
0.0
220
0.0
230
1.0
 70
    11
 71
     3
 72
    32
 73
    28
 74
     0
 42
0.0000000001
 43
0.0000000001
 12
1.0
 22
0.0
 32
0.0
 13
1.0
 23
0.0
 33
0.0
 40
0.0
 40
0.0
 40
0.0
 40
0.0
 40
1.0
 40
1.0
 40
1.0
 40
2.0
 40
2.0
 40
2.0
 40
3.0
 40
3.0
 40
3.0
 40
4.0
 40
4.0
 40
4.0
 40
5.0
 40
5.0
 40
5.0
 40
6.0
 40
6.0
 40
6.0
 40
7.0
 40
7.0
 40
7.0
 40
8.0
 40
8.0
 40
8.0
 40
9.0
 40
9.0
 40
9.0
 40
9.0
 10
100.7966037074397
 20
-124.2332437840459
 30
0.0
 10
100.7966037074397
 20
-124.4065320869539
 30
0.0
 10
100.7270127786377
 20
-124.6521673950522
 30
0.0
 10
100.3949055738596
 20
-124.69006344539
 30
0.0
 10
100.3949055738596
 20
-124.69006344539
 30
0.0
 10
100.3949055738596
 20
-124.4764675253045
 30
0.0
 10
100.3949055738596
 20
-124.4764675253045
 30
0.0
 10
100.4541612162059
 20
-124.4657877293002
 30
0.0
 10
100.6023003220717
 20
-124.4340928508359
 30
0.0
 10
100.6023003220717
 20
-124.2311767267547
 30
0.0
 10
100.6023003220717
 20
-123.9390326296055
 30
0.0
 10
100.2722601745847
 20
-123.9011365792678
 30
0.0
 10
100.0669324836638
 20
-123.8883897259724
 30
0.0
 10
100.1472032084701
 20
-123.979340246783
 30
0.0
 10
100.2043917935253
 20
-124.0468641182938
 30
0.0
 10
100.2043917935253
 20
-124.228765159915
 30
0.0
 10
100.2043917935253
 20
-124.4085991442451
 30
0.0
 10
100.0986273621281
 20
-124.71107852785
 30
0.0
 10
99.69245060441717
 20
-124.71107852785
 30
0.0
 10
99.3730902529345
 20
-124.71107852785
 30
0.0
 10
99.15294865142704
 20
-124.5122965183511
 30
0.0
 10
99.15294865142704
 20
-124.1950032241596
 30
0.0
 10
99.15294865142704
 20
-123.6809949777603
 30
0.0
 10
99.70726451500374
 20
-123.670315181756
 30
0.0
 10
99.92086043508924
 20
-123.670315181756
 30
0.0
 10
100.151681832601
 20
-123.670315181756
 30
0.0
 10
100.7966037074397
 20
-123.6896077164734
 30
0.0
 10
100.7966037074397
 20
-124.2332437840459
 30
0.0
  0
SPLINE
  5
D8
330
C5
100
AcDbEntity
  8
_U+30EC_U+30A4_U+30E4_U+30FC 1
370
     0
100
AcDbSpline
210
0.0
220
0.0
230
1.0
 70
    11
 71
     3
 72
    17
 73
    13
 74
     0
 42
0.0000000001
 43
0.0000000001
 12
1.0
 22
0.0
 32
0.0
 13
1.0
 23
0.0
 33
0.0
 40
0.0
 40
0.0
 40
0.0
 40
0.0
 40
1.0
 40
1.0
 40
1.0
 40
2.0
 40
2.0
 40
2.0
 40
3.0
 40
3.0
 40
3.0
 40
4.0
 40
4.0
 40
4.0
 40
4.0
 10
99.34552948905251
 20
-124.1929361668684
 30
0.0
 10
99.34552948905251
 20
-124.311447451561
 30
0.0
 10
99.40271807410765
 20
-124.4871473213088
 30
0.0
 10
99.68797198028635
 20
-124.4871473213088
 30
0.0
 10
99.91465926321578
 20
-124.4871473213088
 30
0.0
 10
100.0097438986087
 20
-124.3472764446076
 30
0.0
 10
100.0097438986087
 20
-124.2118841920373
 30
0.0
 10
100.0097438986087
 20
-123.9497124256098
 30
0.0
 10
99.8002820931055
 20
-123.9114718657235
 30
0.0
 10
99.68383786570405
 20
-123.9114718657235
 30
0.0
 10
99.5081379959563
 20
-123.9114718657235
 30
0.0
 10
99.34552948905251
 20
-124.0069010106649
 30
0.0
 10
99.34552948905251
 20
-124.1929361668684
 30
0.0
  0
HATCH
  5
D9
330
C5
100
AcDbEntity
  8
_U+30EC_U+30A4_U+30E4_U+30FC 1
 62
   179
420
  2234388
100
AcDbHatch
 10
0.0
 20
0.0
 30
0.0
210
0.0
220
0.0
230
1.0
  2
SOLID
 70
     1
 71
     0
 91
        2
 92
        1
 93
        1
 72
     4
 94
        3
 73
     0
 74
     1
 95
       32
 96
       28
 40
0.0
 40
0.0
 40
0.0
 40
0.0
 40
1.0
 40
1.0
 40
1.0
 40
2.0
 40
2.0
 40
2.0
 40
3.0
 40
3.0
 40
3.0
 40
4.0
 40
4.0
 40
4.0
 40
5.0
 40
5.0
 40
5.0
 40
6.0
 40
6.0
 40
6.0
 40
7.0
 40
7.0
 40
7.0
 40
8.0
 40
8.0
 40
8.0
 40
9.0
 40
9.0
 40
9.0
 40
9.0
 10
100.7966037074397
 20
-124.2332437840459
 10
100.7966037074397
 20
-124.4065320869539
 10
100.7270127786377
 20
-124.6521673950522
 10
100.3949055738596
 20
-124.69006344539
 10
100.3949055738596
 20
-124.69006344539
 10
100.3949055738596
 20
-124.4764675253045
 10
100.3949055738596
 20
-124.4764675253045
 10
100.4541612162059
 20
-124.4657877293002
 10
100.6023003220717
 20
-124.4340928508359
 10
100.6023003220717
 20
-124.2311767267547
 10
100.6023003220717
 20
-123.9390326296055
 10
100.2722601745847
 20
-123.9011365792678
 10
100.0669324836638
 20
-123.8883897259724
 10
100.1472032084701
 20
-123.979340246783
 10
100.2043917935253
 20
-124.0468641182938
 10
100.2043917935253
 20
-124.228765159915
 10
100.2043917935253
 20
-124.4085991442451
 10
100.0986273621281
 20
-124.71107852785
 10
99.69245060441717
 20
-124.71107852785
 10
99.3730902529345
 20
-124.71107852785
 10
99.15294865142704
 20
-124.5122965183511
 10
99.15294865142704
 20
-124.1950032241596
 10
99.15294865142704
 20
-123.6809949777603
 10
99.70726451500374
 20
-123.670315181756
 10
99.92086043508924
 20
-123.670315181756
 10
100.151681832601
 20
-123.670315181756
 10
100.7966037074397
 20
-123.6896077164734
 10
100.7966037074397
 20
-124.2332437840459
 97
        0
 97
        0
 92
        1
 93
        1
 72
     4
 94
        3
 73
     0
 74
     1
 95
       17
 96
       13
 40
0.0
 40
0.0
 40
0.0
 40
0.0
 40
1.0
 40
1.0
 40
1.0
 40
2.0
 40
2.0
 40
2.0
 40
3.0
 40
3.0
 40
3.0
 40
4.0
 40
4.0
 40
4.0
 40
4.0
 10
99.34552948905251
 20
-124.1929361668684
 10
99.34552948905251
 20
-124.311447451561
 10
99.40271807410765
 20
-124.4871473213088
 10
99.68797198028635
 20
-124.4871473213088
 10
99.91465926321578
 20
-124.4871473213088
 10
100.0097438986087
 20
-124.3472764446076
 10
100.0097438986087
 20
-124.2118841920373
 10
100.0097438986087
 20
-123.9497124256098
 10
99.8002820931055
 20
-123.9114718657235
 10
99.68383786570405
 20
-123.9114718657235
 10
99.5081379959563
 20
-123.9114718657235
 10
99.34552948905251
 20
-124.0069010106649
 10
99.34552948905251
 20
-124.1929361668684
 97
        0
 97
        0
 75
     2
 76
     1
 98
        0
  0
SPLINE
  5
DA
330
C5
100
AcDbEntity
  8
_U+30EC_U+30A4_U+30E4_U+30FC 1
370
     0
100
AcDbSpline
210
0.0
220
0.0
230
1.0
 70
    11
 71
     3
 72
    29
 73
    25
 74
     0
 42
0.0000000001
 43
0.0000000001
 12
1.0
 22
0.0
 32
0.0
 13
1.0
 23
0.0
 33
0.0
 40
0.0
 40
0.0
 40
0.0
 40
0.0
 40
1.0
 40
1.0
 40
1.0
 40
2.0
 40
2.0
 40
2.0
 40
3.0
 40
3.0
 40
3.0
 40
4.0
 40
4.0
 40
4.0
 40
5.0
 40
5.0
 40
5.0
 40
6.0
 40
6.0
 40
6.0
 40
7.0
 40
7.0
 40
7.0
 40
8.0
 40
8.0
 40
8.0
 40
8.0
 10
100.5681938767677
 20
-122.6161159632696
 30
0.0
 10
100.7776556822709
 20
-122.7242919615064
 30
0.0
 10
100.7966037074397
 20
-122.8975802644145
 30
0.0
 10
100.7966037074397
 20
-123.0140244918159
 30
0.0
 10
100.7966037074397
 20
-123.1749104509771
 30
0.0
 10
100.7504394279374
 20
-123.3165038754209
 30
0.0
 10
100.5681938767677
 20
-123.4115885108138
 30
0.0
 10
100.3735459818511
 20
-123.5152858849198
 30
0.0
 10
100.1365234124659
 20
-123.5342339100887
 30
0.0
 10
99.97391490556208
 20
-123.5342339100887
 30
0.0
 10
99.82990991427864
 20
-123.5342339100887
 30
0.0
 10
99.5784179438554
 20
-123.5173529422109
 30
0.0
 10
99.37929142480796
 20
-123.4115885108138
 30
0.0
 10
99.17603079117822
 20
-123.3037570221255
 30
0.0
 10
99.15294865142704
 20
-123.1428710629643
 30
0.0
 10
99.15294865142704
 20
-123.0140244918159
 30
0.0
 10
99.15294865142704
 20
-122.8552055899459
 30
0.0
 10
99.19739038318677
 20
-122.711545108211
 30
0.0
 10
99.37929142480796
 20
-122.6161159632696
 30
0.0
 10
99.57187226243343
 20
-122.5168972132944
 30
0.0
 10
99.8002820931055
 20
-122.4934705639947
 30
0.0
 10
99.97391490556208
 20
-122.4934705639947
 30
0.0
 10
100.145136151179
 20
-122.4934705639947
 30
0.0
 10
100.3756130391422
 20
-122.5148301560032
 30
0.0
 10
100.5681938767677
 20
-122.6161159632696
 30
0.0
  0
SPLINE
  5
DB
330
C5
100
AcDbEntity
  8
_U+30EC_U+30A4_U+30E4_U+30FC 1
370
     0
100
AcDbSpline
210
0.0
220
0.0
230
1.0
 70
    11
 71
     3
 72
    17
 73
    13
 74
     0
 42
0.0000000001
 43
0.0000000001
 12
1.0
 22
0.0
 32
0.0
 13
1.0
 23
0.0
 33
0.0
 40
0.0
 40
0.0
 40
0.0
 40
0.0
 40
1.0
 40
1.0
 40
1.0
 40
2.0
 40
2.0
 40
2.0
 40
3.0
 40
3.0
 40
3.0
 40
4.0
 40
4.0
 40
4.0
 40
4.0
 10
99.34552948905251
 20
-123.0140244918159
 30
0.0
 10
99.34552948905251
 20
-123.263449404948
 30
0.0
 10
99.62906084748857
 20
-123.3103027035474
 30
0.0
 10
99.97391490556208
 20
-123.3103027035474
 30
0.0
 10
100.2932752570447
 20
-123.3103027035474
 30
0.0
 10
100.6023003220717
 20
-123.2741292009523
 30
0.0
 10
100.6023003220717
 20
-123.0140244918159
 30
0.0
 10
100.6023003220717
 20
-122.7663221264265
 30
0.0
 10
100.3204915113782
 20
-122.7177462800845
 30
0.0
 10
99.97391490556208
 20
-122.7177462800845
 30
0.0
 10
99.6542100445309
 20
-122.7177462800845
 30
0.0
 10
99.34552948905251
 20
-122.7559868399707
 30
0.0
 10
99.34552948905251
 20
-123.0140244918159
 30
0.0
  0
HATCH
  5
DC
330
C5
100
AcDbEntity
  8
_U+30EC_U+30A4_U+30E4_U+30FC 1
 62
   179
420
  2234388
100
AcDbHatch
 10
0.0
 20
0.0
 30
0.0
210
0.0
220
0.0
230
1.0
  2
SOLID
 70
     1
 71
     0
 91
        2
 92
        1
 93
        1
 72
     4
 94
        3
 73
     0
 74
     1
 95
       29
 96
       25
 40
0.0
 40
0.0
 40
0.0
 40
0.0
 40
1.0
 40
1.0
 40
1.0
 40
2.0
 40
2.0
 40
2.0
 40
3.0
 40
3.0
 40
3.0
 40
4.0
 40
4.0
 40
4.0
 40
5.0
 40
5.0
 40
5.0
 40
6.0
 40
6.0
 40
6.0
 40
7.0
 40
7.0
 40
7.0
 40
8.0
 40
8.0
 40
8.0
 40
8.0
 10
100.5681938767677
 20
-122.6161159632696
 10
100.7776556822709
 20
-122.7242919615064
 10
100.7966037074397
 20
-122.8975802644145
 10
100.7966037074397
 20
-123.0140244918159
 10
100.7966037074397
 20
-123.1749104509771
 10
100.7504394279374
 20
-123.3165038754209
 10
100.5681938767677
 20
-123.4115885108138
 10
100.3735459818511
 20
-123.5152858849198
 10
100.1365234124659
 20
-123.5342339100887
 10
99.97391490556208
 20
-123.5342339100887
 10
99.82990991427864
 20
-123.5342339100887
 10
99.5784179438554
 20
-123.5173529422109
 10
99.37929142480796
 20
-123.4115885108138
 10
99.17603079117822
 20
-123.3037570221255
 10
99.15294865142704
 20
-123.1428710629643
 10
99.15294865142704
 20
-123.0140244918159
 10
99.15294865142704
 20
-122.8552055899459
 10
99.19739038318677
 20
-122.711545108211
 10
99.37929142480796
 20
-122.6161159632696
 10
99.57187226243343
 20
-122.5168972132944
 10
99.8002820931055
 20
-122.4934705639947
 10
99.97391490556208
 20
-122.4934705639947
 10
100.145136151179
 20
-122.4934705639947
 10
100.3756130391422
 20
-122.5148301560032
 10
100.5681938767677
 20
-122.6161159632696
 97
        0
 97
        0
 92
        1
 93
        1
 72
     4
 94
        3
 73
     0
 74
     1
 95
       17
 96
       13
 40
0.0
 40
0.0
 40
0.0
 40
0.0
 40
1.0
 40
1.0
 40
1.0
 40
2.0
 40
2.0
 40
2.0
 40
3.0
 40
3.0
 40
3.0
 40
4.0
 40
4.0
 40
4.0
 40
4.0
 10
99.34552948905251
 20
-123.0140244918159
 10
99.34552948905251
 20
-123.263449404948
 10
99.62906084748857
 20
-123.3103027035474
 10
99.97391490556208
 20
-123.3103027035474
 10
100.2932752570447
 20
-123.3103027035474
 10
100.6023003220717
 20
-123.2741292009523
 10
100.6023003220717
 20
-123.0140244918159
 10
100.6023003220717
 20
-122.7663221264265
 10
100.3204915113782
 20
-122.7177462800845
 10
99.97391490556208
 20
-122.7177462800845
 10
99.6542100445309
 20
-122.7177462800845
 10
99.34552948905251
 20
-122.7559868399707
 10
99.34552948905251
 20
-123.0140244918159
 97
        0
 97
        0
 75
     2
 76
     1
 98
        0
  0
ENDBLK
  5
C8
330
C5
100
AcDbEntity
  8
0
100
AcDbBlockEnd
  0
ENDSEC
  0
SECTION
  2
ENTITIES
  0
SPLINE
  5
41
330
1F
100
AcDbEntity
  8
_U+30EC_U+30A4_U+30E4_U+30FC 1
370
     0
100
AcDbSpline
210
0.0
220
0.0
230
1.0
 70
    11
 71
     3
 72
    35
 73
    31
 74
     0
 42
0.0000000001
 43
0.0000000001
 12
1.0
 22
0.0
 32
0.0
 13
1.0
 23
0.0
 33
0.0
 40
0.0
 40
0.0
 40
0.0
 40
0.0
 40
1.0
 40
1.0
 40
1.0
 40
2.0
 40
2.0
 40
2.0
 40
3.0
 40
3.0
 40
3.0
 40
4.0
 40
4.0
 40
4.0
 40
5.0
 40
5.0
 40
5.0
 40
6.0
 40
6.0
 40
6.0
 40
7.0
 40
7.0
 40
7.0
 40
8.0
 40
8.0
 40
8.0
 40
9.0
 40
9.0
 40
9.0
 40
10.0
 40
10.0
 40
10.0
 40
10.0
 10
96.4895528161242
 20
-111.7768274720559
 30
0.0
 10
96.4895528161242
 20
-111.7768274720559
 30
0.0
 10
86.75697861997841
 20
-111.7768274720559
 30
0.0
 10
86.75697861997841
 20
-111.7768274720559
 30
0.0
 10
86.75697861997841
 20
-111.7768274720559
 30
0.0
 10
86.75697861997841
 20
-116.7591080263657
 30
0.0
 10
86.75697861997841
 20
-116.7591080263657
 30
0.0
 10
86.76678584195044
 20
-116.7591080263657
 30
0.0
 10
86.77472334174793
 20
-116.7673630263637
 30
0.0
 10
86.77472334174793
 20
-116.7770291374724
 30
0.0
 10
86.77472334174793
 20
-116.7866599708035
 30
0.0
 10
86.76678584195044
 20
-116.7942446930238
 30
0.0
 10
86.75697861997841
 20
-116.7942446930238
 30
0.0
 10
86.75697861997841
 20
-116.7942446930238
 30
0.0
 10
86.75697861997841
 20
-141.7594813534492
 30
0.0
 10
86.75697861997841
 20
-141.7594813534492
 30
0.0
 10
86.76678584195044
 20
-141.7594813534492
 30
0.0
 10
86.77472334174793
 20
-141.7670660756691
 30
0.0
 10
86.77472334174793
 20
-141.776696909
 30
0.0
 10
86.77472334174793
 20
-141.776696909
 30
0.0
 10
96.4895528161242
 20
-141.776696909
 30
0.0
 10
96.4895528161242
 20
-141.776696909
 30
0.0
 10
96.4895528161242
 20
-141.7670660756691
 30
0.0
 10
96.49713753815293
 20
-141.7594813534492
 30
0.0
 10
96.50676837124055
 20
-141.7594813534492
 30
0.0
 10
96.50676837124055
 20
-141.7594813534492
 30
0.0
 10
96.50676837124055
 20
-111.7947133053847
 30
0.0
 10
96.50676837124055
 20
-111.7947133053847
 30
0.0
 10
96.49713753815293
 20
-111.7947133053847
 30
0.0
 10
96.4895528161242
 20
-111.7864583053867
 30
0.0
 10
96.4895528161242
 20
-111.7768274720559
 30
0.0
  0
HATCH
  5
42
330
1F
100
AcDbEntity
  8
_U+30EC_U+30A4_U+30E4_U+30FC 1
 62
   253
420
 11711154
100
AcDbHatch
 10
0.0
 20
0.0
 30
0.0
210
0.0
220
0.0
230
1.0
  2
SOLID
 70
     1
 71
     0
 91
        1
 92
        1
 93
        1
 72
     4
 94
        3
 73
     0
 74
     1
 95
       35
 96
       31
 40
0.0
 40
0.0
 40
0.0
 40
0.0
 40
1.0
 40
1.0
 40
1.0
 40
2.0
 40
2.0
 40
2.0
 40
3.0
 40
3.0
 40
3.0
 40
4.0
 40
4.0
 40
4.0
 40
5.0
 40
5.0
 40
5.0
 40
6.0
 40
6.0
 40
6.0
 40
7.0
 40
7.0
 40
7.0
 40
8.0
 40
8.0
 40
8.0
 40
9.0
 40
9.0
 40
9.0
 40
10.0
 40
10.0
 40
10.0
 40
10.0
 10
96.4895528161242
 20
-111.7768274720559
 10
96.4895528161242
 20
-111.7768274720559
 10
86.75697861997841
 20
-111.7768274720559
 10
86.75697861997841
 20
-111.7768274720559
 10
86.75697861997841
 20
-111.7768274720559
 10
86.75697861997841
 20
-116.7591080263657
 10
86.75697861997841
 20
-116.7591080263657
 10
86.76678584195044
 20
-116.7591080263657
 10
86.77472334174793
 20
-116.7673630263637
 10
86.77472334174793
 20
-116.7770291374724
 10
86.77472334174793
 20
-116.7866599708035
 10
86.76678584195044
 20
-116.7942446930238
 10
86.75697861997841
 20
-116.7942446930238
 10
86.75697861997841
 20
-116.7942446930238
 10
86.75697861997841
 20
-141.7594813534492
 10
86.75697861997841
 20
-141.7594813534492
 10
86.76678584195044
 20
-141.7594813534492
 10
86.77472334174793
 20
-141.7670660756691
 10
86.77472334174793
 20
-141.776696909
 10
86.77472334174793
 20
-141.776696909
 10
96.4895528161242
 20
-141.776696909
 10
96.4895528161242
 20
-141.776696909
 10
96.4895528161242
 20
-141.7670660756691
 10
96.49713753815293
 20
-141.7594813534492
 10
96.50676837124055
 20
-141.7594813534492
 10
96.50676837124055
 20
-141.7594813534492
 10
96.50676837124055
 20
-111.7947133053847
 10
96.50676837124055
 20
-111.7947133053847
 10
96.49713753815293
 20
-111.7947133053847
 10
96.4895528161242
 20
-111.7864583053867
 10
96.4895528161242
 20
-111.7768274720559
 97
        0
 97
        0
 75
     2
 76
     1
 98
        0
  0
SPLINE
  5
43
330
1F
100
AcDbEntity
  8
_U+30EC_U+30A4_U+30E4_U+30FC 1
370
     0
100
AcDbSpline
210
0.0
220
0.0
230
1.0
 70
    11
 71
     3
 72
    26
 73
    22
 74
     0
 42
0.0000000001
 43
0.0000000001
 12
1.0
 22
0.0
 32
0.0
 13
1.0
 23
0.0
 33
0.0
 40
0.0
 40
0.0
 40
0.0
 40
0.0
 40
1.0
 40
1.0
 40
1.0
 40
2.0
 40
2.0
 40
2.0
 40
3.0
 40
3.0
 40
3.0
 40
4.0
 40
4.0
 40
4.0
 40
5.0
 40
5.0
 40
5.0
 40
6.0
 40
6.0
 40
6.0
 40
7.0
 40
7.0
 40
7.0
 40
7.0
 10
86.75697861997841
 20
-116.7942446930238
 30
0.0
 10
86.74717139800639
 20
-116.7942446930238
 30
0.0
 10
86.7392360894263
 20
-116.7866599708035
 30
0.0
 10
86.7392360894263
 20
-116.7770291374724
 30
0.0
 10
86.7392360894263
 20
-116.7770291374724
 30
0.0
 10
79.25681942463024
 20
-116.7770291374724
 30
0.0
 10
79.25681942463024
 20
-116.7770291374724
 30
0.0
 10
79.25681942463024
 20
-116.7770291374724
 30
0.0
 10
79.25681942463024
 20
-141.7594813534492
 30
0.0
 10
79.25681942463024
 20
-141.7594813534492
 30
0.0
 10
79.26683631106786
 20
-141.7594813534492
 30
0.0
 10
79.2745621442041
 20
-141.7670660756691
 30
0.0
 10
79.2745621442041
 20
-141.776696909
 30
0.0
 10
79.2745621442041
 20
-141.776696909
 30
0.0
 10
86.7392360894263
 20
-141.776696909
 30
0.0
 10
86.7392360894263
 20
-141.776696909
 30
0.0
 10
86.7392360894263
 20
-141.7670660756691
 30
0.0
 10
86.74717139800639
 20
-141.7594813534492
 30
0.0
 10
86.75697861997841
 20
-141.7594813534492
 30
0.0
 10
86.75697861997841
 20
-141.7594813534492
 30
0.0
 10
86.75697861997841
 20
-116.7942446930238
 30
0.0
 10
86.75697861997841
 20
-116.7942446930238
 30
0.0
  0
SPLINE
  5
44
330
1F
100
AcDbEntity
  8
_U+30EC_U+30A4_U+30E4_U+30FC 1
370
     0
100
AcDbSpline
210
0.0
220
0.0
230
1.0
 70
    11
 71
     3
 72
    17
 73
    13
 74
     0
 42
0.0000000001
 43
0.0000000001
 12
1.0
 22
0.0
 32
0.0
 13
1.0
 23
0.0
 33
0.0
 40
0.0
 40
0.0
 40
0.0
 40
0.0
 40
1.0
 40
1.0
 40
1.0
 40
2.0
 40
2.0
 40
2.0
 40
3.0
 40
3.0
 40
3.0
 40
4.0
 40
4.0
 40
4.0
 40
4.0
 10
81.75695553511646
 20
-135.5266035772297
 30
0.0
 10
81.06653209848713
 20
-135.5266035772297
 30
0.0
 10
80.50706386876207
 20
-134.9671332995918
 30
0.0
 10
80.50706386876207
 20
-134.2767471886532
 30
0.0
 10
80.50706386876207
 20
-133.586325799937
 30
0.0
 10
81.06653209848713
 20
-133.0268555222991
 30
0.0
 10
81.75695553511646
 20
-133.0268555222991
 30
0.0
 10
82.44734164605478
 20
-133.0268555222991
 30
0.0
 10
83.0069862156487
 20
-133.586325799937
 30
0.0
 10
83.0069862156487
 20
-134.2767471886532
 30
0.0
 10
83.0069862156487
 20
-134.9671332995918
 30
0.0
 10
82.44734164605478
 20
-135.5266035772297
 30
0.0
 10
81.75695553511646
 20
-135.5266035772297
 30
0.0
  0
SPLINE
  5
45
330
1F
100
AcDbEntity
  8
_U+30EC_U+30A4_U+30E4_U+30FC 1
370
     0
100
AcDbSpline
210
0.0
220
0.0
230
1.0
 70
    11
 71
     3
 72
    17
 73
    13
 74
     0
 42
0.0000000001
 43
0.0000000001
 12
1.0
 22
0.0
 32
0.0
 13
1.0
 23
0.0
 33
0.0
 40
0.0
 40
0.0
 40
0.0
 40
0.0
 40
1.0
 40
1.0
 40
1.0
 40
2.0
 40
2.0
 40
2.0
 40
3.0
 40
3.0
 40
3.0
 40
4.0
 40
4.0
 40
4.0
 40
4.0
 10
84.25705423931235
 20
-121.0269077475211
 30
0.0
 10
83.56663286803759
 20
-121.0269077475211
 30
0.0
 10
83.0069862156487
 20
-120.4674021921053
 30
0.0
 10
83.0069862156487
 20
-119.777016081167
 30
0.0
 10
83.0069862156487
 20
-119.0866299702284
 30
0.0
 10
83.56663286803759
 20
-118.5271244148126
 30
0.0
 10
84.25705423931235
 20
-118.5271244148126
 30
0.0
 10
84.94744033281025
 20
-118.5271244148126
 30
0.0
 10
85.50691059631475
 20
-119.0866299702284
 30
0.0
 10
85.50691059631475
 20
-119.777016081167
 30
0.0
 10
85.50691059631475
 20
-120.4674021921053
 30
0.0
 10
84.94744033281025
 20
-121.0269077475211
 30
0.0
 10
84.25705423931235
 20
-121.0269077475211
 30
0.0
  0
HATCH
  5
46
330
1F
100
AcDbEntity
  8
_U+30EC_U+30A4_U+30E4_U+30FC 1
 62
   253
420
 11711154
100
AcDbHatch
 10
0.0
 20
0.0
 30
0.0
210
0.0
220
0.0
230
1.0
  2
SOLID
 70
     1
 71
     0
 91
        3
 92
        1
 93
        1
 72
     4
 94
        3
 73
     0
 74
     1
 95
       26
 96
       22
 40
0.0
 40
0.0
 40
0.0
 40
0.0
 40
1.0
 40
1.0
 40
1.0
 40
2.0
 40
2.0
 40
2.0
 40
3.0
 40
3.0
 40
3.0
 40
4.0
 40
4.0
 40
4.0
 40
5.0
 40
5.0
 40
5.0
 40
6.0
 40
6.0
 40
6.0
 40
7.0
 40
7.0
 40
7.0
 40
7.0
 10
86.75697861997841
 20
-116.7942446930238
 10
86.74717139800639
 20
-116.7942446930238
 10
86.7392360894263
 20
-116.7866599708035
 10
86.7392360894263
 20
-116.7770291374724
 10
86.7392360894263
 20
-116.7770291374724
 10
79.25681942463024
 20
-116.7770291374724
 10
79.25681942463024
 20
-116.7770291374724
 10
79.25681942463024
 20
-116.7770291374724
 10
79.25681942463024
 20
-141.7594813534492
 10
79.25681942463024
 20
-141.7594813534492
 10
79.26683631106786
 20
-141.7594813534492
 10
79.2745621442041
 20
-141.7670660756691
 10
79.2745621442041
 20
-141.776696909
 10
79.2745621442041
 20
-141.776696909
 10
86.7392360894263
 20
-141.776696909
 10
86.7392360894263
 20
-141.776696909
 10
86.7392360894263
 20
-141.7670660756691
 10
86.74717139800639
 20
-141.7594813534492
 10
86.75697861997841
 20
-141.7594813534492
 10
86.75697861997841
 20
-141.7594813534492
 10
86.75697861997841
 20
-116.7942446930238
 10
86.75697861997841
 20
-116.7942446930238
 97
        0
 97
        0
 92
        1
 93
        1
 72
     4
 94
        3
 73
     0
 74
     1
 95
       17
 96
       13
 40
0.0
 40
0.0
 40
0.0
 40
0.0
 40
1.0
 40
1.0
 40
1.0
 40
2.0
 40
2.0
 40
2.0
 40
3.0
 40
3.0
 40
3.0
 40
4.0
 40
4.0
 40
4.0
 40
4.0
 10
81.75695553511646
 20
-135.5266035772297
 10
81.06653209848713
 20
-135.5266035772297
 10
80.50706386876207
 20
-134.9671332995918
 10
80.50706386876207
 20
-134.2767471886532
 10
80.50706386876207
 20
-133.586325799937
 10
81.06653209848713
 20
-133.0268555222991
 10
81.75695553511646
 20
-133.0268555222991
 10
82.44734164605478
 20
-133.0268555222991
 10
83.0069862156487
 20
-133.586325799937
 10
83.0069862156487
 20
-134.2767471886532
 10
83.0069862156487
 20
-134.9671332995918
 10
82.44734164605478
 20
-135.5266035772297
 10
81.75695553511646
 20
-135.5266035772297
 97
        0
 97
        0
 92
        1
 93
        1
 72
     4
 94
        3
 73
     0
 74
     1
 95
       17
 96
       13
 40
0.0
 40
0.0
 40
0.0
 40
0.0
 40
1.0
 40
1.0
 40
1.0
 40
2.0
 40
2.0
 40
2.0
 40
3.0
 40
3.0
 40
3.0
 40
4.0
 40
4.0
 40
4.0
 40
4.0
 10
84.25705423931235
 20
-121.0269077475211
 10
83.56663286803759
 20
-121.0269077475211
 10
83.0069862156487
 20
-120.4674021921053
 10
83.0069862156487
 20
-119.777016081167
 10
83.0069862156487
 20
-119.0866299702284
 10
83.56663286803759
 20
-118.5271244148126
 10
84.25705423931235
 20
-118.5271244148126
 10
84.94744033281025
 20
-118.5271244148126
 10
85.50691059631475
 20
-119.0866299702284
 10
85.50691059631475
 20
-119.777016081167
 10
85.50691059631475
 20
-120.4674021921053
 10
84.94744033281025
 20
-121.0269077475211
 10
84.25705423931235
 20
-121.0269077475211
 97
        0
 97
        0
 75
     2
 76
     1
 98
        0
  0
POLYLINE
  5
47
330
1F
100
AcDbEntity
  8
_U+30EC_U+30A4_U+30E4_U+30FC 1
 62
   179
420
  2234388
370
    25
100
AcDb2dPolyline
 66
     1
 10
0.0
 20
0.0
 30
0.0
  0
VERTEX
  5
48
330
47
100
AcDbEntity
  8
_U+30EC_U+30A4_U+30E4_U+30FC 1
 62
   179
420
  2234388
370
    25
100
AcDbVertex
100
AcDb2dVertex
 10
86.75697861997841
 20
-111.7768274720559
 30
0.0
  0
VERTEX
  5
49
330
47
100
AcDbEntity
  8
_U+30EC_U+30A4_U+30E4_U+30FC 1
 62
   179
420
  2234388
370
    25
100
AcDbVertex
100
AcDb2dVertex
 10
86.75697861997841
 20
-141.776696909
 30
0.0
  0
SEQEND
  5
4A
330
47
100
AcDbEntity
  8
_U+30EC_U+30A4_U+30E4_U+30FC 1
 62
   179
420
  2234388
370
    25
  0
POLYLINE
  5
4B
330
1F
100
AcDbEntity
  8
_U+30EC_U+30A4_U+30E4_U+30FC 1
 62
   179
420
  2234388
370
    25
100
AcDb2dPolyline
 66
     1
 10
0.0
 20
0.0
 30
0.0
  0
VERTEX
  5
4C
330
4B
100
AcDbEntity
  8
_U+30EC_U+30A4_U+30E4_U+30FC 1
 62
   179
420
  2234388
370
    25
100
AcDbVertex
100
AcDb2dVertex
 10
86.75697861997841
 20
-111.7768274720559
 30
0.0
  0
VERTEX
  5
4D
330
4B
100
AcDbEntity
  8
_U+30EC_U+30A4_U+30E4_U+30FC 1
 62
   179
420
  2234388
370
    25
100
AcDbVertex
100
AcDb2dVertex
 10
96.50676837124055
 20
-111.7768274720559
 30
0.0
  0
SEQEND
  5
4E
330
4B
100
AcDbEntity
  8
_U+30EC_U+30A4_U+30E4_U+30FC 1
 62
   179
420
  2234388
370
    25
  0
POLYLINE
  5
4F
330
1F
100
AcDbEntity
  8
_U+30EC_U+30A4_U+30E4_U+30FC 1
 62
   179
420
  2234388
370
    25
100
AcDb2dPolyline
 66
     1
 10
0.0
 20
0.0
 30
0.0
  0
VERTEX
  5
50
330
4F
100
AcDbEntity
  8
_U+30EC_U+30A4_U+30E4_U+30FC 1
 62
   179
420
  2234388
370
    25
100
AcDbVertex
100
AcDb2dVertex
 10
79.25681942463024
 20
-116.7770291374724
 30
0.0
  0
VERTEX
  5
51
330
4F
100
AcDbEntity
  8
_U+30EC_U+30A4_U+30E4_U+30FC 1
 62
   179
420
  2234388
370
    25
100
AcDbVertex
100
AcDb2dVertex
 10
79.25681942463024
 20
-141.776696909
 30
0.0
  0
SEQEND
  5
52
330
4F
100
AcDbEntity
  8
_U+30EC_U+30A4_U+30E4_U+30FC 1
 62
   179
420
  2234388
370
    25
  0
POLYLINE
  5
53
330
1F
100
AcDbEntity
  8
_U+30EC_U+30A4_U+30E4_U+30FC 1
 62
   179
420
  2234388
370
    25
100
AcDb2dPolyline
 66
     1
 10
0.0
 20
0.0
 30
0.0
  0
VERTEX
  5
54
330
53
100
AcDbEntity
  8
_U+30EC_U+30A4_U+30E4_U+30FC 1
 62
   179
420
  2234388
370
    25
100
AcDbVertex
100
AcDb2dVertex
 10
96.50676837124055
 20
-111.7768274720559
 30
0.0
  0
VERTEX
  5
55
330
53
100
AcDbEntity
  8
_U+30EC_U+30A4_U+30E4_U+30FC 1
 62
   179
420
  2234388
370
    25
100
AcDbVertex
100
AcDb2dVertex
 10
96.50676837124055
 20
-141.776696909
 30
0.0
  0
SEQEND
  5
56
330
53
100
AcDbEntity
  8
_U+30EC_U+30A4_U+30E4_U+30FC 1
 62
   179
420
  2234388
370
    25
  0
POLYLINE
  5
57
330
1F
100
AcDbEntity
  8
_U+30EC_U+30A4_U+30E4_U+30FC 1
 62
   179
420
  2234388
370
    25
100
AcDb2dPolyline
 66
     1
 10
0.0
 20
0.0
 30
0.0
  0
VERTEX
  5
58
330
57
100
AcDbEntity
  8
_U+30EC_U+30A4_U+30E4_U+30FC 1
 62
   179
420
  2234388
370
    25
100
AcDbVertex
100
AcDb2dVertex
 10
79.25681942463024
 20
-141.776696909
 30
0.0
  0
VERTEX
  5
59
330
57
100
AcDbEntity
  8
_U+30EC_U+30A4_U+30E4_U+30FC 1
 62
   179
420
  2234388
370
    25
100
AcDbVertex
100
AcDb2dVertex
 10
96.50676837124055
 20
-141.776696909
 30
0.0
  0
SEQEND
  5
5A
330
57
100
AcDbEntity
  8
_U+30EC_U+30A4_U+30E4_U+30FC 1
 62
   179
420
  2234388
370
    25
  0
POLYLINE
  5
5B
330
1F
100
AcDbEntity
  8
_U+30EC_U+30A4_U+30E4_U+30FC 1
 62
   179
420
  2234388
370
    25
100
AcDb2dPolyline
 66
     1
 10
0.0
 20
0.0
 30
0.0
  0
VERTEX
  5
5C
330
5B
100
AcDbEntity
  8
_U+30EC_U+30A4_U+30E4_U+30FC 1
 62
   179
420
  2234388
370
    25
100
AcDbVertex
100
AcDb2dVertex
 10
79.25681942463024
 20
-116.7770291374724
 30
0.0
  0
VERTEX
  5
5D
330
5B
100
AcDbEntity
  8
_U+30EC_U+30A4_U+30E4_U+30FC 1
 62
   179
420
  2234388
370
    25
100
AcDbVertex
100
AcDb2dVertex
 10
86.75697861997841
 20
-116.7770291374724
 30
0.0
  0
SEQEND
  5
5E
330
5B
100
AcDbEntity
  8
_U+30EC_U+30A4_U+30E4_U+30FC 1
 62
   179
420
  2234388
370
    25
  0
SPLINE
  5
5F
330
1F
100
AcDbEntity
  8
_U+30EC_U+30A4_U+30E4_U+30FC 1
 62
   179
420
  2234388
370
    25
100
AcDbSpline
210
0.0
220
0.0
230
1.0
 70
    11
 71
     3
 72
    17
 73
    13
 74
     0
 42
0.0000000001
 43
0.0000000001
 12
1.0
 22
0.0
 32
0.0
 13
1.0
 23
0.0
 33
0.0
 40
0.0
 40
0.0
 40
0.0
 40
0.0
 40
1.0
 40
1.0
 40
1.0
 40
2.0
 40
2.0
 40
2.0
 40
3.0
 40
3.0
 40
3.0
 40
4.0
 40
4.0
 40
4.0
 40
4.0
 10
85.50691059631475
 20
-119.777016081167
 30
0.0
 10
85.50691059631475
 20
-119.0866299702284
 30
0.0
 10
84.94744033281025
 20
-118.5271244148126
 30
0.0
 10
84.25705423931235
 20
-118.5271244148126
 30
0.0
 10
83.56663286803759
 20
-118.5271244148126
 30
0.0
 10
83.0069862156487
 20
-119.0866299702284
 30
0.0
 10
83.0069862156487
 20
-119.777016081167
 30
0.0
 10
83.0069862156487
 20
-120.4674021921053
 30
0.0
 10
83.56663286803759
 20
-121.0269077475211
 30
0.0
 10
84.25705423931235
 20
-121.0269077475211
 30
0.0
 10
84.94744033281025
 20
-121.0269077475211
 30
0.0
 10
85.50691059631475
 20
-120.4674021921053
 30
0.0
 10
85.50691059631475
 20
-119.777016081167
 30
0.0
  0
SPLINE
  5
60
330
1F
100
AcDbEntity
  8
_U+30EC_U+30A4_U+30E4_U+30FC 1
 62
   179
420
  2234388
370
    25
100
AcDbSpline
210
0.0
220
0.0
230
1.0
 70
    11
 71
     3
 72
    17
 73
    13
 74
     0
 42
0.0000000001
 43
0.0000000001
 12
1.0
 22
0.0
 32
0.0
 13
1.0
 23
0.0
 33
0.0
 40
0.0
 40
0.0
 40
0.0
 40
0.0
 40
1.0
 40
1.0
 40
1.0
 40
2.0
 40
2.0
 40
2.0
 40
3.0
 40
3.0
 40
3.0
 40
4.0
 40
4.0
 40
4.0
 40
4.0
 10
83.0069862156487
 20
-134.2767471886532
 30
0.0
 10
83.0069862156487
 20
-133.586325799937
 30
0.0
 10
82.44734164605478
 20
-133.0268555222991
 30
0.0
 10
81.75695553511646
 20
-133.0268555222991
 30
0.0
 10
81.06653209848713
 20
-133.0268555222991
 30
0.0
 10
80.50706386876207
 20
-133.586325799937
 30
0.0
 10
80.50706386876207
 20
-134.2767471886532
 30
0.0
 10
80.50706386876207
 20
-134.9671332995918
 30
0.0
 10
81.06653209848713
 20
-135.5266035772297
 30
0.0
 10
81.75695553511646
 20
-135.5266035772297
 30
0.0
 10
82.44734164605478
 20
-135.5266035772297
 30
0.0
 10
83.0069862156487
 20
-134.9671332995918
 30
0.0
 10
83.0069862156487
 20
-134.2767471886532
 30
0.0
  0
SPLINE
  5
61
330
1F
100
AcDbEntity
  8
_U+30EC_U+30A4_U+30E4_U+30FC 1
 62
   179
420
  2234388
370
     9
100
AcDbSpline
210
0.0
220
0.0
230
1.0
 70
    11
 71
     3
 72
    17
 73
    13
 74
     0
 42
0.0000000001
 43
0.0000000001
 12
1.0
 22
0.0
 32
0.0
 13
1.0
 23
0.0
 33
0.0
 40
0.0
 40
0.0
 40
0.0
 40
0.0
 40
1.0
 40
1.0
 40
1.0
 40
2.0
 40
2.0
 40
2.0
 40
3.0
 40
3.0
 40
3.0
 40
4.0
 40
4.0
 40
4.0
 40
4.0
 10
99.26249441962875
 20
-111.7768274720559
 30
0.0
 10
99.26249441962875
 20
-111.7492402498406
 30
0.0
 10
99.24009052372992
 20
-111.7265213609573
 30
0.0
 10
99.21253857998838
 20
-111.7265213609573
 30
0.0
 10
99.18498663624685
 20
-111.7265213609573
 30
0.0
 10
99.16223247016069
 20
-111.7492402498406
 30
0.0
 10
99.16223247016069
 20
-111.7768274720559
 30
0.0
 10
99.16223247016069
 20
-111.8043794164933
 30
0.0
 10
99.18498663624685
 20
-111.8270983053766
 30
0.0
 10
99.21253857998838
 20
-111.8270983053766
 30
0.0
 10
99.24009052372992
 20
-111.8270983053766
 30
0.0
 10
99.26249441962875
 20
-111.8043794164933
 30
0.0
 10
99.26249441962875
 20
-111.7768274720559
 30
0.0
  0
SPLINE
  5
62
330
1F
100
AcDbEntity
  8
_U+30EC_U+30A4_U+30E4_U+30FC 1
 62
   179
420
  2234388
370
     9
100
AcDbSpline
210
0.0
220
0.0
230
1.0
 70
    11
 71
     3
 72
    17
 73
    13
 74
     0
 42
0.0000000001
 43
0.0000000001
 12
1.0
 22
0.0
 32
0.0
 13
1.0
 23
0.0
 33
0.0
 40
0.0
 40
0.0
 40
0.0
 40
0.0
 40
1.0
 40
1.0
 40
1.0
 40
2.0
 40
2.0
 40
2.0
 40
3.0
 40
3.0
 40
3.0
 40
4.0
 40
4.0
 40
4.0
 40
4.0
 10
99.26249441962875
 20
-116.7770291374724
 30
0.0
 10
99.26249441962875
 20
-116.7494771930349
 30
0.0
 10
99.24009052372992
 20
-116.7267230263738
 30
0.0
 10
99.21253857998838
 20
-116.7267230263738
 30
0.0
 10
99.18498663624685
 20
-116.7267230263738
 30
0.0
 10
99.16223247016069
 20
-116.7494771930349
 30
0.0
 10
99.16223247016069
 20
-116.7770291374724
 30
0.0
 10
99.16223247016069
 20
-116.8045810819098
 30
0.0
 10
99.18498663624685
 20
-116.8266296930154
 30
0.0
 10
99.21253857998838
 20
-116.8266296930154
 30
0.0
 10
99.24009052372992
 20
-116.8266296930154
 30
0.0
 10
99.26249441962875
 20
-116.8045810819098
 30
0.0
 10
99.26249441962875
 20
-116.7770291374724
 30
0.0
  0
SPLINE
  5
63
330
1F
100
AcDbEntity
  8
_U+30EC_U+30A4_U+30E4_U+30FC 1
 62
   179
420
  2234388
370
     9
100
AcDbSpline
210
0.0
220
0.0
230
1.0
 70
    11
 71
     3
 72
    17
 73
    13
 74
     0
 42
0.0000000001
 43
0.0000000001
 12
1.0
 22
0.0
 32
0.0
 13
1.0
 23
0.0
 33
0.0
 40
0.0
 40
0.0
 40
0.0
 40
0.0
 40
1.0
 40
1.0
 40
1.0
 40
2.0
 40
2.0
 40
2.0
 40
3.0
 40
3.0
 40
3.0
 40
4.0
 40
4.0
 40
4.0
 40
4.0
 10
101.262391641351
 20
-111.7768274720559
 30
0.0
 10
101.262391641351
 20
-111.7492402498406
 30
0.0
 10
101.2403404726993
 20
-111.7265213609573
 30
0.0
 10
101.2127532511809
 20
-111.7265213609573
 30
0.0
 10
101.1848485296706
 20
-111.7265213609573
 30
0.0
 10
101.1624824191301
 20
-111.7492402498406
 30
0.0
 10
101.1624824191301
 20
-111.7768274720559
 30
0.0
 10
101.1624824191301
 20
-111.8043794164933
 30
0.0
 10
101.1848485296706
 20
-111.8270983053766
 30
0.0
 10
101.2127532511809
 20
-111.8270983053766
 30
0.0
 10
101.2403404726993
 20
-111.8270983053766
 30
0.0
 10
101.262391641351
 20
-111.8043794164933
 30
0.0
 10
101.262391641351
 20
-111.7768274720559
 30
0.0
  0
SPLINE
  5
64
330
1F
100
AcDbEntity
  8
_U+30EC_U+30A4_U+30E4_U+30FC 1
 62
   179
420
  2234388
370
     9
100
AcDbSpline
210
0.0
220
0.0
230
1.0
 70
    11
 71
     3
 72
    17
 73
    13
 74
     0
 42
0.0000000001
 43
0.0000000001
 12
1.0
 22
0.0
 32
0.0
 13
1.0
 23
0.0
 33
0.0
 40
0.0
 40
0.0
 40
0.0
 40
0.0
 40
1.0
 40
1.0
 40
1.0
 40
2.0
 40
2.0
 40
2.0
 40
3.0
 40
3.0
 40
3.0
 40
4.0
 40
4.0
 40
4.0
 40
4.0
 10
101.262391641351
 20
-141.776696909
 30
0.0
 10
101.262391641351
 20
-141.7491449645628
 30
0.0
 10
101.2403404726993
 20
-141.7270963534572
 30
0.0
 10
101.2127532511809
 20
-141.7270963534572
 30
0.0
 10
101.1848485296706
 20
-141.7270963534572
 30
0.0
 10
101.1624824191301
 20
-141.7491449645628
 30
0.0
 10
101.1624824191301
 20
-141.776696909
 30
0.0
 10
101.1624824191301
 20
-141.8042488534377
 30
0.0
 10
101.1848485296706
 20
-141.8270030200989
 30
0.0
 10
101.2127532511809
 20
-141.8270030200989
 30
0.0
 10
101.2403404726993
 20
-141.8270030200989
 30
0.0
 10
101.262391641351
 20
-141.8042488534377
 30
0.0
 10
101.262391641351
 20
-141.776696909
 30
0.0
  0
SPLINE
  5
65
330
1F
100
AcDbEntity
  8
_U+30EC_U+30A4_U+30E4_U+30FC 1
 62
   179
420
  2234388
370
     9
100
AcDbSpline
210
0.0
220
0.0
230
1.0
 70
    11
 71
     3
 72
    17
 73
    13
 74
     0
 42
0.0000000001
 43
0.0000000001
 12
1.0
 22
0.0
 32
0.0
 13
1.0
 23
0.0
 33
0.0
 40
0.0
 40
0.0
 40
0.0
 40
0.0
 40
1.0
 40
1.0
 40
1.0
 40
2.0
 40
2.0
 40
2.0
 40
3.0
 40
3.0
 40
3.0
 40
4.0
 40
4.0
 40
4.0
 40
4.0
 10
96.55707448106826
 20
-144.4824671861016
 30
0.0
 10
96.55707448106826
 20
-144.4549152416638
 30
0.0
 10
96.53432031498208
 20
-144.4321963527808
 30
0.0
 10
96.50676837124055
 20
-144.4321963527808
 30
0.0
 10
96.47921642749901
 20
-144.4321963527808
 30
0.0
 10
96.45716781695042
 20
-144.4549152416638
 30
0.0
 10
96.45716781695042
 20
-144.4824671861016
 30
0.0
 10
96.45716781695042
 20
-144.5100544083169
 30
0.0
 10
96.47921642749901
 20
-144.5321030194225
 30
0.0
 10
96.50676837124055
 20
-144.5321030194225
 30
0.0
 10
96.53432031498208
 20
-144.5321030194225
 30
0.0
 10
96.55707448106826
 20
-144.5100544083169
 30
0.0
 10
96.55707448106826
 20
-144.4824671861016
 30
0.0
  0
SPLINE
  5
66
330
1F
100
AcDbEntity
  8
_U+30EC_U+30A4_U+30E4_U+30FC 1
 62
   179
420
  2234388
370
     9
100
AcDbSpline
210
0.0
220
0.0
230
1.0
 70
    11
 71
     3
 72
    17
 73
    13
 74
     0
 42
0.0000000001
 43
0.0000000001
 12
1.0
 22
0.0
 32
0.0
 13
1.0
 23
0.0
 33
0.0
 40
0.0
 40
0.0
 40
0.0
 40
0.0
 40
1.0
 40
1.0
 40
1.0
 40
2.0
 40
2.0
 40
2.0
 40
3.0
 40
3.0
 40
3.0
 40
4.0
 40
4.0
 40
4.0
 40
4.0
 10
86.80693195203733
 20
-144.4824671861016
 30
0.0
 10
86.80693195203733
 20
-144.4549152416638
 30
0.0
 10
86.78453056371995
 20
-144.4321963527808
 30
0.0
 10
86.75697861997841
 20
-144.4321963527808
 30
0.0
 10
86.72925028735249
 20
-144.4321963527808
 30
0.0
 10
86.70684889903511
 20
-144.4549152416638
 30
0.0
 10
86.70684889903511
 20
-144.4824671861016
 30
0.0
 10
86.70684889903511
 20
-144.5100544083169
 30
0.0
 10
86.72925028735249
 20
-144.5321030194225
 30
0.0
 10
86.75697861997841
 20
-144.5321030194225
 30
0.0
 10
86.78453056371995
 20
-144.5321030194225
 30
0.0
 10
86.80693195203733
 20
-144.5100544083169
 30
0.0
 10
86.80693195203733
 20
-144.4824671861016
 30
0.0
  0
SPLINE
  5
67
330
1F
100
AcDbEntity
  8
_U+30EC_U+30A4_U+30E4_U+30FC 1
 62
   179
420
  2234388
370
     9
100
AcDbSpline
210
0.0
220
0.0
230
1.0
 70
    11
 71
     3
 72
    17
 73
    13
 74
     0
 42
0.0000000001
 43
0.0000000001
 12
1.0
 22
0.0
 32
0.0
 13
1.0
 23
0.0
 33
0.0
 40
0.0
 40
0.0
 40
0.0
 40
0.0
 40
1.0
 40
1.0
 40
1.0
 40
2.0
 40
2.0
 40
2.0
 40
3.0
 40
3.0
 40
3.0
 40
4.0
 40
4.0
 40
4.0
 40
4.0
 10
79.30694714337788
 20
-144.4824671861016
 30
0.0
 10
79.30694714337788
 20
-144.4549152416638
 30
0.0
 10
79.28458103283738
 20
-144.4321963527808
 30
0.0
 10
79.25681942463024
 20
-144.4321963527808
 30
0.0
 10
79.22926547869304
 20
-144.4321963527808
 30
0.0
 10
79.20686409037566
 20
-144.4549152416638
 30
0.0
 10
79.20686409037566
 20
-144.4824671861016
 30
0.0
 10
79.20686409037566
 20
-144.5100544083169
 30
0.0
 10
79.22926547869304
 20
-144.5321030194225
 30
0.0
 10
79.25681942463024
 20
-144.5321030194225
 30
0.0
 10
79.28458103283738
 20
-144.5321030194225
 30
0.0
 10
79.30694714337788
 20
-144.5100544083169
 30
0.0
 10
79.30694714337788
 20
-144.4824671861016
 30
0.0
  0
POLYLINE
  5
68
330
1F
100
AcDbEntity
  8
_U+30EC_U+30A4_U+30E4_U+30FC 1
 62
   179
420
  2234388
370
     9
100
AcDb2dPolyline
 66
     1
 10
0.0
 20
0.0
 30
0.0
  0
VERTEX
  5
69
330
68
100
AcDbEntity
  8
_U+30EC_U+30A4_U+30E4_U+30FC 1
 62
   179
420
  2234388
370
     9
100
AcDbVertex
100
AcDb2dVertex
 10
79.25681942463024
 20
-144.4824671861016
 30
0.0
  0
VERTEX
  5
6A
330
68
100
AcDbEntity
  8
_U+30EC_U+30A4_U+30E4_U+30FC 1
 62
   179
420
  2234388
370
     9
100
AcDbVertex
100
AcDb2dVertex
 10
86.75697861997841
 20
-144.4824671861016
 30
0.0
  0
SEQEND
  5
6B
330
68
100
AcDbEntity
  8
_U+30EC_U+30A4_U+30E4_U+30FC 1
 62
   179
420
  2234388
370
     9
  0
POLYLINE
  5
6C
330
1F
100
AcDbEntity
  8
_U+30EC_U+30A4_U+30E4_U+30FC 1
 62
   179
420
  2234388
370
     9
100
AcDb2dPolyline
 66
     1
 10
0.0
 20
0.0
 30
0.0
  0
VERTEX
  5
6D
330
6C
100
AcDbEntity
  8
_U+30EC_U+30A4_U+30E4_U+30FC 1
 62
   179
420
  2234388
370
     9
100
AcDbVertex
100
AcDb2dVertex
 10
79.25681942463024
 20
-143.0465557975719
 30
0.0
  0
VERTEX
  5
6E
330
6C
100
AcDbEntity
  8
_U+30EC_U+30A4_U+30E4_U+30FC 1
 62
   179
420
  2234388
370
     9
100
AcDbVertex
100
AcDb2dVertex
 10
79.25681942463024
 20
-144.9827060748653
 30
0.0
  0
SEQEND
  5
6F
330
6C
100
AcDbEntity
  8
_U+30EC_U+30A4_U+30E4_U+30FC 1
 62
   179
420
  2234388
370
     9
  0
POLYLINE
  5
70
330
1F
100
AcDbEntity
  8
_U+30EC_U+30A4_U+30E4_U+30FC 1
 62
   179
420
  2234388
370
     9
100
AcDb2dPolyline
 66
     1
 10
0.0
 20
0.0
 30
0.0
  0
VERTEX
  5
71
330
70
100
AcDbEntity
  8
_U+30EC_U+30A4_U+30E4_U+30FC 1
 62
   179
420
  2234388
370
     9
100
AcDbVertex
100
AcDb2dVertex
 10
86.75697861997841
 20
-143.0465557975719
 30
0.0
  0
VERTEX
  5
72
330
70
100
AcDbEntity
  8
_U+30EC_U+30A4_U+30E4_U+30FC 1
 62
   179
420
  2234388
370
     9
100
AcDbVertex
100
AcDb2dVertex
 10
86.75697861997841
 20
-144.9827060748653
 30
0.0
  0
SEQEND
  5
73
330
70
100
AcDbEntity
  8
_U+30EC_U+30A4_U+30E4_U+30FC 1
 62
   179
420
  2234388
370
     9
  0
INSERT
  5
75
330
1F
100
AcDbEntity
  8
_U+30EC_U+30A4_U+30E4_U+30FC 1
100
AcDbBlockReference
  2
block 2
 10
0.0
 20
0.0
 30
0.0
  0
SPLINE
  5
7C
330
1F
100
AcDbEntity
  8
_U+30EC_U+30A4_U+30E4_U+30FC 1
 62
   179
420
  2234388
370
    25
100
AcDbSpline
210
0.0
220
0.0
230
1.0
 70
    11
 71
     3
 72
    17
 73
    13
 74
     0
 42
0.0000000001
 43
0.0000000001
 12
1.0
 22
0.0
 32
0.0
 13
1.0
 23
0.0
 33
0.0
 40
0.0
 40
0.0
 40
0.0
 40
0.0
 40
1.0
 40
1.0
 40
1.0
 40
2.0
 40
2.0
 40
2.0
 40
3.0
 40
3.0
 40
3.0
 40
4.0
 40
4.0
 40
4.0
 40
4.0
 10
79.2745621442041
 20
-141.776696909
 30
0.0
 10
79.2745621442041
 20
-141.786363020109
 30
0.0
 10
79.26683631106786
 20
-141.7946180201069
 30
0.0
 10
79.25681942463024
 20
-141.7946180201069
 30
0.0
 10
79.24718658934695
 20
-141.7946180201069
 30
0.0
 10
79.23924908954945
 20
-141.786363020109
 30
0.0
 10
79.23924908954945
 20
-141.776696909
 30
0.0
 10
79.23924908954945
 20
-141.7670660756691
 30
0.0
 10
79.24718658934695
 20
-141.7594813534492
 30
0.0
 10
79.25681942463024
 20
-141.7594813534492
 30
0.0
 10
79.26683631106786
 20
-141.7594813534492
 30
0.0
 10
79.2745621442041
 20
-141.7670660756691
 30
0.0
 10
79.2745621442041
 20
-141.776696909
 30
0.0
  0
SPLINE
  5
7D
330
1F
100
AcDbEntity
  8
_U+30EC_U+30A4_U+30E4_U+30FC 1
 62
   179
420
  2234388
370
    25
100
AcDbSpline
210
0.0
220
0.0
230
1.0
 70
    11
 71
     3
 72
    17
 73
    13
 74
     0
 42
0.0000000001
 43
0.0000000001
 12
1.0
 22
0.0
 32
0.0
 13
1.0
 23
0.0
 33
0.0
 40
0.0
 40
0.0
 40
0.0
 40
0.0
 40
1.0
 40
1.0
 40
1.0
 40
2.0
 40
2.0
 40
2.0
 40
3.0
 40
3.0
 40
3.0
 40
4.0
 40
4.0
 40
4.0
 40
4.0
 10
86.77472334174793
 20
-141.776696909
 30
0.0
 10
86.77472334174793
 20
-141.786363020109
 30
0.0
 10
86.76678584195044
 20
-141.7946180201069
 30
0.0
 10
86.75697861997841
 20
-141.7946180201069
 30
0.0
 10
86.74717139800639
 20
-141.7946180201069
 30
0.0
 10
86.7392360894263
 20
-141.786363020109
 30
0.0
 10
86.7392360894263
 20
-141.776696909
 30
0.0
 10
86.7392360894263
 20
-141.7670660756691
 30
0.0
 10
86.74717139800639
 20
-141.7594813534492
 30
0.0
 10
86.75697861997841
 20
-141.7594813534492
 30
0.0
 10
86.76678584195044
 20
-141.7594813534492
 30
0.0
 10
86.77472334174793
 20
-141.7670660756691
 30
0.0
 10
86.77472334174793
 20
-141.776696909
 30
0.0
  0
SPLINE
  5
7E
330
1F
100
AcDbEntity
  8
_U+30EC_U+30A4_U+30E4_U+30FC 1
 62
   179
420
  2234388
370
     9
100
AcDbSpline
210
0.0
220
0.0
230
1.0
 70
    11
 71
     3
 72
    17
 73
    13
 74
     0
 42
0.0000000001
 43
0.0000000001
 12
1.0
 22
0.0
 32
0.0
 13
1.0
 23
0.0
 33
0.0
 40
0.0
 40
0.0
 40
0.0
 40
0.0
 40
1.0
 40
1.0
 40
1.0
 40
2.0
 40
2.0
 40
2.0
 40
3.0
 40
3.0
 40
3.0
 40
4.0
 40
4.0
 40
4.0
 40
4.0
 10
86.77472334174793
 20
-144.4824671861016
 30
0.0
 10
86.77472334174793
 20
-144.4921332972106
 30
0.0
 10
86.76678584195044
 20
-144.4997180194305
 30
0.0
 10
86.75697861997841
 20
-144.4997180194305
 30
0.0
 10
86.74717139800639
 20
-144.4997180194305
 30
0.0
 10
86.7392360894263
 20
-144.4921332972106
 30
0.0
 10
86.7392360894263
 20
-144.4824671861016
 30
0.0
 10
86.7392360894263
 20
-144.4728363527707
 30
0.0
 10
86.74717139800639
 20
-144.4645813527728
 30
0.0
 10
86.75697861997841
 20
-144.4645813527728
 30
0.0
 10
86.76678584195044
 20
-144.4645813527728
 30
0.0
 10
86.77472334174793
 20
-144.4728363527707
 30
0.0
 10
86.77472334174793
 20
-144.4824671861016
 30
0.0
  0
POLYLINE
  5
7F
330
1F
100
AcDbEntity
  8
_U+30EC_U+30A4_U+30E4_U+30FC 1
 62
   179
420
  2234388
370
     9
100
AcDb2dPolyline
 66
     1
 10
0.0
 20
0.0
 30
0.0
  0
VERTEX
  5
80
330
7F
100
AcDbEntity
  8
_U+30EC_U+30A4_U+30E4_U+30FC 1
 62
   179
420
  2234388
370
     9
100
AcDbVertex
100
AcDb2dVertex
 10
86.75697861997841
 20
-144.4824671861016
 30
0.0
  0
VERTEX
  5
81
330
7F
100
AcDbEntity
  8
_U+30EC_U+30A4_U+30E4_U+30FC 1
 62
   179
420
  2234388
370
     9
100
AcDbVertex
100
AcDb2dVertex
 10
96.50676837124055
 20
-144.4824671861016
 30
0.0
  0
SEQEND
  5
82
330
7F
100
AcDbEntity
  8
_U+30EC_U+30A4_U+30E4_U+30FC 1
 62
   179
420
  2234388
370
     9
  0
POLYLINE
  5
83
330
1F
100
AcDbEntity
  8
_U+30EC_U+30A4_U+30E4_U+30FC 1
 62
   179
420
  2234388
370
     9
100
AcDb2dPolyline
 66
     1
 10
0.0
 20
0.0
 30
0.0
  0
VERTEX
  5
84
330
83
100
AcDbEntity
  8
_U+30EC_U+30A4_U+30E4_U+30FC 1
 62
   179
420
  2234388
370
     9
100
AcDbVertex
100
AcDb2dVertex
 10
86.75697861997841
 20
-143.0465557975719
 30
0.0
  0
VERTEX
  5
85
330
83
100
AcDbEntity
  8
_U+30EC_U+30A4_U+30E4_U+30FC 1
 62
   179
420
  2234388
370
     9
100
AcDbVertex
100
AcDb2dVertex
 10
86.75697861997841
 20
-144.9827060748653
 30
0.0
  0
SEQEND
  5
86
330
83
100
AcDbEntity
  8
_U+30EC_U+30A4_U+30E4_U+30FC 1
 62
   179
420
  2234388
370
     9
  0
POLYLINE
  5
87
330
1F
100
AcDbEntity
  8
_U+30EC_U+30A4_U+30E4_U+30FC 1
 62
   179
420
  2234388
370
     9
100
AcDb2dPolyline
 66
     1
 10
0.0
 20
0.0
 30
0.0
  0
VERTEX
  5
88
330
87
100
AcDbEntity
  8
_U+30EC_U+30A4_U+30E4_U+30FC 1
 62
   179
420
  2234388
370
     9
100
AcDbVertex
100
AcDb2dVertex
 10
96.50676837124055
 20
-143.0465557975719
 30
0.0
  0
VERTEX
  5
89
330
87
100
AcDbEntity
  8
_U+30EC_U+30A4_U+30E4_U+30FC 1
 62
   179
420
  2234388
370
     9
100
AcDbVertex
100
AcDb2dVertex
 10
96.50676837124055
 20
-144.9827060748653
 30
0.0
  0
SEQEND
  5
8A
330
87
100
AcDbEntity
  8
_U+30EC_U+30A4_U+30E4_U+30FC 1
 62
   179
420
  2234388
370
     9
  0
INSERT
  5
8C
330
1F
100
AcDbEntity
  8
_U+30EC_U+30A4_U+30E4_U+30FC 1
100
AcDbBlockReference
  2
block 3
 10
0.0
 20
0.0
 30
0.0
  0
SPLINE
  5
9E
330
1F
100
AcDbEntity
  8
_U+30EC_U+30A4_U+30E4_U+30FC 1
 62
   179
420
  2234388
370
    25
100
AcDbSpline
210
0.0
220
0.0
230
1.0
 70
    11
 71
     3
 72
    17
 73
    13
 74
     0
 42
0.0000000001
 43
0.0000000001
 12
1.0
 22
0.0
 32
0.0
 13
1.0
 23
0.0
 33
0.0
 40
0.0
 40
0.0
 40
0.0
 40
0.0
 40
1.0
 40
1.0
 40
1.0
 40
2.0
 40
2.0
 40
2.0
 40
3.0
 40
3.0
 40
3.0
 40
4.0
 40
4.0
 40
4.0
 40
4.0
 10
86.77472334174793
 20
-141.776696909
 30
0.0
 10
86.77472334174793
 20
-141.786363020109
 30
0.0
 10
86.76678584195044
 20
-141.7946180201069
 30
0.0
 10
86.75697861997841
 20
-141.7946180201069
 30
0.0
 10
86.74717139800639
 20
-141.7946180201069
 30
0.0
 10
86.7392360894263
 20
-141.786363020109
 30
0.0
 10
86.7392360894263
 20
-141.776696909
 30
0.0
 10
86.7392360894263
 20
-141.7670660756691
 30
0.0
 10
86.74717139800639
 20
-141.7594813534492
 30
0.0
 10
86.75697861997841
 20
-141.7594813534492
 30
0.0
 10
86.76678584195044
 20
-141.7594813534492
 30
0.0
 10
86.77472334174793
 20
-141.7670660756691
 30
0.0
 10
86.77472334174793
 20
-141.776696909
 30
0.0
  0
SPLINE
  5
9F
330
1F
100
AcDbEntity
  8
_U+30EC_U+30A4_U+30E4_U+30FC 1
 62
   179
420
  2234388
370
    25
100
AcDbSpline
210
0.0
220
0.0
230
1.0
 70
    11
 71
     3
 72
    17
 73
    13
 74
     0
 42
0.0000000001
 43
0.0000000001
 12
1.0
 22
0.0
 32
0.0
 13
1.0
 23
0.0
 33
0.0
 40
0.0
 40
0.0
 40
0.0
 40
0.0
 40
1.0
 40
1.0
 40
1.0
 40
2.0
 40
2.0
 40
2.0
 40
3.0
 40
3.0
 40
3.0
 40
4.0
 40
4.0
 40
4.0
 40
4.0
 10
96.52468948189446
 20
-141.776696909
 30
0.0
 10
96.52468948189446
 20
-141.786363020109
 30
0.0
 10
96.51639920432818
 20
-141.7946180201069
 30
0.0
 10
96.50676837124055
 20
-141.7946180201069
 30
0.0
 10
96.49713753815293
 20
-141.7946180201069
 30
0.0
 10
96.4895528161242
 20
-141.786363020109
 30
0.0
 10
96.4895528161242
 20
-141.776696909
 30
0.0
 10
96.4895528161242
 20
-141.7670660756691
 30
0.0
 10
96.49713753815293
 20
-141.7594813534492
 30
0.0
 10
96.50676837124055
 20
-141.7594813534492
 30
0.0
 10
96.51639920432818
 20
-141.7594813534492
 30
0.0
 10
96.52468948189446
 20
-141.7670660756691
 30
0.0
 10
96.52468948189446
 20
-141.776696909
 30
0.0
  0
SPLINE
  5
A0
330
1F
100
AcDbEntity
  8
_U+30EC_U+30A4_U+30E4_U+30FC 1
 62
   179
420
  2234388
370
     9
100
AcDbSpline
210
0.0
220
0.0
230
1.0
 70
    11
 71
     3
 72
    17
 73
    13
 74
     0
 42
0.0000000001
 43
0.0000000001
 12
1.0
 22
0.0
 32
0.0
 13
1.0
 23
0.0
 33
0.0
 40
0.0
 40
0.0
 40
0.0
 40
0.0
 40
1.0
 40
1.0
 40
1.0
 40
2.0
 40
2.0
 40
2.0
 40
3.0
 40
3.0
 40
3.0
 40
4.0
 40
4.0
 40
4.0
 40
4.0
 10
96.52468948189446
 20
-144.4824671861016
 30
0.0
 10
96.52468948189446
 20
-144.4921332972106
 30
0.0
 10
96.51639920432818
 20
-144.4997180194305
 30
0.0
 10
96.50676837124055
 20
-144.4997180194305
 30
0.0
 10
96.49713753815293
 20
-144.4997180194305
 30
0.0
 10
96.4895528161242
 20
-144.4921332972106
 30
0.0
 10
96.4895528161242
 20
-144.4824671861016
 30
0.0
 10
96.4895528161242
 20
-144.4728363527707
 30
0.0
 10
96.49713753815293
 20
-144.4645813527728
 30
0.0
 10
96.50676837124055
 20
-144.4645813527728
 30
0.0
 10
96.51639920432818
 20
-144.4645813527728
 30
0.0
 10
96.52468948189446
 20
-144.4728363527707
 30
0.0
 10
96.52468948189446
 20
-144.4824671861016
 30
0.0
  0
POLYLINE
  5
A1
330
1F
100
AcDbEntity
  8
_U+30EC_U+30A4_U+30E4_U+30FC 1
 62
   179
420
  2234388
370
     9
100
AcDb2dPolyline
 66
     1
 10
0.0
 20
0.0
 30
0.0
  0
VERTEX
  5
A2
330
A1
100
AcDbEntity
  8
_U+30EC_U+30A4_U+30E4_U+30FC 1
 62
   179
420
  2234388
370
     9
100
AcDbVertex
100
AcDb2dVertex
 10
99.21253857998838
 20
-111.7768274720559
 30
0.0
  0
VERTEX
  5
A3
330
A1
100
AcDbEntity
  8
_U+30EC_U+30A4_U+30E4_U+30FC 1
 62
   179
420
  2234388
370
     9
100
AcDbVertex
100
AcDb2dVertex
 10
99.21253857998838
 20
-116.7770291374724
 30
0.0
  0
SEQEND
  5
A4
330
A1
100
AcDbEntity
  8
_U+30EC_U+30A4_U+30E4_U+30FC 1
 62
   179
420
  2234388
370
     9
  0
POLYLINE
  5
A5
330
1F
100
AcDbEntity
  8
_U+30EC_U+30A4_U+30E4_U+30FC 1
 62
   179
420
  2234388
370
     9
100
AcDb2dPolyline
 66
     1
 10
0.0
 20
0.0
 30
0.0
  0
VERTEX
  5
A6
330
A5
100
AcDbEntity
  8
_U+30EC_U+30A4_U+30E4_U+30FC 1
 62
   179
420
  2234388
370
     9
100
AcDbVertex
100
AcDb2dVertex
 10
98.48253554305676
 20
-111.7768274720559
 30
0.0
  0
VERTEX
  5
A7
330
A5
100
AcDbEntity
  8
_U+30EC_U+30A4_U+30E4_U+30FC 1
 62
   179
420
  2234388
370
     9
100
AcDbVertex
100
AcDb2dVertex
 10
99.71277745611512
 20
-111.7768274720559
 30
0.0
  0
SEQEND
  5
A8
330
A5
100
AcDbEntity
  8
_U+30EC_U+30A4_U+30E4_U+30FC 1
 62
   179
420
  2234388
370
     9
  0
POLYLINE
  5
A9
330
1F
100
AcDbEntity
  8
_U+30EC_U+30A4_U+30E4_U+30FC 1
 62
   179
420
  2234388
370
     9
100
AcDb2dPolyline
 66
     1
 10
0.0
 20
0.0
 30
0.0
  0
VERTEX
  5
AA
330
A9
100
AcDbEntity
  8
_U+30EC_U+30A4_U+30E4_U+30FC 1
 62
   179
420
  2234388
370
     9
100
AcDbVertex
100
AcDb2dVertex
 10
98.07222219770416
 20
-116.7770291374724
 30
0.0
  0
VERTEX
  5
AB
330
A9
100
AcDbEntity
  8
_U+30EC_U+30A4_U+30E4_U+30FC 1
 62
   179
420
  2234388
370
     9
100
AcDbVertex
100
AcDb2dVertex
 10
99.71277745611512
 20
-116.7770291374724
 30
0.0
  0
SEQEND
  5
AC
330
A9
100
AcDbEntity
  8
_U+30EC_U+30A4_U+30E4_U+30FC 1
 62
   179
420
  2234388
370
     9
  0
INSERT
  5
AE
330
1F
100
AcDbEntity
  8
_U+30EC_U+30A4_U+30E4_U+30FC 1
100
AcDbBlockReference
  2
block 4
 10
0.0
 20
0.0
 30
0.0
  0
SPLINE
  5
B6
330
1F
100
AcDbEntity
  8
_U+30EC_U+30A4_U+30E4_U+30FC 1
 62
   179
420
  2234388
370
    25
100
AcDbSpline
210
0.0
220
0.0
230
1.0
 70
    11
 71
     3
 72
    17
 73
    13
 74
     0
 42
0.0000000001
 43
0.0000000001
 12
1.0
 22
0.0
 32
0.0
 13
1.0
 23
0.0
 33
0.0
 40
0.0
 40
0.0
 40
0.0
 40
0.0
 40
1.0
 40
1.0
 40
1.0
 40
2.0
 40
2.0
 40
2.0
 40
3.0
 40
3.0
 40
3.0
 40
4.0
 40
4.0
 40
4.0
 40
4.0
 10
96.52468948189446
 20
-111.7768274720559
 30
0.0
 10
96.52468948189446
 20
-111.7864583053867
 30
0.0
 10
96.51639920432818
 20
-111.7947133053847
 30
0.0
 10
96.50676837124055
 20
-111.7947133053847
 30
0.0
 10
96.49713753815293
 20
-111.7947133053847
 30
0.0
 10
96.4895528161242
 20
-111.7864583053867
 30
0.0
 10
96.4895528161242
 20
-111.7768274720559
 30
0.0
 10
96.4895528161242
 20
-111.7671613609472
 30
0.0
 10
96.49713753815293
 20
-111.7589063609493
 30
0.0
 10
96.50676837124055
 20
-111.7589063609493
 30
0.0
 10
96.51639920432818
 20
-111.7589063609493
 30
0.0
 10
96.52468948189446
 20
-111.7671613609472
 30
0.0
 10
96.52468948189446
 20
-111.7768274720559
 30
0.0
  0
SPLINE
  5
B7
330
1F
100
AcDbEntity
  8
_U+30EC_U+30A4_U+30E4_U+30FC 1
 62
   179
420
  2234388
370
    25
100
AcDbSpline
210
0.0
220
0.0
230
1.0
 70
    11
 71
     3
 72
    17
 73
    13
 74
     0
 42
0.0000000001
 43
0.0000000001
 12
1.0
 22
0.0
 32
0.0
 13
1.0
 23
0.0
 33
0.0
 40
0.0
 40
0.0
 40
0.0
 40
0.0
 40
1.0
 40
1.0
 40
1.0
 40
2.0
 40
2.0
 40
2.0
 40
3.0
 40
3.0
 40
3.0
 40
4.0
 40
4.0
 40
4.0
 40
4.0
 10
86.77472334174793
 20
-116.7770291374724
 30
0.0
 10
86.77472334174793
 20
-116.7866599708035
 30
0.0
 10
86.76678584195044
 20
-116.7942446930238
 30
0.0
 10
86.75697861997841
 20
-116.7942446930238
 30
0.0
 10
86.74717139800639
 20
-116.7942446930238
 30
0.0
 10
86.7392360894263
 20
-116.7866599708035
 30
0.0
 10
86.7392360894263
 20
-116.7770291374724
 30
0.0
 10
86.7392360894263
 20
-116.7673630263637
 30
0.0
 10
86.74717139800639
 20
-116.7591080263657
 30
0.0
 10
86.75697861997841
 20
-116.7591080263657
 30
0.0
 10
86.76678584195044
 20
-116.7591080263657
 30
0.0
 10
86.77472334174793
 20
-116.7673630263637
 30
0.0
 10
86.77472334174793
 20
-116.7770291374724
 30
0.0
  0
SPLINE
  5
B8
330
1F
100
AcDbEntity
  8
_U+30EC_U+30A4_U+30E4_U+30FC 1
 62
   179
420
  2234388
370
     9
100
AcDbSpline
210
0.0
220
0.0
230
1.0
 70
    11
 71
     3
 72
    17
 73
    13
 74
     0
 42
0.0000000001
 43
0.0000000001
 12
1.0
 22
0.0
 32
0.0
 13
1.0
 23
0.0
 33
0.0
 40
0.0
 40
0.0
 40
0.0
 40
0.0
 40
1.0
 40
1.0
 40
1.0
 40
2.0
 40
2.0
 40
2.0
 40
3.0
 40
3.0
 40
3.0
 40
4.0
 40
4.0
 40
4.0
 40
4.0
 10
99.23010691287351
 20
-116.7770291374724
 30
0.0
 10
99.23010691287351
 20
-116.7866599708035
 30
0.0
 10
99.22220469085289
 20
-116.7942446930238
 30
0.0
 10
99.21253857998838
 20
-116.7942446930238
 30
0.0
 10
99.20290774690075
 20
-116.7942446930238
 30
0.0
 10
99.19461746933447
 20
-116.7866599708035
 30
0.0
 10
99.19461746933447
 20
-116.7770291374724
 30
0.0
 10
99.19461746933447
 20
-116.7673630263637
 30
0.0
 10
99.20290774690075
 20
-116.7591080263657
 30
0.0
 10
99.21253857998838
 20
-116.7591080263657
 30
0.0
 10
99.22220469085289
 20
-116.7591080263657
 30
0.0
 10
99.23010691287351
 20
-116.7673630263637
 30
0.0
 10
99.23010691287351
 20
-116.7770291374724
 30
0.0
  0
POLYLINE
  5
B9
330
1F
100
AcDbEntity
  8
_U+30EC_U+30A4_U+30E4_U+30FC 1
 62
   179
420
  2234388
370
     9
100
AcDb2dPolyline
 66
     1
 10
0.0
 20
0.0
 30
0.0
  0
VERTEX
  5
BA
330
B9
100
AcDbEntity
  8
_U+30EC_U+30A4_U+30E4_U+30FC 1
 62
   179
420
  2234388
370
     9
100
AcDbVertex
100
AcDb2dVertex
 10
101.2127532511809
 20
-111.7768274720559
 30
0.0
  0
VERTEX
  5
BB
330
B9
100
AcDbEntity
  8
_U+30EC_U+30A4_U+30E4_U+30FC 1
 62
   179
420
  2234388
370
     9
100
AcDbVertex
100
AcDb2dVertex
 10
101.2127532511809
 20
-141.776696909
 30
0.0
  0
SEQEND
  5
BC
330
B9
100
AcDbEntity
  8
_U+30EC_U+30A4_U+30E4_U+30FC 1
 62
   179
420
  2234388
370
     9
  0
POLYLINE
  5
BD
330
1F
100
AcDbEntity
  8
_U+30EC_U+30A4_U+30E4_U+30FC 1
 62
   179
420
  2234388
370
     9
100
AcDb2dPolyline
 66
     1
 10
0.0
 20
0.0
 30
0.0
  0
VERTEX
  5
BE
330
BD
100
AcDbEntity
  8
_U+30EC_U+30A4_U+30E4_U+30FC 1
 62
   179
420
  2234388
370
     9
100
AcDbVertex
100
AcDb2dVertex
 10
98.48253554305676
 20
-111.7768274720559
 30
0.0
  0
VERTEX
  5
BF
330
BD
100
AcDbEntity
  8
_U+30EC_U+30A4_U+30E4_U+30FC 1
 62
   179
420
  2234388
370
     9
100
AcDbVertex
100
AcDb2dVertex
 10
101.7123218495469
 20
-111.7768274720559
 30
0.0
  0
SEQEND
  5
C0
330
BD
100
AcDbEntity
  8
_U+30EC_U+30A4_U+30E4_U+30FC 1
 62
   179
420
  2234388
370
     9
  0
POLYLINE
  5
C1
330
1F
100
AcDbEntity
  8
_U+30EC_U+30A4_U+30E4_U+30FC 1
 62
   179
420
  2234388
370
     9
100
AcDb2dPolyline
 66
     1
 10
0.0
 20
0.0
 30
0.0
  0
VERTEX
  5
C2
330
C1
100
AcDbEntity
  8
_U+30EC_U+30A4_U+30E4_U+30FC 1
 62
   179
420
  2234388
370
     9
100
AcDbVertex
100
AcDb2dVertex
 10
98.48253554305676
 20
-141.776696909
 30
0.0
  0
VERTEX
  5
C3
330
C1
100
AcDbEntity
  8
_U+30EC_U+30A4_U+30E4_U+30FC 1
 62
   179
420
  2234388
370
     9
100
AcDbVertex
100
AcDb2dVertex
 10
101.7123218495469
 20
-141.776696909
 30
0.0
  0
SEQEND
  5
C4
330
C1
100
AcDbEntity
  8
_U+30EC_U+30A4_U+30E4_U+30FC 1
 62
   179
420
  2234388
370
     9
  0
INSERT
  5
C6
330
1F
100
AcDbEntity
  8
_U+30EC_U+30A4_U+30E4_U+30FC 1
100
AcDbBlockReference
  2
block 5
 10
0.0
 20
0.0
 30
0.0
  0
SPLINE
  5
DD
330
1F
100
AcDbEntity
  8
_U+30EC_U+30A4_U+30E4_U+30FC 1
 62
   179
420
  2234388
370
    25
100
AcDbSpline
210
0.0
220
0.0
230
1.0
 70
    11
 71
     3
 72
    17
 73
    13
 74
     0
 42
0.0000000001
 43
0.0000000001
 12
1.0
 22
0.0
 32
0.0
 13
1.0
 23
0.0
 33
0.0
 40
0.0
 40
0.0
 40
0.0
 40
0.0
 40
1.0
 40
1.0
 40
1.0
 40
2.0
 40
2.0
 40
2.0
 40
3.0
 40
3.0
 40
3.0
 40
4.0
 40
4.0
 40
4.0
 40
4.0
 10
96.52468948189446
 20
-111.7768274720559
 30
0.0
 10
96.52468948189446
 20
-111.7864583053867
 30
0.0
 10
96.51639920432818
 20
-111.7947133053847
 30
0.0
 10
96.50676837124055
 20
-111.7947133053847
 30
0.0
 10
96.49713753815293
 20
-111.7947133053847
 30
0.0
 10
96.4895528161242
 20
-111.7864583053867
 30
0.0
 10
96.4895528161242
 20
-111.7768274720559
 30
0.0
 10
96.4895528161242
 20
-111.7671613609472
 30
0.0
 10
96.49713753815293
 20
-111.7589063609493
 30
0.0
 10
96.50676837124055
 20
-111.7589063609493
 30
0.0
 10
96.51639920432818
 20
-111.7589063609493
 30
0.0
 10
96.52468948189446
 20
-111.7671613609472
 30
0.0
 10
96.52468948189446
 20
-111.7768274720559
 30
0.0
  0
SPLINE
  5
DE
330
1F
100
AcDbEntity
  8
_U+30EC_U+30A4_U+30E4_U+30FC 1
 62
   179
420
  2234388
370
    25
100
AcDbSpline
210
0.0
220
0.0
230
1.0
 70
    11
 71
     3
 72
    17
 73
    13
 74
     0
 42
0.0000000001
 43
0.0000000001
 12
1.0
 22
0.0
 32
0.0
 13
1.0
 23
0.0
 33
0.0
 40
0.0
 40
0.0
 40
0.0
 40
0.0
 40
1.0
 40
1.0
 40
1.0
 40
2.0
 40
2.0
 40
2.0
 40
3.0
 40
3.0
 40
3.0
 40
4.0
 40
4.0
 40
4.0
 40
4.0
 10
96.52468948189446
 20
-141.776696909
 30
0.0
 10
96.52468948189446
 20
-141.786363020109
 30
0.0
 10
96.51639920432818
 20
-141.7946180201069
 30
0.0
 10
96.50676837124055
 20
-141.7946180201069
 30
0.0
 10
96.49713753815293
 20
-141.7946180201069
 30
0.0
 10
96.4895528161242
 20
-141.786363020109
 30
0.0
 10
96.4895528161242
 20
-141.776696909
 30
0.0
 10
96.4895528161242
 20
-141.7670660756691
 30
0.0
 10
96.49713753815293
 20
-141.7594813534492
 30
0.0
 10
96.50676837124055
 20
-141.7594813534492
 30
0.0
 10
96.51639920432818
 20
-141.7594813534492
 30
0.0
 10
96.52468948189446
 20
-141.7670660756691
 30
0.0
 10
96.52468948189446
 20
-141.776696909
 30
0.0
  0
SPLINE
  5
DF
330
1F
100
AcDbEntity
  8
_U+30EC_U+30A4_U+30E4_U+30FC 1
 62
   179
420
  2234388
370
     9
100
AcDbSpline
210
0.0
220
0.0
230
1.0
 70
    11
 71
     3
 72
    17
 73
    13
 74
     0
 42
0.0000000001
 43
0.0000000001
 12
1.0
 22
0.0
 32
0.0
 13
1.0
 23
0.0
 33
0.0
 40
0.0
 40
0.0
 40
0.0
 40
0.0
 40
1.0
 40
1.0
 40
1.0
 40
2.0
 40
2.0
 40
2.0
 40
3.0
 40
3.0
 40
3.0
 40
4.0
 40
4.0
 40
4.0
 40
4.0
 10
101.2300040840741
 20
-141.776696909
 30
0.0
 10
101.2300040840741
 20
-141.786363020109
 30
0.0
 10
101.2224193620454
 20
-141.7946180201069
 30
0.0
 10
101.2127532511809
 20
-141.7946180201069
 30
0.0
 10
101.2027721969215
 20
-141.7946180201069
 30
0.0
 10
101.1948674183038
 20
-141.786363020109
 30
0.0
 10
101.1948674183038
 20
-141.776696909
 30
0.0
 10
101.1948674183038
 20
-141.7670660756691
 30
0.0
 10
101.2027721969215
 20
-141.7594813534492
 30
0.0
 10
101.2127532511809
 20
-141.7594813534492
 30
0.0
 10
101.2224193620454
 20
-141.7594813534492
 30
0.0
 10
101.2300040840741
 20
-141.7670660756691
 30
0.0
 10
101.2300040840741
 20
-141.776696909
 30
0.0
  0
ENDSEC
  0
SECTION
  2
OBJECTS
  0
DICTIONARY
  5
C
330
0
100
AcDbDictionary
281
     1
  3
ACAD_GROUP
350
D
  3
ACAD_LAYOUT
350
1A
  3
ACAD_MATERIAL
350
3B
  3
ACAD_MLEADERSTYLE
350
E1
  3
ACAD_MLINESTYLE
350
17
  3
ACAD_PLOTSETTINGS
350
19
  3
ACAD_PLOTSTYLENAME
350
E
  3
ACAD_TABLESTYLE
350
E0
  3
ACAD_VISUALSTYLE
350
2A
  0
SUN
  5
3F
330
29
100
AcDbSun
 90
        1
290
     0
 63
     7
421
 16777215
 40
1.0
291
     1
 91
  2455826
 92
 54000000
292
     0
 70
     2
 71
   256
280
     1
  0
DICTIONARY
  5
D
102
{ACAD_REACTORS
330
C
102
}
330
C
100
AcDbDictionary
281
     1
  0
DICTIONARY
  5
1A
102
{ACAD_REACTORS
330
C
102
}
330
C
100
AcDbDictionary
281
     1
  3
Layout1
350
1E
  3
Layout2
350
26
  3
Model
350
22
  0
DICTIONARY
  5
3B
102
{ACAD_REACTORS
330
C
102
}
330
C
100
AcDbDictionary
281
     1
  3
ByBlock
350
3D
  3
ByLayer
350
3C
  3
Global
350
3E
  0
DICTIONARY
  5
E1
102
{ACAD_REACTORS
330
C
102
}
330
C
100
AcDbDictionary
281
     1
  0
DICTIONARY
  5
17
102
{ACAD_REACTORS
330
C
102
}
330
C
100
AcDbDictionary
281
     1
  3
Standard
350
18
  0
DICTIONARY
  5
19
102
{ACAD_REACTORS
330
C
102
}
330
C
100
AcDbDictionary
281
     1
  0
ACDBDICTIONARYWDFLT
  5
E
102
{ACAD_REACTORS
330
C
102
}
330
C
100
AcDbDictionary
281
     1
  3
Normal
350
F
100
AcDbDictionaryWithDefault
340
F
  0
DICTIONARY
  5
E0
102
{ACAD_REACTORS
330
C
102
}
330
C
100
AcDbDictionary
281
     1
  0
DICTIONARY
  5
2A
102
{ACAD_REACTORS
330
C
102
}
330
C
100
AcDbDictionary
281
     1
  3
2dWireframe
350
2F
  3
3D Hidden
350
31
  3
3dWireframe
350
30
  3
Basic
350
32
  3
Brighten
350
36
  3
ColorChange
350
3A
  3
Conceptual
350
34
  3
Dim
350
35
  3
Facepattern
350
39
  3
Flat
350
2B
  3
FlatWithEdges
350
2C
  3
Gouraud
350
2D
  3
GouraudWithEdges
350
2E
  3
Linepattern
350
38
  3
Realistic
350
33
  3
Thicken
350
37
  0
LAYOUT
  5
1E
102
{ACAD_REACTORS
330
1A
102
}
330
1A
100
AcDbPlotSettings
  1

  2
none_device
  4

  6

 40
0.0
 41
0.0
 42
0.0
 43
0.0
 44
0.0
 45
0.0
 46
0.0
 47
0.0
 48
0.0
 49
0.0
140
0.0
141
0.0
142
1.0
143
1.0
 70
   688
 72
     0
 73
     0
 74
     5
  7

 75
    16
 76
     0
 77
     2
 78
   300
147
1.0
148
0.0
149
0.0
100
AcDbLayout
  1
Layout1
 70
     1
 71
     1
 10
0.0
 20
0.0
 11
12.0
 21
9.0
 12
0.0
 22
0.0
 32
0.0
 14
1.000000000000000E+20
 24
1.000000000000000E+20
 34
1.000000000000000E+20
 15
-1.000000000000000E+20
 25
-1.000000000000000E+20
 35
-1.000000000000000E+20
146
0.0
 13
0.0
 23
0.0
 33
0.0
 16
1.0
 26
0.0
 36
0.0
 17
0.0
 27
1.0
 37
0.0
 76
     0
330
1B
  0
LAYOUT
  5
26
102
{ACAD_REACTORS
330
1A
102
}
330
1A
100
AcDbPlotSettings
  1

  2
none_device
  4

  6

 40
0.0
 41
0.0
 42
0.0
 43
0.0
 44
0.0
 45
0.0
 46
0.0
 47
0.0
 48
0.0
 49
0.0
140
0.0
141
0.0
142
1.0
143
1.0
 70
   688
 72
     0
 73
     0
 74
     5
  7

 75
    16
 76
     0
 77
     2
 78
   300
147
1.0
148
0.0
149
0.0
100
AcDbLayout
  1
Layout2
 70
     1
 71
     2
 10
0.0
 20
0.0
 11
0.0
 21
0.0
 12
0.0
 22
0.0
 32
0.0
 14
0.0
 24
0.0
 34
0.0
 15
0.0
 25
0.0
 35
0.0
146
0.0
 13
0.0
 23
0.0
 33
0.0
 16
1.0
 26
0.0
 36
0.0
 17
0.0
 27
1.0
 37
0.0
 76
     0
330
23
  0
LAYOUT
  5
22
102
{ACAD_REACTORS
330
1A
102
}
330
1A
100
AcDbPlotSettings
  1

  2
none_device
  4

  6

 40
0.0
 41
0.0
 42
0.0
 43
0.0
 44
0.0
 45
0.0
 46
0.0
 47
0.0
 48
0.0
 49
0.0
140
0.0
141
0.0
142
1.0
143
1.0
 70
  1712
 72
     0
 73
     0
 74
     0
  7

 75
     0
 76
     0
 77
     2
 78
   300
147
1.0
148
0.0
149
0.0
100
AcDbLayout
  1
Model
 70
     1
 71
     0
 10
0.0
 20
0.0
 11
12.0
 21
9.0
 12
0.0
 22
0.0
 32
0.0
 14
1.000000000000000E+20
 24
1.000000000000000E+20
 34
1.000000000000000E+20
 15
-1.000000000000000E+20
 25
-1.000000000000000E+20
 35
-1.000000000000000E+20
146
0.0
 13
0.0
 23
0.0
 33
0.0
 16
1.0
 26
0.0
 36
0.0
 17
0.0
 27
1.0
 37
0.0
 76
     0
330
1F
331
29
  0
MATERIAL
  5
3D
102
{ACAD_REACTORS
330
3B
102
}
330
3B
100
AcDbMaterial
  1
ByBlock
 72
     1
 94
      127
  0
MATERIAL
  5
3C
102
{ACAD_REACTORS
330
3B
102
}
330
3B
100
AcDbMaterial
  1
ByLayer
 72
     1
 94
      127
  0
MATERIAL
  5
3E
102
{ACAD_REACTORS
330
3B
102
}
330
3B
100
AcDbMaterial
  1
Global
 72
     1
 94
      127
  0
MLINESTYLE
  5
18
102
{ACAD_REACTORS
330
17
102
}
330
17
100
AcDbMlineStyle
  2
Standard
 70
     0
  3

 62
   256
 51
90.0
 52
90.0
 71
     2
 49
0.5
 62
   256
  6
BYLAYER
 49
-0.5
 62
   256
  6
BYLAYER
  0
ACDBPLACEHOLDER
  5
F
102
{ACAD_REACTORS
330
E
102
}
330
E
  0
VISUALSTYLE
  5
2F
102
{ACAD_REACTORS
330
2A
102
}
330
2A
100
AcDbVisualStyle
  2
2dWireframe
 70
     4
177
     2
291
     0
 71
     0
176
     1
 72
     2
176
     1
 73
     0
176
     1
 90
        0
176
     1
 40
-0.6
176
     1
 41
-30.0
176
     1
 62
     5
 63
     7
421
 16777215
176
     1
 74
     1
176
     1
 91
        4
176
     1
 64
     7
176
     1
 65
   257
176
     1
 75
     1
176
     1
175
     1
176
     1
 42
1.0
176
     1
 92
        0
176
     1
 66
   257
176
     1
 43
1.0
176
     1
 76
     1
176
     1
 77
     6
176
     1
 78
     2
176
     1
 67
     7
176
     1
 79
     5
176
     1
170
     0
176
     1
171
     0
176
     1
290
     0
176
     1
 93
        1
176
     1
 44
0.0
176
     1
173
     0
176
     1
  0
VISUALSTYLE
  5
31
102
{ACAD_REACTORS
330
2A
102
}
330
2A
100
AcDbVisualStyle
  2
3D Hidden
 70
     6
177
     2
291
     0
 71
     1
176
     1
 72
     2
176
     1
 73
     2
176
     1
 90
        0
176
     1
 40
-0.6
176
     1
 41
-30.0
176
     1
 62
     5
 63
     7
421
 16777215
176
     1
 74
     2
176
     1
 91
        2
176
     1
 64
     7
176
     1
 65
   257
176
     1
 75
     2
176
     1
175
     1
176
     1
 42
40.0
176
     1
 92
        0
176
     1
 66
   257
176
     1
 43
1.0
176
     1
 76
     1
176
     1
 77
     6
176
     1
 78
     2
176
     1
 67
     7
176
     1
 79
     3
176
     1
170
     0
176
     1
171
     0
176
     1
290
     0
176
     1
 93
        1
176
     1
 44
0.0
176
     1
173
     0
176
     1
  0
VISUALSTYLE
  5
30
102
{ACAD_REACTORS
330
2A
102
}
330
2A
100
AcDbVisualStyle
  2
3dWireframe
 70
     5
177
     2
291
     0
 71
     0
176
     1
 72
     2
176
     1
 73
     0
176
     1
 90
        0
176
     1
 40
-0.6
176
     1
 41
-30.0
176
     1
 62
     5
 63
     7
421
 16777215
176
     1
 74
     1
176
     1
 91
        4
176
     1
 64
     7
176
     1
 65
   257
176
     1
 75
     1
176
     1
175
     1
176
     1
 42
1.0
176
     1
 92
        0
176
     1
 66
   257
176
     1
 43
1.0
176
     1
 76
     1
176
     1
 77
     6
176
     1
 78
     2
176
     1
 67
     7
176
     1
 79
     5
176
     1
170
     0
176
     1
171
     0
176
     1
290
     0
176
     1
 93
        1
176
     1
 44
0.0
176
     1
173
     0
176
     1
  0
VISUALSTYLE
  5
32
102
{ACAD_REACTORS
330
2A
102
}
330
2A
100
AcDbVisualStyle
  2
Basic
 70
     7
177
     2
291
     1
 71
     1
176
     1
 72
     0
176
     1
 73
     1
176
     1
 90
        0
176
     1
 40
-0.6
176
     1
 41
-30.0
176
     1
 62
     5
 63
     7
421
 16777215
176
     1
 74
     0
176
     1
 91
        4
176
     1
 64
     7
176
     1
 65
   257
176
     1
 75
     1
176
     1
175
     1
176
     1
 42
1.0
176
     1
 92
        8
176
     1
 66
     7
176
     1
 43
1.0
176
     1
 76
     1
176
     1
 77
     6
176
     1
 78
     2
176
     1
 67
     7
176
     1
 79
     5
176
     1
170
     0
176
     1
171
     0
176
     1
290
     0
176
     1
 93
        1
176
     1
 44
0.0
176
     1
173
     0
176
     1
  0
VISUALSTYLE
  5
36
102
{ACAD_REACTORS
330
2A
102
}
330
2A
100
AcDbVisualStyle
  2
Brighten
 70
    12
177
     2
291
     1
 71
     2
176
     1
 72
     2
176
     1
 73
     0
176
     1
 90
        0
176
     1
 40
-0.6
176
     1
 41
-30.0
176
     1
 62
     5
 63
     7
421
 16777215
176
     1
 74
     1
176
     1
 91
        4
176
     1
 64
     7
176
     1
 65
   257
176
     1
 75
     1
176
     1
175
     1
176
     1
 42
1.0
176
     1
 92
        8
176
     1
 66
     7
176
     1
 43
1.0
176
     1
 76
     1
176
     1
 77
     6
176
     1
 78
     2
176
     1
 67
     7
176
     1
 79
     5
176
     1
170
     0
176
     1
171
     0
176
     1
290
     0
176
     1
 93
        1
176
     1
 44
50.0
176
     1
173
     0
176
     1
  0
VISUALSTYLE
  5
3A
102
{ACAD_REACTORS
330
2A
102
}
330
2A
100
AcDbVisualStyle
  2
ColorChange
 70
    16
177
     2
291
     1
 71
     2
176
     1
 72
     2
176
     1
 73
     3
176
     1
 90
        0
176
     1
 40
-0.6
176
     1
 41
-30.0
176
     1
 62
     5
 63
     8
421
  8421504
176
     1
 74
     1
176
     1
 91
        4
176
     1
 64
     7
176
     1
 65
   257
176
     1
 75
     1
176
     1
175
     1
176
     1
 42
1.0
176
     1
 92
        8
176
     1
 66
     8
424
  8421504
176
     1
 43
1.0
176
     1
 76
     1
176
     1
 77
     6
176
     1
 78
     2
176
     1
 67
     7
176
     1
 79
     5
176
     1
170
     0
176
     1
171
     0
176
     1
290
     0
176
     1
 93
        1
176
     1
 44
0.0
176
     1
173
     0
176
     1
  0
VISUALSTYLE
  5
34
102
{ACAD_REACTORS
330
2A
102
}
330
2A
100
AcDbVisualStyle
  2
Conceptual
 70
     9
177
     2
291
     0
 71
     3
176
     1
 72
     2
176
     1
 73
     0
176
     1
 90
        0
176
     1
 40
-0.6
176
     1
 41
-30.0
176
     1
 62
     5
 63
     7
421
 16777215
176
     1
 74
     2
176
     1
 91
        2
176
     1
 64
     7
176
     1
 65
   257
176
     1
 75
     1
176
     1
175
     1
176
     1
 42
40.0
176
     1
 92
        8
176
     1
 66
     7
176
     1
 43
1.0
176
     1
 76
     1
176
     1
 77
     6
176
     1
 78
     2
176
     1
 67
     7
176
     1
 79
     3
176
     1
170
     0
176
     1
171
     0
176
     1
290
     0
176
     1
 93
        1
176
     1
 44
0.0
176
     1
173
     0
176
     1
  0
VISUALSTYLE
  5
35
102
{ACAD_REACTORS
330
2A
102
}
330
2A
100
AcDbVisualStyle
  2
Dim
 70
    11
177
     2
291
     1
 71
     2
176
     1
 72
     2
176
     1
 73
     0
176
     1
 90
        0
176
     1
 40
-0.6
176
     1
 41
-30.0
176
     1
 62
     5
 63
     7
421
 16777215
176
     1
 74
     1
176
     1
 91
        4
176
     1
 64
     7
176
     1
 65
   257
176
     1
 75
     1
176
     1
175
     1
176
     1
 42
1.0
176
     1
 92
        8
176
     1
 66
     7
176
     1
 43
1.0
176
     1
 76
     1
176
     1
 77
     6
176
     1
 78
     2
176
     1
 67
     7
176
     1
 79
     5
176
     1
170
     0
176
     1
171
     0
176
     1
290
     0
176
     1
 93
        1
176
     1
 44
-50.0
176
     1
173
     0
176
     1
  0
VISUALSTYLE
  5
39
102
{ACAD_REACTORS
330
2A
102
}
330
2A
100
AcDbVisualStyle
  2
Facepattern
 70
    15
177
     2
291
     1
 71
     2
176
     1
 72
     2
176
     1
 73
     0
176
     1
 90
        0
176
     1
 40
-0.6
176
     1
 41
-30.0
176
     1
 62
     5
 63
     7
421
 16777215
176
     1
 74
     1
176
     1
 91
        4
176
     1
 64
     7
176
     1
 65
   257
176
     1
 75
     1
176
     1
175
     1
176
     1
 42
1.0
176
     1
 92
        8
176
     1
 66
     7
176
     1
 43
1.0
176
     1
 76
     1
176
     1
 77
     6
176
     1
 78
     2
176
     1
 67
     7
176
     1
 79
     5
176
     1
170
     0
176
     1
171
     0
176
     1
290
     0
176
     1
 93
        1
176
     1
 44
0.0
176
     1
173
     0
176
     1
  0
VISUALSTYLE
  5
2B
102
{ACAD_REACTORS
330
2A
102
}
330
2A
100
AcDbVisualStyle
  2
Flat
 70
     0
177
     2
291
     1
 71
     2
176
     1
 72
     1
176
     1
 73
     1
176
     1
 90
        2
176
     1
 40
-0.6
176
     1
 41
30.0
176
     1
 62
     5
 63
     7
421
 16777215
176
     1
 74
     0
176
     1
 91
        4
176
     1
 64
     7
176
     1
 65
   257
176
     1
 75
     1
176
     1
175
     1
176
     1
 42
1.0
176
     1
 92
        8
176
     1
 66
     7
176
     1
 43
1.0
176
     1
 76
     1
176
     1
 77
     6
176
     1
 78
     2
176
     1
 67
     7
176
     1
 79
     5
176
     1
170
     0
176
     1
171
     0
176
     1
290
     0
176
     1
 93
       13
176
     1
 44
0.0
176
     1
173
     0
176
     1
  0
VISUALSTYLE
  5
2C
102
{ACAD_REACTORS
330
2A
102
}
330
2A
100
AcDbVisualStyle
  2
FlatWithEdges
 70
     1
177
     2
291
     1
 71
     2
176
     1
 72
     1
176
     1
 73
     1
176
     1
 90
        2
176
     1
 40
-0.6
176
     1
 41
30.0
176
     1
 62
     5
 63
     7
421
 16777215
176
     1
 74
     1
176
     1
 91
        4
176
     1
 64
     7
176
     1
 65
   257
176
     1
 75
     1
176
     1
175
     1
176
     1
 42
1.0
176
     1
 92
        0
176
     1
 66
   257
176
     1
 43
1.0
176
     1
 76
     1
176
     1
 77
     6
176
     1
 78
     2
176
     1
 67
     7
176
     1
 79
     5
176
     1
170
     0
176
     1
171
     0
176
     1
290
     0
176
     1
 93
       13
176
     1
 44
0.0
176
     1
173
     0
176
     1
  0
VISUALSTYLE
  5
2D
102
{ACAD_REACTORS
330
2A
102
}
330
2A
100
AcDbVisualStyle
  2
Gouraud
 70
     2
177
     2
291
     1
 71
     2
176
     1
 72
     2
176
     1
 73
     1
176
     1
 90
        2
176
     1
 40
-0.6
176
     1
 41
30.0
176
     1
 62
     5
 63
     7
421
 16777215
176
     1
 74
     0
176
     1
 91
        4
176
     1
 64
     7
176
     1
 65
   257
176
     1
 75
     1
176
     1
175
     1
176
     1
 42
1.0
176
     1
 92
        0
176
     1
 66
     7
176
     1
 43
1.0
176
     1
 76
     1
176
     1
 77
     6
176
     1
 78
     2
176
     1
 67
     7
176
     1
 79
     5
176
     1
170
     0
176
     1
171
     0
176
     1
290
     0
176
     1
 93
       13
176
     1
 44
0.0
176
     1
173
     0
176
     1
  0
VISUALSTYLE
  5
2E
102
{ACAD_REACTORS
330
2A
102
}
330
2A
100
AcDbVisualStyle
  2
GouraudWithEdges
 70
     3
177
     2
291
     1
 71
     2
176
     1
 72
     2
176
     1
 73
     1
176
     1
 90
        2
176
     1
 40
-0.6
176
     1
 41
30.0
176
     1
 62
     5
 63
     7
421
 16777215
176
     1
 74
     1
176
     1
 91
        4
176
     1
 64
     7
176
     1
 65
   257
176
     1
 75
     1
176
     1
175
     1
176
     1
 42
1.0
176
     1
 92
        0
176
     1
 66
   257
176
     1
 43
1.0
176
     1
 76
     1
176
     1
 77
     6
176
     1
 78
     2
176
     1
 67
     7
176
     1
 79
     5
176
     1
170
     0
176
     1
171
     0
176
     1
290
     0
176
     1
 93
       13
176
     1
 44
0.0
176
     1
173
     0
176
     1
  0
VISUALSTYLE
  5
38
102
{ACAD_REACTORS
330
2A
102
}
330
2A
100
AcDbVisualStyle
  2
Linepattern
 70
    14
177
     2
291
     1
 71
     2
176
     1
 72
     2
176
     1
 73
     0
176
     1
 90
        0
176
     1
 40
-0.6
176
     1
 41
-30.0
176
     1
 62
     5
 63
     7
421
 16777215
176
     1
 74
     1
176
     1
 91
        4
176
     1
 64
     7
176
     1
 65
   257
176
     1
 75
     7
176
     1
175
     7
176
     1
 42
1.0
176
     1
 92
        8
176
     1
 66
     7
176
     1
 43
1.0
176
     1
 76
     1
176
     1
 77
     6
176
     1
 78
     2
176
     1
 67
     7
176
     1
 79
     5
176
     1
170
     0
176
     1
171
     0
176
     1
290
     0
176
     1
 93
        1
176
     1
 44
0.0
176
     1
173
     0
176
     1
  0
VISUALSTYLE
  5
33
102
{ACAD_REACTORS
330
2A
102
}
330
2A
100
AcDbVisualStyle
  2
Realistic
 70
     8
177
     2
291
     0
 71
     2
176
     1
 72
     2
176
     1
 73
     0
176
     1
 90
        0
176
     1
 40
-0.6
176
     1
 41
-30.0
176
     1
 62
     5
 63
     7
421
 16777215
176
     1
 74
     1
176
     1
 91
        0
176
     1
 64
     7
176
     1
 65
   257
176
     1
 75
     1
176
     1
175
     1
176
     1
 42
1.0
176
     1
 92
        8
176
     1
 66
     8
424
  7895160
176
     1
 43
1.0
176
     1
 76
     1
176
     1
 77
     6
176
     1
 78
     2
176
     1
 67
     7
176
     1
 79
     5
176
     1
170
     0
176
     1
171
     0
176
     1
290
     0
176
     1
 93
       13
176
     1
 44
0.0
176
     1
173
     0
176
     1
  0
VISUALSTYLE
  5
37
102
{ACAD_REACTORS
330
2A
102
}
330
2A
100
AcDbVisualStyle
  2
Thicken
 70
    13
177
     2
291
     1
 71
     2
176
     1
 72
     2
176
     1
 73
     0
176
     1
 90
        0
176
     1
 40
-0.6
176
     1
 41
-30.0
176
     1
 62
     5
 63
     7
421
 16777215
176
     1
 74
     1
176
     1
 91
        4
176
     1
 64
     7
176
     1
 65
   257
176
     1
 75
     1
176
     1
175
     1
176
     1
 42
1.0
176
     1
 92
       12
176
     1
 66
     7
176
     1
 43
1.0
176
     1
 76
     1
176
     1
 77
     6
176
     1
 78
     2
176
     1
 67
     7
176
     1
 79
     5
176
     1
170
     0
176
     1
171
     0
176
     1
290
     0
176
     1
 93
        1
176
     1
 44
0.0
176
     1
173
     0
176
     1
  0
ENDSEC
  0
EOF
