  0
SECTION
  2
HEADER
  9
$ACADVER
  1
AC1024
  9
$ACADMAINTVER
 70
     6
  9
$DWGCODEPAGE
  3
UNDEFINED
  9
$INSBASE
 10
0.0
 20
0.0
 30
0.0
  9
$EXTMIN
 10
1.000000000000000E+20
 20
1.000000000000000E+20
 30
1.000000000000000E+20
  9
$EXTMAX
 10
-1.000000000000000E+20
 20
-1.000000000000000E+20
 30
-1.000000000000000E+20
  9
$LIMMIN
 10
0.0
 20
0.0
  9
$LIMMAX
 10
12.0
 20
9.0
  9
$ORTHOMODE
 70
     0
  9
$REGENMODE
 70
     1
  9
$FILLMODE
 70
     1
  9
$QTEXTMODE
 70
     0
  9
$MIRRTEXT
 70
     1
  9
$LTSCALE
 40
1.0
  9
$ATTMODE
 70
     1
  9
$TEXTSIZE
 40
0.2
  9
$TRACEWID
 40
0.05
  9
$TEXTSTYLE
  7
Standard
  9
$CLAYER
  8
0
  9
$CELTYPE
  6
ByLayer
  9
$CECOLOR
 62
   256
  9
$CELTSCALE
 40
1.0
  9
$DISPSILH
 70
     0
  9
$DIMSCALE
 40
1.0
  9
$DIMASZ
 40
0.18
  9
$DIMEXO
 40
0.0625
  9
$DIMDLI
 40
0.38
  9
$DIMRND
 40
0.0
  9
$DIMDLE
 40
0.0
  9
$DIMEXE
 40
0.18
  9
$DIMTP
 40
0.0
  9
$DIMTM
 40
0.0
  9
$DIMTXT
 40
0.18
  9
$DIMCEN
 40
0.09
  9
$DIMTSZ
 40
0.0
  9
$DIMTOL
 70
     0
  9
$DIMLIM
 70
     0
  9
$DIMTIH
 70
     1
  9
$DIMTOH
 70
     1
  9
$DIMSE1
 70
     0
  9
$DIMSE2
 70
     0
  9
$DIMTAD
 70
     0
  9
$DIMZIN
 70
     0
  9
$DIMBLK
  1

  9
$DIMASO
 70
     1
  9
$DIMSHO
 70
     1
  9
$DIMPOST
  1

  9
$DIMAPOST
  1

  9
$DIMALT
 70
     0
  9
$DIMALTD
 70
     2
  9
$DIMALTF
 40
25.4
  9
$DIMLFAC
 40
1.0
  9
$DIMTOFL
 70
     0
  9
$DIMTVP
 40
0.0
  9
$DIMTIX
 70
     0
  9
$DIMSOXD
 70
     0
  9
$DIMSAH
 70
     0
  9
$DIMBLK1
  1

  9
$DIMBLK2
  1

  9
$DIMSTYLE
  2
Standard
  9
$DIMCLRD
 70
     0
  9
$DIMCLRE
 70
     0
  9
$DIMCLRT
 70
     0
  9
$DIMTFAC
 40
1.0
  9
$DIMGAP
 40
0.09
  9
$DIMJUST
 70
     0
  9
$DIMSD1
 70
     0
  9
$DIMSD2
 70
     0
  9
$DIMTOLJ
 70
     1
  9
$DIMTZIN
 70
     0
  9
$DIMALTZ
 70
     0
  9
$DIMALTTZ
 70
     0
  9
$DIMUPT
 70
     0
  9
$DIMDEC
 70
     4
  9
$DIMTDEC
 70
     4
  9
$DIMALTU
 70
     2
  9
$DIMALTTD
 70
     2
  9
$DIMTXSTY
  7
Standard
  9
$DIMAUNIT
 70
     0
  9
$DIMADEC
 70
     0
  9
$DIMALTRND
 40
0.0
  9
$DIMAZIN
 70
     0
  9
$DIMDSEP
 70
    46
  9
$DIMATFIT
 70
     3
  9
$DIMFRAC
 70
     0
  9
$DIMLDRBLK
  1

  9
$DIMLUNIT
 70
     2
  9
$DIMLWD
 70
    -2
  9
$DIMLWE
 70
    -2
  9
$DIMTMOVE
 70
     0
  9
$DIMFXL
 40
1.0
  9
$DIMFXLON
 70
     0
  9
$DIMJOGANG
 40
0.7853981633974483
  9
$DIMTFILL
 70
     0
  9
$DIMTFILLCLR
 70
     0
  9
$DIMARCSYM
 70
     0
  9
$DIMLTYPE
  6

  9
$DIMLTEX1
  6

  9
$DIMLTEX2
  6

  9
$DIMTXTDIRECTION
 70
     0
  9
$LUNITS
 70
     2
  9
$LUPREC
 70
     4
  9
$SKETCHINC
 40
0.1
  9
$FILLETRAD
 40
0.5
  9
$AUNITS
 70
     0
  9
$AUPREC
 70
     0
  9
$MENU
  1
.
  9
$ELEVATION
 40
0.0
  9
$PELEVATION
 40
0.0
  9
$THICKNESS
 40
0.0
  9
$LIMCHECK
 70
     0
  9
$CHAMFERA
 40
0.5
  9
$CHAMFERB
 40
0.5
  9
$CHAMFERC
 40
1.0
  9
$CHAMFERD
 40
0.0
  9
$SKPOLY
 70
     0
  9
$TDCREATE
 40
2457917.627847211
  9
$TDUCREATE
 40
2457917.252847222
  9
$TDUPDATE
 40
2457917.627847211
  9
$TDUUPDATE
 40
2457917.252847222
  9
$TDINDWG
 40
0.0000000116
  9
$TDUSRTIMER
 40
0.0000000116
  9
$USRTIMER
 70
     1
  9
$ANGBASE
 50
0.0
  9
$ANGDIR
 70
     0
  9
$PDMODE
 70
     0
  9
$PDSIZE
 40
0.0
  9
$PLINEWID
 40
0.0
  9
$SPLFRAME
 70
     0
  9
$SPLINETYPE
 70
     6
  9
$SPLINESEGS
 70
     8
  9
$HANDSEED
  5
10F
  9
$SURFTAB1
 70
     6
  9
$SURFTAB2
 70
     6
  9
$SURFTYPE
 70
     6
  9
$SURFU
 70
     6
  9
$SURFV
 70
     6
  9
$UCSBASE
  2

  9
$UCSNAME
  2

  9
$UCSORG
 10
0.0
 20
0.0
 30
0.0
  9
$UCSXDIR
 10
1.0
 20
0.0
 30
0.0
  9
$UCSYDIR
 10
0.0
 20
1.0
 30
0.0
  9
$UCSORTHOREF
  2

  9
$UCSORTHOVIEW
 70
     0
  9
$UCSORGTOP
 10
0.0
 20
0.0
 30
0.0
  9
$UCSORGBOTTOM
 10
0.0
 20
0.0
 30
0.0
  9
$UCSORGLEFT
 10
0.0
 20
0.0
 30
0.0
  9
$UCSORGRIGHT
 10
0.0
 20
0.0
 30
0.0
  9
$UCSORGFRONT
 10
0.0
 20
0.0
 30
0.0
  9
$UCSORGBACK
 10
0.0
 20
0.0
 30
0.0
  9
$PUCSBASE
  2

  9
$PUCSNAME
  2

  9
$PUCSORG
 10
0.0
 20
0.0
 30
0.0
  9
$PUCSXDIR
 10
1.0
 20
0.0
 30
0.0
  9
$PUCSYDIR
 10
0.0
 20
1.0
 30
0.0
  9
$PUCSORTHOREF
  2

  9
$PUCSORTHOVIEW
 70
     0
  9
$PUCSORGTOP
 10
0.0
 20
0.0
 30
0.0
  9
$PUCSORGBOTTOM
 10
0.0
 20
0.0
 30
0.0
  9
$PUCSORGLEFT
 10
0.0
 20
0.0
 30
0.0
  9
$PUCSORGRIGHT
 10
0.0
 20
0.0
 30
0.0
  9
$PUCSORGFRONT
 10
0.0
 20
0.0
 30
0.0
  9
$PUCSORGBACK
 10
0.0
 20
0.0
 30
0.0
  9
$USERI1
 70
     0
  9
$USERI2
 70
     0
  9
$USERI3
 70
     0
  9
$USERI4
 70
     0
  9
$USERI5
 70
     0
  9
$USERR1
 40
0.0
  9
$USERR2
 40
0.0
  9
$USERR3
 40
0.0
  9
$USERR4
 40
0.0
  9
$USERR5
 40
0.0
  9
$WORLDVIEW
 70
     1
  9
$SHADEDGE
 70
     3
  9
$SHADEDIF
 70
    70
  9
$TILEMODE
 70
     1
  9
$MAXACTVP
 70
    64
  9
$PINSBASE
 10
0.0
 20
0.0
 30
0.0
  9
$PLIMCHECK
 70
     0
  9
$PEXTMIN
 10
1.000000000000000E+20
 20
1.000000000000000E+20
 30
1.000000000000000E+20
  9
$PEXTMAX
 10
-1.000000000000000E+20
 20
-1.000000000000000E+20
 30
-1.000000000000000E+20
  9
$PLIMMIN
 10
0.0
 20
0.0
  9
$PLIMMAX
 10
12.0
 20
9.0
  9
$UNITMODE
 70
     0
  9
$VISRETAIN
 70
     1
  9
$PLINEGEN
 70
     0
  9
$PSLTSCALE
 70
     1
  9
$TREEDEPTH
 70
  3020
  9
$CMLSTYLE
  2
Standard
  9
$CMLJUST
 70
     0
  9
$CMLSCALE
 40
1.0
  9
$PROXYGRAPHICS
 70
     1
  9
$MEASUREMENT
 70
     0
  9
$CELWEIGHT
370
    -1
  9
$ENDCAPS
280
     0
  9
$JOINSTYLE
280
     0
  9
$LWDISPLAY
290
     1
  9
$INSUNITS
 70
     1
  9
$HYPERLINKBASE
  1

  9
$STYLESHEET
  1

  9
$XEDIT
290
     1
  9
$CEPSNTYPE
380
     0
  9
$PSTYLEMODE
290
     1
  9
$FINGERPRINTGUID
  2
{99CC1E7C-8EA1-F5A9-878F-F11F646B084E}
  9
$VERSIONGUID
  2
{FAEB1C32-E019-11D5-929B-00C0DF256EC4}
  9
$EXTNAMES
290
     1
  9
$PSVPSCALE
 40
0.0
  9
$OLESTARTUP
290
     0
  9
$SORTENTS
280
   127
  9
$INDEXCTL
280
     0
  9
$HIDETEXT
280
     1
  9
$XCLIPFRAME
280
     2
  9
$HALOGAP
280
     0
  9
$OBSCOLOR
 70
   257
  9
$OBSLTYPE
280
     0
  9
$INTERSECTIONDISPLAY
280
     0
  9
$INTERSECTIONCOLOR
 70
   257
  9
$DIMASSOC
280
     2
  9
$PROJECTNAME
  1

  9
$CAMERADISPLAY
290
     0
  9
$LENSLENGTH
 40
50.0
  9
$CAMERAHEIGHT
 40
0.0
  9
$STEPSPERSEC
 40
2.0
  9
$STEPSIZE
 40
6.0
  9
$3DDWFPREC
 40
2.0
  9
$PSOLWIDTH
 40
0.25
  9
$PSOLHEIGHT
 40
4.0
  9
$LOFTANG1
 40
1.570796326794897
  9
$LOFTANG2
 40
1.570796326794897
  9
$LOFTMAG1
 40
0.0
  9
$LOFTMAG2
 40
0.0
  9
$LOFTPARAM
 70
     7
  9
$LOFTNORMALS
280
     1
  9
$LATITUDE
 40
37.795
  9
$LONGITUDE
 40
-122.394
  9
$NORTHDIRECTION
 40
0.0
  9
$TIMEZONE
 70
 -8000
  9
$LIGHTGLYPHDISPLAY
280
     1
  9
$TILEMODELIGHTSYNCH
280
     1
  9
$CMATERIAL
347
3C
  9
$SOLIDHIST
280
     1
  9
$SHOWHIST
280
     1
  9
$DWFFRAME
280
     2
  9
$DGNFRAME
280
     2
  9
$REALWORLDSCALE
290
     1
  9
$INTERFERECOLOR
 62
   256
  9
$CSHADOW
280
     0
  9
$SHADOWPLANELOCATION
 40
0.0
  0
ENDSEC
  0
SECTION
  2
CLASSES
  0
CLASS
  1
ACDBDICTIONARYWDFLT
  2
AcDbDictionaryWithDefault
  3
ObjectDBX Classes
 90
        0
 91
        4
280
     0
281
     0
  0
CLASS
  1
VISUALSTYLE
  2
AcDbVisualStyle
  3
ObjectDBX Classes
 90
     4095
 91
        4
280
     0
281
     0
  0
CLASS
  1
MATERIAL
  2
AcDbMaterial
  3
ObjectDBX Classes
 90
     1153
 91
        4
280
     0
281
     0
  0
CLASS
  1
SUN
  2
AcDbSun
  3
SCENEOE
 90
     1024
 91
        4
280
     0
281
     0
  0
ENDSEC
  0
SECTION
  2
TABLES
  0
TABLE
  2
VPORT
  5
8
330
0
100
AcDbSymbolTable
 70
     1
  0
VPORT
  5
29
330
8
100
AcDbSymbolTableRecord
100
AcDbViewportTableRecord
  2
*Active
 70
     0
 10
0.0
 20
0.0
 11
1.0
 21
1.0
 12
0.0
 22
0.0
 13
0.0
 23
0.0
 14
0.5
 24
0.5
 15
0.5
 25
0.5
 16
0.0
 26
0.0
 36
1.0
 17
91.00082462281999
 27
-128.4993055234307
 37
0.0
 40
256.9986110468615
 41
0.7081814508812795
 42
50.0
 43
0.0
 44
0.0
 50
0.0
 51
0.0
 71
     0
 72
   100
 73
     1
 74
     3
 75
     0
 76
     0
 77
     0
 78
     0
281
     0
 65
     1
110
0.0
120
0.0
130
0.0
111
1.0
121
0.0
131
0.0
112
0.0
122
1.0
132
0.0
 79
     0
146
0.0
 60
     3
 61
     5
292
     1
282
     1
141
0.0
142
0.0
 63
   250
361
3F
  0
ENDTAB
  0
TABLE
  2
LTYPE
  5
5
330
0
100
AcDbSymbolTable
 70
     1
  0
LTYPE
  5
14
330
5
100
AcDbSymbolTableRecord
100
AcDbLinetypeTableRecord
  2
ByBlock
 70
     0
  3

 72
    65
 73
     0
 40
0.0
  0
LTYPE
  5
15
330
5
100
AcDbSymbolTableRecord
100
AcDbLinetypeTableRecord
  2
ByLayer
 70
     0
  3

 72
    65
 73
     0
 40
0.0
  0
LTYPE
  5
16
330
5
100
AcDbSymbolTableRecord
100
AcDbLinetypeTableRecord
  2
Continuous
 70
     0
  3
Solid line
 72
    65
 73
     0
 40
0.0
  0
ENDTAB
  0
TABLE
  2
LAYER
  5
2
330
0
100
AcDbSymbolTable
 70
     2
  0
LAYER
  5
10
330
2
100
AcDbSymbolTableRecord
100
AcDbLayerTableRecord
  2
0
 70
     0
 62
     7
  6
Continuous
370
    -3
390
F
347
3E
  0
LAYER
  5
40
330
2
100
AcDbSymbolTableRecord
100
AcDbLayerTableRecord
  2
_U+30EC_U+30A4_U+30E4_U+30FC 1
 70
     0
 62
     7
  6
Continuous
370
    -3
390
F
347
3E
  0
ENDTAB
  0
TABLE
  2
STYLE
  5
3
330
0
100
AcDbSymbolTable
 70
     1
  0
STYLE
  5
11
330
3
100
AcDbSymbolTableRecord
100
AcDbTextStyleTableRecord
  2
Standard
 70
     0
 40
0.0
 41
1.0
 50
0.0
 71
     0
 42
0.2
  3
txt
  4

  0
ENDTAB
  0
TABLE
  2
VIEW
  5
6
330
0
100
AcDbSymbolTable
 70
     0
  0
ENDTAB
  0
TABLE
  2
UCS
  5
7
330
0
100
AcDbSymbolTable
 70
     0
  0
ENDTAB
  0
TABLE
  2
APPID
  5
9
330
0
100
AcDbSymbolTable
 70
     1
  0
APPID
  5
12
330
9
100
AcDbSymbolTableRecord
100
AcDbRegAppTableRecord
  2
ACAD
 70
     0
  0
ENDTAB
  0
TABLE
  2
DIMSTYLE
  5
A
330
0
100
AcDbSymbolTable
 70
     1
100
AcDbDimStyleTable
  0
DIMSTYLE
105
27
330
A
100
AcDbSymbolTableRecord
100
AcDbDimStyleTableRecord
  2
Standard
 70
     0
178
     0
340
11
  0
ENDTAB
  0
TABLE
  2
BLOCK_RECORD
  5
1
330
0
100
AcDbSymbolTable
 70
     5
  0
BLOCK_RECORD
  5
1F
330
1
100
AcDbSymbolTableRecord
100
AcDbBlockTableRecord
  2
*Model_Space
340
22
 70
     0
280
     1
281
     0
  0
BLOCK_RECORD
  5
1B
330
1
100
AcDbSymbolTableRecord
100
AcDbBlockTableRecord
  2
*Paper_Space
340
1E
 70
     0
280
     1
281
     0
  0
BLOCK_RECORD
  5
23
330
1
100
AcDbSymbolTableRecord
100
AcDbBlockTableRecord
  2
*Paper_Space0
340
26
 70
     0
280
     1
281
     0
  0
BLOCK_RECORD
  5
9C
330
1
100
AcDbSymbolTableRecord
100
AcDbBlockTableRecord
  2
block 2
340
0
102
{BLKREFS
331
9D
102
}
 70
     0
280
     1
281
     0
  0
BLOCK_RECORD
  5
B5
330
1
100
AcDbSymbolTableRecord
100
AcDbBlockTableRecord
  2
block 3
340
0
102
{BLKREFS
331
B6
102
}
 70
     0
280
     1
281
     0
  0
BLOCK_RECORD
  5
CC
330
1
100
AcDbSymbolTableRecord
100
AcDbBlockTableRecord
  2
block 4
340
0
102
{BLKREFS
331
CD
102
}
 70
     0
280
     1
281
     0
  0
BLOCK_RECORD
  5
EF
330
1
100
AcDbSymbolTableRecord
100
AcDbBlockTableRecord
  2
block 5
340
0
102
{BLKREFS
331
F0
102
}
 70
     0
280
     1
281
     0
  0
ENDTAB
  0
ENDSEC
  0
SECTION
  2
BLOCKS
  0
BLOCK
  5
20
330
1F
100
AcDbEntity
  8
0
100
AcDbBlockBegin
  2
*Model_Space
 70
     0
 10
0.0
 20
0.0
 30
0.0
  3
*Model_Space
  1

  0
ENDBLK
  5
21
330
1F
100
AcDbEntity
  8
0
100
AcDbBlockEnd
  0
BLOCK
  5
1C
330
1B
100
AcDbEntity
 67
     1
  8
0
100
AcDbBlockBegin
  2
*Paper_Space
 70
     0
 10
0.0
 20
0.0
 30
0.0
  3
*Paper_Space
  1

  0
ENDBLK
  5
1D
330
1B
100
AcDbEntity
 67
     1
  8
0
100
AcDbBlockEnd
  0
BLOCK
  5
24
330
23
100
AcDbEntity
  8
0
100
AcDbBlockBegin
  2
*Paper_Space0
 70
     0
 10
0.0
 20
0.0
 30
0.0
  3
*Paper_Space0
  1

  0
ENDBLK
  5
25
330
23
100
AcDbEntity
  8
0
100
AcDbBlockEnd
  0
BLOCK
  5
9E
330
9C
100
AcDbEntity
  8
0
100
AcDbBlockBegin
  2
block 2
 70
     0
 10
0.0
 20
0.0
 30
0.0
  3
block 2
  1

  0
SPLINE
  5
A0
330
9C
100
AcDbEntity
  8
_U+30EC_U+30A4_U+30E4_U+30FC 1
370
     0
100
AcDbSpline
210
0.0
220
0.0
230
1.0
 70
    11
 71
     3
 72
    32
 73
    28
 74
     0
 42
0.0000000001
 43
0.0000000001
 12
1.0
 22
0.0
 32
0.0
 13
1.0
 23
0.0
 33
0.0
 40
0.0
 40
0.0
 40
0.0
 40
0.0
 40
1.0
 40
1.0
 40
1.0
 40
2.0
 40
2.0
 40
2.0
 40
3.0
 40
3.0
 40
3.0
 40
4.0
 40
4.0
 40
4.0
 40
5.0
 40
5.0
 40
5.0
 40
6.0
 40
6.0
 40
6.0
 40
7.0
 40
7.0
 40
7.0
 40
8.0
 40
8.0
 40
8.0
 40
9.0
 40
9.0
 40
9.0
 40
9.0
 10
80.72461613650287
 20
-132.9507133999221
 30
0.0
 10
80.72461613650287
 20
-133.4667887036125
 30
0.0
 10
80.17030027292618
 20
-133.4754014423256
 30
0.0
 10
79.95670435284069
 20
-133.4754014423256
 30
0.0
 10
79.72605521010321
 20
-133.4754014423256
 30
0.0
 10
79.07872176842477
 20
-133.4561089076082
 30
0.0
 10
79.07872176842477
 20
-132.9124728400358
 30
0.0
 10
79.07872176842477
 20
-132.7391845371277
 30
0.0
 10
79.14848495200107
 20
-132.4935492290294
 30
0.0
 10
79.48076441155342
 20
-132.4556531786916
 30
0.0
 10
79.48076441155342
 20
-132.4556531786916
 30
0.0
 10
79.48076441155342
 20
-132.6692490987771
 30
0.0
 10
79.48076441155342
 20
-132.6692490987771
 30
0.0
 10
79.42357582649828
 20
-132.6799288947814
 30
0.0
 10
79.27543672063253
 20
-132.7116237732457
 30
0.0
 10
79.27543672063253
 20
-132.9145398973269
 30
0.0
 10
79.27543672063253
 20
-133.2066839944761
 30
0.0
 10
79.60340981082832
 20
-133.246647102105
 30
0.0
 10
79.80856524697495
 20
-133.2593939554004
 30
0.0
 10
79.73036157945977
 20
-133.1663763772987
 30
0.0
 10
79.67110593711348
 20
-133.0988525057878
 30
0.0
 10
79.67110593711348
 20
-132.9166069546181
 30
0.0
 10
79.67110593711348
 20
-132.736772970288
 30
0.0
 10
79.7789374258018
 20
-132.4342935866831
 30
0.0
 10
80.18511418351275
 20
-132.4342935866831
 30
0.0
 10
80.50464678976968
 20
-132.4342935866831
 30
0.0
 10
80.72461613650287
 20
-132.6334201057306
 30
0.0
 10
80.72461613650287
 20
-132.9507133999221
 30
0.0
  0
SPLINE
  5
A1
330
9C
100
AcDbEntity
  8
_U+30EC_U+30A4_U+30E4_U+30FC 1
370
     0
100
AcDbSpline
210
0.0
220
0.0
230
1.0
 70
    11
 71
     3
 72
    17
 73
    13
 74
     0
 42
0.0000000001
 43
0.0000000001
 12
1.0
 22
0.0
 32
0.0
 13
1.0
 23
0.0
 33
0.0
 40
0.0
 40
0.0
 40
0.0
 40
0.0
 40
1.0
 40
1.0
 40
1.0
 40
2.0
 40
2.0
 40
2.0
 40
3.0
 40
3.0
 40
3.0
 40
4.0
 40
4.0
 40
4.0
 40
4.0
 10
79.8657538320301
 20
-132.9338324320443
 30
0.0
 10
79.8657538320301
 20
-133.1960041984718
 30
0.0
 10
80.07728269482443
 20
-133.2342447583581
 30
0.0
 10
80.19355466745162
 20
-133.2342447583581
 30
0.0
 10
80.36925453719935
 20
-133.2342447583581
 30
0.0
 10
80.53203529887742
 20
-133.1388156134167
 30
0.0
 10
80.53203529887742
 20
-132.9548475145043
 30
0.0
 10
80.53203529887742
 20
-132.8342691725206
 30
0.0
 10
80.47277965653112
 20
-132.6585693027729
 30
0.0
 10
80.18735349557817
 20
-132.6585693027729
 30
0.0
 10
79.9630777794884
 20
-132.6585693027729
 30
0.0
 10
79.8657538320301
 20
-132.798440179474
 30
0.0
 10
79.8657538320301
 20
-132.9338324320443
 30
0.0
  0
HATCH
  5
A2
330
9C
100
AcDbEntity
  8
_U+30EC_U+30A4_U+30E4_U+30FC 1
 62
   179
420
  2234388
100
AcDbHatch
 10
0.0
 20
0.0
 30
0.0
210
0.0
220
0.0
230
1.0
  2
SOLID
 70
     1
 71
     0
 91
        2
 92
        1
 93
        1
 72
     4
 94
        3
 73
     0
 74
     1
 95
       32
 96
       28
 40
0.0
 40
0.0
 40
0.0
 40
0.0
 40
1.0
 40
1.0
 40
1.0
 40
2.0
 40
2.0
 40
2.0
 40
3.0
 40
3.0
 40
3.0
 40
4.0
 40
4.0
 40
4.0
 40
5.0
 40
5.0
 40
5.0
 40
6.0
 40
6.0
 40
6.0
 40
7.0
 40
7.0
 40
7.0
 40
8.0
 40
8.0
 40
8.0
 40
9.0
 40
9.0
 40
9.0
 40
9.0
 10
80.72461613650287
 20
-132.9507133999221
 10
80.72461613650287
 20
-133.4667887036125
 10
80.17030027292618
 20
-133.4754014423256
 10
79.95670435284069
 20
-133.4754014423256
 10
79.72605521010321
 20
-133.4754014423256
 10
79.07872176842477
 20
-133.4561089076082
 10
79.07872176842477
 20
-132.9124728400358
 10
79.07872176842477
 20
-132.7391845371277
 10
79.14848495200107
 20
-132.4935492290294
 10
79.48076441155342
 20
-132.4556531786916
 10
79.48076441155342
 20
-132.4556531786916
 10
79.48076441155342
 20
-132.6692490987771
 10
79.48076441155342
 20
-132.6692490987771
 10
79.42357582649828
 20
-132.6799288947814
 10
79.27543672063253
 20
-132.7116237732457
 10
79.27543672063253
 20
-132.9145398973269
 10
79.27543672063253
 20
-133.2066839944761
 10
79.60340981082832
 20
-133.246647102105
 10
79.80856524697495
 20
-133.2593939554004
 10
79.73036157945977
 20
-133.1663763772987
 10
79.67110593711348
 20
-133.0988525057878
 10
79.67110593711348
 20
-132.9166069546181
 10
79.67110593711348
 20
-132.736772970288
 10
79.7789374258018
 20
-132.4342935866831
 10
80.18511418351275
 20
-132.4342935866831
 10
80.50464678976968
 20
-132.4342935866831
 10
80.72461613650287
 20
-132.6334201057306
 10
80.72461613650287
 20
-132.9507133999221
 97
        0
 97
        0
 92
        1
 93
        1
 72
     4
 94
        3
 73
     0
 74
     1
 95
       17
 96
       13
 40
0.0
 40
0.0
 40
0.0
 40
0.0
 40
1.0
 40
1.0
 40
1.0
 40
2.0
 40
2.0
 40
2.0
 40
3.0
 40
3.0
 40
3.0
 40
4.0
 40
4.0
 40
4.0
 40
4.0
 10
79.8657538320301
 20
-132.9338324320443
 10
79.8657538320301
 20
-133.1960041984718
 10
80.07728269482443
 20
-133.2342447583581
 10
80.19355466745162
 20
-133.2342447583581
 10
80.36925453719935
 20
-133.2342447583581
 10
80.53203529887742
 20
-133.1388156134167
 10
80.53203529887742
 20
-132.9548475145043
 10
80.53203529887742
 20
-132.8342691725206
 10
80.47277965653112
 20
-132.6585693027729
 10
80.18735349557817
 20
-132.6585693027729
 10
79.9630777794884
 20
-132.6585693027729
 10
79.8657538320301
 20
-132.798440179474
 10
79.8657538320301
 20
-132.9338324320443
 97
        0
 97
        0
 75
     2
 76
     1
 98
        0
  0
SPLINE
  5
A3
330
9C
100
AcDbEntity
  8
_U+30EC_U+30A4_U+30E4_U+30FC 1
370
     0
100
AcDbSpline
210
0.0
220
0.0
230
1.0
 70
    11
 71
     3
 72
    29
 73
    25
 74
     0
 42
0.0000000001
 43
0.0000000001
 12
1.0
 22
0.0
 32
0.0
 13
1.0
 23
0.0
 33
0.0
 40
0.0
 40
0.0
 40
0.0
 40
0.0
 40
1.0
 40
1.0
 40
1.0
 40
2.0
 40
2.0
 40
2.0
 40
3.0
 40
3.0
 40
3.0
 40
4.0
 40
4.0
 40
4.0
 40
5.0
 40
5.0
 40
5.0
 40
6.0
 40
6.0
 40
6.0
 40
7.0
 40
7.0
 40
7.0
 40
8.0
 40
8.0
 40
8.0
 40
8.0
 10
80.49620630583081
 20
-131.3800943681966
 30
0.0
 10
80.70549585655974
 20
-131.4882703664335
 30
0.0
 10
80.72461613650287
 20
-131.6615586693416
 30
0.0
 10
80.72461613650287
 20
-131.778002896743
 30
0.0
 10
80.72461613650287
 20
-131.9388888559042
 30
0.0
 10
80.678107347452
 20
-132.080482280348
 30
0.0
 10
80.49620630583081
 20
-132.1755669157408
 30
0.0
 10
80.3015584109142
 20
-132.2792642898469
 30
0.0
 10
80.06453584152901
 20
-132.2985568245643
 30
0.0
 10
79.90175507985096
 20
-132.2985568245643
 30
0.0
 10
79.7577500885675
 20
-132.2985568245643
 30
0.0
 10
79.50608586337
 20
-132.281331347138
 30
0.0
 10
79.30713159909683
 20
-132.1755669157408
 30
0.0
 10
79.10421547501562
 20
-132.0677354270525
 30
0.0
 10
79.08078882571591
 20
-131.9068494678914
 30
0.0
 10
79.08078882571591
 20
-131.778002896743
 30
0.0
 10
79.08078882571591
 20
-131.619183994873
 30
0.0
 10
79.12523055747565
 20
-131.4755235131381
 30
0.0
 10
79.30713159909683
 20
-131.3800943681966
 30
0.0
 10
79.49971243672229
 20
-131.2808756182214
 30
0.0
 10
79.72812226739437
 20
-131.2574489689218
 30
0.0
 10
79.90175507985096
 20
-131.2574489689218
 30
0.0
 10
80.07297632546788
 20
-131.2574489689218
 30
0.0
 10
80.30362546820535
 20
-131.2788085609303
 30
0.0
 10
80.49620630583081
 20
-131.3800943681966
 30
0.0
  0
SPLINE
  5
A4
330
9C
100
AcDbEntity
  8
_U+30EC_U+30A4_U+30E4_U+30FC 1
370
     0
100
AcDbSpline
210
0.0
220
0.0
230
1.0
 70
    11
 71
     3
 72
    17
 73
    13
 74
     0
 42
0.0000000001
 43
0.0000000001
 12
1.0
 22
0.0
 32
0.0
 13
1.0
 23
0.0
 33
0.0
 40
0.0
 40
0.0
 40
0.0
 40
0.0
 40
1.0
 40
1.0
 40
1.0
 40
2.0
 40
2.0
 40
2.0
 40
3.0
 40
3.0
 40
3.0
 40
4.0
 40
4.0
 40
4.0
 40
4.0
 10
79.27336966334138
 20
-131.778002896743
 30
0.0
 10
79.27336966334138
 20
-132.0277723194236
 30
0.0
 10
79.55690102177745
 20
-132.0742811084745
 30
0.0
 10
79.90175507985096
 20
-132.0742811084745
 30
0.0
 10
80.22111543133362
 20
-132.0742811084745
 30
0.0
 10
80.52996824158626
 20
-132.0381076058794
 30
0.0
 10
80.52996824158626
 20
-131.778002896743
 30
0.0
 10
80.52996824158626
 20
-131.5303005313535
 30
0.0
 10
80.24867619521561
 20
-131.4817246850115
 30
0.0
 10
79.90175507985096
 20
-131.4817246850115
 30
0.0
 10
79.58222247359403
 20
-131.4817246850115
 30
0.0
 10
79.27336966334138
 20
-131.5199652448978
 30
0.0
 10
79.27336966334138
 20
-131.778002896743
 30
0.0
  0
HATCH
  5
A5
330
9C
100
AcDbEntity
  8
_U+30EC_U+30A4_U+30E4_U+30FC 1
 62
   179
420
  2234388
100
AcDbHatch
 10
0.0
 20
0.0
 30
0.0
210
0.0
220
0.0
230
1.0
  2
SOLID
 70
     1
 71
     0
 91
        2
 92
        1
 93
        1
 72
     4
 94
        3
 73
     0
 74
     1
 95
       29
 96
       25
 40
0.0
 40
0.0
 40
0.0
 40
0.0
 40
1.0
 40
1.0
 40
1.0
 40
2.0
 40
2.0
 40
2.0
 40
3.0
 40
3.0
 40
3.0
 40
4.0
 40
4.0
 40
4.0
 40
5.0
 40
5.0
 40
5.0
 40
6.0
 40
6.0
 40
6.0
 40
7.0
 40
7.0
 40
7.0
 40
8.0
 40
8.0
 40
8.0
 40
8.0
 10
80.49620630583081
 20
-131.3800943681966
 10
80.70549585655974
 20
-131.4882703664335
 10
80.72461613650287
 20
-131.6615586693416
 10
80.72461613650287
 20
-131.778002896743
 10
80.72461613650287
 20
-131.9388888559042
 10
80.678107347452
 20
-132.080482280348
 10
80.49620630583081
 20
-132.1755669157408
 10
80.3015584109142
 20
-132.2792642898469
 10
80.06453584152901
 20
-132.2985568245643
 10
79.90175507985096
 20
-132.2985568245643
 10
79.7577500885675
 20
-132.2985568245643
 10
79.50608586337
 20
-132.281331347138
 10
79.30713159909683
 20
-132.1755669157408
 10
79.10421547501562
 20
-132.0677354270525
 10
79.08078882571591
 20
-131.9068494678914
 10
79.08078882571591
 20
-131.778002896743
 10
79.08078882571591
 20
-131.619183994873
 10
79.12523055747565
 20
-131.4755235131381
 10
79.30713159909683
 20
-131.3800943681966
 10
79.49971243672229
 20
-131.2808756182214
 10
79.72812226739437
 20
-131.2574489689218
 10
79.90175507985096
 20
-131.2574489689218
 10
80.07297632546788
 20
-131.2574489689218
 10
80.30362546820535
 20
-131.2788085609303
 10
80.49620630583081
 20
-131.3800943681966
 97
        0
 97
        0
 92
        1
 93
        1
 72
     4
 94
        3
 73
     0
 74
     1
 95
       17
 96
       13
 40
0.0
 40
0.0
 40
0.0
 40
0.0
 40
1.0
 40
1.0
 40
1.0
 40
2.0
 40
2.0
 40
2.0
 40
3.0
 40
3.0
 40
3.0
 40
4.0
 40
4.0
 40
4.0
 40
4.0
 10
79.27336966334138
 20
-131.778002896743
 10
79.27336966334138
 20
-132.0277723194236
 10
79.55690102177745
 20
-132.0742811084745
 10
79.90175507985096
 20
-132.0742811084745
 10
80.22111543133362
 20
-132.0742811084745
 10
80.52996824158626
 20
-132.0381076058794
 10
80.52996824158626
 20
-131.778002896743
 10
80.52996824158626
 20
-131.5303005313535
 10
80.24867619521561
 20
-131.4817246850115
 10
79.90175507985096
 20
-131.4817246850115
 10
79.58222247359403
 20
-131.4817246850115
 10
79.27336966334138
 20
-131.5199652448978
 10
79.27336966334138
 20
-131.778002896743
 97
        0
 97
        0
 75
     2
 76
     1
 98
        0
  0
ENDBLK
  5
9F
330
9C
100
AcDbEntity
  8
0
100
AcDbBlockEnd
  0
BLOCK
  5
B7
330
B5
100
AcDbEntity
  8
0
100
AcDbBlockBegin
  2
block 3
 70
     0
 10
0.0
 20
0.0
 30
0.0
  3
block 3
  1

  0
SPLINE
  5
B9
330
B5
100
AcDbEntity
  8
_U+30EC_U+30A4_U+30E4_U+30FC 1
370
     0
100
AcDbSpline
210
0.0
220
0.0
230
1.0
 70
    11
 71
     3
 72
    29
 73
    25
 74
     0
 42
0.0000000001
 43
0.0000000001
 12
1.0
 22
0.0
 32
0.0
 13
1.0
 23
0.0
 33
0.0
 40
0.0
 40
0.0
 40
0.0
 40
0.0
 40
1.0
 40
1.0
 40
1.0
 40
2.0
 40
2.0
 40
2.0
 40
3.0
 40
3.0
 40
3.0
 40
4.0
 40
4.0
 40
4.0
 40
5.0
 40
5.0
 40
5.0
 40
6.0
 40
6.0
 40
6.0
 40
7.0
 40
7.0
 40
7.0
 40
8.0
 40
8.0
 40
8.0
 40
8.0
 10
102.7248236505341
 20
-106.3662895784432
 30
0.0
 10
102.7248236505341
 20
-106.6329399690015
 30
0.0
 10
102.5873643406726
 20
-106.8868435062644
 30
0.0
 10
102.2383761680168
 20
-106.8868435062644
 30
0.0
 10
101.9824055734627
 20
-106.8868435062644
 30
0.0
 10
101.8869764285213
 20
-106.7450778270464
 30
0.0
 10
101.8256537288839
 20
-106.6393133956492
 30
0.0
 10
101.7663980865376
 20
-106.7640258522153
 30
0.0
 10
101.6523654259758
 20
-106.8401624624393
 30
0.0
 10
101.4914794668146
 20
-106.8401624624393
 30
0.0
 10
101.2165608470917
 20
-106.8401624624393
 30
0.0
 10
101.0811685945214
 20
-106.6413804529404
 30
0.0
 10
101.0811685945214
 20
-106.3662895784432
 30
0.0
 10
101.0811685945214
 20
-106.0829304747813
 30
0.0
 10
101.2248290762563
 20
-105.892416694447
 30
0.0
 10
101.4914794668146
 20
-105.892416694447
 30
0.0
 10
101.6523654259758
 20
-105.892416694447
 30
0.0
 10
101.7663980865376
 20
-105.9707926167365
 30
0.0
 10
101.8256537288839
 20
-106.0955050733025
 30
0.0
 10
101.8766411420656
 20
-106.0067938645573
 30
0.0
 10
101.9717257774585
 20
-105.8481472174616
 30
0.0
 10
102.233897543886
 20
-105.8481472174616
 30
0.0
 10
102.6083794231326
 20
-105.8481472174616
 30
0.0
 10
102.7248236505341
 20
-106.1273722065411
 30
0.0
 10
102.7248236505341
 20
-106.3662895784432
 30
0.0
  0
SPLINE
  5
BA
330
B5
100
AcDbEntity
  8
_U+30EC_U+30A4_U+30E4_U+30FC 1
370
     0
100
AcDbSpline
210
0.0
220
0.0
230
1.0
 70
    11
 71
     3
 72
    17
 73
    13
 74
     0
 42
0.0000000001
 43
0.0000000001
 12
1.0
 22
0.0
 32
0.0
 13
1.0
 23
0.0
 33
0.0
 40
0.0
 40
0.0
 40
0.0
 40
0.0
 40
1.0
 40
1.0
 40
1.0
 40
2.0
 40
2.0
 40
2.0
 40
3.0
 40
3.0
 40
3.0
 40
4.0
 40
4.0
 40
4.0
 40
4.0
 10
101.2734049225983
 20
-106.3662895784432
 30
0.0
 10
101.2734049225983
 20
-106.5313096521866
 30
0.0
 10
101.3688340675397
 20
-106.6160590011238
 30
0.0
 10
101.5042263201101
 20
-106.6160590011238
 30
0.0
 10
101.626871719385
 20
-106.6160590011238
 30
0.0
 10
101.7453830040776
 20
-106.544056505482
 30
0.0
 10
101.7453830040776
 20
-106.3662895784432
 30
0.0
 10
101.7453830040776
 20
-106.1886949061785
 30
0.0
 10
101.626871719385
 20
-106.1166924105368
 30
0.0
 10
101.5042263201101
 20
-106.1166924105368
 30
0.0
 10
101.3688340675397
 20
-106.1166924105368
 30
0.0
 10
101.2734049225983
 20
-106.2035088167651
 30
0.0
 10
101.2734049225983
 20
-106.3662895784432
 30
0.0
  0
SPLINE
  5
BB
330
B5
100
AcDbEntity
  8
_U+30EC_U+30A4_U+30E4_U+30FC 1
370
     0
100
AcDbSpline
210
0.0
220
0.0
230
1.0
 70
    11
 71
     3
 72
    17
 73
    13
 74
     0
 42
0.0000000001
 43
0.0000000001
 12
1.0
 22
0.0
 32
0.0
 13
1.0
 23
0.0
 33
0.0
 40
0.0
 40
0.0
 40
0.0
 40
0.0
 40
1.0
 40
1.0
 40
1.0
 40
2.0
 40
2.0
 40
2.0
 40
3.0
 40
3.0
 40
3.0
 40
4.0
 40
4.0
 40
4.0
 40
4.0
 10
101.9334852175722
 20
-106.3662895784432
 30
0.0
 10
101.9334852175722
 20
-106.5102945697266
 30
0.0
 10
102.0203016238005
 20
-106.6625677901746
 30
0.0
 10
102.2235622574302
 20
-106.6625677901746
 30
0.0
 10
102.4285454388026
 20
-106.6625677901746
 30
0.0
 10
102.5301757556175
 20
-106.5356160215432
 30
0.0
 10
102.5301757556175
 20
-106.3662895784432
 30
0.0
 10
102.5301757556175
 20
-106.1802544222397
 30
0.0
 10
102.4075303563426
 20
-106.0701836214859
 30
0.0
 10
102.2297634293037
 20
-106.0701836214859
 30
0.0
 10
102.0075547705051
 20
-106.0701836214859
 30
0.0
 10
101.9334852175722
 20
-106.2331366379382
 30
0.0
 10
101.9334852175722
 20
-106.3662895784432
 30
0.0
  0
HATCH
  5
BC
330
B5
100
AcDbEntity
  8
_U+30EC_U+30A4_U+30E4_U+30FC 1
 62
   179
420
  2234388
100
AcDbHatch
 10
0.0
 20
0.0
 30
0.0
210
0.0
220
0.0
230
1.0
  2
SOLID
 70
     1
 71
     0
 91
        3
 92
        1
 93
        1
 72
     4
 94
        3
 73
     0
 74
     1
 95
       29
 96
       25
 40
0.0
 40
0.0
 40
0.0
 40
0.0
 40
1.0
 40
1.0
 40
1.0
 40
2.0
 40
2.0
 40
2.0
 40
3.0
 40
3.0
 40
3.0
 40
4.0
 40
4.0
 40
4.0
 40
5.0
 40
5.0
 40
5.0
 40
6.0
 40
6.0
 40
6.0
 40
7.0
 40
7.0
 40
7.0
 40
8.0
 40
8.0
 40
8.0
 40
8.0
 10
102.7248236505341
 20
-106.3662895784432
 10
102.7248236505341
 20
-106.6329399690015
 10
102.5873643406726
 20
-106.8868435062644
 10
102.2383761680168
 20
-106.8868435062644
 10
101.9824055734627
 20
-106.8868435062644
 10
101.8869764285213
 20
-106.7450778270464
 10
101.8256537288839
 20
-106.6393133956492
 10
101.7663980865376
 20
-106.7640258522153
 10
101.6523654259758
 20
-106.8401624624393
 10
101.4914794668146
 20
-106.8401624624393
 10
101.2165608470917
 20
-106.8401624624393
 10
101.0811685945214
 20
-106.6413804529404
 10
101.0811685945214
 20
-106.3662895784432
 10
101.0811685945214
 20
-106.0829304747813
 10
101.2248290762563
 20
-105.892416694447
 10
101.4914794668146
 20
-105.892416694447
 10
101.6523654259758
 20
-105.892416694447
 10
101.7663980865376
 20
-105.9707926167365
 10
101.8256537288839
 20
-106.0955050733025
 10
101.8766411420656
 20
-106.0067938645573
 10
101.9717257774585
 20
-105.8481472174616
 10
102.233897543886
 20
-105.8481472174616
 10
102.6083794231326
 20
-105.8481472174616
 10
102.7248236505341
 20
-106.1273722065411
 10
102.7248236505341
 20
-106.3662895784432
 97
        0
 97
        0
 92
        1
 93
        1
 72
     4
 94
        3
 73
     0
 74
     1
 95
       17
 96
       13
 40
0.0
 40
0.0
 40
0.0
 40
0.0
 40
1.0
 40
1.0
 40
1.0
 40
2.0
 40
2.0
 40
2.0
 40
3.0
 40
3.0
 40
3.0
 40
4.0
 40
4.0
 40
4.0
 40
4.0
 10
101.2734049225983
 20
-106.3662895784432
 10
101.2734049225983
 20
-106.5313096521866
 10
101.3688340675397
 20
-106.6160590011238
 10
101.5042263201101
 20
-106.6160590011238
 10
101.626871719385
 20
-106.6160590011238
 10
101.7453830040776
 20
-106.544056505482
 10
101.7453830040776
 20
-106.3662895784432
 10
101.7453830040776
 20
-106.1886949061785
 10
101.626871719385
 20
-106.1166924105368
 10
101.5042263201101
 20
-106.1166924105368
 10
101.3688340675397
 20
-106.1166924105368
 10
101.2734049225983
 20
-106.2035088167651
 10
101.2734049225983
 20
-106.3662895784432
 97
        0
 97
        0
 92
        1
 93
        1
 72
     4
 94
        3
 73
     0
 74
     1
 95
       17
 96
       13
 40
0.0
 40
0.0
 40
0.0
 40
0.0
 40
1.0
 40
1.0
 40
1.0
 40
2.0
 40
2.0
 40
2.0
 40
3.0
 40
3.0
 40
3.0
 40
4.0
 40
4.0
 40
4.0
 40
4.0
 10
101.9334852175722
 20
-106.3662895784432
 10
101.9334852175722
 20
-106.5102945697266
 10
102.0203016238005
 20
-106.6625677901746
 10
102.2235622574302
 20
-106.6625677901746
 10
102.4285454388026
 20
-106.6625677901746
 10
102.5301757556175
 20
-106.5356160215432
 10
102.5301757556175
 20
-106.3662895784432
 10
102.5301757556175
 20
-106.1802544222397
 10
102.4075303563426
 20
-106.0701836214859
 10
102.2297634293037
 20
-106.0701836214859
 10
102.0075547705051
 20
-106.0701836214859
 10
101.9334852175722
 20
-106.2331366379382
 10
101.9334852175722
 20
-106.3662895784432
 97
        0
 97
        0
 75
     2
 76
     1
 98
        0
  0
ENDBLK
  5
B8
330
B5
100
AcDbEntity
  8
0
100
AcDbBlockEnd
  0
BLOCK
  5
CE
330
CC
100
AcDbEntity
  8
0
100
AcDbBlockBegin
  2
block 4
 70
     0
 10
0.0
 20
0.0
 30
0.0
  3
block 4
  1

  0
SPLINE
  5
D0
330
CC
100
AcDbEntity
  8
_U+30EC_U+30A4_U+30E4_U+30FC 1
370
     0
100
AcDbSpline
210
0.0
220
0.0
230
1.0
 70
    11
 71
     3
 72
    26
 73
    22
 74
     0
 42
0.0000000001
 43
0.0000000001
 12
1.0
 22
0.0
 32
0.0
 13
1.0
 23
0.0
 33
0.0
 40
0.0
 40
0.0
 40
0.0
 40
0.0
 40
1.0
 40
1.0
 40
1.0
 40
2.0
 40
2.0
 40
2.0
 40
3.0
 40
3.0
 40
3.0
 40
4.0
 40
4.0
 40
4.0
 40
5.0
 40
5.0
 40
5.0
 40
6.0
 40
6.0
 40
6.0
 40
7.0
 40
7.0
 40
7.0
 40
7.0
 10
101.1741861726231
 20
-153.8658880908738
 30
0.0
 10
101.1741861726231
 20
-153.8658880908738
 30
0.0
 10
100.069688560052
 20
-153.8658880908738
 30
0.0
 10
100.069688560052
 20
-153.8658880908738
 30
0.0
 10
100.069688560052
 20
-153.8658880908738
 30
0.0
 10
100.069688560052
 20
-154.1959282383608
 30
0.0
 10
100.069688560052
 20
-154.1959282383608
 30
0.0
 10
100.069688560052
 20
-154.1959282383608
 30
0.0
 10
99.92154945418629
 20
-154.1959282383608
 30
0.0
 10
99.92154945418629
 20
-154.1959282383608
 30
0.0
 10
99.90673554359971
 20
-153.8638210335827
 30
0.0
 10
99.74412703669591
 20
-153.8173122445318
 30
0.0
 10
99.62974986658563
 20
-153.7876844233587
 30
0.0
 10
99.62974986658563
 20
-153.7876844233587
 30
0.0
 10
99.62974986658563
 20
-153.641612374784
 30
0.0
 10
99.62974986658563
 20
-153.641612374784
 30
0.0
 10
99.62974986658563
 20
-153.641612374784
 30
0.0
 10
101.1741861726231
 20
-153.641612374784
 30
0.0
 10
101.1741861726231
 20
-153.641612374784
 30
0.0
 10
101.1741861726231
 20
-153.641612374784
 30
0.0
 10
101.1741861726231
 20
-153.8658880908738
 30
0.0
 10
101.1741861726231
 20
-153.8658880908738
 30
0.0
  0
HATCH
  5
D1
330
CC
100
AcDbEntity
  8
_U+30EC_U+30A4_U+30E4_U+30FC 1
 62
   179
420
  2234388
100
AcDbHatch
 10
0.0
 20
0.0
 30
0.0
210
0.0
220
0.0
230
1.0
  2
SOLID
 70
     1
 71
     0
 91
        1
 92
        1
 93
        1
 72
     4
 94
        3
 73
     0
 74
     1
 95
       26
 96
       22
 40
0.0
 40
0.0
 40
0.0
 40
0.0
 40
1.0
 40
1.0
 40
1.0
 40
2.0
 40
2.0
 40
2.0
 40
3.0
 40
3.0
 40
3.0
 40
4.0
 40
4.0
 40
4.0
 40
5.0
 40
5.0
 40
5.0
 40
6.0
 40
6.0
 40
6.0
 40
7.0
 40
7.0
 40
7.0
 40
7.0
 10
101.1741861726231
 20
-153.8658880908738
 10
101.1741861726231
 20
-153.8658880908738
 10
100.069688560052
 20
-153.8658880908738
 10
100.069688560052
 20
-153.8658880908738
 10
100.069688560052
 20
-153.8658880908738
 10
100.069688560052
 20
-154.1959282383608
 10
100.069688560052
 20
-154.1959282383608
 10
100.069688560052
 20
-154.1959282383608
 10
99.92154945418629
 20
-154.1959282383608
 10
99.92154945418629
 20
-154.1959282383608
 10
99.90673554359971
 20
-153.8638210335827
 10
99.74412703669591
 20
-153.8173122445318
 10
99.62974986658563
 20
-153.7876844233587
 10
99.62974986658563
 20
-153.7876844233587
 10
99.62974986658563
 20
-153.641612374784
 10
99.62974986658563
 20
-153.641612374784
 10
99.62974986658563
 20
-153.641612374784
 10
101.1741861726231
 20
-153.641612374784
 10
101.1741861726231
 20
-153.641612374784
 10
101.1741861726231
 20
-153.641612374784
 10
101.1741861726231
 20
-153.8658880908738
 10
101.1741861726231
 20
-153.8658880908738
 97
        0
 97
        0
 75
     2
 76
     1
 98
        0
  0
SPLINE
  5
D2
330
CC
100
AcDbEntity
  8
_U+30EC_U+30A4_U+30E4_U+30FC 1
370
     0
100
AcDbSpline
210
0.0
220
0.0
230
1.0
 70
    11
 71
     3
 72
    29
 73
    25
 74
     0
 42
0.0000000001
 43
0.0000000001
 12
1.0
 22
0.0
 32
0.0
 13
1.0
 23
0.0
 33
0.0
 40
0.0
 40
0.0
 40
0.0
 40
0.0
 40
1.0
 40
1.0
 40
1.0
 40
2.0
 40
2.0
 40
2.0
 40
3.0
 40
3.0
 40
3.0
 40
4.0
 40
4.0
 40
4.0
 40
5.0
 40
5.0
 40
5.0
 40
6.0
 40
6.0
 40
6.0
 40
7.0
 40
7.0
 40
7.0
 40
8.0
 40
8.0
 40
8.0
 40
8.0
 10
101.2248290762563
 20
-152.6404676267705
 30
0.0
 10
101.2248290762563
 20
-152.9071180173288
 30
0.0
 10
101.0873697663948
 20
-153.1610215545917
 30
0.0
 10
100.738381593739
 20
-153.1610215545917
 30
0.0
 10
100.482410999185
 20
-153.1610215545917
 30
0.0
 10
100.3869818542435
 20
-153.0190836205994
 30
0.0
 10
100.3256591546061
 20
-152.9133191892022
 30
0.0
 10
100.2664035122598
 20
-153.0380316457683
 30
0.0
 10
100.152370851698
 20
-153.1145127655408
 30
0.0
 10
99.99148489253686
 20
-153.1145127655408
 30
0.0
 10
99.71656627281392
 20
-153.1145127655408
 30
0.0
 10
99.5811740202436
 20
-152.9153862464934
 30
0.0
 10
99.5811740202436
 20
-152.6404676267705
 30
0.0
 10
99.5811740202436
 20
-152.3569362683344
 30
0.0
 10
99.72483450197852
 20
-152.1667669975486
 30
0.0
 10
99.99148489253686
 20
-152.1667669975486
 30
0.0
 10
100.152370851698
 20
-152.1667669975486
 30
0.0
 10
100.2664035122598
 20
-152.2449706650638
 30
0.0
 10
100.3256591546061
 20
-152.3696831216298
 30
0.0
 10
100.3766465677878
 20
-152.2807996581104
 30
0.0
 10
100.4717312031807
 20
-152.1223252657889
 30
0.0
 10
100.7339029696082
 20
-152.1223252657889
 30
0.0
 10
101.1083848488549
 20
-152.1223252657889
 30
0.0
 10
101.2248290762563
 20
-152.4013780000941
 30
0.0
 10
101.2248290762563
 20
-152.6404676267705
 30
0.0
  0
SPLINE
  5
D3
330
CC
100
AcDbEntity
  8
_U+30EC_U+30A4_U+30E4_U+30FC 1
370
     0
100
AcDbSpline
210
0.0
220
0.0
230
1.0
 70
    11
 71
     3
 72
    17
 73
    13
 74
     0
 42
0.0000000001
 43
0.0000000001
 12
1.0
 22
0.0
 32
0.0
 13
1.0
 23
0.0
 33
0.0
 40
0.0
 40
0.0
 40
0.0
 40
0.0
 40
1.0
 40
1.0
 40
1.0
 40
2.0
 40
2.0
 40
2.0
 40
3.0
 40
3.0
 40
3.0
 40
4.0
 40
4.0
 40
4.0
 40
4.0
 10
99.77341034832054
 20
-152.6404676267705
 30
0.0
 10
99.77341034832054
 20
-152.8054877005139
 30
0.0
 10
99.86883949326196
 20
-152.8902370494511
 30
0.0
 10
100.0042317458323
 20
-152.8902370494511
 30
0.0
 10
100.1268771451072
 20
-152.8902370494511
 30
0.0
 10
100.2453884297998
 20
-152.8182345538093
 30
0.0
 10
100.2453884297998
 20
-152.6404676267705
 30
0.0
 10
100.2453884297998
 20
-152.4627006997316
 30
0.0
 10
100.1268771451072
 20
-152.3906982040898
 30
0.0
 10
100.0042317458323
 20
-152.3906982040898
 30
0.0
 10
99.86883949326196
 20
-152.3906982040898
 30
0.0
 10
99.77341034832054
 20
-152.4775146103181
 30
0.0
 10
99.77341034832054
 20
-152.6404676267705
 30
0.0
  0
SPLINE
  5
D4
330
CC
100
AcDbEntity
  8
_U+30EC_U+30A4_U+30E4_U+30FC 1
370
     0
100
AcDbSpline
210
0.0
220
0.0
230
1.0
 70
    11
 71
     3
 72
    17
 73
    13
 74
     0
 42
0.0000000001
 43
0.0000000001
 12
1.0
 22
0.0
 32
0.0
 13
1.0
 23
0.0
 33
0.0
 40
0.0
 40
0.0
 40
0.0
 40
0.0
 40
1.0
 40
1.0
 40
1.0
 40
2.0
 40
2.0
 40
2.0
 40
3.0
 40
3.0
 40
3.0
 40
4.0
 40
4.0
 40
4.0
 40
4.0
 10
100.4334906432944
 20
-152.6404676267705
 30
0.0
 10
100.4334906432944
 20
-152.7844726180539
 30
0.0
 10
100.5203070495227
 20
-152.9367458385019
 30
0.0
 10
100.7235676831525
 20
-152.9367458385019
 30
0.0
 10
100.9285508645248
 20
-152.9367458385019
 30
0.0
 10
101.0301811813397
 20
-152.8096218150962
 30
0.0
 10
101.0301811813397
 20
-152.6404676267705
 30
0.0
 10
101.0301811813397
 20
-152.454432470567
 30
0.0
 10
100.9075357820648
 20
-152.344189415039
 30
0.0
 10
100.7297688550259
 20
-152.344189415039
 30
0.0
 10
100.5075601962273
 20
-152.344189415039
 30
0.0
 10
100.4334906432944
 20
-152.5071424314913
 30
0.0
 10
100.4334906432944
 20
-152.6404676267705
 30
0.0
  0
HATCH
  5
D5
330
CC
100
AcDbEntity
  8
_U+30EC_U+30A4_U+30E4_U+30FC 1
 62
   179
420
  2234388
100
AcDbHatch
 10
0.0
 20
0.0
 30
0.0
210
0.0
220
0.0
230
1.0
  2
SOLID
 70
     1
 71
     0
 91
        3
 92
        1
 93
        1
 72
     4
 94
        3
 73
     0
 74
     1
 95
       29
 96
       25
 40
0.0
 40
0.0
 40
0.0
 40
0.0
 40
1.0
 40
1.0
 40
1.0
 40
2.0
 40
2.0
 40
2.0
 40
3.0
 40
3.0
 40
3.0
 40
4.0
 40
4.0
 40
4.0
 40
5.0
 40
5.0
 40
5.0
 40
6.0
 40
6.0
 40
6.0
 40
7.0
 40
7.0
 40
7.0
 40
8.0
 40
8.0
 40
8.0
 40
8.0
 10
101.2248290762563
 20
-152.6404676267705
 10
101.2248290762563
 20
-152.9071180173288
 10
101.0873697663948
 20
-153.1610215545917
 10
100.738381593739
 20
-153.1610215545917
 10
100.482410999185
 20
-153.1610215545917
 10
100.3869818542435
 20
-153.0190836205994
 10
100.3256591546061
 20
-152.9133191892022
 10
100.2664035122598
 20
-153.0380316457683
 10
100.152370851698
 20
-153.1145127655408
 10
99.99148489253686
 20
-153.1145127655408
 10
99.71656627281392
 20
-153.1145127655408
 10
99.5811740202436
 20
-152.9153862464934
 10
99.5811740202436
 20
-152.6404676267705
 10
99.5811740202436
 20
-152.3569362683344
 10
99.72483450197852
 20
-152.1667669975486
 10
99.99148489253686
 20
-152.1667669975486
 10
100.152370851698
 20
-152.1667669975486
 10
100.2664035122598
 20
-152.2449706650638
 10
100.3256591546061
 20
-152.3696831216298
 10
100.3766465677878
 20
-152.2807996581104
 10
100.4717312031807
 20
-152.1223252657889
 10
100.7339029696082
 20
-152.1223252657889
 10
101.1083848488549
 20
-152.1223252657889
 10
101.2248290762563
 20
-152.4013780000941
 10
101.2248290762563
 20
-152.6404676267705
 97
        0
 97
        0
 92
        1
 93
        1
 72
     4
 94
        3
 73
     0
 74
     1
 95
       17
 96
       13
 40
0.0
 40
0.0
 40
0.0
 40
0.0
 40
1.0
 40
1.0
 40
1.0
 40
2.0
 40
2.0
 40
2.0
 40
3.0
 40
3.0
 40
3.0
 40
4.0
 40
4.0
 40
4.0
 40
4.0
 10
99.77341034832054
 20
-152.6404676267705
 10
99.77341034832054
 20
-152.8054877005139
 10
99.86883949326196
 20
-152.8902370494511
 10
100.0042317458323
 20
-152.8902370494511
 10
100.1268771451072
 20
-152.8902370494511
 10
100.2453884297998
 20
-152.8182345538093
 10
100.2453884297998
 20
-152.6404676267705
 10
100.2453884297998
 20
-152.4627006997316
 10
100.1268771451072
 20
-152.3906982040898
 10
100.0042317458323
 20
-152.3906982040898
 10
99.86883949326196
 20
-152.3906982040898
 10
99.77341034832054
 20
-152.4775146103181
 10
99.77341034832054
 20
-152.6404676267705
 97
        0
 97
        0
 92
        1
 93
        1
 72
     4
 94
        3
 73
     0
 74
     1
 95
       17
 96
       13
 40
0.0
 40
0.0
 40
0.0
 40
0.0
 40
1.0
 40
1.0
 40
1.0
 40
2.0
 40
2.0
 40
2.0
 40
3.0
 40
3.0
 40
3.0
 40
4.0
 40
4.0
 40
4.0
 40
4.0
 10
100.4334906432944
 20
-152.6404676267705
 10
100.4334906432944
 20
-152.7844726180539
 10
100.5203070495227
 20
-152.9367458385019
 10
100.7235676831525
 20
-152.9367458385019
 10
100.9285508645248
 20
-152.9367458385019
 10
101.0301811813397
 20
-152.8096218150962
 10
101.0301811813397
 20
-152.6404676267705
 10
101.0301811813397
 20
-152.454432470567
 10
100.9075357820648
 20
-152.344189415039
 10
100.7297688550259
 20
-152.344189415039
 10
100.5075601962273
 20
-152.344189415039
 10
100.4334906432944
 20
-152.5071424314913
 10
100.4334906432944
 20
-152.6404676267705
 97
        0
 97
        0
 75
     2
 76
     1
 98
        0
  0
POLYLINE
  5
D6
330
CC
100
AcDbEntity
  8
_U+30EC_U+30A4_U+30E4_U+30FC 1
370
     0
100
AcDb2dPolyline
 66
     1
 10
0.0
 20
0.0
 30
0.0
  0
VERTEX
  5
D7
330
D6
100
AcDbEntity
  8
_U+30EC_U+30A4_U+30E4_U+30FC 1
370
     0
100
AcDbVertex
100
AcDb2dVertex
 10
101.1741861726231
 20
-151.9035617024755
 30
0.0
  0
VERTEX
  5
D8
330
D6
100
AcDbEntity
  8
_U+30EC_U+30A4_U+30E4_U+30FC 1
370
     0
100
AcDbVertex
100
AcDb2dVertex
 10
100.9223496926514
 20
-151.9035617024755
 30
0.0
  0
VERTEX
  5
D9
330
D6
100
AcDbEntity
  8
_U+30EC_U+30A4_U+30E4_U+30FC 1
370
     0
100
AcDbVertex
100
AcDb2dVertex
 10
100.9223496926514
 20
-151.6517252225037
 30
0.0
  0
VERTEX
  5
DA
330
D6
100
AcDbEntity
  8
_U+30EC_U+30A4_U+30E4_U+30FC 1
370
     0
100
AcDbVertex
100
AcDb2dVertex
 10
101.1741861726231
 20
-151.6517252225037
 30
0.0
  0
VERTEX
  5
DB
330
D6
100
AcDbEntity
  8
_U+30EC_U+30A4_U+30E4_U+30FC 1
370
     0
100
AcDbVertex
100
AcDb2dVertex
 10
101.1741861726231
 20
-151.9035617024755
 30
0.0
  0
SEQEND
  5
DC
330
D6
100
AcDbEntity
  8
_U+30EC_U+30A4_U+30E4_U+30FC 1
370
     0
  0
HATCH
  5
DD
330
CC
100
AcDbEntity
  8
_U+30EC_U+30A4_U+30E4_U+30FC 1
 62
   179
420
  2234388
100
AcDbHatch
 10
0.0
 20
0.0
 30
0.0
210
0.0
220
0.0
230
1.0
  2
SOLID
 70
     1
 71
     0
 91
        1
 92
        1
 93
        4
 72
     1
 10
101.1741861726231
 20
-151.9035617024755
 11
100.9223496926514
 21
-151.9035617024755
 72
     1
 10
100.9223496926514
 20
-151.9035617024755
 11
100.9223496926514
 21
-151.6517252225037
 72
     1
 10
100.9223496926514
 20
-151.6517252225037
 11
101.1741861726231
 21
-151.6517252225037
 72
     1
 10
101.1741861726231
 20
-151.6517252225037
 11
101.1741861726231
 21
-151.9035617024755
 97
        0
 75
     2
 76
     1
 98
        0
  0
SPLINE
  5
DE
330
CC
100
AcDbEntity
  8
_U+30EC_U+30A4_U+30E4_U+30FC 1
370
     0
100
AcDbSpline
210
0.0
220
0.0
230
1.0
 70
    11
 71
     3
 72
    53
 73
    49
 74
     0
 42
0.0000000001
 43
0.0000000001
 12
1.0
 22
0.0
 32
0.0
 13
1.0
 23
0.0
 33
0.0
 40
0.0
 40
0.0
 40
0.0
 40
0.0
 40
1.0
 40
1.0
 40
1.0
 40
2.0
 40
2.0
 40
2.0
 40
3.0
 40
3.0
 40
3.0
 40
4.0
 40
4.0
 40
4.0
 40
5.0
 40
5.0
 40
5.0
 40
6.0
 40
6.0
 40
6.0
 40
7.0
 40
7.0
 40
7.0
 40
8.0
 40
8.0
 40
8.0
 40
9.0
 40
9.0
 40
9.0
 40
10.0
 40
10.0
 40
10.0
 40
11.0
 40
11.0
 40
11.0
 40
12.0
 40
12.0
 40
12.0
 40
13.0
 40
13.0
 40
13.0
 40
14.0
 40
14.0
 40
14.0
 40
15.0
 40
15.0
 40
15.0
 40
16.0
 40
16.0
 40
16.0
 40
16.0
 10
101.2248290762563
 20
-150.9344563424747
 30
0.0
 10
101.2248290762563
 20
-151.0126600099899
 30
0.0
 10
101.2079481083786
 20
-151.1142903268048
 30
0.0
 10
101.14455835145
 20
-151.2159206436196
 30
0.0
 10
101.034315295922
 20
-151.3892089465277
 30
0.0
 10
100.9034016674825
 20
-151.4105685385363
 30
0.0
 10
100.7952256692456
 20
-151.4295165637051
 30
0.0
 10
100.7952256692456
 20
-151.4295165637051
 30
0.0
 10
100.7952256692456
 20
-151.2073079049065
 30
0.0
 10
100.7952256692456
 20
-151.2073079049065
 30
0.0
 10
100.9943521882931
 20
-151.152530886691
 30
0.0
 10
101.0239800094662
 20
-151.0254068632853
 30
0.0
 10
101.0239800094662
 20
-150.9323892851836
 30
0.0
 10
101.0239800094662
 20
-150.7928629180309
 30
0.0
 10
100.9244167499425
 20
-150.6402451880344
 30
0.0
 10
100.6918728046881
 20
-150.6402451880344
 30
0.0
 10
100.4359022101341
 20
-150.6402451880344
 30
0.0
 10
100.3659667717835
 20
-150.8200791723644
 30
0.0
 10
100.3659667717835
 20
-150.9406575143482
 30
0.0
 10
100.3659667717835
 20
-150.972696902361
 30
0.0
 10
100.3659667717835
 20
-151.1142903268048
 30
0.0
 10
100.4948133429319
 20
-151.2031737903242
 30
0.0
 10
100.4948133429319
 20
-151.2031737903242
 30
0.0
 10
100.475865317763
 20
-151.3788736600719
 30
0.0
 10
100.475865317763
 20
-151.3788736600719
 30
0.0
 10
100.475865317763
 20
-151.3788736600719
 30
0.0
 10
99.62974986658563
 20
-151.2582953180882
 30
0.0
 10
99.62974986658563
 20
-151.2582953180882
 30
0.0
 10
99.62974986658563
 20
-151.2582953180882
 30
0.0
 10
99.62974986658563
 20
-150.4797037384218
 30
0.0
 10
99.62974986658563
 20
-150.4797037384218
 30
0.0
 10
99.62974986658563
 20
-150.4797037384218
 30
0.0
 10
99.82439776150224
 20
-150.4797037384218
 30
0.0
 10
99.82439776150224
 20
-150.4797037384218
 30
0.0
 10
99.82439776150224
 20
-150.4797037384218
 30
0.0
 10
99.82439776150224
 20
-151.0953423016359
 30
0.0
 10
99.82439776150224
 20
-151.0953423016359
 30
0.0
 10
99.82439776150224
 20
-151.0953423016359
 30
0.0
 10
100.2474554870909
 20
-151.1607991158556
 30
0.0
 10
100.2474554870909
 20
-151.1607991158556
 30
0.0
 10
100.2136935513355
 20
-151.0994764162182
 30
0.0
 10
100.173385934158
 20
-151.0171386341207
 30
0.0
 10
100.173385934158
 20
-150.8986273494281
 30
0.0
 10
100.173385934158
 20
-150.6447238121652
 30
0.0
 10
100.3594210903615
 20
-150.40770124278
 30
0.0
 10
100.6725802699708
 20
-150.40770124278
 30
0.0
 10
100.9898735641623
 20
-150.40770124278
 30
0.0
 10
101.2248290762563
 20
-150.6319769588698
 30
0.0
 10
101.2248290762563
 20
-150.9344563424747
 30
0.0
  0
HATCH
  5
DF
330
CC
100
AcDbEntity
  8
_U+30EC_U+30A4_U+30E4_U+30FC 1
 62
   179
420
  2234388
100
AcDbHatch
 10
0.0
 20
0.0
 30
0.0
210
0.0
220
0.0
230
1.0
  2
SOLID
 70
     1
 71
     0
 91
        1
 92
        1
 93
        1
 72
     4
 94
        3
 73
     0
 74
     1
 95
       53
 96
       49
 40
0.0
 40
0.0
 40
0.0
 40
0.0
 40
1.0
 40
1.0
 40
1.0
 40
2.0
 40
2.0
 40
2.0
 40
3.0
 40
3.0
 40
3.0
 40
4.0
 40
4.0
 40
4.0
 40
5.0
 40
5.0
 40
5.0
 40
6.0
 40
6.0
 40
6.0
 40
7.0
 40
7.0
 40
7.0
 40
8.0
 40
8.0
 40
8.0
 40
9.0
 40
9.0
 40
9.0
 40
10.0
 40
10.0
 40
10.0
 40
11.0
 40
11.0
 40
11.0
 40
12.0
 40
12.0
 40
12.0
 40
13.0
 40
13.0
 40
13.0
 40
14.0
 40
14.0
 40
14.0
 40
15.0
 40
15.0
 40
15.0
 40
16.0
 40
16.0
 40
16.0
 40
16.0
 10
101.2248290762563
 20
-150.9344563424747
 10
101.2248290762563
 20
-151.0126600099899
 10
101.2079481083786
 20
-151.1142903268048
 10
101.14455835145
 20
-151.2159206436196
 10
101.034315295922
 20
-151.3892089465277
 10
100.9034016674825
 20
-151.4105685385363
 10
100.7952256692456
 20
-151.4295165637051
 10
100.7952256692456
 20
-151.4295165637051
 10
100.7952256692456
 20
-151.2073079049065
 10
100.7952256692456
 20
-151.2073079049065
 10
100.9943521882931
 20
-151.152530886691
 10
101.0239800094662
 20
-151.0254068632853
 10
101.0239800094662
 20
-150.9323892851836
 10
101.0239800094662
 20
-150.7928629180309
 10
100.9244167499425
 20
-150.6402451880344
 10
100.6918728046881
 20
-150.6402451880344
 10
100.4359022101341
 20
-150.6402451880344
 10
100.3659667717835
 20
-150.8200791723644
 10
100.3659667717835
 20
-150.9406575143482
 10
100.3659667717835
 20
-150.972696902361
 10
100.3659667717835
 20
-151.1142903268048
 10
100.4948133429319
 20
-151.2031737903242
 10
100.4948133429319
 20
-151.2031737903242
 10
100.475865317763
 20
-151.3788736600719
 10
100.475865317763
 20
-151.3788736600719
 10
100.475865317763
 20
-151.3788736600719
 10
99.62974986658563
 20
-151.2582953180882
 10
99.62974986658563
 20
-151.2582953180882
 10
99.62974986658563
 20
-151.2582953180882
 10
99.62974986658563
 20
-150.4797037384218
 10
99.62974986658563
 20
-150.4797037384218
 10
99.62974986658563
 20
-150.4797037384218
 10
99.82439776150224
 20
-150.4797037384218
 10
99.82439776150224
 20
-150.4797037384218
 10
99.82439776150224
 20
-150.4797037384218
 10
99.82439776150224
 20
-151.0953423016359
 10
99.82439776150224
 20
-151.0953423016359
 10
99.82439776150224
 20
-151.0953423016359
 10
100.2474554870909
 20
-151.1607991158556
 10
100.2474554870909
 20
-151.1607991158556
 10
100.2136935513355
 20
-151.0994764162182
 10
100.173385934158
 20
-151.0171386341207
 10
100.173385934158
 20
-150.8986273494281
 10
100.173385934158
 20
-150.6447238121652
 10
100.3594210903615
 20
-150.40770124278
 10
100.6725802699708
 20
-150.40770124278
 10
100.9898735641623
 20
-150.40770124278
 10
101.2248290762563
 20
-150.6319769588698
 10
101.2248290762563
 20
-150.9344563424747
 97
        0
 97
        0
 75
     2
 76
     1
 98
        0
  0
ENDBLK
  5
CF
330
CC
100
AcDbEntity
  8
0
100
AcDbBlockEnd
  0
BLOCK
  5
F1
330
EF
100
AcDbEntity
  8
0
100
AcDbBlockBegin
  2
block 5
 70
     0
 10
0.0
 20
0.0
 30
0.0
  3
block 5
  1

  0
SPLINE
  5
F3
330
EF
100
AcDbEntity
  8
_U+30EC_U+30A4_U+30E4_U+30FC 1
370
     0
100
AcDbSpline
210
0.0
220
0.0
230
1.0
 70
    11
 71
     3
 72
    26
 73
    22
 74
     0
 42
0.0000000001
 43
0.0000000001
 12
1.0
 22
0.0
 32
0.0
 13
1.0
 23
0.0
 33
0.0
 40
0.0
 40
0.0
 40
0.0
 40
0.0
 40
1.0
 40
1.0
 40
1.0
 40
2.0
 40
2.0
 40
2.0
 40
3.0
 40
3.0
 40
3.0
 40
4.0
 40
4.0
 40
4.0
 40
5.0
 40
5.0
 40
5.0
 40
6.0
 40
6.0
 40
6.0
 40
7.0
 40
7.0
 40
7.0
 40
7.0
 10
91.40906301968246
 20
-97.99315725631769
 30
0.0
 10
91.40906301968246
 20
-97.99315725631769
 30
0.0
 10
91.40906301968246
 20
-96.88883189852085
 30
0.0
 10
91.40906301968246
 20
-96.88883189852085
 30
0.0
 10
91.40906301968246
 20
-96.88883189852085
 30
0.0
 10
91.0791951269698
 20
-96.88883189852085
 30
0.0
 10
91.0791951269698
 20
-96.88883189852085
 30
0.0
 10
91.0791951269698
 20
-96.88883189852085
 30
0.0
 10
91.0791951269698
 20
-96.74086504742937
 30
0.0
 10
91.0791951269698
 20
-96.74086504742937
 30
0.0
 10
91.4111300769736
 20
-96.7260511368428
 30
0.0
 10
91.45798337557301
 20
-96.56309812039048
 30
0.0
 10
91.48726668719763
 20
-96.44889320505445
 30
0.0
 10
91.48726668719763
 20
-96.44889320505445
 30
0.0
 10
91.63333873577223
 20
-96.44889320505445
 30
0.0
 10
91.63333873577223
 20
-96.44889320505445
 30
0.0
 10
91.63333873577223
 20
-96.44889320505445
 30
0.0
 10
91.63333873577223
 20
-97.99315725631769
 30
0.0
 10
91.63333873577223
 20
-97.99315725631769
 30
0.0
 10
91.63333873577223
 20
-97.99315725631769
 30
0.0
 10
91.40906301968246
 20
-97.99315725631769
 30
0.0
 10
91.40906301968246
 20
-97.99315725631769
 30
0.0
  0
HATCH
  5
F4
330
EF
100
AcDbEntity
  8
_U+30EC_U+30A4_U+30E4_U+30FC 1
 62
   179
420
  2234388
100
AcDbHatch
 10
0.0
 20
0.0
 30
0.0
210
0.0
220
0.0
230
1.0
  2
SOLID
 70
     1
 71
     0
 91
        1
 92
        1
 93
        1
 72
     4
 94
        3
 73
     0
 74
     1
 95
       26
 96
       22
 40
0.0
 40
0.0
 40
0.0
 40
0.0
 40
1.0
 40
1.0
 40
1.0
 40
2.0
 40
2.0
 40
2.0
 40
3.0
 40
3.0
 40
3.0
 40
4.0
 40
4.0
 40
4.0
 40
5.0
 40
5.0
 40
5.0
 40
6.0
 40
6.0
 40
6.0
 40
7.0
 40
7.0
 40
7.0
 40
7.0
 10
91.40906301968246
 20
-97.99315725631769
 10
91.40906301968246
 20
-97.99315725631769
 10
91.40906301968246
 20
-96.88883189852085
 10
91.40906301968246
 20
-96.88883189852085
 10
91.40906301968246
 20
-96.88883189852085
 10
91.0791951269698
 20
-96.88883189852085
 10
91.0791951269698
 20
-96.88883189852085
 10
91.0791951269698
 20
-96.88883189852085
 10
91.0791951269698
 20
-96.74086504742937
 10
91.0791951269698
 20
-96.74086504742937
 10
91.4111300769736
 20
-96.7260511368428
 10
91.45798337557301
 20
-96.56309812039048
 10
91.48726668719763
 20
-96.44889320505445
 10
91.48726668719763
 20
-96.44889320505445
 10
91.63333873577223
 20
-96.44889320505445
 10
91.63333873577223
 20
-96.44889320505445
 10
91.63333873577223
 20
-96.44889320505445
 10
91.63333873577223
 20
-97.99315725631769
 10
91.63333873577223
 20
-97.99315725631769
 10
91.63333873577223
 20
-97.99315725631769
 10
91.40906301968246
 20
-97.99315725631769
 10
91.40906301968246
 20
-97.99315725631769
 97
        0
 97
        0
 75
     2
 76
     1
 98
        0
  0
POLYLINE
  5
F5
330
EF
100
AcDbEntity
  8
_U+30EC_U+30A4_U+30E4_U+30FC 1
370
     0
100
AcDb2dPolyline
 66
     1
 10
0.0
 20
0.0
 30
0.0
  0
VERTEX
  5
F6
330
F5
100
AcDbEntity
  8
_U+30EC_U+30A4_U+30E4_U+30FC 1
370
     0
100
AcDbVertex
100
AcDb2dVertex
 10
92.96693519811244
 20
-97.64623614095302
 30
0.0
  0
VERTEX
  5
F7
330
F5
100
AcDbEntity
  8
_U+30EC_U+30A4_U+30E4_U+30FC 1
370
     0
100
AcDbVertex
100
AcDb2dVertex
 10
92.96693519811244
 20
-97.99315725631769
 30
0.0
  0
VERTEX
  5
F8
330
F5
100
AcDbEntity
  8
_U+30EC_U+30A4_U+30E4_U+30FC 1
370
     0
100
AcDbVertex
100
AcDb2dVertex
 10
92.74886065389612
 20
-97.99315725631769
 30
0.0
  0
VERTEX
  5
F9
330
F5
100
AcDbEntity
  8
_U+30EC_U+30A4_U+30E4_U+30FC 1
370
     0
100
AcDbVertex
100
AcDb2dVertex
 10
92.74886065389612
 20
-97.64623614095302
 30
0.0
  0
VERTEX
  5
FA
330
F5
100
AcDbEntity
  8
_U+30EC_U+30A4_U+30E4_U+30FC 1
370
     0
100
AcDbVertex
100
AcDb2dVertex
 10
92.09325898305308
 20
-97.64623614095302
 30
0.0
  0
VERTEX
  5
FB
330
F5
100
AcDbEntity
  8
_U+30EC_U+30A4_U+30E4_U+30FC 1
370
     0
100
AcDbVertex
100
AcDb2dVertex
 10
92.09325898305308
 20
-97.42196042486326
 30
0.0
  0
VERTEX
  5
FC
330
F5
100
AcDbEntity
  8
_U+30EC_U+30A4_U+30E4_U+30FC 1
370
     0
100
AcDbVertex
100
AcDb2dVertex
 10
92.77228730319582
 20
-96.44889320505445
 30
0.0
  0
VERTEX
  5
FD
330
F5
100
AcDbEntity
  8
_U+30EC_U+30A4_U+30E4_U+30FC 1
370
     0
100
AcDbVertex
100
AcDb2dVertex
 10
92.96693519811244
 20
-96.44889320505445
 30
0.0
  0
VERTEX
  5
FE
330
F5
100
AcDbEntity
  8
_U+30EC_U+30A4_U+30E4_U+30FC 1
370
     0
100
AcDbVertex
100
AcDb2dVertex
 10
92.96693519811244
 20
-97.44745413145411
 30
0.0
  0
VERTEX
  5
FF
330
F5
100
AcDbEntity
  8
_U+30EC_U+30A4_U+30E4_U+30FC 1
370
     0
100
AcDbVertex
100
AcDb2dVertex
 10
93.17398543677595
 20
-97.44745413145411
 30
0.0
  0
VERTEX
  5
100
330
F5
100
AcDbEntity
  8
_U+30EC_U+30A4_U+30E4_U+30FC 1
370
     0
100
AcDbVertex
100
AcDb2dVertex
 10
93.17398543677595
 20
-97.64623614095302
 30
0.0
  0
VERTEX
  5
101
330
F5
100
AcDbEntity
  8
_U+30EC_U+30A4_U+30E4_U+30FC 1
370
     0
100
AcDbVertex
100
AcDb2dVertex
 10
92.96693519811244
 20
-97.64623614095302
 30
0.0
  0
SEQEND
  5
102
330
F5
100
AcDbEntity
  8
_U+30EC_U+30A4_U+30E4_U+30FC 1
370
     0
  0
POLYLINE
  5
103
330
EF
100
AcDbEntity
  8
_U+30EC_U+30A4_U+30E4_U+30FC 1
370
     0
100
AcDb2dPolyline
 66
     1
 10
0.0
 20
0.0
 30
0.0
  0
VERTEX
  5
104
330
103
100
AcDbEntity
  8
_U+30EC_U+30A4_U+30E4_U+30FC 1
370
     0
100
AcDbVertex
100
AcDb2dVertex
 10
92.74886065389612
 20
-96.79150795106254
 30
0.0
  0
VERTEX
  5
105
330
103
100
AcDbEntity
  8
_U+30EC_U+30A4_U+30E4_U+30FC 1
370
     0
100
AcDbVertex
100
AcDb2dVertex
 10
92.29204099255199
 20
-97.44745413145411
 30
0.0
  0
VERTEX
  5
106
330
103
100
AcDbEntity
  8
_U+30EC_U+30A4_U+30E4_U+30FC 1
370
     0
100
AcDbVertex
100
AcDb2dVertex
 10
92.74886065389612
 20
-97.44745413145411
 30
0.0
  0
VERTEX
  5
107
330
103
100
AcDbEntity
  8
_U+30EC_U+30A4_U+30E4_U+30FC 1
370
     0
100
AcDbVertex
100
AcDb2dVertex
 10
92.74886065389612
 20
-96.79150795106254
 30
0.0
  0
SEQEND
  5
108
330
103
100
AcDbEntity
  8
_U+30EC_U+30A4_U+30E4_U+30FC 1
370
     0
  0
HATCH
  5
109
330
EF
100
AcDbEntity
  8
_U+30EC_U+30A4_U+30E4_U+30FC 1
 62
   179
420
  2234388
100
AcDbHatch
 10
0.0
 20
0.0
 30
0.0
210
0.0
220
0.0
230
1.0
  2
SOLID
 70
     1
 71
     0
 91
        2
 92
        1
 93
       11
 72
     1
 10
92.96693519811244
 20
-97.64623614095302
 11
92.96693519811244
 21
-97.99315725631769
 72
     1
 10
92.96693519811244
 20
-97.99315725631769
 11
92.74886065389612
 21
-97.99315725631769
 72
     1
 10
92.74886065389612
 20
-97.99315725631769
 11
92.74886065389612
 21
-97.64623614095302
 72
     1
 10
92.74886065389612
 20
-97.64623614095302
 11
92.09325898305308
 21
-97.64623614095302
 72
     1
 10
92.09325898305308
 20
-97.64623614095302
 11
92.09325898305308
 21
-97.42196042486326
 72
     1
 10
92.09325898305308
 20
-97.42196042486326
 11
92.77228730319582
 21
-96.44889320505445
 72
     1
 10
92.77228730319582
 20
-96.44889320505445
 11
92.96693519811244
 21
-96.44889320505445
 72
     1
 10
92.96693519811244
 20
-96.44889320505445
 11
92.96693519811244
 21
-97.44745413145411
 72
     1
 10
92.96693519811244
 20
-97.44745413145411
 11
93.17398543677595
 21
-97.44745413145411
 72
     1
 10
93.17398543677595
 20
-97.44745413145411
 11
93.17398543677595
 21
-97.64623614095302
 72
     1
 10
93.17398543677595
 20
-97.64623614095302
 11
92.96693519811244
 21
-97.64623614095302
 97
        0
 92
        1
 93
        3
 72
     1
 10
92.74886065389612
 20
-96.79150795106254
 11
92.29204099255199
 21
-97.44745413145411
 72
     1
 10
92.29204099255199
 20
-97.44745413145411
 11
92.74886065389612
 21
-97.44745413145411
 72
     1
 10
92.74886065389612
 20
-97.44745413145411
 11
92.74886065389612
 21
-96.79150795106254
 97
        0
 75
     2
 76
     1
 98
        0
  0
ENDBLK
  5
F2
330
EF
100
AcDbEntity
  8
0
100
AcDbBlockEnd
  0
ENDSEC
  0
SECTION
  2
ENTITIES
  0
SPLINE
  5
41
330
1F
100
AcDbEntity
  8
_U+30EC_U+30A4_U+30E4_U+30FC 1
370
     0
100
AcDbSpline
210
0.0
220
0.0
230
1.0
 70
    11
 71
     3
 72
   116
 73
   112
 74
     0
 42
0.0000000001
 43
0.0000000001
 12
1.0
 22
0.0
 32
0.0
 13
1.0
 23
0.0
 33
0.0
 40
0.0
 40
0.0
 40
0.0
 40
0.0
 40
1.0
 40
1.0
 40
1.0
 40
2.0
 40
2.0
 40
2.0
 40
3.0
 40
3.0
 40
3.0
 40
4.0
 40
4.0
 40
4.0
 40
5.0
 40
5.0
 40
5.0
 40
6.0
 40
6.0
 40
6.0
 40
7.0
 40
7.0
 40
7.0
 40
8.0
 40
8.0
 40
8.0
 40
9.0
 40
9.0
 40
9.0
 40
10.0
 40
10.0
 40
10.0
 40
11.0
 40
11.0
 40
11.0
 40
12.0
 40
12.0
 40
12.0
 40
13.0
 40
13.0
 40
13.0
 40
14.0
 40
14.0
 40
14.0
 40
15.0
 40
15.0
 40
15.0
 40
16.0
 40
16.0
 40
16.0
 40
17.0
 40
17.0
 40
17.0
 40
18.0
 40
18.0
 40
18.0
 40
19.0
 40
19.0
 40
19.0
 40
20.0
 40
20.0
 40
20.0
 40
21.0
 40
21.0
 40
21.0
 40
22.0
 40
22.0
 40
22.0
 40
23.0
 40
23.0
 40
23.0
 40
24.0
 40
24.0
 40
24.0
 40
25.0
 40
25.0
 40
25.0
 40
26.0
 40
26.0
 40
26.0
 40
27.0
 40
27.0
 40
27.0
 40
28.0
 40
28.0
 40
28.0
 40
29.0
 40
29.0
 40
29.0
 40
30.0
 40
30.0
 40
30.0
 40
31.0
 40
31.0
 40
31.0
 40
32.0
 40
32.0
 40
32.0
 40
33.0
 40
33.0
 40
33.0
 40
34.0
 40
34.0
 40
34.0
 40
35.0
 40
35.0
 40
35.0
 40
36.0
 40
36.0
 40
36.0
 40
37.0
 40
37.0
 40
37.0
 40
37.0
 10
85.05009866352455
 20
-102.8319705298475
 30
0.0
 10
85.06766699640967
 20
-102.834016640958
 30
0.0
 10
85.08195449604517
 20
-102.8478102520657
 30
0.0
 10
85.08195449604517
 20
-102.8660841409501
 30
0.0
 10
85.08195449604517
 20
-102.8853810853899
 30
0.0
 10
85.06611477422706
 20
-102.9012208076081
 30
0.0
 10
85.04664144139052
 20
-102.9012208076081
 30
0.0
 10
85.04664144139052
 20
-102.9012208076081
 30
0.0
 10
85.04664144139052
 20
-161.8660860706448
 30
0.0
 10
85.04664144139052
 20
-161.8660860706448
 30
0.0
 10
85.04664144139052
 20
-162.1420288483534
 30
0.0
 10
85.2705847690106
 20
-162.3659721816307
 30
0.0
 10
85.54670392863287
 20
-162.3659721816307
 30
0.0
 10
85.54670392863287
 20
-162.3659721816307
 30
0.0
 10
86.5115158484629
 20
-162.3659721816307
 30
0.0
 10
86.5115158484629
 20
-162.3659721816307
 30
0.0
 10
86.5115158484629
 20
-162.3463224594132
 30
0.0
 10
86.52717918139663
 20
-162.3304827371952
 30
0.0
 10
86.54665251423317
 20
-162.3304827371952
 30
0.0
 10
86.56475001377146
 20
-162.3304827371952
 30
0.0
 10
86.5785083467538
 20
-162.3446291260807
 30
0.0
 10
86.58058973558958
 20
-162.3625149594095
 30
0.0
 10
86.84051639562496
 20
-162.3446291260807
 30
0.0
 10
87.0467150014755
 20
-162.1303166261342
 30
0.0
 10
87.0467150014755
 20
-161.8660860706448
 30
0.0
 10
87.0467150014755
 20
-161.8660860706448
 30
0.0
 10
87.0467150014755
 20
-143.1657594086527
 30
0.0
 10
87.0467150014755
 20
-143.1657594086527
 30
0.0
 10
87.0467150014755
 20
-143.1657594086527
 30
0.0
 10
96.74655142067873
 20
-143.1657594086527
 30
0.0
 10
96.74655142067873
 20
-143.1657594086527
 30
0.0
 10
96.74655142067873
 20
-143.1657594086527
 30
0.0
 10
96.74655142067873
 20
-147.3660374631584
 30
0.0
 10
96.74655142067873
 20
-147.3660374631584
 30
0.0
 10
96.74655142067873
 20
-147.3660374631584
 30
0.0
 10
97.54651028915897
 20
-147.3660374631584
 30
0.0
 10
97.54651028915897
 20
-147.3660374631584
 30
0.0
 10
97.54651028915897
 20
-147.3660374631584
 30
0.0
 10
97.54651028915897
 20
-142.8660394087278
 30
0.0
 10
97.54651028915897
 20
-142.8660394087278
 30
0.0
 10
97.54651028915897
 20
-142.6014560754606
 30
0.0
 10
97.34048807219281
 20
-142.3868260755146
 30
0.0
 10
97.08073780104182
 20
-142.3692577421854
 30
0.0
 10
97.07865641220603
 20
-142.3871788532923
 30
0.0
 10
97.06486280144682
 20
-142.4012899643996
 30
0.0
 10
97.0469769685698
 20
-142.4012899643996
 30
0.0
 10
97.0269744690801
 20
-142.4012899643996
 30
0.0
 10
97.01148752503076
 20
-142.3854502421817
 30
0.0
 10
97.01148752503076
 20
-142.3658005199641
 30
0.0
 10
97.01148752503076
 20
-142.3658005199641
 30
0.0
 10
86.7466444227577
 20
-142.3658005199641
 30
0.0
 10
86.7466444227577
 20
-142.3658005199641
 30
0.0
 10
86.47052307173095
 20
-142.3658005199641
 30
0.0
 10
86.24675831177174
 20
-142.5897438532413
 30
0.0
 10
86.24675831177174
 20
-142.8660394087278
 30
0.0
 10
86.24675831177174
 20
-142.8660394087278
 30
0.0
 10
86.24675831177174
 20
-161.5660132929421
 30
0.0
 10
86.24675831177174
 20
-161.5660132929421
 30
0.0
 10
86.24675831177174
 20
-161.5660132929421
 30
0.0
 10
85.84677669875515
 20
-161.5660132929421
 30
0.0
 10
85.84677669875515
 20
-161.5660132929421
 30
0.0
 10
85.84677669875515
 20
-161.5660132929421
 30
0.0
 10
85.84677669875515
 20
-103.1658041408753
 30
0.0
 10
85.84677669875515
 20
-103.1658041408753
 30
0.0
 10
85.84677669875515
 20
-103.1658041408753
 30
0.0
 10
98.24652721574449
 20
-103.1658041408753
 30
0.0
 10
98.24652721574449
 20
-103.1658041408753
 30
0.0
 10
98.24652721574449
 20
-103.1658041408753
 30
0.0
 10
98.24652721574449
 20
-110.3660338612975
 30
0.0
 10
98.24652721574449
 20
-110.3660338612975
 30
0.0
 10
98.24652721574449
 20
-110.3660338612975
 30
0.0
 10
99.01134941845447
 20
-110.3660338612975
 30
0.0
 10
99.01134941845447
 20
-110.3660338612975
 30
0.0
 10
99.01134941845447
 20
-110.3464194168577
 30
0.0
 10
99.02719164191
 20
-110.3305444168617
 30
0.0
 10
99.04648608422474
 20
-110.3305444168617
 30
0.0
 10
99.04648608422474
 20
-110.3305444168617
 30
0.0
 10
99.04648608422474
 20
-102.9012208076081
 30
0.0
 10
99.04648608422474
 20
-102.9012208076081
 30
0.0
 10
99.02719164191
 20
-102.9012208076081
 30
0.0
 10
99.01134941845447
 20
-102.8853810853899
 30
0.0
 10
99.01134941845447
 20
-102.8660841409501
 30
0.0
 10
99.01134941845447
 20
-102.8478102520657
 30
0.0
 10
99.02581330697436
 20
-102.834016640958
 30
0.0
 10
99.04306664190605
 20
-102.8319705298475
 30
0.0
 10
99.02962330687716
 20
-102.6349088632303
 30
0.0
 10
98.90385803230792
 20
-102.4697030299381
 30
0.0
 10
98.72817470345665
 20
-102.4009819188441
 30
0.0
 10
98.72817470345665
 20
-102.4009819188441
 30
0.0
 10
98.54765831917311
 20
-102.4009819188441
 30
0.0
 10
98.54765831917311
 20
-102.4009819188441
 30
0.0
 10
98.54765831917311
 20
-102.4009819188441
 30
0.0
 10
98.54730554140434
 20
-102.4013346966218
 30
0.0
 10
98.54695276363556
 20
-102.4013346966218
 30
0.0
 10
98.54659998586678
 20
-102.4013346966218
 30
0.0
 10
98.54628248587488
 20
-102.4009819188441
 30
0.0
 10
98.54628248587488
 20
-102.4009819188441
 30
0.0
 10
98.54628248587488
 20
-102.4009819188441
 30
0.0
 10
85.54758587305481
 20
-102.4009819188441
 30
0.0
 10
85.54758587305481
 20
-102.4009819188441
 30
0.0
 10
85.54723309528603
 20
-102.4009819188441
 30
0.0
 10
85.54705670640165
 20
-102.4013346966218
 30
0.0
 10
85.54670392863287
 20
-102.4013346966218
 30
0.0
 10
85.54638642864097
 20
-102.4013346966218
 30
0.0
 10
85.54621003975659
 20
-102.4009819188441
 30
0.0
 10
85.5458572619878
 20
-102.4009819188441
 30
0.0
 10
85.5458572619878
 20
-102.4009819188441
 30
0.0
 10
85.36551942310298
 20
-102.4009819188441
 30
0.0
 10
85.36551942310298
 20
-102.4009819188441
 30
0.0
 10
85.18944588219172
 20
-102.4697030299381
 30
0.0
 10
85.06354164540079
 20
-102.6349088632303
 30
0.0
 10
85.05009866352455
 20
-102.8319705298475
 30
0.0
  0
POLYLINE
  5
42
330
1F
100
AcDbEntity
  8
_U+30EC_U+30A4_U+30E4_U+30FC 1
 62
   179
420
  2234388
370
    25
100
AcDb2dPolyline
 66
     1
 10
0.0
 20
0.0
 30
0.0
  0
VERTEX
  5
43
330
42
100
AcDbEntity
  8
_U+30EC_U+30A4_U+30E4_U+30FC 1
 62
   179
420
  2234388
370
    25
100
AcDbVertex
100
AcDb2dVertex
 10
85.04664144139052
 20
-102.8660841409501
 30
0.0
  0
VERTEX
  5
44
330
42
100
AcDbEntity
  8
_U+30EC_U+30A4_U+30E4_U+30FC 1
 62
   179
420
  2234388
370
    25
100
AcDbVertex
100
AcDb2dVertex
 10
85.04664144139052
 20
-161.8660860706448
 30
0.0
  0
SEQEND
  5
45
330
42
100
AcDbEntity
  8
_U+30EC_U+30A4_U+30E4_U+30FC 1
 62
   179
420
  2234388
370
    25
  0
POLYLINE
  5
46
330
1F
100
AcDbEntity
  8
_U+30EC_U+30A4_U+30E4_U+30FC 1
 62
   179
420
  2234388
370
    25
100
AcDb2dPolyline
 66
     1
 10
0.0
 20
0.0
 30
0.0
  0
VERTEX
  5
47
330
46
100
AcDbEntity
  8
_U+30EC_U+30A4_U+30E4_U+30FC 1
 62
   179
420
  2234388
370
    25
100
AcDbVertex
100
AcDb2dVertex
 10
99.04648608422474
 20
-102.8660841409501
 30
0.0
  0
VERTEX
  5
48
330
46
100
AcDbEntity
  8
_U+30EC_U+30A4_U+30E4_U+30FC 1
 62
   179
420
  2234388
370
    25
100
AcDbVertex
100
AcDb2dVertex
 10
99.04648608422474
 20
-110.3660338612975
 30
0.0
  0
SEQEND
  5
49
330
46
100
AcDbEntity
  8
_U+30EC_U+30A4_U+30E4_U+30FC 1
 62
   179
420
  2234388
370
    25
  0
POLYLINE
  5
4A
330
1F
100
AcDbEntity
  8
_U+30EC_U+30A4_U+30E4_U+30FC 1
 62
   179
420
  2234388
370
    25
100
AcDb2dPolyline
 66
     1
 10
0.0
 20
0.0
 30
0.0
  0
VERTEX
  5
4B
330
4A
100
AcDbEntity
  8
_U+30EC_U+30A4_U+30E4_U+30FC 1
 62
   179
420
  2234388
370
    25
100
AcDbVertex
100
AcDb2dVertex
 10
85.54670392863287
 20
-102.3658452521863
 30
0.0
  0
VERTEX
  5
4C
330
4A
100
AcDbEntity
  8
_U+30EC_U+30A4_U+30E4_U+30FC 1
 62
   179
420
  2234388
370
    25
100
AcDbVertex
100
AcDb2dVertex
 10
98.54695276363556
 20
-102.3658452521863
 30
0.0
  0
SEQEND
  5
4D
330
4A
100
AcDbEntity
  8
_U+30EC_U+30A4_U+30E4_U+30FC 1
 62
   179
420
  2234388
370
    25
  0
POLYLINE
  5
4E
330
1F
100
AcDbEntity
  8
_U+30EC_U+30A4_U+30E4_U+30FC 1
 62
   179
420
  2234388
370
    25
100
AcDb2dPolyline
 66
     1
 10
0.0
 20
0.0
 30
0.0
  0
VERTEX
  5
4F
330
4E
100
AcDbEntity
  8
_U+30EC_U+30A4_U+30E4_U+30FC 1
 62
   179
420
  2234388
370
    25
100
AcDbVertex
100
AcDb2dVertex
 10
85.54670392863287
 20
-162.3659721816307
 30
0.0
  0
VERTEX
  5
50
330
4E
100
AcDbEntity
  8
_U+30EC_U+30A4_U+30E4_U+30FC 1
 62
   179
420
  2234388
370
    25
100
AcDbVertex
100
AcDb2dVertex
 10
86.54665251423317
 20
-162.3659721816307
 30
0.0
  0
SEQEND
  5
51
330
4E
100
AcDbEntity
  8
_U+30EC_U+30A4_U+30E4_U+30FC 1
 62
   179
420
  2234388
370
    25
  0
POLYLINE
  5
52
330
1F
100
AcDbEntity
  8
_U+30EC_U+30A4_U+30E4_U+30FC 1
 62
   179
420
  2234388
370
    25
100
AcDb2dPolyline
 66
     1
 10
0.0
 20
0.0
 30
0.0
  0
VERTEX
  5
53
330
52
100
AcDbEntity
  8
_U+30EC_U+30A4_U+30E4_U+30FC 1
 62
   179
420
  2234388
370
    25
100
AcDbVertex
100
AcDb2dVertex
 10
98.24652721574449
 20
-110.3660338612975
 30
0.0
  0
VERTEX
  5
54
330
52
100
AcDbEntity
  8
_U+30EC_U+30A4_U+30E4_U+30FC 1
 62
   179
420
  2234388
370
    25
100
AcDbVertex
100
AcDb2dVertex
 10
99.04648608422474
 20
-110.3660338612975
 30
0.0
  0
SEQEND
  5
55
330
52
100
AcDbEntity
  8
_U+30EC_U+30A4_U+30E4_U+30FC 1
 62
   179
420
  2234388
370
    25
  0
POLYLINE
  5
56
330
1F
100
AcDbEntity
  8
_U+30EC_U+30A4_U+30E4_U+30FC 1
 62
   179
420
  2234388
370
    25
100
AcDb2dPolyline
 66
     1
 10
0.0
 20
0.0
 30
0.0
  0
VERTEX
  5
57
330
56
100
AcDbEntity
  8
_U+30EC_U+30A4_U+30E4_U+30FC 1
 62
   179
420
  2234388
370
    25
100
AcDbVertex
100
AcDb2dVertex
 10
86.7466444227577
 20
-142.3658005199641
 30
0.0
  0
VERTEX
  5
58
330
56
100
AcDbEntity
  8
_U+30EC_U+30A4_U+30E4_U+30FC 1
 62
   179
420
  2234388
370
    25
100
AcDbVertex
100
AcDb2dVertex
 10
97.0469769685698
 20
-142.3658005199641
 30
0.0
  0
SEQEND
  5
59
330
56
100
AcDbEntity
  8
_U+30EC_U+30A4_U+30E4_U+30FC 1
 62
   179
420
  2234388
370
    25
  0
POLYLINE
  5
5A
330
1F
100
AcDbEntity
  8
_U+30EC_U+30A4_U+30E4_U+30FC 1
 62
   179
420
  2234388
370
    25
100
AcDb2dPolyline
 66
     1
 10
0.0
 20
0.0
 30
0.0
  0
VERTEX
  5
5B
330
5A
100
AcDbEntity
  8
_U+30EC_U+30A4_U+30E4_U+30FC 1
 62
   179
420
  2234388
370
    25
100
AcDbVertex
100
AcDb2dVertex
 10
98.24652721574449
 20
-103.1658041408753
 30
0.0
  0
VERTEX
  5
5C
330
5A
100
AcDbEntity
  8
_U+30EC_U+30A4_U+30E4_U+30FC 1
 62
   179
420
  2234388
370
    25
100
AcDbVertex
100
AcDb2dVertex
 10
98.24652721574449
 20
-110.3660338612975
 30
0.0
  0
SEQEND
  5
5D
330
5A
100
AcDbEntity
  8
_U+30EC_U+30A4_U+30E4_U+30FC 1
 62
   179
420
  2234388
370
    25
  0
POLYLINE
  5
5E
330
1F
100
AcDbEntity
  8
_U+30EC_U+30A4_U+30E4_U+30FC 1
 62
   179
420
  2234388
370
    25
100
AcDb2dPolyline
 66
     1
 10
0.0
 20
0.0
 30
0.0
  0
VERTEX
  5
5F
330
5E
100
AcDbEntity
  8
_U+30EC_U+30A4_U+30E4_U+30FC 1
 62
   179
420
  2234388
370
    25
100
AcDbVertex
100
AcDb2dVertex
 10
85.84677669875515
 20
-103.1658041408753
 30
0.0
  0
VERTEX
  5
60
330
5E
100
AcDbEntity
  8
_U+30EC_U+30A4_U+30E4_U+30FC 1
 62
   179
420
  2234388
370
    25
100
AcDbVertex
100
AcDb2dVertex
 10
98.24652721574449
 20
-103.1658041408753
 30
0.0
  0
SEQEND
  5
61
330
5E
100
AcDbEntity
  8
_U+30EC_U+30A4_U+30E4_U+30FC 1
 62
   179
420
  2234388
370
    25
  0
POLYLINE
  5
62
330
1F
100
AcDbEntity
  8
_U+30EC_U+30A4_U+30E4_U+30FC 1
 62
   179
420
  2234388
370
    25
100
AcDb2dPolyline
 66
     1
 10
0.0
 20
0.0
 30
0.0
  0
VERTEX
  5
63
330
62
100
AcDbEntity
  8
_U+30EC_U+30A4_U+30E4_U+30FC 1
 62
   179
420
  2234388
370
    25
100
AcDbVertex
100
AcDb2dVertex
 10
85.84677669875515
 20
-103.1658041408753
 30
0.0
  0
VERTEX
  5
64
330
62
100
AcDbEntity
  8
_U+30EC_U+30A4_U+30E4_U+30FC 1
 62
   179
420
  2234388
370
    25
100
AcDbVertex
100
AcDb2dVertex
 10
85.84677669875515
 20
-161.5660132929421
 30
0.0
  0
SEQEND
  5
65
330
62
100
AcDbEntity
  8
_U+30EC_U+30A4_U+30E4_U+30FC 1
 62
   179
420
  2234388
370
    25
  0
POLYLINE
  5
66
330
1F
100
AcDbEntity
  8
_U+30EC_U+30A4_U+30E4_U+30FC 1
 62
   179
420
  2234388
370
    25
100
AcDb2dPolyline
 66
     1
 10
0.0
 20
0.0
 30
0.0
  0
VERTEX
  5
67
330
66
100
AcDbEntity
  8
_U+30EC_U+30A4_U+30E4_U+30FC 1
 62
   179
420
  2234388
370
    25
100
AcDbVertex
100
AcDb2dVertex
 10
85.84677669875515
 20
-161.5660132929421
 30
0.0
  0
VERTEX
  5
68
330
66
100
AcDbEntity
  8
_U+30EC_U+30A4_U+30E4_U+30FC 1
 62
   179
420
  2234388
370
    25
100
AcDbVertex
100
AcDb2dVertex
 10
86.24675831177174
 20
-161.5660132929421
 30
0.0
  0
SEQEND
  5
69
330
66
100
AcDbEntity
  8
_U+30EC_U+30A4_U+30E4_U+30FC 1
 62
   179
420
  2234388
370
    25
  0
POLYLINE
  5
6A
330
1F
100
AcDbEntity
  8
_U+30EC_U+30A4_U+30E4_U+30FC 1
 62
   179
420
  2234388
370
    25
100
AcDb2dPolyline
 66
     1
 10
0.0
 20
0.0
 30
0.0
  0
VERTEX
  5
6B
330
6A
100
AcDbEntity
  8
_U+30EC_U+30A4_U+30E4_U+30FC 1
 62
   179
420
  2234388
370
    25
100
AcDbVertex
100
AcDb2dVertex
 10
87.0467150014755
 20
-143.1657594086527
 30
0.0
  0
VERTEX
  5
6C
330
6A
100
AcDbEntity
  8
_U+30EC_U+30A4_U+30E4_U+30FC 1
 62
   179
420
  2234388
370
    25
100
AcDbVertex
100
AcDb2dVertex
 10
87.0467150014755
 20
-161.8660860706448
 30
0.0
  0
SEQEND
  5
6D
330
6A
100
AcDbEntity
  8
_U+30EC_U+30A4_U+30E4_U+30FC 1
 62
   179
420
  2234388
370
    25
  0
POLYLINE
  5
6E
330
1F
100
AcDbEntity
  8
_U+30EC_U+30A4_U+30E4_U+30FC 1
 62
   179
420
  2234388
370
    25
100
AcDb2dPolyline
 66
     1
 10
0.0
 20
0.0
 30
0.0
  0
VERTEX
  5
6F
330
6E
100
AcDbEntity
  8
_U+30EC_U+30A4_U+30E4_U+30FC 1
 62
   179
420
  2234388
370
    25
100
AcDbVertex
100
AcDb2dVertex
 10
86.24675831177174
 20
-142.8660394087278
 30
0.0
  0
VERTEX
  5
70
330
6E
100
AcDbEntity
  8
_U+30EC_U+30A4_U+30E4_U+30FC 1
 62
   179
420
  2234388
370
    25
100
AcDbVertex
100
AcDb2dVertex
 10
86.24675831177174
 20
-161.5660132929421
 30
0.0
  0
SEQEND
  5
71
330
6E
100
AcDbEntity
  8
_U+30EC_U+30A4_U+30E4_U+30FC 1
 62
   179
420
  2234388
370
    25
  0
POLYLINE
  5
72
330
1F
100
AcDbEntity
  8
_U+30EC_U+30A4_U+30E4_U+30FC 1
 62
   179
420
  2234388
370
    25
100
AcDb2dPolyline
 66
     1
 10
0.0
 20
0.0
 30
0.0
  0
VERTEX
  5
73
330
72
100
AcDbEntity
  8
_U+30EC_U+30A4_U+30E4_U+30FC 1
 62
   179
420
  2234388
370
    25
100
AcDbVertex
100
AcDb2dVertex
 10
87.0467150014755
 20
-143.1657594086527
 30
0.0
  0
VERTEX
  5
74
330
72
100
AcDbEntity
  8
_U+30EC_U+30A4_U+30E4_U+30FC 1
 62
   179
420
  2234388
370
    25
100
AcDbVertex
100
AcDb2dVertex
 10
96.74655142067873
 20
-143.1657594086527
 30
0.0
  0
SEQEND
  5
75
330
72
100
AcDbEntity
  8
_U+30EC_U+30A4_U+30E4_U+30FC 1
 62
   179
420
  2234388
370
    25
  0
POLYLINE
  5
76
330
1F
100
AcDbEntity
  8
_U+30EC_U+30A4_U+30E4_U+30FC 1
 62
   179
420
  2234388
370
    25
100
AcDb2dPolyline
 66
     1
 10
0.0
 20
0.0
 30
0.0
  0
VERTEX
  5
77
330
76
100
AcDbEntity
  8
_U+30EC_U+30A4_U+30E4_U+30FC 1
 62
   179
420
  2234388
370
    25
100
AcDbVertex
100
AcDb2dVertex
 10
97.54651028915897
 20
-142.8660394087278
 30
0.0
  0
VERTEX
  5
78
330
76
100
AcDbEntity
  8
_U+30EC_U+30A4_U+30E4_U+30FC 1
 62
   179
420
  2234388
370
    25
100
AcDbVertex
100
AcDb2dVertex
 10
97.54651028915897
 20
-147.3660374631584
 30
0.0
  0
SEQEND
  5
79
330
76
100
AcDbEntity
  8
_U+30EC_U+30A4_U+30E4_U+30FC 1
 62
   179
420
  2234388
370
    25
  0
POLYLINE
  5
7A
330
1F
100
AcDbEntity
  8
_U+30EC_U+30A4_U+30E4_U+30FC 1
 62
   179
420
  2234388
370
    25
100
AcDb2dPolyline
 66
     1
 10
0.0
 20
0.0
 30
0.0
  0
VERTEX
  5
7B
330
7A
100
AcDbEntity
  8
_U+30EC_U+30A4_U+30E4_U+30FC 1
 62
   179
420
  2234388
370
    25
100
AcDbVertex
100
AcDb2dVertex
 10
96.74655142067873
 20
-147.3660374631584
 30
0.0
  0
VERTEX
  5
7C
330
7A
100
AcDbEntity
  8
_U+30EC_U+30A4_U+30E4_U+30FC 1
 62
   179
420
  2234388
370
    25
100
AcDbVertex
100
AcDb2dVertex
 10
97.54651028915897
 20
-147.3660374631584
 30
0.0
  0
SEQEND
  5
7D
330
7A
100
AcDbEntity
  8
_U+30EC_U+30A4_U+30E4_U+30FC 1
 62
   179
420
  2234388
370
    25
  0
POLYLINE
  5
7E
330
1F
100
AcDbEntity
  8
_U+30EC_U+30A4_U+30E4_U+30FC 1
 62
   179
420
  2234388
370
    25
100
AcDb2dPolyline
 66
     1
 10
0.0
 20
0.0
 30
0.0
  0
VERTEX
  5
7F
330
7E
100
AcDbEntity
  8
_U+30EC_U+30A4_U+30E4_U+30FC 1
 62
   179
420
  2234388
370
    25
100
AcDbVertex
100
AcDb2dVertex
 10
96.74655142067873
 20
-143.1657594086527
 30
0.0
  0
VERTEX
  5
80
330
7E
100
AcDbEntity
  8
_U+30EC_U+30A4_U+30E4_U+30FC 1
 62
   179
420
  2234388
370
    25
100
AcDbVertex
100
AcDb2dVertex
 10
96.74655142067873
 20
-147.3660374631584
 30
0.0
  0
SEQEND
  5
81
330
7E
100
AcDbEntity
  8
_U+30EC_U+30A4_U+30E4_U+30FC 1
 62
   179
420
  2234388
370
    25
  0
SPLINE
  5
82
330
1F
100
AcDbEntity
  8
_U+30EC_U+30A4_U+30E4_U+30FC 1
 62
   179
420
  2234388
370
    25
100
AcDbSpline
210
0.0
220
0.0
230
1.0
 70
     8
 71
     3
 72
     8
 73
     4
 74
     0
 42
0.0000000001
 43
0.0000000001
 12
1.0
 22
0.0
 32
0.0
 13
1.0
 23
0.0
 33
0.0
 40
0.0
 40
0.0
 40
0.0
 40
0.0
 40
1.0
 40
1.0
 40
1.0
 40
1.0
 10
85.54670392863287
 20
-102.3658452521863
 30
0.0
 10
85.2705847690106
 20
-102.3658452521863
 30
0.0
 10
85.04664144139052
 20
-102.5897885854636
 30
0.0
 10
85.04664144139052
 20
-102.8660841409501
 30
0.0
  0
SPLINE
  5
83
330
1F
100
AcDbEntity
  8
_U+30EC_U+30A4_U+30E4_U+30FC 1
 62
   179
420
  2234388
370
    25
100
AcDbSpline
210
0.0
220
0.0
230
1.0
 70
     8
 71
     3
 72
     8
 73
     4
 74
     0
 42
0.0000000001
 43
0.0000000001
 12
1.0
 22
0.0
 32
0.0
 13
1.0
 23
0.0
 33
0.0
 40
0.0
 40
0.0
 40
0.0
 40
0.0
 40
1.0
 40
1.0
 40
1.0
 40
1.0
 10
99.04648608422474
 20
-102.8660841409501
 30
0.0
 10
99.04648608422474
 20
-102.5897885854636
 30
0.0
 10
98.82289553437344
 20
-102.3658452521863
 30
0.0
 10
98.54695276363556
 20
-102.3658452521863
 30
0.0
  0
SPLINE
  5
84
330
1F
100
AcDbEntity
  8
_U+30EC_U+30A4_U+30E4_U+30FC 1
 62
   179
420
  2234388
370
    25
100
AcDbSpline
210
0.0
220
0.0
230
1.0
 70
     8
 71
     3
 72
     8
 73
     4
 74
     0
 42
0.0000000001
 43
0.0000000001
 12
1.0
 22
0.0
 32
0.0
 13
1.0
 23
0.0
 33
0.0
 40
0.0
 40
0.0
 40
0.0
 40
0.0
 40
1.0
 40
1.0
 40
1.0
 40
1.0
 10
85.04664144139052
 20
-161.8660860706448
 30
0.0
 10
85.04664144139052
 20
-162.1420288483534
 30
0.0
 10
85.2705847690106
 20
-162.3659721816307
 30
0.0
 10
85.54670392863287
 20
-162.3659721816307
 30
0.0
  0
SPLINE
  5
85
330
1F
100
AcDbEntity
  8
_U+30EC_U+30A4_U+30E4_U+30FC 1
 62
   179
420
  2234388
370
    25
100
AcDbSpline
210
0.0
220
0.0
230
1.0
 70
     8
 71
     3
 72
     8
 73
     4
 74
     0
 42
0.0000000001
 43
0.0000000001
 12
1.0
 22
0.0
 32
0.0
 13
1.0
 23
0.0
 33
0.0
 40
0.0
 40
0.0
 40
0.0
 40
0.0
 40
1.0
 40
1.0
 40
1.0
 40
1.0
 10
86.54665251423317
 20
-162.3659721816307
 30
0.0
 10
86.82277167385544
 20
-162.3659721816307
 30
0.0
 10
87.0467150014755
 20
-162.1420288483534
 30
0.0
 10
87.0467150014755
 20
-161.8660860706448
 30
0.0
  0
SPLINE
  5
86
330
1F
100
AcDbEntity
  8
_U+30EC_U+30A4_U+30E4_U+30FC 1
 62
   179
420
  2234388
370
    25
100
AcDbSpline
210
0.0
220
0.0
230
1.0
 70
     8
 71
     3
 72
     8
 73
     4
 74
     0
 42
0.0000000001
 43
0.0000000001
 12
1.0
 22
0.0
 32
0.0
 13
1.0
 23
0.0
 33
0.0
 40
0.0
 40
0.0
 40
0.0
 40
0.0
 40
1.0
 40
1.0
 40
1.0
 40
1.0
 10
86.7466444227577
 20
-142.3658005199641
 30
0.0
 10
86.47052307173095
 20
-142.3658005199641
 30
0.0
 10
86.24675831177174
 20
-142.5897438532413
 30
0.0
 10
86.24675831177174
 20
-142.8660394087278
 30
0.0
  0
SPLINE
  5
87
330
1F
100
AcDbEntity
  8
_U+30EC_U+30A4_U+30E4_U+30FC 1
 62
   179
420
  2234388
370
    25
100
AcDbSpline
210
0.0
220
0.0
230
1.0
 70
     8
 71
     3
 72
     8
 73
     4
 74
     0
 42
0.0000000001
 43
0.0000000001
 12
1.0
 22
0.0
 32
0.0
 13
1.0
 23
0.0
 33
0.0
 40
0.0
 40
0.0
 40
0.0
 40
0.0
 40
1.0
 40
1.0
 40
1.0
 40
1.0
 10
97.54651028915897
 20
-142.8660394087278
 30
0.0
 10
97.54651028915897
 20
-142.5897438532413
 30
0.0
 10
97.32292219789157
 20
-142.3658005199641
 30
0.0
 10
97.0469769685698
 20
-142.3658005199641
 30
0.0
  0
SPLINE
  5
88
330
1F
100
AcDbEntity
  8
_U+30EC_U+30A4_U+30E4_U+30FC 1
 62
   179
420
  2234388
370
     9
100
AcDbSpline
210
0.0
220
0.0
230
1.0
 70
    11
 71
     3
 72
    17
 73
    13
 74
     0
 42
0.0000000001
 43
0.0000000001
 12
1.0
 22
0.0
 32
0.0
 13
1.0
 23
0.0
 33
0.0
 40
0.0
 40
0.0
 40
0.0
 40
0.0
 40
1.0
 40
1.0
 40
1.0
 40
2.0
 40
2.0
 40
2.0
 40
3.0
 40
3.0
 40
3.0
 40
4.0
 40
4.0
 40
4.0
 40
4.0
 10
101.6468462956618
 20
-162.3659721816307
 30
0.0
 10
101.6468462956618
 20
-162.3108682927558
 30
0.0
 10
101.6020787968039
 20
-162.2660655149891
 30
0.0
 10
101.546939631544
 20
-162.2660655149891
 30
0.0
 10
101.4914829662921
 20
-162.2660655149891
 30
0.0
 10
101.4466801896573
 20
-162.3108682927558
 30
0.0
 10
101.4466801896573
 20
-162.3659721816307
 30
0.0
 10
101.4466801896573
 20
-162.4211113482838
 30
0.0
 10
101.4914829662921
 20
-162.4658788482724
 30
0.0
 10
101.546939631544
 20
-162.4658788482724
 30
0.0
 10
101.6020787968039
 20
-162.4658788482724
 30
0.0
 10
101.6468462956618
 20
-162.4211113482838
 30
0.0
 10
101.6468462956618
 20
-162.3659721816307
 30
0.0
  0
SPLINE
  5
89
330
1F
100
AcDbEntity
  8
_U+30EC_U+30A4_U+30E4_U+30FC 1
 62
   179
420
  2234388
370
     9
100
AcDbSpline
210
0.0
220
0.0
230
1.0
 70
    11
 71
     3
 72
    17
 73
    13
 74
     0
 42
0.0000000001
 43
0.0000000001
 12
1.0
 22
0.0
 32
0.0
 13
1.0
 23
0.0
 33
0.0
 40
0.0
 40
0.0
 40
0.0
 40
0.0
 40
1.0
 40
1.0
 40
1.0
 40
2.0
 40
2.0
 40
2.0
 40
3.0
 40
3.0
 40
3.0
 40
4.0
 40
4.0
 40
4.0
 40
4.0
 10
101.6468462956618
 20
-142.3658005199641
 30
0.0
 10
101.6468462956618
 20
-142.3106966310891
 30
0.0
 10
101.6020787968039
 20
-142.2658938533224
 30
0.0
 10
101.546939631544
 20
-142.2658938533224
 30
0.0
 10
101.4914829662921
 20
-142.2658938533224
 30
0.0
 10
101.4466801896573
 20
-142.3106966310891
 30
0.0
 10
101.4466801896573
 20
-142.3658005199641
 30
0.0
 10
101.4466801896573
 20
-142.4212924643949
 30
0.0
 10
101.4914829662921
 20
-142.4660599643835
 30
0.0
 10
101.546939631544
 20
-142.4660599643835
 30
0.0
 10
101.6020787968039
 20
-142.4660599643835
 30
0.0
 10
101.6468462956618
 20
-142.4212924643949
 30
0.0
 10
101.6468462956618
 20
-142.3658005199641
 30
0.0
  0
SPLINE
  5
8A
330
1F
100
AcDbEntity
  8
_U+30EC_U+30A4_U+30E4_U+30FC 1
 62
   179
420
  2234388
370
     9
100
AcDbSpline
210
0.0
220
0.0
230
1.0
 70
    11
 71
     3
 72
    17
 73
    13
 74
     0
 42
0.0000000001
 43
0.0000000001
 12
1.0
 22
0.0
 32
0.0
 13
1.0
 23
0.0
 33
0.0
 40
0.0
 40
0.0
 40
0.0
 40
0.0
 40
1.0
 40
1.0
 40
1.0
 40
2.0
 40
2.0
 40
2.0
 40
3.0
 40
3.0
 40
3.0
 40
4.0
 40
4.0
 40
4.0
 40
4.0
 10
103.1468573685044
 20
-110.3660338612975
 30
0.0
 10
103.1468573685044
 20
-110.3105771946445
 30
0.0
 10
103.1020545918697
 20
-110.2658096946559
 30
0.0
 10
103.0469507043866
 20
-110.2658096946559
 30
0.0
 10
102.9914587613579
 20
-110.2658096946559
 30
0.0
 10
102.9466912625
 20
-110.3105771946445
 30
0.0
 10
102.9466912625
 20
-110.3660338612975
 30
0.0
 10
102.9466912625
 20
-110.4211730279502
 30
0.0
 10
102.9914587613579
 20
-110.4659405279391
 30
0.0
 10
103.0469507043866
 20
-110.4659405279391
 30
0.0
 10
103.1020545918697
 20
-110.4659405279391
 30
0.0
 10
103.1468573685044
 20
-110.4211730279502
 30
0.0
 10
103.1468573685044
 20
-110.3660338612975
 30
0.0
  0
SPLINE
  5
8B
330
1F
100
AcDbEntity
  8
_U+30EC_U+30A4_U+30E4_U+30FC 1
 62
   179
420
  2234388
370
     9
100
AcDbSpline
210
0.0
220
0.0
230
1.0
 70
    11
 71
     3
 72
    17
 73
    13
 74
     0
 42
0.0000000001
 43
0.0000000001
 12
1.0
 22
0.0
 32
0.0
 13
1.0
 23
0.0
 33
0.0
 40
0.0
 40
0.0
 40
0.0
 40
0.0
 40
1.0
 40
1.0
 40
1.0
 40
2.0
 40
2.0
 40
2.0
 40
3.0
 40
3.0
 40
3.0
 40
4.0
 40
4.0
 40
4.0
 40
4.0
 10
103.1468573685044
 20
-102.3658452521863
 30
0.0
 10
103.1468573685044
 20
-102.3107060855336
 30
0.0
 10
103.1020545918697
 20
-102.2659385855447
 30
0.0
 10
103.0469507043866
 20
-102.2659385855447
 30
0.0
 10
102.9914587613579
 20
-102.2659385855447
 30
0.0
 10
102.9466912625
 20
-102.3107060855336
 30
0.0
 10
102.9466912625
 20
-102.3658452521863
 30
0.0
 10
102.9466912625
 20
-102.421301918839
 30
0.0
 10
102.9914587613579
 20
-102.4661046966057
 30
0.0
 10
103.0469507043866
 20
-102.4661046966057
 30
0.0
 10
103.1020545918697
 20
-102.4661046966057
 30
0.0
 10
103.1468573685044
 20
-102.421301918839
 30
0.0
 10
103.1468573685044
 20
-102.3658452521863
 30
0.0
  0
SPLINE
  5
8C
330
1F
100
AcDbEntity
  8
_U+30EC_U+30A4_U+30E4_U+30FC 1
 62
   179
420
  2234388
370
     9
100
AcDbSpline
210
0.0
220
0.0
230
1.0
 70
    11
 71
     3
 72
    17
 73
    13
 74
     0
 42
0.0000000001
 43
0.0000000001
 12
1.0
 22
0.0
 32
0.0
 13
1.0
 23
0.0
 33
0.0
 40
0.0
 40
0.0
 40
0.0
 40
0.0
 40
1.0
 40
1.0
 40
1.0
 40
2.0
 40
2.0
 40
2.0
 40
3.0
 40
3.0
 40
3.0
 40
4.0
 40
4.0
 40
4.0
 40
4.0
 10
99.14674552611135
 20
-98.36608608651946
 30
0.0
 10
99.14674552611135
 20
-98.31062941986679
 30
0.0
 10
99.10194274947658
 20
-98.26582664210038
 30
0.0
 10
99.04648608422474
 20
-98.26582664210038
 30
0.0
 10
98.99138219674167
 20
-98.26582664210038
 30
0.0
 10
98.9465794201069
 20
-98.31062941986679
 30
0.0
 10
98.9465794201069
 20
-98.36608608651946
 30
0.0
 10
98.9465794201069
 20
-98.42122525317254
 30
0.0
 10
98.99138219674167
 20
-98.46599275316142
 30
0.0
 10
99.04648608422474
 20
-98.46599275316142
 30
0.0
 10
99.10194274947658
 20
-98.46599275316142
 30
0.0
 10
99.14674552611135
 20
-98.42122525317254
 30
0.0
 10
99.14674552611135
 20
-98.36608608651946
 30
0.0
  0
SPLINE
  5
8D
330
1F
100
AcDbEntity
  8
_U+30EC_U+30A4_U+30E4_U+30FC 1
 62
   179
420
  2234388
370
     9
100
AcDbSpline
210
0.0
220
0.0
230
1.0
 70
    11
 71
     3
 72
    17
 73
    13
 74
     0
 42
0.0000000001
 43
0.0000000001
 12
1.0
 22
0.0
 32
0.0
 13
1.0
 23
0.0
 33
0.0
 40
0.0
 40
0.0
 40
0.0
 40
0.0
 40
1.0
 40
1.0
 40
1.0
 40
2.0
 40
2.0
 40
2.0
 40
3.0
 40
3.0
 40
3.0
 40
4.0
 40
4.0
 40
4.0
 40
4.0
 10
85.14672449439276
 20
-98.36608608651946
 30
0.0
 10
85.14672449439276
 20
-98.31062941986679
 30
0.0
 10
85.10195699553486
 20
-98.26582664210038
 30
0.0
 10
85.04664144139052
 20
-98.26582664210038
 30
0.0
 10
84.99153755390745
 20
-98.26582664210038
 30
0.0
 10
84.9467347772727
 20
-98.31062941986679
 30
0.0
 10
84.9467347772727
 20
-98.36608608651946
 30
0.0
 10
84.9467347772727
 20
-98.42122525317254
 30
0.0
 10
84.99153755390745
 20
-98.46599275316142
 30
0.0
 10
85.04664144139052
 20
-98.46599275316142
 30
0.0
 10
85.10195699553486
 20
-98.46599275316142
 30
0.0
 10
85.14672449439276
 20
-98.42122525317254
 30
0.0
 10
85.14672449439276
 20
-98.36608608651946
 30
0.0
  0
SPLINE
  5
8E
330
1F
100
AcDbEntity
  8
_U+30EC_U+30A4_U+30E4_U+30FC 1
 62
   179
420
  2234388
370
     9
100
AcDbSpline
210
0.0
220
0.0
230
1.0
 70
    11
 71
     3
 72
    17
 73
    13
 74
     0
 42
0.0000000001
 43
0.0000000001
 12
1.0
 22
0.0
 32
0.0
 13
1.0
 23
0.0
 33
0.0
 40
0.0
 40
0.0
 40
0.0
 40
0.0
 40
1.0
 40
1.0
 40
1.0
 40
2.0
 40
2.0
 40
2.0
 40
3.0
 40
3.0
 40
3.0
 40
4.0
 40
4.0
 40
4.0
 40
4.0
 10
81.14664997971332
 20
-102.3658452521863
 30
0.0
 10
81.14664997971332
 20
-102.3107060855336
 30
0.0
 10
81.10202154202616
 20
-102.2659385855447
 30
0.0
 10
81.04674126565871
 20
-102.2659385855447
 30
0.0
 10
80.99142775753005
 20
-102.2659385855447
 30
0.0
 10
80.94665821265647
 20
-102.3107060855336
 30
0.0
 10
80.94665821265647
 20
-102.3658452521863
 30
0.0
 10
80.94665821265647
 20
-102.421301918839
 30
0.0
 10
80.99142775753005
 20
-102.4661046966057
 30
0.0
 10
81.04674126565871
 20
-102.4661046966057
 30
0.0
 10
81.10202154202616
 20
-102.4661046966057
 30
0.0
 10
81.14664997971332
 20
-102.421301918839
 30
0.0
 10
81.14664997971332
 20
-102.3658452521863
 30
0.0
  0
SPLINE
  5
8F
330
1F
100
AcDbEntity
  8
_U+30EC_U+30A4_U+30E4_U+30FC 1
 62
   179
420
  2234388
370
     9
100
AcDbSpline
210
0.0
220
0.0
230
1.0
 70
    11
 71
     3
 72
    17
 73
    13
 74
     0
 42
0.0000000001
 43
0.0000000001
 12
1.0
 22
0.0
 32
0.0
 13
1.0
 23
0.0
 33
0.0
 40
0.0
 40
0.0
 40
0.0
 40
0.0
 40
1.0
 40
1.0
 40
1.0
 40
2.0
 40
2.0
 40
2.0
 40
3.0
 40
3.0
 40
3.0
 40
4.0
 40
4.0
 40
4.0
 40
4.0
 10
81.14664997971332
 20
-162.3659721816307
 30
0.0
 10
81.14664997971332
 20
-162.3108682927558
 30
0.0
 10
81.10202154202616
 20
-162.2660655149891
 30
0.0
 10
81.04674126565871
 20
-162.2660655149891
 30
0.0
 10
80.99142775753005
 20
-162.2660655149891
 30
0.0
 10
80.94665821265647
 20
-162.3108682927558
 30
0.0
 10
80.94665821265647
 20
-162.3659721816307
 30
0.0
 10
80.94665821265647
 20
-162.4211113482838
 30
0.0
 10
80.99142775753005
 20
-162.4658788482724
 30
0.0
 10
81.04674126565871
 20
-162.4658788482724
 30
0.0
 10
81.10202154202616
 20
-162.4658788482724
 30
0.0
 10
81.14664997971332
 20
-162.4211113482838
 30
0.0
 10
81.14664997971332
 20
-162.3659721816307
 30
0.0
  0
POLYLINE
  5
90
330
1F
100
AcDbEntity
  8
_U+30EC_U+30A4_U+30E4_U+30FC 1
 62
   179
420
  2234388
370
     9
100
AcDb2dPolyline
 66
     1
 10
0.0
 20
0.0
 30
0.0
  0
VERTEX
  5
91
330
90
100
AcDbEntity
  8
_U+30EC_U+30A4_U+30E4_U+30FC 1
 62
   179
420
  2234388
370
     9
100
AcDbVertex
100
AcDb2dVertex
 10
81.04674126565871
 20
-102.3658452521863
 30
0.0
  0
VERTEX
  5
92
330
90
100
AcDbEntity
  8
_U+30EC_U+30A4_U+30E4_U+30FC 1
 62
   179
420
  2234388
370
     9
100
AcDbVertex
100
AcDb2dVertex
 10
81.04674126565871
 20
-162.3659721816307
 30
0.0
  0
SEQEND
  5
93
330
90
100
AcDbEntity
  8
_U+30EC_U+30A4_U+30E4_U+30FC 1
 62
   179
420
  2234388
370
     9
  0
POLYLINE
  5
94
330
1F
100
AcDbEntity
  8
_U+30EC_U+30A4_U+30E4_U+30FC 1
 62
   179
420
  2234388
370
     9
100
AcDb2dPolyline
 66
     1
 10
0.0
 20
0.0
 30
0.0
  0
VERTEX
  5
95
330
94
100
AcDbEntity
  8
_U+30EC_U+30A4_U+30E4_U+30FC 1
 62
   179
420
  2234388
370
     9
100
AcDbVertex
100
AcDb2dVertex
 10
83.00663343787991
 20
-102.3658452521863
 30
0.0
  0
VERTEX
  5
96
330
94
100
AcDbEntity
  8
_U+30EC_U+30A4_U+30E4_U+30FC 1
 62
   179
420
  2234388
370
     9
100
AcDbVertex
100
AcDb2dVertex
 10
80.0467926800584
 20
-102.3658452521863
 30
0.0
  0
SEQEND
  5
97
330
94
100
AcDbEntity
  8
_U+30EC_U+30A4_U+30E4_U+30FC 1
 62
   179
420
  2234388
370
     9
  0
POLYLINE
  5
98
330
1F
100
AcDbEntity
  8
_U+30EC_U+30A4_U+30E4_U+30FC 1
 62
   179
420
  2234388
370
     9
100
AcDb2dPolyline
 66
     1
 10
0.0
 20
0.0
 30
0.0
  0
VERTEX
  5
99
330
98
100
AcDbEntity
  8
_U+30EC_U+30A4_U+30E4_U+30FC 1
 62
   179
420
  2234388
370
     9
100
AcDbVertex
100
AcDb2dVertex
 10
84.0067584123646
 20
-162.3659721816307
 30
0.0
  0
VERTEX
  5
9A
330
98
100
AcDbEntity
  8
_U+30EC_U+30A4_U+30E4_U+30FC 1
 62
   179
420
  2234388
370
     9
100
AcDbVertex
100
AcDb2dVertex
 10
80.0467926800584
 20
-162.3659721816307
 30
0.0
  0
SEQEND
  5
9B
330
98
100
AcDbEntity
  8
_U+30EC_U+30A4_U+30E4_U+30FC 1
 62
   179
420
  2234388
370
     9
  0
INSERT
  5
9D
330
1F
100
AcDbEntity
  8
_U+30EC_U+30A4_U+30E4_U+30FC 1
100
AcDbBlockReference
  2
block 2
 10
0.0
 20
0.0
 30
0.0
  0
SPLINE
  5
A6
330
1F
100
AcDbEntity
  8
_U+30EC_U+30A4_U+30E4_U+30FC 1
 62
   179
420
  2234388
370
    25
100
AcDbSpline
210
0.0
220
0.0
230
1.0
 70
    11
 71
     3
 72
    17
 73
    13
 74
     0
 42
0.0000000001
 43
0.0000000001
 12
1.0
 22
0.0
 32
0.0
 13
1.0
 23
0.0
 33
0.0
 40
0.0
 40
0.0
 40
0.0
 40
0.0
 40
1.0
 40
1.0
 40
1.0
 40
2.0
 40
2.0
 40
2.0
 40
3.0
 40
3.0
 40
3.0
 40
4.0
 40
4.0
 40
4.0
 40
4.0
 10
85.58201698328752
 20
-102.3658452521863
 30
0.0
 10
85.58201698328752
 20
-102.3854949744036
 30
0.0
 10
85.56617726146939
 20
-102.4013346966218
 30
0.0
 10
85.54670392863287
 20
-102.4013346966218
 30
0.0
 10
85.52726587357321
 20
-102.4013346966218
 30
0.0
 10
85.51139087397823
 20
-102.3854949744036
 30
0.0
 10
85.51139087397823
 20
-102.3658452521863
 30
0.0
 10
85.51139087397823
 20
-102.3465483077468
 30
0.0
 10
85.52726587357321
 20
-102.3307085855283
 30
0.0
 10
85.54670392863287
 20
-102.3307085855283
 30
0.0
 10
85.56617726146939
 20
-102.3307085855283
 30
0.0
 10
85.58201698328752
 20
-102.3465483077468
 30
0.0
 10
85.58201698328752
 20
-102.3658452521863
 30
0.0
  0
SPLINE
  5
A7
330
1F
100
AcDbEntity
  8
_U+30EC_U+30A4_U+30E4_U+30FC 1
 62
   179
420
  2234388
370
    25
100
AcDbSpline
210
0.0
220
0.0
230
1.0
 70
    11
 71
     3
 72
    17
 73
    13
 74
     0
 42
0.0000000001
 43
0.0000000001
 12
1.0
 22
0.0
 32
0.0
 13
1.0
 23
0.0
 33
0.0
 40
0.0
 40
0.0
 40
0.0
 40
0.0
 40
1.0
 40
1.0
 40
1.0
 40
2.0
 40
2.0
 40
2.0
 40
3.0
 40
3.0
 40
3.0
 40
4.0
 40
4.0
 40
4.0
 40
4.0
 10
86.58196556888781
 20
-162.3659721816307
 30
0.0
 10
86.58196556888781
 20
-162.3852691260706
 30
0.0
 10
86.5661258470697
 20
-162.4011088482885
 30
0.0
 10
86.54665251423317
 20
-162.4011088482885
 30
0.0
 10
86.52717918139663
 20
-162.4011088482885
 30
0.0
 10
86.5115158484629
 20
-162.3852691260706
 30
0.0
 10
86.5115158484629
 20
-162.3659721816307
 30
0.0
 10
86.5115158484629
 20
-162.3463224594132
 30
0.0
 10
86.52717918139663
 20
-162.3304827371952
 30
0.0
 10
86.54665251423317
 20
-162.3304827371952
 30
0.0
 10
86.5661258470697
 20
-162.3304827371952
 30
0.0
 10
86.58196556888781
 20
-162.3463224594132
 30
0.0
 10
86.58196556888781
 20
-162.3659721816307
 30
0.0
  0
SPLINE
  5
A8
330
1F
100
AcDbEntity
  8
_U+30EC_U+30A4_U+30E4_U+30FC 1
 62
   179
420
  2234388
370
     9
100
AcDbSpline
210
0.0
220
0.0
230
1.0
 70
    11
 71
     3
 72
    17
 73
    13
 74
     0
 42
0.0000000001
 43
0.0000000001
 12
1.0
 22
0.0
 32
0.0
 13
1.0
 23
0.0
 33
0.0
 40
0.0
 40
0.0
 40
0.0
 40
0.0
 40
1.0
 40
1.0
 40
1.0
 40
2.0
 40
2.0
 40
2.0
 40
3.0
 40
3.0
 40
3.0
 40
4.0
 40
4.0
 40
4.0
 40
4.0
 10
81.08205432031335
 20
-162.3659721816307
 30
0.0
 10
81.08205432031335
 20
-162.3852691260706
 30
0.0
 10
81.06617932071835
 20
-162.4011088482885
 30
0.0
 10
81.04674126565871
 20
-162.4011088482885
 30
0.0
 10
81.02726793282217
 20
-162.4011088482885
 30
0.0
 10
81.01142821100406
 20
-162.3852691260706
 30
0.0
 10
81.01142821100406
 20
-162.3659721816307
 30
0.0
 10
81.01142821100406
 20
-162.3463224594132
 30
0.0
 10
81.02726793282217
 20
-162.3304827371952
 30
0.0
 10
81.04674126565871
 20
-162.3304827371952
 30
0.0
 10
81.06617932071835
 20
-162.3304827371952
 30
0.0
 10
81.08205432031335
 20
-162.3463224594132
 30
0.0
 10
81.08205432031335
 20
-162.3659721816307
 30
0.0
  0
POLYLINE
  5
A9
330
1F
100
AcDbEntity
  8
_U+30EC_U+30A4_U+30E4_U+30FC 1
 62
   179
420
  2234388
370
     9
100
AcDb2dPolyline
 66
     1
 10
0.0
 20
0.0
 30
0.0
  0
VERTEX
  5
AA
330
A9
100
AcDbEntity
  8
_U+30EC_U+30A4_U+30E4_U+30FC 1
 62
   179
420
  2234388
370
     9
100
AcDbVertex
100
AcDb2dVertex
 10
103.0469507043866
 20
-102.3658452521863
 30
0.0
  0
VERTEX
  5
AB
330
A9
100
AcDbEntity
  8
_U+30EC_U+30A4_U+30E4_U+30FC 1
 62
   179
420
  2234388
370
     9
100
AcDbVertex
100
AcDb2dVertex
 10
103.0469507043866
 20
-110.3660338612975
 30
0.0
  0
SEQEND
  5
AC
330
A9
100
AcDbEntity
  8
_U+30EC_U+30A4_U+30E4_U+30FC 1
 62
   179
420
  2234388
370
     9
  0
POLYLINE
  5
AD
330
1F
100
AcDbEntity
  8
_U+30EC_U+30A4_U+30E4_U+30FC 1
 62
   179
420
  2234388
370
     9
100
AcDb2dPolyline
 66
     1
 10
0.0
 20
0.0
 30
0.0
  0
VERTEX
  5
AE
330
AD
100
AcDbEntity
  8
_U+30EC_U+30A4_U+30E4_U+30FC 1
 62
   179
420
  2234388
370
     9
100
AcDbVertex
100
AcDb2dVertex
 10
101.0866704766197
 20
-102.3658452521863
 30
0.0
  0
VERTEX
  5
AF
330
AD
100
AcDbEntity
  8
_U+30EC_U+30A4_U+30E4_U+30FC 1
 62
   179
420
  2234388
370
     9
100
AcDbVertex
100
AcDb2dVertex
 10
104.0466876233256
 20
-102.3658452521863
 30
0.0
  0
SEQEND
  5
B0
330
AD
100
AcDbEntity
  8
_U+30EC_U+30A4_U+30E4_U+30FC 1
 62
   179
420
  2234388
370
     9
  0
POLYLINE
  5
B1
330
1F
100
AcDbEntity
  8
_U+30EC_U+30A4_U+30E4_U+30FC 1
 62
   179
420
  2234388
370
     9
100
AcDb2dPolyline
 66
     1
 10
0.0
 20
0.0
 30
0.0
  0
VERTEX
  5
B2
330
B1
100
AcDbEntity
  8
_U+30EC_U+30A4_U+30E4_U+30FC 1
 62
   179
420
  2234388
370
     9
100
AcDbVertex
100
AcDb2dVertex
 10
101.5869093527465
 20
-110.3660338612975
 30
0.0
  0
VERTEX
  5
B3
330
B1
100
AcDbEntity
  8
_U+30EC_U+30A4_U+30E4_U+30FC 1
 62
   179
420
  2234388
370
     9
100
AcDbVertex
100
AcDb2dVertex
 10
104.0466876233256
 20
-110.3660338612975
 30
0.0
  0
SEQEND
  5
B4
330
B1
100
AcDbEntity
  8
_U+30EC_U+30A4_U+30E4_U+30FC 1
 62
   179
420
  2234388
370
     9
  0
INSERT
  5
B6
330
1F
100
AcDbEntity
  8
_U+30EC_U+30A4_U+30E4_U+30FC 1
100
AcDbBlockReference
  2
block 3
 10
0.0
 20
0.0
 30
0.0
  0
SPLINE
  5
BD
330
1F
100
AcDbEntity
  8
_U+30EC_U+30A4_U+30E4_U+30FC 1
 62
   179
420
  2234388
370
    25
100
AcDbSpline
210
0.0
220
0.0
230
1.0
 70
    11
 71
     3
 72
    17
 73
    13
 74
     0
 42
0.0000000001
 43
0.0000000001
 12
1.0
 22
0.0
 32
0.0
 13
1.0
 23
0.0
 33
0.0
 40
0.0
 40
0.0
 40
0.0
 40
0.0
 40
1.0
 40
1.0
 40
1.0
 40
2.0
 40
2.0
 40
2.0
 40
3.0
 40
3.0
 40
3.0
 40
4.0
 40
4.0
 40
4.0
 40
4.0
 10
98.58208942940581
 20
-102.3658452521863
 30
0.0
 10
98.58208942940581
 20
-102.3854949744036
 30
0.0
 10
98.5662497075877
 20
-102.4013346966218
 30
0.0
 10
98.54695276363556
 20
-102.4013346966218
 30
0.0
 10
98.52730553092404
 20
-102.4013346966218
 30
0.0
 10
98.51146332009652
 20
-102.3854949744036
 30
0.0
 10
98.51146332009652
 20
-102.3658452521863
 30
0.0
 10
98.51146332009652
 20
-102.3465483077468
 30
0.0
 10
98.52730553092404
 20
-102.3307085855283
 30
0.0
 10
98.54695276363556
 20
-102.3307085855283
 30
0.0
 10
98.5662497075877
 20
-102.3307085855283
 30
0.0
 10
98.58208942940581
 20
-102.3465483077468
 30
0.0
 10
98.58208942940581
 20
-102.3658452521863
 30
0.0
  0
SPLINE
  5
BE
330
1F
100
AcDbEntity
  8
_U+30EC_U+30A4_U+30E4_U+30FC 1
 62
   179
420
  2234388
370
    25
100
AcDbSpline
210
0.0
220
0.0
230
1.0
 70
    11
 71
     3
 72
    17
 73
    13
 74
     0
 42
0.0000000001
 43
0.0000000001
 12
1.0
 22
0.0
 32
0.0
 13
1.0
 23
0.0
 33
0.0
 40
0.0
 40
0.0
 40
0.0
 40
0.0
 40
1.0
 40
1.0
 40
1.0
 40
2.0
 40
2.0
 40
2.0
 40
3.0
 40
3.0
 40
3.0
 40
4.0
 40
4.0
 40
4.0
 40
4.0
 10
99.08197552776377
 20
-110.3660338612975
 30
0.0
 10
99.08197552776377
 20
-110.385330805737
 30
0.0
 10
99.06613580594565
 20
-110.4011705279552
 30
0.0
 10
99.04648608422474
 20
-110.4011705279552
 30
0.0
 10
99.02719164191
 20
-110.4011705279552
 30
0.0
 10
99.01134941845447
 20
-110.385330805737
 30
0.0
 10
99.01134941845447
 20
-110.3660338612975
 30
0.0
 10
99.01134941845447
 20
-110.3464194168577
 30
0.0
 10
99.02719164191
 20
-110.3305444168617
 30
0.0
 10
99.04648608422474
 20
-110.3305444168617
 30
0.0
 10
99.06613580594565
 20
-110.3305444168617
 30
0.0
 10
99.08197552776377
 20
-110.3464194168577
 30
0.0
 10
99.08197552776377
 20
-110.3660338612975
 30
0.0
  0
SPLINE
  5
BF
330
1F
100
AcDbEntity
  8
_U+30EC_U+30A4_U+30E4_U+30FC 1
 62
   179
420
  2234388
370
     9
100
AcDbSpline
210
0.0
220
0.0
230
1.0
 70
    11
 71
     3
 72
    17
 73
    13
 74
     0
 42
0.0000000001
 43
0.0000000001
 12
1.0
 22
0.0
 32
0.0
 13
1.0
 23
0.0
 33
0.0
 40
0.0
 40
0.0
 40
0.0
 40
0.0
 40
1.0
 40
1.0
 40
1.0
 40
2.0
 40
2.0
 40
2.0
 40
3.0
 40
3.0
 40
3.0
 40
4.0
 40
4.0
 40
4.0
 40
4.0
 10
103.0820873701569
 20
-110.3660338612975
 30
0.0
 10
103.0820873701569
 20
-110.385330805737
 30
0.0
 10
103.0662476483387
 20
-110.4011705279552
 30
0.0
 10
103.0469507043866
 20
-110.4011705279552
 30
0.0
 10
103.0273009826657
 20
-110.4011705279552
 30
0.0
 10
103.0114638631361
 20
-110.385330805737
 30
0.0
 10
103.0114638631361
 20
-110.3660338612975
 30
0.0
 10
103.0114638631361
 20
-110.3464194168577
 30
0.0
 10
103.0273009826657
 20
-110.3305444168617
 30
0.0
 10
103.0469507043866
 20
-110.3305444168617
 30
0.0
 10
103.0662476483387
 20
-110.3305444168617
 30
0.0
 10
103.0820873701569
 20
-110.3464194168577
 30
0.0
 10
103.0820873701569
 20
-110.3660338612975
 30
0.0
  0
POLYLINE
  5
C0
330
1F
100
AcDbEntity
  8
_U+30EC_U+30A4_U+30E4_U+30FC 1
 62
   179
420
  2234388
370
     9
100
AcDb2dPolyline
 66
     1
 10
0.0
 20
0.0
 30
0.0
  0
VERTEX
  5
C1
330
C0
100
AcDbEntity
  8
_U+30EC_U+30A4_U+30E4_U+30FC 1
 62
   179
420
  2234388
370
     9
100
AcDbVertex
100
AcDb2dVertex
 10
101.546939631544
 20
-142.3658005199641
 30
0.0
  0
VERTEX
  5
C2
330
C0
100
AcDbEntity
  8
_U+30EC_U+30A4_U+30E4_U+30FC 1
 62
   179
420
  2234388
370
     9
100
AcDbVertex
100
AcDb2dVertex
 10
101.546939631544
 20
-162.3659721816307
 30
0.0
  0
SEQEND
  5
C3
330
C0
100
AcDbEntity
  8
_U+30EC_U+30A4_U+30E4_U+30FC 1
 62
   179
420
  2234388
370
     9
  0
POLYLINE
  5
C4
330
1F
100
AcDbEntity
  8
_U+30EC_U+30A4_U+30E4_U+30FC 1
 62
   179
420
  2234388
370
     9
100
AcDb2dPolyline
 66
     1
 10
0.0
 20
0.0
 30
0.0
  0
VERTEX
  5
C5
330
C4
100
AcDbEntity
  8
_U+30EC_U+30A4_U+30E4_U+30FC 1
 62
   179
420
  2234388
370
     9
100
AcDbVertex
100
AcDb2dVertex
 10
99.58669719732544
 20
-142.3658005199641
 30
0.0
  0
VERTEX
  5
C6
330
C4
100
AcDbEntity
  8
_U+30EC_U+30A4_U+30E4_U+30FC 1
 62
   179
420
  2234388
370
     9
100
AcDbVertex
100
AcDb2dVertex
 10
102.5467118282599
 20
-142.3658005199641
 30
0.0
  0
SEQEND
  5
C7
330
C4
100
AcDbEntity
  8
_U+30EC_U+30A4_U+30E4_U+30FC 1
 62
   179
420
  2234388
370
     9
  0
POLYLINE
  5
C8
330
1F
100
AcDbEntity
  8
_U+30EC_U+30A4_U+30E4_U+30FC 1
 62
   179
420
  2234388
370
     9
100
AcDb2dPolyline
 66
     1
 10
0.0
 20
0.0
 30
0.0
  0
VERTEX
  5
C9
330
C8
100
AcDbEntity
  8
_U+30EC_U+30A4_U+30E4_U+30FC 1
 62
   179
420
  2234388
370
     9
100
AcDbVertex
100
AcDb2dVertex
 10
89.08672300498613
 20
-162.3659721816307
 30
0.0
  0
VERTEX
  5
CA
330
C8
100
AcDbEntity
  8
_U+30EC_U+30A4_U+30E4_U+30FC 1
 62
   179
420
  2234388
370
     9
100
AcDbVertex
100
AcDb2dVertex
 10
102.5467118282599
 20
-162.3659721816307
 30
0.0
  0
SEQEND
  5
CB
330
C8
100
AcDbEntity
  8
_U+30EC_U+30A4_U+30E4_U+30FC 1
 62
   179
420
  2234388
370
     9
  0
INSERT
  5
CD
330
1F
100
AcDbEntity
  8
_U+30EC_U+30A4_U+30E4_U+30FC 1
100
AcDbBlockReference
  2
block 4
 10
0.0
 20
0.0
 30
0.0
  0
SPLINE
  5
E0
330
1F
100
AcDbEntity
  8
_U+30EC_U+30A4_U+30E4_U+30FC 1
 62
   179
420
  2234388
370
    25
100
AcDbSpline
210
0.0
220
0.0
230
1.0
 70
    11
 71
     3
 72
    17
 73
    13
 74
     0
 42
0.0000000001
 43
0.0000000001
 12
1.0
 22
0.0
 32
0.0
 13
1.0
 23
0.0
 33
0.0
 40
0.0
 40
0.0
 40
0.0
 40
0.0
 40
1.0
 40
1.0
 40
1.0
 40
2.0
 40
2.0
 40
2.0
 40
3.0
 40
3.0
 40
3.0
 40
4.0
 40
4.0
 40
4.0
 40
4.0
 10
97.08211363434005
 20
-142.3658005199641
 30
0.0
 10
97.08211363434005
 20
-142.3854502421817
 30
0.0
 10
97.06623863474506
 20
-142.4012899643996
 30
0.0
 10
97.0469769685698
 20
-142.4012899643996
 30
0.0
 10
97.0269744690801
 20
-142.4012899643996
 30
0.0
 10
97.01148752503076
 20
-142.3854502421817
 30
0.0
 10
97.01148752503076
 20
-142.3658005199641
 30
0.0
 10
97.01148752503076
 20
-142.3465388533024
 30
0.0
 10
97.0269744690801
 20
-142.3306638533063
 30
0.0
 10
97.0469769685698
 20
-142.3306638533063
 30
0.0
 10
97.06623863474506
 20
-142.3306638533063
 30
0.0
 10
97.08211363434005
 20
-142.3465388533024
 30
0.0
 10
97.08211363434005
 20
-142.3658005199641
 30
0.0
  0
SPLINE
  5
E1
330
1F
100
AcDbEntity
  8
_U+30EC_U+30A4_U+30E4_U+30FC 1
 62
   179
420
  2234388
370
    25
100
AcDbSpline
210
0.0
220
0.0
230
1.0
 70
    11
 71
     3
 72
    17
 73
    13
 74
     0
 42
0.0000000001
 43
0.0000000001
 12
1.0
 22
0.0
 32
0.0
 13
1.0
 23
0.0
 33
0.0
 40
0.0
 40
0.0
 40
0.0
 40
0.0
 40
1.0
 40
1.0
 40
1.0
 40
2.0
 40
2.0
 40
2.0
 40
3.0
 40
3.0
 40
3.0
 40
4.0
 40
4.0
 40
4.0
 40
4.0
 10
86.58196556888781
 20
-162.3659721816307
 30
0.0
 10
86.58196556888781
 20
-162.3852691260706
 30
0.0
 10
86.5661258470697
 20
-162.4011088482885
 30
0.0
 10
86.54665251423317
 20
-162.4011088482885
 30
0.0
 10
86.52717918139663
 20
-162.4011088482885
 30
0.0
 10
86.5115158484629
 20
-162.3852691260706
 30
0.0
 10
86.5115158484629
 20
-162.3659721816307
 30
0.0
 10
86.5115158484629
 20
-162.3463224594132
 30
0.0
 10
86.52717918139663
 20
-162.3304827371952
 30
0.0
 10
86.54665251423317
 20
-162.3304827371952
 30
0.0
 10
86.5661258470697
 20
-162.3304827371952
 30
0.0
 10
86.58196556888781
 20
-162.3463224594132
 30
0.0
 10
86.58196556888781
 20
-162.3659721816307
 30
0.0
  0
SPLINE
  5
E2
330
1F
100
AcDbEntity
  8
_U+30EC_U+30A4_U+30E4_U+30FC 1
 62
   179
420
  2234388
370
     9
100
AcDbSpline
210
0.0
220
0.0
230
1.0
 70
    11
 71
     3
 72
    17
 73
    13
 74
     0
 42
0.0000000001
 43
0.0000000001
 12
1.0
 22
0.0
 32
0.0
 13
1.0
 23
0.0
 33
0.0
 40
0.0
 40
0.0
 40
0.0
 40
0.0
 40
1.0
 40
1.0
 40
1.0
 40
2.0
 40
2.0
 40
2.0
 40
3.0
 40
3.0
 40
3.0
 40
4.0
 40
4.0
 40
4.0
 40
4.0
 10
101.5820762973142
 20
-162.3659721816307
 30
0.0
 10
101.5820762973142
 20
-162.3852691260706
 30
0.0
 10
101.5662365754961
 20
-162.4011088482885
 30
0.0
 10
101.546939631544
 20
-162.4011088482885
 30
0.0
 10
101.527289909823
 20
-162.4011088482885
 30
0.0
 10
101.5114527523998
 20
-162.3852691260706
 30
0.0
 10
101.5114527523998
 20
-162.3659721816307
 30
0.0
 10
101.5114527523998
 20
-162.3463224594132
 30
0.0
 10
101.527289909823
 20
-162.3304827371952
 30
0.0
 10
101.546939631544
 20
-162.3304827371952
 30
0.0
 10
101.5662365754961
 20
-162.3304827371952
 30
0.0
 10
101.5820762973142
 20
-162.3463224594132
 30
0.0
 10
101.5820762973142
 20
-162.3659721816307
 30
0.0
  0
POLYLINE
  5
E3
330
1F
100
AcDbEntity
  8
_U+30EC_U+30A4_U+30E4_U+30FC 1
 62
   179
420
  2234388
370
     9
100
AcDb2dPolyline
 66
     1
 10
0.0
 20
0.0
 30
0.0
  0
VERTEX
  5
E4
330
E3
100
AcDbEntity
  8
_U+30EC_U+30A4_U+30E4_U+30FC 1
 62
   179
420
  2234388
370
     9
100
AcDbVertex
100
AcDb2dVertex
 10
99.04648608422474
 20
-98.36608608651946
 30
0.0
  0
VERTEX
  5
E5
330
E3
100
AcDbEntity
  8
_U+30EC_U+30A4_U+30E4_U+30FC 1
 62
   179
420
  2234388
370
     9
100
AcDbVertex
100
AcDb2dVertex
 10
85.04664144139052
 20
-98.36608608651946
 30
0.0
  0
SEQEND
  5
E6
330
E3
100
AcDbEntity
  8
_U+30EC_U+30A4_U+30E4_U+30FC 1
 62
   179
420
  2234388
370
     9
  0
POLYLINE
  5
E7
330
1F
100
AcDbEntity
  8
_U+30EC_U+30A4_U+30E4_U+30FC 1
 62
   179
420
  2234388
370
     9
100
AcDb2dPolyline
 66
     1
 10
0.0
 20
0.0
 30
0.0
  0
VERTEX
  5
E8
330
E7
100
AcDbEntity
  8
_U+30EC_U+30A4_U+30E4_U+30FC 1
 62
   179
420
  2234388
370
     9
100
AcDbVertex
100
AcDb2dVertex
 10
99.04648608422474
 20
-100.3260135860298
 30
0.0
  0
VERTEX
  5
E9
330
E7
100
AcDbEntity
  8
_U+30EC_U+30A4_U+30E4_U+30FC 1
 62
   179
420
  2234388
370
     9
100
AcDbVertex
100
AcDb2dVertex
 10
99.04648608422474
 20
-97.36596108676949
 30
0.0
  0
SEQEND
  5
EA
330
E7
100
AcDbEntity
  8
_U+30EC_U+30A4_U+30E4_U+30FC 1
 62
   179
420
  2234388
370
     9
  0
POLYLINE
  5
EB
330
1F
100
AcDbEntity
  8
_U+30EC_U+30A4_U+30E4_U+30FC 1
 62
   179
420
  2234388
370
     9
100
AcDb2dPolyline
 66
     1
 10
0.0
 20
0.0
 30
0.0
  0
VERTEX
  5
EC
330
EB
100
AcDbEntity
  8
_U+30EC_U+30A4_U+30E4_U+30FC 1
 62
   179
420
  2234388
370
     9
100
AcDbVertex
100
AcDb2dVertex
 10
85.04664144139052
 20
-100.3260135860298
 30
0.0
  0
VERTEX
  5
ED
330
EB
100
AcDbEntity
  8
_U+30EC_U+30A4_U+30E4_U+30FC 1
 62
   179
420
  2234388
370
     9
100
AcDbVertex
100
AcDb2dVertex
 10
85.04664144139052
 20
-97.36596108676949
 30
0.0
  0
SEQEND
  5
EE
330
EB
100
AcDbEntity
  8
_U+30EC_U+30A4_U+30E4_U+30FC 1
 62
   179
420
  2234388
370
     9
  0
INSERT
  5
F0
330
1F
100
AcDbEntity
  8
_U+30EC_U+30A4_U+30E4_U+30FC 1
100
AcDbBlockReference
  2
block 5
 10
0.0
 20
0.0
 30
0.0
  0
SPLINE
  5
10A
330
1F
100
AcDbEntity
  8
_U+30EC_U+30A4_U+30E4_U+30FC 1
 62
   179
420
  2234388
370
    25
100
AcDbSpline
210
0.0
220
0.0
230
1.0
 70
    11
 71
     3
 72
    17
 73
    13
 74
     0
 42
0.0000000001
 43
0.0000000001
 12
1.0
 22
0.0
 32
0.0
 13
1.0
 23
0.0
 33
0.0
 40
0.0
 40
0.0
 40
0.0
 40
0.0
 40
1.0
 40
1.0
 40
1.0
 40
2.0
 40
2.0
 40
2.0
 40
3.0
 40
3.0
 40
3.0
 40
4.0
 40
4.0
 40
4.0
 40
4.0
 10
99.08197552776377
 20
-102.8660841409501
 30
0.0
 10
99.08197552776377
 20
-102.8853810853899
 30
0.0
 10
99.06613580594565
 20
-102.9012208076081
 30
0.0
 10
99.04648608422474
 20
-102.9012208076081
 30
0.0
 10
99.02719164191
 20
-102.9012208076081
 30
0.0
 10
99.01134941845447
 20
-102.8853810853899
 30
0.0
 10
99.01134941845447
 20
-102.8660841409501
 30
0.0
 10
99.01134941845447
 20
-102.8464344187328
 30
0.0
 10
99.02719164191
 20
-102.8305946965146
 30
0.0
 10
99.04648608422474
 20
-102.8305946965146
 30
0.0
 10
99.06613580594565
 20
-102.8305946965146
 30
0.0
 10
99.08197552776377
 20
-102.8464344187328
 30
0.0
 10
99.08197552776377
 20
-102.8660841409501
 30
0.0
  0
SPLINE
  5
10B
330
1F
100
AcDbEntity
  8
_U+30EC_U+30A4_U+30E4_U+30FC 1
 62
   179
420
  2234388
370
    25
100
AcDbSpline
210
0.0
220
0.0
230
1.0
 70
    11
 71
     3
 72
    17
 73
    13
 74
     0
 42
0.0000000001
 43
0.0000000001
 12
1.0
 22
0.0
 32
0.0
 13
1.0
 23
0.0
 33
0.0
 40
0.0
 40
0.0
 40
0.0
 40
0.0
 40
1.0
 40
1.0
 40
1.0
 40
2.0
 40
2.0
 40
2.0
 40
3.0
 40
3.0
 40
3.0
 40
4.0
 40
4.0
 40
4.0
 40
4.0
 10
85.08195449604517
 20
-102.8660841409501
 30
0.0
 10
85.08195449604517
 20
-102.8853810853899
 30
0.0
 10
85.06611477422706
 20
-102.9012208076081
 30
0.0
 10
85.04664144139052
 20
-102.9012208076081
 30
0.0
 10
85.02720553429873
 20
-102.9012208076081
 30
0.0
 10
85.01150477562027
 20
-102.8853810853899
 30
0.0
 10
85.01150477562027
 20
-102.8660841409501
 30
0.0
 10
85.01150477562027
 20
-102.8464344187328
 30
0.0
 10
85.02720553429873
 20
-102.8305946965146
 30
0.0
 10
85.04664144139052
 20
-102.8305946965146
 30
0.0
 10
85.06611477422706
 20
-102.8305946965146
 30
0.0
 10
85.08195449604517
 20
-102.8464344187328
 30
0.0
 10
85.08195449604517
 20
-102.8660841409501
 30
0.0
  0
SPLINE
  5
10C
330
1F
100
AcDbEntity
  8
_U+30EC_U+30A4_U+30E4_U+30FC 1
 62
   179
420
  2234388
370
     9
100
AcDbSpline
210
0.0
220
0.0
230
1.0
 70
    11
 71
     3
 72
    17
 73
    13
 74
     0
 42
0.0000000001
 43
0.0000000001
 12
1.0
 22
0.0
 32
0.0
 13
1.0
 23
0.0
 33
0.0
 40
0.0
 40
0.0
 40
0.0
 40
0.0
 40
1.0
 40
1.0
 40
1.0
 40
2.0
 40
2.0
 40
2.0
 40
3.0
 40
3.0
 40
3.0
 40
4.0
 40
4.0
 40
4.0
 40
4.0
 10
85.08195449604517
 20
-98.36608608651946
 30
0.0
 10
85.08195449604517
 20
-98.38538303095929
 30
0.0
 10
85.06611477422706
 20
-98.4012227531775
 30
0.0
 10
85.04664144139052
 20
-98.4012227531775
 30
0.0
 10
85.02720553429873
 20
-98.4012227531775
 30
0.0
 10
85.01150477562027
 20
-98.38538303095929
 30
0.0
 10
85.01150477562027
 20
-98.36608608651946
 30
0.0
 10
85.01150477562027
 20
-98.34643636430219
 30
0.0
 10
85.02720553429873
 20
-98.33059664208398
 30
0.0
 10
85.04664144139052
 20
-98.33059664208398
 30
0.0
 10
85.06611477422706
 20
-98.33059664208398
 30
0.0
 10
85.08195449604517
 20
-98.34643636430219
 30
0.0
 10
85.08195449604517
 20
-98.36608608651946
 30
0.0
  0
ENDSEC
  0
SECTION
  2
OBJECTS
  0
DICTIONARY
  5
C
330
0
100
AcDbDictionary
281
     1
  3
ACAD_GROUP
350
D
  3
ACAD_LAYOUT
350
1A
  3
ACAD_MATERIAL
350
3B
  3
ACAD_MLEADERSTYLE
350
10E
  3
ACAD_MLINESTYLE
350
17
  3
ACAD_PLOTSETTINGS
350
19
  3
ACAD_PLOTSTYLENAME
350
E
  3
ACAD_TABLESTYLE
350
10D
  3
ACAD_VISUALSTYLE
350
2A
  0
SUN
  5
3F
330
29
100
AcDbSun
 90
        1
290
     0
 63
     7
421
 16777215
 40
1.0
291
     1
 91
  2455826
 92
 54000000
292
     0
 70
     2
 71
   256
280
     1
  0
DICTIONARY
  5
D
102
{ACAD_REACTORS
330
C
102
}
330
C
100
AcDbDictionary
281
     1
  0
DICTIONARY
  5
1A
102
{ACAD_REACTORS
330
C
102
}
330
C
100
AcDbDictionary
281
     1
  3
Layout1
350
1E
  3
Layout2
350
26
  3
Model
350
22
  0
DICTIONARY
  5
3B
102
{ACAD_REACTORS
330
C
102
}
330
C
100
AcDbDictionary
281
     1
  3
ByBlock
350
3D
  3
ByLayer
350
3C
  3
Global
350
3E
  0
DICTIONARY
  5
10E
102
{ACAD_REACTORS
330
C
102
}
330
C
100
AcDbDictionary
281
     1
  0
DICTIONARY
  5
17
102
{ACAD_REACTORS
330
C
102
}
330
C
100
AcDbDictionary
281
     1
  3
Standard
350
18
  0
DICTIONARY
  5
19
102
{ACAD_REACTORS
330
C
102
}
330
C
100
AcDbDictionary
281
     1
  0
ACDBDICTIONARYWDFLT
  5
E
102
{ACAD_REACTORS
330
C
102
}
330
C
100
AcDbDictionary
281
     1
  3
Normal
350
F
100
AcDbDictionaryWithDefault
340
F
  0
DICTIONARY
  5
10D
102
{ACAD_REACTORS
330
C
102
}
330
C
100
AcDbDictionary
281
     1
  0
DICTIONARY
  5
2A
102
{ACAD_REACTORS
330
C
102
}
330
C
100
AcDbDictionary
281
     1
  3
2dWireframe
350
2F
  3
3D Hidden
350
31
  3
3dWireframe
350
30
  3
Basic
350
32
  3
Brighten
350
36
  3
ColorChange
350
3A
  3
Conceptual
350
34
  3
Dim
350
35
  3
Facepattern
350
39
  3
Flat
350
2B
  3
FlatWithEdges
350
2C
  3
Gouraud
350
2D
  3
GouraudWithEdges
350
2E
  3
Linepattern
350
38
  3
Realistic
350
33
  3
Thicken
350
37
  0
LAYOUT
  5
1E
102
{ACAD_REACTORS
330
1A
102
}
330
1A
100
AcDbPlotSettings
  1

  2
none_device
  4

  6

 40
0.0
 41
0.0
 42
0.0
 43
0.0
 44
0.0
 45
0.0
 46
0.0
 47
0.0
 48
0.0
 49
0.0
140
0.0
141
0.0
142
1.0
143
1.0
 70
   688
 72
     0
 73
     0
 74
     5
  7

 75
    16
 76
     0
 77
     2
 78
   300
147
1.0
148
0.0
149
0.0
100
AcDbLayout
  1
Layout1
 70
     1
 71
     1
 10
0.0
 20
0.0
 11
12.0
 21
9.0
 12
0.0
 22
0.0
 32
0.0
 14
1.000000000000000E+20
 24
1.000000000000000E+20
 34
1.000000000000000E+20
 15
-1.000000000000000E+20
 25
-1.000000000000000E+20
 35
-1.000000000000000E+20
146
0.0
 13
0.0
 23
0.0
 33
0.0
 16
1.0
 26
0.0
 36
0.0
 17
0.0
 27
1.0
 37
0.0
 76
     0
330
1B
  0
LAYOUT
  5
26
102
{ACAD_REACTORS
330
1A
102
}
330
1A
100
AcDbPlotSettings
  1

  2
none_device
  4

  6

 40
0.0
 41
0.0
 42
0.0
 43
0.0
 44
0.0
 45
0.0
 46
0.0
 47
0.0
 48
0.0
 49
0.0
140
0.0
141
0.0
142
1.0
143
1.0
 70
   688
 72
     0
 73
     0
 74
     5
  7

 75
    16
 76
     0
 77
     2
 78
   300
147
1.0
148
0.0
149
0.0
100
AcDbLayout
  1
Layout2
 70
     1
 71
     2
 10
0.0
 20
0.0
 11
0.0
 21
0.0
 12
0.0
 22
0.0
 32
0.0
 14
0.0
 24
0.0
 34
0.0
 15
0.0
 25
0.0
 35
0.0
146
0.0
 13
0.0
 23
0.0
 33
0.0
 16
1.0
 26
0.0
 36
0.0
 17
0.0
 27
1.0
 37
0.0
 76
     0
330
23
  0
LAYOUT
  5
22
102
{ACAD_REACTORS
330
1A
102
}
330
1A
100
AcDbPlotSettings
  1

  2
none_device
  4

  6

 40
0.0
 41
0.0
 42
0.0
 43
0.0
 44
0.0
 45
0.0
 46
0.0
 47
0.0
 48
0.0
 49
0.0
140
0.0
141
0.0
142
1.0
143
1.0
 70
  1712
 72
     0
 73
     0
 74
     0
  7

 75
     0
 76
     0
 77
     2
 78
   300
147
1.0
148
0.0
149
0.0
100
AcDbLayout
  1
Model
 70
     1
 71
     0
 10
0.0
 20
0.0
 11
12.0
 21
9.0
 12
0.0
 22
0.0
 32
0.0
 14
1.000000000000000E+20
 24
1.000000000000000E+20
 34
1.000000000000000E+20
 15
-1.000000000000000E+20
 25
-1.000000000000000E+20
 35
-1.000000000000000E+20
146
0.0
 13
0.0
 23
0.0
 33
0.0
 16
1.0
 26
0.0
 36
0.0
 17
0.0
 27
1.0
 37
0.0
 76
     0
330
1F
331
29
  0
MATERIAL
  5
3D
102
{ACAD_REACTORS
330
3B
102
}
330
3B
100
AcDbMaterial
  1
ByBlock
 72
     1
 94
      127
  0
MATERIAL
  5
3C
102
{ACAD_REACTORS
330
3B
102
}
330
3B
100
AcDbMaterial
  1
ByLayer
 72
     1
 94
      127
  0
MATERIAL
  5
3E
102
{ACAD_REACTORS
330
3B
102
}
330
3B
100
AcDbMaterial
  1
Global
 72
     1
 94
      127
  0
MLINESTYLE
  5
18
102
{ACAD_REACTORS
330
17
102
}
330
17
100
AcDbMlineStyle
  2
Standard
 70
     0
  3

 62
   256
 51
90.0
 52
90.0
 71
     2
 49
0.5
 62
   256
  6
BYLAYER
 49
-0.5
 62
   256
  6
BYLAYER
  0
ACDBPLACEHOLDER
  5
F
102
{ACAD_REACTORS
330
E
102
}
330
E
  0
VISUALSTYLE
  5
2F
102
{ACAD_REACTORS
330
2A
102
}
330
2A
100
AcDbVisualStyle
  2
2dWireframe
 70
     4
177
     2
291
     0
 71
     0
176
     1
 72
     2
176
     1
 73
     0
176
     1
 90
        0
176
     1
 40
-0.6
176
     1
 41
-30.0
176
     1
 62
     5
 63
     7
421
 16777215
176
     1
 74
     1
176
     1
 91
        4
176
     1
 64
     7
176
     1
 65
   257
176
     1
 75
     1
176
     1
175
     1
176
     1
 42
1.0
176
     1
 92
        0
176
     1
 66
   257
176
     1
 43
1.0
176
     1
 76
     1
176
     1
 77
     6
176
     1
 78
     2
176
     1
 67
     7
176
     1
 79
     5
176
     1
170
     0
176
     1
171
     0
176
     1
290
     0
176
     1
 93
        1
176
     1
 44
0.0
176
     1
173
     0
176
     1
  0
VISUALSTYLE
  5
31
102
{ACAD_REACTORS
330
2A
102
}
330
2A
100
AcDbVisualStyle
  2
3D Hidden
 70
     6
177
     2
291
     0
 71
     1
176
     1
 72
     2
176
     1
 73
     2
176
     1
 90
        0
176
     1
 40
-0.6
176
     1
 41
-30.0
176
     1
 62
     5
 63
     7
421
 16777215
176
     1
 74
     2
176
     1
 91
        2
176
     1
 64
     7
176
     1
 65
   257
176
     1
 75
     2
176
     1
175
     1
176
     1
 42
40.0
176
     1
 92
        0
176
     1
 66
   257
176
     1
 43
1.0
176
     1
 76
     1
176
     1
 77
     6
176
     1
 78
     2
176
     1
 67
     7
176
     1
 79
     3
176
     1
170
     0
176
     1
171
     0
176
     1
290
     0
176
     1
 93
        1
176
     1
 44
0.0
176
     1
173
     0
176
     1
  0
VISUALSTYLE
  5
30
102
{ACAD_REACTORS
330
2A
102
}
330
2A
100
AcDbVisualStyle
  2
3dWireframe
 70
     5
177
     2
291
     0
 71
     0
176
     1
 72
     2
176
     1
 73
     0
176
     1
 90
        0
176
     1
 40
-0.6
176
     1
 41
-30.0
176
     1
 62
     5
 63
     7
421
 16777215
176
     1
 74
     1
176
     1
 91
        4
176
     1
 64
     7
176
     1
 65
   257
176
     1
 75
     1
176
     1
175
     1
176
     1
 42
1.0
176
     1
 92
        0
176
     1
 66
   257
176
     1
 43
1.0
176
     1
 76
     1
176
     1
 77
     6
176
     1
 78
     2
176
     1
 67
     7
176
     1
 79
     5
176
     1
170
     0
176
     1
171
     0
176
     1
290
     0
176
     1
 93
        1
176
     1
 44
0.0
176
     1
173
     0
176
     1
  0
VISUALSTYLE
  5
32
102
{ACAD_REACTORS
330
2A
102
}
330
2A
100
AcDbVisualStyle
  2
Basic
 70
     7
177
     2
291
     1
 71
     1
176
     1
 72
     0
176
     1
 73
     1
176
     1
 90
        0
176
     1
 40
-0.6
176
     1
 41
-30.0
176
     1
 62
     5
 63
     7
421
 16777215
176
     1
 74
     0
176
     1
 91
        4
176
     1
 64
     7
176
     1
 65
   257
176
     1
 75
     1
176
     1
175
     1
176
     1
 42
1.0
176
     1
 92
        8
176
     1
 66
     7
176
     1
 43
1.0
176
     1
 76
     1
176
     1
 77
     6
176
     1
 78
     2
176
     1
 67
     7
176
     1
 79
     5
176
     1
170
     0
176
     1
171
     0
176
     1
290
     0
176
     1
 93
        1
176
     1
 44
0.0
176
     1
173
     0
176
     1
  0
VISUALSTYLE
  5
36
102
{ACAD_REACTORS
330
2A
102
}
330
2A
100
AcDbVisualStyle
  2
Brighten
 70
    12
177
     2
291
     1
 71
     2
176
     1
 72
     2
176
     1
 73
     0
176
     1
 90
        0
176
     1
 40
-0.6
176
     1
 41
-30.0
176
     1
 62
     5
 63
     7
421
 16777215
176
     1
 74
     1
176
     1
 91
        4
176
     1
 64
     7
176
     1
 65
   257
176
     1
 75
     1
176
     1
175
     1
176
     1
 42
1.0
176
     1
 92
        8
176
     1
 66
     7
176
     1
 43
1.0
176
     1
 76
     1
176
     1
 77
     6
176
     1
 78
     2
176
     1
 67
     7
176
     1
 79
     5
176
     1
170
     0
176
     1
171
     0
176
     1
290
     0
176
     1
 93
        1
176
     1
 44
50.0
176
     1
173
     0
176
     1
  0
VISUALSTYLE
  5
3A
102
{ACAD_REACTORS
330
2A
102
}
330
2A
100
AcDbVisualStyle
  2
ColorChange
 70
    16
177
     2
291
     1
 71
     2
176
     1
 72
     2
176
     1
 73
     3
176
     1
 90
        0
176
     1
 40
-0.6
176
     1
 41
-30.0
176
     1
 62
     5
 63
     8
421
  8421504
176
     1
 74
     1
176
     1
 91
        4
176
     1
 64
     7
176
     1
 65
   257
176
     1
 75
     1
176
     1
175
     1
176
     1
 42
1.0
176
     1
 92
        8
176
     1
 66
     8
424
  8421504
176
     1
 43
1.0
176
     1
 76
     1
176
     1
 77
     6
176
     1
 78
     2
176
     1
 67
     7
176
     1
 79
     5
176
     1
170
     0
176
     1
171
     0
176
     1
290
     0
176
     1
 93
        1
176
     1
 44
0.0
176
     1
173
     0
176
     1
  0
VISUALSTYLE
  5
34
102
{ACAD_REACTORS
330
2A
102
}
330
2A
100
AcDbVisualStyle
  2
Conceptual
 70
     9
177
     2
291
     0
 71
     3
176
     1
 72
     2
176
     1
 73
     0
176
     1
 90
        0
176
     1
 40
-0.6
176
     1
 41
-30.0
176
     1
 62
     5
 63
     7
421
 16777215
176
     1
 74
     2
176
     1
 91
        2
176
     1
 64
     7
176
     1
 65
   257
176
     1
 75
     1
176
     1
175
     1
176
     1
 42
40.0
176
     1
 92
        8
176
     1
 66
     7
176
     1
 43
1.0
176
     1
 76
     1
176
     1
 77
     6
176
     1
 78
     2
176
     1
 67
     7
176
     1
 79
     3
176
     1
170
     0
176
     1
171
     0
176
     1
290
     0
176
     1
 93
        1
176
     1
 44
0.0
176
     1
173
     0
176
     1
  0
VISUALSTYLE
  5
35
102
{ACAD_REACTORS
330
2A
102
}
330
2A
100
AcDbVisualStyle
  2
Dim
 70
    11
177
     2
291
     1
 71
     2
176
     1
 72
     2
176
     1
 73
     0
176
     1
 90
        0
176
     1
 40
-0.6
176
     1
 41
-30.0
176
     1
 62
     5
 63
     7
421
 16777215
176
     1
 74
     1
176
     1
 91
        4
176
     1
 64
     7
176
     1
 65
   257
176
     1
 75
     1
176
     1
175
     1
176
     1
 42
1.0
176
     1
 92
        8
176
     1
 66
     7
176
     1
 43
1.0
176
     1
 76
     1
176
     1
 77
     6
176
     1
 78
     2
176
     1
 67
     7
176
     1
 79
     5
176
     1
170
     0
176
     1
171
     0
176
     1
290
     0
176
     1
 93
        1
176
     1
 44
-50.0
176
     1
173
     0
176
     1
  0
VISUALSTYLE
  5
39
102
{ACAD_REACTORS
330
2A
102
}
330
2A
100
AcDbVisualStyle
  2
Facepattern
 70
    15
177
     2
291
     1
 71
     2
176
     1
 72
     2
176
     1
 73
     0
176
     1
 90
        0
176
     1
 40
-0.6
176
     1
 41
-30.0
176
     1
 62
     5
 63
     7
421
 16777215
176
     1
 74
     1
176
     1
 91
        4
176
     1
 64
     7
176
     1
 65
   257
176
     1
 75
     1
176
     1
175
     1
176
     1
 42
1.0
176
     1
 92
        8
176
     1
 66
     7
176
     1
 43
1.0
176
     1
 76
     1
176
     1
 77
     6
176
     1
 78
     2
176
     1
 67
     7
176
     1
 79
     5
176
     1
170
     0
176
     1
171
     0
176
     1
290
     0
176
     1
 93
        1
176
     1
 44
0.0
176
     1
173
     0
176
     1
  0
VISUALSTYLE
  5
2B
102
{ACAD_REACTORS
330
2A
102
}
330
2A
100
AcDbVisualStyle
  2
Flat
 70
     0
177
     2
291
     1
 71
     2
176
     1
 72
     1
176
     1
 73
     1
176
     1
 90
        2
176
     1
 40
-0.6
176
     1
 41
30.0
176
     1
 62
     5
 63
     7
421
 16777215
176
     1
 74
     0
176
     1
 91
        4
176
     1
 64
     7
176
     1
 65
   257
176
     1
 75
     1
176
     1
175
     1
176
     1
 42
1.0
176
     1
 92
        8
176
     1
 66
     7
176
     1
 43
1.0
176
     1
 76
     1
176
     1
 77
     6
176
     1
 78
     2
176
     1
 67
     7
176
     1
 79
     5
176
     1
170
     0
176
     1
171
     0
176
     1
290
     0
176
     1
 93
       13
176
     1
 44
0.0
176
     1
173
     0
176
     1
  0
VISUALSTYLE
  5
2C
102
{ACAD_REACTORS
330
2A
102
}
330
2A
100
AcDbVisualStyle
  2
FlatWithEdges
 70
     1
177
     2
291
     1
 71
     2
176
     1
 72
     1
176
     1
 73
     1
176
     1
 90
        2
176
     1
 40
-0.6
176
     1
 41
30.0
176
     1
 62
     5
 63
     7
421
 16777215
176
     1
 74
     1
176
     1
 91
        4
176
     1
 64
     7
176
     1
 65
   257
176
     1
 75
     1
176
     1
175
     1
176
     1
 42
1.0
176
     1
 92
        0
176
     1
 66
   257
176
     1
 43
1.0
176
     1
 76
     1
176
     1
 77
     6
176
     1
 78
     2
176
     1
 67
     7
176
     1
 79
     5
176
     1
170
     0
176
     1
171
     0
176
     1
290
     0
176
     1
 93
       13
176
     1
 44
0.0
176
     1
173
     0
176
     1
  0
VISUALSTYLE
  5
2D
102
{ACAD_REACTORS
330
2A
102
}
330
2A
100
AcDbVisualStyle
  2
Gouraud
 70
     2
177
     2
291
     1
 71
     2
176
     1
 72
     2
176
     1
 73
     1
176
     1
 90
        2
176
     1
 40
-0.6
176
     1
 41
30.0
176
     1
 62
     5
 63
     7
421
 16777215
176
     1
 74
     0
176
     1
 91
        4
176
     1
 64
     7
176
     1
 65
   257
176
     1
 75
     1
176
     1
175
     1
176
     1
 42
1.0
176
     1
 92
        0
176
     1
 66
     7
176
     1
 43
1.0
176
     1
 76
     1
176
     1
 77
     6
176
     1
 78
     2
176
     1
 67
     7
176
     1
 79
     5
176
     1
170
     0
176
     1
171
     0
176
     1
290
     0
176
     1
 93
       13
176
     1
 44
0.0
176
     1
173
     0
176
     1
  0
VISUALSTYLE
  5
2E
102
{ACAD_REACTORS
330
2A
102
}
330
2A
100
AcDbVisualStyle
  2
GouraudWithEdges
 70
     3
177
     2
291
     1
 71
     2
176
     1
 72
     2
176
     1
 73
     1
176
     1
 90
        2
176
     1
 40
-0.6
176
     1
 41
30.0
176
     1
 62
     5
 63
     7
421
 16777215
176
     1
 74
     1
176
     1
 91
        4
176
     1
 64
     7
176
     1
 65
   257
176
     1
 75
     1
176
     1
175
     1
176
     1
 42
1.0
176
     1
 92
        0
176
     1
 66
   257
176
     1
 43
1.0
176
     1
 76
     1
176
     1
 77
     6
176
     1
 78
     2
176
     1
 67
     7
176
     1
 79
     5
176
     1
170
     0
176
     1
171
     0
176
     1
290
     0
176
     1
 93
       13
176
     1
 44
0.0
176
     1
173
     0
176
     1
  0
VISUALSTYLE
  5
38
102
{ACAD_REACTORS
330
2A
102
}
330
2A
100
AcDbVisualStyle
  2
Linepattern
 70
    14
177
     2
291
     1
 71
     2
176
     1
 72
     2
176
     1
 73
     0
176
     1
 90
        0
176
     1
 40
-0.6
176
     1
 41
-30.0
176
     1
 62
     5
 63
     7
421
 16777215
176
     1
 74
     1
176
     1
 91
        4
176
     1
 64
     7
176
     1
 65
   257
176
     1
 75
     7
176
     1
175
     7
176
     1
 42
1.0
176
     1
 92
        8
176
     1
 66
     7
176
     1
 43
1.0
176
     1
 76
     1
176
     1
 77
     6
176
     1
 78
     2
176
     1
 67
     7
176
     1
 79
     5
176
     1
170
     0
176
     1
171
     0
176
     1
290
     0
176
     1
 93
        1
176
     1
 44
0.0
176
     1
173
     0
176
     1
  0
VISUALSTYLE
  5
33
102
{ACAD_REACTORS
330
2A
102
}
330
2A
100
AcDbVisualStyle
  2
Realistic
 70
     8
177
     2
291
     0
 71
     2
176
     1
 72
     2
176
     1
 73
     0
176
     1
 90
        0
176
     1
 40
-0.6
176
     1
 41
-30.0
176
     1
 62
     5
 63
     7
421
 16777215
176
     1
 74
     1
176
     1
 91
        0
176
     1
 64
     7
176
     1
 65
   257
176
     1
 75
     1
176
     1
175
     1
176
     1
 42
1.0
176
     1
 92
        8
176
     1
 66
     8
424
  7895160
176
     1
 43
1.0
176
     1
 76
     1
176
     1
 77
     6
176
     1
 78
     2
176
     1
 67
     7
176
     1
 79
     5
176
     1
170
     0
176
     1
171
     0
176
     1
290
     0
176
     1
 93
       13
176
     1
 44
0.0
176
     1
173
     0
176
     1
  0
VISUALSTYLE
  5
37
102
{ACAD_REACTORS
330
2A
102
}
330
2A
100
AcDbVisualStyle
  2
Thicken
 70
    13
177
     2
291
     1
 71
     2
176
     1
 72
     2
176
     1
 73
     0
176
     1
 90
        0
176
     1
 40
-0.6
176
     1
 41
-30.0
176
     1
 62
     5
 63
     7
421
 16777215
176
     1
 74
     1
176
     1
 91
        4
176
     1
 64
     7
176
     1
 65
   257
176
     1
 75
     1
176
     1
175
     1
176
     1
 42
1.0
176
     1
 92
       12
176
     1
 66
     7
176
     1
 43
1.0
176
     1
 76
     1
176
     1
 77
     6
176
     1
 78
     2
176
     1
 67
     7
176
     1
 79
     5
176
     1
170
     0
176
     1
171
     0
176
     1
290
     0
176
     1
 93
        1
176
     1
 44
0.0
176
     1
173
     0
176
     1
  0
ENDSEC
  0
EOF
