  0
SECTION
  2
HEADER
  9
$ACADVER
  1
AC1024
  9
$ACADMAINTVER
 70
     6
  9
$DWGCODEPAGE
  3
UNDEFINED
  9
$INSBASE
 10
0.0
 20
0.0
 30
0.0
  9
$EXTMIN
 10
1.000000000000000E+20
 20
1.000000000000000E+20
 30
1.000000000000000E+20
  9
$EXTMAX
 10
-1.000000000000000E+20
 20
-1.000000000000000E+20
 30
-1.000000000000000E+20
  9
$LIMMIN
 10
0.0
 20
0.0
  9
$LIMMAX
 10
12.0
 20
9.0
  9
$ORTHOMODE
 70
     0
  9
$REGENMODE
 70
     1
  9
$FILLMODE
 70
     1
  9
$QTEXTMODE
 70
     0
  9
$MIRRTEXT
 70
     1
  9
$LTSCALE
 40
1.0
  9
$ATTMODE
 70
     1
  9
$TEXTSIZE
 40
0.2
  9
$TRACEWID
 40
0.05
  9
$TEXTSTYLE
  7
Standard
  9
$CLAYER
  8
0
  9
$CELTYPE
  6
ByLayer
  9
$CECOLOR
 62
   256
  9
$CELTSCALE
 40
1.0
  9
$DISPSILH
 70
     0
  9
$DIMSCALE
 40
1.0
  9
$DIMASZ
 40
0.18
  9
$DIMEXO
 40
0.0625
  9
$DIMDLI
 40
0.38
  9
$DIMRND
 40
0.0
  9
$DIMDLE
 40
0.0
  9
$DIMEXE
 40
0.18
  9
$DIMTP
 40
0.0
  9
$DIMTM
 40
0.0
  9
$DIMTXT
 40
0.18
  9
$DIMCEN
 40
0.09
  9
$DIMTSZ
 40
0.0
  9
$DIMTOL
 70
     0
  9
$DIMLIM
 70
     0
  9
$DIMTIH
 70
     1
  9
$DIMTOH
 70
     1
  9
$DIMSE1
 70
     0
  9
$DIMSE2
 70
     0
  9
$DIMTAD
 70
     0
  9
$DIMZIN
 70
     0
  9
$DIMBLK
  1

  9
$DIMASO
 70
     1
  9
$DIMSHO
 70
     1
  9
$DIMPOST
  1

  9
$DIMAPOST
  1

  9
$DIMALT
 70
     0
  9
$DIMALTD
 70
     2
  9
$DIMALTF
 40
25.4
  9
$DIMLFAC
 40
1.0
  9
$DIMTOFL
 70
     0
  9
$DIMTVP
 40
0.0
  9
$DIMTIX
 70
     0
  9
$DIMSOXD
 70
     0
  9
$DIMSAH
 70
     0
  9
$DIMBLK1
  1

  9
$DIMBLK2
  1

  9
$DIMSTYLE
  2
Standard
  9
$DIMCLRD
 70
     0
  9
$DIMCLRE
 70
     0
  9
$DIMCLRT
 70
     0
  9
$DIMTFAC
 40
1.0
  9
$DIMGAP
 40
0.09
  9
$DIMJUST
 70
     0
  9
$DIMSD1
 70
     0
  9
$DIMSD2
 70
     0
  9
$DIMTOLJ
 70
     1
  9
$DIMTZIN
 70
     0
  9
$DIMALTZ
 70
     0
  9
$DIMALTTZ
 70
     0
  9
$DIMUPT
 70
     0
  9
$DIMDEC
 70
     4
  9
$DIMTDEC
 70
     4
  9
$DIMALTU
 70
     2
  9
$DIMALTTD
 70
     2
  9
$DIMTXSTY
  7
Standard
  9
$DIMAUNIT
 70
     0
  9
$DIMADEC
 70
     0
  9
$DIMALTRND
 40
0.0
  9
$DIMAZIN
 70
     0
  9
$DIMDSEP
 70
    46
  9
$DIMATFIT
 70
     3
  9
$DIMFRAC
 70
     0
  9
$DIMLDRBLK
  1

  9
$DIMLUNIT
 70
     2
  9
$DIMLWD
 70
    -2
  9
$DIMLWE
 70
    -2
  9
$DIMTMOVE
 70
     0
  9
$DIMFXL
 40
1.0
  9
$DIMFXLON
 70
     0
  9
$DIMJOGANG
 40
0.7853981633974483
  9
$DIMTFILL
 70
     0
  9
$DIMTFILLCLR
 70
     0
  9
$DIMARCSYM
 70
     0
  9
$DIMLTYPE
  6

  9
$DIMLTEX1
  6

  9
$DIMLTEX2
  6

  9
$DIMTXTDIRECTION
 70
     0
  9
$LUNITS
 70
     2
  9
$LUPREC
 70
     4
  9
$SKETCHINC
 40
0.1
  9
$FILLETRAD
 40
0.5
  9
$AUNITS
 70
     0
  9
$AUPREC
 70
     0
  9
$MENU
  1
.
  9
$ELEVATION
 40
0.0
  9
$PELEVATION
 40
0.0
  9
$THICKNESS
 40
0.0
  9
$LIMCHECK
 70
     0
  9
$CHAMFERA
 40
0.5
  9
$CHAMFERB
 40
0.5
  9
$CHAMFERC
 40
1.0
  9
$CHAMFERD
 40
0.0
  9
$SKPOLY
 70
     0
  9
$TDCREATE
 40
2457917.627835636
  9
$TDUCREATE
 40
2457917.252835648
  9
$TDUPDATE
 40
2457917.627835636
  9
$TDUUPDATE
 40
2457917.252835648
  9
$TDINDWG
 40
0.0000000116
  9
$TDUSRTIMER
 40
0.0000000116
  9
$USRTIMER
 70
     1
  9
$ANGBASE
 50
0.0
  9
$ANGDIR
 70
     0
  9
$PDMODE
 70
     0
  9
$PDSIZE
 40
0.0
  9
$PLINEWID
 40
0.0
  9
$SPLFRAME
 70
     0
  9
$SPLINETYPE
 70
     6
  9
$SPLINESEGS
 70
     8
  9
$HANDSEED
  5
FC
  9
$SURFTAB1
 70
     6
  9
$SURFTAB2
 70
     6
  9
$SURFTYPE
 70
     6
  9
$SURFU
 70
     6
  9
$SURFV
 70
     6
  9
$UCSBASE
  2

  9
$UCSNAME
  2

  9
$UCSORG
 10
0.0
 20
0.0
 30
0.0
  9
$UCSXDIR
 10
1.0
 20
0.0
 30
0.0
  9
$UCSYDIR
 10
0.0
 20
1.0
 30
0.0
  9
$UCSORTHOREF
  2

  9
$UCSORTHOVIEW
 70
     0
  9
$UCSORGTOP
 10
0.0
 20
0.0
 30
0.0
  9
$UCSORGBOTTOM
 10
0.0
 20
0.0
 30
0.0
  9
$UCSORGLEFT
 10
0.0
 20
0.0
 30
0.0
  9
$UCSORGRIGHT
 10
0.0
 20
0.0
 30
0.0
  9
$UCSORGFRONT
 10
0.0
 20
0.0
 30
0.0
  9
$UCSORGBACK
 10
0.0
 20
0.0
 30
0.0
  9
$PUCSBASE
  2

  9
$PUCSNAME
  2

  9
$PUCSORG
 10
0.0
 20
0.0
 30
0.0
  9
$PUCSXDIR
 10
1.0
 20
0.0
 30
0.0
  9
$PUCSYDIR
 10
0.0
 20
1.0
 30
0.0
  9
$PUCSORTHOREF
  2

  9
$PUCSORTHOVIEW
 70
     0
  9
$PUCSORGTOP
 10
0.0
 20
0.0
 30
0.0
  9
$PUCSORGBOTTOM
 10
0.0
 20
0.0
 30
0.0
  9
$PUCSORGLEFT
 10
0.0
 20
0.0
 30
0.0
  9
$PUCSORGRIGHT
 10
0.0
 20
0.0
 30
0.0
  9
$PUCSORGFRONT
 10
0.0
 20
0.0
 30
0.0
  9
$PUCSORGBACK
 10
0.0
 20
0.0
 30
0.0
  9
$USERI1
 70
     0
  9
$USERI2
 70
     0
  9
$USERI3
 70
     0
  9
$USERI4
 70
     0
  9
$USERI5
 70
     0
  9
$USERR1
 40
0.0
  9
$USERR2
 40
0.0
  9
$USERR3
 40
0.0
  9
$USERR4
 40
0.0
  9
$USERR5
 40
0.0
  9
$WORLDVIEW
 70
     1
  9
$SHADEDGE
 70
     3
  9
$SHADEDIF
 70
    70
  9
$TILEMODE
 70
     1
  9
$MAXACTVP
 70
    64
  9
$PINSBASE
 10
0.0
 20
0.0
 30
0.0
  9
$PLIMCHECK
 70
     0
  9
$PEXTMIN
 10
1.000000000000000E+20
 20
1.000000000000000E+20
 30
1.000000000000000E+20
  9
$PEXTMAX
 10
-1.000000000000000E+20
 20
-1.000000000000000E+20
 30
-1.000000000000000E+20
  9
$PLIMMIN
 10
0.0
 20
0.0
  9
$PLIMMAX
 10
12.0
 20
9.0
  9
$UNITMODE
 70
     0
  9
$VISRETAIN
 70
     1
  9
$PLINEGEN
 70
     0
  9
$PSLTSCALE
 70
     1
  9
$TREEDEPTH
 70
  3020
  9
$CMLSTYLE
  2
Standard
  9
$CMLJUST
 70
     0
  9
$CMLSCALE
 40
1.0
  9
$PROXYGRAPHICS
 70
     1
  9
$MEASUREMENT
 70
     0
  9
$CELWEIGHT
370
    -1
  9
$ENDCAPS
280
     0
  9
$JOINSTYLE
280
     0
  9
$LWDISPLAY
290
     1
  9
$INSUNITS
 70
     1
  9
$HYPERLINKBASE
  1

  9
$STYLESHEET
  1

  9
$XEDIT
290
     1
  9
$CEPSNTYPE
380
     0
  9
$PSTYLEMODE
290
     1
  9
$FINGERPRINTGUID
  2
{2C03F7AE-A25A-97E2-49BE-6FC99DB2BD52}
  9
$VERSIONGUID
  2
{FAEB1C32-E019-11D5-929B-00C0DF256EC4}
  9
$EXTNAMES
290
     1
  9
$PSVPSCALE
 40
0.0
  9
$OLESTARTUP
290
     0
  9
$SORTENTS
280
   127
  9
$INDEXCTL
280
     0
  9
$HIDETEXT
280
     1
  9
$XCLIPFRAME
280
     2
  9
$HALOGAP
280
     0
  9
$OBSCOLOR
 70
   257
  9
$OBSLTYPE
280
     0
  9
$INTERSECTIONDISPLAY
280
     0
  9
$INTERSECTIONCOLOR
 70
   257
  9
$DIMASSOC
280
     2
  9
$PROJECTNAME
  1

  9
$CAMERADISPLAY
290
     0
  9
$LENSLENGTH
 40
50.0
  9
$CAMERAHEIGHT
 40
0.0
  9
$STEPSPERSEC
 40
2.0
  9
$STEPSIZE
 40
6.0
  9
$3DDWFPREC
 40
2.0
  9
$PSOLWIDTH
 40
0.25
  9
$PSOLHEIGHT
 40
4.0
  9
$LOFTANG1
 40
1.570796326794897
  9
$LOFTANG2
 40
1.570796326794897
  9
$LOFTMAG1
 40
0.0
  9
$LOFTMAG2
 40
0.0
  9
$LOFTPARAM
 70
     7
  9
$LOFTNORMALS
280
     1
  9
$LATITUDE
 40
37.795
  9
$LONGITUDE
 40
-122.394
  9
$NORTHDIRECTION
 40
0.0
  9
$TIMEZONE
 70
 -8000
  9
$LIGHTGLYPHDISPLAY
280
     1
  9
$TILEMODELIGHTSYNCH
280
     1
  9
$CMATERIAL
347
3C
  9
$SOLIDHIST
280
     1
  9
$SHOWHIST
280
     1
  9
$DWFFRAME
280
     2
  9
$DGNFRAME
280
     2
  9
$REALWORLDSCALE
290
     1
  9
$INTERFERECOLOR
 62
   256
  9
$CSHADOW
280
     0
  9
$SHADOWPLANELOCATION
 40
0.0
  0
ENDSEC
  0
SECTION
  2
CLASSES
  0
CLASS
  1
ACDBDICTIONARYWDFLT
  2
AcDbDictionaryWithDefault
  3
ObjectDBX Classes
 90
        0
 91
        4
280
     0
281
     0
  0
CLASS
  1
VISUALSTYLE
  2
AcDbVisualStyle
  3
ObjectDBX Classes
 90
     4095
 91
        4
280
     0
281
     0
  0
CLASS
  1
MATERIAL
  2
AcDbMaterial
  3
ObjectDBX Classes
 90
     1153
 91
        4
280
     0
281
     0
  0
CLASS
  1
SUN
  2
AcDbSun
  3
SCENEOE
 90
     1024
 91
        4
280
     0
281
     0
  0
ENDSEC
  0
SECTION
  2
TABLES
  0
TABLE
  2
VPORT
  5
8
330
0
100
AcDbSymbolTable
 70
     1
  0
VPORT
  5
29
330
8
100
AcDbSymbolTableRecord
100
AcDbViewportTableRecord
  2
*Active
 70
     0
 10
0.0
 20
0.0
 11
1.0
 21
1.0
 12
0.0
 22
0.0
 13
0.0
 23
0.0
 14
0.5
 24
0.5
 15
0.5
 25
0.5
 16
0.0
 26
0.0
 36
1.0
 17
91.00082462281999
 27
-128.4993055234307
 37
0.0
 40
256.9986110468615
 41
0.7081814508812795
 42
50.0
 43
0.0
 44
0.0
 50
0.0
 51
0.0
 71
     0
 72
   100
 73
     1
 74
     3
 75
     0
 76
     0
 77
     0
 78
     0
281
     0
 65
     1
110
0.0
120
0.0
130
0.0
111
1.0
121
0.0
131
0.0
112
0.0
122
1.0
132
0.0
 79
     0
146
0.0
 60
     3
 61
     5
292
     1
282
     1
141
0.0
142
0.0
 63
   250
361
3F
  0
ENDTAB
  0
TABLE
  2
LTYPE
  5
5
330
0
100
AcDbSymbolTable
 70
     1
  0
LTYPE
  5
14
330
5
100
AcDbSymbolTableRecord
100
AcDbLinetypeTableRecord
  2
ByBlock
 70
     0
  3

 72
    65
 73
     0
 40
0.0
  0
LTYPE
  5
15
330
5
100
AcDbSymbolTableRecord
100
AcDbLinetypeTableRecord
  2
ByLayer
 70
     0
  3

 72
    65
 73
     0
 40
0.0
  0
LTYPE
  5
16
330
5
100
AcDbSymbolTableRecord
100
AcDbLinetypeTableRecord
  2
Continuous
 70
     0
  3
Solid line
 72
    65
 73
     0
 40
0.0
  0
ENDTAB
  0
TABLE
  2
LAYER
  5
2
330
0
100
AcDbSymbolTable
 70
     2
  0
LAYER
  5
10
330
2
100
AcDbSymbolTableRecord
100
AcDbLayerTableRecord
  2
0
 70
     0
 62
     7
  6
Continuous
370
    -3
390
F
347
3E
  0
LAYER
  5
40
330
2
100
AcDbSymbolTableRecord
100
AcDbLayerTableRecord
  2
_U+30EC_U+30A4_U+30E4_U+30FC 1
 70
     0
 62
     7
  6
Continuous
370
    -3
390
F
347
3E
  0
ENDTAB
  0
TABLE
  2
STYLE
  5
3
330
0
100
AcDbSymbolTable
 70
     1
  0
STYLE
  5
11
330
3
100
AcDbSymbolTableRecord
100
AcDbTextStyleTableRecord
  2
Standard
 70
     0
 40
0.0
 41
1.0
 50
0.0
 71
     0
 42
0.2
  3
txt
  4

  0
ENDTAB
  0
TABLE
  2
VIEW
  5
6
330
0
100
AcDbSymbolTable
 70
     0
  0
ENDTAB
  0
TABLE
  2
UCS
  5
7
330
0
100
AcDbSymbolTable
 70
     0
  0
ENDTAB
  0
TABLE
  2
APPID
  5
9
330
0
100
AcDbSymbolTable
 70
     1
  0
APPID
  5
12
330
9
100
AcDbSymbolTableRecord
100
AcDbRegAppTableRecord
  2
ACAD
 70
     0
  0
ENDTAB
  0
TABLE
  2
DIMSTYLE
  5
A
330
0
100
AcDbSymbolTable
 70
     1
100
AcDbDimStyleTable
  0
DIMSTYLE
105
27
330
A
100
AcDbSymbolTableRecord
100
AcDbDimStyleTableRecord
  2
Standard
 70
     0
178
     0
340
11
  0
ENDTAB
  0
TABLE
  2
BLOCK_RECORD
  5
1
330
0
100
AcDbSymbolTable
 70
     5
  0
BLOCK_RECORD
  5
1F
330
1
100
AcDbSymbolTableRecord
100
AcDbBlockTableRecord
  2
*Model_Space
340
22
 70
     0
280
     1
281
     0
  0
BLOCK_RECORD
  5
1B
330
1
100
AcDbSymbolTableRecord
100
AcDbBlockTableRecord
  2
*Paper_Space
340
1E
 70
     0
280
     1
281
     0
  0
BLOCK_RECORD
  5
23
330
1
100
AcDbSymbolTableRecord
100
AcDbBlockTableRecord
  2
*Paper_Space0
340
26
 70
     0
280
     1
281
     0
  0
BLOCK_RECORD
  5
9C
330
1
100
AcDbSymbolTableRecord
100
AcDbBlockTableRecord
  2
block 2
340
0
102
{BLKREFS
331
9D
102
}
 70
     0
280
     1
281
     0
  0
BLOCK_RECORD
  5
B5
330
1
100
AcDbSymbolTableRecord
100
AcDbBlockTableRecord
  2
block 3
340
0
102
{BLKREFS
331
B6
102
}
 70
     0
280
     1
281
     0
  0
BLOCK_RECORD
  5
CC
330
1
100
AcDbSymbolTableRecord
100
AcDbBlockTableRecord
  2
block 4
340
0
102
{BLKREFS
331
CD
102
}
 70
     0
280
     1
281
     0
  0
BLOCK_RECORD
  5
EF
330
1
100
AcDbSymbolTableRecord
100
AcDbBlockTableRecord
  2
block 5
340
0
102
{BLKREFS
331
F0
102
}
 70
     0
280
     1
281
     0
  0
ENDTAB
  0
ENDSEC
  0
SECTION
  2
BLOCKS
  0
BLOCK
  5
20
330
1F
100
AcDbEntity
  8
0
100
AcDbBlockBegin
  2
*Model_Space
 70
     0
 10
0.0
 20
0.0
 30
0.0
  3
*Model_Space
  1

  0
ENDBLK
  5
21
330
1F
100
AcDbEntity
  8
0
100
AcDbBlockEnd
  0
BLOCK
  5
1C
330
1B
100
AcDbEntity
 67
     1
  8
0
100
AcDbBlockBegin
  2
*Paper_Space
 70
     0
 10
0.0
 20
0.0
 30
0.0
  3
*Paper_Space
  1

  0
ENDBLK
  5
1D
330
1B
100
AcDbEntity
 67
     1
  8
0
100
AcDbBlockEnd
  0
BLOCK
  5
24
330
23
100
AcDbEntity
  8
0
100
AcDbBlockBegin
  2
*Paper_Space0
 70
     0
 10
0.0
 20
0.0
 30
0.0
  3
*Paper_Space0
  1

  0
ENDBLK
  5
25
330
23
100
AcDbEntity
  8
0
100
AcDbBlockEnd
  0
BLOCK
  5
9E
330
9C
100
AcDbEntity
  8
0
100
AcDbBlockBegin
  2
block 2
 70
     0
 10
0.0
 20
0.0
 30
0.0
  3
block 2
  1

  0
SPLINE
  5
A0
330
9C
100
AcDbEntity
  8
_U+30EC_U+30A4_U+30E4_U+30FC 1
370
     0
100
AcDbSpline
210
0.0
220
0.0
230
1.0
 70
    11
 71
     3
 72
    32
 73
    28
 74
     0
 42
0.0000000001
 43
0.0000000001
 12
1.0
 22
0.0
 32
0.0
 13
1.0
 23
0.0
 33
0.0
 40
0.0
 40
0.0
 40
0.0
 40
0.0
 40
1.0
 40
1.0
 40
1.0
 40
2.0
 40
2.0
 40
2.0
 40
3.0
 40
3.0
 40
3.0
 40
4.0
 40
4.0
 40
4.0
 40
5.0
 40
5.0
 40
5.0
 40
6.0
 40
6.0
 40
6.0
 40
7.0
 40
7.0
 40
7.0
 40
8.0
 40
8.0
 40
8.0
 40
9.0
 40
9.0
 40
9.0
 40
9.0
 10
82.40668400717611
 20
-132.9507133999221
 30
0.0
 10
82.40668400717611
 20
-133.4667887036125
 30
0.0
 10
81.8523681435994
 20
-133.4754014423256
 30
0.0
 10
81.63877222351393
 20
-133.4754014423256
 30
0.0
 10
81.40812308077645
 20
-133.4754014423256
 30
0.0
 10
80.76078963909801
 20
-133.4561089076082
 30
0.0
 10
80.76078963909801
 20
-132.9124728400358
 30
0.0
 10
80.76078963909801
 20
-132.7391845371277
 30
0.0
 10
80.8305528226743
 20
-132.4935492290294
 30
0.0
 10
81.16283228222666
 20
-132.4556531786916
 30
0.0
 10
81.16283228222666
 20
-132.4556531786916
 30
0.0
 10
81.16283228222666
 20
-132.6692490987771
 30
0.0
 10
81.16283228222666
 20
-132.6692490987771
 30
0.0
 10
81.10564369717152
 20
-132.6799288947814
 30
0.0
 10
80.95750459130576
 20
-132.7116237732457
 30
0.0
 10
80.95750459130576
 20
-132.9145398973269
 30
0.0
 10
80.95750459130576
 20
-133.2066839944761
 30
0.0
 10
81.28547768150155
 20
-133.246647102105
 30
0.0
 10
81.49063311764817
 20
-133.2593939554004
 30
0.0
 10
81.412429450133
 20
-133.1663763772987
 30
0.0
 10
81.3531738077867
 20
-133.0988525057878
 30
0.0
 10
81.3531738077867
 20
-132.9166069546181
 30
0.0
 10
81.3531738077867
 20
-132.736772970288
 30
0.0
 10
81.46100529647504
 20
-132.4342935866831
 30
0.0
 10
81.86718205418599
 20
-132.4342935866831
 30
0.0
 10
82.1867146604429
 20
-132.4342935866831
 30
0.0
 10
82.40668400717611
 20
-132.6334201057306
 30
0.0
 10
82.40668400717611
 20
-132.9507133999221
 30
0.0
  0
SPLINE
  5
A1
330
9C
100
AcDbEntity
  8
_U+30EC_U+30A4_U+30E4_U+30FC 1
370
     0
100
AcDbSpline
210
0.0
220
0.0
230
1.0
 70
    11
 71
     3
 72
    17
 73
    13
 74
     0
 42
0.0000000001
 43
0.0000000001
 12
1.0
 22
0.0
 32
0.0
 13
1.0
 23
0.0
 33
0.0
 40
0.0
 40
0.0
 40
0.0
 40
0.0
 40
1.0
 40
1.0
 40
1.0
 40
2.0
 40
2.0
 40
2.0
 40
3.0
 40
3.0
 40
3.0
 40
4.0
 40
4.0
 40
4.0
 40
4.0
 10
81.54782170270333
 20
-132.9338324320443
 30
0.0
 10
81.54782170270333
 20
-133.1960041984718
 30
0.0
 10
81.75935056549767
 20
-133.2342447583581
 30
0.0
 10
81.87562253812484
 20
-133.2342447583581
 30
0.0
 10
82.05132240787259
 20
-133.2342447583581
 30
0.0
 10
82.21410316955064
 20
-133.1388156134167
 30
0.0
 10
82.21410316955064
 20
-132.9548475145043
 30
0.0
 10
82.21410316955064
 20
-132.8342691725206
 30
0.0
 10
82.15484752720435
 20
-132.6585693027729
 30
0.0
 10
81.86924911147713
 20
-132.6585693027729
 30
0.0
 10
81.64514565016164
 20
-132.6585693027729
 30
0.0
 10
81.54782170270333
 20
-132.798440179474
 30
0.0
 10
81.54782170270333
 20
-132.9338324320443
 30
0.0
  0
HATCH
  5
A2
330
9C
100
AcDbEntity
  8
_U+30EC_U+30A4_U+30E4_U+30FC 1
 62
   179
420
  2234388
100
AcDbHatch
 10
0.0
 20
0.0
 30
0.0
210
0.0
220
0.0
230
1.0
  2
SOLID
 70
     1
 71
     0
 91
        2
 92
        1
 93
        1
 72
     4
 94
        3
 73
     0
 74
     1
 95
       32
 96
       28
 40
0.0
 40
0.0
 40
0.0
 40
0.0
 40
1.0
 40
1.0
 40
1.0
 40
2.0
 40
2.0
 40
2.0
 40
3.0
 40
3.0
 40
3.0
 40
4.0
 40
4.0
 40
4.0
 40
5.0
 40
5.0
 40
5.0
 40
6.0
 40
6.0
 40
6.0
 40
7.0
 40
7.0
 40
7.0
 40
8.0
 40
8.0
 40
8.0
 40
9.0
 40
9.0
 40
9.0
 40
9.0
 10
82.40668400717611
 20
-132.9507133999221
 10
82.40668400717611
 20
-133.4667887036125
 10
81.8523681435994
 20
-133.4754014423256
 10
81.63877222351393
 20
-133.4754014423256
 10
81.40812308077645
 20
-133.4754014423256
 10
80.76078963909801
 20
-133.4561089076082
 10
80.76078963909801
 20
-132.9124728400358
 10
80.76078963909801
 20
-132.7391845371277
 10
80.8305528226743
 20
-132.4935492290294
 10
81.16283228222666
 20
-132.4556531786916
 10
81.16283228222666
 20
-132.4556531786916
 10
81.16283228222666
 20
-132.6692490987771
 10
81.16283228222666
 20
-132.6692490987771
 10
81.10564369717152
 20
-132.6799288947814
 10
80.95750459130576
 20
-132.7116237732457
 10
80.95750459130576
 20
-132.9145398973269
 10
80.95750459130576
 20
-133.2066839944761
 10
81.28547768150155
 20
-133.246647102105
 10
81.49063311764817
 20
-133.2593939554004
 10
81.412429450133
 20
-133.1663763772987
 10
81.3531738077867
 20
-133.0988525057878
 10
81.3531738077867
 20
-132.9166069546181
 10
81.3531738077867
 20
-132.736772970288
 10
81.46100529647504
 20
-132.4342935866831
 10
81.86718205418599
 20
-132.4342935866831
 10
82.1867146604429
 20
-132.4342935866831
 10
82.40668400717611
 20
-132.6334201057306
 10
82.40668400717611
 20
-132.9507133999221
 97
        0
 97
        0
 92
        1
 93
        1
 72
     4
 94
        3
 73
     0
 74
     1
 95
       17
 96
       13
 40
0.0
 40
0.0
 40
0.0
 40
0.0
 40
1.0
 40
1.0
 40
1.0
 40
2.0
 40
2.0
 40
2.0
 40
3.0
 40
3.0
 40
3.0
 40
4.0
 40
4.0
 40
4.0
 40
4.0
 10
81.54782170270333
 20
-132.9338324320443
 10
81.54782170270333
 20
-133.1960041984718
 10
81.75935056549767
 20
-133.2342447583581
 10
81.87562253812484
 20
-133.2342447583581
 10
82.05132240787259
 20
-133.2342447583581
 10
82.21410316955064
 20
-133.1388156134167
 10
82.21410316955064
 20
-132.9548475145043
 10
82.21410316955064
 20
-132.8342691725206
 10
82.15484752720435
 20
-132.6585693027729
 10
81.86924911147713
 20
-132.6585693027729
 10
81.64514565016164
 20
-132.6585693027729
 10
81.54782170270333
 20
-132.798440179474
 10
81.54782170270333
 20
-132.9338324320443
 97
        0
 97
        0
 75
     2
 76
     1
 98
        0
  0
SPLINE
  5
A3
330
9C
100
AcDbEntity
  8
_U+30EC_U+30A4_U+30E4_U+30FC 1
370
     0
100
AcDbSpline
210
0.0
220
0.0
230
1.0
 70
    11
 71
     3
 72
    29
 73
    25
 74
     0
 42
0.0000000001
 43
0.0000000001
 12
1.0
 22
0.0
 32
0.0
 13
1.0
 23
0.0
 33
0.0
 40
0.0
 40
0.0
 40
0.0
 40
0.0
 40
1.0
 40
1.0
 40
1.0
 40
2.0
 40
2.0
 40
2.0
 40
3.0
 40
3.0
 40
3.0
 40
4.0
 40
4.0
 40
4.0
 40
5.0
 40
5.0
 40
5.0
 40
6.0
 40
6.0
 40
6.0
 40
7.0
 40
7.0
 40
7.0
 40
8.0
 40
8.0
 40
8.0
 40
8.0
 10
82.17827417650405
 20
-131.3800943681966
 30
0.0
 10
82.38756372723297
 20
-131.4882703664335
 30
0.0
 10
82.40668400717611
 20
-131.6615586693416
 30
0.0
 10
82.40668400717611
 20
-131.778002896743
 30
0.0
 10
82.40668400717611
 20
-131.9388888559042
 30
0.0
 10
82.36017521812524
 20
-132.080482280348
 30
0.0
 10
82.17827417650405
 20
-132.1755669157408
 30
0.0
 10
81.98362628158743
 20
-132.2792642898469
 30
0.0
 10
81.74660371220224
 20
-132.2985568245643
 30
0.0
 10
81.58382295052418
 20
-132.2985568245643
 30
0.0
 10
81.43981795924074
 20
-132.2985568245643
 30
0.0
 10
81.18815373404324
 20
-132.281331347138
 30
0.0
 10
80.98937172454433
 20
-132.1755669157408
 30
0.0
 10
80.78611109091459
 20
-132.0677354270525
 30
0.0
 10
80.76285669638915
 20
-131.9068494678914
 30
0.0
 10
80.76285669638915
 20
-131.778002896743
 30
0.0
 10
80.76285669638915
 20
-131.619183994873
 30
0.0
 10
80.80729842814887
 20
-131.4755235131381
 30
0.0
 10
80.98937172454433
 20
-131.3800943681966
 30
0.0
 10
81.18178030739553
 20
-131.2808756182214
 30
0.0
 10
81.41019013806759
 20
-131.2574489689218
 30
0.0
 10
81.58382295052418
 20
-131.2574489689218
 30
0.0
 10
81.7550441961411
 20
-131.2574489689218
 30
0.0
 10
81.98569333887858
 20
-131.2788085609303
 30
0.0
 10
82.17827417650405
 20
-131.3800943681966
 30
0.0
  0
SPLINE
  5
A4
330
9C
100
AcDbEntity
  8
_U+30EC_U+30A4_U+30E4_U+30FC 1
370
     0
100
AcDbSpline
210
0.0
220
0.0
230
1.0
 70
    11
 71
     3
 72
    17
 73
    13
 74
     0
 42
0.0000000001
 43
0.0000000001
 12
1.0
 22
0.0
 32
0.0
 13
1.0
 23
0.0
 33
0.0
 40
0.0
 40
0.0
 40
0.0
 40
0.0
 40
1.0
 40
1.0
 40
1.0
 40
2.0
 40
2.0
 40
2.0
 40
3.0
 40
3.0
 40
3.0
 40
4.0
 40
4.0
 40
4.0
 40
4.0
 10
80.95543753401462
 20
-131.778002896743
 30
0.0
 10
80.95543753401462
 20
-132.0277723194236
 30
0.0
 10
81.23896889245067
 20
-132.0742811084745
 30
0.0
 10
81.58382295052418
 20
-132.0742811084745
 30
0.0
 10
81.90318330200685
 20
-132.0742811084745
 30
0.0
 10
82.2120361122595
 20
-132.0381076058794
 30
0.0
 10
82.2120361122595
 20
-131.778002896743
 30
0.0
 10
82.2120361122595
 20
-131.5303005313535
 30
0.0
 10
81.93074406588885
 20
-131.4817246850115
 30
0.0
 10
81.58382295052418
 20
-131.4817246850115
 30
0.0
 10
81.26429034426727
 20
-131.4817246850115
 30
0.0
 10
80.95543753401462
 20
-131.5199652448978
 30
0.0
 10
80.95543753401462
 20
-131.778002896743
 30
0.0
  0
HATCH
  5
A5
330
9C
100
AcDbEntity
  8
_U+30EC_U+30A4_U+30E4_U+30FC 1
 62
   179
420
  2234388
100
AcDbHatch
 10
0.0
 20
0.0
 30
0.0
210
0.0
220
0.0
230
1.0
  2
SOLID
 70
     1
 71
     0
 91
        2
 92
        1
 93
        1
 72
     4
 94
        3
 73
     0
 74
     1
 95
       29
 96
       25
 40
0.0
 40
0.0
 40
0.0
 40
0.0
 40
1.0
 40
1.0
 40
1.0
 40
2.0
 40
2.0
 40
2.0
 40
3.0
 40
3.0
 40
3.0
 40
4.0
 40
4.0
 40
4.0
 40
5.0
 40
5.0
 40
5.0
 40
6.0
 40
6.0
 40
6.0
 40
7.0
 40
7.0
 40
7.0
 40
8.0
 40
8.0
 40
8.0
 40
8.0
 10
82.17827417650405
 20
-131.3800943681966
 10
82.38756372723297
 20
-131.4882703664335
 10
82.40668400717611
 20
-131.6615586693416
 10
82.40668400717611
 20
-131.778002896743
 10
82.40668400717611
 20
-131.9388888559042
 10
82.36017521812524
 20
-132.080482280348
 10
82.17827417650405
 20
-132.1755669157408
 10
81.98362628158743
 20
-132.2792642898469
 10
81.74660371220224
 20
-132.2985568245643
 10
81.58382295052418
 20
-132.2985568245643
 10
81.43981795924074
 20
-132.2985568245643
 10
81.18815373404324
 20
-132.281331347138
 10
80.98937172454433
 20
-132.1755669157408
 10
80.78611109091459
 20
-132.0677354270525
 10
80.76285669638915
 20
-131.9068494678914
 10
80.76285669638915
 20
-131.778002896743
 10
80.76285669638915
 20
-131.619183994873
 10
80.80729842814887
 20
-131.4755235131381
 10
80.98937172454433
 20
-131.3800943681966
 10
81.18178030739553
 20
-131.2808756182214
 10
81.41019013806759
 20
-131.2574489689218
 10
81.58382295052418
 20
-131.2574489689218
 10
81.7550441961411
 20
-131.2574489689218
 10
81.98569333887858
 20
-131.2788085609303
 10
82.17827417650405
 20
-131.3800943681966
 97
        0
 97
        0
 92
        1
 93
        1
 72
     4
 94
        3
 73
     0
 74
     1
 95
       17
 96
       13
 40
0.0
 40
0.0
 40
0.0
 40
0.0
 40
1.0
 40
1.0
 40
1.0
 40
2.0
 40
2.0
 40
2.0
 40
3.0
 40
3.0
 40
3.0
 40
4.0
 40
4.0
 40
4.0
 40
4.0
 10
80.95543753401462
 20
-131.778002896743
 10
80.95543753401462
 20
-132.0277723194236
 10
81.23896889245067
 20
-132.0742811084745
 10
81.58382295052418
 20
-132.0742811084745
 10
81.90318330200685
 20
-132.0742811084745
 10
82.2120361122595
 20
-132.0381076058794
 10
82.2120361122595
 20
-131.778002896743
 10
82.2120361122595
 20
-131.5303005313535
 10
81.93074406588885
 20
-131.4817246850115
 10
81.58382295052418
 20
-131.4817246850115
 10
81.26429034426727
 20
-131.4817246850115
 10
80.95543753401462
 20
-131.5199652448978
 10
80.95543753401462
 20
-131.778002896743
 97
        0
 97
        0
 75
     2
 76
     1
 98
        0
  0
ENDBLK
  5
9F
330
9C
100
AcDbEntity
  8
0
100
AcDbBlockEnd
  0
BLOCK
  5
B7
330
B5
100
AcDbEntity
  8
0
100
AcDbBlockBegin
  2
block 3
 70
     0
 10
0.0
 20
0.0
 30
0.0
  3
block 3
  1

  0
SPLINE
  5
B9
330
B5
100
AcDbEntity
  8
_U+30EC_U+30A4_U+30E4_U+30FC 1
370
     0
100
AcDbSpline
210
0.0
220
0.0
230
1.0
 70
    11
 71
     3
 72
    29
 73
    25
 74
     0
 42
0.0000000001
 43
0.0000000001
 12
1.0
 22
0.0
 32
0.0
 13
1.0
 23
0.0
 33
0.0
 40
0.0
 40
0.0
 40
0.0
 40
0.0
 40
1.0
 40
1.0
 40
1.0
 40
2.0
 40
2.0
 40
2.0
 40
3.0
 40
3.0
 40
3.0
 40
4.0
 40
4.0
 40
4.0
 40
5.0
 40
5.0
 40
5.0
 40
6.0
 40
6.0
 40
6.0
 40
7.0
 40
7.0
 40
7.0
 40
8.0
 40
8.0
 40
8.0
 40
8.0
 10
101.4067301178775
 20
-106.3662895784432
 30
0.0
 10
101.4067301178775
 20
-106.6329399690015
 30
0.0
 10
101.269270808016
 20
-106.8868435062644
 30
0.0
 10
100.9202826353602
 20
-106.8868435062644
 30
0.0
 10
100.6643120408062
 20
-106.8868435062644
 30
0.0
 10
100.5688828958647
 20
-106.7450778270464
 30
0.0
 10
100.5075601962273
 20
-106.6393133956492
 30
0.0
 10
100.448304553881
 20
-106.7640258522153
 30
0.0
 10
100.3342718933192
 20
-106.8401624624393
 30
0.0
 10
100.173385934158
 20
-106.8401624624393
 30
0.0
 10
99.89846731443511
 20
-106.8401624624393
 30
0.0
 10
99.7630750618648
 20
-106.6413804529404
 30
0.0
 10
99.7630750618648
 20
-106.3662895784432
 30
0.0
 10
99.7630750618648
 20
-106.0829304747813
 30
0.0
 10
99.90673554359971
 20
-105.892416694447
 30
0.0
 10
100.173385934158
 20
-105.892416694447
 30
0.0
 10
100.3342718933192
 20
-105.892416694447
 30
0.0
 10
100.448304553881
 20
-105.9707926167365
 30
0.0
 10
100.5075601962273
 20
-106.0955050733025
 30
0.0
 10
100.558547609409
 20
-106.0067938645573
 30
0.0
 10
100.6536322448019
 20
-105.8481472174616
 30
0.0
 10
100.9158040112294
 20
-105.8481472174616
 30
0.0
 10
101.290285890476
 20
-105.8481472174616
 30
0.0
 10
101.4067301178775
 20
-106.1273722065411
 30
0.0
 10
101.4067301178775
 20
-106.3662895784432
 30
0.0
  0
SPLINE
  5
BA
330
B5
100
AcDbEntity
  8
_U+30EC_U+30A4_U+30E4_U+30FC 1
370
     0
100
AcDbSpline
210
0.0
220
0.0
230
1.0
 70
    11
 71
     3
 72
    17
 73
    13
 74
     0
 42
0.0000000001
 43
0.0000000001
 12
1.0
 22
0.0
 32
0.0
 13
1.0
 23
0.0
 33
0.0
 40
0.0
 40
0.0
 40
0.0
 40
0.0
 40
1.0
 40
1.0
 40
1.0
 40
2.0
 40
2.0
 40
2.0
 40
3.0
 40
3.0
 40
3.0
 40
4.0
 40
4.0
 40
4.0
 40
4.0
 10
99.95531138994173
 20
-106.3662895784432
 30
0.0
 10
99.95531138994173
 20
-106.5313096521866
 30
0.0
 10
100.0507405348831
 20
-106.6160590011238
 30
0.0
 10
100.1861327874535
 20
-106.6160590011238
 30
0.0
 10
100.3087781867284
 20
-106.6160590011238
 30
0.0
 10
100.427289471421
 20
-106.544056505482
 30
0.0
 10
100.427289471421
 20
-106.3662895784432
 30
0.0
 10
100.427289471421
 20
-106.1886949061785
 30
0.0
 10
100.3087781867284
 20
-106.1166924105368
 30
0.0
 10
100.1861327874535
 20
-106.1166924105368
 30
0.0
 10
100.0507405348831
 20
-106.1166924105368
 30
0.0
 10
99.95531138994173
 20
-106.2035088167651
 30
0.0
 10
99.95531138994173
 20
-106.3662895784432
 30
0.0
  0
SPLINE
  5
BB
330
B5
100
AcDbEntity
  8
_U+30EC_U+30A4_U+30E4_U+30FC 1
370
     0
100
AcDbSpline
210
0.0
220
0.0
230
1.0
 70
    11
 71
     3
 72
    17
 73
    13
 74
     0
 42
0.0000000001
 43
0.0000000001
 12
1.0
 22
0.0
 32
0.0
 13
1.0
 23
0.0
 33
0.0
 40
0.0
 40
0.0
 40
0.0
 40
0.0
 40
1.0
 40
1.0
 40
1.0
 40
2.0
 40
2.0
 40
2.0
 40
3.0
 40
3.0
 40
3.0
 40
4.0
 40
4.0
 40
4.0
 40
4.0
 10
100.6153916849156
 20
-106.3662895784432
 30
0.0
 10
100.6153916849156
 20
-106.5102945697266
 30
0.0
 10
100.7022080911439
 20
-106.6625677901746
 30
0.0
 10
100.9054687247736
 20
-106.6625677901746
 30
0.0
 10
101.110451906146
 20
-106.6625677901746
 30
0.0
 10
101.2120822229609
 20
-106.5356160215432
 30
0.0
 10
101.2120822229609
 20
-106.3662895784432
 30
0.0
 10
101.2120822229609
 20
-106.1802544222397
 30
0.0
 10
101.089436823686
 20
-106.0701836214859
 30
0.0
 10
100.9116698966471
 20
-106.0701836214859
 30
0.0
 10
100.6894612378485
 20
-106.0701836214859
 30
0.0
 10
100.6153916849156
 20
-106.2331366379382
 30
0.0
 10
100.6153916849156
 20
-106.3662895784432
 30
0.0
  0
HATCH
  5
BC
330
B5
100
AcDbEntity
  8
_U+30EC_U+30A4_U+30E4_U+30FC 1
 62
   179
420
  2234388
100
AcDbHatch
 10
0.0
 20
0.0
 30
0.0
210
0.0
220
0.0
230
1.0
  2
SOLID
 70
     1
 71
     0
 91
        3
 92
        1
 93
        1
 72
     4
 94
        3
 73
     0
 74
     1
 95
       29
 96
       25
 40
0.0
 40
0.0
 40
0.0
 40
0.0
 40
1.0
 40
1.0
 40
1.0
 40
2.0
 40
2.0
 40
2.0
 40
3.0
 40
3.0
 40
3.0
 40
4.0
 40
4.0
 40
4.0
 40
5.0
 40
5.0
 40
5.0
 40
6.0
 40
6.0
 40
6.0
 40
7.0
 40
7.0
 40
7.0
 40
8.0
 40
8.0
 40
8.0
 40
8.0
 10
101.4067301178775
 20
-106.3662895784432
 10
101.4067301178775
 20
-106.6329399690015
 10
101.269270808016
 20
-106.8868435062644
 10
100.9202826353602
 20
-106.8868435062644
 10
100.6643120408062
 20
-106.8868435062644
 10
100.5688828958647
 20
-106.7450778270464
 10
100.5075601962273
 20
-106.6393133956492
 10
100.448304553881
 20
-106.7640258522153
 10
100.3342718933192
 20
-106.8401624624393
 10
100.173385934158
 20
-106.8401624624393
 10
99.89846731443511
 20
-106.8401624624393
 10
99.7630750618648
 20
-106.6413804529404
 10
99.7630750618648
 20
-106.3662895784432
 10
99.7630750618648
 20
-106.0829304747813
 10
99.90673554359971
 20
-105.892416694447
 10
100.173385934158
 20
-105.892416694447
 10
100.3342718933192
 20
-105.892416694447
 10
100.448304553881
 20
-105.9707926167365
 10
100.5075601962273
 20
-106.0955050733025
 10
100.558547609409
 20
-106.0067938645573
 10
100.6536322448019
 20
-105.8481472174616
 10
100.9158040112294
 20
-105.8481472174616
 10
101.290285890476
 20
-105.8481472174616
 10
101.4067301178775
 20
-106.1273722065411
 10
101.4067301178775
 20
-106.3662895784432
 97
        0
 97
        0
 92
        1
 93
        1
 72
     4
 94
        3
 73
     0
 74
     1
 95
       17
 96
       13
 40
0.0
 40
0.0
 40
0.0
 40
0.0
 40
1.0
 40
1.0
 40
1.0
 40
2.0
 40
2.0
 40
2.0
 40
3.0
 40
3.0
 40
3.0
 40
4.0
 40
4.0
 40
4.0
 40
4.0
 10
99.95531138994173
 20
-106.3662895784432
 10
99.95531138994173
 20
-106.5313096521866
 10
100.0507405348831
 20
-106.6160590011238
 10
100.1861327874535
 20
-106.6160590011238
 10
100.3087781867284
 20
-106.6160590011238
 10
100.427289471421
 20
-106.544056505482
 10
100.427289471421
 20
-106.3662895784432
 10
100.427289471421
 20
-106.1886949061785
 10
100.3087781867284
 20
-106.1166924105368
 10
100.1861327874535
 20
-106.1166924105368
 10
100.0507405348831
 20
-106.1166924105368
 10
99.95531138994173
 20
-106.2035088167651
 10
99.95531138994173
 20
-106.3662895784432
 97
        0
 97
        0
 92
        1
 93
        1
 72
     4
 94
        3
 73
     0
 74
     1
 95
       17
 96
       13
 40
0.0
 40
0.0
 40
0.0
 40
0.0
 40
1.0
 40
1.0
 40
1.0
 40
2.0
 40
2.0
 40
2.0
 40
3.0
 40
3.0
 40
3.0
 40
4.0
 40
4.0
 40
4.0
 40
4.0
 10
100.6153916849156
 20
-106.3662895784432
 10
100.6153916849156
 20
-106.5102945697266
 10
100.7022080911439
 20
-106.6625677901746
 10
100.9054687247736
 20
-106.6625677901746
 10
101.110451906146
 20
-106.6625677901746
 10
101.2120822229609
 20
-106.5356160215432
 10
101.2120822229609
 20
-106.3662895784432
 10
101.2120822229609
 20
-106.1802544222397
 10
101.089436823686
 20
-106.0701836214859
 10
100.9116698966471
 20
-106.0701836214859
 10
100.6894612378485
 20
-106.0701836214859
 10
100.6153916849156
 20
-106.2331366379382
 10
100.6153916849156
 20
-106.3662895784432
 97
        0
 97
        0
 75
     2
 76
     1
 98
        0
  0
ENDBLK
  5
B8
330
B5
100
AcDbEntity
  8
0
100
AcDbBlockEnd
  0
BLOCK
  5
CE
330
CC
100
AcDbEntity
  8
0
100
AcDbBlockBegin
  2
block 4
 70
     0
 10
0.0
 20
0.0
 30
0.0
  3
block 4
  1

  0
SPLINE
  5
D0
330
CC
100
AcDbEntity
  8
_U+30EC_U+30A4_U+30E4_U+30FC 1
370
     0
100
AcDbSpline
210
0.0
220
0.0
230
1.0
 70
    11
 71
     3
 72
    26
 73
    22
 74
     0
 42
0.0000000001
 43
0.0000000001
 12
1.0
 22
0.0
 32
0.0
 13
1.0
 23
0.0
 33
0.0
 40
0.0
 40
0.0
 40
0.0
 40
0.0
 40
1.0
 40
1.0
 40
1.0
 40
2.0
 40
2.0
 40
2.0
 40
3.0
 40
3.0
 40
3.0
 40
4.0
 40
4.0
 40
4.0
 40
5.0
 40
5.0
 40
5.0
 40
6.0
 40
6.0
 40
6.0
 40
7.0
 40
7.0
 40
7.0
 40
7.0
 10
99.85609263996653
 20
-153.8658880908738
 30
0.0
 10
99.85609263996653
 20
-153.8658880908738
 30
0.0
 10
98.75159502739544
 20
-153.8658880908738
 30
0.0
 10
98.75159502739544
 20
-153.8658880908738
 30
0.0
 10
98.75159502739544
 20
-153.8658880908738
 30
0.0
 10
98.75159502739544
 20
-154.1959282383608
 30
0.0
 10
98.75159502739544
 20
-154.1959282383608
 30
0.0
 10
98.75159502739544
 20
-154.1959282383608
 30
0.0
 10
98.6034559215297
 20
-154.1959282383608
 30
0.0
 10
98.6034559215297
 20
-154.1959282383608
 30
0.0
 10
98.58864201094312
 20
-153.8638210335827
 30
0.0
 10
98.42603350403932
 20
-153.8173122445318
 30
0.0
 10
98.31165633392904
 20
-153.7876844233587
 30
0.0
 10
98.31165633392904
 20
-153.7876844233587
 30
0.0
 10
98.31165633392904
 20
-153.641612374784
 30
0.0
 10
98.31165633392904
 20
-153.641612374784
 30
0.0
 10
98.31165633392904
 20
-153.641612374784
 30
0.0
 10
99.85609263996653
 20
-153.641612374784
 30
0.0
 10
99.85609263996653
 20
-153.641612374784
 30
0.0
 10
99.85609263996653
 20
-153.641612374784
 30
0.0
 10
99.85609263996653
 20
-153.8658880908738
 30
0.0
 10
99.85609263996653
 20
-153.8658880908738
 30
0.0
  0
HATCH
  5
D1
330
CC
100
AcDbEntity
  8
_U+30EC_U+30A4_U+30E4_U+30FC 1
 62
   179
420
  2234388
100
AcDbHatch
 10
0.0
 20
0.0
 30
0.0
210
0.0
220
0.0
230
1.0
  2
SOLID
 70
     1
 71
     0
 91
        1
 92
        1
 93
        1
 72
     4
 94
        3
 73
     0
 74
     1
 95
       26
 96
       22
 40
0.0
 40
0.0
 40
0.0
 40
0.0
 40
1.0
 40
1.0
 40
1.0
 40
2.0
 40
2.0
 40
2.0
 40
3.0
 40
3.0
 40
3.0
 40
4.0
 40
4.0
 40
4.0
 40
5.0
 40
5.0
 40
5.0
 40
6.0
 40
6.0
 40
6.0
 40
7.0
 40
7.0
 40
7.0
 40
7.0
 10
99.85609263996653
 20
-153.8658880908738
 10
99.85609263996653
 20
-153.8658880908738
 10
98.75159502739544
 20
-153.8658880908738
 10
98.75159502739544
 20
-153.8658880908738
 10
98.75159502739544
 20
-153.8658880908738
 10
98.75159502739544
 20
-154.1959282383608
 10
98.75159502739544
 20
-154.1959282383608
 10
98.75159502739544
 20
-154.1959282383608
 10
98.6034559215297
 20
-154.1959282383608
 10
98.6034559215297
 20
-154.1959282383608
 10
98.58864201094312
 20
-153.8638210335827
 10
98.42603350403932
 20
-153.8173122445318
 10
98.31165633392904
 20
-153.7876844233587
 10
98.31165633392904
 20
-153.7876844233587
 10
98.31165633392904
 20
-153.641612374784
 10
98.31165633392904
 20
-153.641612374784
 10
98.31165633392904
 20
-153.641612374784
 10
99.85609263996653
 20
-153.641612374784
 10
99.85609263996653
 20
-153.641612374784
 10
99.85609263996653
 20
-153.641612374784
 10
99.85609263996653
 20
-153.8658880908738
 10
99.85609263996653
 20
-153.8658880908738
 97
        0
 97
        0
 75
     2
 76
     1
 98
        0
  0
SPLINE
  5
D2
330
CC
100
AcDbEntity
  8
_U+30EC_U+30A4_U+30E4_U+30FC 1
370
     0
100
AcDbSpline
210
0.0
220
0.0
230
1.0
 70
    11
 71
     3
 72
    29
 73
    25
 74
     0
 42
0.0000000001
 43
0.0000000001
 12
1.0
 22
0.0
 32
0.0
 13
1.0
 23
0.0
 33
0.0
 40
0.0
 40
0.0
 40
0.0
 40
0.0
 40
1.0
 40
1.0
 40
1.0
 40
2.0
 40
2.0
 40
2.0
 40
3.0
 40
3.0
 40
3.0
 40
4.0
 40
4.0
 40
4.0
 40
5.0
 40
5.0
 40
5.0
 40
6.0
 40
6.0
 40
6.0
 40
7.0
 40
7.0
 40
7.0
 40
8.0
 40
8.0
 40
8.0
 40
8.0
 10
99.90673554359971
 20
-152.6404676267705
 30
0.0
 10
99.90673554359971
 20
-152.9071180173288
 30
0.0
 10
99.76927623373824
 20
-153.1610215545917
 30
0.0
 10
99.42028806108243
 20
-153.1610215545917
 30
0.0
 10
99.16431746652837
 20
-153.1610215545917
 30
0.0
 10
99.06888832158695
 20
-153.0190836205994
 30
0.0
 10
99.0075656219495
 20
-152.9133191892022
 30
0.0
 10
98.94830997960321
 20
-153.0380316457683
 30
0.0
 10
98.83427731904143
 20
-153.1145127655408
 30
0.0
 10
98.67339135988027
 20
-153.1145127655408
 30
0.0
 10
98.39847274015733
 20
-153.1145127655408
 30
0.0
 10
98.26308048758702
 20
-152.9153862464934
 30
0.0
 10
98.26308048758702
 20
-152.6404676267705
 30
0.0
 10
98.26308048758702
 20
-152.3569362683344
 30
0.0
 10
98.40674096932193
 20
-152.1667669975486
 30
0.0
 10
98.67339135988027
 20
-152.1667669975486
 30
0.0
 10
98.83427731904143
 20
-152.1667669975486
 30
0.0
 10
98.94830997960321
 20
-152.2449706650638
 30
0.0
 10
99.0075656219495
 20
-152.3696831216298
 30
0.0
 10
99.0585530351312
 20
-152.2807996581104
 30
0.0
 10
99.15363767052409
 20
-152.1223252657889
 30
0.0
 10
99.4158094369516
 20
-152.1223252657889
 30
0.0
 10
99.79029131619826
 20
-152.1223252657889
 30
0.0
 10
99.90673554359971
 20
-152.4013780000941
 30
0.0
 10
99.90673554359971
 20
-152.6404676267705
 30
0.0
  0
SPLINE
  5
D3
330
CC
100
AcDbEntity
  8
_U+30EC_U+30A4_U+30E4_U+30FC 1
370
     0
100
AcDbSpline
210
0.0
220
0.0
230
1.0
 70
    11
 71
     3
 72
    17
 73
    13
 74
     0
 42
0.0000000001
 43
0.0000000001
 12
1.0
 22
0.0
 32
0.0
 13
1.0
 23
0.0
 33
0.0
 40
0.0
 40
0.0
 40
0.0
 40
0.0
 40
1.0
 40
1.0
 40
1.0
 40
2.0
 40
2.0
 40
2.0
 40
3.0
 40
3.0
 40
3.0
 40
4.0
 40
4.0
 40
4.0
 40
4.0
 10
98.45531681566395
 20
-152.6404676267705
 30
0.0
 10
98.45531681566395
 20
-152.8054877005139
 30
0.0
 10
98.55074596060537
 20
-152.8902370494511
 30
0.0
 10
98.6861382131757
 20
-152.8902370494511
 30
0.0
 10
98.80878361245058
 20
-152.8902370494511
 30
0.0
 10
98.92729489714318
 20
-152.8182345538093
 30
0.0
 10
98.92729489714318
 20
-152.6404676267705
 30
0.0
 10
98.92729489714318
 20
-152.4627006997316
 30
0.0
 10
98.80878361245058
 20
-152.3906982040898
 30
0.0
 10
98.6861382131757
 20
-152.3906982040898
 30
0.0
 10
98.55074596060537
 20
-152.3906982040898
 30
0.0
 10
98.45531681566395
 20
-152.4775146103181
 30
0.0
 10
98.45531681566395
 20
-152.6404676267705
 30
0.0
  0
SPLINE
  5
D4
330
CC
100
AcDbEntity
  8
_U+30EC_U+30A4_U+30E4_U+30FC 1
370
     0
100
AcDbSpline
210
0.0
220
0.0
230
1.0
 70
    11
 71
     3
 72
    17
 73
    13
 74
     0
 42
0.0000000001
 43
0.0000000001
 12
1.0
 22
0.0
 32
0.0
 13
1.0
 23
0.0
 33
0.0
 40
0.0
 40
0.0
 40
0.0
 40
0.0
 40
1.0
 40
1.0
 40
1.0
 40
2.0
 40
2.0
 40
2.0
 40
3.0
 40
3.0
 40
3.0
 40
4.0
 40
4.0
 40
4.0
 40
4.0
 10
99.11539711063782
 20
-152.6404676267705
 30
0.0
 10
99.11539711063782
 20
-152.7844726180539
 30
0.0
 10
99.20221351686612
 20
-152.9367458385019
 30
0.0
 10
99.40547415049586
 20
-152.9367458385019
 30
0.0
 10
99.61045733186822
 20
-152.9367458385019
 30
0.0
 10
99.7120876486831
 20
-152.8096218150962
 30
0.0
 10
99.7120876486831
 20
-152.6404676267705
 30
0.0
 10
99.7120876486831
 20
-152.454432470567
 30
0.0
 10
99.5894422494082
 20
-152.344189415039
 30
0.0
 10
99.4116753223693
 20
-152.344189415039
 30
0.0
 10
99.1894666635707
 20
-152.344189415039
 30
0.0
 10
99.11539711063782
 20
-152.5071424314913
 30
0.0
 10
99.11539711063782
 20
-152.6404676267705
 30
0.0
  0
HATCH
  5
D5
330
CC
100
AcDbEntity
  8
_U+30EC_U+30A4_U+30E4_U+30FC 1
 62
   179
420
  2234388
100
AcDbHatch
 10
0.0
 20
0.0
 30
0.0
210
0.0
220
0.0
230
1.0
  2
SOLID
 70
     1
 71
     0
 91
        3
 92
        1
 93
        1
 72
     4
 94
        3
 73
     0
 74
     1
 95
       29
 96
       25
 40
0.0
 40
0.0
 40
0.0
 40
0.0
 40
1.0
 40
1.0
 40
1.0
 40
2.0
 40
2.0
 40
2.0
 40
3.0
 40
3.0
 40
3.0
 40
4.0
 40
4.0
 40
4.0
 40
5.0
 40
5.0
 40
5.0
 40
6.0
 40
6.0
 40
6.0
 40
7.0
 40
7.0
 40
7.0
 40
8.0
 40
8.0
 40
8.0
 40
8.0
 10
99.90673554359971
 20
-152.6404676267705
 10
99.90673554359971
 20
-152.9071180173288
 10
99.76927623373824
 20
-153.1610215545917
 10
99.42028806108243
 20
-153.1610215545917
 10
99.16431746652837
 20
-153.1610215545917
 10
99.06888832158695
 20
-153.0190836205994
 10
99.0075656219495
 20
-152.9133191892022
 10
98.94830997960321
 20
-153.0380316457683
 10
98.83427731904143
 20
-153.1145127655408
 10
98.67339135988027
 20
-153.1145127655408
 10
98.39847274015733
 20
-153.1145127655408
 10
98.26308048758702
 20
-152.9153862464934
 10
98.26308048758702
 20
-152.6404676267705
 10
98.26308048758702
 20
-152.3569362683344
 10
98.40674096932193
 20
-152.1667669975486
 10
98.67339135988027
 20
-152.1667669975486
 10
98.83427731904143
 20
-152.1667669975486
 10
98.94830997960321
 20
-152.2449706650638
 10
99.0075656219495
 20
-152.3696831216298
 10
99.0585530351312
 20
-152.2807996581104
 10
99.15363767052409
 20
-152.1223252657889
 10
99.4158094369516
 20
-152.1223252657889
 10
99.79029131619826
 20
-152.1223252657889
 10
99.90673554359971
 20
-152.4013780000941
 10
99.90673554359971
 20
-152.6404676267705
 97
        0
 97
        0
 92
        1
 93
        1
 72
     4
 94
        3
 73
     0
 74
     1
 95
       17
 96
       13
 40
0.0
 40
0.0
 40
0.0
 40
0.0
 40
1.0
 40
1.0
 40
1.0
 40
2.0
 40
2.0
 40
2.0
 40
3.0
 40
3.0
 40
3.0
 40
4.0
 40
4.0
 40
4.0
 40
4.0
 10
98.45531681566395
 20
-152.6404676267705
 10
98.45531681566395
 20
-152.8054877005139
 10
98.55074596060537
 20
-152.8902370494511
 10
98.6861382131757
 20
-152.8902370494511
 10
98.80878361245058
 20
-152.8902370494511
 10
98.92729489714318
 20
-152.8182345538093
 10
98.92729489714318
 20
-152.6404676267705
 10
98.92729489714318
 20
-152.4627006997316
 10
98.80878361245058
 20
-152.3906982040898
 10
98.6861382131757
 20
-152.3906982040898
 10
98.55074596060537
 20
-152.3906982040898
 10
98.45531681566395
 20
-152.4775146103181
 10
98.45531681566395
 20
-152.6404676267705
 97
        0
 97
        0
 92
        1
 93
        1
 72
     4
 94
        3
 73
     0
 74
     1
 95
       17
 96
       13
 40
0.0
 40
0.0
 40
0.0
 40
0.0
 40
1.0
 40
1.0
 40
1.0
 40
2.0
 40
2.0
 40
2.0
 40
3.0
 40
3.0
 40
3.0
 40
4.0
 40
4.0
 40
4.0
 40
4.0
 10
99.11539711063782
 20
-152.6404676267705
 10
99.11539711063782
 20
-152.7844726180539
 10
99.20221351686612
 20
-152.9367458385019
 10
99.40547415049586
 20
-152.9367458385019
 10
99.61045733186822
 20
-152.9367458385019
 10
99.7120876486831
 20
-152.8096218150962
 10
99.7120876486831
 20
-152.6404676267705
 10
99.7120876486831
 20
-152.454432470567
 10
99.5894422494082
 20
-152.344189415039
 10
99.4116753223693
 20
-152.344189415039
 10
99.1894666635707
 20
-152.344189415039
 10
99.11539711063782
 20
-152.5071424314913
 10
99.11539711063782
 20
-152.6404676267705
 97
        0
 97
        0
 75
     2
 76
     1
 98
        0
  0
POLYLINE
  5
D6
330
CC
100
AcDbEntity
  8
_U+30EC_U+30A4_U+30E4_U+30FC 1
370
     0
100
AcDb2dPolyline
 66
     1
 10
0.0
 20
0.0
 30
0.0
  0
VERTEX
  5
D7
330
D6
100
AcDbEntity
  8
_U+30EC_U+30A4_U+30E4_U+30FC 1
370
     0
100
AcDbVertex
100
AcDb2dVertex
 10
99.85609263996653
 20
-151.9035617024755
 30
0.0
  0
VERTEX
  5
D8
330
D6
100
AcDbEntity
  8
_U+30EC_U+30A4_U+30E4_U+30FC 1
370
     0
100
AcDbVertex
100
AcDb2dVertex
 10
99.60425615999478
 20
-151.9035617024755
 30
0.0
  0
VERTEX
  5
D9
330
D6
100
AcDbEntity
  8
_U+30EC_U+30A4_U+30E4_U+30FC 1
370
     0
100
AcDbVertex
100
AcDb2dVertex
 10
99.60425615999478
 20
-151.6517252225037
 30
0.0
  0
VERTEX
  5
DA
330
D6
100
AcDbEntity
  8
_U+30EC_U+30A4_U+30E4_U+30FC 1
370
     0
100
AcDbVertex
100
AcDb2dVertex
 10
99.85609263996653
 20
-151.6517252225037
 30
0.0
  0
VERTEX
  5
DB
330
D6
100
AcDbEntity
  8
_U+30EC_U+30A4_U+30E4_U+30FC 1
370
     0
100
AcDbVertex
100
AcDb2dVertex
 10
99.85609263996653
 20
-151.9035617024755
 30
0.0
  0
SEQEND
  5
DC
330
D6
100
AcDbEntity
  8
_U+30EC_U+30A4_U+30E4_U+30FC 1
370
     0
  0
HATCH
  5
DD
330
CC
100
AcDbEntity
  8
_U+30EC_U+30A4_U+30E4_U+30FC 1
 62
   179
420
  2234388
100
AcDbHatch
 10
0.0
 20
0.0
 30
0.0
210
0.0
220
0.0
230
1.0
  2
SOLID
 70
     1
 71
     0
 91
        1
 92
        1
 93
        4
 72
     1
 10
99.85609263996653
 20
-151.9035617024755
 11
99.60425615999478
 21
-151.9035617024755
 72
     1
 10
99.60425615999478
 20
-151.9035617024755
 11
99.60425615999478
 21
-151.6517252225037
 72
     1
 10
99.60425615999478
 20
-151.6517252225037
 11
99.85609263996653
 21
-151.6517252225037
 72
     1
 10
99.85609263996653
 20
-151.6517252225037
 11
99.85609263996653
 21
-151.9035617024755
 97
        0
 75
     2
 76
     1
 98
        0
  0
SPLINE
  5
DE
330
CC
100
AcDbEntity
  8
_U+30EC_U+30A4_U+30E4_U+30FC 1
370
     0
100
AcDbSpline
210
0.0
220
0.0
230
1.0
 70
    11
 71
     3
 72
    53
 73
    49
 74
     0
 42
0.0000000001
 43
0.0000000001
 12
1.0
 22
0.0
 32
0.0
 13
1.0
 23
0.0
 33
0.0
 40
0.0
 40
0.0
 40
0.0
 40
0.0
 40
1.0
 40
1.0
 40
1.0
 40
2.0
 40
2.0
 40
2.0
 40
3.0
 40
3.0
 40
3.0
 40
4.0
 40
4.0
 40
4.0
 40
5.0
 40
5.0
 40
5.0
 40
6.0
 40
6.0
 40
6.0
 40
7.0
 40
7.0
 40
7.0
 40
8.0
 40
8.0
 40
8.0
 40
9.0
 40
9.0
 40
9.0
 40
10.0
 40
10.0
 40
10.0
 40
11.0
 40
11.0
 40
11.0
 40
12.0
 40
12.0
 40
12.0
 40
13.0
 40
13.0
 40
13.0
 40
14.0
 40
14.0
 40
14.0
 40
15.0
 40
15.0
 40
15.0
 40
16.0
 40
16.0
 40
16.0
 40
16.0
 10
99.90673554359971
 20
-150.9344563424747
 30
0.0
 10
99.90673554359971
 20
-151.0126600099899
 30
0.0
 10
99.88985457572198
 20
-151.1142903268048
 30
0.0
 10
99.82646481879338
 20
-151.2159206436196
 30
0.0
 10
99.7162217632654
 20
-151.3892089465277
 30
0.0
 10
99.5853081348259
 20
-151.4105685385363
 30
0.0
 10
99.47713213658905
 20
-151.4295165637051
 30
0.0
 10
99.47713213658905
 20
-151.4295165637051
 30
0.0
 10
99.47713213658905
 20
-151.2073079049065
 30
0.0
 10
99.47713213658905
 20
-151.2073079049065
 30
0.0
 10
99.6762586556365
 20
-151.152530886691
 30
0.0
 10
99.70588647680964
 20
-151.0254068632853
 30
0.0
 10
99.70588647680964
 20
-150.9323892851836
 30
0.0
 10
99.70588647680964
 20
-150.7928629180309
 30
0.0
 10
99.60632321728592
 20
-150.6402451880344
 30
0.0
 10
99.37377927203156
 20
-150.6402451880344
 30
0.0
 10
99.1178086774775
 20
-150.6402451880344
 30
0.0
 10
99.04787323912693
 20
-150.8200791723644
 30
0.0
 10
99.04787323912693
 20
-150.9406575143482
 30
0.0
 10
99.04787323912693
 20
-150.972696902361
 30
0.0
 10
99.04787323912693
 20
-151.1142903268048
 30
0.0
 10
99.17671981027527
 20
-151.2031737903242
 30
0.0
 10
99.17671981027527
 20
-151.2031737903242
 30
0.0
 10
99.15777178510639
 20
-151.3788736600719
 30
0.0
 10
99.15777178510639
 20
-151.3788736600719
 30
0.0
 10
99.15777178510639
 20
-151.3788736600719
 30
0.0
 10
98.31165633392904
 20
-151.2582953180882
 30
0.0
 10
98.31165633392904
 20
-151.2582953180882
 30
0.0
 10
98.31165633392904
 20
-151.2582953180882
 30
0.0
 10
98.31165633392904
 20
-150.4797037384218
 30
0.0
 10
98.31165633392904
 20
-150.4797037384218
 30
0.0
 10
98.31165633392904
 20
-150.4797037384218
 30
0.0
 10
98.50630422884565
 20
-150.4797037384218
 30
0.0
 10
98.50630422884565
 20
-150.4797037384218
 30
0.0
 10
98.50630422884565
 20
-150.4797037384218
 30
0.0
 10
98.50630422884565
 20
-151.0953423016359
 30
0.0
 10
98.50630422884565
 20
-151.0953423016359
 30
0.0
 10
98.50630422884565
 20
-151.0953423016359
 30
0.0
 10
98.92936195443433
 20
-151.1607991158556
 30
0.0
 10
98.92936195443433
 20
-151.1607991158556
 30
0.0
 10
98.89560001867888
 20
-151.0994764162182
 30
0.0
 10
98.85529240150146
 20
-151.0171386341207
 30
0.0
 10
98.85529240150146
 20
-150.8986273494281
 30
0.0
 10
98.85529240150146
 20
-150.6447238121652
 30
0.0
 10
99.04132755770495
 20
-150.40770124278
 30
0.0
 10
99.35448673731416
 20
-150.40770124278
 30
0.0
 10
99.67178003150568
 20
-150.40770124278
 30
0.0
 10
99.90673554359971
 20
-150.6319769588698
 30
0.0
 10
99.90673554359971
 20
-150.9344563424747
 30
0.0
  0
HATCH
  5
DF
330
CC
100
AcDbEntity
  8
_U+30EC_U+30A4_U+30E4_U+30FC 1
 62
   179
420
  2234388
100
AcDbHatch
 10
0.0
 20
0.0
 30
0.0
210
0.0
220
0.0
230
1.0
  2
SOLID
 70
     1
 71
     0
 91
        1
 92
        1
 93
        1
 72
     4
 94
        3
 73
     0
 74
     1
 95
       53
 96
       49
 40
0.0
 40
0.0
 40
0.0
 40
0.0
 40
1.0
 40
1.0
 40
1.0
 40
2.0
 40
2.0
 40
2.0
 40
3.0
 40
3.0
 40
3.0
 40
4.0
 40
4.0
 40
4.0
 40
5.0
 40
5.0
 40
5.0
 40
6.0
 40
6.0
 40
6.0
 40
7.0
 40
7.0
 40
7.0
 40
8.0
 40
8.0
 40
8.0
 40
9.0
 40
9.0
 40
9.0
 40
10.0
 40
10.0
 40
10.0
 40
11.0
 40
11.0
 40
11.0
 40
12.0
 40
12.0
 40
12.0
 40
13.0
 40
13.0
 40
13.0
 40
14.0
 40
14.0
 40
14.0
 40
15.0
 40
15.0
 40
15.0
 40
16.0
 40
16.0
 40
16.0
 40
16.0
 10
99.90673554359971
 20
-150.9344563424747
 10
99.90673554359971
 20
-151.0126600099899
 10
99.88985457572198
 20
-151.1142903268048
 10
99.82646481879338
 20
-151.2159206436196
 10
99.7162217632654
 20
-151.3892089465277
 10
99.5853081348259
 20
-151.4105685385363
 10
99.47713213658905
 20
-151.4295165637051
 10
99.47713213658905
 20
-151.4295165637051
 10
99.47713213658905
 20
-151.2073079049065
 10
99.47713213658905
 20
-151.2073079049065
 10
99.6762586556365
 20
-151.152530886691
 10
99.70588647680964
 20
-151.0254068632853
 10
99.70588647680964
 20
-150.9323892851836
 10
99.70588647680964
 20
-150.7928629180309
 10
99.60632321728592
 20
-150.6402451880344
 10
99.37377927203156
 20
-150.6402451880344
 10
99.1178086774775
 20
-150.6402451880344
 10
99.04787323912693
 20
-150.8200791723644
 10
99.04787323912693
 20
-150.9406575143482
 10
99.04787323912693
 20
-150.972696902361
 10
99.04787323912693
 20
-151.1142903268048
 10
99.17671981027527
 20
-151.2031737903242
 10
99.17671981027527
 20
-151.2031737903242
 10
99.15777178510639
 20
-151.3788736600719
 10
99.15777178510639
 20
-151.3788736600719
 10
99.15777178510639
 20
-151.3788736600719
 10
98.31165633392904
 20
-151.2582953180882
 10
98.31165633392904
 20
-151.2582953180882
 10
98.31165633392904
 20
-151.2582953180882
 10
98.31165633392904
 20
-150.4797037384218
 10
98.31165633392904
 20
-150.4797037384218
 10
98.31165633392904
 20
-150.4797037384218
 10
98.50630422884565
 20
-150.4797037384218
 10
98.50630422884565
 20
-150.4797037384218
 10
98.50630422884565
 20
-150.4797037384218
 10
98.50630422884565
 20
-151.0953423016359
 10
98.50630422884565
 20
-151.0953423016359
 10
98.50630422884565
 20
-151.0953423016359
 10
98.92936195443433
 20
-151.1607991158556
 10
98.92936195443433
 20
-151.1607991158556
 10
98.89560001867888
 20
-151.0994764162182
 10
98.85529240150146
 20
-151.0171386341207
 10
98.85529240150146
 20
-150.8986273494281
 10
98.85529240150146
 20
-150.6447238121652
 10
99.04132755770495
 20
-150.40770124278
 10
99.35448673731416
 20
-150.40770124278
 10
99.67178003150568
 20
-150.40770124278
 10
99.90673554359971
 20
-150.6319769588698
 10
99.90673554359971
 20
-150.9344563424747
 97
        0
 97
        0
 75
     2
 76
     1
 98
        0
  0
ENDBLK
  5
CF
330
CC
100
AcDbEntity
  8
0
100
AcDbBlockEnd
  0
BLOCK
  5
F1
330
EF
100
AcDbEntity
  8
0
100
AcDbBlockBegin
  2
block 5
 70
     0
 10
0.0
 20
0.0
 30
0.0
  3
block 5
  1

  0
SPLINE
  5
F3
330
EF
100
AcDbEntity
  8
_U+30EC_U+30A4_U+30E4_U+30FC 1
370
     0
100
AcDbSpline
210
0.0
220
0.0
230
1.0
 70
    11
 71
     3
 72
    26
 73
    22
 74
     0
 42
0.0000000001
 43
0.0000000001
 12
1.0
 22
0.0
 32
0.0
 13
1.0
 23
0.0
 33
0.0
 40
0.0
 40
0.0
 40
0.0
 40
0.0
 40
1.0
 40
1.0
 40
1.0
 40
2.0
 40
2.0
 40
2.0
 40
3.0
 40
3.0
 40
3.0
 40
4.0
 40
4.0
 40
4.0
 40
5.0
 40
5.0
 40
5.0
 40
6.0
 40
6.0
 40
6.0
 40
7.0
 40
7.0
 40
7.0
 40
7.0
 10
91.59130857085218
 20
-97.99315725631769
 30
0.0
 10
91.59130857085218
 20
-97.99315725631769
 30
0.0
 10
91.59130857085218
 20
-96.88883189852085
 30
0.0
 10
91.59130857085218
 20
-96.88883189852085
 30
0.0
 10
91.59130857085218
 20
-96.88883189852085
 30
0.0
 10
91.26126842336524
 20
-96.88883189852085
 30
0.0
 10
91.26126842336524
 20
-96.88883189852085
 30
0.0
 10
91.26126842336524
 20
-96.88883189852085
 30
0.0
 10
91.26126842336524
 20
-96.74086504742937
 30
0.0
 10
91.26126842336524
 20
-96.74086504742937
 30
0.0
 10
91.59337562814332
 20
-96.7260511368428
 30
0.0
 10
91.6398844171942
 20
-96.56309812039048
 30
0.0
 10
91.66951223836735
 20
-96.44889320505445
 30
0.0
 10
91.66951223836735
 20
-96.44889320505445
 30
0.0
 10
91.81558428694194
 20
-96.44889320505445
 30
0.0
 10
91.81558428694194
 20
-96.44889320505445
 30
0.0
 10
91.81558428694194
 20
-96.44889320505445
 30
0.0
 10
91.81558428694194
 20
-97.99315725631769
 30
0.0
 10
91.81558428694194
 20
-97.99315725631769
 30
0.0
 10
91.81558428694194
 20
-97.99315725631769
 30
0.0
 10
91.59130857085218
 20
-97.99315725631769
 30
0.0
 10
91.59130857085218
 20
-97.99315725631769
 30
0.0
  0
HATCH
  5
F4
330
EF
100
AcDbEntity
  8
_U+30EC_U+30A4_U+30E4_U+30FC 1
 62
   179
420
  2234388
100
AcDbHatch
 10
0.0
 20
0.0
 30
0.0
210
0.0
220
0.0
230
1.0
  2
SOLID
 70
     1
 71
     0
 91
        1
 92
        1
 93
        1
 72
     4
 94
        3
 73
     0
 74
     1
 95
       26
 96
       22
 40
0.0
 40
0.0
 40
0.0
 40
0.0
 40
1.0
 40
1.0
 40
1.0
 40
2.0
 40
2.0
 40
2.0
 40
3.0
 40
3.0
 40
3.0
 40
4.0
 40
4.0
 40
4.0
 40
5.0
 40
5.0
 40
5.0
 40
6.0
 40
6.0
 40
6.0
 40
7.0
 40
7.0
 40
7.0
 40
7.0
 10
91.59130857085218
 20
-97.99315725631769
 10
91.59130857085218
 20
-97.99315725631769
 10
91.59130857085218
 20
-96.88883189852085
 10
91.59130857085218
 20
-96.88883189852085
 10
91.59130857085218
 20
-96.88883189852085
 10
91.26126842336524
 20
-96.88883189852085
 10
91.26126842336524
 20
-96.88883189852085
 10
91.26126842336524
 20
-96.88883189852085
 10
91.26126842336524
 20
-96.74086504742937
 10
91.26126842336524
 20
-96.74086504742937
 10
91.59337562814332
 20
-96.7260511368428
 10
91.6398844171942
 20
-96.56309812039048
 10
91.66951223836735
 20
-96.44889320505445
 10
91.66951223836735
 20
-96.44889320505445
 10
91.81558428694194
 20
-96.44889320505445
 10
91.81558428694194
 20
-96.44889320505445
 10
91.81558428694194
 20
-96.44889320505445
 10
91.81558428694194
 20
-97.99315725631769
 10
91.81558428694194
 20
-97.99315725631769
 10
91.81558428694194
 20
-97.99315725631769
 10
91.59130857085218
 20
-97.99315725631769
 10
91.59130857085218
 20
-97.99315725631769
 97
        0
 97
        0
 75
     2
 76
     1
 98
        0
  0
SPLINE
  5
F5
330
EF
100
AcDbEntity
  8
_U+30EC_U+30A4_U+30E4_U+30FC 1
370
     0
100
AcDbSpline
210
0.0
220
0.0
230
1.0
 70
    11
 71
     3
 72
    26
 73
    22
 74
     0
 42
0.0000000001
 43
0.0000000001
 12
1.0
 22
0.0
 32
0.0
 13
1.0
 23
0.0
 33
0.0
 40
0.0
 40
0.0
 40
0.0
 40
0.0
 40
1.0
 40
1.0
 40
1.0
 40
2.0
 40
2.0
 40
2.0
 40
3.0
 40
3.0
 40
3.0
 40
4.0
 40
4.0
 40
4.0
 40
5.0
 40
5.0
 40
5.0
 40
6.0
 40
6.0
 40
6.0
 40
7.0
 40
7.0
 40
7.0
 40
7.0
 10
92.76815318861352
 20
-97.99315725631769
 30
0.0
 10
92.76815318861352
 20
-97.99315725631769
 30
0.0
 10
92.76815318861352
 20
-96.88883189852085
 30
0.0
 10
92.76815318861352
 20
-96.88883189852085
 30
0.0
 10
92.76815318861352
 20
-96.88883189852085
 30
0.0
 10
92.43811304112658
 20
-96.88883189852085
 30
0.0
 10
92.43811304112658
 20
-96.88883189852085
 30
0.0
 10
92.43811304112658
 20
-96.88883189852085
 30
0.0
 10
92.43811304112658
 20
-96.74086504742937
 30
0.0
 10
92.43811304112658
 20
-96.74086504742937
 30
0.0
 10
92.77022024590467
 20
-96.7260511368428
 30
0.0
 10
92.81672903495554
 20
-96.56309812039048
 30
0.0
 10
92.8463568561287
 20
-96.44889320505445
 30
0.0
 10
92.8463568561287
 20
-96.44889320505445
 30
0.0
 10
92.99242890470329
 20
-96.44889320505445
 30
0.0
 10
92.99242890470329
 20
-96.44889320505445
 30
0.0
 10
92.99242890470329
 20
-96.44889320505445
 30
0.0
 10
92.99242890470329
 20
-97.99315725631769
 30
0.0
 10
92.99242890470329
 20
-97.99315725631769
 30
0.0
 10
92.99242890470329
 20
-97.99315725631769
 30
0.0
 10
92.76815318861352
 20
-97.99315725631769
 30
0.0
 10
92.76815318861352
 20
-97.99315725631769
 30
0.0
  0
HATCH
  5
F6
330
EF
100
AcDbEntity
  8
_U+30EC_U+30A4_U+30E4_U+30FC 1
 62
   179
420
  2234388
100
AcDbHatch
 10
0.0
 20
0.0
 30
0.0
210
0.0
220
0.0
230
1.0
  2
SOLID
 70
     1
 71
     0
 91
        1
 92
        1
 93
        1
 72
     4
 94
        3
 73
     0
 74
     1
 95
       26
 96
       22
 40
0.0
 40
0.0
 40
0.0
 40
0.0
 40
1.0
 40
1.0
 40
1.0
 40
2.0
 40
2.0
 40
2.0
 40
3.0
 40
3.0
 40
3.0
 40
4.0
 40
4.0
 40
4.0
 40
5.0
 40
5.0
 40
5.0
 40
6.0
 40
6.0
 40
6.0
 40
7.0
 40
7.0
 40
7.0
 40
7.0
 10
92.76815318861352
 20
-97.99315725631769
 10
92.76815318861352
 20
-97.99315725631769
 10
92.76815318861352
 20
-96.88883189852085
 10
92.76815318861352
 20
-96.88883189852085
 10
92.76815318861352
 20
-96.88883189852085
 10
92.43811304112658
 20
-96.88883189852085
 10
92.43811304112658
 20
-96.88883189852085
 10
92.43811304112658
 20
-96.88883189852085
 10
92.43811304112658
 20
-96.74086504742937
 10
92.43811304112658
 20
-96.74086504742937
 10
92.77022024590467
 20
-96.7260511368428
 10
92.81672903495554
 20
-96.56309812039048
 10
92.8463568561287
 20
-96.44889320505445
 10
92.8463568561287
 20
-96.44889320505445
 10
92.99242890470329
 20
-96.44889320505445
 10
92.99242890470329
 20
-96.44889320505445
 10
92.99242890470329
 20
-96.44889320505445
 10
92.99242890470329
 20
-97.99315725631769
 10
92.99242890470329
 20
-97.99315725631769
 10
92.99242890470329
 20
-97.99315725631769
 10
92.76815318861352
 20
-97.99315725631769
 10
92.76815318861352
 20
-97.99315725631769
 97
        0
 97
        0
 75
     2
 76
     1
 98
        0
  0
ENDBLK
  5
F2
330
EF
100
AcDbEntity
  8
0
100
AcDbBlockEnd
  0
ENDSEC
  0
SECTION
  2
ENTITIES
  0
SPLINE
  5
41
330
1F
100
AcDbEntity
  8
_U+30EC_U+30A4_U+30E4_U+30FC 1
370
     0
100
AcDbSpline
210
0.0
220
0.0
230
1.0
 70
    11
 71
     3
 72
   116
 73
   112
 74
     0
 42
0.0000000001
 43
0.0000000001
 12
1.0
 22
0.0
 32
0.0
 13
1.0
 23
0.0
 33
0.0
 40
0.0
 40
0.0
 40
0.0
 40
0.0
 40
1.0
 40
1.0
 40
1.0
 40
2.0
 40
2.0
 40
2.0
 40
3.0
 40
3.0
 40
3.0
 40
4.0
 40
4.0
 40
4.0
 40
5.0
 40
5.0
 40
5.0
 40
6.0
 40
6.0
 40
6.0
 40
7.0
 40
7.0
 40
7.0
 40
8.0
 40
8.0
 40
8.0
 40
9.0
 40
9.0
 40
9.0
 40
10.0
 40
10.0
 40
10.0
 40
11.0
 40
11.0
 40
11.0
 40
12.0
 40
12.0
 40
12.0
 40
13.0
 40
13.0
 40
13.0
 40
14.0
 40
14.0
 40
14.0
 40
15.0
 40
15.0
 40
15.0
 40
16.0
 40
16.0
 40
16.0
 40
17.0
 40
17.0
 40
17.0
 40
18.0
 40
18.0
 40
18.0
 40
19.0
 40
19.0
 40
19.0
 40
20.0
 40
20.0
 40
20.0
 40
21.0
 40
21.0
 40
21.0
 40
22.0
 40
22.0
 40
22.0
 40
23.0
 40
23.0
 40
23.0
 40
24.0
 40
24.0
 40
24.0
 40
25.0
 40
25.0
 40
25.0
 40
26.0
 40
26.0
 40
26.0
 40
27.0
 40
27.0
 40
27.0
 40
28.0
 40
28.0
 40
28.0
 40
29.0
 40
29.0
 40
29.0
 40
30.0
 40
30.0
 40
30.0
 40
31.0
 40
31.0
 40
31.0
 40
32.0
 40
32.0
 40
32.0
 40
33.0
 40
33.0
 40
33.0
 40
34.0
 40
34.0
 40
34.0
 40
35.0
 40
35.0
 40
35.0
 40
36.0
 40
36.0
 40
36.0
 40
37.0
 40
37.0
 40
37.0
 40
37.0
 10
86.73218053387237
 20
-102.8319705298475
 30
0.0
 10
86.74974667571847
 20
-102.834016640958
 30
0.0
 10
86.76403417535397
 20
-102.8478102520657
 30
0.0
 10
86.76403417535397
 20
-102.8660841409501
 30
0.0
 10
86.76403417535397
 20
-102.8853810853899
 30
0.0
 10
86.74819445353585
 20
-102.9012208076081
 30
0.0
 10
86.72872112069932
 20
-102.9012208076081
 30
0.0
 10
86.72872112069932
 20
-102.9012208076081
 30
0.0
 10
86.72872112069932
 20
-161.8660860706448
 30
0.0
 10
86.72872112069932
 20
-161.8660860706448
 30
0.0
 10
86.72872112069932
 20
-162.1420288483534
 30
0.0
 10
86.95266664492836
 20
-162.3659721816307
 30
0.0
 10
87.22878360794166
 20
-162.3659721816307
 30
0.0
 10
87.22878360794166
 20
-162.3659721816307
 30
0.0
 10
88.1935955277717
 20
-162.3659721816307
 30
0.0
 10
88.1935955277717
 20
-162.3659721816307
 30
0.0
 10
88.1935955277717
 20
-162.3463224594132
 30
0.0
 10
88.20926108905893
 20
-162.3304827371952
 30
0.0
 10
88.22873219354196
 20
-162.3304827371952
 30
0.0
 10
88.24679441530338
 20
-162.3304827371952
 30
0.0
 10
88.26058802606258
 20
-162.3446291260807
 30
0.0
 10
88.26266941489837
 20
-162.3625149594095
 30
0.0
 10
88.52259607493376
 20
-162.3446291260807
 30
0.0
 10
88.72875940300743
 20
-162.1303166261342
 30
0.0
 10
88.72875940300743
 20
-161.8660860706448
 30
0.0
 10
88.72875940300743
 20
-161.8660860706448
 30
0.0
 10
88.72875940300743
 20
-143.1657594086527
 30
0.0
 10
88.72875940300743
 20
-143.1657594086527
 30
0.0
 10
88.72875940300743
 20
-143.1657594086527
 30
0.0
 10
95.42846784319474
 20
-143.1657594086527
 30
0.0
 10
95.42846784319474
 20
-143.1657594086527
 30
0.0
 10
95.42846784319474
 20
-143.1657594086527
 30
0.0
 10
95.42846784319474
 20
-147.3660374631584
 30
0.0
 10
95.42846784319474
 20
-147.3660374631584
 30
0.0
 10
95.42846784319474
 20
-147.3660374631584
 30
0.0
 10
96.2283914338981
 20
-147.3660374631584
 30
0.0
 10
96.2283914338981
 20
-147.3660374631584
 30
0.0
 10
96.2283914338981
 20
-147.3660374631584
 30
0.0
 10
96.2283914338981
 20
-142.8660394087278
 30
0.0
 10
96.2283914338981
 20
-142.8660394087278
 30
0.0
 10
96.2283914338981
 20
-142.6014560754606
 30
0.0
 10
96.02272199470072
 20
-142.3868260755146
 30
0.0
 10
95.76261894578094
 20
-142.3692577421854
 30
0.0
 10
95.76089033471393
 20
-142.3871788532923
 30
0.0
 10
95.74677922396282
 20
-142.4012899643996
 30
0.0
 10
95.72885811330892
 20
-142.4012899643996
 30
0.0
 10
95.7088908915961
 20
-142.4012899643996
 30
0.0
 10
95.69372144753866
 20
-142.3854502421817
 30
0.0
 10
95.69372144753866
 20
-142.3658005199641
 30
0.0
 10
95.69372144753866
 20
-142.3658005199641
 30
0.0
 10
88.42872191066202
 20
-142.3658005199641
 30
0.0
 10
88.42872191066202
 20
-142.3658005199641
 30
0.0
 10
88.15256747326286
 20
-142.3658005199641
 30
0.0
 10
87.92883581230407
 20
-142.5897438532413
 30
0.0
 10
87.92883581230407
 20
-142.8660394087278
 30
0.0
 10
87.92883581230407
 20
-142.8660394087278
 30
0.0
 10
87.92883581230407
 20
-161.5660132929421
 30
0.0
 10
87.92883581230407
 20
-161.5660132929421
 30
0.0
 10
87.92883581230407
 20
-161.5660132929421
 30
0.0
 10
87.52885637806395
 20
-161.5660132929421
 30
0.0
 10
87.52885637806395
 20
-161.5660132929421
 30
0.0
 10
87.52885637806395
 20
-161.5660132929421
 30
0.0
 10
87.52885637806395
 20
-103.1658041408753
 30
0.0
 10
87.52885637806395
 20
-103.1658041408753
 30
0.0
 10
87.52885637806395
 20
-103.1658041408753
 30
0.0
 10
96.9284436382605
 20
-103.1658041408753
 30
0.0
 10
96.9284436382605
 20
-103.1658041408753
 30
0.0
 10
96.9284436382605
 20
-103.1658041408753
 30
0.0
 10
96.9284436382605
 20
-110.3660338612975
 30
0.0
 10
96.9284436382605
 20
-110.3660338612975
 30
0.0
 10
96.9284436382605
 20
-110.3660338612975
 30
0.0
 10
97.69326584097048
 20
-110.3660338612975
 30
0.0
 10
97.69326584097048
 20
-110.3660338612975
 30
0.0
 10
97.69326584097048
 20
-110.3464194168577
 30
0.0
 10
97.7091055627886
 20
-110.3305444168617
 30
0.0
 10
97.72840250674074
 20
-110.3305444168617
 30
0.0
 10
97.72840250674074
 20
-110.3305444168617
 30
0.0
 10
97.72840250674074
 20
-102.9012208076081
 30
0.0
 10
97.72840250674074
 20
-102.9012208076081
 30
0.0
 10
97.7091055627886
 20
-102.9012208076081
 30
0.0
 10
97.69326584097048
 20
-102.8853810853899
 30
0.0
 10
97.69326584097048
 20
-102.8660841409501
 30
0.0
 10
97.69326584097048
 20
-102.8478102520657
 30
0.0
 10
97.70772972949037
 20
-102.834016640958
 30
0.0
 10
97.72494528460672
 20
-102.8319705298475
 30
0.0
 10
97.71185722938506
 20
-102.6349088632303
 30
0.0
 10
97.5861272325927
 20
-102.4697030299381
 30
0.0
 10
97.41005830898068
 20
-102.4009819188441
 30
0.0
 10
97.41005830898068
 20
-102.4009819188441
 30
0.0
 10
97.22989224168101
 20
-102.4009819188441
 30
0.0
 10
97.22989224168101
 20
-102.4009819188441
 30
0.0
 10
97.22953946391223
 20
-102.4009819188441
 30
0.0
 10
97.22953946391223
 20
-102.4013346966218
 30
0.0
 10
97.22886918615156
 20
-102.4013346966218
 30
0.0
 10
97.22886918615156
 20
-102.4013346966218
 30
0.0
 10
97.22851640838279
 20
-102.4009819188441
 30
0.0
 10
97.228163630614
 20
-102.4009819188441
 30
0.0
 10
97.228163630614
 20
-102.4009819188441
 30
0.0
 10
87.22963027458673
 20
-102.4009819188441
 30
0.0
 10
87.22963027458673
 20
-102.4009819188441
 30
0.0
 10
87.22931277459483
 20
-102.4009819188441
 30
0.0
 10
87.22913638571045
 20
-102.4013346966218
 30
0.0
 10
87.22878360794166
 20
-102.4013346966218
 30
0.0
 10
87.22843083017288
 20
-102.4013346966218
 30
0.0
 10
87.2282544412885
 20
-102.4009819188441
 30
0.0
 10
87.2282544412885
 20
-102.4009819188441
 30
0.0
 10
87.2282544412885
 20
-102.4009819188441
 30
0.0
 10
87.04756386712693
 20
-102.4009819188441
 30
0.0
 10
87.04756386712693
 20
-102.4009819188441
 30
0.0
 10
86.8715277560599
 20
-102.4697030299381
 30
0.0
 10
86.74561917582378
 20
-102.6349088632303
 30
0.0
 10
86.73218053387237
 20
-102.8319705298475
 30
0.0
  0
POLYLINE
  5
42
330
1F
100
AcDbEntity
  8
_U+30EC_U+30A4_U+30E4_U+30FC 1
 62
   179
420
  2234388
370
    25
100
AcDb2dPolyline
 66
     1
 10
0.0
 20
0.0
 30
0.0
  0
VERTEX
  5
43
330
42
100
AcDbEntity
  8
_U+30EC_U+30A4_U+30E4_U+30FC 1
 62
   179
420
  2234388
370
    25
100
AcDbVertex
100
AcDb2dVertex
 10
86.72872112069932
 20
-102.8660841409501
 30
0.0
  0
VERTEX
  5
44
330
42
100
AcDbEntity
  8
_U+30EC_U+30A4_U+30E4_U+30FC 1
 62
   179
420
  2234388
370
    25
100
AcDbVertex
100
AcDb2dVertex
 10
86.72872112069932
 20
-161.8660860706448
 30
0.0
  0
SEQEND
  5
45
330
42
100
AcDbEntity
  8
_U+30EC_U+30A4_U+30E4_U+30FC 1
 62
   179
420
  2234388
370
    25
  0
POLYLINE
  5
46
330
1F
100
AcDbEntity
  8
_U+30EC_U+30A4_U+30E4_U+30FC 1
 62
   179
420
  2234388
370
    25
100
AcDb2dPolyline
 66
     1
 10
0.0
 20
0.0
 30
0.0
  0
VERTEX
  5
47
330
46
100
AcDbEntity
  8
_U+30EC_U+30A4_U+30E4_U+30FC 1
 62
   179
420
  2234388
370
    25
100
AcDbVertex
100
AcDb2dVertex
 10
97.72840250674074
 20
-102.8660841409501
 30
0.0
  0
VERTEX
  5
48
330
46
100
AcDbEntity
  8
_U+30EC_U+30A4_U+30E4_U+30FC 1
 62
   179
420
  2234388
370
    25
100
AcDbVertex
100
AcDb2dVertex
 10
97.72840250674074
 20
-110.3660338612975
 30
0.0
  0
SEQEND
  5
49
330
46
100
AcDbEntity
  8
_U+30EC_U+30A4_U+30E4_U+30FC 1
 62
   179
420
  2234388
370
    25
  0
POLYLINE
  5
4A
330
1F
100
AcDbEntity
  8
_U+30EC_U+30A4_U+30E4_U+30FC 1
 62
   179
420
  2234388
370
    25
100
AcDb2dPolyline
 66
     1
 10
0.0
 20
0.0
 30
0.0
  0
VERTEX
  5
4B
330
4A
100
AcDbEntity
  8
_U+30EC_U+30A4_U+30E4_U+30FC 1
 62
   179
420
  2234388
370
    25
100
AcDbVertex
100
AcDb2dVertex
 10
87.22878360794166
 20
-102.3658452521863
 30
0.0
  0
VERTEX
  5
4C
330
4A
100
AcDbEntity
  8
_U+30EC_U+30A4_U+30E4_U+30FC 1
 62
   179
420
  2234388
370
    25
100
AcDbVertex
100
AcDb2dVertex
 10
97.22886918615156
 20
-102.3658452521863
 30
0.0
  0
SEQEND
  5
4D
330
4A
100
AcDbEntity
  8
_U+30EC_U+30A4_U+30E4_U+30FC 1
 62
   179
420
  2234388
370
    25
  0
POLYLINE
  5
4E
330
1F
100
AcDbEntity
  8
_U+30EC_U+30A4_U+30E4_U+30FC 1
 62
   179
420
  2234388
370
    25
100
AcDb2dPolyline
 66
     1
 10
0.0
 20
0.0
 30
0.0
  0
VERTEX
  5
4F
330
4E
100
AcDbEntity
  8
_U+30EC_U+30A4_U+30E4_U+30FC 1
 62
   179
420
  2234388
370
    25
100
AcDbVertex
100
AcDb2dVertex
 10
87.22878360794166
 20
-162.3659721816307
 30
0.0
  0
VERTEX
  5
50
330
4E
100
AcDbEntity
  8
_U+30EC_U+30A4_U+30E4_U+30FC 1
 62
   179
420
  2234388
370
    25
100
AcDbVertex
100
AcDb2dVertex
 10
88.22873219354196
 20
-162.3659721816307
 30
0.0
  0
SEQEND
  5
51
330
4E
100
AcDbEntity
  8
_U+30EC_U+30A4_U+30E4_U+30FC 1
 62
   179
420
  2234388
370
    25
  0
POLYLINE
  5
52
330
1F
100
AcDbEntity
  8
_U+30EC_U+30A4_U+30E4_U+30FC 1
 62
   179
420
  2234388
370
    25
100
AcDb2dPolyline
 66
     1
 10
0.0
 20
0.0
 30
0.0
  0
VERTEX
  5
53
330
52
100
AcDbEntity
  8
_U+30EC_U+30A4_U+30E4_U+30FC 1
 62
   179
420
  2234388
370
    25
100
AcDbVertex
100
AcDb2dVertex
 10
96.9284436382605
 20
-110.3660338612975
 30
0.0
  0
VERTEX
  5
54
330
52
100
AcDbEntity
  8
_U+30EC_U+30A4_U+30E4_U+30FC 1
 62
   179
420
  2234388
370
    25
100
AcDbVertex
100
AcDb2dVertex
 10
97.72840250674074
 20
-110.3660338612975
 30
0.0
  0
SEQEND
  5
55
330
52
100
AcDbEntity
  8
_U+30EC_U+30A4_U+30E4_U+30FC 1
 62
   179
420
  2234388
370
    25
  0
POLYLINE
  5
56
330
1F
100
AcDbEntity
  8
_U+30EC_U+30A4_U+30E4_U+30FC 1
 62
   179
420
  2234388
370
    25
100
AcDb2dPolyline
 66
     1
 10
0.0
 20
0.0
 30
0.0
  0
VERTEX
  5
57
330
56
100
AcDbEntity
  8
_U+30EC_U+30A4_U+30E4_U+30FC 1
 62
   179
420
  2234388
370
    25
100
AcDbVertex
100
AcDb2dVertex
 10
88.42872191066202
 20
-142.3658005199641
 30
0.0
  0
VERTEX
  5
58
330
56
100
AcDbEntity
  8
_U+30EC_U+30A4_U+30E4_U+30FC 1
 62
   179
420
  2234388
370
    25
100
AcDbVertex
100
AcDb2dVertex
 10
95.72885811330892
 20
-142.3658005199641
 30
0.0
  0
SEQEND
  5
59
330
56
100
AcDbEntity
  8
_U+30EC_U+30A4_U+30E4_U+30FC 1
 62
   179
420
  2234388
370
    25
  0
POLYLINE
  5
5A
330
1F
100
AcDbEntity
  8
_U+30EC_U+30A4_U+30E4_U+30FC 1
 62
   179
420
  2234388
370
    25
100
AcDb2dPolyline
 66
     1
 10
0.0
 20
0.0
 30
0.0
  0
VERTEX
  5
5B
330
5A
100
AcDbEntity
  8
_U+30EC_U+30A4_U+30E4_U+30FC 1
 62
   179
420
  2234388
370
    25
100
AcDbVertex
100
AcDb2dVertex
 10
96.9284436382605
 20
-103.1658041408753
 30
0.0
  0
VERTEX
  5
5C
330
5A
100
AcDbEntity
  8
_U+30EC_U+30A4_U+30E4_U+30FC 1
 62
   179
420
  2234388
370
    25
100
AcDbVertex
100
AcDb2dVertex
 10
96.9284436382605
 20
-110.3660338612975
 30
0.0
  0
SEQEND
  5
5D
330
5A
100
AcDbEntity
  8
_U+30EC_U+30A4_U+30E4_U+30FC 1
 62
   179
420
  2234388
370
    25
  0
POLYLINE
  5
5E
330
1F
100
AcDbEntity
  8
_U+30EC_U+30A4_U+30E4_U+30FC 1
 62
   179
420
  2234388
370
    25
100
AcDb2dPolyline
 66
     1
 10
0.0
 20
0.0
 30
0.0
  0
VERTEX
  5
5F
330
5E
100
AcDbEntity
  8
_U+30EC_U+30A4_U+30E4_U+30FC 1
 62
   179
420
  2234388
370
    25
100
AcDbVertex
100
AcDb2dVertex
 10
87.52885637806395
 20
-103.1658041408753
 30
0.0
  0
VERTEX
  5
60
330
5E
100
AcDbEntity
  8
_U+30EC_U+30A4_U+30E4_U+30FC 1
 62
   179
420
  2234388
370
    25
100
AcDbVertex
100
AcDb2dVertex
 10
96.9284436382605
 20
-103.1658041408753
 30
0.0
  0
SEQEND
  5
61
330
5E
100
AcDbEntity
  8
_U+30EC_U+30A4_U+30E4_U+30FC 1
 62
   179
420
  2234388
370
    25
  0
POLYLINE
  5
62
330
1F
100
AcDbEntity
  8
_U+30EC_U+30A4_U+30E4_U+30FC 1
 62
   179
420
  2234388
370
    25
100
AcDb2dPolyline
 66
     1
 10
0.0
 20
0.0
 30
0.0
  0
VERTEX
  5
63
330
62
100
AcDbEntity
  8
_U+30EC_U+30A4_U+30E4_U+30FC 1
 62
   179
420
  2234388
370
    25
100
AcDbVertex
100
AcDb2dVertex
 10
87.52885637806395
 20
-103.1658041408753
 30
0.0
  0
VERTEX
  5
64
330
62
100
AcDbEntity
  8
_U+30EC_U+30A4_U+30E4_U+30FC 1
 62
   179
420
  2234388
370
    25
100
AcDbVertex
100
AcDb2dVertex
 10
87.52885637806395
 20
-161.5660132929421
 30
0.0
  0
SEQEND
  5
65
330
62
100
AcDbEntity
  8
_U+30EC_U+30A4_U+30E4_U+30FC 1
 62
   179
420
  2234388
370
    25
  0
POLYLINE
  5
66
330
1F
100
AcDbEntity
  8
_U+30EC_U+30A4_U+30E4_U+30FC 1
 62
   179
420
  2234388
370
    25
100
AcDb2dPolyline
 66
     1
 10
0.0
 20
0.0
 30
0.0
  0
VERTEX
  5
67
330
66
100
AcDbEntity
  8
_U+30EC_U+30A4_U+30E4_U+30FC 1
 62
   179
420
  2234388
370
    25
100
AcDbVertex
100
AcDb2dVertex
 10
87.52885637806395
 20
-161.5660132929421
 30
0.0
  0
VERTEX
  5
68
330
66
100
AcDbEntity
  8
_U+30EC_U+30A4_U+30E4_U+30FC 1
 62
   179
420
  2234388
370
    25
100
AcDbVertex
100
AcDb2dVertex
 10
87.92883581230407
 20
-161.5660132929421
 30
0.0
  0
SEQEND
  5
69
330
66
100
AcDbEntity
  8
_U+30EC_U+30A4_U+30E4_U+30FC 1
 62
   179
420
  2234388
370
    25
  0
POLYLINE
  5
6A
330
1F
100
AcDbEntity
  8
_U+30EC_U+30A4_U+30E4_U+30FC 1
 62
   179
420
  2234388
370
    25
100
AcDb2dPolyline
 66
     1
 10
0.0
 20
0.0
 30
0.0
  0
VERTEX
  5
6B
330
6A
100
AcDbEntity
  8
_U+30EC_U+30A4_U+30E4_U+30FC 1
 62
   179
420
  2234388
370
    25
100
AcDbVertex
100
AcDb2dVertex
 10
88.72875940300743
 20
-143.1657594086527
 30
0.0
  0
VERTEX
  5
6C
330
6A
100
AcDbEntity
  8
_U+30EC_U+30A4_U+30E4_U+30FC 1
 62
   179
420
  2234388
370
    25
100
AcDbVertex
100
AcDb2dVertex
 10
88.72875940300743
 20
-161.8660860706448
 30
0.0
  0
SEQEND
  5
6D
330
6A
100
AcDbEntity
  8
_U+30EC_U+30A4_U+30E4_U+30FC 1
 62
   179
420
  2234388
370
    25
  0
POLYLINE
  5
6E
330
1F
100
AcDbEntity
  8
_U+30EC_U+30A4_U+30E4_U+30FC 1
 62
   179
420
  2234388
370
    25
100
AcDb2dPolyline
 66
     1
 10
0.0
 20
0.0
 30
0.0
  0
VERTEX
  5
6F
330
6E
100
AcDbEntity
  8
_U+30EC_U+30A4_U+30E4_U+30FC 1
 62
   179
420
  2234388
370
    25
100
AcDbVertex
100
AcDb2dVertex
 10
87.92883581230407
 20
-142.8660394087278
 30
0.0
  0
VERTEX
  5
70
330
6E
100
AcDbEntity
  8
_U+30EC_U+30A4_U+30E4_U+30FC 1
 62
   179
420
  2234388
370
    25
100
AcDbVertex
100
AcDb2dVertex
 10
87.92883581230407
 20
-161.5660132929421
 30
0.0
  0
SEQEND
  5
71
330
6E
100
AcDbEntity
  8
_U+30EC_U+30A4_U+30E4_U+30FC 1
 62
   179
420
  2234388
370
    25
  0
POLYLINE
  5
72
330
1F
100
AcDbEntity
  8
_U+30EC_U+30A4_U+30E4_U+30FC 1
 62
   179
420
  2234388
370
    25
100
AcDb2dPolyline
 66
     1
 10
0.0
 20
0.0
 30
0.0
  0
VERTEX
  5
73
330
72
100
AcDbEntity
  8
_U+30EC_U+30A4_U+30E4_U+30FC 1
 62
   179
420
  2234388
370
    25
100
AcDbVertex
100
AcDb2dVertex
 10
88.72875940300743
 20
-143.1657594086527
 30
0.0
  0
VERTEX
  5
74
330
72
100
AcDbEntity
  8
_U+30EC_U+30A4_U+30E4_U+30FC 1
 62
   179
420
  2234388
370
    25
100
AcDbVertex
100
AcDb2dVertex
 10
95.42846784319474
 20
-143.1657594086527
 30
0.0
  0
SEQEND
  5
75
330
72
100
AcDbEntity
  8
_U+30EC_U+30A4_U+30E4_U+30FC 1
 62
   179
420
  2234388
370
    25
  0
POLYLINE
  5
76
330
1F
100
AcDbEntity
  8
_U+30EC_U+30A4_U+30E4_U+30FC 1
 62
   179
420
  2234388
370
    25
100
AcDb2dPolyline
 66
     1
 10
0.0
 20
0.0
 30
0.0
  0
VERTEX
  5
77
330
76
100
AcDbEntity
  8
_U+30EC_U+30A4_U+30E4_U+30FC 1
 62
   179
420
  2234388
370
    25
100
AcDbVertex
100
AcDb2dVertex
 10
96.2283914338981
 20
-142.8660394087278
 30
0.0
  0
VERTEX
  5
78
330
76
100
AcDbEntity
  8
_U+30EC_U+30A4_U+30E4_U+30FC 1
 62
   179
420
  2234388
370
    25
100
AcDbVertex
100
AcDb2dVertex
 10
96.2283914338981
 20
-147.3660374631584
 30
0.0
  0
SEQEND
  5
79
330
76
100
AcDbEntity
  8
_U+30EC_U+30A4_U+30E4_U+30FC 1
 62
   179
420
  2234388
370
    25
  0
POLYLINE
  5
7A
330
1F
100
AcDbEntity
  8
_U+30EC_U+30A4_U+30E4_U+30FC 1
 62
   179
420
  2234388
370
    25
100
AcDb2dPolyline
 66
     1
 10
0.0
 20
0.0
 30
0.0
  0
VERTEX
  5
7B
330
7A
100
AcDbEntity
  8
_U+30EC_U+30A4_U+30E4_U+30FC 1
 62
   179
420
  2234388
370
    25
100
AcDbVertex
100
AcDb2dVertex
 10
95.42846784319474
 20
-147.3660374631584
 30
0.0
  0
VERTEX
  5
7C
330
7A
100
AcDbEntity
  8
_U+30EC_U+30A4_U+30E4_U+30FC 1
 62
   179
420
  2234388
370
    25
100
AcDbVertex
100
AcDb2dVertex
 10
96.2283914338981
 20
-147.3660374631584
 30
0.0
  0
SEQEND
  5
7D
330
7A
100
AcDbEntity
  8
_U+30EC_U+30A4_U+30E4_U+30FC 1
 62
   179
420
  2234388
370
    25
  0
POLYLINE
  5
7E
330
1F
100
AcDbEntity
  8
_U+30EC_U+30A4_U+30E4_U+30FC 1
 62
   179
420
  2234388
370
    25
100
AcDb2dPolyline
 66
     1
 10
0.0
 20
0.0
 30
0.0
  0
VERTEX
  5
7F
330
7E
100
AcDbEntity
  8
_U+30EC_U+30A4_U+30E4_U+30FC 1
 62
   179
420
  2234388
370
    25
100
AcDbVertex
100
AcDb2dVertex
 10
95.42846784319474
 20
-143.1657594086527
 30
0.0
  0
VERTEX
  5
80
330
7E
100
AcDbEntity
  8
_U+30EC_U+30A4_U+30E4_U+30FC 1
 62
   179
420
  2234388
370
    25
100
AcDbVertex
100
AcDb2dVertex
 10
95.42846784319474
 20
-147.3660374631584
 30
0.0
  0
SEQEND
  5
81
330
7E
100
AcDbEntity
  8
_U+30EC_U+30A4_U+30E4_U+30FC 1
 62
   179
420
  2234388
370
    25
  0
SPLINE
  5
82
330
1F
100
AcDbEntity
  8
_U+30EC_U+30A4_U+30E4_U+30FC 1
 62
   179
420
  2234388
370
    25
100
AcDbSpline
210
0.0
220
0.0
230
1.0
 70
     8
 71
     3
 72
     8
 73
     4
 74
     0
 42
0.0000000001
 43
0.0000000001
 12
1.0
 22
0.0
 32
0.0
 13
1.0
 23
0.0
 33
0.0
 40
0.0
 40
0.0
 40
0.0
 40
0.0
 40
1.0
 40
1.0
 40
1.0
 40
1.0
 10
87.22878360794166
 20
-102.3658452521863
 30
0.0
 10
86.95266664492836
 20
-102.3658452521863
 30
0.0
 10
86.72872112069932
 20
-102.5897885854636
 30
0.0
 10
86.72872112069932
 20
-102.8660841409501
 30
0.0
  0
SPLINE
  5
83
330
1F
100
AcDbEntity
  8
_U+30EC_U+30A4_U+30E4_U+30FC 1
 62
   179
420
  2234388
370
    25
100
AcDbSpline
210
0.0
220
0.0
230
1.0
 70
     8
 71
     3
 72
     8
 73
     4
 74
     0
 42
0.0000000001
 43
0.0000000001
 12
1.0
 22
0.0
 32
0.0
 13
1.0
 23
0.0
 33
0.0
 40
0.0
 40
0.0
 40
0.0
 40
0.0
 40
1.0
 40
1.0
 40
1.0
 40
1.0
 10
97.72840250674074
 20
-102.8660841409501
 30
0.0
 10
97.72840250674074
 20
-102.5897885854636
 30
0.0
 10
97.50516473465822
 20
-102.3658452521863
 30
0.0
 10
97.22886918615156
 20
-102.3658452521863
 30
0.0
  0
SPLINE
  5
84
330
1F
100
AcDbEntity
  8
_U+30EC_U+30A4_U+30E4_U+30FC 1
 62
   179
420
  2234388
370
    25
100
AcDbSpline
210
0.0
220
0.0
230
1.0
 70
     8
 71
     3
 72
     8
 73
     4
 74
     0
 42
0.0000000001
 43
0.0000000001
 12
1.0
 22
0.0
 32
0.0
 13
1.0
 23
0.0
 33
0.0
 40
0.0
 40
0.0
 40
0.0
 40
0.0
 40
1.0
 40
1.0
 40
1.0
 40
1.0
 10
86.72872112069932
 20
-161.8660860706448
 30
0.0
 10
86.72872112069932
 20
-162.1420288483534
 30
0.0
 10
86.95266664492836
 20
-162.3659721816307
 30
0.0
 10
87.22878360794166
 20
-162.3659721816307
 30
0.0
  0
SPLINE
  5
85
330
1F
100
AcDbEntity
  8
_U+30EC_U+30A4_U+30E4_U+30FC 1
 62
   179
420
  2234388
370
    25
100
AcDbSpline
210
0.0
220
0.0
230
1.0
 70
     8
 71
     3
 72
     8
 73
     4
 74
     0
 42
0.0000000001
 43
0.0000000001
 12
1.0
 22
0.0
 32
0.0
 13
1.0
 23
0.0
 33
0.0
 40
0.0
 40
0.0
 40
0.0
 40
0.0
 40
1.0
 40
1.0
 40
1.0
 40
1.0
 10
88.22873219354196
 20
-162.3659721816307
 30
0.0
 10
88.50485135316424
 20
-162.3659721816307
 30
0.0
 10
88.72875940300743
 20
-162.1420288483534
 30
0.0
 10
88.72875940300743
 20
-161.8660860706448
 30
0.0
  0
SPLINE
  5
86
330
1F
100
AcDbEntity
  8
_U+30EC_U+30A4_U+30E4_U+30FC 1
 62
   179
420
  2234388
370
    25
100
AcDbSpline
210
0.0
220
0.0
230
1.0
 70
     8
 71
     3
 72
     8
 73
     4
 74
     0
 42
0.0000000001
 43
0.0000000001
 12
1.0
 22
0.0
 32
0.0
 13
1.0
 23
0.0
 33
0.0
 40
0.0
 40
0.0
 40
0.0
 40
0.0
 40
1.0
 40
1.0
 40
1.0
 40
1.0
 10
88.42872191066202
 20
-142.3658005199641
 30
0.0
 10
88.15256747326286
 20
-142.3658005199641
 30
0.0
 10
87.92883581230407
 20
-142.5897438532413
 30
0.0
 10
87.92883581230407
 20
-142.8660394087278
 30
0.0
  0
SPLINE
  5
87
330
1F
100
AcDbEntity
  8
_U+30EC_U+30A4_U+30E4_U+30FC 1
 62
   179
420
  2234388
370
    25
100
AcDbSpline
210
0.0
220
0.0
230
1.0
 70
     8
 71
     3
 72
     8
 73
     4
 74
     0
 42
0.0000000001
 43
0.0000000001
 12
1.0
 22
0.0
 32
0.0
 13
1.0
 23
0.0
 33
0.0
 40
0.0
 40
0.0
 40
0.0
 40
0.0
 40
1.0
 40
1.0
 40
1.0
 40
1.0
 10
96.2283914338981
 20
-142.8660394087278
 30
0.0
 10
96.2283914338981
 20
-142.5897438532413
 30
0.0
 10
96.00515366181558
 20
-142.3658005199641
 30
0.0
 10
95.72885811330892
 20
-142.3658005199641
 30
0.0
  0
SPLINE
  5
88
330
1F
100
AcDbEntity
  8
_U+30EC_U+30A4_U+30E4_U+30FC 1
 62
   179
420
  2234388
370
     9
100
AcDbSpline
210
0.0
220
0.0
230
1.0
 70
    11
 71
     3
 72
    17
 73
    13
 74
     0
 42
0.0000000001
 43
0.0000000001
 12
1.0
 22
0.0
 32
0.0
 13
1.0
 23
0.0
 33
0.0
 40
0.0
 40
0.0
 40
0.0
 40
0.0
 40
1.0
 40
1.0
 40
1.0
 40
2.0
 40
2.0
 40
2.0
 40
3.0
 40
3.0
 40
3.0
 40
4.0
 40
4.0
 40
4.0
 40
4.0
 10
100.3287627181778
 20
-162.3659721816307
 30
0.0
 10
100.3287627181778
 20
-162.3108682927558
 30
0.0
 10
100.283959941543
 20
-162.2660655149891
 30
0.0
 10
100.22885605406
 20
-162.2660655149891
 30
0.0
 10
100.1737194194011
 20
-162.2660655149891
 30
0.0
 10
100.1289493899421
 20
-162.3108682927558
 30
0.0
 10
100.1289493899421
 20
-162.3659721816307
 30
0.0
 10
100.1289493899421
 20
-162.4211113482838
 30
0.0
 10
100.1737194194011
 20
-162.4658788482724
 30
0.0
 10
100.22885605406
 20
-162.4658788482724
 30
0.0
 10
100.283959941543
 20
-162.4658788482724
 30
0.0
 10
100.3287627181778
 20
-162.4211113482838
 30
0.0
 10
100.3287627181778
 20
-162.3659721816307
 30
0.0
  0
SPLINE
  5
89
330
1F
100
AcDbEntity
  8
_U+30EC_U+30A4_U+30E4_U+30FC 1
 62
   179
420
  2234388
370
     9
100
AcDbSpline
210
0.0
220
0.0
230
1.0
 70
    11
 71
     3
 72
    17
 73
    13
 74
     0
 42
0.0000000001
 43
0.0000000001
 12
1.0
 22
0.0
 32
0.0
 13
1.0
 23
0.0
 33
0.0
 40
0.0
 40
0.0
 40
0.0
 40
0.0
 40
1.0
 40
1.0
 40
1.0
 40
2.0
 40
2.0
 40
2.0
 40
3.0
 40
3.0
 40
3.0
 40
4.0
 40
4.0
 40
4.0
 40
4.0
 10
100.3287627181778
 20
-142.3658005199641
 30
0.0
 10
100.3287627181778
 20
-142.3106966310891
 30
0.0
 10
100.283959941543
 20
-142.2658938533224
 30
0.0
 10
100.22885605406
 20
-142.2658938533224
 30
0.0
 10
100.1737194194011
 20
-142.2658938533224
 30
0.0
 10
100.1289493899421
 20
-142.3106966310891
 30
0.0
 10
100.1289493899421
 20
-142.3658005199641
 30
0.0
 10
100.1289493899421
 20
-142.4212924643949
 30
0.0
 10
100.1737194194011
 20
-142.4660599643835
 30
0.0
 10
100.22885605406
 20
-142.4660599643835
 30
0.0
 10
100.283959941543
 20
-142.4660599643835
 30
0.0
 10
100.3287627181778
 20
-142.4212924643949
 30
0.0
 10
100.3287627181778
 20
-142.3658005199641
 30
0.0
  0
SPLINE
  5
8A
330
1F
100
AcDbEntity
  8
_U+30EC_U+30A4_U+30E4_U+30FC 1
 62
   179
420
  2234388
370
     9
100
AcDbSpline
210
0.0
220
0.0
230
1.0
 70
    11
 71
     3
 72
    17
 73
    13
 74
     0
 42
0.0000000001
 43
0.0000000001
 12
1.0
 22
0.0
 32
0.0
 13
1.0
 23
0.0
 33
0.0
 40
0.0
 40
0.0
 40
0.0
 40
0.0
 40
1.0
 40
1.0
 40
1.0
 40
2.0
 40
2.0
 40
2.0
 40
3.0
 40
3.0
 40
3.0
 40
4.0
 40
4.0
 40
4.0
 40
4.0
 10
101.8287385132436
 20
-110.3660338612975
 30
0.0
 10
101.8287385132436
 20
-110.3105771946445
 30
0.0
 10
101.7839710143857
 20
-110.2658096946559
 30
0.0
 10
101.7288318491257
 20
-110.2658096946559
 30
0.0
 10
101.6737305301374
 20
-110.2658096946559
 30
0.0
 10
101.6289277523707
 20
-110.3105771946445
 30
0.0
 10
101.6289277523707
 20
-110.3660338612975
 30
0.0
 10
101.6289277523707
 20
-110.4211730279502
 30
0.0
 10
101.6737305301374
 20
-110.4659405279391
 30
0.0
 10
101.7288318491257
 20
-110.4659405279391
 30
0.0
 10
101.7839710143857
 20
-110.4659405279391
 30
0.0
 10
101.8287385132436
 20
-110.4211730279502
 30
0.0
 10
101.8287385132436
 20
-110.3660338612975
 30
0.0
  0
SPLINE
  5
8B
330
1F
100
AcDbEntity
  8
_U+30EC_U+30A4_U+30E4_U+30FC 1
 62
   179
420
  2234388
370
     9
100
AcDbSpline
210
0.0
220
0.0
230
1.0
 70
    11
 71
     3
 72
    17
 73
    13
 74
     0
 42
0.0000000001
 43
0.0000000001
 12
1.0
 22
0.0
 32
0.0
 13
1.0
 23
0.0
 33
0.0
 40
0.0
 40
0.0
 40
0.0
 40
0.0
 40
1.0
 40
1.0
 40
1.0
 40
2.0
 40
2.0
 40
2.0
 40
3.0
 40
3.0
 40
3.0
 40
4.0
 40
4.0
 40
4.0
 40
4.0
 10
101.8287385132436
 20
-102.3658452521863
 30
0.0
 10
101.8287385132436
 20
-102.3107060855336
 30
0.0
 10
101.7839710143857
 20
-102.2659385855447
 30
0.0
 10
101.7288318491257
 20
-102.2659385855447
 30
0.0
 10
101.6737305301374
 20
-102.2659385855447
 30
0.0
 10
101.6289277523707
 20
-102.3107060855336
 30
0.0
 10
101.6289277523707
 20
-102.3658452521863
 30
0.0
 10
101.6289277523707
 20
-102.421301918839
 30
0.0
 10
101.6737305301374
 20
-102.4661046966057
 30
0.0
 10
101.7288318491257
 20
-102.4661046966057
 30
0.0
 10
101.7839710143857
 20
-102.4661046966057
 30
0.0
 10
101.8287385132436
 20
-102.421301918839
 30
0.0
 10
101.8287385132436
 20
-102.3658452521863
 30
0.0
  0
SPLINE
  5
8C
330
1F
100
AcDbEntity
  8
_U+30EC_U+30A4_U+30E4_U+30FC 1
 62
   179
420
  2234388
370
     9
100
AcDbSpline
210
0.0
220
0.0
230
1.0
 70
    11
 71
     3
 72
    17
 73
    13
 74
     0
 42
0.0000000001
 43
0.0000000001
 12
1.0
 22
0.0
 32
0.0
 13
1.0
 23
0.0
 33
0.0
 40
0.0
 40
0.0
 40
0.0
 40
0.0
 40
1.0
 40
1.0
 40
1.0
 40
2.0
 40
2.0
 40
2.0
 40
3.0
 40
3.0
 40
3.0
 40
4.0
 40
4.0
 40
4.0
 40
4.0
 10
97.82897944861925
 20
-98.36608608651946
 30
0.0
 10
97.82897944861925
 20
-98.31062941986679
 30
0.0
 10
97.78421194976136
 20
-98.26582664210038
 30
0.0
 10
97.72840250674074
 20
-98.26582664210038
 30
0.0
 10
97.67326334148079
 20
-98.26582664210038
 30
0.0
 10
97.6284958426229
 20
-98.31062941986679
 30
0.0
 10
97.6284958426229
 20
-98.36608608651946
 30
0.0
 10
97.6284958426229
 20
-98.42122525317254
 30
0.0
 10
97.67326334148079
 20
-98.46599275316142
 30
0.0
 10
97.72840250674074
 20
-98.46599275316142
 30
0.0
 10
97.78421194976136
 20
-98.46599275316142
 30
0.0
 10
97.82897944861925
 20
-98.42122525317254
 30
0.0
 10
97.82897944861925
 20
-98.36608608651946
 30
0.0
  0
SPLINE
  5
8D
330
1F
100
AcDbEntity
  8
_U+30EC_U+30A4_U+30E4_U+30FC 1
 62
   179
420
  2234388
370
     9
100
AcDbSpline
210
0.0
220
0.0
230
1.0
 70
    11
 71
     3
 72
    17
 73
    13
 74
     0
 42
0.0000000001
 43
0.0000000001
 12
1.0
 22
0.0
 32
0.0
 13
1.0
 23
0.0
 33
0.0
 40
0.0
 40
0.0
 40
0.0
 40
0.0
 40
1.0
 40
1.0
 40
1.0
 40
2.0
 40
2.0
 40
2.0
 40
3.0
 40
3.0
 40
3.0
 40
4.0
 40
4.0
 40
4.0
 40
4.0
 10
86.82880417370154
 20
-98.36608608651946
 30
0.0
 10
86.82880417370154
 20
-98.31062941986679
 30
0.0
 10
86.78403886719303
 20
-98.26582664210038
 30
0.0
 10
86.72872112069932
 20
-98.26582664210038
 30
0.0
 10
86.67361942277616
 20
-98.26582664210038
 30
0.0
 10
86.62881664500944
 20
-98.31062941986679
 30
0.0
 10
86.62881664500944
 20
-98.36608608651946
 30
0.0
 10
86.62881664500944
 20
-98.42122525317254
 30
0.0
 10
86.67361942277616
 20
-98.46599275316142
 30
0.0
 10
86.72872112069932
 20
-98.46599275316142
 30
0.0
 10
86.78403886719303
 20
-98.46599275316142
 30
0.0
 10
86.82880417370154
 20
-98.42122525317254
 30
0.0
 10
86.82880417370154
 20
-98.36608608651946
 30
0.0
  0
SPLINE
  5
8E
330
1F
100
AcDbEntity
  8
_U+30EC_U+30A4_U+30E4_U+30FC 1
 62
   179
420
  2234388
370
     9
100
AcDbSpline
210
0.0
220
0.0
230
1.0
 70
    11
 71
     3
 72
    17
 73
    13
 74
     0
 42
0.0000000001
 43
0.0000000001
 12
1.0
 22
0.0
 32
0.0
 13
1.0
 23
0.0
 33
0.0
 40
0.0
 40
0.0
 40
0.0
 40
0.0
 40
1.0
 40
1.0
 40
1.0
 40
2.0
 40
2.0
 40
2.0
 40
3.0
 40
3.0
 40
3.0
 40
4.0
 40
4.0
 40
4.0
 40
4.0
 10
82.82869442373726
 20
-102.3658452521863
 30
0.0
 10
82.82869442373726
 20
-102.3107060855336
 30
0.0
 10
82.78410122133496
 20
-102.2659385855447
 30
0.0
 10
82.72878566719062
 20
-102.2659385855447
 30
0.0
 10
82.67350539082317
 20
-102.2659385855447
 30
0.0
 10
82.6287026141884
 20
-102.3107060855336
 30
0.0
 10
82.6287026141884
 20
-102.3658452521863
 30
0.0
 10
82.6287026141884
 20
-102.421301918839
 30
0.0
 10
82.67350539082317
 20
-102.4661046966057
 30
0.0
 10
82.72878566719062
 20
-102.4661046966057
 30
0.0
 10
82.78410122133496
 20
-102.4661046966057
 30
0.0
 10
82.82869442373726
 20
-102.421301918839
 30
0.0
 10
82.82869442373726
 20
-102.3658452521863
 30
0.0
  0
SPLINE
  5
8F
330
1F
100
AcDbEntity
  8
_U+30EC_U+30A4_U+30E4_U+30FC 1
 62
   179
420
  2234388
370
     9
100
AcDbSpline
210
0.0
220
0.0
230
1.0
 70
    11
 71
     3
 72
    17
 73
    13
 74
     0
 42
0.0000000001
 43
0.0000000001
 12
1.0
 22
0.0
 32
0.0
 13
1.0
 23
0.0
 33
0.0
 40
0.0
 40
0.0
 40
0.0
 40
0.0
 40
1.0
 40
1.0
 40
1.0
 40
2.0
 40
2.0
 40
2.0
 40
3.0
 40
3.0
 40
3.0
 40
4.0
 40
4.0
 40
4.0
 40
4.0
 10
82.82869442373726
 20
-162.3659721816307
 30
0.0
 10
82.82869442373726
 20
-162.3108682927558
 30
0.0
 10
82.78410122133496
 20
-162.2660655149891
 30
0.0
 10
82.72878566719062
 20
-162.2660655149891
 30
0.0
 10
82.67350539082317
 20
-162.2660655149891
 30
0.0
 10
82.6287026141884
 20
-162.3108682927558
 30
0.0
 10
82.6287026141884
 20
-162.3659721816307
 30
0.0
 10
82.6287026141884
 20
-162.4211113482838
 30
0.0
 10
82.67350539082317
 20
-162.4658788482724
 30
0.0
 10
82.72878566719062
 20
-162.4658788482724
 30
0.0
 10
82.78410122133496
 20
-162.4658788482724
 30
0.0
 10
82.82869442373726
 20
-162.4211113482838
 30
0.0
 10
82.82869442373726
 20
-162.3659721816307
 30
0.0
  0
POLYLINE
  5
90
330
1F
100
AcDbEntity
  8
_U+30EC_U+30A4_U+30E4_U+30FC 1
 62
   179
420
  2234388
370
     9
100
AcDb2dPolyline
 66
     1
 10
0.0
 20
0.0
 30
0.0
  0
VERTEX
  5
91
330
90
100
AcDbEntity
  8
_U+30EC_U+30A4_U+30E4_U+30FC 1
 62
   179
420
  2234388
370
     9
100
AcDbVertex
100
AcDb2dVertex
 10
82.72878566719062
 20
-102.3658452521863
 30
0.0
  0
VERTEX
  5
92
330
90
100
AcDbEntity
  8
_U+30EC_U+30A4_U+30E4_U+30FC 1
 62
   179
420
  2234388
370
     9
100
AcDbVertex
100
AcDb2dVertex
 10
82.72878566719062
 20
-162.3659721816307
 30
0.0
  0
SEQEND
  5
93
330
90
100
AcDbEntity
  8
_U+30EC_U+30A4_U+30E4_U+30FC 1
 62
   179
420
  2234388
370
     9
  0
POLYLINE
  5
94
330
1F
100
AcDbEntity
  8
_U+30EC_U+30A4_U+30E4_U+30FC 1
 62
   179
420
  2234388
370
     9
100
AcDb2dPolyline
 66
     1
 10
0.0
 20
0.0
 30
0.0
  0
VERTEX
  5
95
330
94
100
AcDbEntity
  8
_U+30EC_U+30A4_U+30E4_U+30FC 1
 62
   179
420
  2234388
370
     9
100
AcDbVertex
100
AcDb2dVertex
 10
84.68871311718871
 20
-102.3658452521863
 30
0.0
  0
VERTEX
  5
96
330
94
100
AcDbEntity
  8
_U+30EC_U+30A4_U+30E4_U+30FC 1
 62
   179
420
  2234388
370
     9
100
AcDbVertex
100
AcDb2dVertex
 10
81.7288723593672
 20
-102.3658452521863
 30
0.0
  0
SEQEND
  5
97
330
94
100
AcDbEntity
  8
_U+30EC_U+30A4_U+30E4_U+30FC 1
 62
   179
420
  2234388
370
     9
  0
POLYLINE
  5
98
330
1F
100
AcDbEntity
  8
_U+30EC_U+30A4_U+30E4_U+30FC 1
 62
   179
420
  2234388
370
     9
100
AcDb2dPolyline
 66
     1
 10
0.0
 20
0.0
 30
0.0
  0
VERTEX
  5
99
330
98
100
AcDbEntity
  8
_U+30EC_U+30A4_U+30E4_U+30FC 1
 62
   179
420
  2234388
370
     9
100
AcDbVertex
100
AcDb2dVertex
 10
85.68883809167339
 20
-162.3659721816307
 30
0.0
  0
VERTEX
  5
9A
330
98
100
AcDbEntity
  8
_U+30EC_U+30A4_U+30E4_U+30FC 1
 62
   179
420
  2234388
370
     9
100
AcDbVertex
100
AcDb2dVertex
 10
81.7288723593672
 20
-162.3659721816307
 30
0.0
  0
SEQEND
  5
9B
330
98
100
AcDbEntity
  8
_U+30EC_U+30A4_U+30E4_U+30FC 1
 62
   179
420
  2234388
370
     9
  0
INSERT
  5
9D
330
1F
100
AcDbEntity
  8
_U+30EC_U+30A4_U+30E4_U+30FC 1
100
AcDbBlockReference
  2
block 2
 10
0.0
 20
0.0
 30
0.0
  0
SPLINE
  5
A6
330
1F
100
AcDbEntity
  8
_U+30EC_U+30A4_U+30E4_U+30FC 1
 62
   179
420
  2234388
370
    25
100
AcDbSpline
210
0.0
220
0.0
230
1.0
 70
    11
 71
     3
 72
    17
 73
    13
 74
     0
 42
0.0000000001
 43
0.0000000001
 12
1.0
 22
0.0
 32
0.0
 13
1.0
 23
0.0
 33
0.0
 40
0.0
 40
0.0
 40
0.0
 40
0.0
 40
1.0
 40
1.0
 40
1.0
 40
2.0
 40
2.0
 40
2.0
 40
3.0
 40
3.0
 40
3.0
 40
4.0
 40
4.0
 40
4.0
 40
4.0
 10
87.26409666259632
 20
-102.3658452521863
 30
0.0
 10
87.26409666259632
 20
-102.3854949744036
 30
0.0
 10
87.24825694077819
 20
-102.4013346966218
 30
0.0
 10
87.22878360794166
 20
-102.4013346966218
 30
0.0
 10
87.20931027510514
 20
-102.4013346966218
 30
0.0
 10
87.19347055328701
 20
-102.3854949744036
 30
0.0
 10
87.19347055328701
 20
-102.3658452521863
 30
0.0
 10
87.19347055328701
 20
-102.3465483077468
 30
0.0
 10
87.20931027510514
 20
-102.3307085855283
 30
0.0
 10
87.22878360794166
 20
-102.3307085855283
 30
0.0
 10
87.24825694077819
 20
-102.3307085855283
 30
0.0
 10
87.26409666259632
 20
-102.3465483077468
 30
0.0
 10
87.26409666259632
 20
-102.3658452521863
 30
0.0
  0
SPLINE
  5
A7
330
1F
100
AcDbEntity
  8
_U+30EC_U+30A4_U+30E4_U+30FC 1
 62
   179
420
  2234388
370
    25
100
AcDbSpline
210
0.0
220
0.0
230
1.0
 70
    11
 71
     3
 72
    17
 73
    13
 74
     0
 42
0.0000000001
 43
0.0000000001
 12
1.0
 22
0.0
 32
0.0
 13
1.0
 23
0.0
 33
0.0
 40
0.0
 40
0.0
 40
0.0
 40
0.0
 40
1.0
 40
1.0
 40
1.0
 40
2.0
 40
2.0
 40
2.0
 40
3.0
 40
3.0
 40
3.0
 40
4.0
 40
4.0
 40
4.0
 40
4.0
 10
88.26404524819661
 20
-162.3659721816307
 30
0.0
 10
88.26404524819661
 20
-162.3852691260706
 30
0.0
 10
88.24817024860161
 20
-162.4011088482885
 30
0.0
 10
88.22873219354196
 20
-162.4011088482885
 30
0.0
 10
88.20926108905893
 20
-162.4011088482885
 30
0.0
 10
88.1935955277717
 20
-162.3852691260706
 30
0.0
 10
88.1935955277717
 20
-162.3659721816307
 30
0.0
 10
88.1935955277717
 20
-162.3463224594132
 30
0.0
 10
88.20926108905893
 20
-162.3304827371952
 30
0.0
 10
88.22873219354196
 20
-162.3304827371952
 30
0.0
 10
88.24817024860161
 20
-162.3304827371952
 30
0.0
 10
88.26404524819661
 20
-162.3463224594132
 30
0.0
 10
88.26404524819661
 20
-162.3659721816307
 30
0.0
  0
SPLINE
  5
A8
330
1F
100
AcDbEntity
  8
_U+30EC_U+30A4_U+30E4_U+30FC 1
 62
   179
420
  2234388
370
     9
100
AcDbSpline
210
0.0
220
0.0
230
1.0
 70
    11
 71
     3
 72
    17
 73
    13
 74
     0
 42
0.0000000001
 43
0.0000000001
 12
1.0
 22
0.0
 32
0.0
 13
1.0
 23
0.0
 33
0.0
 40
0.0
 40
0.0
 40
0.0
 40
0.0
 40
1.0
 40
1.0
 40
1.0
 40
2.0
 40
2.0
 40
2.0
 40
3.0
 40
3.0
 40
3.0
 40
4.0
 40
4.0
 40
4.0
 40
4.0
 10
82.76409872184527
 20
-162.3659721816307
 30
0.0
 10
82.76409872184527
 20
-162.3852691260706
 30
0.0
 10
82.74826109042401
 20
-162.4011088482885
 30
0.0
 10
82.72878566719062
 20
-162.4011088482885
 30
0.0
 10
82.70934761213097
 20
-162.4011088482885
 30
0.0
 10
82.69347261253597
 20
-162.3852691260706
 30
0.0
 10
82.69347261253597
 20
-162.3659721816307
 30
0.0
 10
82.69347261253597
 20
-162.3463224594132
 30
0.0
 10
82.70934761213097
 20
-162.3304827371952
 30
0.0
 10
82.72878566719062
 20
-162.3304827371952
 30
0.0
 10
82.74826109042401
 20
-162.3304827371952
 30
0.0
 10
82.76409872184527
 20
-162.3463224594132
 30
0.0
 10
82.76409872184527
 20
-162.3659721816307
 30
0.0
  0
POLYLINE
  5
A9
330
1F
100
AcDbEntity
  8
_U+30EC_U+30A4_U+30E4_U+30FC 1
 62
   179
420
  2234388
370
     9
100
AcDb2dPolyline
 66
     1
 10
0.0
 20
0.0
 30
0.0
  0
VERTEX
  5
AA
330
A9
100
AcDbEntity
  8
_U+30EC_U+30A4_U+30E4_U+30FC 1
 62
   179
420
  2234388
370
     9
100
AcDbVertex
100
AcDb2dVertex
 10
101.7288318491257
 20
-102.3658452521863
 30
0.0
  0
VERTEX
  5
AB
330
A9
100
AcDbEntity
  8
_U+30EC_U+30A4_U+30E4_U+30FC 1
 62
   179
420
  2234388
370
     9
100
AcDbVertex
100
AcDb2dVertex
 10
101.7288318491257
 20
-110.3660338612975
 30
0.0
  0
SEQEND
  5
AC
330
A9
100
AcDbEntity
  8
_U+30EC_U+30A4_U+30E4_U+30FC 1
 62
   179
420
  2234388
370
     9
  0
POLYLINE
  5
AD
330
1F
100
AcDbEntity
  8
_U+30EC_U+30A4_U+30E4_U+30FC 1
 62
   179
420
  2234388
370
     9
100
AcDb2dPolyline
 66
     1
 10
0.0
 20
0.0
 30
0.0
  0
VERTEX
  5
AE
330
AD
100
AcDbEntity
  8
_U+30EC_U+30A4_U+30E4_U+30FC 1
 62
   179
420
  2234388
370
     9
100
AcDbVertex
100
AcDb2dVertex
 10
99.76858689913574
 20
-102.3658452521863
 30
0.0
  0
VERTEX
  5
AF
330
AD
100
AcDbEntity
  8
_U+30EC_U+30A4_U+30E4_U+30FC 1
 62
   179
420
  2234388
370
     9
100
AcDbVertex
100
AcDb2dVertex
 10
102.7286040458416
 20
-102.3658452521863
 30
0.0
  0
SEQEND
  5
B0
330
AD
100
AcDbEntity
  8
_U+30EC_U+30A4_U+30E4_U+30FC 1
 62
   179
420
  2234388
370
     9
  0
POLYLINE
  5
B1
330
1F
100
AcDbEntity
  8
_U+30EC_U+30A4_U+30E4_U+30FC 1
 62
   179
420
  2234388
370
     9
100
AcDb2dPolyline
 66
     1
 10
0.0
 20
0.0
 30
0.0
  0
VERTEX
  5
B2
330
B1
100
AcDbEntity
  8
_U+30EC_U+30A4_U+30E4_U+30FC 1
 62
   179
420
  2234388
370
     9
100
AcDbVertex
100
AcDb2dVertex
 10
100.2688257752625
 20
-110.3660338612975
 30
0.0
  0
VERTEX
  5
B3
330
B1
100
AcDbEntity
  8
_U+30EC_U+30A4_U+30E4_U+30FC 1
 62
   179
420
  2234388
370
     9
100
AcDbVertex
100
AcDb2dVertex
 10
102.7286040458416
 20
-110.3660338612975
 30
0.0
  0
SEQEND
  5
B4
330
B1
100
AcDbEntity
  8
_U+30EC_U+30A4_U+30E4_U+30FC 1
 62
   179
420
  2234388
370
     9
  0
INSERT
  5
B6
330
1F
100
AcDbEntity
  8
_U+30EC_U+30A4_U+30E4_U+30FC 1
100
AcDbBlockReference
  2
block 3
 10
0.0
 20
0.0
 30
0.0
  0
SPLINE
  5
BD
330
1F
100
AcDbEntity
  8
_U+30EC_U+30A4_U+30E4_U+30FC 1
 62
   179
420
  2234388
370
    25
100
AcDbSpline
210
0.0
220
0.0
230
1.0
 70
    11
 71
     3
 72
    17
 73
    13
 74
     0
 42
0.0000000001
 43
0.0000000001
 12
1.0
 22
0.0
 32
0.0
 13
1.0
 23
0.0
 33
0.0
 40
0.0
 40
0.0
 40
0.0
 40
0.0
 40
1.0
 40
1.0
 40
1.0
 40
2.0
 40
2.0
 40
2.0
 40
3.0
 40
3.0
 40
3.0
 40
4.0
 40
4.0
 40
4.0
 40
4.0
 10
97.2640083090176
 20
-102.3658452521863
 30
0.0
 10
97.2640083090176
 20
-102.3854949744036
 30
0.0
 10
97.2481661301037
 20
-102.4013346966218
 30
0.0
 10
97.22886918615156
 20
-102.4013346966218
 30
0.0
 10
97.20886668666186
 20
-102.4013346966218
 30
0.0
 10
97.1937325203813
 20
-102.3854949744036
 30
0.0
 10
97.1937325203813
 20
-102.3658452521863
 30
0.0
 10
97.1937325203813
 20
-102.3465483077468
 30
0.0
 10
97.20886668666186
 20
-102.3307085855283
 30
0.0
 10
97.22886918615156
 20
-102.3307085855283
 30
0.0
 10
97.2481661301037
 20
-102.3307085855283
 30
0.0
 10
97.2640083090176
 20
-102.3465483077468
 30
0.0
 10
97.2640083090176
 20
-102.3658452521863
 30
0.0
  0
SPLINE
  5
BE
330
1F
100
AcDbEntity
  8
_U+30EC_U+30A4_U+30E4_U+30FC 1
 62
   179
420
  2234388
370
    25
100
AcDbSpline
210
0.0
220
0.0
230
1.0
 70
    11
 71
     3
 72
    17
 73
    13
 74
     0
 42
0.0000000001
 43
0.0000000001
 12
1.0
 22
0.0
 32
0.0
 13
1.0
 23
0.0
 33
0.0
 40
0.0
 40
0.0
 40
0.0
 40
0.0
 40
1.0
 40
1.0
 40
1.0
 40
2.0
 40
2.0
 40
2.0
 40
3.0
 40
3.0
 40
3.0
 40
4.0
 40
4.0
 40
4.0
 40
4.0
 10
97.7642471977813
 20
-110.3660338612975
 30
0.0
 10
97.7642471977813
 20
-110.385330805737
 30
0.0
 10
97.74837219778526
 20
-110.4011705279552
 30
0.0
 10
97.72840250674074
 20
-110.4011705279552
 30
0.0
 10
97.7091055627886
 20
-110.4011705279552
 30
0.0
 10
97.69326584097048
 20
-110.385330805737
 30
0.0
 10
97.69326584097048
 20
-110.3660338612975
 30
0.0
 10
97.69326584097048
 20
-110.3464194168577
 30
0.0
 10
97.7091055627886
 20
-110.3305444168617
 30
0.0
 10
97.72840250674074
 20
-110.3305444168617
 30
0.0
 10
97.74837219778526
 20
-110.3305444168617
 30
0.0
 10
97.7642471977813
 20
-110.3464194168577
 30
0.0
 10
97.7642471977813
 20
-110.3660338612975
 30
0.0
  0
SPLINE
  5
BF
330
1F
100
AcDbEntity
  8
_U+30EC_U+30A4_U+30E4_U+30FC 1
 62
   179
420
  2234388
370
     9
100
AcDbSpline
210
0.0
220
0.0
230
1.0
 70
    11
 71
     3
 72
    17
 73
    13
 74
     0
 42
0.0000000001
 43
0.0000000001
 12
1.0
 22
0.0
 32
0.0
 13
1.0
 23
0.0
 33
0.0
 40
0.0
 40
0.0
 40
0.0
 40
0.0
 40
1.0
 40
1.0
 40
1.0
 40
2.0
 40
2.0
 40
2.0
 40
3.0
 40
3.0
 40
3.0
 40
4.0
 40
4.0
 40
4.0
 40
4.0
 10
101.763968514896
 20
-110.3660338612975
 30
0.0
 10
101.763968514896
 20
-110.385330805737
 30
0.0
 10
101.7481287930779
 20
-110.4011705279552
 30
0.0
 10
101.7288318491257
 20
-110.4011705279552
 30
0.0
 10
101.7095349051736
 20
-110.4011705279552
 30
0.0
 10
101.6936951833555
 20
-110.385330805737
 30
0.0
 10
101.6936951833555
 20
-110.3660338612975
 30
0.0
 10
101.6936951833555
 20
-110.3464194168577
 30
0.0
 10
101.7095349051736
 20
-110.3305444168617
 30
0.0
 10
101.7288318491257
 20
-110.3305444168617
 30
0.0
 10
101.7481287930779
 20
-110.3305444168617
 30
0.0
 10
101.763968514896
 20
-110.3464194168577
 30
0.0
 10
101.763968514896
 20
-110.3660338612975
 30
0.0
  0
POLYLINE
  5
C0
330
1F
100
AcDbEntity
  8
_U+30EC_U+30A4_U+30E4_U+30FC 1
 62
   179
420
  2234388
370
     9
100
AcDb2dPolyline
 66
     1
 10
0.0
 20
0.0
 30
0.0
  0
VERTEX
  5
C1
330
C0
100
AcDbEntity
  8
_U+30EC_U+30A4_U+30E4_U+30FC 1
 62
   179
420
  2234388
370
     9
100
AcDbVertex
100
AcDb2dVertex
 10
100.22885605406
 20
-142.3658005199641
 30
0.0
  0
VERTEX
  5
C2
330
C0
100
AcDbEntity
  8
_U+30EC_U+30A4_U+30E4_U+30FC 1
 62
   179
420
  2234388
370
     9
100
AcDbVertex
100
AcDb2dVertex
 10
100.22885605406
 20
-162.3659721816307
 30
0.0
  0
SEQEND
  5
C3
330
C0
100
AcDbEntity
  8
_U+30EC_U+30A4_U+30E4_U+30FC 1
 62
   179
420
  2234388
370
     9
  0
POLYLINE
  5
C4
330
1F
100
AcDbEntity
  8
_U+30EC_U+30A4_U+30E4_U+30FC 1
 62
   179
420
  2234388
370
     9
100
AcDb2dPolyline
 66
     1
 10
0.0
 20
0.0
 30
0.0
  0
VERTEX
  5
C5
330
C4
100
AcDbEntity
  8
_U+30EC_U+30A4_U+30E4_U+30FC 1
 62
   179
420
  2234388
370
     9
100
AcDbVertex
100
AcDb2dVertex
 10
98.2685758262931
 20
-142.3658005199641
 30
0.0
  0
VERTEX
  5
C6
330
C4
100
AcDbEntity
  8
_U+30EC_U+30A4_U+30E4_U+30FC 1
 62
   179
420
  2234388
370
     9
100
AcDbVertex
100
AcDb2dVertex
 10
101.2286282507759
 20
-142.3658005199641
 30
0.0
  0
SEQEND
  5
C7
330
C4
100
AcDbEntity
  8
_U+30EC_U+30A4_U+30E4_U+30FC 1
 62
   179
420
  2234388
370
     9
  0
POLYLINE
  5
C8
330
1F
100
AcDbEntity
  8
_U+30EC_U+30A4_U+30E4_U+30FC 1
 62
   179
420
  2234388
370
     9
100
AcDb2dPolyline
 66
     1
 10
0.0
 20
0.0
 30
0.0
  0
VERTEX
  5
C9
330
C8
100
AcDbEntity
  8
_U+30EC_U+30A4_U+30E4_U+30FC 1
 62
   179
420
  2234388
370
     9
100
AcDbVertex
100
AcDb2dVertex
 10
90.76880268429493
 20
-162.3659721816307
 30
0.0
  0
VERTEX
  5
CA
330
C8
100
AcDbEntity
  8
_U+30EC_U+30A4_U+30E4_U+30FC 1
 62
   179
420
  2234388
370
     9
100
AcDbVertex
100
AcDb2dVertex
 10
101.2286282507759
 20
-162.3659721816307
 30
0.0
  0
SEQEND
  5
CB
330
C8
100
AcDbEntity
  8
_U+30EC_U+30A4_U+30E4_U+30FC 1
 62
   179
420
  2234388
370
     9
  0
INSERT
  5
CD
330
1F
100
AcDbEntity
  8
_U+30EC_U+30A4_U+30E4_U+30FC 1
100
AcDbBlockReference
  2
block 4
 10
0.0
 20
0.0
 30
0.0
  0
SPLINE
  5
E0
330
1F
100
AcDbEntity
  8
_U+30EC_U+30A4_U+30E4_U+30FC 1
 62
   179
420
  2234388
370
    25
100
AcDbSpline
210
0.0
220
0.0
230
1.0
 70
    11
 71
     3
 72
    17
 73
    13
 74
     0
 42
0.0000000001
 43
0.0000000001
 12
1.0
 22
0.0
 32
0.0
 13
1.0
 23
0.0
 33
0.0
 40
0.0
 40
0.0
 40
0.0
 40
0.0
 40
1.0
 40
1.0
 40
1.0
 40
2.0
 40
2.0
 40
2.0
 40
3.0
 40
3.0
 40
3.0
 40
4.0
 40
4.0
 40
4.0
 40
4.0
 10
95.76399719828134
 20
-142.3658005199641
 30
0.0
 10
95.76399719828134
 20
-142.3854502421817
 30
0.0
 10
95.74815505726106
 20
-142.4012899643996
 30
0.0
 10
95.72885811330892
 20
-142.4012899643996
 30
0.0
 10
95.7088908915961
 20
-142.4012899643996
 30
0.0
 10
95.69372144753866
 20
-142.3854502421817
 30
0.0
 10
95.69372144753866
 20
-142.3658005199641
 30
0.0
 10
95.69372144753866
 20
-142.3465388533024
 30
0.0
 10
95.7088908915961
 20
-142.3306638533063
 30
0.0
 10
95.72885811330892
 20
-142.3306638533063
 30
0.0
 10
95.74815505726106
 20
-142.3306638533063
 30
0.0
 10
95.76399719828134
 20
-142.3465388533024
 30
0.0
 10
95.76399719828134
 20
-142.3658005199641
 30
0.0
  0
SPLINE
  5
E1
330
1F
100
AcDbEntity
  8
_U+30EC_U+30A4_U+30E4_U+30FC 1
 62
   179
420
  2234388
370
    25
100
AcDbSpline
210
0.0
220
0.0
230
1.0
 70
    11
 71
     3
 72
    17
 73
    13
 74
     0
 42
0.0000000001
 43
0.0000000001
 12
1.0
 22
0.0
 32
0.0
 13
1.0
 23
0.0
 33
0.0
 40
0.0
 40
0.0
 40
0.0
 40
0.0
 40
1.0
 40
1.0
 40
1.0
 40
2.0
 40
2.0
 40
2.0
 40
3.0
 40
3.0
 40
3.0
 40
4.0
 40
4.0
 40
4.0
 40
4.0
 10
88.26404524819661
 20
-162.3659721816307
 30
0.0
 10
88.26404524819661
 20
-162.3852691260706
 30
0.0
 10
88.24817024860161
 20
-162.4011088482885
 30
0.0
 10
88.22873219354196
 20
-162.4011088482885
 30
0.0
 10
88.20926108905893
 20
-162.4011088482885
 30
0.0
 10
88.1935955277717
 20
-162.3852691260706
 30
0.0
 10
88.1935955277717
 20
-162.3659721816307
 30
0.0
 10
88.1935955277717
 20
-162.3463224594132
 30
0.0
 10
88.20926108905893
 20
-162.3304827371952
 30
0.0
 10
88.22873219354196
 20
-162.3304827371952
 30
0.0
 10
88.24817024860161
 20
-162.3304827371952
 30
0.0
 10
88.26404524819661
 20
-162.3463224594132
 30
0.0
 10
88.26404524819661
 20
-162.3659721816307
 30
0.0
  0
SPLINE
  5
E2
330
1F
100
AcDbEntity
  8
_U+30EC_U+30A4_U+30E4_U+30FC 1
 62
   179
420
  2234388
370
     9
100
AcDbSpline
210
0.0
220
0.0
230
1.0
 70
    11
 71
     3
 72
    17
 73
    13
 74
     0
 42
0.0000000001
 43
0.0000000001
 12
1.0
 22
0.0
 32
0.0
 13
1.0
 23
0.0
 33
0.0
 40
0.0
 40
0.0
 40
0.0
 40
0.0
 40
1.0
 40
1.0
 40
1.0
 40
2.0
 40
2.0
 40
2.0
 40
3.0
 40
3.0
 40
3.0
 40
4.0
 40
4.0
 40
4.0
 40
4.0
 10
100.2639927198302
 20
-162.3659721816307
 30
0.0
 10
100.2639927198302
 20
-162.3852691260706
 30
0.0
 10
100.2481555304934
 20
-162.4011088482885
 30
0.0
 10
100.22885605406
 20
-162.4011088482885
 30
0.0
 10
100.2095591101078
 20
-162.4011088482885
 30
0.0
 10
100.1937193882897
 20
-162.3852691260706
 30
0.0
 10
100.1937193882897
 20
-162.3659721816307
 30
0.0
 10
100.1937193882897
 20
-162.3463224594132
 30
0.0
 10
100.2095591101078
 20
-162.3304827371952
 30
0.0
 10
100.22885605406
 20
-162.3304827371952
 30
0.0
 10
100.2481555304934
 20
-162.3304827371952
 30
0.0
 10
100.2639927198302
 20
-162.3463224594132
 30
0.0
 10
100.2639927198302
 20
-162.3659721816307
 30
0.0
  0
POLYLINE
  5
E3
330
1F
100
AcDbEntity
  8
_U+30EC_U+30A4_U+30E4_U+30FC 1
 62
   179
420
  2234388
370
     9
100
AcDb2dPolyline
 66
     1
 10
0.0
 20
0.0
 30
0.0
  0
VERTEX
  5
E4
330
E3
100
AcDbEntity
  8
_U+30EC_U+30A4_U+30E4_U+30FC 1
 62
   179
420
  2234388
370
     9
100
AcDbVertex
100
AcDb2dVertex
 10
86.72872112069932
 20
-98.36608608651946
 30
0.0
  0
VERTEX
  5
E5
330
E3
100
AcDbEntity
  8
_U+30EC_U+30A4_U+30E4_U+30FC 1
 62
   179
420
  2234388
370
     9
100
AcDbVertex
100
AcDb2dVertex
 10
97.72840250674074
 20
-98.36608608651946
 30
0.0
  0
SEQEND
  5
E6
330
E3
100
AcDbEntity
  8
_U+30EC_U+30A4_U+30E4_U+30FC 1
 62
   179
420
  2234388
370
     9
  0
POLYLINE
  5
E7
330
1F
100
AcDbEntity
  8
_U+30EC_U+30A4_U+30E4_U+30FC 1
 62
   179
420
  2234388
370
     9
100
AcDb2dPolyline
 66
     1
 10
0.0
 20
0.0
 30
0.0
  0
VERTEX
  5
E8
330
E7
100
AcDbEntity
  8
_U+30EC_U+30A4_U+30E4_U+30FC 1
 62
   179
420
  2234388
370
     9
100
AcDbVertex
100
AcDb2dVertex
 10
86.72872112069932
 20
-100.3260135860298
 30
0.0
  0
VERTEX
  5
E9
330
E7
100
AcDbEntity
  8
_U+30EC_U+30A4_U+30E4_U+30FC 1
 62
   179
420
  2234388
370
     9
100
AcDbVertex
100
AcDb2dVertex
 10
86.72872112069932
 20
-97.36596108676949
 30
0.0
  0
SEQEND
  5
EA
330
E7
100
AcDbEntity
  8
_U+30EC_U+30A4_U+30E4_U+30FC 1
 62
   179
420
  2234388
370
     9
  0
POLYLINE
  5
EB
330
1F
100
AcDbEntity
  8
_U+30EC_U+30A4_U+30E4_U+30FC 1
 62
   179
420
  2234388
370
     9
100
AcDb2dPolyline
 66
     1
 10
0.0
 20
0.0
 30
0.0
  0
VERTEX
  5
EC
330
EB
100
AcDbEntity
  8
_U+30EC_U+30A4_U+30E4_U+30FC 1
 62
   179
420
  2234388
370
     9
100
AcDbVertex
100
AcDb2dVertex
 10
97.72840250674074
 20
-100.3260135860298
 30
0.0
  0
VERTEX
  5
ED
330
EB
100
AcDbEntity
  8
_U+30EC_U+30A4_U+30E4_U+30FC 1
 62
   179
420
  2234388
370
     9
100
AcDbVertex
100
AcDb2dVertex
 10
97.72840250674074
 20
-97.36596108676949
 30
0.0
  0
SEQEND
  5
EE
330
EB
100
AcDbEntity
  8
_U+30EC_U+30A4_U+30E4_U+30FC 1
 62
   179
420
  2234388
370
     9
  0
INSERT
  5
F0
330
1F
100
AcDbEntity
  8
_U+30EC_U+30A4_U+30E4_U+30FC 1
100
AcDbBlockReference
  2
block 5
 10
0.0
 20
0.0
 30
0.0
  0
SPLINE
  5
F7
330
1F
100
AcDbEntity
  8
_U+30EC_U+30A4_U+30E4_U+30FC 1
 62
   179
420
  2234388
370
    25
100
AcDbSpline
210
0.0
220
0.0
230
1.0
 70
    11
 71
     3
 72
    17
 73
    13
 74
     0
 42
0.0000000001
 43
0.0000000001
 12
1.0
 22
0.0
 32
0.0
 13
1.0
 23
0.0
 33
0.0
 40
0.0
 40
0.0
 40
0.0
 40
0.0
 40
1.0
 40
1.0
 40
1.0
 40
2.0
 40
2.0
 40
2.0
 40
3.0
 40
3.0
 40
3.0
 40
4.0
 40
4.0
 40
4.0
 40
4.0
 10
86.76403417535397
 20
-102.8660841409501
 30
0.0
 10
86.76403417535397
 20
-102.8853810853899
 30
0.0
 10
86.74819445353585
 20
-102.9012208076081
 30
0.0
 10
86.72872112069932
 20
-102.9012208076081
 30
0.0
 10
86.70924997832267
 20
-102.9012208076081
 30
0.0
 10
86.69358445492907
 20
-102.8853810853899
 30
0.0
 10
86.69358445492907
 20
-102.8660841409501
 30
0.0
 10
86.69358445492907
 20
-102.8464344187328
 30
0.0
 10
86.70924997832267
 20
-102.8305946965146
 30
0.0
 10
86.72872112069932
 20
-102.8305946965146
 30
0.0
 10
86.74819445353585
 20
-102.8305946965146
 30
0.0
 10
86.76403417535397
 20
-102.8464344187328
 30
0.0
 10
86.76403417535397
 20
-102.8660841409501
 30
0.0
  0
SPLINE
  5
F8
330
1F
100
AcDbEntity
  8
_U+30EC_U+30A4_U+30E4_U+30FC 1
 62
   179
420
  2234388
370
    25
100
AcDbSpline
210
0.0
220
0.0
230
1.0
 70
    11
 71
     3
 72
    17
 73
    13
 74
     0
 42
0.0000000001
 43
0.0000000001
 12
1.0
 22
0.0
 32
0.0
 13
1.0
 23
0.0
 33
0.0
 40
0.0
 40
0.0
 40
0.0
 40
0.0
 40
1.0
 40
1.0
 40
1.0
 40
2.0
 40
2.0
 40
2.0
 40
3.0
 40
3.0
 40
3.0
 40
4.0
 40
4.0
 40
4.0
 40
4.0
 10
97.7642471977813
 20
-102.8660841409501
 30
0.0
 10
97.7642471977813
 20
-102.8853810853899
 30
0.0
 10
97.74837219778526
 20
-102.9012208076081
 30
0.0
 10
97.72840250674074
 20
-102.9012208076081
 30
0.0
 10
97.7091055627886
 20
-102.9012208076081
 30
0.0
 10
97.69326584097048
 20
-102.8853810853899
 30
0.0
 10
97.69326584097048
 20
-102.8660841409501
 30
0.0
 10
97.69326584097048
 20
-102.8464344187328
 30
0.0
 10
97.7091055627886
 20
-102.8305946965146
 30
0.0
 10
97.72840250674074
 20
-102.8305946965146
 30
0.0
 10
97.74837219778526
 20
-102.8305946965146
 30
0.0
 10
97.7642471977813
 20
-102.8464344187328
 30
0.0
 10
97.7642471977813
 20
-102.8660841409501
 30
0.0
  0
SPLINE
  5
F9
330
1F
100
AcDbEntity
  8
_U+30EC_U+30A4_U+30E4_U+30FC 1
 62
   179
420
  2234388
370
     9
100
AcDbSpline
210
0.0
220
0.0
230
1.0
 70
    11
 71
     3
 72
    17
 73
    13
 74
     0
 42
0.0000000001
 43
0.0000000001
 12
1.0
 22
0.0
 32
0.0
 13
1.0
 23
0.0
 33
0.0
 40
0.0
 40
0.0
 40
0.0
 40
0.0
 40
1.0
 40
1.0
 40
1.0
 40
2.0
 40
2.0
 40
2.0
 40
3.0
 40
3.0
 40
3.0
 40
4.0
 40
4.0
 40
4.0
 40
4.0
 10
97.7642471977813
 20
-98.36608608651946
 30
0.0
 10
97.7642471977813
 20
-98.38538303095929
 30
0.0
 10
97.74837219778526
 20
-98.4012227531775
 30
0.0
 10
97.72840250674074
 20
-98.4012227531775
 30
0.0
 10
97.7091055627886
 20
-98.4012227531775
 30
0.0
 10
97.69326584097048
 20
-98.38538303095929
 30
0.0
 10
97.69326584097048
 20
-98.36608608651946
 30
0.0
 10
97.69326584097048
 20
-98.34643636430219
 30
0.0
 10
97.7091055627886
 20
-98.33059664208398
 30
0.0
 10
97.72840250674074
 20
-98.33059664208398
 30
0.0
 10
97.74837219778526
 20
-98.33059664208398
 30
0.0
 10
97.7642471977813
 20
-98.34643636430219
 30
0.0
 10
97.7642471977813
 20
-98.36608608651946
 30
0.0
  0
ENDSEC
  0
SECTION
  2
OBJECTS
  0
DICTIONARY
  5
C
330
0
100
AcDbDictionary
281
     1
  3
ACAD_GROUP
350
D
  3
ACAD_LAYOUT
350
1A
  3
ACAD_MATERIAL
350
3B
  3
ACAD_MLEADERSTYLE
350
FB
  3
ACAD_MLINESTYLE
350
17
  3
ACAD_PLOTSETTINGS
350
19
  3
ACAD_PLOTSTYLENAME
350
E
  3
ACAD_TABLESTYLE
350
FA
  3
ACAD_VISUALSTYLE
350
2A
  0
SUN
  5
3F
330
29
100
AcDbSun
 90
        1
290
     0
 63
     7
421
 16777215
 40
1.0
291
     1
 91
  2455826
 92
 54000000
292
     0
 70
     2
 71
   256
280
     1
  0
DICTIONARY
  5
D
102
{ACAD_REACTORS
330
C
102
}
330
C
100
AcDbDictionary
281
     1
  0
DICTIONARY
  5
1A
102
{ACAD_REACTORS
330
C
102
}
330
C
100
AcDbDictionary
281
     1
  3
Layout1
350
1E
  3
Layout2
350
26
  3
Model
350
22
  0
DICTIONARY
  5
3B
102
{ACAD_REACTORS
330
C
102
}
330
C
100
AcDbDictionary
281
     1
  3
ByBlock
350
3D
  3
ByLayer
350
3C
  3
Global
350
3E
  0
DICTIONARY
  5
FB
102
{ACAD_REACTORS
330
C
102
}
330
C
100
AcDbDictionary
281
     1
  0
DICTIONARY
  5
17
102
{ACAD_REACTORS
330
C
102
}
330
C
100
AcDbDictionary
281
     1
  3
Standard
350
18
  0
DICTIONARY
  5
19
102
{ACAD_REACTORS
330
C
102
}
330
C
100
AcDbDictionary
281
     1
  0
ACDBDICTIONARYWDFLT
  5
E
102
{ACAD_REACTORS
330
C
102
}
330
C
100
AcDbDictionary
281
     1
  3
Normal
350
F
100
AcDbDictionaryWithDefault
340
F
  0
DICTIONARY
  5
FA
102
{ACAD_REACTORS
330
C
102
}
330
C
100
AcDbDictionary
281
     1
  0
DICTIONARY
  5
2A
102
{ACAD_REACTORS
330
C
102
}
330
C
100
AcDbDictionary
281
     1
  3
2dWireframe
350
2F
  3
3D Hidden
350
31
  3
3dWireframe
350
30
  3
Basic
350
32
  3
Brighten
350
36
  3
ColorChange
350
3A
  3
Conceptual
350
34
  3
Dim
350
35
  3
Facepattern
350
39
  3
Flat
350
2B
  3
FlatWithEdges
350
2C
  3
Gouraud
350
2D
  3
GouraudWithEdges
350
2E
  3
Linepattern
350
38
  3
Realistic
350
33
  3
Thicken
350
37
  0
LAYOUT
  5
1E
102
{ACAD_REACTORS
330
1A
102
}
330
1A
100
AcDbPlotSettings
  1

  2
none_device
  4

  6

 40
0.0
 41
0.0
 42
0.0
 43
0.0
 44
0.0
 45
0.0
 46
0.0
 47
0.0
 48
0.0
 49
0.0
140
0.0
141
0.0
142
1.0
143
1.0
 70
   688
 72
     0
 73
     0
 74
     5
  7

 75
    16
 76
     0
 77
     2
 78
   300
147
1.0
148
0.0
149
0.0
100
AcDbLayout
  1
Layout1
 70
     1
 71
     1
 10
0.0
 20
0.0
 11
12.0
 21
9.0
 12
0.0
 22
0.0
 32
0.0
 14
1.000000000000000E+20
 24
1.000000000000000E+20
 34
1.000000000000000E+20
 15
-1.000000000000000E+20
 25
-1.000000000000000E+20
 35
-1.000000000000000E+20
146
0.0
 13
0.0
 23
0.0
 33
0.0
 16
1.0
 26
0.0
 36
0.0
 17
0.0
 27
1.0
 37
0.0
 76
     0
330
1B
  0
LAYOUT
  5
26
102
{ACAD_REACTORS
330
1A
102
}
330
1A
100
AcDbPlotSettings
  1

  2
none_device
  4

  6

 40
0.0
 41
0.0
 42
0.0
 43
0.0
 44
0.0
 45
0.0
 46
0.0
 47
0.0
 48
0.0
 49
0.0
140
0.0
141
0.0
142
1.0
143
1.0
 70
   688
 72
     0
 73
     0
 74
     5
  7

 75
    16
 76
     0
 77
     2
 78
   300
147
1.0
148
0.0
149
0.0
100
AcDbLayout
  1
Layout2
 70
     1
 71
     2
 10
0.0
 20
0.0
 11
0.0
 21
0.0
 12
0.0
 22
0.0
 32
0.0
 14
0.0
 24
0.0
 34
0.0
 15
0.0
 25
0.0
 35
0.0
146
0.0
 13
0.0
 23
0.0
 33
0.0
 16
1.0
 26
0.0
 36
0.0
 17
0.0
 27
1.0
 37
0.0
 76
     0
330
23
  0
LAYOUT
  5
22
102
{ACAD_REACTORS
330
1A
102
}
330
1A
100
AcDbPlotSettings
  1

  2
none_device
  4

  6

 40
0.0
 41
0.0
 42
0.0
 43
0.0
 44
0.0
 45
0.0
 46
0.0
 47
0.0
 48
0.0
 49
0.0
140
0.0
141
0.0
142
1.0
143
1.0
 70
  1712
 72
     0
 73
     0
 74
     0
  7

 75
     0
 76
     0
 77
     2
 78
   300
147
1.0
148
0.0
149
0.0
100
AcDbLayout
  1
Model
 70
     1
 71
     0
 10
0.0
 20
0.0
 11
12.0
 21
9.0
 12
0.0
 22
0.0
 32
0.0
 14
1.000000000000000E+20
 24
1.000000000000000E+20
 34
1.000000000000000E+20
 15
-1.000000000000000E+20
 25
-1.000000000000000E+20
 35
-1.000000000000000E+20
146
0.0
 13
0.0
 23
0.0
 33
0.0
 16
1.0
 26
0.0
 36
0.0
 17
0.0
 27
1.0
 37
0.0
 76
     0
330
1F
331
29
  0
MATERIAL
  5
3D
102
{ACAD_REACTORS
330
3B
102
}
330
3B
100
AcDbMaterial
  1
ByBlock
 72
     1
 94
      127
  0
MATERIAL
  5
3C
102
{ACAD_REACTORS
330
3B
102
}
330
3B
100
AcDbMaterial
  1
ByLayer
 72
     1
 94
      127
  0
MATERIAL
  5
3E
102
{ACAD_REACTORS
330
3B
102
}
330
3B
100
AcDbMaterial
  1
Global
 72
     1
 94
      127
  0
MLINESTYLE
  5
18
102
{ACAD_REACTORS
330
17
102
}
330
17
100
AcDbMlineStyle
  2
Standard
 70
     0
  3

 62
   256
 51
90.0
 52
90.0
 71
     2
 49
0.5
 62
   256
  6
BYLAYER
 49
-0.5
 62
   256
  6
BYLAYER
  0
ACDBPLACEHOLDER
  5
F
102
{ACAD_REACTORS
330
E
102
}
330
E
  0
VISUALSTYLE
  5
2F
102
{ACAD_REACTORS
330
2A
102
}
330
2A
100
AcDbVisualStyle
  2
2dWireframe
 70
     4
177
     2
291
     0
 71
     0
176
     1
 72
     2
176
     1
 73
     0
176
     1
 90
        0
176
     1
 40
-0.6
176
     1
 41
-30.0
176
     1
 62
     5
 63
     7
421
 16777215
176
     1
 74
     1
176
     1
 91
        4
176
     1
 64
     7
176
     1
 65
   257
176
     1
 75
     1
176
     1
175
     1
176
     1
 42
1.0
176
     1
 92
        0
176
     1
 66
   257
176
     1
 43
1.0
176
     1
 76
     1
176
     1
 77
     6
176
     1
 78
     2
176
     1
 67
     7
176
     1
 79
     5
176
     1
170
     0
176
     1
171
     0
176
     1
290
     0
176
     1
 93
        1
176
     1
 44
0.0
176
     1
173
     0
176
     1
  0
VISUALSTYLE
  5
31
102
{ACAD_REACTORS
330
2A
102
}
330
2A
100
AcDbVisualStyle
  2
3D Hidden
 70
     6
177
     2
291
     0
 71
     1
176
     1
 72
     2
176
     1
 73
     2
176
     1
 90
        0
176
     1
 40
-0.6
176
     1
 41
-30.0
176
     1
 62
     5
 63
     7
421
 16777215
176
     1
 74
     2
176
     1
 91
        2
176
     1
 64
     7
176
     1
 65
   257
176
     1
 75
     2
176
     1
175
     1
176
     1
 42
40.0
176
     1
 92
        0
176
     1
 66
   257
176
     1
 43
1.0
176
     1
 76
     1
176
     1
 77
     6
176
     1
 78
     2
176
     1
 67
     7
176
     1
 79
     3
176
     1
170
     0
176
     1
171
     0
176
     1
290
     0
176
     1
 93
        1
176
     1
 44
0.0
176
     1
173
     0
176
     1
  0
VISUALSTYLE
  5
30
102
{ACAD_REACTORS
330
2A
102
}
330
2A
100
AcDbVisualStyle
  2
3dWireframe
 70
     5
177
     2
291
     0
 71
     0
176
     1
 72
     2
176
     1
 73
     0
176
     1
 90
        0
176
     1
 40
-0.6
176
     1
 41
-30.0
176
     1
 62
     5
 63
     7
421
 16777215
176
     1
 74
     1
176
     1
 91
        4
176
     1
 64
     7
176
     1
 65
   257
176
     1
 75
     1
176
     1
175
     1
176
     1
 42
1.0
176
     1
 92
        0
176
     1
 66
   257
176
     1
 43
1.0
176
     1
 76
     1
176
     1
 77
     6
176
     1
 78
     2
176
     1
 67
     7
176
     1
 79
     5
176
     1
170
     0
176
     1
171
     0
176
     1
290
     0
176
     1
 93
        1
176
     1
 44
0.0
176
     1
173
     0
176
     1
  0
VISUALSTYLE
  5
32
102
{ACAD_REACTORS
330
2A
102
}
330
2A
100
AcDbVisualStyle
  2
Basic
 70
     7
177
     2
291
     1
 71
     1
176
     1
 72
     0
176
     1
 73
     1
176
     1
 90
        0
176
     1
 40
-0.6
176
     1
 41
-30.0
176
     1
 62
     5
 63
     7
421
 16777215
176
     1
 74
     0
176
     1
 91
        4
176
     1
 64
     7
176
     1
 65
   257
176
     1
 75
     1
176
     1
175
     1
176
     1
 42
1.0
176
     1
 92
        8
176
     1
 66
     7
176
     1
 43
1.0
176
     1
 76
     1
176
     1
 77
     6
176
     1
 78
     2
176
     1
 67
     7
176
     1
 79
     5
176
     1
170
     0
176
     1
171
     0
176
     1
290
     0
176
     1
 93
        1
176
     1
 44
0.0
176
     1
173
     0
176
     1
  0
VISUALSTYLE
  5
36
102
{ACAD_REACTORS
330
2A
102
}
330
2A
100
AcDbVisualStyle
  2
Brighten
 70
    12
177
     2
291
     1
 71
     2
176
     1
 72
     2
176
     1
 73
     0
176
     1
 90
        0
176
     1
 40
-0.6
176
     1
 41
-30.0
176
     1
 62
     5
 63
     7
421
 16777215
176
     1
 74
     1
176
     1
 91
        4
176
     1
 64
     7
176
     1
 65
   257
176
     1
 75
     1
176
     1
175
     1
176
     1
 42
1.0
176
     1
 92
        8
176
     1
 66
     7
176
     1
 43
1.0
176
     1
 76
     1
176
     1
 77
     6
176
     1
 78
     2
176
     1
 67
     7
176
     1
 79
     5
176
     1
170
     0
176
     1
171
     0
176
     1
290
     0
176
     1
 93
        1
176
     1
 44
50.0
176
     1
173
     0
176
     1
  0
VISUALSTYLE
  5
3A
102
{ACAD_REACTORS
330
2A
102
}
330
2A
100
AcDbVisualStyle
  2
ColorChange
 70
    16
177
     2
291
     1
 71
     2
176
     1
 72
     2
176
     1
 73
     3
176
     1
 90
        0
176
     1
 40
-0.6
176
     1
 41
-30.0
176
     1
 62
     5
 63
     8
421
  8421504
176
     1
 74
     1
176
     1
 91
        4
176
     1
 64
     7
176
     1
 65
   257
176
     1
 75
     1
176
     1
175
     1
176
     1
 42
1.0
176
     1
 92
        8
176
     1
 66
     8
424
  8421504
176
     1
 43
1.0
176
     1
 76
     1
176
     1
 77
     6
176
     1
 78
     2
176
     1
 67
     7
176
     1
 79
     5
176
     1
170
     0
176
     1
171
     0
176
     1
290
     0
176
     1
 93
        1
176
     1
 44
0.0
176
     1
173
     0
176
     1
  0
VISUALSTYLE
  5
34
102
{ACAD_REACTORS
330
2A
102
}
330
2A
100
AcDbVisualStyle
  2
Conceptual
 70
     9
177
     2
291
     0
 71
     3
176
     1
 72
     2
176
     1
 73
     0
176
     1
 90
        0
176
     1
 40
-0.6
176
     1
 41
-30.0
176
     1
 62
     5
 63
     7
421
 16777215
176
     1
 74
     2
176
     1
 91
        2
176
     1
 64
     7
176
     1
 65
   257
176
     1
 75
     1
176
     1
175
     1
176
     1
 42
40.0
176
     1
 92
        8
176
     1
 66
     7
176
     1
 43
1.0
176
     1
 76
     1
176
     1
 77
     6
176
     1
 78
     2
176
     1
 67
     7
176
     1
 79
     3
176
     1
170
     0
176
     1
171
     0
176
     1
290
     0
176
     1
 93
        1
176
     1
 44
0.0
176
     1
173
     0
176
     1
  0
VISUALSTYLE
  5
35
102
{ACAD_REACTORS
330
2A
102
}
330
2A
100
AcDbVisualStyle
  2
Dim
 70
    11
177
     2
291
     1
 71
     2
176
     1
 72
     2
176
     1
 73
     0
176
     1
 90
        0
176
     1
 40
-0.6
176
     1
 41
-30.0
176
     1
 62
     5
 63
     7
421
 16777215
176
     1
 74
     1
176
     1
 91
        4
176
     1
 64
     7
176
     1
 65
   257
176
     1
 75
     1
176
     1
175
     1
176
     1
 42
1.0
176
     1
 92
        8
176
     1
 66
     7
176
     1
 43
1.0
176
     1
 76
     1
176
     1
 77
     6
176
     1
 78
     2
176
     1
 67
     7
176
     1
 79
     5
176
     1
170
     0
176
     1
171
     0
176
     1
290
     0
176
     1
 93
        1
176
     1
 44
-50.0
176
     1
173
     0
176
     1
  0
VISUALSTYLE
  5
39
102
{ACAD_REACTORS
330
2A
102
}
330
2A
100
AcDbVisualStyle
  2
Facepattern
 70
    15
177
     2
291
     1
 71
     2
176
     1
 72
     2
176
     1
 73
     0
176
     1
 90
        0
176
     1
 40
-0.6
176
     1
 41
-30.0
176
     1
 62
     5
 63
     7
421
 16777215
176
     1
 74
     1
176
     1
 91
        4
176
     1
 64
     7
176
     1
 65
   257
176
     1
 75
     1
176
     1
175
     1
176
     1
 42
1.0
176
     1
 92
        8
176
     1
 66
     7
176
     1
 43
1.0
176
     1
 76
     1
176
     1
 77
     6
176
     1
 78
     2
176
     1
 67
     7
176
     1
 79
     5
176
     1
170
     0
176
     1
171
     0
176
     1
290
     0
176
     1
 93
        1
176
     1
 44
0.0
176
     1
173
     0
176
     1
  0
VISUALSTYLE
  5
2B
102
{ACAD_REACTORS
330
2A
102
}
330
2A
100
AcDbVisualStyle
  2
Flat
 70
     0
177
     2
291
     1
 71
     2
176
     1
 72
     1
176
     1
 73
     1
176
     1
 90
        2
176
     1
 40
-0.6
176
     1
 41
30.0
176
     1
 62
     5
 63
     7
421
 16777215
176
     1
 74
     0
176
     1
 91
        4
176
     1
 64
     7
176
     1
 65
   257
176
     1
 75
     1
176
     1
175
     1
176
     1
 42
1.0
176
     1
 92
        8
176
     1
 66
     7
176
     1
 43
1.0
176
     1
 76
     1
176
     1
 77
     6
176
     1
 78
     2
176
     1
 67
     7
176
     1
 79
     5
176
     1
170
     0
176
     1
171
     0
176
     1
290
     0
176
     1
 93
       13
176
     1
 44
0.0
176
     1
173
     0
176
     1
  0
VISUALSTYLE
  5
2C
102
{ACAD_REACTORS
330
2A
102
}
330
2A
100
AcDbVisualStyle
  2
FlatWithEdges
 70
     1
177
     2
291
     1
 71
     2
176
     1
 72
     1
176
     1
 73
     1
176
     1
 90
        2
176
     1
 40
-0.6
176
     1
 41
30.0
176
     1
 62
     5
 63
     7
421
 16777215
176
     1
 74
     1
176
     1
 91
        4
176
     1
 64
     7
176
     1
 65
   257
176
     1
 75
     1
176
     1
175
     1
176
     1
 42
1.0
176
     1
 92
        0
176
     1
 66
   257
176
     1
 43
1.0
176
     1
 76
     1
176
     1
 77
     6
176
     1
 78
     2
176
     1
 67
     7
176
     1
 79
     5
176
     1
170
     0
176
     1
171
     0
176
     1
290
     0
176
     1
 93
       13
176
     1
 44
0.0
176
     1
173
     0
176
     1
  0
VISUALSTYLE
  5
2D
102
{ACAD_REACTORS
330
2A
102
}
330
2A
100
AcDbVisualStyle
  2
Gouraud
 70
     2
177
     2
291
     1
 71
     2
176
     1
 72
     2
176
     1
 73
     1
176
     1
 90
        2
176
     1
 40
-0.6
176
     1
 41
30.0
176
     1
 62
     5
 63
     7
421
 16777215
176
     1
 74
     0
176
     1
 91
        4
176
     1
 64
     7
176
     1
 65
   257
176
     1
 75
     1
176
     1
175
     1
176
     1
 42
1.0
176
     1
 92
        0
176
     1
 66
     7
176
     1
 43
1.0
176
     1
 76
     1
176
     1
 77
     6
176
     1
 78
     2
176
     1
 67
     7
176
     1
 79
     5
176
     1
170
     0
176
     1
171
     0
176
     1
290
     0
176
     1
 93
       13
176
     1
 44
0.0
176
     1
173
     0
176
     1
  0
VISUALSTYLE
  5
2E
102
{ACAD_REACTORS
330
2A
102
}
330
2A
100
AcDbVisualStyle
  2
GouraudWithEdges
 70
     3
177
     2
291
     1
 71
     2
176
     1
 72
     2
176
     1
 73
     1
176
     1
 90
        2
176
     1
 40
-0.6
176
     1
 41
30.0
176
     1
 62
     5
 63
     7
421
 16777215
176
     1
 74
     1
176
     1
 91
        4
176
     1
 64
     7
176
     1
 65
   257
176
     1
 75
     1
176
     1
175
     1
176
     1
 42
1.0
176
     1
 92
        0
176
     1
 66
   257
176
     1
 43
1.0
176
     1
 76
     1
176
     1
 77
     6
176
     1
 78
     2
176
     1
 67
     7
176
     1
 79
     5
176
     1
170
     0
176
     1
171
     0
176
     1
290
     0
176
     1
 93
       13
176
     1
 44
0.0
176
     1
173
     0
176
     1
  0
VISUALSTYLE
  5
38
102
{ACAD_REACTORS
330
2A
102
}
330
2A
100
AcDbVisualStyle
  2
Linepattern
 70
    14
177
     2
291
     1
 71
     2
176
     1
 72
     2
176
     1
 73
     0
176
     1
 90
        0
176
     1
 40
-0.6
176
     1
 41
-30.0
176
     1
 62
     5
 63
     7
421
 16777215
176
     1
 74
     1
176
     1
 91
        4
176
     1
 64
     7
176
     1
 65
   257
176
     1
 75
     7
176
     1
175
     7
176
     1
 42
1.0
176
     1
 92
        8
176
     1
 66
     7
176
     1
 43
1.0
176
     1
 76
     1
176
     1
 77
     6
176
     1
 78
     2
176
     1
 67
     7
176
     1
 79
     5
176
     1
170
     0
176
     1
171
     0
176
     1
290
     0
176
     1
 93
        1
176
     1
 44
0.0
176
     1
173
     0
176
     1
  0
VISUALSTYLE
  5
33
102
{ACAD_REACTORS
330
2A
102
}
330
2A
100
AcDbVisualStyle
  2
Realistic
 70
     8
177
     2
291
     0
 71
     2
176
     1
 72
     2
176
     1
 73
     0
176
     1
 90
        0
176
     1
 40
-0.6
176
     1
 41
-30.0
176
     1
 62
     5
 63
     7
421
 16777215
176
     1
 74
     1
176
     1
 91
        0
176
     1
 64
     7
176
     1
 65
   257
176
     1
 75
     1
176
     1
175
     1
176
     1
 42
1.0
176
     1
 92
        8
176
     1
 66
     8
424
  7895160
176
     1
 43
1.0
176
     1
 76
     1
176
     1
 77
     6
176
     1
 78
     2
176
     1
 67
     7
176
     1
 79
     5
176
     1
170
     0
176
     1
171
     0
176
     1
290
     0
176
     1
 93
       13
176
     1
 44
0.0
176
     1
173
     0
176
     1
  0
VISUALSTYLE
  5
37
102
{ACAD_REACTORS
330
2A
102
}
330
2A
100
AcDbVisualStyle
  2
Thicken
 70
    13
177
     2
291
     1
 71
     2
176
     1
 72
     2
176
     1
 73
     0
176
     1
 90
        0
176
     1
 40
-0.6
176
     1
 41
-30.0
176
     1
 62
     5
 63
     7
421
 16777215
176
     1
 74
     1
176
     1
 91
        4
176
     1
 64
     7
176
     1
 65
   257
176
     1
 75
     1
176
     1
175
     1
176
     1
 42
1.0
176
     1
 92
       12
176
     1
 66
     7
176
     1
 43
1.0
176
     1
 76
     1
176
     1
 77
     6
176
     1
 78
     2
176
     1
 67
     7
176
     1
 79
     5
176
     1
170
     0
176
     1
171
     0
176
     1
290
     0
176
     1
 93
        1
176
     1
 44
0.0
176
     1
173
     0
176
     1
  0
ENDSEC
  0
EOF
