  0
SECTION
  2
HEADER
  9
$ACADVER
  1
AC1024
  9
$ACADMAINTVER
 70
     6
  9
$DWGCODEPAGE
  3
UNDEFINED
  9
$INSBASE
 10
0.0
 20
0.0
 30
0.0
  9
$EXTMIN
 10
1.000000000000000E+20
 20
1.000000000000000E+20
 30
1.000000000000000E+20
  9
$EXTMAX
 10
-1.000000000000000E+20
 20
-1.000000000000000E+20
 30
-1.000000000000000E+20
  9
$LIMMIN
 10
0.0
 20
0.0
  9
$LIMMAX
 10
12.0
 20
9.0
  9
$ORTHOMODE
 70
     0
  9
$REGENMODE
 70
     1
  9
$FILLMODE
 70
     1
  9
$QTEXTMODE
 70
     0
  9
$MIRRTEXT
 70
     1
  9
$LTSCALE
 40
1.0
  9
$ATTMODE
 70
     1
  9
$TEXTSIZE
 40
0.2
  9
$TRACEWID
 40
0.05
  9
$TEXTSTYLE
  7
Standard
  9
$CLAYER
  8
0
  9
$CELTYPE
  6
ByLayer
  9
$CECOLOR
 62
   256
  9
$CELTSCALE
 40
1.0
  9
$DISPSILH
 70
     0
  9
$DIMSCALE
 40
1.0
  9
$DIMASZ
 40
0.18
  9
$DIMEXO
 40
0.0625
  9
$DIMDLI
 40
0.38
  9
$DIMRND
 40
0.0
  9
$DIMDLE
 40
0.0
  9
$DIMEXE
 40
0.18
  9
$DIMTP
 40
0.0
  9
$DIMTM
 40
0.0
  9
$DIMTXT
 40
0.18
  9
$DIMCEN
 40
0.09
  9
$DIMTSZ
 40
0.0
  9
$DIMTOL
 70
     0
  9
$DIMLIM
 70
     0
  9
$DIMTIH
 70
     1
  9
$DIMTOH
 70
     1
  9
$DIMSE1
 70
     0
  9
$DIMSE2
 70
     0
  9
$DIMTAD
 70
     0
  9
$DIMZIN
 70
     0
  9
$DIMBLK
  1

  9
$DIMASO
 70
     1
  9
$DIMSHO
 70
     1
  9
$DIMPOST
  1

  9
$DIMAPOST
  1

  9
$DIMALT
 70
     0
  9
$DIMALTD
 70
     2
  9
$DIMALTF
 40
25.4
  9
$DIMLFAC
 40
1.0
  9
$DIMTOFL
 70
     0
  9
$DIMTVP
 40
0.0
  9
$DIMTIX
 70
     0
  9
$DIMSOXD
 70
     0
  9
$DIMSAH
 70
     0
  9
$DIMBLK1
  1

  9
$DIMBLK2
  1

  9
$DIMSTYLE
  2
Standard
  9
$DIMCLRD
 70
     0
  9
$DIMCLRE
 70
     0
  9
$DIMCLRT
 70
     0
  9
$DIMTFAC
 40
1.0
  9
$DIMGAP
 40
0.09
  9
$DIMJUST
 70
     0
  9
$DIMSD1
 70
     0
  9
$DIMSD2
 70
     0
  9
$DIMTOLJ
 70
     1
  9
$DIMTZIN
 70
     0
  9
$DIMALTZ
 70
     0
  9
$DIMALTTZ
 70
     0
  9
$DIMUPT
 70
     0
  9
$DIMDEC
 70
     4
  9
$DIMTDEC
 70
     4
  9
$DIMALTU
 70
     2
  9
$DIMALTTD
 70
     2
  9
$DIMTXSTY
  7
Standard
  9
$DIMAUNIT
 70
     0
  9
$DIMADEC
 70
     0
  9
$DIMALTRND
 40
0.0
  9
$DIMAZIN
 70
     0
  9
$DIMDSEP
 70
    46
  9
$DIMATFIT
 70
     3
  9
$DIMFRAC
 70
     0
  9
$DIMLDRBLK
  1

  9
$DIMLUNIT
 70
     2
  9
$DIMLWD
 70
    -2
  9
$DIMLWE
 70
    -2
  9
$DIMTMOVE
 70
     0
  9
$DIMFXL
 40
1.0
  9
$DIMFXLON
 70
     0
  9
$DIMJOGANG
 40
0.7853981633974483
  9
$DIMTFILL
 70
     0
  9
$DIMTFILLCLR
 70
     0
  9
$DIMARCSYM
 70
     0
  9
$DIMLTYPE
  6

  9
$DIMLTEX1
  6

  9
$DIMLTEX2
  6

  9
$DIMTXTDIRECTION
 70
     0
  9
$LUNITS
 70
     2
  9
$LUPREC
 70
     4
  9
$SKETCHINC
 40
0.1
  9
$FILLETRAD
 40
0.5
  9
$AUNITS
 70
     0
  9
$AUPREC
 70
     0
  9
$MENU
  1
.
  9
$ELEVATION
 40
0.0
  9
$PELEVATION
 40
0.0
  9
$THICKNESS
 40
0.0
  9
$LIMCHECK
 70
     0
  9
$CHAMFERA
 40
0.5
  9
$CHAMFERB
 40
0.5
  9
$CHAMFERC
 40
1.0
  9
$CHAMFERD
 40
0.0
  9
$SKPOLY
 70
     0
  9
$TDCREATE
 40
2457917.645474526
  9
$TDUCREATE
 40
2457917.270474537
  9
$TDUPDATE
 40
2457917.645474526
  9
$TDUUPDATE
 40
2457917.270474537
  9
$TDINDWG
 40
0.0000000116
  9
$TDUSRTIMER
 40
0.0000000116
  9
$USRTIMER
 70
     1
  9
$ANGBASE
 50
0.0
  9
$ANGDIR
 70
     0
  9
$PDMODE
 70
     0
  9
$PDSIZE
 40
0.0
  9
$PLINEWID
 40
0.0
  9
$SPLFRAME
 70
     0
  9
$SPLINETYPE
 70
     6
  9
$SPLINESEGS
 70
     8
  9
$HANDSEED
  5
64
  9
$SURFTAB1
 70
     6
  9
$SURFTAB2
 70
     6
  9
$SURFTYPE
 70
     6
  9
$SURFU
 70
     6
  9
$SURFV
 70
     6
  9
$UCSBASE
  2

  9
$UCSNAME
  2

  9
$UCSORG
 10
0.0
 20
0.0
 30
0.0
  9
$UCSXDIR
 10
1.0
 20
0.0
 30
0.0
  9
$UCSYDIR
 10
0.0
 20
1.0
 30
0.0
  9
$UCSORTHOREF
  2

  9
$UCSORTHOVIEW
 70
     0
  9
$UCSORGTOP
 10
0.0
 20
0.0
 30
0.0
  9
$UCSORGBOTTOM
 10
0.0
 20
0.0
 30
0.0
  9
$UCSORGLEFT
 10
0.0
 20
0.0
 30
0.0
  9
$UCSORGRIGHT
 10
0.0
 20
0.0
 30
0.0
  9
$UCSORGFRONT
 10
0.0
 20
0.0
 30
0.0
  9
$UCSORGBACK
 10
0.0
 20
0.0
 30
0.0
  9
$PUCSBASE
  2

  9
$PUCSNAME
  2

  9
$PUCSORG
 10
0.0
 20
0.0
 30
0.0
  9
$PUCSXDIR
 10
1.0
 20
0.0
 30
0.0
  9
$PUCSYDIR
 10
0.0
 20
1.0
 30
0.0
  9
$PUCSORTHOREF
  2

  9
$PUCSORTHOVIEW
 70
     0
  9
$PUCSORGTOP
 10
0.0
 20
0.0
 30
0.0
  9
$PUCSORGBOTTOM
 10
0.0
 20
0.0
 30
0.0
  9
$PUCSORGLEFT
 10
0.0
 20
0.0
 30
0.0
  9
$PUCSORGRIGHT
 10
0.0
 20
0.0
 30
0.0
  9
$PUCSORGFRONT
 10
0.0
 20
0.0
 30
0.0
  9
$PUCSORGBACK
 10
0.0
 20
0.0
 30
0.0
  9
$USERI1
 70
     0
  9
$USERI2
 70
     0
  9
$USERI3
 70
     0
  9
$USERI4
 70
     0
  9
$USERI5
 70
     0
  9
$USERR1
 40
0.0
  9
$USERR2
 40
0.0
  9
$USERR3
 40
0.0
  9
$USERR4
 40
0.0
  9
$USERR5
 40
0.0
  9
$WORLDVIEW
 70
     1
  9
$SHADEDGE
 70
     3
  9
$SHADEDIF
 70
    70
  9
$TILEMODE
 70
     1
  9
$MAXACTVP
 70
    64
  9
$PINSBASE
 10
0.0
 20
0.0
 30
0.0
  9
$PLIMCHECK
 70
     0
  9
$PEXTMIN
 10
1.000000000000000E+20
 20
1.000000000000000E+20
 30
1.000000000000000E+20
  9
$PEXTMAX
 10
-1.000000000000000E+20
 20
-1.000000000000000E+20
 30
-1.000000000000000E+20
  9
$PLIMMIN
 10
0.0
 20
0.0
  9
$PLIMMAX
 10
12.0
 20
9.0
  9
$UNITMODE
 70
     0
  9
$VISRETAIN
 70
     1
  9
$PLINEGEN
 70
     0
  9
$PSLTSCALE
 70
     1
  9
$TREEDEPTH
 70
  3020
  9
$CMLSTYLE
  2
Standard
  9
$CMLJUST
 70
     0
  9
$CMLSCALE
 40
1.0
  9
$PROXYGRAPHICS
 70
     1
  9
$MEASUREMENT
 70
     0
  9
$CELWEIGHT
370
    -1
  9
$ENDCAPS
280
     0
  9
$JOINSTYLE
280
     0
  9
$LWDISPLAY
290
     1
  9
$INSUNITS
 70
     1
  9
$HYPERLINKBASE
  1

  9
$STYLESHEET
  1

  9
$XEDIT
290
     1
  9
$CEPSNTYPE
380
     0
  9
$PSTYLEMODE
290
     1
  9
$FINGERPRINTGUID
  2
{1AC450E1-AD47-4DFE-F29C-0147B3CA76C1}
  9
$VERSIONGUID
  2
{FAEB1C32-E019-11D5-929B-00C0DF256EC4}
  9
$EXTNAMES
290
     1
  9
$PSVPSCALE
 40
0.0
  9
$OLESTARTUP
290
     0
  9
$SORTENTS
280
   127
  9
$INDEXCTL
280
     0
  9
$HIDETEXT
280
     1
  9
$XCLIPFRAME
280
     2
  9
$HALOGAP
280
     0
  9
$OBSCOLOR
 70
   257
  9
$OBSLTYPE
280
     0
  9
$INTERSECTIONDISPLAY
280
     0
  9
$INTERSECTIONCOLOR
 70
   257
  9
$DIMASSOC
280
     2
  9
$PROJECTNAME
  1

  9
$CAMERADISPLAY
290
     0
  9
$LENSLENGTH
 40
50.0
  9
$CAMERAHEIGHT
 40
0.0
  9
$STEPSPERSEC
 40
2.0
  9
$STEPSIZE
 40
6.0
  9
$3DDWFPREC
 40
2.0
  9
$PSOLWIDTH
 40
0.25
  9
$PSOLHEIGHT
 40
4.0
  9
$LOFTANG1
 40
1.570796326794897
  9
$LOFTANG2
 40
1.570796326794897
  9
$LOFTMAG1
 40
0.0
  9
$LOFTMAG2
 40
0.0
  9
$LOFTPARAM
 70
     7
  9
$LOFTNORMALS
280
     1
  9
$LATITUDE
 40
37.795
  9
$LONGITUDE
 40
-122.394
  9
$NORTHDIRECTION
 40
0.0
  9
$TIMEZONE
 70
 -8000
  9
$LIGHTGLYPHDISPLAY
280
     1
  9
$TILEMODELIGHTSYNCH
280
     1
  9
$CMATERIAL
347
3C
  9
$SOLIDHIST
280
     1
  9
$SHOWHIST
280
     1
  9
$DWFFRAME
280
     2
  9
$DGNFRAME
280
     2
  9
$REALWORLDSCALE
290
     1
  9
$INTERFERECOLOR
 62
   256
  9
$CSHADOW
280
     0
  9
$SHADOWPLANELOCATION
 40
0.0
  0
ENDSEC
  0
SECTION
  2
CLASSES
  0
CLASS
  1
ACDBDICTIONARYWDFLT
  2
AcDbDictionaryWithDefault
  3
ObjectDBX Classes
 90
        0
 91
        4
280
     0
281
     0
  0
CLASS
  1
VISUALSTYLE
  2
AcDbVisualStyle
  3
ObjectDBX Classes
 90
     4095
 91
        4
280
     0
281
     0
  0
CLASS
  1
MATERIAL
  2
AcDbMaterial
  3
ObjectDBX Classes
 90
     1153
 91
        4
280
     0
281
     0
  0
CLASS
  1
SUN
  2
AcDbSun
  3
SCENEOE
 90
     1024
 91
        4
280
     0
281
     0
  0
ENDSEC
  0
SECTION
  2
TABLES
  0
TABLE
  2
VPORT
  5
8
330
0
100
AcDbSymbolTable
 70
     1
  0
VPORT
  5
29
330
8
100
AcDbSymbolTableRecord
100
AcDbViewportTableRecord
  2
*Active
 70
     0
 10
0.0
 20
0.0
 11
1.0
 21
1.0
 12
0.0
 22
0.0
 13
0.0
 23
0.0
 14
0.5
 24
0.5
 15
0.5
 25
0.5
 16
0.0
 26
0.0
 36
1.0
 17
91.00082462281999
 27
-128.4993055234307
 37
0.0
 40
256.9986110468615
 41
0.7081814508812795
 42
50.0
 43
0.0
 44
0.0
 50
0.0
 51
0.0
 71
     0
 72
   100
 73
     1
 74
     3
 75
     0
 76
     0
 77
     0
 78
     0
281
     0
 65
     1
110
0.0
120
0.0
130
0.0
111
1.0
121
0.0
131
0.0
112
0.0
122
1.0
132
0.0
 79
     0
146
0.0
 60
     3
 61
     5
292
     1
282
     1
141
0.0
142
0.0
 63
   250
361
3F
  0
ENDTAB
  0
TABLE
  2
LTYPE
  5
5
330
0
100
AcDbSymbolTable
 70
     1
  0
LTYPE
  5
14
330
5
100
AcDbSymbolTableRecord
100
AcDbLinetypeTableRecord
  2
ByBlock
 70
     0
  3

 72
    65
 73
     0
 40
0.0
  0
LTYPE
  5
15
330
5
100
AcDbSymbolTableRecord
100
AcDbLinetypeTableRecord
  2
ByLayer
 70
     0
  3

 72
    65
 73
     0
 40
0.0
  0
LTYPE
  5
16
330
5
100
AcDbSymbolTableRecord
100
AcDbLinetypeTableRecord
  2
Continuous
 70
     0
  3
Solid line
 72
    65
 73
     0
 40
0.0
  0
ENDTAB
  0
TABLE
  2
LAYER
  5
2
330
0
100
AcDbSymbolTable
 70
     2
  0
LAYER
  5
10
330
2
100
AcDbSymbolTableRecord
100
AcDbLayerTableRecord
  2
0
 70
     0
 62
     7
  6
Continuous
370
    -3
390
F
347
3E
  0
LAYER
  5
40
330
2
100
AcDbSymbolTableRecord
100
AcDbLayerTableRecord
  2
_U+30EC_U+30A4_U+30E4_U+30FC 1
 70
     0
 62
     7
  6
Continuous
370
    -3
390
F
347
3E
  0
ENDTAB
  0
TABLE
  2
STYLE
  5
3
330
0
100
AcDbSymbolTable
 70
     1
  0
STYLE
  5
11
330
3
100
AcDbSymbolTableRecord
100
AcDbTextStyleTableRecord
  2
Standard
 70
     0
 40
0.0
 41
1.0
 50
0.0
 71
     0
 42
0.2
  3
txt
  4

  0
ENDTAB
  0
TABLE
  2
VIEW
  5
6
330
0
100
AcDbSymbolTable
 70
     0
  0
ENDTAB
  0
TABLE
  2
UCS
  5
7
330
0
100
AcDbSymbolTable
 70
     0
  0
ENDTAB
  0
TABLE
  2
APPID
  5
9
330
0
100
AcDbSymbolTable
 70
     1
  0
APPID
  5
12
330
9
100
AcDbSymbolTableRecord
100
AcDbRegAppTableRecord
  2
ACAD
 70
     0
  0
ENDTAB
  0
TABLE
  2
DIMSTYLE
  5
A
330
0
100
AcDbSymbolTable
 70
     1
100
AcDbDimStyleTable
  0
DIMSTYLE
105
27
330
A
100
AcDbSymbolTableRecord
100
AcDbDimStyleTableRecord
  2
Standard
 70
     0
178
     0
340
11
  0
ENDTAB
  0
TABLE
  2
BLOCK_RECORD
  5
1
330
0
100
AcDbSymbolTable
 70
     1
  0
BLOCK_RECORD
  5
1F
330
1
100
AcDbSymbolTableRecord
100
AcDbBlockTableRecord
  2
*Model_Space
340
22
 70
     0
280
     1
281
     0
  0
BLOCK_RECORD
  5
1B
330
1
100
AcDbSymbolTableRecord
100
AcDbBlockTableRecord
  2
*Paper_Space
340
1E
 70
     0
280
     1
281
     0
  0
BLOCK_RECORD
  5
23
330
1
100
AcDbSymbolTableRecord
100
AcDbBlockTableRecord
  2
*Paper_Space0
340
26
 70
     0
280
     1
281
     0
  0
ENDTAB
  0
ENDSEC
  0
SECTION
  2
BLOCKS
  0
BLOCK
  5
20
330
1F
100
AcDbEntity
  8
0
100
AcDbBlockBegin
  2
*Model_Space
 70
     0
 10
0.0
 20
0.0
 30
0.0
  3
*Model_Space
  1

  0
ENDBLK
  5
21
330
1F
100
AcDbEntity
  8
0
100
AcDbBlockEnd
  0
BLOCK
  5
1C
330
1B
100
AcDbEntity
 67
     1
  8
0
100
AcDbBlockBegin
  2
*Paper_Space
 70
     0
 10
0.0
 20
0.0
 30
0.0
  3
*Paper_Space
  1

  0
ENDBLK
  5
1D
330
1B
100
AcDbEntity
 67
     1
  8
0
100
AcDbBlockEnd
  0
BLOCK
  5
24
330
23
100
AcDbEntity
  8
0
100
AcDbBlockBegin
  2
*Paper_Space0
 70
     0
 10
0.0
 20
0.0
 30
0.0
  3
*Paper_Space0
  1

  0
ENDBLK
  5
25
330
23
100
AcDbEntity
  8
0
100
AcDbBlockEnd
  0
ENDSEC
  0
SECTION
  2
ENTITIES
  0
SPLINE
  5
41
330
1F
100
AcDbEntity
  8
_U+30EC_U+30A4_U+30E4_U+30FC 1
 62
   179
420
  2234388
370
     9
100
AcDbSpline
210
0.0
220
0.0
230
1.0
 70
    11
 71
     3
 72
   128
 73
   124
 74
     0
 42
0.0000000001
 43
0.0000000001
 12
1.0
 22
0.0
 32
0.0
 13
1.0
 23
0.0
 33
0.0
 40
0.0
 40
0.0
 40
0.0
 40
0.0
 40
1.0
 40
1.0
 40
1.0
 40
2.0
 40
2.0
 40
2.0
 40
3.0
 40
3.0
 40
3.0
 40
4.0
 40
4.0
 40
4.0
 40
5.0
 40
5.0
 40
5.0
 40
6.0
 40
6.0
 40
6.0
 40
7.0
 40
7.0
 40
7.0
 40
8.0
 40
8.0
 40
8.0
 40
9.0
 40
9.0
 40
9.0
 40
10.0
 40
10.0
 40
10.0
 40
11.0
 40
11.0
 40
11.0
 40
12.0
 40
12.0
 40
12.0
 40
13.0
 40
13.0
 40
13.0
 40
14.0
 40
14.0
 40
14.0
 40
15.0
 40
15.0
 40
15.0
 40
16.0
 40
16.0
 40
16.0
 40
17.0
 40
17.0
 40
17.0
 40
18.0
 40
18.0
 40
18.0
 40
19.0
 40
19.0
 40
19.0
 40
20.0
 40
20.0
 40
20.0
 40
21.0
 40
21.0
 40
21.0
 40
22.0
 40
22.0
 40
22.0
 40
23.0
 40
23.0
 40
23.0
 40
24.0
 40
24.0
 40
24.0
 40
25.0
 40
25.0
 40
25.0
 40
26.0
 40
26.0
 40
26.0
 40
27.0
 40
27.0
 40
27.0
 40
28.0
 40
28.0
 40
28.0
 40
29.0
 40
29.0
 40
29.0
 40
30.0
 40
30.0
 40
30.0
 40
31.0
 40
31.0
 40
31.0
 40
32.0
 40
32.0
 40
32.0
 40
33.0
 40
33.0
 40
33.0
 40
34.0
 40
34.0
 40
34.0
 40
35.0
 40
35.0
 40
35.0
 40
36.0
 40
36.0
 40
36.0
 40
37.0
 40
37.0
 40
37.0
 40
38.0
 40
38.0
 40
38.0
 40
39.0
 40
39.0
 40
39.0
 40
40.0
 40
40.0
 40
40.0
 40
41.0
 40
41.0
 40
41.0
 40
41.0
 10
94.37630814781535
 20
-129.5576388564995
 30
0.0
 10
94.37630814781535
 20
-129.5576388564995
 30
0.0
 10
87.29147221745346
 20
-132.5266166335348
 30
0.0
 10
87.29147221745346
 20
-132.5266166335348
 30
0.0
 10
87.29147221745346
 20
-132.5266166335348
 30
0.0
 10
87.320752772262
 20
-133.0261499667436
 30
0.0
 10
87.320752772262
 20
-133.0261499667436
 30
0.0
 10
87.320752772262
 20
-133.0261499667436
 30
0.0
 10
87.46786110184229
 20
-133.4381944110849
 30
0.0
 10
86.93869444867579
 20
-133.7909721887745
 30
0.0
 10
86.93869444867579
 20
-133.7909721887745
 30
0.0
 10
85.88036114234279
 20
-134.4372610775019
 30
0.0
 10
85.88036114234279
 20
-134.4372610775019
 30
0.0
 10
85.88036114234279
 20
-134.4372610775019
 30
0.0
 10
85.204086159596
 20
-134.7314777440947
 30
0.0
 10
85.46866948617925
 20
-135.3488388550514
 30
0.0
 10
85.46866948617925
 20
-135.3488388550514
 30
0.0
 10
86.11566391411749
 20
-136.6131944102912
 30
0.0
 10
85.67469170314541
 20
-136.6717555213874
 30
0.0
 10
85.67469170314541
 20
-136.6717555213874
 30
0.0
 10
85.0573306077845
 20
-136.7599499658098
 30
0.0
 10
84.88094172339565
 20
-136.2011499659498
 30
0.0
 10
84.88094172339565
 20
-136.2011499659498
 30
0.0
 10
83.9989973014515
 20
-135.4955944105707
 30
0.0
 10
84.02827785626003
 20
-136.6421221880618
 30
0.0
 10
84.02827785626003
 20
-136.6421221880618
 30
0.0
 10
84.41033617984625
 20
-137.2594832990186
 30
0.0
 10
83.76369452967678
 20
-137.4655055211889
 30
0.0
 10
83.76369452967678
 20
-137.4655055211889
 30
0.0
 10
82.29366956718025
 20
-138.0243055210495
 30
0.0
 10
82.29366956718025
 20
-138.0243055210495
 30
0.0
 10
82.29366956718025
 20
-138.0243055210495
 30
0.0
 10
81.38279736819631
 20
-138.1124999654719
 30
0.0
 10
81.44135847781341
 20
-135.9661999660082
 30
0.0
 10
81.44135847781341
 20
-135.9661999660082
 30
0.0
 10
81.23568903861602
 20
-134.819672188517
 30
0.0
 10
81.97052513097991
 20
-134.4668944108275
 30
0.0
 10
81.97052513097991
 20
-134.4668944108275
 30
0.0
 10
84.26358062803475
 20
-133.2025388555884
 30
0.0
 10
84.26358062803475
 20
-133.2025388555884
 30
0.0
 10
84.26358062803475
 20
-133.2025388555884
 30
0.0
 10
84.23394729545741
 20
-132.232399966942
 30
0.0
 10
84.23394729545741
 20
-132.232399966942
 30
0.0
 10
84.23394729545741
 20
-132.232399966942
 30
0.0
 10
81.7352223592052
 20
-133.4381944110849
 30
0.0
 10
81.7352223592052
 20
-133.4381944110849
 30
0.0
 10
81.7352223592052
 20
-133.4381944110849
 30
0.0
 10
80.88291126983836
 20
-133.7317055221228
 30
0.0
 10
81.61774736220224
 20
-132.0856444114228
 30
0.0
 10
81.61774736220224
 20
-132.0856444114228
 30
0.0
 10
82.52897233895494
 20
-128.9106444122165
 30
0.0
 10
82.08800012798287
 20
-126.6472221905604
 30
0.0
 10
82.08800012798287
 20
-126.6472221905604
 30
0.0
 10
84.9102222782042
 20
-125.2357583020243
 30
0.0
 10
84.9102222782042
 20
-125.2357583020243
 30
0.0
 10
84.9102222782042
 20
-125.2357583020243
 30
0.0
 10
83.49911120309353
 20
-124.0010360801108
 30
0.0
 10
83.49911120309353
 20
-124.0010360801108
 30
0.0
 10
83.49911120309353
 20
-124.0010360801108
 30
0.0
 10
82.73464177815232
 20
-124.2948999689264
 30
0.0
 10
82.73464177815232
 20
-124.2948999689264
 30
0.0
 10
82.73464177815232
 20
-124.2948999689264
 30
0.0
 10
83.11705287950733
 20
-122.3546221916337
 30
0.0
 10
83.11705287950733
 20
-122.3546221916337
 30
0.0
 10
83.11705287950733
 20
-122.3546221916337
 30
0.0
 10
93.78858038503175
 20
-118.1509221926846
 30
0.0
 10
93.78858038503175
 20
-118.1509221926846
 30
0.0
 10
93.78858038503175
 20
-118.1509221926846
 30
0.0
 10
95.9345275525063
 20
-118.7682833036413
 30
0.0
 10
95.9345275525063
 20
-118.7682833036413
 30
0.0
 10
95.9345275525063
 20
-118.7682833036413
 30
0.0
 10
95.64066367111451
 20
-118.9739527480342
 30
0.0
 10
95.64066367111451
 20
-118.9739527480342
 30
0.0
 10
95.64066367111451
 20
-118.9739527480342
 30
0.0
 10
97.16924974322814
 20
-120.2086749699478
 30
0.0
 10
97.16924974322814
 20
-120.2086749699478
 30
0.0
 10
97.16924974322814
 20
-120.2086749699478
 30
0.0
 10
99.19772191369972
 20
-119.5031194145686
 30
0.0
 10
99.19772191369972
 20
-119.5031194145686
 30
0.0
 10
99.19772191369972
 20
-119.5031194145686
 30
0.0
 10
99.96219133864092
 20
-119.1796221924274
 30
0.0
 10
99.96219133864092
 20
-120.0615666366514
 30
0.0
 10
99.96219133864092
 20
-120.0615666366514
 30
0.0
 10
100.520638546616
 20
-123.4425888580283
 30
0.0
 10
99.5504996824774
 20
-125.8531194129811
 30
0.0
 10
99.5504996824774
 20
-125.8531194129811
 30
0.0
 10
96.72827753225604
 20
-127.3524249681618
 30
0.0
 10
96.72827753225604
 20
-127.3524249681618
 30
0.0
 10
96.72827753225604
 20
-127.3524249681618
 30
0.0
 10
96.72827753225604
 20
-127.2642305237394
 30
0.0
 10
96.72827753225604
 20
-127.2642305237394
 30
0.0
 10
96.72827753225604
 20
-127.2642305237394
 30
0.0
 10
96.78719141964191
 20
-128.1461749679634
 30
0.0
 10
96.78719141964191
 20
-128.1461749679634
 30
0.0
 10
96.78719141964191
 20
-128.1461749679634
 30
0.0
 10
98.37469137914142
 20
-127.5877277458809
 30
0.0
 10
98.37469137914142
 20
-127.5877277458809
 30
0.0
 10
98.37469137914142
 20
-127.5877277458809
 30
0.0
 10
99.49193857286029
 20
-126.9996471904722
 30
0.0
 10
99.43302468547442
 20
-127.999066634667
 30
0.0
 10
99.43302468547442
 20
-127.999066634667
 30
0.0
 10
99.19772191369972
 20
-129.6161999675957
 30
0.0
 10
99.81508300906064
 20
-130.4392305229457
 30
0.0
 10
99.81508300906064
 20
-130.4392305229457
 30
0.0
 10
97.78629333859715
 20
-131.7328666337332
 30
0.0
 10
97.63950250900876
 20
-131.5857583004368
 30
0.0
 10
97.63950250900876
 20
-131.5857583004368
 30
0.0
 10
97.58094139939168
 20
-130.4099499673973
 30
0.0
 10
96.96358030403076
 20
-130.6745333006645
 30
0.0
 10
96.96358030403076
 20
-130.6745333006645
 30
0.0
 10
96.72827753225604
 20
-130.8802027450577
 30
0.0
 10
96.90466641664489
 20
-131.6150388559853
 30
0.0
 10
96.90466641664489
 20
-131.6150388559853
 30
0.0
 10
97.08105530103371
 20
-132.4091416335646
 30
0.0
 10
96.37549976347839
 20
-132.1738388558452
 30
0.0
 10
96.37549976347839
 20
-132.1738388558452
 30
0.0
 10
95.40571367710858
 20
-131.3800888560436
 30
0.0
 10
95.55246922892009
 20
-130.4099499673973
 30
0.0
 10
95.55246922892009
 20
-130.4099499673973
 30
0.0
 10
94.25883315081238
 20
-131.2036999671988
 30
0.0
 10
94.43522203520122
 20
-130.1453666341301
 30
0.0
 10
94.43522203520122
 20
-130.1453666341301
 30
0.0
 10
94.37630814781535
 20
-129.5576388564995
 30
0.0
 10
94.37630814781535
 20
-129.5576388564995
 30
0.0
  0
POLYLINE
  5
42
330
1F
100
AcDbEntity
  8
_U+30EC_U+30A4_U+30E4_U+30FC 1
 62
   179
420
  2234388
370
     9
100
AcDb2dPolyline
 66
     1
 10
0.0
 20
0.0
 30
0.0
  0
VERTEX
  5
43
330
42
100
AcDbEntity
  8
_U+30EC_U+30A4_U+30E4_U+30FC 1
 62
   179
420
  2234388
370
     9
100
AcDbVertex
100
AcDb2dVertex
 10
85.204086159596
 20
-125.088649968728
 30
0.0
  0
VERTEX
  5
44
330
42
100
AcDbEntity
  8
_U+30EC_U+30A4_U+30E4_U+30FC 1
 62
   179
420
  2234388
370
     9
100
AcDbVertex
100
AcDb2dVertex
 10
96.61080253525309
 20
-120.5025388587634
 30
0.0
  0
SEQEND
  5
45
330
42
100
AcDbEntity
  8
_U+30EC_U+30A4_U+30E4_U+30FC 1
 62
   179
420
  2234388
370
     9
  0
POLYLINE
  5
46
330
1F
100
AcDbEntity
  8
_U+30EC_U+30A4_U+30E4_U+30FC 1
 62
   179
420
  2234388
370
     9
100
AcDb2dPolyline
 66
     1
 10
0.0
 20
0.0
 30
0.0
  0
VERTEX
  5
47
330
46
100
AcDbEntity
  8
_U+30EC_U+30A4_U+30E4_U+30FC 1
 62
   179
420
  2234388
370
     9
100
AcDbVertex
100
AcDb2dVertex
 10
84.88094172339565
 20
-132.0267305225488
 30
0.0
  0
VERTEX
  5
48
330
46
100
AcDbEntity
  8
_U+30EC_U+30A4_U+30E4_U+30FC 1
 62
   179
420
  2234388
370
     9
100
AcDbVertex
100
AcDb2dVertex
 10
96.14019699170368
 20
-127.5580944125551
 30
0.0
  0
SEQEND
  5
49
330
46
100
AcDbEntity
  8
_U+30EC_U+30A4_U+30E4_U+30FC 1
 62
   179
420
  2234388
370
     9
  0
SPLINE
  5
4A
330
1F
100
AcDbEntity
  8
_U+30EC_U+30A4_U+30E4_U+30FC 1
 62
   179
420
  2234388
370
     9
100
AcDbSpline
210
0.0
220
0.0
230
1.0
 70
    11
 71
     3
 72
    38
 73
    34
 74
     0
 42
0.0000000001
 43
0.0000000001
 12
1.0
 22
0.0
 32
0.0
 13
1.0
 23
0.0
 33
0.0
 40
0.0
 40
0.0
 40
0.0
 40
0.0
 40
1.0
 40
1.0
 40
1.0
 40
2.0
 40
2.0
 40
2.0
 40
3.0
 40
3.0
 40
3.0
 40
4.0
 40
4.0
 40
4.0
 40
5.0
 40
5.0
 40
5.0
 40
6.0
 40
6.0
 40
6.0
 40
7.0
 40
7.0
 40
7.0
 40
8.0
 40
8.0
 40
8.0
 40
9.0
 40
9.0
 40
9.0
 40
10.0
 40
10.0
 40
10.0
 40
11.0
 40
11.0
 40
11.0
 40
11.0
 10
82.7349945559211
 20
-124.2948999689264
 30
0.0
 10
82.7349945559211
 20
-124.2948999689264
 30
0.0
 10
82.7349945559211
 20
-124.6187499688453
 30
0.0
 10
82.7349945559211
 20
-124.6187499688453
 30
0.0
 10
82.7349945559211
 20
-124.6187499688453
 30
0.0
 10
83.44055009347645
 20
-124.3541666355781
 30
0.0
 10
83.44055009347645
 20
-124.3541666355781
 30
0.0
 10
83.44055009347645
 20
-124.3541666355781
 30
0.0
 10
84.29286118284328
 20
-125.1479166353797
 30
0.0
 10
84.29286118284328
 20
-125.1479166353797
 30
0.0
 10
84.29286118284328
 20
-125.1479166353797
 30
0.0
 10
81.70594180439666
 20
-126.4115666350639
 30
0.0
 10
81.70594180439666
 20
-126.4115666350639
 30
0.0
 10
81.70594180439666
 20
-126.4115666350639
 30
0.0
 10
81.99980568578844
 20
-130.1157333008045
 30
0.0
 10
80.9121918246469
 20
-133.1439777444915
 30
0.0
 10
80.9121918246469
 20
-133.1439777444915
 30
0.0
 10
81.55883347481637
 20
-133.4671221888556
 30
0.0
 10
81.55883347481637
 20
-133.4671221888556
 30
0.0
 10
81.55883347481637
 20
-133.4671221888556
 30
0.0
 10
81.0589473764584
 20
-133.2618055222401
 30
0.0
 10
81.47063903262195
 20
-132.5266166335348
 30
0.0
 10
81.47063903262195
 20
-132.5266166335348
 30
0.0
 10
82.52897233895494
 20
-129.321983301003
 30
0.0
 10
82.08800012798287
 20
-126.6175888572346
 30
0.0
 10
82.08800012798287
 20
-126.6175888572346
 30
0.0
 10
84.93985561078152
 20
-125.2064777464762
 30
0.0
 10
84.93985561078152
 20
-125.2064777464762
 30
0.0
 10
84.93985561078152
 20
-125.2064777464762
 30
0.0
 10
83.49911120309353
 20
-124.0013888578885
 30
0.0
 10
83.49911120309353
 20
-124.0013888578885
 30
0.0
 10
83.49911120309353
 20
-124.0013888578885
 30
0.0
 10
82.7349945559211
 20
-124.2948999689264
 30
0.0
 10
82.7349945559211
 20
-124.2948999689264
 30
0.0
  0
HATCH
  5
4B
330
1F
100
AcDbEntity
  8
_U+30EC_U+30A4_U+30E4_U+30FC 1
 62
   179
420
  2234388
100
AcDbHatch
 10
0.0
 20
0.0
 30
0.0
210
0.0
220
0.0
230
1.0
  2
SOLID
 70
     1
 71
     0
 91
        1
 92
        1
 93
        1
 72
     4
 94
        3
 73
     0
 74
     1
 95
       38
 96
       34
 40
0.0
 40
0.0
 40
0.0
 40
0.0
 40
1.0
 40
1.0
 40
1.0
 40
2.0
 40
2.0
 40
2.0
 40
3.0
 40
3.0
 40
3.0
 40
4.0
 40
4.0
 40
4.0
 40
5.0
 40
5.0
 40
5.0
 40
6.0
 40
6.0
 40
6.0
 40
7.0
 40
7.0
 40
7.0
 40
8.0
 40
8.0
 40
8.0
 40
9.0
 40
9.0
 40
9.0
 40
10.0
 40
10.0
 40
10.0
 40
11.0
 40
11.0
 40
11.0
 40
11.0
 10
82.7349945559211
 20
-124.2948999689264
 10
82.7349945559211
 20
-124.2948999689264
 10
82.7349945559211
 20
-124.6187499688453
 10
82.7349945559211
 20
-124.6187499688453
 10
82.7349945559211
 20
-124.6187499688453
 10
83.44055009347645
 20
-124.3541666355781
 10
83.44055009347645
 20
-124.3541666355781
 10
83.44055009347645
 20
-124.3541666355781
 10
84.29286118284328
 20
-125.1479166353797
 10
84.29286118284328
 20
-125.1479166353797
 10
84.29286118284328
 20
-125.1479166353797
 10
81.70594180439666
 20
-126.4115666350639
 10
81.70594180439666
 20
-126.4115666350639
 10
81.70594180439666
 20
-126.4115666350639
 10
81.99980568578844
 20
-130.1157333008045
 10
80.9121918246469
 20
-133.1439777444915
 10
80.9121918246469
 20
-133.1439777444915
 10
81.55883347481637
 20
-133.4671221888556
 10
81.55883347481637
 20
-133.4671221888556
 10
81.55883347481637
 20
-133.4671221888556
 10
81.0589473764584
 20
-133.2618055222401
 10
81.47063903262195
 20
-132.5266166335348
 10
81.47063903262195
 20
-132.5266166335348
 10
82.52897233895494
 20
-129.321983301003
 10
82.08800012798287
 20
-126.6175888572346
 10
82.08800012798287
 20
-126.6175888572346
 10
84.93985561078152
 20
-125.2064777464762
 10
84.93985561078152
 20
-125.2064777464762
 10
84.93985561078152
 20
-125.2064777464762
 10
83.49911120309353
 20
-124.0013888578885
 10
83.49911120309353
 20
-124.0013888578885
 10
83.49911120309353
 20
-124.0013888578885
 10
82.7349945559211
 20
-124.2948999689264
 10
82.7349945559211
 20
-124.2948999689264
 97
        0
 97
        0
 75
     2
 76
     1
 98
        0
  0
SPLINE
  5
4C
330
1F
100
AcDbEntity
  8
_U+30EC_U+30A4_U+30E4_U+30FC 1
 62
   179
420
  2234388
370
     9
100
AcDbSpline
210
0.0
220
0.0
230
1.0
 70
    11
 71
     3
 72
    35
 73
    31
 74
     0
 42
0.0000000001
 43
0.0000000001
 12
1.0
 22
0.0
 32
0.0
 13
1.0
 23
0.0
 33
0.0
 40
0.0
 40
0.0
 40
0.0
 40
0.0
 40
1.0
 40
1.0
 40
1.0
 40
2.0
 40
2.0
 40
2.0
 40
3.0
 40
3.0
 40
3.0
 40
4.0
 40
4.0
 40
4.0
 40
5.0
 40
5.0
 40
5.0
 40
6.0
 40
6.0
 40
6.0
 40
7.0
 40
7.0
 40
7.0
 40
8.0
 40
8.0
 40
8.0
 40
9.0
 40
9.0
 40
9.0
 40
10.0
 40
10.0
 40
10.0
 40
10.0
 10
83.91080285925707
 20
-132.4087888557868
 30
0.0
 10
83.91080285925707
 20
-132.4087888557868
 30
0.0
 10
83.94008341406561
 20
-133.0261499667436
 30
0.0
 10
83.94008341406561
 20
-133.0261499667436
 30
0.0
 10
83.94008341406561
 20
-133.0261499667436
 30
0.0
 10
81.97052513097991
 20
-134.0844832998123
 30
0.0
 10
81.97052513097991
 20
-134.0844832998123
 30
0.0
 10
81.97052513097991
 20
-134.0844832998123
 30
0.0
 10
81.17642237346138
 20
-134.2023110775603
 30
0.0
 10
81.11786126384428
 20
-135.3784721883776
 30
0.0
 10
81.11786126384428
 20
-135.3784721883776
 30
0.0
 10
80.9121918246469
 20
-136.789583299136
 30
0.0
 10
81.35316403561899
 20
-137.5536999656113
 30
0.0
 10
81.35316403561899
 20
-137.5536999656113
 30
0.0
 10
81.4999195874305
 20
-138.1710610765681
 30
0.0
 10
82.44077789676054
 20
-137.9361110766271
 30
0.0
 10
82.44077789676054
 20
-137.9361110766271
 30
0.0
 10
81.55918625258515
 20
-138.6709471875547
 30
0.0
 10
81.41207792300486
 20
-135.907638854912
 30
0.0
 10
81.41207792300486
 20
-135.907638854912
 30
0.0
 10
81.00003348907254
 20
-134.8782332996139
 30
0.0
 10
82.44077789676054
 20
-134.1726777442347
 30
0.0
 10
82.44077789676054
 20
-134.1726777442347
 30
0.0
 10
84.26358062803475
 20
-133.1439777444915
 30
0.0
 10
84.26358062803475
 20
-133.1439777444915
 30
0.0
 10
84.26358062803475
 20
-133.1439777444915
 30
0.0
 10
84.20466674064888
 20
-132.2916666335938
 30
0.0
 10
84.20466674064888
 20
-132.2916666335938
 30
0.0
 10
84.20466674064888
 20
-132.2916666335938
 30
0.0
 10
83.91080285925707
 20
-132.4087888557868
 30
0.0
 10
83.91080285925707
 20
-132.4087888557868
 30
0.0
  0
HATCH
  5
4D
330
1F
100
AcDbEntity
  8
_U+30EC_U+30A4_U+30E4_U+30FC 1
 62
   179
420
  2234388
100
AcDbHatch
 10
0.0
 20
0.0
 30
0.0
210
0.0
220
0.0
230
1.0
  2
SOLID
 70
     1
 71
     0
 91
        1
 92
        1
 93
        1
 72
     4
 94
        3
 73
     0
 74
     1
 95
       35
 96
       31
 40
0.0
 40
0.0
 40
0.0
 40
0.0
 40
1.0
 40
1.0
 40
1.0
 40
2.0
 40
2.0
 40
2.0
 40
3.0
 40
3.0
 40
3.0
 40
4.0
 40
4.0
 40
4.0
 40
5.0
 40
5.0
 40
5.0
 40
6.0
 40
6.0
 40
6.0
 40
7.0
 40
7.0
 40
7.0
 40
8.0
 40
8.0
 40
8.0
 40
9.0
 40
9.0
 40
9.0
 40
10.0
 40
10.0
 40
10.0
 40
10.0
 10
83.91080285925707
 20
-132.4087888557868
 10
83.91080285925707
 20
-132.4087888557868
 10
83.94008341406561
 20
-133.0261499667436
 10
83.94008341406561
 20
-133.0261499667436
 10
83.94008341406561
 20
-133.0261499667436
 10
81.97052513097991
 20
-134.0844832998123
 10
81.97052513097991
 20
-134.0844832998123
 10
81.97052513097991
 20
-134.0844832998123
 10
81.17642237346138
 20
-134.2023110775603
 10
81.11786126384428
 20
-135.3784721883776
 10
81.11786126384428
 20
-135.3784721883776
 10
80.9121918246469
 20
-136.789583299136
 10
81.35316403561899
 20
-137.5536999656113
 10
81.35316403561899
 20
-137.5536999656113
 10
81.4999195874305
 20
-138.1710610765681
 10
82.44077789676054
 20
-137.9361110766271
 10
82.44077789676054
 20
-137.9361110766271
 10
81.55918625258515
 20
-138.6709471875547
 10
81.41207792300486
 20
-135.907638854912
 10
81.41207792300486
 20
-135.907638854912
 10
81.00003348907254
 20
-134.8782332996139
 10
82.44077789676054
 20
-134.1726777442347
 10
82.44077789676054
 20
-134.1726777442347
 10
84.26358062803475
 20
-133.1439777444915
 10
84.26358062803475
 20
-133.1439777444915
 10
84.26358062803475
 20
-133.1439777444915
 10
84.20466674064888
 20
-132.2916666335938
 10
84.20466674064888
 20
-132.2916666335938
 10
84.20466674064888
 20
-132.2916666335938
 10
83.91080285925707
 20
-132.4087888557868
 10
83.91080285925707
 20
-132.4087888557868
 97
        0
 97
        0
 75
     2
 76
     1
 98
        0
  0
SPLINE
  5
4E
330
1F
100
AcDbEntity
  8
_U+30EC_U+30A4_U+30E4_U+30FC 1
 62
   179
420
  2234388
370
     9
100
AcDbSpline
210
0.0
220
0.0
230
1.0
 70
    11
 71
     3
 72
    17
 73
    13
 74
     0
 42
0.0000000001
 43
0.0000000001
 12
1.0
 22
0.0
 32
0.0
 13
1.0
 23
0.0
 33
0.0
 40
0.0
 40
0.0
 40
0.0
 40
0.0
 40
1.0
 40
1.0
 40
1.0
 40
2.0
 40
2.0
 40
2.0
 40
3.0
 40
3.0
 40
3.0
 40
4.0
 40
4.0
 40
4.0
 40
4.0
 10
84.0871917436459
 20
-136.2893444103722
 30
0.0
 10
84.0871917436459
 20
-136.2893444103722
 30
0.0
 10
84.46925006723212
 20
-136.0543944104306
 30
0.0
 10
84.6163583968124
 20
-136.3775388547946
 30
0.0
 10
84.6163583968124
 20
-136.3775388547946
 30
0.0
 10
85.08696394036181
 20
-137.5536999656113
 30
0.0
 10
85.82180003272569
 20
-136.583561076965
 30
0.0
 10
85.82180003272569
 20
-136.583561076965
 30
0.0
 10
85.32226671213652
 20
-137.0245332990769
 30
0.0
 10
84.85166116858711
 20
-136.142588854853
 30
0.0
 10
84.85166116858711
 20
-136.142588854853
 30
0.0
 10
84.20466674064888
 20
-135.5545082994446
 30
0.0
 10
84.0871917436459
 20
-136.2893444103722
 30
0.0
  0
HATCH
  5
4F
330
1F
100
AcDbEntity
  8
_U+30EC_U+30A4_U+30E4_U+30FC 1
 62
   179
420
  2234388
100
AcDbHatch
 10
0.0
 20
0.0
 30
0.0
210
0.0
220
0.0
230
1.0
  2
SOLID
 70
     1
 71
     0
 91
        1
 92
        1
 93
        1
 72
     4
 94
        3
 73
     0
 74
     1
 95
       17
 96
       13
 40
0.0
 40
0.0
 40
0.0
 40
0.0
 40
1.0
 40
1.0
 40
1.0
 40
2.0
 40
2.0
 40
2.0
 40
3.0
 40
3.0
 40
3.0
 40
4.0
 40
4.0
 40
4.0
 40
4.0
 10
84.0871917436459
 20
-136.2893444103722
 10
84.0871917436459
 20
-136.2893444103722
 10
84.46925006723212
 20
-136.0543944104306
 10
84.6163583968124
 20
-136.3775388547946
 10
84.6163583968124
 20
-136.3775388547946
 10
85.08696394036181
 20
-137.5536999656113
 10
85.82180003272569
 20
-136.583561076965
 10
85.82180003272569
 20
-136.583561076965
 10
85.32226671213652
 20
-137.0245332990769
 10
84.85166116858711
 20
-136.142588854853
 10
84.85166116858711
 20
-136.142588854853
 10
84.20466674064888
 20
-135.5545082994446
 10
84.0871917436459
 20
-136.2893444103722
 97
        0
 97
        0
 75
     2
 76
     1
 98
        0
  0
SPLINE
  5
50
330
1F
100
AcDbEntity
  8
_U+30EC_U+30A4_U+30E4_U+30FC 1
 62
   179
420
  2234388
370
     9
100
AcDbSpline
210
0.0
220
0.0
230
1.0
 70
    11
 71
     3
 72
    14
 73
    10
 74
     0
 42
0.0000000001
 43
0.0000000001
 12
1.0
 22
0.0
 32
0.0
 13
1.0
 23
0.0
 33
0.0
 40
0.0
 40
0.0
 40
0.0
 40
0.0
 40
1.0
 40
1.0
 40
1.0
 40
2.0
 40
2.0
 40
2.0
 40
3.0
 40
3.0
 40
3.0
 40
3.0
 10
94.14135815380942
 20
-129.6458333009219
 30
0.0
 10
94.14135815380942
 20
-129.6458333009219
 30
0.0
 10
93.8178609398403
 20
-130.8509221895092
 30
0.0
 10
94.69980536178447
 20
-130.6745333006645
 30
0.0
 10
94.69980536178447
 20
-130.6745333006645
 30
0.0
 10
94.37666092558412
 20
-130.6745333006645
 30
0.0
 10
94.40594148039267
 20
-129.4694444120771
 30
0.0
 10
94.40594148039267
 20
-129.4694444120771
 30
0.0
 10
94.14135815380942
 20
-129.6458333009219
 30
0.0
 10
94.14135815380942
 20
-129.6458333009219
 30
0.0
  0
HATCH
  5
51
330
1F
100
AcDbEntity
  8
_U+30EC_U+30A4_U+30E4_U+30FC 1
 62
   179
420
  2234388
100
AcDbHatch
 10
0.0
 20
0.0
 30
0.0
210
0.0
220
0.0
230
1.0
  2
SOLID
 70
     1
 71
     0
 91
        1
 92
        1
 93
        1
 72
     4
 94
        3
 73
     0
 74
     1
 95
       14
 96
       10
 40
0.0
 40
0.0
 40
0.0
 40
0.0
 40
1.0
 40
1.0
 40
1.0
 40
2.0
 40
2.0
 40
2.0
 40
3.0
 40
3.0
 40
3.0
 40
3.0
 10
94.14135815380942
 20
-129.6458333009219
 10
94.14135815380942
 20
-129.6458333009219
 10
93.8178609398403
 20
-130.8509221895092
 10
94.69980536178447
 20
-130.6745333006645
 10
94.69980536178447
 20
-130.6745333006645
 10
94.37666092558412
 20
-130.6745333006645
 10
94.40594148039267
 20
-129.4694444120771
 10
94.40594148039267
 20
-129.4694444120771
 10
94.14135815380942
 20
-129.6458333009219
 10
94.14135815380942
 20
-129.6458333009219
 97
        0
 97
        0
 75
     2
 76
     1
 98
        0
  0
SPLINE
  5
52
330
1F
100
AcDbEntity
  8
_U+30EC_U+30A4_U+30E4_U+30FC 1
 62
   179
420
  2234388
370
     9
100
AcDbSpline
210
0.0
220
0.0
230
1.0
 70
    11
 71
     3
 72
    14
 73
    10
 74
     0
 42
0.0000000001
 43
0.0000000001
 12
1.0
 22
0.0
 32
0.0
 13
1.0
 23
0.0
 33
0.0
 40
0.0
 40
0.0
 40
0.0
 40
0.0
 40
1.0
 40
1.0
 40
1.0
 40
2.0
 40
2.0
 40
2.0
 40
3.0
 40
3.0
 40
3.0
 40
3.0
 10
95.28788590233684
 20
-130.4981444118197
 30
0.0
 10
95.28788590233684
 20
-130.4981444118197
 30
0.0
 10
95.37608034453125
 20
-132.4969833002092
 30
0.0
 10
96.69899697744751
 20
-132.232399966942
 30
0.0
 10
96.69899697744751
 20
-132.232399966942
 30
0.0
 10
95.84601561031998
 20
-132.1738388558452
 30
0.0
 10
95.52283589634276
 20
-130.4099499673973
 30
0.0
 10
95.52283589634276
 20
-130.4099499673973
 30
0.0
 10
95.28788590233684
 20
-130.4981444118197
 30
0.0
 10
95.28788590233684
 20
-130.4981444118197
 30
0.0
  0
HATCH
  5
53
330
1F
100
AcDbEntity
  8
_U+30EC_U+30A4_U+30E4_U+30FC 1
 62
   179
420
  2234388
100
AcDbHatch
 10
0.0
 20
0.0
 30
0.0
210
0.0
220
0.0
230
1.0
  2
SOLID
 70
     1
 71
     0
 91
        1
 92
        1
 93
        1
 72
     4
 94
        3
 73
     0
 74
     1
 95
       14
 96
       10
 40
0.0
 40
0.0
 40
0.0
 40
0.0
 40
1.0
 40
1.0
 40
1.0
 40
2.0
 40
2.0
 40
2.0
 40
3.0
 40
3.0
 40
3.0
 40
3.0
 10
95.28788590233684
 20
-130.4981444118197
 10
95.28788590233684
 20
-130.4981444118197
 10
95.37608034453125
 20
-132.4969833002092
 10
96.69899697744751
 20
-132.232399966942
 10
96.69899697744751
 20
-132.232399966942
 10
95.84601561031998
 20
-132.1738388558452
 10
95.52283589634276
 20
-130.4099499673973
 10
95.52283589634276
 20
-130.4099499673973
 10
95.28788590233684
 20
-130.4981444118197
 10
95.28788590233684
 20
-130.4981444118197
 97
        0
 97
        0
 75
     2
 76
     1
 98
        0
  0
SPLINE
  5
54
330
1F
100
AcDbEntity
  8
_U+30EC_U+30A4_U+30E4_U+30FC 1
 62
   179
420
  2234388
370
     9
100
AcDbSpline
210
0.0
220
0.0
230
1.0
 70
    11
 71
     3
 72
    14
 73
    10
 74
     0
 42
0.0000000001
 43
0.0000000001
 12
1.0
 22
0.0
 32
0.0
 13
1.0
 23
0.0
 33
0.0
 40
0.0
 40
0.0
 40
0.0
 40
0.0
 40
1.0
 40
1.0
 40
1.0
 40
2.0
 40
2.0
 40
2.0
 40
3.0
 40
3.0
 40
3.0
 40
3.0
 10
96.9163786385683
 20
-130.8509221895092
 30
0.0
 10
96.9163786385683
 20
-130.8509221895092
 30
0.0
 10
97.34599140538575
 20
-130.9215483006031
 30
0.0
 10
97.31635807280843
 20
-131.8034927448271
 30
0.0
 10
97.31635807280843
 20
-131.8034927448271
 30
0.0
 10
97.63950250900876
 20
-131.6860177448562
 30
0.0
 10
97.63950250900876
 20
-131.6860177448562
 30
0.0
 10
97.63950250900876
 20
-131.6860177448562
 30
0.0
 10
97.56302028873776
 20
-129.9393444119597
 30
0.0
 10
96.9163786385683
 20
-130.8509221895092
 30
0.0
  0
HATCH
  5
55
330
1F
100
AcDbEntity
  8
_U+30EC_U+30A4_U+30E4_U+30FC 1
 62
   179
420
  2234388
100
AcDbHatch
 10
0.0
 20
0.0
 30
0.0
210
0.0
220
0.0
230
1.0
  2
SOLID
 70
     1
 71
     0
 91
        1
 92
        1
 93
        1
 72
     4
 94
        3
 73
     0
 74
     1
 95
       14
 96
       10
 40
0.0
 40
0.0
 40
0.0
 40
0.0
 40
1.0
 40
1.0
 40
1.0
 40
2.0
 40
2.0
 40
2.0
 40
3.0
 40
3.0
 40
3.0
 40
3.0
 10
96.9163786385683
 20
-130.8509221895092
 10
96.9163786385683
 20
-130.8509221895092
 10
97.34599140538575
 20
-130.9215483006031
 10
97.31635807280843
 20
-131.8034927448271
 10
97.31635807280843
 20
-131.8034927448271
 10
97.63950250900876
 20
-131.6860177448562
 10
97.63950250900876
 20
-131.6860177448562
 10
97.63950250900876
 20
-131.6860177448562
 10
97.56302028873776
 20
-129.9393444119597
 10
96.9163786385683
 20
-130.8509221895092
 97
        0
 97
        0
 75
     2
 76
     1
 98
        0
  0
SPLINE
  5
56
330
1F
100
AcDbEntity
  8
_U+30EC_U+30A4_U+30E4_U+30FC 1
 62
   179
420
  2234388
370
     9
100
AcDbSpline
210
0.0
220
0.0
230
1.0
 70
    11
 71
     3
 72
    20
 73
    16
 74
     0
 42
0.0000000001
 43
0.0000000001
 12
1.0
 22
0.0
 32
0.0
 13
1.0
 23
0.0
 33
0.0
 40
0.0
 40
0.0
 40
0.0
 40
0.0
 40
1.0
 40
1.0
 40
1.0
 40
2.0
 40
2.0
 40
2.0
 40
3.0
 40
3.0
 40
3.0
 40
4.0
 40
4.0
 40
4.0
 40
5.0
 40
5.0
 40
5.0
 40
5.0
 10
96.81647197445047
 20
-127.8523110791481
 30
0.0
 10
96.81647197445047
 20
-127.8523110791481
 30
0.0
 10
98.25686360436968
 20
-127.2935110792879
 30
0.0
 10
98.25686360436968
 20
-127.2935110792879
 30
0.0
 10
98.25686360436968
 20
-127.2935110792879
 30
0.0
 10
99.02133302931088
 20
-126.9114527460498
 30
0.0
 10
99.28591635589413
 20
-127.4698999681327
 30
0.0
 10
99.28591635589413
 20
-127.4698999681327
 30
0.0
 10
99.2566358010856
 20
-127.2349499681913
 30
0.0
 10
97.58094139939168
 20
-127.8523110791481
 30
0.0
 10
97.58094139939168
 20
-127.8523110791481
 30
0.0
 10
96.78719141964191
 20
-128.1168944124153
 30
0.0
 10
96.78719141964191
 20
-128.1168944124153
 30
0.0
 10
96.78719141964191
 20
-128.1168944124153
 30
0.0
 10
96.81647197445047
 20
-127.8523110791481
 30
0.0
 10
96.81647197445047
 20
-127.8523110791481
 30
0.0
  0
HATCH
  5
57
330
1F
100
AcDbEntity
  8
_U+30EC_U+30A4_U+30E4_U+30FC 1
 62
   179
420
  2234388
100
AcDbHatch
 10
0.0
 20
0.0
 30
0.0
210
0.0
220
0.0
230
1.0
  2
SOLID
 70
     1
 71
     0
 91
        1
 92
        1
 93
        1
 72
     4
 94
        3
 73
     0
 74
     1
 95
       20
 96
       16
 40
0.0
 40
0.0
 40
0.0
 40
0.0
 40
1.0
 40
1.0
 40
1.0
 40
2.0
 40
2.0
 40
2.0
 40
3.0
 40
3.0
 40
3.0
 40
4.0
 40
4.0
 40
4.0
 40
5.0
 40
5.0
 40
5.0
 40
5.0
 10
96.81647197445047
 20
-127.8523110791481
 10
96.81647197445047
 20
-127.8523110791481
 10
98.25686360436968
 20
-127.2935110792879
 10
98.25686360436968
 20
-127.2935110792879
 10
98.25686360436968
 20
-127.2935110792879
 10
99.02133302931088
 20
-126.9114527460498
 10
99.28591635589413
 20
-127.4698999681327
 10
99.28591635589413
 20
-127.4698999681327
 10
99.2566358010856
 20
-127.2349499681913
 10
97.58094139939168
 20
-127.8523110791481
 10
97.58094139939168
 20
-127.8523110791481
 10
96.78719141964191
 20
-128.1168944124153
 10
96.78719141964191
 20
-128.1168944124153
 10
96.78719141964191
 20
-128.1168944124153
 10
96.81647197445047
 20
-127.8523110791481
 10
96.81647197445047
 20
-127.8523110791481
 97
        0
 97
        0
 75
     2
 76
     1
 98
        0
  0
SPLINE
  5
58
330
1F
100
AcDbEntity
  8
_U+30EC_U+30A4_U+30E4_U+30FC 1
 62
   179
420
  2234388
370
     9
100
AcDbSpline
210
0.0
220
0.0
230
1.0
 70
    11
 71
     3
 72
    17
 73
    13
 74
     0
 42
0.0000000001
 43
0.0000000001
 12
1.0
 22
0.0
 32
0.0
 13
1.0
 23
0.0
 33
0.0
 40
0.0
 40
0.0
 40
0.0
 40
0.0
 40
1.0
 40
1.0
 40
1.0
 40
2.0
 40
2.0
 40
2.0
 40
3.0
 40
3.0
 40
3.0
 40
4.0
 40
4.0
 40
4.0
 40
4.0
 10
96.96358030403076
 20
-120.0615666366514
 30
0.0
 10
96.96358030403076
 20
-120.0615666366514
 30
0.0
 10
98.60964137314735
 20
-119.3560110812722
 30
0.0
 10
98.60964137314735
 20
-119.3560110812722
 30
0.0
 10
98.60964137314735
 20
-119.3560110812722
 30
0.0
 10
99.4033913528971
 20
-118.9150388591602
 30
0.0
 10
99.81508300906064
 20
-119.532399970117
 30
0.0
 10
99.81508300906064
 20
-119.532399970117
 30
0.0
 10
99.75616912167477
 20
-119.0621471924566
 30
0.0
 10
97.19853029803669
 20
-120.2086749699478
 30
0.0
 10
97.19853029803669
 20
-120.2086749699478
 30
0.0
 10
96.96358030403076
 20
-120.0615666366514
 30
0.0
 10
96.96358030403076
 20
-120.0615666366514
 30
0.0
  0
HATCH
  5
59
330
1F
100
AcDbEntity
  8
_U+30EC_U+30A4_U+30E4_U+30FC 1
 62
   179
420
  2234388
100
AcDbHatch
 10
0.0
 20
0.0
 30
0.0
210
0.0
220
0.0
230
1.0
  2
SOLID
 70
     1
 71
     0
 91
        1
 92
        1
 93
        1
 72
     4
 94
        3
 73
     0
 74
     1
 95
       17
 96
       13
 40
0.0
 40
0.0
 40
0.0
 40
0.0
 40
1.0
 40
1.0
 40
1.0
 40
2.0
 40
2.0
 40
2.0
 40
3.0
 40
3.0
 40
3.0
 40
4.0
 40
4.0
 40
4.0
 40
4.0
 10
96.96358030403076
 20
-120.0615666366514
 10
96.96358030403076
 20
-120.0615666366514
 10
98.60964137314735
 20
-119.3560110812722
 10
98.60964137314735
 20
-119.3560110812722
 10
98.60964137314735
 20
-119.3560110812722
 10
99.4033913528971
 20
-118.9150388591602
 10
99.81508300906064
 20
-119.532399970117
 10
99.81508300906064
 20
-119.532399970117
 10
99.75616912167477
 20
-119.0621471924566
 10
97.19853029803669
 20
-120.2086749699478
 10
97.19853029803669
 20
-120.2086749699478
 10
96.96358030403076
 20
-120.0615666366514
 10
96.96358030403076
 20
-120.0615666366514
 97
        0
 97
        0
 75
     2
 76
     1
 98
        0
  0
POLYLINE
  5
5A
330
1F
100
AcDbEntity
  8
_U+30EC_U+30A4_U+30E4_U+30FC 1
 62
   179
420
  2234388
370
     9
100
AcDb2dPolyline
 66
     1
 10
0.0
 20
0.0
 30
0.0
  0
VERTEX
  5
5B
330
5A
100
AcDbEntity
  8
_U+30EC_U+30A4_U+30E4_U+30FC 1
 62
   179
420
  2234388
370
     9
100
AcDbVertex
100
AcDb2dVertex
 10
95.9345275525063
 20
-118.7682833036413
 30
0.0
  0
VERTEX
  5
5C
330
5A
100
AcDbEntity
  8
_U+30EC_U+30A4_U+30E4_U+30FC 1
 62
   179
420
  2234388
370
     9
100
AcDbVertex
100
AcDb2dVertex
 10
95.9345275525063
 20
-119.0328666369085
 30
0.0
  0
VERTEX
  5
5D
330
5A
100
AcDbEntity
  8
_U+30EC_U+30A4_U+30E4_U+30FC 1
 62
   179
420
  2234388
370
     9
100
AcDbVertex
100
AcDb2dVertex
 10
95.75813866811747
 20
-119.0328666369085
 30
0.0
  0
VERTEX
  5
5E
330
5A
100
AcDbEntity
  8
_U+30EC_U+30A4_U+30E4_U+30FC 1
 62
   179
420
  2234388
370
     9
100
AcDbVertex
100
AcDb2dVertex
 10
95.6992247807316
 20
-118.9446721924861
 30
0.0
  0
VERTEX
  5
5F
330
5A
100
AcDbEntity
  8
_U+30EC_U+30A4_U+30E4_U+30FC 1
 62
   179
420
  2234388
370
     9
100
AcDbVertex
100
AcDb2dVertex
 10
95.9345275525063
 20
-118.7682833036413
 30
0.0
  0
SEQEND
  5
61
330
5A
100
AcDbEntity
  8
_U+30EC_U+30A4_U+30E4_U+30FC 1
 62
   179
420
  2234388
370
     9
  0
HATCH
  5
60
330
1F
100
AcDbEntity
  8
_U+30EC_U+30A4_U+30E4_U+30FC 1
 62
   179
420
  2234388
100
AcDbHatch
 10
0.0
 20
0.0
 30
0.0
210
0.0
220
0.0
230
1.0
  2
SOLID
 70
     1
 71
     0
 91
        1
 92
        1
 93
        4
 72
     1
 10
95.9345275525063
 20
-118.7682833036413
 11
95.9345275525063
 21
-119.0328666369085
 72
     1
 10
95.9345275525063
 20
-119.0328666369085
 11
95.75813866811747
 21
-119.0328666369085
 72
     1
 10
95.75813866811747
 20
-119.0328666369085
 11
95.6992247807316
 21
-118.9446721924861
 72
     1
 10
95.6992247807316
 20
-118.9446721924861
 11
95.9345275525063
 21
-118.7682833036413
 97
        0
 75
     2
 76
     1
 98
        0
  0
ENDSEC
  0
SECTION
  2
OBJECTS
  0
DICTIONARY
  5
C
330
0
100
AcDbDictionary
281
     1
  3
ACAD_GROUP
350
D
  3
ACAD_LAYOUT
350
1A
  3
ACAD_MATERIAL
350
3B
  3
ACAD_MLEADERSTYLE
350
63
  3
ACAD_MLINESTYLE
350
17
  3
ACAD_PLOTSETTINGS
350
19
  3
ACAD_PLOTSTYLENAME
350
E
  3
ACAD_TABLESTYLE
350
62
  3
ACAD_VISUALSTYLE
350
2A
  0
SUN
  5
3F
330
29
100
AcDbSun
 90
        1
290
     0
 63
     7
421
 16777215
 40
1.0
291
     1
 91
  2455826
 92
 54000000
292
     0
 70
     2
 71
   256
280
     1
  0
DICTIONARY
  5
D
102
{ACAD_REACTORS
330
C
102
}
330
C
100
AcDbDictionary
281
     1
  0
DICTIONARY
  5
1A
102
{ACAD_REACTORS
330
C
102
}
330
C
100
AcDbDictionary
281
     1
  3
Layout1
350
1E
  3
Layout2
350
26
  3
Model
350
22
  0
DICTIONARY
  5
3B
102
{ACAD_REACTORS
330
C
102
}
330
C
100
AcDbDictionary
281
     1
  3
ByBlock
350
3D
  3
ByLayer
350
3C
  3
Global
350
3E
  0
DICTIONARY
  5
63
102
{ACAD_REACTORS
330
C
102
}
330
C
100
AcDbDictionary
281
     1
  0
DICTIONARY
  5
17
102
{ACAD_REACTORS
330
C
102
}
330
C
100
AcDbDictionary
281
     1
  3
Standard
350
18
  0
DICTIONARY
  5
19
102
{ACAD_REACTORS
330
C
102
}
330
C
100
AcDbDictionary
281
     1
  0
ACDBDICTIONARYWDFLT
  5
E
102
{ACAD_REACTORS
330
C
102
}
330
C
100
AcDbDictionary
281
     1
  3
Normal
350
F
100
AcDbDictionaryWithDefault
340
F
  0
DICTIONARY
  5
62
102
{ACAD_REACTORS
330
C
102
}
330
C
100
AcDbDictionary
281
     1
  0
DICTIONARY
  5
2A
102
{ACAD_REACTORS
330
C
102
}
330
C
100
AcDbDictionary
281
     1
  3
2dWireframe
350
2F
  3
3D Hidden
350
31
  3
3dWireframe
350
30
  3
Basic
350
32
  3
Brighten
350
36
  3
ColorChange
350
3A
  3
Conceptual
350
34
  3
Dim
350
35
  3
Facepattern
350
39
  3
Flat
350
2B
  3
FlatWithEdges
350
2C
  3
Gouraud
350
2D
  3
GouraudWithEdges
350
2E
  3
Linepattern
350
38
  3
Realistic
350
33
  3
Thicken
350
37
  0
LAYOUT
  5
1E
102
{ACAD_REACTORS
330
1A
102
}
330
1A
100
AcDbPlotSettings
  1

  2
none_device
  4

  6

 40
0.0
 41
0.0
 42
0.0
 43
0.0
 44
0.0
 45
0.0
 46
0.0
 47
0.0
 48
0.0
 49
0.0
140
0.0
141
0.0
142
1.0
143
1.0
 70
   688
 72
     0
 73
     0
 74
     5
  7

 75
    16
 76
     0
 77
     2
 78
   300
147
1.0
148
0.0
149
0.0
100
AcDbLayout
  1
Layout1
 70
     1
 71
     1
 10
0.0
 20
0.0
 11
12.0
 21
9.0
 12
0.0
 22
0.0
 32
0.0
 14
1.000000000000000E+20
 24
1.000000000000000E+20
 34
1.000000000000000E+20
 15
-1.000000000000000E+20
 25
-1.000000000000000E+20
 35
-1.000000000000000E+20
146
0.0
 13
0.0
 23
0.0
 33
0.0
 16
1.0
 26
0.0
 36
0.0
 17
0.0
 27
1.0
 37
0.0
 76
     0
330
1B
  0
LAYOUT
  5
26
102
{ACAD_REACTORS
330
1A
102
}
330
1A
100
AcDbPlotSettings
  1

  2
none_device
  4

  6

 40
0.0
 41
0.0
 42
0.0
 43
0.0
 44
0.0
 45
0.0
 46
0.0
 47
0.0
 48
0.0
 49
0.0
140
0.0
141
0.0
142
1.0
143
1.0
 70
   688
 72
     0
 73
     0
 74
     5
  7

 75
    16
 76
     0
 77
     2
 78
   300
147
1.0
148
0.0
149
0.0
100
AcDbLayout
  1
Layout2
 70
     1
 71
     2
 10
0.0
 20
0.0
 11
0.0
 21
0.0
 12
0.0
 22
0.0
 32
0.0
 14
0.0
 24
0.0
 34
0.0
 15
0.0
 25
0.0
 35
0.0
146
0.0
 13
0.0
 23
0.0
 33
0.0
 16
1.0
 26
0.0
 36
0.0
 17
0.0
 27
1.0
 37
0.0
 76
     0
330
23
  0
LAYOUT
  5
22
102
{ACAD_REACTORS
330
1A
102
}
330
1A
100
AcDbPlotSettings
  1

  2
none_device
  4

  6

 40
0.0
 41
0.0
 42
0.0
 43
0.0
 44
0.0
 45
0.0
 46
0.0
 47
0.0
 48
0.0
 49
0.0
140
0.0
141
0.0
142
1.0
143
1.0
 70
  1712
 72
     0
 73
     0
 74
     0
  7

 75
     0
 76
     0
 77
     2
 78
   300
147
1.0
148
0.0
149
0.0
100
AcDbLayout
  1
Model
 70
     1
 71
     0
 10
0.0
 20
0.0
 11
12.0
 21
9.0
 12
0.0
 22
0.0
 32
0.0
 14
1.000000000000000E+20
 24
1.000000000000000E+20
 34
1.000000000000000E+20
 15
-1.000000000000000E+20
 25
-1.000000000000000E+20
 35
-1.000000000000000E+20
146
0.0
 13
0.0
 23
0.0
 33
0.0
 16
1.0
 26
0.0
 36
0.0
 17
0.0
 27
1.0
 37
0.0
 76
     0
330
1F
331
29
  0
MATERIAL
  5
3D
102
{ACAD_REACTORS
330
3B
102
}
330
3B
100
AcDbMaterial
  1
ByBlock
 72
     1
 94
      127
  0
MATERIAL
  5
3C
102
{ACAD_REACTORS
330
3B
102
}
330
3B
100
AcDbMaterial
  1
ByLayer
 72
     1
 94
      127
  0
MATERIAL
  5
3E
102
{ACAD_REACTORS
330
3B
102
}
330
3B
100
AcDbMaterial
  1
Global
 72
     1
 94
      127
  0
MLINESTYLE
  5
18
102
{ACAD_REACTORS
330
17
102
}
330
17
100
AcDbMlineStyle
  2
Standard
 70
     0
  3

 62
   256
 51
90.0
 52
90.0
 71
     2
 49
0.5
 62
   256
  6
BYLAYER
 49
-0.5
 62
   256
  6
BYLAYER
  0
ACDBPLACEHOLDER
  5
F
102
{ACAD_REACTORS
330
E
102
}
330
E
  0
VISUALSTYLE
  5
2F
102
{ACAD_REACTORS
330
2A
102
}
330
2A
100
AcDbVisualStyle
  2
2dWireframe
 70
     4
177
     2
291
     0
 71
     0
176
     1
 72
     2
176
     1
 73
     0
176
     1
 90
        0
176
     1
 40
-0.6
176
     1
 41
-30.0
176
     1
 62
     5
 63
     7
421
 16777215
176
     1
 74
     1
176
     1
 91
        4
176
     1
 64
     7
176
     1
 65
   257
176
     1
 75
     1
176
     1
175
     1
176
     1
 42
1.0
176
     1
 92
        0
176
     1
 66
   257
176
     1
 43
1.0
176
     1
 76
     1
176
     1
 77
     6
176
     1
 78
     2
176
     1
 67
     7
176
     1
 79
     5
176
     1
170
     0
176
     1
171
     0
176
     1
290
     0
176
     1
 93
        1
176
     1
 44
0.0
176
     1
173
     0
176
     1
  0
VISUALSTYLE
  5
31
102
{ACAD_REACTORS
330
2A
102
}
330
2A
100
AcDbVisualStyle
  2
3D Hidden
 70
     6
177
     2
291
     0
 71
     1
176
     1
 72
     2
176
     1
 73
     2
176
     1
 90
        0
176
     1
 40
-0.6
176
     1
 41
-30.0
176
     1
 62
     5
 63
     7
421
 16777215
176
     1
 74
     2
176
     1
 91
        2
176
     1
 64
     7
176
     1
 65
   257
176
     1
 75
     2
176
     1
175
     1
176
     1
 42
40.0
176
     1
 92
        0
176
     1
 66
   257
176
     1
 43
1.0
176
     1
 76
     1
176
     1
 77
     6
176
     1
 78
     2
176
     1
 67
     7
176
     1
 79
     3
176
     1
170
     0
176
     1
171
     0
176
     1
290
     0
176
     1
 93
        1
176
     1
 44
0.0
176
     1
173
     0
176
     1
  0
VISUALSTYLE
  5
30
102
{ACAD_REACTORS
330
2A
102
}
330
2A
100
AcDbVisualStyle
  2
3dWireframe
 70
     5
177
     2
291
     0
 71
     0
176
     1
 72
     2
176
     1
 73
     0
176
     1
 90
        0
176
     1
 40
-0.6
176
     1
 41
-30.0
176
     1
 62
     5
 63
     7
421
 16777215
176
     1
 74
     1
176
     1
 91
        4
176
     1
 64
     7
176
     1
 65
   257
176
     1
 75
     1
176
     1
175
     1
176
     1
 42
1.0
176
     1
 92
        0
176
     1
 66
   257
176
     1
 43
1.0
176
     1
 76
     1
176
     1
 77
     6
176
     1
 78
     2
176
     1
 67
     7
176
     1
 79
     5
176
     1
170
     0
176
     1
171
     0
176
     1
290
     0
176
     1
 93
        1
176
     1
 44
0.0
176
     1
173
     0
176
     1
  0
VISUALSTYLE
  5
32
102
{ACAD_REACTORS
330
2A
102
}
330
2A
100
AcDbVisualStyle
  2
Basic
 70
     7
177
     2
291
     1
 71
     1
176
     1
 72
     0
176
     1
 73
     1
176
     1
 90
        0
176
     1
 40
-0.6
176
     1
 41
-30.0
176
     1
 62
     5
 63
     7
421
 16777215
176
     1
 74
     0
176
     1
 91
        4
176
     1
 64
     7
176
     1
 65
   257
176
     1
 75
     1
176
     1
175
     1
176
     1
 42
1.0
176
     1
 92
        8
176
     1
 66
     7
176
     1
 43
1.0
176
     1
 76
     1
176
     1
 77
     6
176
     1
 78
     2
176
     1
 67
     7
176
     1
 79
     5
176
     1
170
     0
176
     1
171
     0
176
     1
290
     0
176
     1
 93
        1
176
     1
 44
0.0
176
     1
173
     0
176
     1
  0
VISUALSTYLE
  5
36
102
{ACAD_REACTORS
330
2A
102
}
330
2A
100
AcDbVisualStyle
  2
Brighten
 70
    12
177
     2
291
     1
 71
     2
176
     1
 72
     2
176
     1
 73
     0
176
     1
 90
        0
176
     1
 40
-0.6
176
     1
 41
-30.0
176
     1
 62
     5
 63
     7
421
 16777215
176
     1
 74
     1
176
     1
 91
        4
176
     1
 64
     7
176
     1
 65
   257
176
     1
 75
     1
176
     1
175
     1
176
     1
 42
1.0
176
     1
 92
        8
176
     1
 66
     7
176
     1
 43
1.0
176
     1
 76
     1
176
     1
 77
     6
176
     1
 78
     2
176
     1
 67
     7
176
     1
 79
     5
176
     1
170
     0
176
     1
171
     0
176
     1
290
     0
176
     1
 93
        1
176
     1
 44
50.0
176
     1
173
     0
176
     1
  0
VISUALSTYLE
  5
3A
102
{ACAD_REACTORS
330
2A
102
}
330
2A
100
AcDbVisualStyle
  2
ColorChange
 70
    16
177
     2
291
     1
 71
     2
176
     1
 72
     2
176
     1
 73
     3
176
     1
 90
        0
176
     1
 40
-0.6
176
     1
 41
-30.0
176
     1
 62
     5
 63
     8
421
  8421504
176
     1
 74
     1
176
     1
 91
        4
176
     1
 64
     7
176
     1
 65
   257
176
     1
 75
     1
176
     1
175
     1
176
     1
 42
1.0
176
     1
 92
        8
176
     1
 66
     8
424
  8421504
176
     1
 43
1.0
176
     1
 76
     1
176
     1
 77
     6
176
     1
 78
     2
176
     1
 67
     7
176
     1
 79
     5
176
     1
170
     0
176
     1
171
     0
176
     1
290
     0
176
     1
 93
        1
176
     1
 44
0.0
176
     1
173
     0
176
     1
  0
VISUALSTYLE
  5
34
102
{ACAD_REACTORS
330
2A
102
}
330
2A
100
AcDbVisualStyle
  2
Conceptual
 70
     9
177
     2
291
     0
 71
     3
176
     1
 72
     2
176
     1
 73
     0
176
     1
 90
        0
176
     1
 40
-0.6
176
     1
 41
-30.0
176
     1
 62
     5
 63
     7
421
 16777215
176
     1
 74
     2
176
     1
 91
        2
176
     1
 64
     7
176
     1
 65
   257
176
     1
 75
     1
176
     1
175
     1
176
     1
 42
40.0
176
     1
 92
        8
176
     1
 66
     7
176
     1
 43
1.0
176
     1
 76
     1
176
     1
 77
     6
176
     1
 78
     2
176
     1
 67
     7
176
     1
 79
     3
176
     1
170
     0
176
     1
171
     0
176
     1
290
     0
176
     1
 93
        1
176
     1
 44
0.0
176
     1
173
     0
176
     1
  0
VISUALSTYLE
  5
35
102
{ACAD_REACTORS
330
2A
102
}
330
2A
100
AcDbVisualStyle
  2
Dim
 70
    11
177
     2
291
     1
 71
     2
176
     1
 72
     2
176
     1
 73
     0
176
     1
 90
        0
176
     1
 40
-0.6
176
     1
 41
-30.0
176
     1
 62
     5
 63
     7
421
 16777215
176
     1
 74
     1
176
     1
 91
        4
176
     1
 64
     7
176
     1
 65
   257
176
     1
 75
     1
176
     1
175
     1
176
     1
 42
1.0
176
     1
 92
        8
176
     1
 66
     7
176
     1
 43
1.0
176
     1
 76
     1
176
     1
 77
     6
176
     1
 78
     2
176
     1
 67
     7
176
     1
 79
     5
176
     1
170
     0
176
     1
171
     0
176
     1
290
     0
176
     1
 93
        1
176
     1
 44
-50.0
176
     1
173
     0
176
     1
  0
VISUALSTYLE
  5
39
102
{ACAD_REACTORS
330
2A
102
}
330
2A
100
AcDbVisualStyle
  2
Facepattern
 70
    15
177
     2
291
     1
 71
     2
176
     1
 72
     2
176
     1
 73
     0
176
     1
 90
        0
176
     1
 40
-0.6
176
     1
 41
-30.0
176
     1
 62
     5
 63
     7
421
 16777215
176
     1
 74
     1
176
     1
 91
        4
176
     1
 64
     7
176
     1
 65
   257
176
     1
 75
     1
176
     1
175
     1
176
     1
 42
1.0
176
     1
 92
        8
176
     1
 66
     7
176
     1
 43
1.0
176
     1
 76
     1
176
     1
 77
     6
176
     1
 78
     2
176
     1
 67
     7
176
     1
 79
     5
176
     1
170
     0
176
     1
171
     0
176
     1
290
     0
176
     1
 93
        1
176
     1
 44
0.0
176
     1
173
     0
176
     1
  0
VISUALSTYLE
  5
2B
102
{ACAD_REACTORS
330
2A
102
}
330
2A
100
AcDbVisualStyle
  2
Flat
 70
     0
177
     2
291
     1
 71
     2
176
     1
 72
     1
176
     1
 73
     1
176
     1
 90
        2
176
     1
 40
-0.6
176
     1
 41
30.0
176
     1
 62
     5
 63
     7
421
 16777215
176
     1
 74
     0
176
     1
 91
        4
176
     1
 64
     7
176
     1
 65
   257
176
     1
 75
     1
176
     1
175
     1
176
     1
 42
1.0
176
     1
 92
        8
176
     1
 66
     7
176
     1
 43
1.0
176
     1
 76
     1
176
     1
 77
     6
176
     1
 78
     2
176
     1
 67
     7
176
     1
 79
     5
176
     1
170
     0
176
     1
171
     0
176
     1
290
     0
176
     1
 93
       13
176
     1
 44
0.0
176
     1
173
     0
176
     1
  0
VISUALSTYLE
  5
2C
102
{ACAD_REACTORS
330
2A
102
}
330
2A
100
AcDbVisualStyle
  2
FlatWithEdges
 70
     1
177
     2
291
     1
 71
     2
176
     1
 72
     1
176
     1
 73
     1
176
     1
 90
        2
176
     1
 40
-0.6
176
     1
 41
30.0
176
     1
 62
     5
 63
     7
421
 16777215
176
     1
 74
     1
176
     1
 91
        4
176
     1
 64
     7
176
     1
 65
   257
176
     1
 75
     1
176
     1
175
     1
176
     1
 42
1.0
176
     1
 92
        0
176
     1
 66
   257
176
     1
 43
1.0
176
     1
 76
     1
176
     1
 77
     6
176
     1
 78
     2
176
     1
 67
     7
176
     1
 79
     5
176
     1
170
     0
176
     1
171
     0
176
     1
290
     0
176
     1
 93
       13
176
     1
 44
0.0
176
     1
173
     0
176
     1
  0
VISUALSTYLE
  5
2D
102
{ACAD_REACTORS
330
2A
102
}
330
2A
100
AcDbVisualStyle
  2
Gouraud
 70
     2
177
     2
291
     1
 71
     2
176
     1
 72
     2
176
     1
 73
     1
176
     1
 90
        2
176
     1
 40
-0.6
176
     1
 41
30.0
176
     1
 62
     5
 63
     7
421
 16777215
176
     1
 74
     0
176
     1
 91
        4
176
     1
 64
     7
176
     1
 65
   257
176
     1
 75
     1
176
     1
175
     1
176
     1
 42
1.0
176
     1
 92
        0
176
     1
 66
     7
176
     1
 43
1.0
176
     1
 76
     1
176
     1
 77
     6
176
     1
 78
     2
176
     1
 67
     7
176
     1
 79
     5
176
     1
170
     0
176
     1
171
     0
176
     1
290
     0
176
     1
 93
       13
176
     1
 44
0.0
176
     1
173
     0
176
     1
  0
VISUALSTYLE
  5
2E
102
{ACAD_REACTORS
330
2A
102
}
330
2A
100
AcDbVisualStyle
  2
GouraudWithEdges
 70
     3
177
     2
291
     1
 71
     2
176
     1
 72
     2
176
     1
 73
     1
176
     1
 90
        2
176
     1
 40
-0.6
176
     1
 41
30.0
176
     1
 62
     5
 63
     7
421
 16777215
176
     1
 74
     1
176
     1
 91
        4
176
     1
 64
     7
176
     1
 65
   257
176
     1
 75
     1
176
     1
175
     1
176
     1
 42
1.0
176
     1
 92
        0
176
     1
 66
   257
176
     1
 43
1.0
176
     1
 76
     1
176
     1
 77
     6
176
     1
 78
     2
176
     1
 67
     7
176
     1
 79
     5
176
     1
170
     0
176
     1
171
     0
176
     1
290
     0
176
     1
 93
       13
176
     1
 44
0.0
176
     1
173
     0
176
     1
  0
VISUALSTYLE
  5
38
102
{ACAD_REACTORS
330
2A
102
}
330
2A
100
AcDbVisualStyle
  2
Linepattern
 70
    14
177
     2
291
     1
 71
     2
176
     1
 72
     2
176
     1
 73
     0
176
     1
 90
        0
176
     1
 40
-0.6
176
     1
 41
-30.0
176
     1
 62
     5
 63
     7
421
 16777215
176
     1
 74
     1
176
     1
 91
        4
176
     1
 64
     7
176
     1
 65
   257
176
     1
 75
     7
176
     1
175
     7
176
     1
 42
1.0
176
     1
 92
        8
176
     1
 66
     7
176
     1
 43
1.0
176
     1
 76
     1
176
     1
 77
     6
176
     1
 78
     2
176
     1
 67
     7
176
     1
 79
     5
176
     1
170
     0
176
     1
171
     0
176
     1
290
     0
176
     1
 93
        1
176
     1
 44
0.0
176
     1
173
     0
176
     1
  0
VISUALSTYLE
  5
33
102
{ACAD_REACTORS
330
2A
102
}
330
2A
100
AcDbVisualStyle
  2
Realistic
 70
     8
177
     2
291
     0
 71
     2
176
     1
 72
     2
176
     1
 73
     0
176
     1
 90
        0
176
     1
 40
-0.6
176
     1
 41
-30.0
176
     1
 62
     5
 63
     7
421
 16777215
176
     1
 74
     1
176
     1
 91
        0
176
     1
 64
     7
176
     1
 65
   257
176
     1
 75
     1
176
     1
175
     1
176
     1
 42
1.0
176
     1
 92
        8
176
     1
 66
     8
424
  7895160
176
     1
 43
1.0
176
     1
 76
     1
176
     1
 77
     6
176
     1
 78
     2
176
     1
 67
     7
176
     1
 79
     5
176
     1
170
     0
176
     1
171
     0
176
     1
290
     0
176
     1
 93
       13
176
     1
 44
0.0
176
     1
173
     0
176
     1
  0
VISUALSTYLE
  5
37
102
{ACAD_REACTORS
330
2A
102
}
330
2A
100
AcDbVisualStyle
  2
Thicken
 70
    13
177
     2
291
     1
 71
     2
176
     1
 72
     2
176
     1
 73
     0
176
     1
 90
        0
176
     1
 40
-0.6
176
     1
 41
-30.0
176
     1
 62
     5
 63
     7
421
 16777215
176
     1
 74
     1
176
     1
 91
        4
176
     1
 64
     7
176
     1
 65
   257
176
     1
 75
     1
176
     1
175
     1
176
     1
 42
1.0
176
     1
 92
       12
176
     1
 66
     7
176
     1
 43
1.0
176
     1
 76
     1
176
     1
 77
     6
176
     1
 78
     2
176
     1
 67
     7
176
     1
 79
     5
176
     1
170
     0
176
     1
171
     0
176
     1
290
     0
176
     1
 93
        1
176
     1
 44
0.0
176
     1
173
     0
176
     1
  0
ENDSEC
  0
EOF
