  0
SECTION
  2
HEADER
  9
$ACADVER
  1
AC1024
  9
$ACADMAINTVER
 70
     6
  9
$DWGCODEPAGE
  3
UNDEFINED
  9
$INSBASE
 10
0.0
 20
0.0
 30
0.0
  9
$EXTMIN
 10
1.000000000000000E+20
 20
1.000000000000000E+20
 30
1.000000000000000E+20
  9
$EXTMAX
 10
-1.000000000000000E+20
 20
-1.000000000000000E+20
 30
-1.000000000000000E+20
  9
$LIMMIN
 10
0.0
 20
0.0
  9
$LIMMAX
 10
12.0
 20
9.0
  9
$ORTHOMODE
 70
     0
  9
$REGENMODE
 70
     1
  9
$FILLMODE
 70
     1
  9
$QTEXTMODE
 70
     0
  9
$MIRRTEXT
 70
     1
  9
$LTSCALE
 40
1.0
  9
$ATTMODE
 70
     1
  9
$TEXTSIZE
 40
0.2
  9
$TRACEWID
 40
0.05
  9
$TEXTSTYLE
  7
Standard
  9
$CLAYER
  8
0
  9
$CELTYPE
  6
ByLayer
  9
$CECOLOR
 62
   256
  9
$CELTSCALE
 40
1.0
  9
$DISPSILH
 70
     0
  9
$DIMSCALE
 40
1.0
  9
$DIMASZ
 40
0.18
  9
$DIMEXO
 40
0.0625
  9
$DIMDLI
 40
0.38
  9
$DIMRND
 40
0.0
  9
$DIMDLE
 40
0.0
  9
$DIMEXE
 40
0.18
  9
$DIMTP
 40
0.0
  9
$DIMTM
 40
0.0
  9
$DIMTXT
 40
0.18
  9
$DIMCEN
 40
0.09
  9
$DIMTSZ
 40
0.0
  9
$DIMTOL
 70
     0
  9
$DIMLIM
 70
     0
  9
$DIMTIH
 70
     1
  9
$DIMTOH
 70
     1
  9
$DIMSE1
 70
     0
  9
$DIMSE2
 70
     0
  9
$DIMTAD
 70
     0
  9
$DIMZIN
 70
     0
  9
$DIMBLK
  1

  9
$DIMASO
 70
     1
  9
$DIMSHO
 70
     1
  9
$DIMPOST
  1

  9
$DIMAPOST
  1

  9
$DIMALT
 70
     0
  9
$DIMALTD
 70
     2
  9
$DIMALTF
 40
25.4
  9
$DIMLFAC
 40
1.0
  9
$DIMTOFL
 70
     0
  9
$DIMTVP
 40
0.0
  9
$DIMTIX
 70
     0
  9
$DIMSOXD
 70
     0
  9
$DIMSAH
 70
     0
  9
$DIMBLK1
  1

  9
$DIMBLK2
  1

  9
$DIMSTYLE
  2
Standard
  9
$DIMCLRD
 70
     0
  9
$DIMCLRE
 70
     0
  9
$DIMCLRT
 70
     0
  9
$DIMTFAC
 40
1.0
  9
$DIMGAP
 40
0.09
  9
$DIMJUST
 70
     0
  9
$DIMSD1
 70
     0
  9
$DIMSD2
 70
     0
  9
$DIMTOLJ
 70
     1
  9
$DIMTZIN
 70
     0
  9
$DIMALTZ
 70
     0
  9
$DIMALTTZ
 70
     0
  9
$DIMUPT
 70
     0
  9
$DIMDEC
 70
     4
  9
$DIMTDEC
 70
     4
  9
$DIMALTU
 70
     2
  9
$DIMALTTD
 70
     2
  9
$DIMTXSTY
  7
Standard
  9
$DIMAUNIT
 70
     0
  9
$DIMADEC
 70
     0
  9
$DIMALTRND
 40
0.0
  9
$DIMAZIN
 70
     0
  9
$DIMDSEP
 70
    46
  9
$DIMATFIT
 70
     3
  9
$DIMFRAC
 70
     0
  9
$DIMLDRBLK
  1

  9
$DIMLUNIT
 70
     2
  9
$DIMLWD
 70
    -2
  9
$DIMLWE
 70
    -2
  9
$DIMTMOVE
 70
     0
  9
$DIMFXL
 40
1.0
  9
$DIMFXLON
 70
     0
  9
$DIMJOGANG
 40
0.7853981633974483
  9
$DIMTFILL
 70
     0
  9
$DIMTFILLCLR
 70
     0
  9
$DIMARCSYM
 70
     0
  9
$DIMLTYPE
  6

  9
$DIMLTEX1
  6

  9
$DIMLTEX2
  6

  9
$DIMTXTDIRECTION
 70
     0
  9
$LUNITS
 70
     2
  9
$LUPREC
 70
     4
  9
$SKETCHINC
 40
0.1
  9
$FILLETRAD
 40
0.5
  9
$AUNITS
 70
     0
  9
$AUPREC
 70
     0
  9
$MENU
  1
.
  9
$ELEVATION
 40
0.0
  9
$PELEVATION
 40
0.0
  9
$THICKNESS
 40
0.0
  9
$LIMCHECK
 70
     0
  9
$CHAMFERA
 40
0.5
  9
$CHAMFERB
 40
0.5
  9
$CHAMFERC
 40
1.0
  9
$CHAMFERD
 40
0.0
  9
$SKPOLY
 70
     0
  9
$TDCREATE
 40
2458270.588935185
  9
$TDUCREATE
 40
2458270.213935185
  9
$TDUPDATE
 40
2458270.588935185
  9
$TDUUPDATE
 40
2458270.213935185
  9
$TDINDWG
 40
0.0000000116
  9
$TDUSRTIMER
 40
0.0000000116
  9
$USRTIMER
 70
     1
  9
$ANGBASE
 50
0.0
  9
$ANGDIR
 70
     0
  9
$PDMODE
 70
     0
  9
$PDSIZE
 40
0.0
  9
$PLINEWID
 40
0.0
  9
$SPLFRAME
 70
     0
  9
$SPLINETYPE
 70
     6
  9
$SPLINESEGS
 70
     8
  9
$HANDSEED
  5
261
  9
$SURFTAB1
 70
     6
  9
$SURFTAB2
 70
     6
  9
$SURFTYPE
 70
     6
  9
$SURFU
 70
     6
  9
$SURFV
 70
     6
  9
$UCSBASE
  2

  9
$UCSNAME
  2

  9
$UCSORG
 10
0.0
 20
0.0
 30
0.0
  9
$UCSXDIR
 10
1.0
 20
0.0
 30
0.0
  9
$UCSYDIR
 10
0.0
 20
1.0
 30
0.0
  9
$UCSORTHOREF
  2

  9
$UCSORTHOVIEW
 70
     0
  9
$UCSORGTOP
 10
0.0
 20
0.0
 30
0.0
  9
$UCSORGBOTTOM
 10
0.0
 20
0.0
 30
0.0
  9
$UCSORGLEFT
 10
0.0
 20
0.0
 30
0.0
  9
$UCSORGRIGHT
 10
0.0
 20
0.0
 30
0.0
  9
$UCSORGFRONT
 10
0.0
 20
0.0
 30
0.0
  9
$UCSORGBACK
 10
0.0
 20
0.0
 30
0.0
  9
$PUCSBASE
  2

  9
$PUCSNAME
  2

  9
$PUCSORG
 10
0.0
 20
0.0
 30
0.0
  9
$PUCSXDIR
 10
1.0
 20
0.0
 30
0.0
  9
$PUCSYDIR
 10
0.0
 20
1.0
 30
0.0
  9
$PUCSORTHOREF
  2

  9
$PUCSORTHOVIEW
 70
     0
  9
$PUCSORGTOP
 10
0.0
 20
0.0
 30
0.0
  9
$PUCSORGBOTTOM
 10
0.0
 20
0.0
 30
0.0
  9
$PUCSORGLEFT
 10
0.0
 20
0.0
 30
0.0
  9
$PUCSORGRIGHT
 10
0.0
 20
0.0
 30
0.0
  9
$PUCSORGFRONT
 10
0.0
 20
0.0
 30
0.0
  9
$PUCSORGBACK
 10
0.0
 20
0.0
 30
0.0
  9
$USERI1
 70
     0
  9
$USERI2
 70
     0
  9
$USERI3
 70
     0
  9
$USERI4
 70
     0
  9
$USERI5
 70
     0
  9
$USERR1
 40
0.0
  9
$USERR2
 40
0.0
  9
$USERR3
 40
0.0
  9
$USERR4
 40
0.0
  9
$USERR5
 40
0.0
  9
$WORLDVIEW
 70
     1
  9
$SHADEDGE
 70
     3
  9
$SHADEDIF
 70
    70
  9
$TILEMODE
 70
     1
  9
$MAXACTVP
 70
    64
  9
$PINSBASE
 10
0.0
 20
0.0
 30
0.0
  9
$PLIMCHECK
 70
     0
  9
$PEXTMIN
 10
1.000000000000000E+20
 20
1.000000000000000E+20
 30
1.000000000000000E+20
  9
$PEXTMAX
 10
-1.000000000000000E+20
 20
-1.000000000000000E+20
 30
-1.000000000000000E+20
  9
$PLIMMIN
 10
0.0
 20
0.0
  9
$PLIMMAX
 10
12.0
 20
9.0
  9
$UNITMODE
 70
     0
  9
$VISRETAIN
 70
     1
  9
$PLINEGEN
 70
     0
  9
$PSLTSCALE
 70
     1
  9
$TREEDEPTH
 70
  3020
  9
$CMLSTYLE
  2
Standard
  9
$CMLJUST
 70
     0
  9
$CMLSCALE
 40
1.0
  9
$PROXYGRAPHICS
 70
     1
  9
$MEASUREMENT
 70
     0
  9
$CELWEIGHT
370
    -1
  9
$ENDCAPS
280
     0
  9
$JOINSTYLE
280
     0
  9
$LWDISPLAY
290
     1
  9
$INSUNITS
 70
     1
  9
$HYPERLINKBASE
  1

  9
$STYLESHEET
  1

  9
$XEDIT
290
     1
  9
$CEPSNTYPE
380
     0
  9
$PSTYLEMODE
290
     1
  9
$FINGERPRINTGUID
  2
{5B44A003-0FBE-BC91-2F3A-EA282A307D63}
  9
$VERSIONGUID
  2
{FAEB1C32-E019-11D5-929B-00C0DF256EC4}
  9
$EXTNAMES
290
     1
  9
$PSVPSCALE
 40
0.0
  9
$OLESTARTUP
290
     0
  9
$SORTENTS
280
   127
  9
$INDEXCTL
280
     0
  9
$HIDETEXT
280
     1
  9
$XCLIPFRAME
280
     2
  9
$HALOGAP
280
     0
  9
$OBSCOLOR
 70
   257
  9
$OBSLTYPE
280
     0
  9
$INTERSECTIONDISPLAY
280
     0
  9
$INTERSECTIONCOLOR
 70
   257
  9
$DIMASSOC
280
     2
  9
$PROJECTNAME
  1

  9
$CAMERADISPLAY
290
     0
  9
$LENSLENGTH
 40
50.0
  9
$CAMERAHEIGHT
 40
0.0
  9
$STEPSPERSEC
 40
2.0
  9
$STEPSIZE
 40
6.0
  9
$3DDWFPREC
 40
2.0
  9
$PSOLWIDTH
 40
0.25
  9
$PSOLHEIGHT
 40
4.0
  9
$LOFTANG1
 40
1.570796326794897
  9
$LOFTANG2
 40
1.570796326794897
  9
$LOFTMAG1
 40
0.0
  9
$LOFTMAG2
 40
0.0
  9
$LOFTPARAM
 70
     7
  9
$LOFTNORMALS
280
     1
  9
$LATITUDE
 40
37.795
  9
$LONGITUDE
 40
-122.394
  9
$NORTHDIRECTION
 40
0.0
  9
$TIMEZONE
 70
 -8000
  9
$LIGHTGLYPHDISPLAY
280
     1
  9
$TILEMODELIGHTSYNCH
280
     1
  9
$CMATERIAL
347
3C
  9
$SOLIDHIST
280
     1
  9
$SHOWHIST
280
     1
  9
$DWFFRAME
280
     2
  9
$DGNFRAME
280
     2
  9
$REALWORLDSCALE
290
     1
  9
$INTERFERECOLOR
 62
   256
  9
$CSHADOW
280
     0
  9
$SHADOWPLANELOCATION
 40
0.0
  0
ENDSEC
  0
SECTION
  2
CLASSES
  0
CLASS
  1
ACDBDICTIONARYWDFLT
  2
AcDbDictionaryWithDefault
  3
ObjectDBX Classes
 90
        0
 91
        4
280
     0
281
     0
  0
CLASS
  1
VISUALSTYLE
  2
AcDbVisualStyle
  3
ObjectDBX Classes
 90
     4095
 91
        4
280
     0
281
     0
  0
CLASS
  1
MATERIAL
  2
AcDbMaterial
  3
ObjectDBX Classes
 90
     1153
 91
        4
280
     0
281
     0
  0
CLASS
  1
SUN
  2
AcDbSun
  3
SCENEOE
 90
     1024
 91
        4
280
     0
281
     0
  0
ENDSEC
  0
SECTION
  2
TABLES
  0
TABLE
  2
VPORT
  5
8
330
0
100
AcDbSymbolTable
 70
     1
  0
VPORT
  5
29
330
8
100
AcDbSymbolTableRecord
100
AcDbViewportTableRecord
  2
*Active
 70
     0
 10
0.0
 20
0.0
 11
1.0
 21
1.0
 12
0.0
 22
0.0
 13
0.0
 23
0.0
 14
0.5
 24
0.5
 15
0.5
 25
0.5
 16
0.0
 26
0.0
 36
1.0
 17
105.0007777515277
 27
-148.5000416295416
 37
0.0
 40
297.0000832590831
 41
0.7070757462376333
 42
50.0
 43
0.0
 44
0.0
 50
0.0
 51
0.0
 71
     0
 72
   100
 73
     1
 74
     3
 75
     0
 76
     0
 77
     0
 78
     0
281
     0
 65
     1
110
0.0
120
0.0
130
0.0
111
1.0
121
0.0
131
0.0
112
0.0
122
1.0
132
0.0
 79
     0
146
0.0
 60
     3
 61
     5
292
     1
282
     1
141
0.0
142
0.0
 63
   250
361
3F
  0
ENDTAB
  0
TABLE
  2
LTYPE
  5
5
330
0
100
AcDbSymbolTable
 70
     2
  0
LTYPE
  5
14
330
5
100
AcDbSymbolTableRecord
100
AcDbLinetypeTableRecord
  2
ByBlock
 70
     0
  3

 72
    65
 73
     0
 40
0.0
  0
LTYPE
  5
15
330
5
100
AcDbSymbolTableRecord
100
AcDbLinetypeTableRecord
  2
ByLayer
 70
     0
  3

 72
    65
 73
     0
 40
0.0
  0
LTYPE
  5
16
330
5
100
AcDbSymbolTableRecord
100
AcDbLinetypeTableRecord
  2
Continuous
 70
     0
  3
Solid line
 72
    65
 73
     0
 40
0.0
  0
LTYPE
  5
85
330
5
100
AcDbSymbolTableRecord
100
AcDbLinetypeTableRecord
  2
AI-Linetype-1
 70
     0
  3
Adobe Illustrator Linetype No. 1
 72
    65
 73
     4
 40
2.1166666661375
 49
1.05833333306875
 74
     0
 49
-0.3527777776895833
 74
     0
 49
0.3527777776895833
 74
     0
 49
-0.3527777776895833
 74
     0
  0
ENDTAB
  0
TABLE
  2
LAYER
  5
2
330
0
100
AcDbSymbolTable
 70
     2
  0
LAYER
  5
10
330
2
100
AcDbSymbolTableRecord
100
AcDbLayerTableRecord
  2
0
 70
     0
 62
     7
  6
Continuous
370
    -3
390
F
347
3E
  0
LAYER
  5
40
330
2
100
AcDbSymbolTableRecord
100
AcDbLayerTableRecord
  2
_U+30EC_U+30A4_U+30E4_U+30FC 1
 70
     0
 62
     7
  6
Continuous
370
    -3
390
F
347
3E
  0
ENDTAB
  0
TABLE
  2
STYLE
  5
3
330
0
100
AcDbSymbolTable
 70
     1
  0
STYLE
  5
11
330
3
100
AcDbSymbolTableRecord
100
AcDbTextStyleTableRecord
  2
Standard
 70
     0
 40
0.0
 41
1.0
 50
0.0
 71
     0
 42
0.2
  3
txt
  4

  0
ENDTAB
  0
TABLE
  2
VIEW
  5
6
330
0
100
AcDbSymbolTable
 70
     0
  0
ENDTAB
  0
TABLE
  2
UCS
  5
7
330
0
100
AcDbSymbolTable
 70
     0
  0
ENDTAB
  0
TABLE
  2
APPID
  5
9
330
0
100
AcDbSymbolTable
 70
     1
  0
APPID
  5
12
330
9
100
AcDbSymbolTableRecord
100
AcDbRegAppTableRecord
  2
ACAD
 70
     0
  0
ENDTAB
  0
TABLE
  2
DIMSTYLE
  5
A
330
0
100
AcDbSymbolTable
 70
     1
100
AcDbDimStyleTable
  0
DIMSTYLE
105
27
330
A
100
AcDbSymbolTableRecord
100
AcDbDimStyleTableRecord
  2
Standard
 70
     0
178
     0
340
11
  0
ENDTAB
  0
TABLE
  2
BLOCK_RECORD
  5
1
330
0
100
AcDbSymbolTable
 70
    13
  0
BLOCK_RECORD
  5
1F
330
1
100
AcDbSymbolTableRecord
100
AcDbBlockTableRecord
  2
*Model_Space
340
22
 70
     0
280
     1
281
     0
  0
BLOCK_RECORD
  5
1B
330
1
100
AcDbSymbolTableRecord
100
AcDbBlockTableRecord
  2
*Paper_Space
340
1E
 70
     0
280
     1
281
     0
  0
BLOCK_RECORD
  5
23
330
1
100
AcDbSymbolTableRecord
100
AcDbBlockTableRecord
  2
*Paper_Space0
340
26
 70
     0
280
     1
281
     0
  0
BLOCK_RECORD
  5
10A
330
1
100
AcDbSymbolTableRecord
100
AcDbBlockTableRecord
  2
block 2
340
0
102
{BLKREFS
331
10B
102
}
 70
     0
280
     1
281
     0
  0
BLOCK_RECORD
  5
152
330
1
100
AcDbSymbolTableRecord
100
AcDbBlockTableRecord
  2
block 3
340
0
102
{BLKREFS
331
153
102
}
 70
     0
280
     1
281
     0
  0
BLOCK_RECORD
  5
158
330
1
100
AcDbSymbolTableRecord
100
AcDbBlockTableRecord
  2
block 4
340
0
102
{BLKREFS
331
159
102
}
 70
     0
280
     1
281
     0
  0
BLOCK_RECORD
  5
16D
330
1
100
AcDbSymbolTableRecord
100
AcDbBlockTableRecord
  2
block 5
340
0
102
{BLKREFS
331
16E
102
}
 70
     0
280
     1
281
     0
  0
BLOCK_RECORD
  5
18A
330
1
100
AcDbSymbolTableRecord
100
AcDbBlockTableRecord
  2
block 6
340
0
102
{BLKREFS
331
18B
102
}
 70
     0
280
     1
281
     0
  0
BLOCK_RECORD
  5
1AB
330
1
100
AcDbSymbolTableRecord
100
AcDbBlockTableRecord
  2
block 7
340
0
102
{BLKREFS
331
1AC
102
}
 70
     0
280
     1
281
     0
  0
BLOCK_RECORD
  5
1B3
330
1
100
AcDbSymbolTableRecord
100
AcDbBlockTableRecord
  2
block 8
340
0
102
{BLKREFS
331
1B4
102
}
 70
     0
280
     1
281
     0
  0
BLOCK_RECORD
  5
1D6
330
1
100
AcDbSymbolTableRecord
100
AcDbBlockTableRecord
  2
block 9
340
0
102
{BLKREFS
331
1D7
102
}
 70
     0
280
     1
281
     0
  0
BLOCK_RECORD
  5
1F9
330
1
100
AcDbSymbolTableRecord
100
AcDbBlockTableRecord
  2
block 10
340
0
102
{BLKREFS
331
1FA
102
}
 70
     0
280
     1
281
     0
  0
BLOCK_RECORD
  5
218
330
1
100
AcDbSymbolTableRecord
100
AcDbBlockTableRecord
  2
block 11
340
0
102
{BLKREFS
331
219
102
}
 70
     0
280
     1
281
     0
  0
BLOCK_RECORD
  5
237
330
1
100
AcDbSymbolTableRecord
100
AcDbBlockTableRecord
  2
block 12
340
0
102
{BLKREFS
331
238
102
}
 70
     0
280
     1
281
     0
  0
BLOCK_RECORD
  5
24A
330
1
100
AcDbSymbolTableRecord
100
AcDbBlockTableRecord
  2
block 13
340
0
102
{BLKREFS
331
24B
102
}
 70
     0
280
     1
281
     0
  0
ENDTAB
  0
ENDSEC
  0
SECTION
  2
BLOCKS
  0
BLOCK
  5
20
330
1F
100
AcDbEntity
  8
0
100
AcDbBlockBegin
  2
*Model_Space
 70
     0
 10
0.0
 20
0.0
 30
0.0
  3
*Model_Space
  1

  0
ENDBLK
  5
21
330
1F
100
AcDbEntity
  8
0
100
AcDbBlockEnd
  0
BLOCK
  5
1C
330
1B
100
AcDbEntity
 67
     1
  8
0
100
AcDbBlockBegin
  2
*Paper_Space
 70
     0
 10
0.0
 20
0.0
 30
0.0
  3
*Paper_Space
  1

  0
ENDBLK
  5
1D
330
1B
100
AcDbEntity
 67
     1
  8
0
100
AcDbBlockEnd
  0
BLOCK
  5
24
330
23
100
AcDbEntity
  8
0
100
AcDbBlockBegin
  2
*Paper_Space0
 70
     0
 10
0.0
 20
0.0
 30
0.0
  3
*Paper_Space0
  1

  0
ENDBLK
  5
25
330
23
100
AcDbEntity
  8
0
100
AcDbBlockEnd
  0
BLOCK
  5
10C
330
10A
100
AcDbEntity
  8
0
100
AcDbBlockBegin
  2
block 2
 70
     0
 10
0.0
 20
0.0
 30
0.0
  3
block 2
  1

  0
SPLINE
  5
10E
330
10A
100
AcDbEntity
  8
_U+30EC_U+30A4_U+30E4_U+30FC 1
370
     0
100
AcDbSpline
210
0.0
220
0.0
230
1.0
 70
    11
 71
     3
 72
   197
 73
   193
 74
     0
 42
0.0000000001
 43
0.0000000001
 12
1.0
 22
0.0
 32
0.0
 13
1.0
 23
0.0
 33
0.0
 40
0.0
 40
0.0
 40
0.0
 40
0.0
 40
1.0
 40
1.0
 40
1.0
 40
2.0
 40
2.0
 40
2.0
 40
3.0
 40
3.0
 40
3.0
 40
4.0
 40
4.0
 40
4.0
 40
5.0
 40
5.0
 40
5.0
 40
6.0
 40
6.0
 40
6.0
 40
7.0
 40
7.0
 40
7.0
 40
8.0
 40
8.0
 40
8.0
 40
9.0
 40
9.0
 40
9.0
 40
10.0
 40
10.0
 40
10.0
 40
11.0
 40
11.0
 40
11.0
 40
12.0
 40
12.0
 40
12.0
 40
13.0
 40
13.0
 40
13.0
 40
14.0
 40
14.0
 40
14.0
 40
15.0
 40
15.0
 40
15.0
 40
16.0
 40
16.0
 40
16.0
 40
17.0
 40
17.0
 40
17.0
 40
18.0
 40
18.0
 40
18.0
 40
19.0
 40
19.0
 40
19.0
 40
20.0
 40
20.0
 40
20.0
 40
21.0
 40
21.0
 40
21.0
 40
22.0
 40
22.0
 40
22.0
 40
23.0
 40
23.0
 40
23.0
 40
24.0
 40
24.0
 40
24.0
 40
25.0
 40
25.0
 40
25.0
 40
26.0
 40
26.0
 40
26.0
 40
27.0
 40
27.0
 40
27.0
 40
28.0
 40
28.0
 40
28.0
 40
29.0
 40
29.0
 40
29.0
 40
30.0
 40
30.0
 40
30.0
 40
31.0
 40
31.0
 40
31.0
 40
32.0
 40
32.0
 40
32.0
 40
33.0
 40
33.0
 40
33.0
 40
34.0
 40
34.0
 40
34.0
 40
35.0
 40
35.0
 40
35.0
 40
36.0
 40
36.0
 40
36.0
 40
37.0
 40
37.0
 40
37.0
 40
38.0
 40
38.0
 40
38.0
 40
39.0
 40
39.0
 40
39.0
 40
40.0
 40
40.0
 40
40.0
 40
41.0
 40
41.0
 40
41.0
 40
42.0
 40
42.0
 40
42.0
 40
43.0
 40
43.0
 40
43.0
 40
44.0
 40
44.0
 40
44.0
 40
45.0
 40
45.0
 40
45.0
 40
46.0
 40
46.0
 40
46.0
 40
47.0
 40
47.0
 40
47.0
 40
48.0
 40
48.0
 40
48.0
 40
49.0
 40
49.0
 40
49.0
 40
50.0
 40
50.0
 40
50.0
 40
51.0
 40
51.0
 40
51.0
 40
52.0
 40
52.0
 40
52.0
 40
53.0
 40
53.0
 40
53.0
 40
54.0
 40
54.0
 40
54.0
 40
55.0
 40
55.0
 40
55.0
 40
56.0
 40
56.0
 40
56.0
 40
57.0
 40
57.0
 40
57.0
 40
58.0
 40
58.0
 40
58.0
 40
59.0
 40
59.0
 40
59.0
 40
60.0
 40
60.0
 40
60.0
 40
61.0
 40
61.0
 40
61.0
 40
62.0
 40
62.0
 40
62.0
 40
63.0
 40
63.0
 40
63.0
 40
64.0
 40
64.0
 40
64.0
 40
64.0
 10
117.9287190460387
 20
-131.3213554901731
 30
0.0
 10
117.9180392500344
 20
-131.3509833113463
 30
0.0
 10
117.8946126007347
 20
-131.3974921003972
 30
0.0
 10
117.8842773142789
 20
-131.4250528642792
 30
0.0
 10
117.8842773142789
 20
-131.4250528642792
 30
0.0
 10
117.8229546146415
 20
-131.5773260847272
 30
0.0
 10
117.8229546146415
 20
-131.5773260847272
 30
0.0
 10
117.8122748186372
 20
-131.602819791318
 30
0.0
 10
117.7636989722952
 20
-131.7147853945887
 30
0.0
 10
117.7509521189998
 20
-131.7382120438884
 30
0.0
 10
117.7488850617086
 20
-131.7444132157618
 30
0.0
 10
117.7444064375778
 20
-131.7530259544749
 30
0.0
 10
117.7423393802866
 20
-131.7592271263484
 30
0.0
 10
117.7423393802866
 20
-131.7592271263484
 30
0.0
 10
117.5328775747835
 20
-131.7065171654241
 30
0.0
 10
117.5328775747835
 20
-131.7065171654241
 30
0.0
 10
117.6114257518472
 20
-131.5966186194446
 30
0.0
 10
117.6727484514846
 20
-131.4612263668743
 30
0.0
 10
117.7044433299489
 20
-131.3509833113463
 30
0.0
 10
117.7044433299489
 20
-131.3509833113463
 30
0.0
 10
117.2390109298916
 20
-131.3509833113463
 30
0.0
 10
117.2390109298916
 20
-131.3509833113463
 30
0.0
 10
117.1583956955368
 20
-131.5160033850898
 30
0.0
 10
117.0908718240259
 20
-131.5942070526049
 30
0.0
 10
117.0571098882704
 20
-131.6345146697824
 30
0.0
 10
117.0571098882704
 20
-131.6345146697824
 30
0.0
 10
116.9344644889956
 20
-131.5690578555626
 30
0.0
 10
116.9344644889956
 20
-131.5690578555626
 30
0.0
 10
116.9344644889956
 20
-131.5690578555626
 30
0.0
 10
116.9344644889956
 20
-131.7402791011795
 30
0.0
 10
116.9344644889956
 20
-131.7402791011795
 30
0.0
 10
116.9344644889956
 20
-131.8481105898678
 30
0.0
 10
116.9365315462867
 20
-131.8970309457584
 30
0.0
 10
116.9468668327425
 20
-132.0027953771556
 30
0.0
 10
116.8752088466493
 20
-132.0003838103159
 30
0.0
 10
116.8538492546407
 20
-132.0003838103159
 30
0.0
 10
116.6488660732684
 20
-132.0003838103159
 30
0.0
 10
116.6488660732684
 20
-132.0003838103159
 30
0.0
 10
116.5937445455044
 20
-132.0003838103159
 30
0.0
 10
116.5937445455044
 20
-132.0003838103159
 30
0.0
 10
116.5937445455044
 20
-132.0003838103159
 30
0.0
 10
116.5937445455044
 20
-132.1357760628862
 30
0.0
 10
116.5937445455044
 20
-132.1357760628862
 30
0.0
 10
116.5937445455044
 20
-132.1357760628862
 30
0.0
 10
116.6657470411461
 20
-132.1357760628862
 30
0.0
 10
116.6657470411461
 20
-132.1357760628862
 30
0.0
 10
116.7312038553658
 20
-132.1357760628862
 30
0.0
 10
116.8772759039404
 20
-132.1316419483039
 30
0.0
 10
116.9830403353376
 20
-132.1233737191393
 30
0.0
 10
116.9830403353376
 20
-132.1233737191393
 30
0.0
 10
116.9830403353376
 20
-132.3007961366297
 30
0.0
 10
116.9830403353376
 20
-132.3007961366297
 30
0.0
 10
116.885544133105
 20
-132.2945949647562
 30
0.0
 10
116.7270697407835
 20
-132.2904608501739
 30
0.0
 10
116.6657470411461
 20
-132.2904608501739
 30
0.0
 10
116.6657470411461
 20
-132.2904608501739
 30
0.0
 10
116.5937445455044
 20
-132.2904608501739
 30
0.0
 10
116.5937445455044
 20
-132.2904608501739
 30
0.0
 10
116.5958116027955
 20
-132.3793443136934
 30
0.0
 10
116.5999457173778
 20
-132.6180894308212
 30
0.0
 10
116.6020127746689
 20
-132.692158983754
 30
0.0
 10
116.6020127746689
 20
-132.692158983754
 30
0.0
 10
116.4011637078789
 20
-132.692158983754
 30
0.0
 10
116.4011637078789
 20
-132.692158983754
 30
0.0
 10
116.4139105611743
 20
-132.4785630636686
 30
0.0
 10
116.4139105611743
 20
-132.4489352424954
 30
0.0
 10
116.4180446757566
 20
-132.2904608501739
 30
0.0
 10
116.4180446757566
 20
-132.2904608501739
 30
0.0
 10
116.3484537469546
 20
-132.2904608501739
 30
0.0
 10
116.3484537469546
 20
-132.2904608501739
 30
0.0
 10
116.2912651618994
 20
-132.2904608501739
 30
0.0
 10
116.1389919414514
 20
-132.2945949647562
 30
0.0
 10
116.0287488859234
 20
-132.3007961366297
 30
0.0
 10
116.0287488859234
 20
-132.3007961366297
 30
0.0
 10
116.0287488859234
 20
-132.1233737191393
 30
0.0
 10
116.0287488859234
 20
-132.1233737191393
 30
0.0
 10
116.1345133173205
 20
-132.1316419483039
 30
0.0
 10
116.278518308604
 20
-132.1357760628862
 30
0.0
 10
116.3484537469546
 20
-132.1357760628862
 30
0.0
 10
116.3484537469546
 20
-132.1357760628862
 30
0.0
 10
116.4221787903389
 20
-132.1357760628862
 30
0.0
 10
116.4221787903389
 20
-132.1357760628862
 30
0.0
 10
116.4221787903389
 20
-132.1357760628862
 30
0.0
 10
116.4221787903389
 20
-132.0003838103159
 30
0.0
 10
116.4221787903389
 20
-132.0003838103159
 30
0.0
 10
116.4221787903389
 20
-132.0003838103159
 30
0.0
 10
116.3780815681277
 20
-132.0003838103159
 30
0.0
 10
116.3780815681277
 20
-132.0003838103159
 30
0.0
 10
116.3016004483552
 20
-132.0003838103159
 30
0.0
 10
116.1093641202782
 20
-132.0027953771556
 30
0.0
 10
116.0752576749743
 20
-132.0027953771556
 30
0.0
 10
116.0818033563962
 20
-131.9307928815138
 30
0.0
 10
116.0900715855608
 20
-131.850177647159
 30
0.0
 10
116.0900715855608
 20
-131.7295993051752
 30
0.0
 10
116.0900715855608
 20
-131.7295993051752
 30
0.0
 10
116.0900715855608
 20
-131.5563110022672
 30
0.0
 10
116.0900715855608
 20
-131.5563110022672
 30
0.0
 10
116.0900715855608
 20
-131.4843085066255
 30
0.0
 10
116.0818033563962
 20
-131.3637301646417
 30
0.0
 10
116.0752576749743
 20
-131.2834594398354
 30
0.0
 10
116.1538058520379
 20
-131.2875935544177
 30
0.0
 10
116.1917019023757
 20
-131.2896606117089
 30
0.0
 10
116.3188259257814
 20
-131.2896606117089
 30
0.0
 10
116.3188259257814
 20
-131.2896606117089
 30
0.0
 10
116.4221787903389
 20
-131.2896606117089
 30
0.0
 10
116.4221787903389
 20
-131.2896606117089
 30
0.0
 10
116.4221787903389
 20
-131.2896606117089
 30
0.0
 10
116.4221787903389
 20
-131.1435885631342
 30
0.0
 10
116.4221787903389
 20
-131.1435885631342
 30
0.0
 10
116.4221787903389
 20
-131.1435885631342
 30
0.0
 10
116.3439751228237
 20
-131.1435885631342
 30
0.0
 10
116.3439751228237
 20
-131.1435885631342
 30
0.0
 10
116.2891981046083
 20
-131.1435885631342
 30
0.0
 10
116.1176323494428
 20
-131.1480671872651
 30
0.0
 10
116.0332275100542
 20
-131.1542683591385
 30
0.0
 10
116.0332275100542
 20
-131.1542683591385
 30
0.0
 10
116.0332275100542
 20
-130.9765014320996
 30
0.0
 10
116.0332275100542
 20
-130.9765014320996
 30
0.0
 10
116.1155652921517
 20
-130.9830471135216
 30
0.0
 10
116.278518308604
 20
-130.9871812281039
 30
0.0
 10
116.3439751228237
 20
-130.9871812281039
 30
0.0
 10
116.3439751228237
 20
-130.9871812281039
 30
0.0
 10
116.4221787903389
 20
-130.9871812281039
 30
0.0
 10
116.4221787903389
 20
-130.9871812281039
 30
0.0
 10
116.4221787903389
 20
-130.9534192923485
 30
0.0
 10
116.4180446757566
 20
-130.7990790146093
 30
0.0
 10
116.4180446757566
 20
-130.7670396265964
 30
0.0
 10
116.4180446757566
 20
-130.7670396265964
 30
0.0
 10
116.6147596279644
 20
-130.7842651040227
 30
0.0
 10
116.6147596279644
 20
-130.7842651040227
 30
0.0
 10
116.6316405958421
 20
-130.7863321613139
 30
0.0
 10
116.6530001878507
 20
-130.788399218605
 30
0.0
 10
116.6530001878507
 20
-130.809414301065
 30
0.0
 10
116.6530001878507
 20
-130.8328409503647
 30
0.0
 10
116.6316405958421
 20
-130.8411091795293
 30
0.0
 10
116.6044243415086
 20
-130.8538560328247
 30
0.0
 10
116.6044243415086
 20
-130.8752156248333
 30
0.0
 10
116.6020127746689
 20
-130.9703002602262
 30
0.0
 10
116.6020127746689
 20
-130.9871812281039
 30
0.0
 10
116.6020127746689
 20
-130.9871812281039
 30
0.0
 10
116.6612684170153
 20
-130.9871812281039
 30
0.0
 10
116.6612684170153
 20
-130.9871812281039
 30
0.0
 10
116.7291367980747
 20
-130.9871812281039
 30
0.0
 10
116.8727972798096
 20
-130.9830471135216
 30
0.0
 10
116.9785617112068
 20
-130.9765014320996
 30
0.0
 10
116.9785617112068
 20
-130.9765014320996
 30
0.0
 10
116.9785617112068
 20
-131.1542683591385
 30
0.0
 10
116.9785617112068
 20
-131.1542683591385
 30
0.0
 10
116.8814100185227
 20
-131.1480671872651
 30
0.0
 10
116.7250026834924
 20
-131.1435885631342
 30
0.0
 10
116.6612684170153
 20
-131.1435885631342
 30
0.0
 10
116.6612684170153
 20
-131.1435885631342
 30
0.0
 10
116.5937445455044
 20
-131.1435885631342
 30
0.0
 10
116.5937445455044
 20
-131.1435885631342
 30
0.0
 10
116.5937445455044
 20
-131.1435885631342
 30
0.0
 10
116.5937445455044
 20
-131.2896606117089
 30
0.0
 10
116.5937445455044
 20
-131.2896606117089
 30
0.0
 10
116.5937445455044
 20
-131.2896606117089
 30
0.0
 10
116.6636799838549
 20
-131.2896606117089
 30
0.0
 10
116.6636799838549
 20
-131.2896606117089
 30
0.0
 10
116.8135416374633
 20
-131.2896606117089
 30
0.0
 10
116.885544133105
 20
-131.2855264971265
 30
0.0
 10
116.9468668327425
 20
-131.2834594398354
 30
0.0
 10
116.9385986035779
 20
-131.3785440752283
 30
0.0
 10
116.9365315462867
 20
-131.4567477427435
 30
0.0
 10
116.9344644889956
 20
-131.4949883026297
 30
0.0
 10
117.0888047667348
 20
-131.2834594398354
 30
0.0
 10
117.1945691981319
 20
-131.0357570744459
 30
0.0
 10
117.2114501660096
 20
-130.7735853080184
 30
0.0
 10
117.2114501660096
 20
-130.7735853080184
 30
0.0
 10
117.4271131433863
 20
-130.8242282116516
 30
0.0
 10
117.4271131433863
 20
-130.8242282116516
 30
0.0
 10
117.4419270539729
 20
-130.8287068357824
 30
0.0
 10
117.4567409645594
 20
-130.8349080076559
 30
0.0
 10
117.4567409645594
 20
-130.8517889755336
 30
0.0
 10
117.4567409645594
 20
-130.8686699434113
 30
0.0
 10
117.4526068499771
 20
-130.8707370007025
 30
0.0
 10
117.401963946344
 20
-130.892096592711
 30
0.0
 10
117.3847384689177
 20
-130.968233202935
 30
0.0
 10
117.3595892718754
 20
-131.0591837237456
 30
0.0
 10
117.3110134255334
 20
-131.1859632376028
 30
0.0
 10
117.3110134255334
 20
-131.1859632376028
 30
0.0
 10
117.6493218021849
 20
-131.1859632376028
 30
0.0
 10
117.6493218021849
 20
-131.1859632376028
 30
0.0
 10
117.6875623620712
 20
-131.1859632376028
 30
0.0
 10
117.8164089332195
 20
-131.1818291230205
 30
0.0
 10
117.8649847795615
 20
-131.1756279511471
 30
0.0
 10
117.8649847795615
 20
-131.1756279511471
 30
0.0
 10
117.9583468672118
 20
-131.2452188799491
 30
0.0
 10
117.9583468672118
 20
-131.2452188799491
 30
0.0
 10
117.9497341284987
 20
-131.2665784719577
 30
0.0
 10
117.9435329566252
 20
-131.2855264971265
 30
0.0
 10
117.9287190460387
 20
-131.3213554901731
 30
0.0
  0
POLYLINE
  5
10F
330
10A
100
AcDbEntity
  8
_U+30EC_U+30A4_U+30E4_U+30FC 1
370
     0
100
AcDb2dPolyline
 66
     1
 10
0.0
 20
0.0
 30
0.0
  0
VERTEX
  5
110
330
10F
100
AcDbEntity
  8
_U+30EC_U+30A4_U+30E4_U+30FC 1
370
     0
100
AcDbVertex
100
AcDb2dVertex
 10
116.4221787903389
 20
-131.4464124562877
 30
0.0
  0
VERTEX
  5
111
330
10F
100
AcDbEntity
  8
_U+30EC_U+30A4_U+30E4_U+30FC 1
370
     0
100
AcDbVertex
100
AcDb2dVertex
 10
116.2637043980174
 20
-131.4464124562877
 30
0.0
  0
VERTEX
  5
112
330
10F
100
AcDbEntity
  8
_U+30EC_U+30A4_U+30E4_U+30FC 1
370
     0
100
AcDbVertex
100
AcDb2dVertex
 10
116.2637043980174
 20
-131.5752590274361
 30
0.0
  0
VERTEX
  5
113
330
10F
100
AcDbEntity
  8
_U+30EC_U+30A4_U+30E4_U+30FC 1
370
     0
100
AcDbVertex
100
AcDb2dVertex
 10
116.4221787903389
 20
-131.5752590274361
 30
0.0
  0
VERTEX
  5
114
330
10F
100
AcDbEntity
  8
_U+30EC_U+30A4_U+30E4_U+30FC 1
370
     0
100
AcDbVertex
100
AcDb2dVertex
 10
116.4221787903389
 20
-131.4464124562877
 30
0.0
  0
SEQEND
  5
115
330
10F
100
AcDbEntity
  8
_U+30EC_U+30A4_U+30E4_U+30FC 1
370
     0
  0
POLYLINE
  5
116
330
10A
100
AcDbEntity
  8
_U+30EC_U+30A4_U+30E4_U+30FC 1
370
     0
100
AcDb2dPolyline
 66
     1
 10
0.0
 20
0.0
 30
0.0
  0
VERTEX
  5
117
330
116
100
AcDbEntity
  8
_U+30EC_U+30A4_U+30E4_U+30FC 1
370
     0
100
AcDbVertex
100
AcDb2dVertex
 10
116.4221787903389
 20
-131.7192640187195
 30
0.0
  0
VERTEX
  5
118
330
116
100
AcDbEntity
  8
_U+30EC_U+30A4_U+30E4_U+30FC 1
370
     0
100
AcDbVertex
100
AcDb2dVertex
 10
116.2637043980174
 20
-131.7192640187195
 30
0.0
  0
VERTEX
  5
119
330
116
100
AcDbEntity
  8
_U+30EC_U+30A4_U+30E4_U+30FC 1
370
     0
100
AcDbVertex
100
AcDb2dVertex
 10
116.2637043980174
 20
-131.8481105898678
 30
0.0
  0
VERTEX
  5
11A
330
116
100
AcDbEntity
  8
_U+30EC_U+30A4_U+30E4_U+30FC 1
370
     0
100
AcDbVertex
100
AcDb2dVertex
 10
116.4221787903389
 20
-131.8481105898678
 30
0.0
  0
VERTEX
  5
11B
330
116
100
AcDbEntity
  8
_U+30EC_U+30A4_U+30E4_U+30FC 1
370
     0
100
AcDbVertex
100
AcDb2dVertex
 10
116.4221787903389
 20
-131.7192640187195
 30
0.0
  0
SEQEND
  5
11C
330
116
100
AcDbEntity
  8
_U+30EC_U+30A4_U+30E4_U+30FC 1
370
     0
  0
POLYLINE
  5
11D
330
10A
100
AcDbEntity
  8
_U+30EC_U+30A4_U+30E4_U+30FC 1
370
     0
100
AcDb2dPolyline
 66
     1
 10
0.0
 20
0.0
 30
0.0
  0
VERTEX
  5
11E
330
11D
100
AcDbEntity
  8
_U+30EC_U+30A4_U+30E4_U+30FC 1
370
     0
100
AcDbVertex
100
AcDb2dVertex
 10
116.7546305046655
 20
-131.4464124562877
 30
0.0
  0
VERTEX
  5
11F
330
11D
100
AcDbEntity
  8
_U+30EC_U+30A4_U+30E4_U+30FC 1
370
     0
100
AcDbVertex
100
AcDb2dVertex
 10
116.5937445455044
 20
-131.4464124562877
 30
0.0
  0
VERTEX
  5
120
330
11D
100
AcDbEntity
  8
_U+30EC_U+30A4_U+30E4_U+30FC 1
370
     0
100
AcDbVertex
100
AcDb2dVertex
 10
116.5937445455044
 20
-131.5752590274361
 30
0.0
  0
VERTEX
  5
121
330
11D
100
AcDbEntity
  8
_U+30EC_U+30A4_U+30E4_U+30FC 1
370
     0
100
AcDbVertex
100
AcDb2dVertex
 10
116.7546305046655
 20
-131.5752590274361
 30
0.0
  0
VERTEX
  5
122
330
11D
100
AcDbEntity
  8
_U+30EC_U+30A4_U+30E4_U+30FC 1
370
     0
100
AcDbVertex
100
AcDb2dVertex
 10
116.7546305046655
 20
-131.4464124562877
 30
0.0
  0
SEQEND
  5
123
330
11D
100
AcDbEntity
  8
_U+30EC_U+30A4_U+30E4_U+30FC 1
370
     0
  0
POLYLINE
  5
124
330
10A
100
AcDbEntity
  8
_U+30EC_U+30A4_U+30E4_U+30FC 1
370
     0
100
AcDb2dPolyline
 66
     1
 10
0.0
 20
0.0
 30
0.0
  0
VERTEX
  5
125
330
124
100
AcDbEntity
  8
_U+30EC_U+30A4_U+30E4_U+30FC 1
370
     0
100
AcDbVertex
100
AcDb2dVertex
 10
116.7546305046655
 20
-131.7192640187195
 30
0.0
  0
VERTEX
  5
126
330
124
100
AcDbEntity
  8
_U+30EC_U+30A4_U+30E4_U+30FC 1
370
     0
100
AcDbVertex
100
AcDb2dVertex
 10
116.5937445455044
 20
-131.7192640187195
 30
0.0
  0
VERTEX
  5
127
330
124
100
AcDbEntity
  8
_U+30EC_U+30A4_U+30E4_U+30FC 1
370
     0
100
AcDbVertex
100
AcDb2dVertex
 10
116.5937445455044
 20
-131.8481105898678
 30
0.0
  0
VERTEX
  5
128
330
124
100
AcDbEntity
  8
_U+30EC_U+30A4_U+30E4_U+30FC 1
370
     0
100
AcDbVertex
100
AcDb2dVertex
 10
116.7546305046655
 20
-131.8481105898678
 30
0.0
  0
VERTEX
  5
129
330
124
100
AcDbEntity
  8
_U+30EC_U+30A4_U+30E4_U+30FC 1
370
     0
100
AcDbVertex
100
AcDb2dVertex
 10
116.7546305046655
 20
-131.7192640187195
 30
0.0
  0
SEQEND
  5
12A
330
124
100
AcDbEntity
  8
_U+30EC_U+30A4_U+30E4_U+30FC 1
370
     0
  0
SPLINE
  5
12B
330
10A
100
AcDbEntity
  8
_U+30EC_U+30A4_U+30E4_U+30FC 1
370
     0
100
AcDbSpline
210
0.0
220
0.0
230
1.0
 70
    11
 71
     3
 72
    41
 73
    37
 74
     0
 42
0.0000000001
 43
0.0000000001
 12
1.0
 22
0.0
 32
0.0
 13
1.0
 23
0.0
 33
0.0
 40
0.0
 40
0.0
 40
0.0
 40
0.0
 40
1.0
 40
1.0
 40
1.0
 40
2.0
 40
2.0
 40
2.0
 40
3.0
 40
3.0
 40
3.0
 40
4.0
 40
4.0
 40
4.0
 40
5.0
 40
5.0
 40
5.0
 40
6.0
 40
6.0
 40
6.0
 40
7.0
 40
7.0
 40
7.0
 40
8.0
 40
8.0
 40
8.0
 40
9.0
 40
9.0
 40
9.0
 40
10.0
 40
10.0
 40
10.0
 40
11.0
 40
11.0
 40
11.0
 40
12.0
 40
12.0
 40
12.0
 40
12.0
 10
117.8439696971015
 20
-132.6773450731675
 30
0.0
 10
117.602813013134
 20
-132.5419528205971
 30
0.0
 10
117.4250460860951
 20
-132.2460191184142
 30
0.0
 10
117.3847384689177
 20
-132.1168280377173
 30
0.0
 10
117.264160126934
 20
-132.3814113709845
 30
0.0
 10
117.1015516200302
 20
-132.5591782980234
 30
0.0
 10
116.919650578409
 20
-132.6732109585852
 30
0.0
 10
116.919650578409
 20
-132.6732109585852
 30
0.0
 10
116.7225911166527
 20
-132.5357516487237
 30
0.0
 10
116.7225911166527
 20
-132.5357516487237
 30
0.0
 10
116.7925265550033
 20
-132.5102579421329
 30
0.0
 10
116.9385986035779
 20
-132.4489352424954
 30
0.0
 10
117.0612440028527
 20
-132.2945949647562
 30
0.0
 10
117.1859564594188
 20
-132.1381876297259
 30
0.0
 10
117.2748399229382
 20
-131.905299174923
 30
0.0
 10
117.2748399229382
 20
-131.6451944657866
 30
0.0
 10
117.2748399229382
 20
-131.5435641489717
 30
0.0
 10
117.2620930696428
 20
-131.47156165333
 30
0.0
 10
117.2517577831871
 20
-131.4250528642792
 30
0.0
 10
117.2517577831871
 20
-131.4250528642792
 30
0.0
 10
117.4567409645594
 20
-131.4464124562877
 30
0.0
 10
117.4567409645594
 20
-131.4464124562877
 30
0.0
 10
117.478100556568
 20
-131.4484795135789
 30
0.0
 10
117.499115639028
 20
-131.45054657087
 30
0.0
 10
117.499115639028
 20
-131.47156165333
 30
0.0
 10
117.499115639028
 20
-131.4908541880474
 30
0.0
 10
117.4884358430237
 20
-131.499122417212
 30
0.0
 10
117.4546739072683
 20
-131.520137499672
 30
0.0
 10
117.4464056781037
 20
-131.7213310760106
 30
0.0
 10
117.5032497536103
 20
-131.9645548172693
 30
0.0
 10
117.5645724532477
 20
-132.085133159253
 30
0.0
 10
117.6555229740583
 20
-132.2608330290008
 30
0.0
 10
117.850170868975
 20
-132.4406670133308
 30
0.0
 10
117.9855631215453
 20
-132.4975110888374
 30
0.0
 10
117.9855631215453
 20
-132.4975110888374
 30
0.0
 10
117.8439696971015
 20
-132.6773450731675
 30
0.0
 10
117.8439696971015
 20
-132.6773450731675
 30
0.0
  0
HATCH
  5
12C
330
10A
100
AcDbEntity
  8
_U+30EC_U+30A4_U+30E4_U+30FC 1
 62
   179
420
  2234388
100
AcDbHatch
 10
0.0
 20
0.0
 30
0.0
210
0.0
220
0.0
230
1.0
  2
SOLID
 70
     1
 71
     0
 91
        6
 92
        1
 93
        1
 72
     4
 94
        3
 73
     0
 74
     1
 95
      197
 96
      193
 40
0.0
 40
0.0
 40
0.0
 40
0.0
 40
1.0
 40
1.0
 40
1.0
 40
2.0
 40
2.0
 40
2.0
 40
3.0
 40
3.0
 40
3.0
 40
4.0
 40
4.0
 40
4.0
 40
5.0
 40
5.0
 40
5.0
 40
6.0
 40
6.0
 40
6.0
 40
7.0
 40
7.0
 40
7.0
 40
8.0
 40
8.0
 40
8.0
 40
9.0
 40
9.0
 40
9.0
 40
10.0
 40
10.0
 40
10.0
 40
11.0
 40
11.0
 40
11.0
 40
12.0
 40
12.0
 40
12.0
 40
13.0
 40
13.0
 40
13.0
 40
14.0
 40
14.0
 40
14.0
 40
15.0
 40
15.0
 40
15.0
 40
16.0
 40
16.0
 40
16.0
 40
17.0
 40
17.0
 40
17.0
 40
18.0
 40
18.0
 40
18.0
 40
19.0
 40
19.0
 40
19.0
 40
20.0
 40
20.0
 40
20.0
 40
21.0
 40
21.0
 40
21.0
 40
22.0
 40
22.0
 40
22.0
 40
23.0
 40
23.0
 40
23.0
 40
24.0
 40
24.0
 40
24.0
 40
25.0
 40
25.0
 40
25.0
 40
26.0
 40
26.0
 40
26.0
 40
27.0
 40
27.0
 40
27.0
 40
28.0
 40
28.0
 40
28.0
 40
29.0
 40
29.0
 40
29.0
 40
30.0
 40
30.0
 40
30.0
 40
31.0
 40
31.0
 40
31.0
 40
32.0
 40
32.0
 40
32.0
 40
33.0
 40
33.0
 40
33.0
 40
34.0
 40
34.0
 40
34.0
 40
35.0
 40
35.0
 40
35.0
 40
36.0
 40
36.0
 40
36.0
 40
37.0
 40
37.0
 40
37.0
 40
38.0
 40
38.0
 40
38.0
 40
39.0
 40
39.0
 40
39.0
 40
40.0
 40
40.0
 40
40.0
 40
41.0
 40
41.0
 40
41.0
 40
42.0
 40
42.0
 40
42.0
 40
43.0
 40
43.0
 40
43.0
 40
44.0
 40
44.0
 40
44.0
 40
45.0
 40
45.0
 40
45.0
 40
46.0
 40
46.0
 40
46.0
 40
47.0
 40
47.0
 40
47.0
 40
48.0
 40
48.0
 40
48.0
 40
49.0
 40
49.0
 40
49.0
 40
50.0
 40
50.0
 40
50.0
 40
51.0
 40
51.0
 40
51.0
 40
52.0
 40
52.0
 40
52.0
 40
53.0
 40
53.0
 40
53.0
 40
54.0
 40
54.0
 40
54.0
 40
55.0
 40
55.0
 40
55.0
 40
56.0
 40
56.0
 40
56.0
 40
57.0
 40
57.0
 40
57.0
 40
58.0
 40
58.0
 40
58.0
 40
59.0
 40
59.0
 40
59.0
 40
60.0
 40
60.0
 40
60.0
 40
61.0
 40
61.0
 40
61.0
 40
62.0
 40
62.0
 40
62.0
 40
63.0
 40
63.0
 40
63.0
 40
64.0
 40
64.0
 40
64.0
 40
64.0
 10
117.9287190460387
 20
-131.3213554901731
 10
117.9180392500344
 20
-131.3509833113463
 10
117.8946126007347
 20
-131.3974921003972
 10
117.8842773142789
 20
-131.4250528642792
 10
117.8842773142789
 20
-131.4250528642792
 10
117.8229546146415
 20
-131.5773260847272
 10
117.8229546146415
 20
-131.5773260847272
 10
117.8122748186372
 20
-131.602819791318
 10
117.7636989722952
 20
-131.7147853945887
 10
117.7509521189998
 20
-131.7382120438884
 10
117.7488850617086
 20
-131.7444132157618
 10
117.7444064375778
 20
-131.7530259544749
 10
117.7423393802866
 20
-131.7592271263484
 10
117.7423393802866
 20
-131.7592271263484
 10
117.5328775747835
 20
-131.7065171654241
 10
117.5328775747835
 20
-131.7065171654241
 10
117.6114257518472
 20
-131.5966186194446
 10
117.6727484514846
 20
-131.4612263668743
 10
117.7044433299489
 20
-131.3509833113463
 10
117.7044433299489
 20
-131.3509833113463
 10
117.2390109298916
 20
-131.3509833113463
 10
117.2390109298916
 20
-131.3509833113463
 10
117.1583956955368
 20
-131.5160033850898
 10
117.0908718240259
 20
-131.5942070526049
 10
117.0571098882704
 20
-131.6345146697824
 10
117.0571098882704
 20
-131.6345146697824
 10
116.9344644889956
 20
-131.5690578555626
 10
116.9344644889956
 20
-131.5690578555626
 10
116.9344644889956
 20
-131.5690578555626
 10
116.9344644889956
 20
-131.7402791011795
 10
116.9344644889956
 20
-131.7402791011795
 10
116.9344644889956
 20
-131.8481105898678
 10
116.9365315462867
 20
-131.8970309457584
 10
116.9468668327425
 20
-132.0027953771556
 10
116.8752088466493
 20
-132.0003838103159
 10
116.8538492546407
 20
-132.0003838103159
 10
116.6488660732684
 20
-132.0003838103159
 10
116.6488660732684
 20
-132.0003838103159
 10
116.5937445455044
 20
-132.0003838103159
 10
116.5937445455044
 20
-132.0003838103159
 10
116.5937445455044
 20
-132.0003838103159
 10
116.5937445455044
 20
-132.1357760628862
 10
116.5937445455044
 20
-132.1357760628862
 10
116.5937445455044
 20
-132.1357760628862
 10
116.6657470411461
 20
-132.1357760628862
 10
116.6657470411461
 20
-132.1357760628862
 10
116.7312038553658
 20
-132.1357760628862
 10
116.8772759039404
 20
-132.1316419483039
 10
116.9830403353376
 20
-132.1233737191393
 10
116.9830403353376
 20
-132.1233737191393
 10
116.9830403353376
 20
-132.3007961366297
 10
116.9830403353376
 20
-132.3007961366297
 10
116.885544133105
 20
-132.2945949647562
 10
116.7270697407835
 20
-132.2904608501739
 10
116.6657470411461
 20
-132.2904608501739
 10
116.6657470411461
 20
-132.2904608501739
 10
116.5937445455044
 20
-132.2904608501739
 10
116.5937445455044
 20
-132.2904608501739
 10
116.5958116027955
 20
-132.3793443136934
 10
116.5999457173778
 20
-132.6180894308212
 10
116.6020127746689
 20
-132.692158983754
 10
116.6020127746689
 20
-132.692158983754
 10
116.4011637078789
 20
-132.692158983754
 10
116.4011637078789
 20
-132.692158983754
 10
116.4139105611743
 20
-132.4785630636686
 10
116.4139105611743
 20
-132.4489352424954
 10
116.4180446757566
 20
-132.2904608501739
 10
116.4180446757566
 20
-132.2904608501739
 10
116.3484537469546
 20
-132.2904608501739
 10
116.3484537469546
 20
-132.2904608501739
 10
116.2912651618994
 20
-132.2904608501739
 10
116.1389919414514
 20
-132.2945949647562
 10
116.0287488859234
 20
-132.3007961366297
 10
116.0287488859234
 20
-132.3007961366297
 10
116.0287488859234
 20
-132.1233737191393
 10
116.0287488859234
 20
-132.1233737191393
 10
116.1345133173205
 20
-132.1316419483039
 10
116.278518308604
 20
-132.1357760628862
 10
116.3484537469546
 20
-132.1357760628862
 10
116.3484537469546
 20
-132.1357760628862
 10
116.4221787903389
 20
-132.1357760628862
 10
116.4221787903389
 20
-132.1357760628862
 10
116.4221787903389
 20
-132.1357760628862
 10
116.4221787903389
 20
-132.0003838103159
 10
116.4221787903389
 20
-132.0003838103159
 10
116.4221787903389
 20
-132.0003838103159
 10
116.3780815681277
 20
-132.0003838103159
 10
116.3780815681277
 20
-132.0003838103159
 10
116.3016004483552
 20
-132.0003838103159
 10
116.1093641202782
 20
-132.0027953771556
 10
116.0752576749743
 20
-132.0027953771556
 10
116.0818033563962
 20
-131.9307928815138
 10
116.0900715855608
 20
-131.850177647159
 10
116.0900715855608
 20
-131.7295993051752
 10
116.0900715855608
 20
-131.7295993051752
 10
116.0900715855608
 20
-131.5563110022672
 10
116.0900715855608
 20
-131.5563110022672
 10
116.0900715855608
 20
-131.4843085066255
 10
116.0818033563962
 20
-131.3637301646417
 10
116.0752576749743
 20
-131.2834594398354
 10
116.1538058520379
 20
-131.2875935544177
 10
116.1917019023757
 20
-131.2896606117089
 10
116.3188259257814
 20
-131.2896606117089
 10
116.3188259257814
 20
-131.2896606117089
 10
116.4221787903389
 20
-131.2896606117089
 10
116.4221787903389
 20
-131.2896606117089
 10
116.4221787903389
 20
-131.2896606117089
 10
116.4221787903389
 20
-131.1435885631342
 10
116.4221787903389
 20
-131.1435885631342
 10
116.4221787903389
 20
-131.1435885631342
 10
116.3439751228237
 20
-131.1435885631342
 10
116.3439751228237
 20
-131.1435885631342
 10
116.2891981046083
 20
-131.1435885631342
 10
116.1176323494428
 20
-131.1480671872651
 10
116.0332275100542
 20
-131.1542683591385
 10
116.0332275100542
 20
-131.1542683591385
 10
116.0332275100542
 20
-130.9765014320996
 10
116.0332275100542
 20
-130.9765014320996
 10
116.1155652921517
 20
-130.9830471135216
 10
116.278518308604
 20
-130.9871812281039
 10
116.3439751228237
 20
-130.9871812281039
 10
116.3439751228237
 20
-130.9871812281039
 10
116.4221787903389
 20
-130.9871812281039
 10
116.4221787903389
 20
-130.9871812281039
 10
116.4221787903389
 20
-130.9534192923485
 10
116.4180446757566
 20
-130.7990790146093
 10
116.4180446757566
 20
-130.7670396265964
 10
116.4180446757566
 20
-130.7670396265964
 10
116.6147596279644
 20
-130.7842651040227
 10
116.6147596279644
 20
-130.7842651040227
 10
116.6316405958421
 20
-130.7863321613139
 10
116.6530001878507
 20
-130.788399218605
 10
116.6530001878507
 20
-130.809414301065
 10
116.6530001878507
 20
-130.8328409503647
 10
116.6316405958421
 20
-130.8411091795293
 10
116.6044243415086
 20
-130.8538560328247
 10
116.6044243415086
 20
-130.8752156248333
 10
116.6020127746689
 20
-130.9703002602262
 10
116.6020127746689
 20
-130.9871812281039
 10
116.6020127746689
 20
-130.9871812281039
 10
116.6612684170153
 20
-130.9871812281039
 10
116.6612684170153
 20
-130.9871812281039
 10
116.7291367980747
 20
-130.9871812281039
 10
116.8727972798096
 20
-130.9830471135216
 10
116.9785617112068
 20
-130.9765014320996
 10
116.9785617112068
 20
-130.9765014320996
 10
116.9785617112068
 20
-131.1542683591385
 10
116.9785617112068
 20
-131.1542683591385
 10
116.8814100185227
 20
-131.1480671872651
 10
116.7250026834924
 20
-131.1435885631342
 10
116.6612684170153
 20
-131.1435885631342
 10
116.6612684170153
 20
-131.1435885631342
 10
116.5937445455044
 20
-131.1435885631342
 10
116.5937445455044
 20
-131.1435885631342
 10
116.5937445455044
 20
-131.1435885631342
 10
116.5937445455044
 20
-131.2896606117089
 10
116.5937445455044
 20
-131.2896606117089
 10
116.5937445455044
 20
-131.2896606117089
 10
116.6636799838549
 20
-131.2896606117089
 10
116.6636799838549
 20
-131.2896606117089
 10
116.8135416374633
 20
-131.2896606117089
 10
116.885544133105
 20
-131.2855264971265
 10
116.9468668327425
 20
-131.2834594398354
 10
116.9385986035779
 20
-131.3785440752283
 10
116.9365315462867
 20
-131.4567477427435
 10
116.9344644889956
 20
-131.4949883026297
 10
117.0888047667348
 20
-131.2834594398354
 10
117.1945691981319
 20
-131.0357570744459
 10
117.2114501660096
 20
-130.7735853080184
 10
117.2114501660096
 20
-130.7735853080184
 10
117.4271131433863
 20
-130.8242282116516
 10
117.4271131433863
 20
-130.8242282116516
 10
117.4419270539729
 20
-130.8287068357824
 10
117.4567409645594
 20
-130.8349080076559
 10
117.4567409645594
 20
-130.8517889755336
 10
117.4567409645594
 20
-130.8686699434113
 10
117.4526068499771
 20
-130.8707370007025
 10
117.401963946344
 20
-130.892096592711
 10
117.3847384689177
 20
-130.968233202935
 10
117.3595892718754
 20
-131.0591837237456
 10
117.3110134255334
 20
-131.1859632376028
 10
117.3110134255334
 20
-131.1859632376028
 10
117.6493218021849
 20
-131.1859632376028
 10
117.6493218021849
 20
-131.1859632376028
 10
117.6875623620712
 20
-131.1859632376028
 10
117.8164089332195
 20
-131.1818291230205
 10
117.8649847795615
 20
-131.1756279511471
 10
117.8649847795615
 20
-131.1756279511471
 10
117.9583468672118
 20
-131.2452188799491
 10
117.9583468672118
 20
-131.2452188799491
 10
117.9497341284987
 20
-131.2665784719577
 10
117.9435329566252
 20
-131.2855264971265
 10
117.9287190460387
 20
-131.3213554901731
 97
        0
 97
        0
 92
        1
 93
        4
 72
     1
 10
116.4221787903389
 20
-131.4464124562877
 11
116.2637043980174
 21
-131.4464124562877
 72
     1
 10
116.2637043980174
 20
-131.4464124562877
 11
116.2637043980174
 21
-131.5752590274361
 72
     1
 10
116.2637043980174
 20
-131.5752590274361
 11
116.4221787903389
 21
-131.5752590274361
 72
     1
 10
116.4221787903389
 20
-131.5752590274361
 11
116.4221787903389
 21
-131.4464124562877
 97
        0
 92
        1
 93
        4
 72
     1
 10
116.4221787903389
 20
-131.7192640187195
 11
116.2637043980174
 21
-131.7192640187195
 72
     1
 10
116.2637043980174
 20
-131.7192640187195
 11
116.2637043980174
 21
-131.8481105898678
 72
     1
 10
116.2637043980174
 20
-131.8481105898678
 11
116.4221787903389
 21
-131.8481105898678
 72
     1
 10
116.4221787903389
 20
-131.8481105898678
 11
116.4221787903389
 21
-131.7192640187195
 97
        0
 92
        1
 93
        4
 72
     1
 10
116.7546305046655
 20
-131.4464124562877
 11
116.5937445455044
 21
-131.4464124562877
 72
     1
 10
116.5937445455044
 20
-131.4464124562877
 11
116.5937445455044
 21
-131.5752590274361
 72
     1
 10
116.5937445455044
 20
-131.5752590274361
 11
116.7546305046655
 21
-131.5752590274361
 72
     1
 10
116.7546305046655
 20
-131.5752590274361
 11
116.7546305046655
 21
-131.4464124562877
 97
        0
 92
        1
 93
        4
 72
     1
 10
116.7546305046655
 20
-131.7192640187195
 11
116.5937445455044
 21
-131.7192640187195
 72
     1
 10
116.5937445455044
 20
-131.7192640187195
 11
116.5937445455044
 21
-131.8481105898678
 72
     1
 10
116.5937445455044
 20
-131.8481105898678
 11
116.7546305046655
 21
-131.8481105898678
 72
     1
 10
116.7546305046655
 20
-131.8481105898678
 11
116.7546305046655
 21
-131.7192640187195
 97
        0
 92
        1
 93
        1
 72
     4
 94
        3
 73
     0
 74
     1
 95
       41
 96
       37
 40
0.0
 40
0.0
 40
0.0
 40
0.0
 40
1.0
 40
1.0
 40
1.0
 40
2.0
 40
2.0
 40
2.0
 40
3.0
 40
3.0
 40
3.0
 40
4.0
 40
4.0
 40
4.0
 40
5.0
 40
5.0
 40
5.0
 40
6.0
 40
6.0
 40
6.0
 40
7.0
 40
7.0
 40
7.0
 40
8.0
 40
8.0
 40
8.0
 40
9.0
 40
9.0
 40
9.0
 40
10.0
 40
10.0
 40
10.0
 40
11.0
 40
11.0
 40
11.0
 40
12.0
 40
12.0
 40
12.0
 40
12.0
 10
117.8439696971015
 20
-132.6773450731675
 10
117.602813013134
 20
-132.5419528205971
 10
117.4250460860951
 20
-132.2460191184142
 10
117.3847384689177
 20
-132.1168280377173
 10
117.264160126934
 20
-132.3814113709845
 10
117.1015516200302
 20
-132.5591782980234
 10
116.919650578409
 20
-132.6732109585852
 10
116.919650578409
 20
-132.6732109585852
 10
116.7225911166527
 20
-132.5357516487237
 10
116.7225911166527
 20
-132.5357516487237
 10
116.7925265550033
 20
-132.5102579421329
 10
116.9385986035779
 20
-132.4489352424954
 10
117.0612440028527
 20
-132.2945949647562
 10
117.1859564594188
 20
-132.1381876297259
 10
117.2748399229382
 20
-131.905299174923
 10
117.2748399229382
 20
-131.6451944657866
 10
117.2748399229382
 20
-131.5435641489717
 10
117.2620930696428
 20
-131.47156165333
 10
117.2517577831871
 20
-131.4250528642792
 10
117.2517577831871
 20
-131.4250528642792
 10
117.4567409645594
 20
-131.4464124562877
 10
117.4567409645594
 20
-131.4464124562877
 10
117.478100556568
 20
-131.4484795135789
 10
117.499115639028
 20
-131.45054657087
 10
117.499115639028
 20
-131.47156165333
 10
117.499115639028
 20
-131.4908541880474
 10
117.4884358430237
 20
-131.499122417212
 10
117.4546739072683
 20
-131.520137499672
 10
117.4464056781037
 20
-131.7213310760106
 10
117.5032497536103
 20
-131.9645548172693
 10
117.5645724532477
 20
-132.085133159253
 10
117.6555229740583
 20
-132.2608330290008
 10
117.850170868975
 20
-132.4406670133308
 10
117.9855631215453
 20
-132.4975110888374
 10
117.9855631215453
 20
-132.4975110888374
 10
117.8439696971015
 20
-132.6773450731675
 10
117.8439696971015
 20
-132.6773450731675
 97
        0
 97
        0
 75
     2
 76
     1
 98
        0
  0
SPLINE
  5
12D
330
10A
100
AcDbEntity
  8
_U+30EC_U+30A4_U+30E4_U+30FC 1
370
     0
100
AcDbSpline
210
0.0
220
0.0
230
1.0
 70
    11
 71
     3
 72
    71
 73
    67
 74
     0
 42
0.0000000001
 43
0.0000000001
 12
1.0
 22
0.0
 32
0.0
 13
1.0
 23
0.0
 33
0.0
 40
0.0
 40
0.0
 40
0.0
 40
0.0
 40
1.0
 40
1.0
 40
1.0
 40
2.0
 40
2.0
 40
2.0
 40
3.0
 40
3.0
 40
3.0
 40
4.0
 40
4.0
 40
4.0
 40
5.0
 40
5.0
 40
5.0
 40
6.0
 40
6.0
 40
6.0
 40
7.0
 40
7.0
 40
7.0
 40
8.0
 40
8.0
 40
8.0
 40
9.0
 40
9.0
 40
9.0
 40
10.0
 40
10.0
 40
10.0
 40
11.0
 40
11.0
 40
11.0
 40
12.0
 40
12.0
 40
12.0
 40
13.0
 40
13.0
 40
13.0
 40
14.0
 40
14.0
 40
14.0
 40
15.0
 40
15.0
 40
15.0
 40
16.0
 40
16.0
 40
16.0
 40
17.0
 40
17.0
 40
17.0
 40
18.0
 40
18.0
 40
18.0
 40
19.0
 40
19.0
 40
19.0
 40
20.0
 40
20.0
 40
20.0
 40
21.0
 40
21.0
 40
21.0
 40
22.0
 40
22.0
 40
22.0
 40
22.0
 10
119.0383843018376
 20
-130.9448065536353
 30
0.0
 10
119.0235703912511
 20
-130.9448065536353
 30
0.0
 10
119.0108235379556
 20
-130.940672439053
 30
0.0
 10
118.9853298313648
 20
-130.9320597003399
 30
0.0
 10
118.843736406921
 20
-130.9785684893908
 30
0.0
 10
118.6701035944644
 20
-130.995793966817
 30
0.0
 10
118.5305772273118
 20
-130.9999280813993
 30
0.0
 10
118.5305772273118
 20
-130.9999280813993
 30
0.0
 10
118.5285101700207
 20
-131.0888115449188
 30
0.0
 10
118.5285101700207
 20
-131.0888115449188
 30
0.0
 10
118.5285101700207
 20
-131.0888115449188
 30
0.0
 10
118.788614879157
 20
-131.0888115449188
 30
0.0
 10
118.788614879157
 20
-131.0888115449188
 30
0.0
 10
118.8416693496299
 20
-131.0888115449188
 30
0.0
 10
119.0235703912511
 20
-131.0801988062057
 30
0.0
 10
119.0680121230108
 20
-131.0739976343322
 30
0.0
 10
119.0680121230108
 20
-131.0739976343322
 30
0.0
 10
119.0680121230108
 20
-131.2348835934934
 30
0.0
 10
119.0680121230108
 20
-131.2348835934934
 30
0.0
 10
119.0128905952468
 20
-131.2283379120714
 30
0.0
 10
118.8881781386807
 20
-131.2262708547802
 30
0.0
 10
118.8499375787945
 20
-131.2283379120714
 30
0.0
 10
118.8499375787945
 20
-131.2283379120714
 30
0.0
 10
118.8499375787945
 20
-131.3382364580509
 30
0.0
 10
118.8499375787945
 20
-131.3382364580509
 30
0.0
 10
118.8499375787945
 20
-131.3850897566503
 30
0.0
 10
118.8520046360856
 20
-131.4484795135789
 30
0.0
 10
118.8585503175076
 20
-131.4863755639166
 30
0.0
 10
118.8585503175076
 20
-131.4863755639166
 30
0.0
 10
118.6659694798821
 20
-131.4863755639166
 30
0.0
 10
118.6659694798821
 20
-131.4863755639166
 30
0.0
 10
118.6721706517556
 20
-131.4464124562877
 30
0.0
 10
118.6787163331775
 20
-131.3637301646417
 30
0.0
 10
118.6787163331775
 20
-131.3489162540551
 30
0.0
 10
118.6787163331775
 20
-131.3489162540551
 30
0.0
 10
118.6787163331775
 20
-131.2283379120714
 30
0.0
 10
118.6787163331775
 20
-131.2283379120714
 30
0.0
 10
118.6787163331775
 20
-131.2283379120714
 30
0.0
 10
118.5136962594341
 20
-131.2283379120714
 30
0.0
 10
118.5136962594341
 20
-131.2283379120714
 30
0.0
 10
118.4713215849655
 20
-131.4484795135789
 30
0.0
 10
118.4162000572015
 20
-131.5287502383852
 30
0.0
 10
118.3104356258043
 20
-131.6283134979089
 30
0.0
 10
118.3104356258043
 20
-131.6283134979089
 30
0.0
 10
118.1433484947697
 20
-131.5139363277986
 30
0.0
 10
118.1433484947697
 20
-131.5139363277986
 30
0.0
 10
118.2067382516983
 20
-131.4653604814566
 30
0.0
 10
118.3569444148552
 20
-131.3530503686374
 30
0.0
 10
118.3569444148552
 20
-131.0040621959816
 30
0.0
 10
118.3569444148552
 20
-130.9217244138842
 30
0.0
 10
118.3486761856906
 20
-130.8752156248333
 30
0.0
 10
118.3400634469775
 20
-130.8262952689427
 30
0.0
 10
118.4861354955521
 20
-130.8411091795293
 30
0.0
 10
118.5009494061387
 20
-130.8411091795293
 30
0.0
 10
118.5367783991853
 20
-130.8411091795293
 30
0.0
 10
118.6449543974221
 20
-130.8411091795293
 30
0.0
 10
118.7865478218659
 20
-130.8242282116516
 30
0.0
 10
118.947433781027
 20
-130.7629055120141
 30
0.0
 10
118.947433781027
 20
-130.7629055120141
 30
0.0
 10
119.0614664415888
 20
-130.8941636500022
 30
0.0
 10
119.0614664415888
 20
-130.8941636500022
 30
0.0
 10
119.0680121230108
 20
-130.9003648218756
 30
0.0
 10
119.0721462375931
 20
-130.9089775605887
 30
0.0
 10
119.0721462375931
 20
-130.9172457897533
 30
0.0
 10
119.0721462375931
 20
-130.940672439053
 30
0.0
 10
119.0531982124242
 20
-130.9448065536353
 30
0.0
 10
119.0383843018376
 20
-130.9448065536353
 30
0.0
  0
SPLINE
  5
12E
330
10A
100
AcDbEntity
  8
_U+30EC_U+30A4_U+30E4_U+30FC 1
370
     0
100
AcDbSpline
210
0.0
220
0.0
230
1.0
 70
    11
 71
     3
 72
    74
 73
    70
 74
     0
 42
0.0000000001
 43
0.0000000001
 12
1.0
 22
0.0
 32
0.0
 13
1.0
 23
0.0
 33
0.0
 40
0.0
 40
0.0
 40
0.0
 40
0.0
 40
1.0
 40
1.0
 40
1.0
 40
2.0
 40
2.0
 40
2.0
 40
3.0
 40
3.0
 40
3.0
 40
4.0
 40
4.0
 40
4.0
 40
5.0
 40
5.0
 40
5.0
 40
6.0
 40
6.0
 40
6.0
 40
7.0
 40
7.0
 40
7.0
 40
8.0
 40
8.0
 40
8.0
 40
9.0
 40
9.0
 40
9.0
 40
10.0
 40
10.0
 40
10.0
 40
11.0
 40
11.0
 40
11.0
 40
12.0
 40
12.0
 40
12.0
 40
13.0
 40
13.0
 40
13.0
 40
14.0
 40
14.0
 40
14.0
 40
15.0
 40
15.0
 40
15.0
 40
16.0
 40
16.0
 40
16.0
 40
17.0
 40
17.0
 40
17.0
 40
18.0
 40
18.0
 40
18.0
 40
19.0
 40
19.0
 40
19.0
 40
20.0
 40
20.0
 40
20.0
 40
21.0
 40
21.0
 40
21.0
 40
22.0
 40
22.0
 40
22.0
 40
23.0
 40
23.0
 40
23.0
 40
23.0
 10
119.8758870143019
 20
-132.7114515184714
 30
0.0
 10
119.6622910942164
 20
-132.7007717224672
 30
0.0
 10
119.4614420274263
 20
-132.6139553162389
 30
0.0
 10
119.2857421576786
 20
-132.4933769742551
 30
0.0
 10
119.2857421576786
 20
-132.4933769742551
 30
0.0
 10
119.3832383599111
 20
-132.4065605680268
 30
0.0
 10
119.3832383599111
 20
-132.4065605680268
 30
0.0
 10
119.3832383599111
 20
-132.4065605680268
 30
0.0
 10
118.8309895536256
 20
-132.4065605680268
 30
0.0
 10
118.8309895536256
 20
-132.4065605680268
 30
0.0
 10
118.8309895536256
 20
-132.4065605680268
 30
0.0
 10
118.9112602784319
 20
-132.470294834504
 30
0.0
 10
118.9112602784319
 20
-132.470294834504
 30
0.0
 10
118.9178059598539
 20
-132.4744289490863
 30
0.0
 10
118.9281412463096
 20
-132.4851087450905
 30
0.0
 10
118.9281412463096
 20
-132.4999226556771
 30
0.0
 10
118.9281412463096
 20
-132.539885763306
 30
0.0
 10
118.8540716933768
 20
-132.5336845914325
 30
0.0
 10
118.8392577827902
 20
-132.5316175341414
 30
0.0
 10
118.608780894827
 20
-132.671143901294
 30
0.0
 10
118.4651204130921
 20
-132.7028387797583
 30
0.0
 10
118.361423038986
 20
-132.719719747636
 30
0.0
 10
118.361423038986
 20
-132.719719747636
 30
0.0
 10
118.2322319582892
 20
-132.5419528205971
 30
0.0
 10
118.2322319582892
 20
-132.5419528205971
 30
0.0
 10
118.4799343236786
 20
-132.5102579421329
 30
0.0
 10
118.581220130945
 20
-132.463749153082
 30
0.0
 10
118.6701035944644
 20
-132.4110391921577
 30
0.0
 10
118.5960340415316
 20
-132.4131062494488
 30
0.0
 10
118.4820013809698
 20
-132.41517330674
 30
0.0
 10
118.4503065025055
 20
-132.4172403640311
 30
0.0
 10
118.4651204130921
 20
-132.3283569005117
 30
0.0
 10
118.4671874703832
 20
-132.1995103293633
 30
0.0
 10
118.4671874703832
 20
-132.1254407764305
 30
0.0
 10
118.4671874703832
 20
-132.1254407764305
 30
0.0
 10
118.4671874703832
 20
-131.8250284501167
 30
0.0
 10
118.4671874703832
 20
-131.8250284501167
 30
0.0
 10
118.4671874703832
 20
-131.725465190593
 30
0.0
 10
118.4606417889612
 20
-131.6262464406178
 30
0.0
 10
118.4503065025055
 20
-131.5287502383852
 30
0.0
 10
118.5515923097718
 20
-131.5349514102586
 30
0.0
 10
118.7824137072836
 20
-131.5414970916806
 30
0.0
 10
118.8902451959719
 20
-131.5414970916806
 30
0.0
 10
118.8902451959719
 20
-131.5414970916806
 30
0.0
 10
119.3133029215606
 20
-131.5414970916806
 30
0.0
 10
119.3133029215606
 20
-131.5414970916806
 30
0.0
 10
119.4318142062532
 20
-131.5414970916806
 30
0.0
 10
119.4741888807217
 20
-131.5414970916806
 30
0.0
 10
119.5565266628192
 20
-131.5373629770983
 30
0.0
 10
119.7046657686849
 20
-131.5308172956763
 30
0.0
 10
119.7215467365627
 20
-131.5308172956763
 30
0.0
 10
119.7680555256135
 20
-131.5287502383852
 30
0.0
 10
119.7597872964489
 20
-131.6090209631915
 30
0.0
 10
119.7553086723181
 20
-131.7678398650615
 30
0.0
 10
119.7553086723181
 20
-131.850177647159
 30
0.0
 10
119.7553086723181
 20
-131.850177647159
 30
0.0
 10
119.7553086723181
 20
-132.1357760628862
 30
0.0
 10
119.7553086723181
 20
-132.1357760628862
 30
0.0
 10
119.7553086723181
 20
-132.2077785585279
 30
0.0
 10
119.7573757296093
 20
-132.3390366965159
 30
0.0
 10
119.7680555256135
 20
-132.4172403640311
 30
0.0
 10
119.6960530299718
 20
-132.4131062494488
 30
0.0
 10
119.5734076306969
 20
-132.4110391921577
 30
0.0
 10
119.4952039631818
 20
-132.4089721348665
 30
0.0
 10
119.6051025091612
 20
-132.4764960063774
 30
0.0
 10
119.7573757296093
 20
-132.5271389100106
 30
0.0
 10
119.9692491019521
 20
-132.5316175341414
 30
0.0
 10
119.9692491019521
 20
-132.5316175341414
 30
0.0
 10
119.8758870143019
 20
-132.7114515184714
 30
0.0
 10
119.8758870143019
 20
-132.7114515184714
 30
0.0
  0
POLYLINE
  5
12F
330
10A
100
AcDbEntity
  8
_U+30EC_U+30A4_U+30E4_U+30FC 1
370
     0
100
AcDb2dPolyline
 66
     1
 10
0.0
 20
0.0
 30
0.0
  0
VERTEX
  5
130
330
12F
100
AcDbEntity
  8
_U+30EC_U+30A4_U+30E4_U+30FC 1
370
     0
100
AcDbVertex
100
AcDb2dVertex
 10
119.5713405734058
 20
-131.6768893442509
 30
0.0
  0
VERTEX
  5
131
330
12F
100
AcDbEntity
  8
_U+30EC_U+30A4_U+30E4_U+30FC 1
370
     0
100
AcDbVertex
100
AcDb2dVertex
 10
118.6594237984602
 20
-131.6768893442509
 30
0.0
  0
VERTEX
  5
132
330
12F
100
AcDbEntity
  8
_U+30EC_U+30A4_U+30E4_U+30FC 1
370
     0
100
AcDbVertex
100
AcDb2dVertex
 10
118.6594237984602
 20
-131.7888549475215
 30
0.0
  0
VERTEX
  5
133
330
12F
100
AcDbEntity
  8
_U+30EC_U+30A4_U+30E4_U+30FC 1
370
     0
100
AcDbVertex
100
AcDb2dVertex
 10
119.5713405734058
 20
-131.7888549475215
 30
0.0
  0
VERTEX
  5
134
330
12F
100
AcDbEntity
  8
_U+30EC_U+30A4_U+30E4_U+30FC 1
370
     0
100
AcDbVertex
100
AcDb2dVertex
 10
119.5713405734058
 20
-131.6768893442509
 30
0.0
  0
SEQEND
  5
135
330
12F
100
AcDbEntity
  8
_U+30EC_U+30A4_U+30E4_U+30FC 1
370
     0
  0
POLYLINE
  5
136
330
10A
100
AcDbEntity
  8
_U+30EC_U+30A4_U+30E4_U+30FC 1
370
     0
100
AcDb2dPolyline
 66
     1
 10
0.0
 20
0.0
 30
0.0
  0
VERTEX
  5
137
330
136
100
AcDbEntity
  8
_U+30EC_U+30A4_U+30E4_U+30FC 1
370
     0
100
AcDbVertex
100
AcDb2dVertex
 10
119.5713405734058
 20
-131.9221801428007
 30
0.0
  0
VERTEX
  5
138
330
136
100
AcDbEntity
  8
_U+30EC_U+30A4_U+30E4_U+30FC 1
370
     0
100
AcDbVertex
100
AcDb2dVertex
 10
118.6594237984602
 20
-131.9221801428007
 30
0.0
  0
VERTEX
  5
139
330
136
100
AcDbEntity
  8
_U+30EC_U+30A4_U+30E4_U+30FC 1
370
     0
100
AcDbVertex
100
AcDb2dVertex
 10
118.6594237984602
 20
-132.0324231983287
 30
0.0
  0
VERTEX
  5
13A
330
136
100
AcDbEntity
  8
_U+30EC_U+30A4_U+30E4_U+30FC 1
370
     0
100
AcDbVertex
100
AcDb2dVertex
 10
119.5713405734058
 20
-132.0324231983287
 30
0.0
  0
VERTEX
  5
13B
330
136
100
AcDbEntity
  8
_U+30EC_U+30A4_U+30E4_U+30FC 1
370
     0
100
AcDbVertex
100
AcDb2dVertex
 10
119.5713405734058
 20
-131.9221801428007
 30
0.0
  0
SEQEND
  5
13C
330
136
100
AcDbEntity
  8
_U+30EC_U+30A4_U+30E4_U+30FC 1
370
     0
  0
POLYLINE
  5
13D
330
10A
100
AcDbEntity
  8
_U+30EC_U+30A4_U+30E4_U+30FC 1
370
     0
100
AcDb2dPolyline
 66
     1
 10
0.0
 20
0.0
 30
0.0
  0
VERTEX
  5
13E
330
13D
100
AcDbEntity
  8
_U+30EC_U+30A4_U+30E4_U+30FC 1
370
     0
100
AcDbVertex
100
AcDb2dVertex
 10
119.5713405734058
 20
-132.167815450899
 30
0.0
  0
VERTEX
  5
13F
330
13D
100
AcDbEntity
  8
_U+30EC_U+30A4_U+30E4_U+30FC 1
370
     0
100
AcDbVertex
100
AcDb2dVertex
 10
118.6594237984602
 20
-132.167815450899
 30
0.0
  0
VERTEX
  5
140
330
13D
100
AcDbEntity
  8
_U+30EC_U+30A4_U+30E4_U+30FC 1
370
     0
100
AcDbVertex
100
AcDb2dVertex
 10
118.6594237984602
 20
-132.2756469395873
 30
0.0
  0
VERTEX
  5
141
330
13D
100
AcDbEntity
  8
_U+30EC_U+30A4_U+30E4_U+30FC 1
370
     0
100
AcDbVertex
100
AcDb2dVertex
 10
119.5713405734058
 20
-132.2756469395873
 30
0.0
  0
VERTEX
  5
142
330
13D
100
AcDbEntity
  8
_U+30EC_U+30A4_U+30E4_U+30FC 1
370
     0
100
AcDbVertex
100
AcDb2dVertex
 10
119.5713405734058
 20
-132.167815450899
 30
0.0
  0
SEQEND
  5
143
330
13D
100
AcDbEntity
  8
_U+30EC_U+30A4_U+30E4_U+30FC 1
370
     0
  0
SPLINE
  5
144
330
10A
100
AcDbEntity
  8
_U+30EC_U+30A4_U+30E4_U+30FC 1
370
     0
100
AcDbSpline
210
0.0
220
0.0
230
1.0
 70
    11
 71
     3
 72
    74
 73
    70
 74
     0
 42
0.0000000001
 43
0.0000000001
 12
1.0
 22
0.0
 32
0.0
 13
1.0
 23
0.0
 33
0.0
 40
0.0
 40
0.0
 40
0.0
 40
0.0
 40
1.0
 40
1.0
 40
1.0
 40
2.0
 40
2.0
 40
2.0
 40
3.0
 40
3.0
 40
3.0
 40
4.0
 40
4.0
 40
4.0
 40
5.0
 40
5.0
 40
5.0
 40
6.0
 40
6.0
 40
6.0
 40
7.0
 40
7.0
 40
7.0
 40
8.0
 40
8.0
 40
8.0
 40
9.0
 40
9.0
 40
9.0
 40
10.0
 40
10.0
 40
10.0
 40
11.0
 40
11.0
 40
11.0
 40
12.0
 40
12.0
 40
12.0
 40
13.0
 40
13.0
 40
13.0
 40
14.0
 40
14.0
 40
14.0
 40
15.0
 40
15.0
 40
15.0
 40
16.0
 40
16.0
 40
16.0
 40
17.0
 40
17.0
 40
17.0
 40
18.0
 40
18.0
 40
18.0
 40
19.0
 40
19.0
 40
19.0
 40
20.0
 40
20.0
 40
20.0
 40
21.0
 40
21.0
 40
21.0
 40
22.0
 40
22.0
 40
22.0
 40
23.0
 40
23.0
 40
23.0
 40
23.0
 10
119.8886338675973
 20
-131.2242037974891
 30
0.0
 10
119.8886338675973
 20
-131.2242037974891
 30
0.0
 10
119.7280924179847
 20
-131.2242037974891
 30
0.0
 10
119.7280924179847
 20
-131.2242037974891
 30
0.0
 10
119.7280924179847
 20
-131.2242037974891
 30
0.0
 10
119.7280924179847
 20
-131.3382364580509
 30
0.0
 10
119.7280924179847
 20
-131.3382364580509
 30
0.0
 10
119.7280924179847
 20
-131.3785440752283
 30
0.0
 10
119.7342935898581
 20
-131.4526136281611
 30
0.0
 10
119.7384277044404
 20
-131.478107334752
 30
0.0
 10
119.7384277044404
 20
-131.478107334752
 30
0.0
 10
119.5268988416461
 20
-131.478107334752
 30
0.0
 10
119.5268988416461
 20
-131.478107334752
 30
0.0
 10
119.5375786376503
 20
-131.4123060109837
 30
0.0
 10
119.5396456949415
 20
-131.3530503686374
 30
0.0
 10
119.5396456949415
 20
-131.3509833113463
 30
0.0
 10
119.5396456949415
 20
-131.3509833113463
 30
0.0
 10
119.5396456949415
 20
-131.2283379120714
 30
0.0
 10
119.5396456949415
 20
-131.2283379120714
 30
0.0
 10
119.5396456949415
 20
-131.2283379120714
 30
0.0
 10
119.3598117106114
 20
-131.2283379120714
 30
0.0
 10
119.3598117106114
 20
-131.2283379120714
 30
0.0
 10
119.3408636854426
 20
-131.2875935544177
 30
0.0
 10
119.2943548963917
 20
-131.4336656029923
 30
0.0
 10
119.1799777262814
 20
-131.5160033850898
 30
0.0
 10
119.1799777262814
 20
-131.5160033850898
 30
0.0
 10
119.0235703912511
 20
-131.4102389536926
 30
0.0
 10
119.0235703912511
 20
-131.4102389536926
 30
0.0
 10
119.0976399441839
 20
-131.3637301646417
 30
0.0
 10
119.2137396620368
 20
-131.2896606117089
 30
0.0
 10
119.2137396620368
 20
-130.968233202935
 30
0.0
 10
119.2137396620368
 20
-130.913111675171
 30
0.0
 10
119.2096055474545
 20
-130.8686699434113
 30
0.0
 10
119.2075384901634
 20
-130.8307738930736
 30
0.0
 10
119.2836751003874
 20
-130.8390421222382
 30
0.0
 10
119.3577446533203
 20
-130.8455878036601
 30
0.0
 10
119.4211344102489
 20
-130.8455878036601
 30
0.0
 10
119.5989013372878
 20
-130.8455878036601
 30
0.0
 10
119.7976833467867
 20
-130.7863321613139
 30
0.0
 10
119.8590060464241
 20
-130.7567043401407
 30
0.0
 10
119.8590060464241
 20
-130.7567043401407
 30
0.0
 10
119.9861300698299
 20
-130.892096592711
 30
0.0
 10
119.9861300698299
 20
-130.892096592711
 30
0.0
 10
119.9902641844122
 20
-130.8962307072933
 30
0.0
 10
119.9923312417033
 20
-130.9048434460064
 30
0.0
 10
119.9923312417033
 20
-130.9110446178799
 30
0.0
 10
119.9923312417033
 20
-130.9320597003399
 30
0.0
 10
119.9775173311167
 20
-130.9386053817619
 30
0.0
 10
119.960636363239
 20
-130.9386053817619
 30
0.0
 10
119.939621280779
 20
-130.9386053817619
 30
0.0
 10
119.9248073701924
 20
-130.9299926430488
 30
0.0
 10
119.905514835475
 20
-130.919657356593
 30
0.0
 10
119.732226532567
 20
-130.9765014320996
 30
0.0
 10
119.5141519883506
 20
-131.0019951386905
 30
0.0
 10
119.3808267930715
 20
-131.0040621959816
 30
0.0
 10
119.3808267930715
 20
-131.0040621959816
 30
0.0
 10
119.3766926784892
 20
-131.0867444876276
 30
0.0
 10
119.3766926784892
 20
-131.0867444876276
 30
0.0
 10
119.3766926784892
 20
-131.0867444876276
 30
0.0
 10
119.6495442409209
 20
-131.0867444876276
 30
0.0
 10
119.6495442409209
 20
-131.0867444876276
 30
0.0
 10
119.7067328259761
 20
-131.0867444876276
 30
0.0
 10
119.9692491019521
 20
-131.0674519529102
 30
0.0
 10
120.0133463241633
 20
-131.0612507810368
 30
0.0
 10
120.0133463241633
 20
-131.0612507810368
 30
0.0
 10
120.0133463241633
 20
-131.2304049693626
 30
0.0
 10
120.0133463241633
 20
-131.2304049693626
 30
0.0
 10
119.9795843884079
 20
-131.2262708547802
 30
0.0
 10
119.9668375351125
 20
-131.2242037974891
 30
0.0
 10
119.8886338675973
 20
-131.2242037974891
 30
0.0
  0
HATCH
  5
145
330
10A
100
AcDbEntity
  8
_U+30EC_U+30A4_U+30E4_U+30FC 1
 62
   179
420
  2234388
100
AcDbHatch
 10
0.0
 20
0.0
 30
0.0
210
0.0
220
0.0
230
1.0
  2
SOLID
 70
     1
 71
     0
 91
        6
 92
        1
 93
        1
 72
     4
 94
        3
 73
     0
 74
     1
 95
       71
 96
       67
 40
0.0
 40
0.0
 40
0.0
 40
0.0
 40
1.0
 40
1.0
 40
1.0
 40
2.0
 40
2.0
 40
2.0
 40
3.0
 40
3.0
 40
3.0
 40
4.0
 40
4.0
 40
4.0
 40
5.0
 40
5.0
 40
5.0
 40
6.0
 40
6.0
 40
6.0
 40
7.0
 40
7.0
 40
7.0
 40
8.0
 40
8.0
 40
8.0
 40
9.0
 40
9.0
 40
9.0
 40
10.0
 40
10.0
 40
10.0
 40
11.0
 40
11.0
 40
11.0
 40
12.0
 40
12.0
 40
12.0
 40
13.0
 40
13.0
 40
13.0
 40
14.0
 40
14.0
 40
14.0
 40
15.0
 40
15.0
 40
15.0
 40
16.0
 40
16.0
 40
16.0
 40
17.0
 40
17.0
 40
17.0
 40
18.0
 40
18.0
 40
18.0
 40
19.0
 40
19.0
 40
19.0
 40
20.0
 40
20.0
 40
20.0
 40
21.0
 40
21.0
 40
21.0
 40
22.0
 40
22.0
 40
22.0
 40
22.0
 10
119.0383843018376
 20
-130.9448065536353
 10
119.0235703912511
 20
-130.9448065536353
 10
119.0108235379556
 20
-130.940672439053
 10
118.9853298313648
 20
-130.9320597003399
 10
118.843736406921
 20
-130.9785684893908
 10
118.6701035944644
 20
-130.995793966817
 10
118.5305772273118
 20
-130.9999280813993
 10
118.5305772273118
 20
-130.9999280813993
 10
118.5285101700207
 20
-131.0888115449188
 10
118.5285101700207
 20
-131.0888115449188
 10
118.5285101700207
 20
-131.0888115449188
 10
118.788614879157
 20
-131.0888115449188
 10
118.788614879157
 20
-131.0888115449188
 10
118.8416693496299
 20
-131.0888115449188
 10
119.0235703912511
 20
-131.0801988062057
 10
119.0680121230108
 20
-131.0739976343322
 10
119.0680121230108
 20
-131.0739976343322
 10
119.0680121230108
 20
-131.2348835934934
 10
119.0680121230108
 20
-131.2348835934934
 10
119.0128905952468
 20
-131.2283379120714
 10
118.8881781386807
 20
-131.2262708547802
 10
118.8499375787945
 20
-131.2283379120714
 10
118.8499375787945
 20
-131.2283379120714
 10
118.8499375787945
 20
-131.3382364580509
 10
118.8499375787945
 20
-131.3382364580509
 10
118.8499375787945
 20
-131.3850897566503
 10
118.8520046360856
 20
-131.4484795135789
 10
118.8585503175076
 20
-131.4863755639166
 10
118.8585503175076
 20
-131.4863755639166
 10
118.6659694798821
 20
-131.4863755639166
 10
118.6659694798821
 20
-131.4863755639166
 10
118.6721706517556
 20
-131.4464124562877
 10
118.6787163331775
 20
-131.3637301646417
 10
118.6787163331775
 20
-131.3489162540551
 10
118.6787163331775
 20
-131.3489162540551
 10
118.6787163331775
 20
-131.2283379120714
 10
118.6787163331775
 20
-131.2283379120714
 10
118.6787163331775
 20
-131.2283379120714
 10
118.5136962594341
 20
-131.2283379120714
 10
118.5136962594341
 20
-131.2283379120714
 10
118.4713215849655
 20
-131.4484795135789
 10
118.4162000572015
 20
-131.5287502383852
 10
118.3104356258043
 20
-131.6283134979089
 10
118.3104356258043
 20
-131.6283134979089
 10
118.1433484947697
 20
-131.5139363277986
 10
118.1433484947697
 20
-131.5139363277986
 10
118.2067382516983
 20
-131.4653604814566
 10
118.3569444148552
 20
-131.3530503686374
 10
118.3569444148552
 20
-131.0040621959816
 10
118.3569444148552
 20
-130.9217244138842
 10
118.3486761856906
 20
-130.8752156248333
 10
118.3400634469775
 20
-130.8262952689427
 10
118.4861354955521
 20
-130.8411091795293
 10
118.5009494061387
 20
-130.8411091795293
 10
118.5367783991853
 20
-130.8411091795293
 10
118.6449543974221
 20
-130.8411091795293
 10
118.7865478218659
 20
-130.8242282116516
 10
118.947433781027
 20
-130.7629055120141
 10
118.947433781027
 20
-130.7629055120141
 10
119.0614664415888
 20
-130.8941636500022
 10
119.0614664415888
 20
-130.8941636500022
 10
119.0680121230108
 20
-130.9003648218756
 10
119.0721462375931
 20
-130.9089775605887
 10
119.0721462375931
 20
-130.9172457897533
 10
119.0721462375931
 20
-130.940672439053
 10
119.0531982124242
 20
-130.9448065536353
 10
119.0383843018376
 20
-130.9448065536353
 97
        0
 97
        0
 92
        1
 93
        1
 72
     4
 94
        3
 73
     0
 74
     1
 95
       74
 96
       70
 40
0.0
 40
0.0
 40
0.0
 40
0.0
 40
1.0
 40
1.0
 40
1.0
 40
2.0
 40
2.0
 40
2.0
 40
3.0
 40
3.0
 40
3.0
 40
4.0
 40
4.0
 40
4.0
 40
5.0
 40
5.0
 40
5.0
 40
6.0
 40
6.0
 40
6.0
 40
7.0
 40
7.0
 40
7.0
 40
8.0
 40
8.0
 40
8.0
 40
9.0
 40
9.0
 40
9.0
 40
10.0
 40
10.0
 40
10.0
 40
11.0
 40
11.0
 40
11.0
 40
12.0
 40
12.0
 40
12.0
 40
13.0
 40
13.0
 40
13.0
 40
14.0
 40
14.0
 40
14.0
 40
15.0
 40
15.0
 40
15.0
 40
16.0
 40
16.0
 40
16.0
 40
17.0
 40
17.0
 40
17.0
 40
18.0
 40
18.0
 40
18.0
 40
19.0
 40
19.0
 40
19.0
 40
20.0
 40
20.0
 40
20.0
 40
21.0
 40
21.0
 40
21.0
 40
22.0
 40
22.0
 40
22.0
 40
23.0
 40
23.0
 40
23.0
 40
23.0
 10
119.8758870143019
 20
-132.7114515184714
 10
119.6622910942164
 20
-132.7007717224672
 10
119.4614420274263
 20
-132.6139553162389
 10
119.2857421576786
 20
-132.4933769742551
 10
119.2857421576786
 20
-132.4933769742551
 10
119.3832383599111
 20
-132.4065605680268
 10
119.3832383599111
 20
-132.4065605680268
 10
119.3832383599111
 20
-132.4065605680268
 10
118.8309895536256
 20
-132.4065605680268
 10
118.8309895536256
 20
-132.4065605680268
 10
118.8309895536256
 20
-132.4065605680268
 10
118.9112602784319
 20
-132.470294834504
 10
118.9112602784319
 20
-132.470294834504
 10
118.9178059598539
 20
-132.4744289490863
 10
118.9281412463096
 20
-132.4851087450905
 10
118.9281412463096
 20
-132.4999226556771
 10
118.9281412463096
 20
-132.539885763306
 10
118.8540716933768
 20
-132.5336845914325
 10
118.8392577827902
 20
-132.5316175341414
 10
118.608780894827
 20
-132.671143901294
 10
118.4651204130921
 20
-132.7028387797583
 10
118.361423038986
 20
-132.719719747636
 10
118.361423038986
 20
-132.719719747636
 10
118.2322319582892
 20
-132.5419528205971
 10
118.2322319582892
 20
-132.5419528205971
 10
118.4799343236786
 20
-132.5102579421329
 10
118.581220130945
 20
-132.463749153082
 10
118.6701035944644
 20
-132.4110391921577
 10
118.5960340415316
 20
-132.4131062494488
 10
118.4820013809698
 20
-132.41517330674
 10
118.4503065025055
 20
-132.4172403640311
 10
118.4651204130921
 20
-132.3283569005117
 10
118.4671874703832
 20
-132.1995103293633
 10
118.4671874703832
 20
-132.1254407764305
 10
118.4671874703832
 20
-132.1254407764305
 10
118.4671874703832
 20
-131.8250284501167
 10
118.4671874703832
 20
-131.8250284501167
 10
118.4671874703832
 20
-131.725465190593
 10
118.4606417889612
 20
-131.6262464406178
 10
118.4503065025055
 20
-131.5287502383852
 10
118.5515923097718
 20
-131.5349514102586
 10
118.7824137072836
 20
-131.5414970916806
 10
118.8902451959719
 20
-131.5414970916806
 10
118.8902451959719
 20
-131.5414970916806
 10
119.3133029215606
 20
-131.5414970916806
 10
119.3133029215606
 20
-131.5414970916806
 10
119.4318142062532
 20
-131.5414970916806
 10
119.4741888807217
 20
-131.5414970916806
 10
119.5565266628192
 20
-131.5373629770983
 10
119.7046657686849
 20
-131.5308172956763
 10
119.7215467365627
 20
-131.5308172956763
 10
119.7680555256135
 20
-131.5287502383852
 10
119.7597872964489
 20
-131.6090209631915
 10
119.7553086723181
 20
-131.7678398650615
 10
119.7553086723181
 20
-131.850177647159
 10
119.7553086723181
 20
-131.850177647159
 10
119.7553086723181
 20
-132.1357760628862
 10
119.7553086723181
 20
-132.1357760628862
 10
119.7553086723181
 20
-132.2077785585279
 10
119.7573757296093
 20
-132.3390366965159
 10
119.7680555256135
 20
-132.4172403640311
 10
119.6960530299718
 20
-132.4131062494488
 10
119.5734076306969
 20
-132.4110391921577
 10
119.4952039631818
 20
-132.4089721348665
 10
119.6051025091612
 20
-132.4764960063774
 10
119.7573757296093
 20
-132.5271389100106
 10
119.9692491019521
 20
-132.5316175341414
 10
119.9692491019521
 20
-132.5316175341414
 10
119.8758870143019
 20
-132.7114515184714
 10
119.8758870143019
 20
-132.7114515184714
 97
        0
 97
        0
 92
        1
 93
        4
 72
     1
 10
119.5713405734058
 20
-131.6768893442509
 11
118.6594237984602
 21
-131.6768893442509
 72
     1
 10
118.6594237984602
 20
-131.6768893442509
 11
118.6594237984602
 21
-131.7888549475215
 72
     1
 10
118.6594237984602
 20
-131.7888549475215
 11
119.5713405734058
 21
-131.7888549475215
 72
     1
 10
119.5713405734058
 20
-131.7888549475215
 11
119.5713405734058
 21
-131.6768893442509
 97
        0
 92
        1
 93
        4
 72
     1
 10
119.5713405734058
 20
-131.9221801428007
 11
118.6594237984602
 21
-131.9221801428007
 72
     1
 10
118.6594237984602
 20
-131.9221801428007
 11
118.6594237984602
 21
-132.0324231983287
 72
     1
 10
118.6594237984602
 20
-132.0324231983287
 11
119.5713405734058
 21
-132.0324231983287
 72
     1
 10
119.5713405734058
 20
-132.0324231983287
 11
119.5713405734058
 21
-131.9221801428007
 97
        0
 92
        1
 93
        4
 72
     1
 10
119.5713405734058
 20
-132.167815450899
 11
118.6594237984602
 21
-132.167815450899
 72
     1
 10
118.6594237984602
 20
-132.167815450899
 11
118.6594237984602
 21
-132.2756469395873
 72
     1
 10
118.6594237984602
 20
-132.2756469395873
 11
119.5713405734058
 21
-132.2756469395873
 72
     1
 10
119.5713405734058
 20
-132.2756469395873
 11
119.5713405734058
 21
-132.167815450899
 97
        0
 92
        1
 93
        1
 72
     4
 94
        3
 73
     0
 74
     1
 95
       74
 96
       70
 40
0.0
 40
0.0
 40
0.0
 40
0.0
 40
1.0
 40
1.0
 40
1.0
 40
2.0
 40
2.0
 40
2.0
 40
3.0
 40
3.0
 40
3.0
 40
4.0
 40
4.0
 40
4.0
 40
5.0
 40
5.0
 40
5.0
 40
6.0
 40
6.0
 40
6.0
 40
7.0
 40
7.0
 40
7.0
 40
8.0
 40
8.0
 40
8.0
 40
9.0
 40
9.0
 40
9.0
 40
10.0
 40
10.0
 40
10.0
 40
11.0
 40
11.0
 40
11.0
 40
12.0
 40
12.0
 40
12.0
 40
13.0
 40
13.0
 40
13.0
 40
14.0
 40
14.0
 40
14.0
 40
15.0
 40
15.0
 40
15.0
 40
16.0
 40
16.0
 40
16.0
 40
17.0
 40
17.0
 40
17.0
 40
18.0
 40
18.0
 40
18.0
 40
19.0
 40
19.0
 40
19.0
 40
20.0
 40
20.0
 40
20.0
 40
21.0
 40
21.0
 40
21.0
 40
22.0
 40
22.0
 40
22.0
 40
23.0
 40
23.0
 40
23.0
 40
23.0
 10
119.8886338675973
 20
-131.2242037974891
 10
119.8886338675973
 20
-131.2242037974891
 10
119.7280924179847
 20
-131.2242037974891
 10
119.7280924179847
 20
-131.2242037974891
 10
119.7280924179847
 20
-131.2242037974891
 10
119.7280924179847
 20
-131.3382364580509
 10
119.7280924179847
 20
-131.3382364580509
 10
119.7280924179847
 20
-131.3785440752283
 10
119.7342935898581
 20
-131.4526136281611
 10
119.7384277044404
 20
-131.478107334752
 10
119.7384277044404
 20
-131.478107334752
 10
119.5268988416461
 20
-131.478107334752
 10
119.5268988416461
 20
-131.478107334752
 10
119.5375786376503
 20
-131.4123060109837
 10
119.5396456949415
 20
-131.3530503686374
 10
119.5396456949415
 20
-131.3509833113463
 10
119.5396456949415
 20
-131.3509833113463
 10
119.5396456949415
 20
-131.2283379120714
 10
119.5396456949415
 20
-131.2283379120714
 10
119.5396456949415
 20
-131.2283379120714
 10
119.3598117106114
 20
-131.2283379120714
 10
119.3598117106114
 20
-131.2283379120714
 10
119.3408636854426
 20
-131.2875935544177
 10
119.2943548963917
 20
-131.4336656029923
 10
119.1799777262814
 20
-131.5160033850898
 10
119.1799777262814
 20
-131.5160033850898
 10
119.0235703912511
 20
-131.4102389536926
 10
119.0235703912511
 20
-131.4102389536926
 10
119.0976399441839
 20
-131.3637301646417
 10
119.2137396620368
 20
-131.2896606117089
 10
119.2137396620368
 20
-130.968233202935
 10
119.2137396620368
 20
-130.913111675171
 10
119.2096055474545
 20
-130.8686699434113
 10
119.2075384901634
 20
-130.8307738930736
 10
119.2836751003874
 20
-130.8390421222382
 10
119.3577446533203
 20
-130.8455878036601
 10
119.4211344102489
 20
-130.8455878036601
 10
119.5989013372878
 20
-130.8455878036601
 10
119.7976833467867
 20
-130.7863321613139
 10
119.8590060464241
 20
-130.7567043401407
 10
119.8590060464241
 20
-130.7567043401407
 10
119.9861300698299
 20
-130.892096592711
 10
119.9861300698299
 20
-130.892096592711
 10
119.9902641844122
 20
-130.8962307072933
 10
119.9923312417033
 20
-130.9048434460064
 10
119.9923312417033
 20
-130.9110446178799
 10
119.9923312417033
 20
-130.9320597003399
 10
119.9775173311167
 20
-130.9386053817619
 10
119.960636363239
 20
-130.9386053817619
 10
119.939621280779
 20
-130.9386053817619
 10
119.9248073701924
 20
-130.9299926430488
 10
119.905514835475
 20
-130.919657356593
 10
119.732226532567
 20
-130.9765014320996
 10
119.5141519883506
 20
-131.0019951386905
 10
119.3808267930715
 20
-131.0040621959816
 10
119.3808267930715
 20
-131.0040621959816
 10
119.3766926784892
 20
-131.0867444876276
 10
119.3766926784892
 20
-131.0867444876276
 10
119.3766926784892
 20
-131.0867444876276
 10
119.6495442409209
 20
-131.0867444876276
 10
119.6495442409209
 20
-131.0867444876276
 10
119.7067328259761
 20
-131.0867444876276
 10
119.9692491019521
 20
-131.0674519529102
 10
120.0133463241633
 20
-131.0612507810368
 10
120.0133463241633
 20
-131.0612507810368
 10
120.0133463241633
 20
-131.2304049693626
 10
120.0133463241633
 20
-131.2304049693626
 10
119.9795843884079
 20
-131.2262708547802
 10
119.9668375351125
 20
-131.2242037974891
 10
119.8886338675973
 20
-131.2242037974891
 97
        0
 97
        0
 75
     2
 76
     1
 98
        0
  0
ENDBLK
  5
10D
330
10A
100
AcDbEntity
  8
0
100
AcDbBlockEnd
  0
BLOCK
  5
154
330
152
100
AcDbEntity
  8
0
100
AcDbBlockBegin
  2
block 3
 70
     0
 10
0.0
 20
0.0
 30
0.0
  3
block 3
  1

  0
SPLINE
  5
156
330
152
100
AcDbEntity
  8
_U+30EC_U+30A4_U+30E4_U+30FC 1
370
     0
100
AcDbSpline
210
0.0
220
0.0
230
1.0
 70
    11
 71
     3
 72
    53
 73
    49
 74
     0
 42
0.0000000001
 43
0.0000000001
 12
1.0
 22
0.0
 32
0.0
 13
1.0
 23
0.0
 33
0.0
 40
0.0
 40
0.0
 40
0.0
 40
0.0
 40
1.0
 40
1.0
 40
1.0
 40
2.0
 40
2.0
 40
2.0
 40
3.0
 40
3.0
 40
3.0
 40
4.0
 40
4.0
 40
4.0
 40
5.0
 40
5.0
 40
5.0
 40
6.0
 40
6.0
 40
6.0
 40
7.0
 40
7.0
 40
7.0
 40
8.0
 40
8.0
 40
8.0
 40
9.0
 40
9.0
 40
9.0
 40
10.0
 40
10.0
 40
10.0
 40
11.0
 40
11.0
 40
11.0
 40
12.0
 40
12.0
 40
12.0
 40
13.0
 40
13.0
 40
13.0
 40
14.0
 40
14.0
 40
14.0
 40
15.0
 40
15.0
 40
15.0
 40
16.0
 40
16.0
 40
16.0
 40
16.0
 10
103.3886935505417
 20
-150.6791747670177
 30
0.0
 10
103.3104898830265
 20
-150.6791747670177
 30
0.0
 10
103.2088595662117
 20
-150.66229379914
 30
0.0
 10
103.1072292493968
 20
-150.5989040422114
 30
0.0
 10
102.9339409464887
 20
-150.4890054962319
 30
0.0
 10
102.9125813544802
 20
-150.3577473582439
 30
0.0
 10
102.8936333293113
 20
-150.2499158695556
 30
0.0
 10
102.8936333293113
 20
-150.2499158695556
 30
0.0
 10
103.1158419881099
 20
-150.2499158695556
 30
0.0
 10
103.1158419881099
 20
-150.2499158695556
 30
0.0
 10
103.1706190063254
 20
-150.4486978790545
 30
0.0
 10
103.2977430297311
 20
-150.4783257002277
 30
0.0
 10
103.3907606078329
 20
-150.4783257002277
 30
0.0
 10
103.5302869749855
 20
-150.4783257002277
 30
0.0
 10
103.6825601954335
 20
-150.3787624407039
 30
0.0
 10
103.6825601954335
 20
-150.1462184954496
 30
0.0
 10
103.6825601954335
 20
-149.8902479008955
 30
0.0
 10
103.5027262111035
 20
-149.8203124625449
 30
0.0
 10
103.3821478691197
 20
-149.8203124625449
 30
0.0
 10
103.3504529906554
 20
-149.8203124625449
 30
0.0
 10
103.2088595662117
 20
-149.8203124625449
 30
0.0
 10
103.1199761026922
 20
-149.9495035432418
 30
0.0
 10
103.1199761026922
 20
-149.9495035432418
 30
0.0
 10
102.9442762329445
 20
-149.9305555180729
 30
0.0
 10
102.9442762329445
 20
-149.9305555180729
 30
0.0
 10
102.9442762329445
 20
-149.9305555180729
 30
0.0
 10
103.0648545749282
 20
-149.084095557347
 30
0.0
 10
103.0648545749282
 20
-149.084095557347
 30
0.0
 10
103.0648545749282
 20
-149.084095557347
 30
0.0
 10
103.8434461545947
 20
-149.084095557347
 30
0.0
 10
103.8434461545947
 20
-149.084095557347
 30
0.0
 10
103.8434461545947
 20
-149.084095557347
 30
0.0
 10
103.8434461545947
 20
-149.2787434522637
 30
0.0
 10
103.8434461545947
 20
-149.2787434522637
 30
0.0
 10
103.8434461545947
 20
-149.2787434522637
 30
0.0
 10
103.2278075913806
 20
-149.2787434522637
 30
0.0
 10
103.2278075913806
 20
-149.2787434522637
 30
0.0
 10
103.2278075913806
 20
-149.2787434522637
 30
0.0
 10
103.1623507771608
 20
-149.7018011778523
 30
0.0
 10
103.1623507771608
 20
-149.7018011778523
 30
0.0
 10
103.2236734767983
 20
-149.6680392420969
 30
0.0
 10
103.3060112588957
 20
-149.6277316249195
 30
0.0
 10
103.4245225435883
 20
-149.6277316249195
 30
0.0
 10
103.6784260808512
 20
-149.6277316249195
 30
0.0
 10
103.9154486502364
 20
-149.8141112906715
 30
0.0
 10
103.9154486502364
 20
-150.1272704702807
 30
0.0
 10
103.9154486502364
 20
-150.4445637644722
 30
0.0
 10
103.6911729341466
 20
-150.6791747670177
 30
0.0
 10
103.3886935505417
 20
-150.6791747670177
 30
0.0
  0
HATCH
  5
157
330
152
100
AcDbEntity
  8
_U+30EC_U+30A4_U+30E4_U+30FC 1
 62
   179
420
  2234388
100
AcDbHatch
 10
0.0
 20
0.0
 30
0.0
210
0.0
220
0.0
230
1.0
  2
SOLID
 70
     1
 71
     0
 91
        1
 92
        1
 93
        1
 72
     4
 94
        3
 73
     0
 74
     1
 95
       53
 96
       49
 40
0.0
 40
0.0
 40
0.0
 40
0.0
 40
1.0
 40
1.0
 40
1.0
 40
2.0
 40
2.0
 40
2.0
 40
3.0
 40
3.0
 40
3.0
 40
4.0
 40
4.0
 40
4.0
 40
5.0
 40
5.0
 40
5.0
 40
6.0
 40
6.0
 40
6.0
 40
7.0
 40
7.0
 40
7.0
 40
8.0
 40
8.0
 40
8.0
 40
9.0
 40
9.0
 40
9.0
 40
10.0
 40
10.0
 40
10.0
 40
11.0
 40
11.0
 40
11.0
 40
12.0
 40
12.0
 40
12.0
 40
13.0
 40
13.0
 40
13.0
 40
14.0
 40
14.0
 40
14.0
 40
15.0
 40
15.0
 40
15.0
 40
16.0
 40
16.0
 40
16.0
 40
16.0
 10
103.3886935505417
 20
-150.6791747670177
 10
103.3104898830265
 20
-150.6791747670177
 10
103.2088595662117
 20
-150.66229379914
 10
103.1072292493968
 20
-150.5989040422114
 10
102.9339409464887
 20
-150.4890054962319
 10
102.9125813544802
 20
-150.3577473582439
 10
102.8936333293113
 20
-150.2499158695556
 10
102.8936333293113
 20
-150.2499158695556
 10
103.1158419881099
 20
-150.2499158695556
 10
103.1158419881099
 20
-150.2499158695556
 10
103.1706190063254
 20
-150.4486978790545
 10
103.2977430297311
 20
-150.4783257002277
 10
103.3907606078329
 20
-150.4783257002277
 10
103.5302869749855
 20
-150.4783257002277
 10
103.6825601954335
 20
-150.3787624407039
 10
103.6825601954335
 20
-150.1462184954496
 10
103.6825601954335
 20
-149.8902479008955
 10
103.5027262111035
 20
-149.8203124625449
 10
103.3821478691197
 20
-149.8203124625449
 10
103.3504529906554
 20
-149.8203124625449
 10
103.2088595662117
 20
-149.8203124625449
 10
103.1199761026922
 20
-149.9495035432418
 10
103.1199761026922
 20
-149.9495035432418
 10
102.9442762329445
 20
-149.9305555180729
 10
102.9442762329445
 20
-149.9305555180729
 10
102.9442762329445
 20
-149.9305555180729
 10
103.0648545749282
 20
-149.084095557347
 10
103.0648545749282
 20
-149.084095557347
 10
103.0648545749282
 20
-149.084095557347
 10
103.8434461545947
 20
-149.084095557347
 10
103.8434461545947
 20
-149.084095557347
 10
103.8434461545947
 20
-149.084095557347
 10
103.8434461545947
 20
-149.2787434522637
 10
103.8434461545947
 20
-149.2787434522637
 10
103.8434461545947
 20
-149.2787434522637
 10
103.2278075913806
 20
-149.2787434522637
 10
103.2278075913806
 20
-149.2787434522637
 10
103.2278075913806
 20
-149.2787434522637
 10
103.1623507771608
 20
-149.7018011778523
 10
103.1623507771608
 20
-149.7018011778523
 10
103.2236734767983
 20
-149.6680392420969
 10
103.3060112588957
 20
-149.6277316249195
 10
103.4245225435883
 20
-149.6277316249195
 10
103.6784260808512
 20
-149.6277316249195
 10
103.9154486502364
 20
-149.8141112906715
 10
103.9154486502364
 20
-150.1272704702807
 10
103.9154486502364
 20
-150.4445637644722
 10
103.6911729341466
 20
-150.6791747670177
 10
103.3886935505417
 20
-150.6791747670177
 97
        0
 97
        0
 75
     2
 76
     1
 98
        0
  0
ENDBLK
  5
155
330
152
100
AcDbEntity
  8
0
100
AcDbBlockEnd
  0
BLOCK
  5
15A
330
158
100
AcDbEntity
  8
0
100
AcDbBlockBegin
  2
block 4
 70
     0
 10
0.0
 20
0.0
 30
0.0
  3
block 4
  1

  0
SPLINE
  5
15C
330
158
100
AcDbEntity
  8
_U+30EC_U+30A4_U+30E4_U+30FC 1
370
     0
100
AcDbSpline
210
0.0
220
0.0
230
1.0
 70
    11
 71
     3
 72
    53
 73
    49
 74
     0
 42
0.0000000001
 43
0.0000000001
 12
1.0
 22
0.0
 32
0.0
 13
1.0
 23
0.0
 33
0.0
 40
0.0
 40
0.0
 40
0.0
 40
0.0
 40
1.0
 40
1.0
 40
1.0
 40
2.0
 40
2.0
 40
2.0
 40
3.0
 40
3.0
 40
3.0
 40
4.0
 40
4.0
 40
4.0
 40
5.0
 40
5.0
 40
5.0
 40
6.0
 40
6.0
 40
6.0
 40
7.0
 40
7.0
 40
7.0
 40
8.0
 40
8.0
 40
8.0
 40
9.0
 40
9.0
 40
9.0
 40
10.0
 40
10.0
 40
10.0
 40
11.0
 40
11.0
 40
11.0
 40
12.0
 40
12.0
 40
12.0
 40
13.0
 40
13.0
 40
13.0
 40
14.0
 40
14.0
 40
14.0
 40
15.0
 40
15.0
 40
15.0
 40
16.0
 40
16.0
 40
16.0
 40
16.0
 10
113.707443547962
 20
-165.6715412997279
 30
0.0
 10
113.6292398804469
 20
-165.6715412997279
 30
0.0
 10
113.527609563632
 20
-165.6546603318502
 30
0.0
 10
113.4259792468171
 20
-165.5912705749216
 30
0.0
 10
113.2526909439091
 20
-165.4813720289422
 30
0.0
 10
113.2313313519005
 20
-165.3501138909541
 30
0.0
 10
113.2123833267316
 20
-165.2422824022658
 30
0.0
 10
113.2123833267316
 20
-165.2422824022658
 30
0.0
 10
113.4345919855302
 20
-165.2422824022658
 30
0.0
 10
113.4345919855302
 20
-165.2422824022658
 30
0.0
 10
113.4893690037457
 20
-165.4410644117647
 30
0.0
 10
113.6164930271514
 20
-165.4706922329379
 30
0.0
 10
113.7095106052532
 20
-165.4706922329379
 30
0.0
 10
113.8490369724058
 20
-165.4706922329379
 30
0.0
 10
114.0013101928539
 20
-165.3711289734142
 30
0.0
 10
114.0013101928539
 20
-165.1385850281598
 30
0.0
 10
114.0013101928539
 20
-164.8826144336057
 30
0.0
 10
113.8214762085238
 20
-164.8126789952552
 30
0.0
 10
113.7008978665401
 20
-164.8126789952552
 30
0.0
 10
113.6692029880758
 20
-164.8126789952552
 30
0.0
 10
113.527609563632
 20
-164.8126789952552
 30
0.0
 10
113.4387261001125
 20
-164.941870075952
 30
0.0
 10
113.4387261001125
 20
-164.941870075952
 30
0.0
 10
113.2630262303648
 20
-164.9229220507832
 30
0.0
 10
113.2630262303648
 20
-164.9229220507832
 30
0.0
 10
113.2630262303648
 20
-164.9229220507832
 30
0.0
 10
113.3836045723485
 20
-164.0764620900573
 30
0.0
 10
113.3836045723485
 20
-164.0764620900573
 30
0.0
 10
113.3836045723485
 20
-164.0764620900573
 30
0.0
 10
114.162196152015
 20
-164.0764620900573
 30
0.0
 10
114.162196152015
 20
-164.0764620900573
 30
0.0
 10
114.162196152015
 20
-164.0764620900573
 30
0.0
 10
114.162196152015
 20
-164.2711099849739
 30
0.0
 10
114.162196152015
 20
-164.2711099849739
 30
0.0
 10
114.162196152015
 20
-164.2711099849739
 30
0.0
 10
113.5465575888009
 20
-164.2711099849739
 30
0.0
 10
113.5465575888009
 20
-164.2711099849739
 30
0.0
 10
113.5465575888009
 20
-164.2711099849739
 30
0.0
 10
113.4811007745811
 20
-164.6941677105626
 30
0.0
 10
113.4811007745811
 20
-164.6941677105626
 30
0.0
 10
113.5424234742186
 20
-164.6604057748071
 30
0.0
 10
113.624761256316
 20
-164.6200981576297
 30
0.0
 10
113.7432725410086
 20
-164.6200981576297
 30
0.0
 10
113.9971760782716
 20
-164.6200981576297
 30
0.0
 10
114.2341986476567
 20
-164.8064778233817
 30
0.0
 10
114.2341986476567
 20
-165.1196370029909
 30
0.0
 10
114.2341986476567
 20
-165.4369302971824
 30
0.0
 10
114.009922931567
 20
-165.6715412997279
 30
0.0
 10
113.707443547962
 20
-165.6715412997279
 30
0.0
  0
HATCH
  5
15D
330
158
100
AcDbEntity
  8
_U+30EC_U+30A4_U+30E4_U+30FC 1
 62
   179
420
  2234388
100
AcDbHatch
 10
0.0
 20
0.0
 30
0.0
210
0.0
220
0.0
230
1.0
  2
SOLID
 70
     1
 71
     0
 91
        1
 92
        1
 93
        1
 72
     4
 94
        3
 73
     0
 74
     1
 95
       53
 96
       49
 40
0.0
 40
0.0
 40
0.0
 40
0.0
 40
1.0
 40
1.0
 40
1.0
 40
2.0
 40
2.0
 40
2.0
 40
3.0
 40
3.0
 40
3.0
 40
4.0
 40
4.0
 40
4.0
 40
5.0
 40
5.0
 40
5.0
 40
6.0
 40
6.0
 40
6.0
 40
7.0
 40
7.0
 40
7.0
 40
8.0
 40
8.0
 40
8.0
 40
9.0
 40
9.0
 40
9.0
 40
10.0
 40
10.0
 40
10.0
 40
11.0
 40
11.0
 40
11.0
 40
12.0
 40
12.0
 40
12.0
 40
13.0
 40
13.0
 40
13.0
 40
14.0
 40
14.0
 40
14.0
 40
15.0
 40
15.0
 40
15.0
 40
16.0
 40
16.0
 40
16.0
 40
16.0
 10
113.707443547962
 20
-165.6715412997279
 10
113.6292398804469
 20
-165.6715412997279
 10
113.527609563632
 20
-165.6546603318502
 10
113.4259792468171
 20
-165.5912705749216
 10
113.2526909439091
 20
-165.4813720289422
 10
113.2313313519005
 20
-165.3501138909541
 10
113.2123833267316
 20
-165.2422824022658
 10
113.2123833267316
 20
-165.2422824022658
 10
113.4345919855302
 20
-165.2422824022658
 10
113.4345919855302
 20
-165.2422824022658
 10
113.4893690037457
 20
-165.4410644117647
 10
113.6164930271514
 20
-165.4706922329379
 10
113.7095106052532
 20
-165.4706922329379
 10
113.8490369724058
 20
-165.4706922329379
 10
114.0013101928539
 20
-165.3711289734142
 10
114.0013101928539
 20
-165.1385850281598
 10
114.0013101928539
 20
-164.8826144336057
 10
113.8214762085238
 20
-164.8126789952552
 10
113.7008978665401
 20
-164.8126789952552
 10
113.6692029880758
 20
-164.8126789952552
 10
113.527609563632
 20
-164.8126789952552
 10
113.4387261001125
 20
-164.941870075952
 10
113.4387261001125
 20
-164.941870075952
 10
113.2630262303648
 20
-164.9229220507832
 10
113.2630262303648
 20
-164.9229220507832
 10
113.2630262303648
 20
-164.9229220507832
 10
113.3836045723485
 20
-164.0764620900573
 10
113.3836045723485
 20
-164.0764620900573
 10
113.3836045723485
 20
-164.0764620900573
 10
114.162196152015
 20
-164.0764620900573
 10
114.162196152015
 20
-164.0764620900573
 10
114.162196152015
 20
-164.0764620900573
 10
114.162196152015
 20
-164.2711099849739
 10
114.162196152015
 20
-164.2711099849739
 10
114.162196152015
 20
-164.2711099849739
 10
113.5465575888009
 20
-164.2711099849739
 10
113.5465575888009
 20
-164.2711099849739
 10
113.5465575888009
 20
-164.2711099849739
 10
113.4811007745811
 20
-164.6941677105626
 10
113.4811007745811
 20
-164.6941677105626
 10
113.5424234742186
 20
-164.6604057748071
 10
113.624761256316
 20
-164.6200981576297
 10
113.7432725410086
 20
-164.6200981576297
 10
113.9971760782716
 20
-164.6200981576297
 10
114.2341986476567
 20
-164.8064778233817
 10
114.2341986476567
 20
-165.1196370029909
 10
114.2341986476567
 20
-165.4369302971824
 10
114.009922931567
 20
-165.6715412997279
 10
113.707443547962
 20
-165.6715412997279
 97
        0
 97
        0
 75
     2
 76
     1
 98
        0
  0
ENDBLK
  5
15B
330
158
100
AcDbEntity
  8
0
100
AcDbBlockEnd
  0
BLOCK
  5
16F
330
16D
100
AcDbEntity
  8
0
100
AcDbBlockBegin
  2
block 5
 70
     0
 10
0.0
 20
0.0
 30
0.0
  3
block 5
  1

  0
SPLINE
  5
171
330
16D
100
AcDbEntity
  8
_U+30EC_U+30A4_U+30E4_U+30FC 1
370
     0
100
AcDbSpline
210
0.0
220
0.0
230
1.0
 70
    11
 71
     3
 72
    32
 73
    28
 74
     0
 42
0.0000000001
 43
0.0000000001
 12
1.0
 22
0.0
 32
0.0
 13
1.0
 23
0.0
 33
0.0
 40
0.0
 40
0.0
 40
0.0
 40
0.0
 40
1.0
 40
1.0
 40
1.0
 40
2.0
 40
2.0
 40
2.0
 40
3.0
 40
3.0
 40
3.0
 40
4.0
 40
4.0
 40
4.0
 40
5.0
 40
5.0
 40
5.0
 40
6.0
 40
6.0
 40
6.0
 40
7.0
 40
7.0
 40
7.0
 40
8.0
 40
8.0
 40
8.0
 40
9.0
 40
9.0
 40
9.0
 40
9.0
 10
98.86528317840869
 20
-161.6793646514205
 30
0.0
 10
98.69199487550061
 20
-161.6793646514205
 30
0.0
 10
98.4463595674023
 20
-161.6097737226184
 30
0.0
 10
98.40846351706456
 20
-161.2776665178403
 30
0.0
 10
98.40846351706456
 20
-161.2776665178403
 30
0.0
 10
98.62205943715004
 20
-161.2776665178403
 30
0.0
 10
98.62205943715004
 20
-161.2776665178403
 30
0.0
 10
98.63273923315433
 20
-161.3369221601866
 30
0.0
 10
98.66443411161862
 20
-161.4847167565038
 30
0.0
 10
98.86735023569983
 20
-161.4847167565038
 30
0.0
 10
99.15949433284902
 20
-161.4847167565038
 30
0.0
 10
99.19739038318677
 20
-161.1546766090169
 30
0.0
 10
99.2101372364822
 20
-160.9496934276445
 30
0.0
 10
99.1191867156716
 20
-161.0299641524508
 30
0.0
 10
99.0516628441607
 20
-161.087152737506
 30
0.0
 10
98.86976180253951
 20
-161.087152737506
 30
0.0
 10
98.68992781820947
 20
-161.087152737506
 30
0.0
 10
98.38710392505601
 20
-160.9813883061088
 30
0.0
 10
98.38710392505601
 20
-160.5752115483979
 30
0.0
 10
98.38710392505601
 20
-160.2558511969152
 30
0.0
 10
98.58623044410345
 20
-160.0357095954078
 30
0.0
 10
98.90352373829495
 20
-160.0357095954078
 30
0.0
 10
99.41753198469424
 20
-160.0357095954078
 30
0.0
 10
99.4282117806985
 20
-160.5900254589845
 30
0.0
 10
99.4282117806985
 20
-160.8036213790699
 30
0.0
 10
99.4282117806985
 20
-161.0340982670332
 30
0.0
 10
99.40891924598111
 20
-161.6793646514205
 30
0.0
 10
98.86528317840869
 20
-161.6793646514205
 30
0.0
  0
SPLINE
  5
172
330
16D
100
AcDbEntity
  8
_U+30EC_U+30A4_U+30E4_U+30FC 1
370
     0
100
AcDbSpline
210
0.0
220
0.0
230
1.0
 70
    11
 71
     3
 72
    17
 73
    13
 74
     0
 42
0.0000000001
 43
0.0000000001
 12
1.0
 22
0.0
 32
0.0
 13
1.0
 23
0.0
 33
0.0
 40
0.0
 40
0.0
 40
0.0
 40
0.0
 40
1.0
 40
1.0
 40
1.0
 40
2.0
 40
2.0
 40
2.0
 40
3.0
 40
3.0
 40
3.0
 40
4.0
 40
4.0
 40
4.0
 40
4.0
 10
98.90559079558611
 20
-160.2282904330332
 30
0.0
 10
98.7870795108935
 20
-160.2282904330332
 30
0.0
 10
98.61137964114577
 20
-160.2854790180884
 30
0.0
 10
98.61137964114577
 20
-160.5710774338156
 30
0.0
 10
98.61137964114577
 20
-160.7974202071965
 30
0.0
 10
98.75125051784691
 20
-160.8925048425894
 30
0.0
 10
98.88664277041724
 20
-160.8925048425894
 30
0.0
 10
99.14881453684474
 20
-160.8925048425894
 30
0.0
 10
99.18705509673102
 20
-160.6830430370862
 30
0.0
 10
99.18705509673102
 20
-160.5665988096847
 30
0.0
 10
99.18705509673102
 20
-160.3912434494855
 30
0.0
 10
99.0916259517896
 20
-160.2282904330332
 30
0.0
 10
98.90559079558611
 20
-160.2282904330332
 30
0.0
  0
HATCH
  5
173
330
16D
100
AcDbEntity
  8
_U+30EC_U+30A4_U+30E4_U+30FC 1
 62
   179
420
  2234388
100
AcDbHatch
 10
0.0
 20
0.0
 30
0.0
210
0.0
220
0.0
230
1.0
  2
SOLID
 70
     1
 71
     0
 91
        2
 92
        1
 93
        1
 72
     4
 94
        3
 73
     0
 74
     1
 95
       32
 96
       28
 40
0.0
 40
0.0
 40
0.0
 40
0.0
 40
1.0
 40
1.0
 40
1.0
 40
2.0
 40
2.0
 40
2.0
 40
3.0
 40
3.0
 40
3.0
 40
4.0
 40
4.0
 40
4.0
 40
5.0
 40
5.0
 40
5.0
 40
6.0
 40
6.0
 40
6.0
 40
7.0
 40
7.0
 40
7.0
 40
8.0
 40
8.0
 40
8.0
 40
9.0
 40
9.0
 40
9.0
 40
9.0
 10
98.86528317840869
 20
-161.6793646514205
 10
98.69199487550061
 20
-161.6793646514205
 10
98.4463595674023
 20
-161.6097737226184
 10
98.40846351706456
 20
-161.2776665178403
 10
98.40846351706456
 20
-161.2776665178403
 10
98.62205943715004
 20
-161.2776665178403
 10
98.62205943715004
 20
-161.2776665178403
 10
98.63273923315433
 20
-161.3369221601866
 10
98.66443411161862
 20
-161.4847167565038
 10
98.86735023569983
 20
-161.4847167565038
 10
99.15949433284902
 20
-161.4847167565038
 10
99.19739038318677
 20
-161.1546766090169
 10
99.2101372364822
 20
-160.9496934276445
 10
99.1191867156716
 20
-161.0299641524508
 10
99.0516628441607
 20
-161.087152737506
 10
98.86976180253951
 20
-161.087152737506
 10
98.68992781820947
 20
-161.087152737506
 10
98.38710392505601
 20
-160.9813883061088
 10
98.38710392505601
 20
-160.5752115483979
 10
98.38710392505601
 20
-160.2558511969152
 10
98.58623044410345
 20
-160.0357095954078
 10
98.90352373829495
 20
-160.0357095954078
 10
99.41753198469424
 20
-160.0357095954078
 10
99.4282117806985
 20
-160.5900254589845
 10
99.4282117806985
 20
-160.8036213790699
 10
99.4282117806985
 20
-161.0340982670332
 10
99.40891924598111
 20
-161.6793646514205
 10
98.86528317840869
 20
-161.6793646514205
 97
        0
 97
        0
 92
        1
 93
        1
 72
     4
 94
        3
 73
     0
 74
     1
 95
       17
 96
       13
 40
0.0
 40
0.0
 40
0.0
 40
0.0
 40
1.0
 40
1.0
 40
1.0
 40
2.0
 40
2.0
 40
2.0
 40
3.0
 40
3.0
 40
3.0
 40
4.0
 40
4.0
 40
4.0
 40
4.0
 10
98.90559079558611
 20
-160.2282904330332
 10
98.7870795108935
 20
-160.2282904330332
 10
98.61137964114577
 20
-160.2854790180884
 10
98.61137964114577
 20
-160.5710774338156
 10
98.61137964114577
 20
-160.7974202071965
 10
98.75125051784691
 20
-160.8925048425894
 10
98.88664277041724
 20
-160.8925048425894
 10
99.14881453684474
 20
-160.8925048425894
 10
99.18705509673102
 20
-160.6830430370862
 10
99.18705509673102
 20
-160.5665988096847
 10
99.18705509673102
 20
-160.3912434494855
 10
99.0916259517896
 20
-160.2282904330332
 10
98.90559079558611
 20
-160.2282904330332
 97
        0
 97
        0
 75
     2
 76
     1
 98
        0
  0
ENDBLK
  5
170
330
16D
100
AcDbEntity
  8
0
100
AcDbBlockEnd
  0
BLOCK
  5
18C
330
18A
100
AcDbEntity
  8
0
100
AcDbBlockBegin
  2
block 6
 70
     0
 10
0.0
 20
0.0
 30
0.0
  3
block 6
  1

  0
SPLINE
  5
18E
330
18A
100
AcDbEntity
  8
_U+30EC_U+30A4_U+30E4_U+30FC 1
370
     0
100
AcDbSpline
210
0.0
220
0.0
230
1.0
 70
    11
 71
     3
 72
    26
 73
    22
 74
     0
 42
0.0000000001
 43
0.0000000001
 12
1.0
 22
0.0
 32
0.0
 13
1.0
 23
0.0
 33
0.0
 40
0.0
 40
0.0
 40
0.0
 40
0.0
 40
1.0
 40
1.0
 40
1.0
 40
2.0
 40
2.0
 40
2.0
 40
3.0
 40
3.0
 40
3.0
 40
4.0
 40
4.0
 40
4.0
 40
5.0
 40
5.0
 40
5.0
 40
6.0
 40
6.0
 40
6.0
 40
7.0
 40
7.0
 40
7.0
 40
7.0
 10
100.6584553784812
 20
-165.6284776061623
 30
0.0
 10
100.6584553784812
 20
-165.6284776061623
 30
0.0
 10
100.6584553784812
 20
-164.5243245031398
 30
0.0
 10
100.6584553784812
 20
-164.5243245031398
 30
0.0
 10
100.6584553784812
 20
-164.5243245031398
 30
0.0
 10
100.3284152309943
 20
-164.5243245031398
 30
0.0
 10
100.3284152309943
 20
-164.5243245031398
 30
0.0
 10
100.3284152309943
 20
-164.5243245031398
 30
0.0
 10
100.3284152309943
 20
-164.376185397274
 30
0.0
 10
100.3284152309943
 20
-164.376185397274
 30
0.0
 10
100.6605224357724
 20
-164.3613714866874
 30
0.0
 10
100.7070312248232
 20
-164.1984184702351
 30
0.0
 10
100.7366590459964
 20
-164.0840413001248
 30
0.0
 10
100.7366590459964
 20
-164.0840413001248
 30
0.0
 10
100.882731094571
 20
-164.0840413001248
 30
0.0
 10
100.882731094571
 20
-164.0840413001248
 30
0.0
 10
100.882731094571
 20
-164.0840413001248
 30
0.0
 10
100.882731094571
 20
-165.6284776061623
 30
0.0
 10
100.882731094571
 20
-165.6284776061623
 30
0.0
 10
100.882731094571
 20
-165.6284776061623
 30
0.0
 10
100.6584553784812
 20
-165.6284776061623
 30
0.0
 10
100.6584553784812
 20
-165.6284776061623
 30
0.0
  0
HATCH
  5
18F
330
18A
100
AcDbEntity
  8
_U+30EC_U+30A4_U+30E4_U+30FC 1
 62
   179
420
  2234388
100
AcDbHatch
 10
0.0
 20
0.0
 30
0.0
210
0.0
220
0.0
230
1.0
  2
SOLID
 70
     1
 71
     0
 91
        1
 92
        1
 93
        1
 72
     4
 94
        3
 73
     0
 74
     1
 95
       26
 96
       22
 40
0.0
 40
0.0
 40
0.0
 40
0.0
 40
1.0
 40
1.0
 40
1.0
 40
2.0
 40
2.0
 40
2.0
 40
3.0
 40
3.0
 40
3.0
 40
4.0
 40
4.0
 40
4.0
 40
5.0
 40
5.0
 40
5.0
 40
6.0
 40
6.0
 40
6.0
 40
7.0
 40
7.0
 40
7.0
 40
7.0
 10
100.6584553784812
 20
-165.6284776061623
 10
100.6584553784812
 20
-165.6284776061623
 10
100.6584553784812
 20
-164.5243245031398
 10
100.6584553784812
 20
-164.5243245031398
 10
100.6584553784812
 20
-164.5243245031398
 10
100.3284152309943
 20
-164.5243245031398
 10
100.3284152309943
 20
-164.5243245031398
 10
100.3284152309943
 20
-164.5243245031398
 10
100.3284152309943
 20
-164.376185397274
 10
100.3284152309943
 20
-164.376185397274
 10
100.6605224357724
 20
-164.3613714866874
 10
100.7070312248232
 20
-164.1984184702351
 10
100.7366590459964
 20
-164.0840413001248
 10
100.7366590459964
 20
-164.0840413001248
 10
100.882731094571
 20
-164.0840413001248
 10
100.882731094571
 20
-164.0840413001248
 10
100.882731094571
 20
-164.0840413001248
 10
100.882731094571
 20
-165.6284776061623
 10
100.882731094571
 20
-165.6284776061623
 10
100.882731094571
 20
-165.6284776061623
 10
100.6584553784812
 20
-165.6284776061623
 10
100.6584553784812
 20
-165.6284776061623
 97
        0
 97
        0
 75
     2
 76
     1
 98
        0
  0
SPLINE
  5
190
330
18A
100
AcDbEntity
  8
_U+30EC_U+30A4_U+30E4_U+30FC 1
370
     0
100
AcDbSpline
210
0.0
220
0.0
230
1.0
 70
    11
 71
     3
 72
    26
 73
    22
 74
     0
 42
0.0000000001
 43
0.0000000001
 12
1.0
 22
0.0
 32
0.0
 13
1.0
 23
0.0
 33
0.0
 40
0.0
 40
0.0
 40
0.0
 40
0.0
 40
1.0
 40
1.0
 40
1.0
 40
2.0
 40
2.0
 40
2.0
 40
3.0
 40
3.0
 40
3.0
 40
4.0
 40
4.0
 40
4.0
 40
5.0
 40
5.0
 40
5.0
 40
6.0
 40
6.0
 40
6.0
 40
7.0
 40
7.0
 40
7.0
 40
7.0
 10
101.7949923790651
 20
-165.6284776061623
 30
0.0
 10
101.7949923790651
 20
-165.6284776061623
 30
0.0
 10
101.55796980968
 20
-165.6284776061623
 30
0.0
 10
101.55796980968
 20
-165.6284776061623
 30
0.0
 10
101.5834635162708
 20
-165.3194525411354
 30
0.0
 10
101.7760443538963
 20
-164.8013101801538
 30
0.0
 10
102.1822211116072
 20
-164.2955701629192
 30
0.0
 10
102.1822211116072
 20
-164.2955701629192
 30
0.0
 10
101.3443738895945
 20
-164.2955701629192
 30
0.0
 10
101.3443738895945
 20
-164.2955701629192
 30
0.0
 10
101.3443738895945
 20
-164.2955701629192
 30
0.0
 10
101.3443738895945
 20
-164.0840413001248
 30
0.0
 10
101.3443738895945
 20
-164.0840413001248
 30
0.0
 10
101.3443738895945
 20
-164.0840413001248
 30
0.0
 10
102.4192436809924
 20
-164.0840413001248
 30
0.0
 10
102.4192436809924
 20
-164.0840413001248
 30
0.0
 10
102.4192436809924
 20
-164.0840413001248
 30
0.0
 10
102.4192436809924
 20
-164.2955701629192
 30
0.0
 10
102.4192436809924
 20
-164.2955701629192
 30
0.0
 10
102.0954047053789
 20
-164.5856472027772
 30
0.0
 10
101.8287543148206
 20
-165.1778591166916
 30
0.0
 10
101.7949923790651
 20
-165.6284776061623
 30
0.0
  0
HATCH
  5
191
330
18A
100
AcDbEntity
  8
_U+30EC_U+30A4_U+30E4_U+30FC 1
 62
   179
420
  2234388
100
AcDbHatch
 10
0.0
 20
0.0
 30
0.0
210
0.0
220
0.0
230
1.0
  2
SOLID
 70
     1
 71
     0
 91
        1
 92
        1
 93
        1
 72
     4
 94
        3
 73
     0
 74
     1
 95
       26
 96
       22
 40
0.0
 40
0.0
 40
0.0
 40
0.0
 40
1.0
 40
1.0
 40
1.0
 40
2.0
 40
2.0
 40
2.0
 40
3.0
 40
3.0
 40
3.0
 40
4.0
 40
4.0
 40
4.0
 40
5.0
 40
5.0
 40
5.0
 40
6.0
 40
6.0
 40
6.0
 40
7.0
 40
7.0
 40
7.0
 40
7.0
 10
101.7949923790651
 20
-165.6284776061623
 10
101.7949923790651
 20
-165.6284776061623
 10
101.55796980968
 20
-165.6284776061623
 10
101.55796980968
 20
-165.6284776061623
 10
101.5834635162708
 20
-165.3194525411354
 10
101.7760443538963
 20
-164.8013101801538
 10
102.1822211116072
 20
-164.2955701629192
 10
102.1822211116072
 20
-164.2955701629192
 10
101.3443738895945
 20
-164.2955701629192
 10
101.3443738895945
 20
-164.2955701629192
 10
101.3443738895945
 20
-164.2955701629192
 10
101.3443738895945
 20
-164.0840413001248
 10
101.3443738895945
 20
-164.0840413001248
 10
101.3443738895945
 20
-164.0840413001248
 10
102.4192436809924
 20
-164.0840413001248
 10
102.4192436809924
 20
-164.0840413001248
 10
102.4192436809924
 20
-164.0840413001248
 10
102.4192436809924
 20
-164.2955701629192
 10
102.4192436809924
 20
-164.2955701629192
 10
102.0954047053789
 20
-164.5856472027772
 10
101.8287543148206
 20
-165.1778591166916
 10
101.7949923790651
 20
-165.6284776061623
 97
        0
 97
        0
 75
     2
 76
     1
 98
        0
  0
POLYLINE
  5
192
330
18A
100
AcDbEntity
  8
_U+30EC_U+30A4_U+30E4_U+30FC 1
370
     0
100
AcDb2dPolyline
 66
     1
 10
0.0
 20
0.0
 30
0.0
  0
VERTEX
  5
193
330
192
100
AcDbEntity
  8
_U+30EC_U+30A4_U+30E4_U+30FC 1
370
     0
100
AcDbVertex
100
AcDb2dVertex
 10
102.6207817668795
 20
-165.6284776061623
 30
0.0
  0
VERTEX
  5
194
330
192
100
AcDbEntity
  8
_U+30EC_U+30A4_U+30E4_U+30FC 1
370
     0
100
AcDbVertex
100
AcDb2dVertex
 10
102.6207817668795
 20
-165.3766411261906
 30
0.0
  0
VERTEX
  5
195
330
192
100
AcDbEntity
  8
_U+30EC_U+30A4_U+30E4_U+30FC 1
370
     0
100
AcDbVertex
100
AcDb2dVertex
 10
102.8726182468513
 20
-165.3766411261906
 30
0.0
  0
VERTEX
  5
196
330
192
100
AcDbEntity
  8
_U+30EC_U+30A4_U+30E4_U+30FC 1
370
     0
100
AcDbVertex
100
AcDb2dVertex
 10
102.8726182468513
 20
-165.6284776061623
 30
0.0
  0
VERTEX
  5
197
330
192
100
AcDbEntity
  8
_U+30EC_U+30A4_U+30E4_U+30FC 1
370
     0
100
AcDbVertex
100
AcDb2dVertex
 10
102.6207817668795
 20
-165.6284776061623
 30
0.0
  0
SEQEND
  5
198
330
192
100
AcDbEntity
  8
_U+30EC_U+30A4_U+30E4_U+30FC 1
370
     0
  0
HATCH
  5
199
330
18A
100
AcDbEntity
  8
_U+30EC_U+30A4_U+30E4_U+30FC 1
 62
   179
420
  2234388
100
AcDbHatch
 10
0.0
 20
0.0
 30
0.0
210
0.0
220
0.0
230
1.0
  2
SOLID
 70
     1
 71
     0
 91
        1
 92
        1
 93
        4
 72
     1
 10
102.6207817668795
 20
-165.6284776061623
 11
102.6207817668795
 21
-165.3766411261906
 72
     1
 10
102.6207817668795
 20
-165.3766411261906
 11
102.8726182468513
 21
-165.3766411261906
 72
     1
 10
102.8726182468513
 20
-165.3766411261906
 11
102.8726182468513
 21
-165.6284776061623
 72
     1
 10
102.8726182468513
 20
-165.6284776061623
 11
102.6207817668795
 21
-165.6284776061623
 97
        0
 75
     2
 76
     1
 98
        0
  0
SPLINE
  5
19A
330
18A
100
AcDbEntity
  8
_U+30EC_U+30A4_U+30E4_U+30FC 1
370
     0
100
AcDbSpline
210
0.0
220
0.0
230
1.0
 70
    11
 71
     3
 72
    53
 73
    49
 74
     0
 42
0.0000000001
 43
0.0000000001
 12
1.0
 22
0.0
 32
0.0
 13
1.0
 23
0.0
 33
0.0
 40
0.0
 40
0.0
 40
0.0
 40
0.0
 40
1.0
 40
1.0
 40
1.0
 40
2.0
 40
2.0
 40
2.0
 40
3.0
 40
3.0
 40
3.0
 40
4.0
 40
4.0
 40
4.0
 40
5.0
 40
5.0
 40
5.0
 40
6.0
 40
6.0
 40
6.0
 40
7.0
 40
7.0
 40
7.0
 40
8.0
 40
8.0
 40
8.0
 40
9.0
 40
9.0
 40
9.0
 40
10.0
 40
10.0
 40
10.0
 40
11.0
 40
11.0
 40
11.0
 40
12.0
 40
12.0
 40
12.0
 40
13.0
 40
13.0
 40
13.0
 40
14.0
 40
14.0
 40
14.0
 40
15.0
 40
15.0
 40
15.0
 40
16.0
 40
16.0
 40
16.0
 40
16.0
 10
103.5898871268803
 20
-165.6791205097955
 30
0.0
 10
103.5116834593651
 20
-165.6791205097955
 30
0.0
 10
103.4100531425503
 20
-165.6622395419178
 30
0.0
 10
103.3084228257354
 20
-165.5988497849892
 30
0.0
 10
103.1351345228273
 20
-165.4889512390097
 30
0.0
 10
103.1137749308188
 20
-165.3576931010217
 30
0.0
 10
103.0948269056499
 20
-165.2498616123334
 30
0.0
 10
103.0948269056499
 20
-165.2498616123334
 30
0.0
 10
103.3170355644485
 20
-165.2498616123334
 30
0.0
 10
103.3170355644485
 20
-165.2498616123334
 30
0.0
 10
103.371812582664
 20
-165.4486436218323
 30
0.0
 10
103.4989366060697
 20
-165.4782714430054
 30
0.0
 10
103.5919541841715
 20
-165.4782714430054
 30
0.0
 10
103.7314805513241
 20
-165.4782714430054
 30
0.0
 10
103.8837537717721
 20
-165.3787081834817
 30
0.0
 10
103.8837537717721
 20
-165.1461642382274
 30
0.0
 10
103.8837537717721
 20
-164.8901936436733
 30
0.0
 10
103.7039197874421
 20
-164.8202582053227
 30
0.0
 10
103.5833414454583
 20
-164.8202582053227
 30
0.0
 10
103.551646566994
 20
-164.8202582053227
 30
0.0
 10
103.4100531425503
 20
-164.8202582053227
 30
0.0
 10
103.3211696790308
 20
-164.9494492860196
 30
0.0
 10
103.3211696790308
 20
-164.9494492860196
 30
0.0
 10
103.1454698092831
 20
-164.9305012608507
 30
0.0
 10
103.1454698092831
 20
-164.9305012608507
 30
0.0
 10
103.1454698092831
 20
-164.9305012608507
 30
0.0
 10
103.2660481512668
 20
-164.0840413001248
 30
0.0
 10
103.2660481512668
 20
-164.0840413001248
 30
0.0
 10
103.2660481512668
 20
-164.0840413001248
 30
0.0
 10
104.0446397309333
 20
-164.0840413001248
 30
0.0
 10
104.0446397309333
 20
-164.0840413001248
 30
0.0
 10
104.0446397309333
 20
-164.0840413001248
 30
0.0
 10
104.0446397309333
 20
-164.2786891950414
 30
0.0
 10
104.0446397309333
 20
-164.2786891950414
 30
0.0
 10
104.0446397309333
 20
-164.2786891950414
 30
0.0
 10
103.4290011677192
 20
-164.2786891950414
 30
0.0
 10
103.4290011677192
 20
-164.2786891950414
 30
0.0
 10
103.4290011677192
 20
-164.2786891950414
 30
0.0
 10
103.3635443534994
 20
-164.7017469206301
 30
0.0
 10
103.3635443534994
 20
-164.7017469206301
 30
0.0
 10
103.4248670531369
 20
-164.6679849848747
 30
0.0
 10
103.5072048352343
 20
-164.6276773676973
 30
0.0
 10
103.6257161199269
 20
-164.6276773676973
 30
0.0
 10
103.8796196571898
 20
-164.6276773676973
 30
0.0
 10
104.116642226575
 20
-164.8140570334493
 30
0.0
 10
104.116642226575
 20
-165.1272162130585
 30
0.0
 10
104.116642226575
 20
-165.44450950725
 30
0.0
 10
103.8923665104852
 20
-165.6791205097955
 30
0.0
 10
103.5898871268803
 20
-165.6791205097955
 30
0.0
  0
HATCH
  5
19B
330
18A
100
AcDbEntity
  8
_U+30EC_U+30A4_U+30E4_U+30FC 1
 62
   179
420
  2234388
100
AcDbHatch
 10
0.0
 20
0.0
 30
0.0
210
0.0
220
0.0
230
1.0
  2
SOLID
 70
     1
 71
     0
 91
        1
 92
        1
 93
        1
 72
     4
 94
        3
 73
     0
 74
     1
 95
       53
 96
       49
 40
0.0
 40
0.0
 40
0.0
 40
0.0
 40
1.0
 40
1.0
 40
1.0
 40
2.0
 40
2.0
 40
2.0
 40
3.0
 40
3.0
 40
3.0
 40
4.0
 40
4.0
 40
4.0
 40
5.0
 40
5.0
 40
5.0
 40
6.0
 40
6.0
 40
6.0
 40
7.0
 40
7.0
 40
7.0
 40
8.0
 40
8.0
 40
8.0
 40
9.0
 40
9.0
 40
9.0
 40
10.0
 40
10.0
 40
10.0
 40
11.0
 40
11.0
 40
11.0
 40
12.0
 40
12.0
 40
12.0
 40
13.0
 40
13.0
 40
13.0
 40
14.0
 40
14.0
 40
14.0
 40
15.0
 40
15.0
 40
15.0
 40
16.0
 40
16.0
 40
16.0
 40
16.0
 10
103.5898871268803
 20
-165.6791205097955
 10
103.5116834593651
 20
-165.6791205097955
 10
103.4100531425503
 20
-165.6622395419178
 10
103.3084228257354
 20
-165.5988497849892
 10
103.1351345228273
 20
-165.4889512390097
 10
103.1137749308188
 20
-165.3576931010217
 10
103.0948269056499
 20
-165.2498616123334
 10
103.0948269056499
 20
-165.2498616123334
 10
103.3170355644485
 20
-165.2498616123334
 10
103.3170355644485
 20
-165.2498616123334
 10
103.371812582664
 20
-165.4486436218323
 10
103.4989366060697
 20
-165.4782714430054
 10
103.5919541841715
 20
-165.4782714430054
 10
103.7314805513241
 20
-165.4782714430054
 10
103.8837537717721
 20
-165.3787081834817
 10
103.8837537717721
 20
-165.1461642382274
 10
103.8837537717721
 20
-164.8901936436733
 10
103.7039197874421
 20
-164.8202582053227
 10
103.5833414454583
 20
-164.8202582053227
 10
103.551646566994
 20
-164.8202582053227
 10
103.4100531425503
 20
-164.8202582053227
 10
103.3211696790308
 20
-164.9494492860196
 10
103.3211696790308
 20
-164.9494492860196
 10
103.1454698092831
 20
-164.9305012608507
 10
103.1454698092831
 20
-164.9305012608507
 10
103.1454698092831
 20
-164.9305012608507
 10
103.2660481512668
 20
-164.0840413001248
 10
103.2660481512668
 20
-164.0840413001248
 10
103.2660481512668
 20
-164.0840413001248
 10
104.0446397309333
 20
-164.0840413001248
 10
104.0446397309333
 20
-164.0840413001248
 10
104.0446397309333
 20
-164.0840413001248
 10
104.0446397309333
 20
-164.2786891950414
 10
104.0446397309333
 20
-164.2786891950414
 10
104.0446397309333
 20
-164.2786891950414
 10
103.4290011677192
 20
-164.2786891950414
 10
103.4290011677192
 20
-164.2786891950414
 10
103.4290011677192
 20
-164.2786891950414
 10
103.3635443534994
 20
-164.7017469206301
 10
103.3635443534994
 20
-164.7017469206301
 10
103.4248670531369
 20
-164.6679849848747
 10
103.5072048352343
 20
-164.6276773676973
 10
103.6257161199269
 20
-164.6276773676973
 10
103.8796196571898
 20
-164.6276773676973
 10
104.116642226575
 20
-164.8140570334493
 10
104.116642226575
 20
-165.1272162130585
 10
104.116642226575
 20
-165.44450950725
 10
103.8923665104852
 20
-165.6791205097955
 10
103.5898871268803
 20
-165.6791205097955
 97
        0
 97
        0
 75
     2
 76
     1
 98
        0
  0
ENDBLK
  5
18D
330
18A
100
AcDbEntity
  8
0
100
AcDbBlockEnd
  0
BLOCK
  5
1AD
330
1AB
100
AcDbEntity
  8
0
100
AcDbBlockBegin
  2
block 7
 70
     0
 10
0.0
 20
0.0
 30
0.0
  3
block 7
  1

  0
SPLINE
  5
1AF
330
1AB
100
AcDbEntity
  8
_U+30EC_U+30A4_U+30E4_U+30FC 1
370
     0
100
AcDbSpline
210
0.0
220
0.0
230
1.0
 70
    11
 71
     3
 72
    26
 73
    22
 74
     0
 42
0.0000000001
 43
0.0000000001
 12
1.0
 22
0.0
 32
0.0
 13
1.0
 23
0.0
 33
0.0
 40
0.0
 40
0.0
 40
0.0
 40
0.0
 40
1.0
 40
1.0
 40
1.0
 40
2.0
 40
2.0
 40
2.0
 40
3.0
 40
3.0
 40
3.0
 40
4.0
 40
4.0
 40
4.0
 40
5.0
 40
5.0
 40
5.0
 40
6.0
 40
6.0
 40
6.0
 40
7.0
 40
7.0
 40
7.0
 40
7.0
 10
107.770510498231
 20
-136.6285250852005
 30
0.0
 10
107.770510498231
 20
-136.6285250852005
 30
0.0
 10
107.770510498231
 20
-135.5243719821779
 30
0.0
 10
107.770510498231
 20
-135.5243719821779
 30
0.0
 10
107.770510498231
 20
-135.5243719821779
 30
0.0
 10
107.4404703507441
 20
-135.5243719821779
 30
0.0
 10
107.4404703507441
 20
-135.5243719821779
 30
0.0
 10
107.4404703507441
 20
-135.5243719821779
 30
0.0
 10
107.4404703507441
 20
-135.3762328763122
 30
0.0
 10
107.4404703507441
 20
-135.3762328763122
 30
0.0
 10
107.7725775555221
 20
-135.3614189657256
 30
0.0
 10
107.819086344573
 20
-135.1984659492733
 30
0.0
 10
107.8487141657462
 20
-135.084088779163
 30
0.0
 10
107.8487141657462
 20
-135.084088779163
 30
0.0
 10
107.9947862143208
 20
-135.084088779163
 30
0.0
 10
107.9947862143208
 20
-135.084088779163
 30
0.0
 10
107.9947862143208
 20
-135.084088779163
 30
0.0
 10
107.9947862143208
 20
-136.6285250852005
 30
0.0
 10
107.9947862143208
 20
-136.6285250852005
 30
0.0
 10
107.9947862143208
 20
-136.6285250852005
 30
0.0
 10
107.770510498231
 20
-136.6285250852005
 30
0.0
 10
107.770510498231
 20
-136.6285250852005
 30
0.0
  0
HATCH
  5
1B0
330
1AB
100
AcDbEntity
  8
_U+30EC_U+30A4_U+30E4_U+30FC 1
 62
   179
420
  2234388
100
AcDbHatch
 10
0.0
 20
0.0
 30
0.0
210
0.0
220
0.0
230
1.0
  2
SOLID
 70
     1
 71
     0
 91
        1
 92
        1
 93
        1
 72
     4
 94
        3
 73
     0
 74
     1
 95
       26
 96
       22
 40
0.0
 40
0.0
 40
0.0
 40
0.0
 40
1.0
 40
1.0
 40
1.0
 40
2.0
 40
2.0
 40
2.0
 40
3.0
 40
3.0
 40
3.0
 40
4.0
 40
4.0
 40
4.0
 40
5.0
 40
5.0
 40
5.0
 40
6.0
 40
6.0
 40
6.0
 40
7.0
 40
7.0
 40
7.0
 40
7.0
 10
107.770510498231
 20
-136.6285250852005
 10
107.770510498231
 20
-136.6285250852005
 10
107.770510498231
 20
-135.5243719821779
 10
107.770510498231
 20
-135.5243719821779
 10
107.770510498231
 20
-135.5243719821779
 10
107.4404703507441
 20
-135.5243719821779
 10
107.4404703507441
 20
-135.5243719821779
 10
107.4404703507441
 20
-135.5243719821779
 10
107.4404703507441
 20
-135.3762328763122
 10
107.4404703507441
 20
-135.3762328763122
 10
107.7725775555221
 20
-135.3614189657256
 10
107.819086344573
 20
-135.1984659492733
 10
107.8487141657462
 20
-135.084088779163
 10
107.8487141657462
 20
-135.084088779163
 10
107.9947862143208
 20
-135.084088779163
 10
107.9947862143208
 20
-135.084088779163
 10
107.9947862143208
 20
-135.084088779163
 10
107.9947862143208
 20
-136.6285250852005
 10
107.9947862143208
 20
-136.6285250852005
 10
107.9947862143208
 20
-136.6285250852005
 10
107.770510498231
 20
-136.6285250852005
 10
107.770510498231
 20
-136.6285250852005
 97
        0
 97
        0
 75
     2
 76
     1
 98
        0
  0
SPLINE
  5
1B1
330
1AB
100
AcDbEntity
  8
_U+30EC_U+30A4_U+30E4_U+30FC 1
370
     0
100
AcDbSpline
210
0.0
220
0.0
230
1.0
 70
    11
 71
     3
 72
    53
 73
    49
 74
     0
 42
0.0000000001
 43
0.0000000001
 12
1.0
 22
0.0
 32
0.0
 13
1.0
 23
0.0
 33
0.0
 40
0.0
 40
0.0
 40
0.0
 40
0.0
 40
1.0
 40
1.0
 40
1.0
 40
2.0
 40
2.0
 40
2.0
 40
3.0
 40
3.0
 40
3.0
 40
4.0
 40
4.0
 40
4.0
 40
5.0
 40
5.0
 40
5.0
 40
6.0
 40
6.0
 40
6.0
 40
7.0
 40
7.0
 40
7.0
 40
8.0
 40
8.0
 40
8.0
 40
9.0
 40
9.0
 40
9.0
 40
10.0
 40
10.0
 40
10.0
 40
11.0
 40
11.0
 40
11.0
 40
12.0
 40
12.0
 40
12.0
 40
13.0
 40
13.0
 40
13.0
 40
14.0
 40
14.0
 40
14.0
 40
15.0
 40
15.0
 40
15.0
 40
16.0
 40
16.0
 40
16.0
 40
16.0
 10
108.9769829371655
 20
-136.6791679888337
 30
0.0
 10
108.8987792696503
 20
-136.6791679888337
 30
0.0
 10
108.7971489528354
 20
-136.662287020956
 30
0.0
 10
108.6955186360206
 20
-136.5988972640274
 30
0.0
 10
108.5222303331125
 20
-136.4889987180479
 30
0.0
 10
108.500870741104
 20
-136.3577405800599
 30
0.0
 10
108.4819227159351
 20
-136.2499090913716
 30
0.0
 10
108.4819227159351
 20
-136.2499090913716
 30
0.0
 10
108.7041313747337
 20
-136.2499090913716
 30
0.0
 10
108.7041313747337
 20
-136.2499090913716
 30
0.0
 10
108.7589083929492
 20
-136.4486911008705
 30
0.0
 10
108.8860324163549
 20
-136.4783189220436
 30
0.0
 10
108.9790499944566
 20
-136.4783189220436
 30
0.0
 10
109.1185763616092
 20
-136.4783189220436
 30
0.0
 10
109.2708495820573
 20
-136.3787556625199
 30
0.0
 10
109.2708495820573
 20
-136.1462117172655
 30
0.0
 10
109.2708495820573
 20
-135.8902411227115
 30
0.0
 10
109.0910155977272
 20
-135.8203056843609
 30
0.0
 10
108.9704372557435
 20
-135.8203056843609
 30
0.0
 10
108.9387423772792
 20
-135.8203056843609
 30
0.0
 10
108.7971489528354
 20
-135.8203056843609
 30
0.0
 10
108.708265489316
 20
-135.9494967650578
 30
0.0
 10
108.708265489316
 20
-135.9494967650578
 30
0.0
 10
108.5325656195682
 20
-135.9305487398889
 30
0.0
 10
108.5325656195682
 20
-135.9305487398889
 30
0.0
 10
108.5325656195682
 20
-135.9305487398889
 30
0.0
 10
108.653143961552
 20
-135.084088779163
 30
0.0
 10
108.653143961552
 20
-135.084088779163
 30
0.0
 10
108.653143961552
 20
-135.084088779163
 30
0.0
 10
109.4317355412185
 20
-135.084088779163
 30
0.0
 10
109.4317355412185
 20
-135.084088779163
 30
0.0
 10
109.4317355412185
 20
-135.084088779163
 30
0.0
 10
109.4317355412185
 20
-135.2787366740796
 30
0.0
 10
109.4317355412185
 20
-135.2787366740796
 30
0.0
 10
109.4317355412185
 20
-135.2787366740796
 30
0.0
 10
108.8160969780043
 20
-135.2787366740796
 30
0.0
 10
108.8160969780043
 20
-135.2787366740796
 30
0.0
 10
108.8160969780043
 20
-135.2787366740796
 30
0.0
 10
108.7506401637846
 20
-135.7017943996683
 30
0.0
 10
108.7506401637846
 20
-135.7017943996683
 30
0.0
 10
108.811962863422
 20
-135.6680324639129
 30
0.0
 10
108.8943006455195
 20
-135.6277248467354
 30
0.0
 10
109.0128119302121
 20
-135.6277248467354
 30
0.0
 10
109.266715467475
 20
-135.6277248467354
 30
0.0
 10
109.5037380368602
 20
-135.8141045124875
 30
0.0
 10
109.5037380368602
 20
-136.1272636920967
 30
0.0
 10
109.5037380368602
 20
-136.4445569862882
 30
0.0
 10
109.2794623207704
 20
-136.6791679888337
 30
0.0
 10
108.9769829371655
 20
-136.6791679888337
 30
0.0
  0
HATCH
  5
1B2
330
1AB
100
AcDbEntity
  8
_U+30EC_U+30A4_U+30E4_U+30FC 1
 62
   179
420
  2234388
100
AcDbHatch
 10
0.0
 20
0.0
 30
0.0
210
0.0
220
0.0
230
1.0
  2
SOLID
 70
     1
 71
     0
 91
        1
 92
        1
 93
        1
 72
     4
 94
        3
 73
     0
 74
     1
 95
       53
 96
       49
 40
0.0
 40
0.0
 40
0.0
 40
0.0
 40
1.0
 40
1.0
 40
1.0
 40
2.0
 40
2.0
 40
2.0
 40
3.0
 40
3.0
 40
3.0
 40
4.0
 40
4.0
 40
4.0
 40
5.0
 40
5.0
 40
5.0
 40
6.0
 40
6.0
 40
6.0
 40
7.0
 40
7.0
 40
7.0
 40
8.0
 40
8.0
 40
8.0
 40
9.0
 40
9.0
 40
9.0
 40
10.0
 40
10.0
 40
10.0
 40
11.0
 40
11.0
 40
11.0
 40
12.0
 40
12.0
 40
12.0
 40
13.0
 40
13.0
 40
13.0
 40
14.0
 40
14.0
 40
14.0
 40
15.0
 40
15.0
 40
15.0
 40
16.0
 40
16.0
 40
16.0
 40
16.0
 10
108.9769829371655
 20
-136.6791679888337
 10
108.8987792696503
 20
-136.6791679888337
 10
108.7971489528354
 20
-136.662287020956
 10
108.6955186360206
 20
-136.5988972640274
 10
108.5222303331125
 20
-136.4889987180479
 10
108.500870741104
 20
-136.3577405800599
 10
108.4819227159351
 20
-136.2499090913716
 10
108.4819227159351
 20
-136.2499090913716
 10
108.7041313747337
 20
-136.2499090913716
 10
108.7041313747337
 20
-136.2499090913716
 10
108.7589083929492
 20
-136.4486911008705
 10
108.8860324163549
 20
-136.4783189220436
 10
108.9790499944566
 20
-136.4783189220436
 10
109.1185763616092
 20
-136.4783189220436
 10
109.2708495820573
 20
-136.3787556625199
 10
109.2708495820573
 20
-136.1462117172655
 10
109.2708495820573
 20
-135.8902411227115
 10
109.0910155977272
 20
-135.8203056843609
 10
108.9704372557435
 20
-135.8203056843609
 10
108.9387423772792
 20
-135.8203056843609
 10
108.7971489528354
 20
-135.8203056843609
 10
108.708265489316
 20
-135.9494967650578
 10
108.708265489316
 20
-135.9494967650578
 10
108.5325656195682
 20
-135.9305487398889
 10
108.5325656195682
 20
-135.9305487398889
 10
108.5325656195682
 20
-135.9305487398889
 10
108.653143961552
 20
-135.084088779163
 10
108.653143961552
 20
-135.084088779163
 10
108.653143961552
 20
-135.084088779163
 10
109.4317355412185
 20
-135.084088779163
 10
109.4317355412185
 20
-135.084088779163
 10
109.4317355412185
 20
-135.084088779163
 10
109.4317355412185
 20
-135.2787366740796
 10
109.4317355412185
 20
-135.2787366740796
 10
109.4317355412185
 20
-135.2787366740796
 10
108.8160969780043
 20
-135.2787366740796
 10
108.8160969780043
 20
-135.2787366740796
 10
108.8160969780043
 20
-135.2787366740796
 10
108.7506401637846
 20
-135.7017943996683
 10
108.7506401637846
 20
-135.7017943996683
 10
108.811962863422
 20
-135.6680324639129
 10
108.8943006455195
 20
-135.6277248467354
 10
109.0128119302121
 20
-135.6277248467354
 10
109.266715467475
 20
-135.6277248467354
 10
109.5037380368602
 20
-135.8141045124875
 10
109.5037380368602
 20
-136.1272636920967
 10
109.5037380368602
 20
-136.4445569862882
 10
109.2794623207704
 20
-136.6791679888337
 10
108.9769829371655
 20
-136.6791679888337
 97
        0
 97
        0
 75
     2
 76
     1
 98
        0
  0
ENDBLK
  5
1AE
330
1AB
100
AcDbEntity
  8
0
100
AcDbBlockEnd
  0
BLOCK
  5
1B5
330
1B3
100
AcDbEntity
  8
0
100
AcDbBlockBegin
  2
block 8
 70
     0
 10
0.0
 20
0.0
 30
0.0
  3
block 8
  1

  0
SPLINE
  5
1B7
330
1B3
100
AcDbEntity
  8
_U+30EC_U+30A4_U+30E4_U+30FC 1
370
     0
100
AcDbSpline
210
0.0
220
0.0
230
1.0
 70
    11
 71
     3
 72
    26
 73
    22
 74
     0
 42
0.0000000001
 43
0.0000000001
 12
1.0
 22
0.0
 32
0.0
 13
1.0
 23
0.0
 33
0.0
 40
0.0
 40
0.0
 40
0.0
 40
0.0
 40
1.0
 40
1.0
 40
1.0
 40
2.0
 40
2.0
 40
2.0
 40
3.0
 40
3.0
 40
3.0
 40
4.0
 40
4.0
 40
4.0
 40
5.0
 40
5.0
 40
5.0
 40
6.0
 40
6.0
 40
6.0
 40
7.0
 40
7.0
 40
7.0
 40
7.0
 10
95.67822534500407
 20
-151.709602826656
 30
0.0
 10
95.67822534500407
 20
-151.709602826656
 30
0.0
 10
95.67822534500407
 20
-150.6054497236334
 30
0.0
 10
95.67822534500407
 20
-150.6054497236334
 30
0.0
 10
95.67822534500407
 20
-150.6054497236334
 30
0.0
 10
95.34818519751713
 20
-150.6054497236334
 30
0.0
 10
95.34818519751713
 20
-150.6054497236334
 30
0.0
 10
95.34818519751713
 20
-150.6054497236334
 30
0.0
 10
95.34818519751713
 20
-150.4573106177676
 30
0.0
 10
95.34818519751713
 20
-150.4573106177676
 30
0.0
 10
95.68029240229521
 20
-150.442496707181
 30
0.0
 10
95.72680119134608
 20
-150.2795436907287
 30
0.0
 10
95.75642901251923
 20
-150.1651665206184
 30
0.0
 10
95.75642901251923
 20
-150.1651665206184
 30
0.0
 10
95.90250106109383
 20
-150.1651665206184
 30
0.0
 10
95.90250106109383
 20
-150.1651665206184
 30
0.0
 10
95.90250106109383
 20
-150.1651665206184
 30
0.0
 10
95.90250106109383
 20
-151.709602826656
 30
0.0
 10
95.90250106109383
 20
-151.709602826656
 30
0.0
 10
95.90250106109383
 20
-151.709602826656
 30
0.0
 10
95.67822534500407
 20
-151.709602826656
 30
0.0
 10
95.67822534500407
 20
-151.709602826656
 30
0.0
  0
HATCH
  5
1B8
330
1B3
100
AcDbEntity
  8
_U+30EC_U+30A4_U+30E4_U+30FC 1
 62
   179
420
  2234388
100
AcDbHatch
 10
0.0
 20
0.0
 30
0.0
210
0.0
220
0.0
230
1.0
  2
SOLID
 70
     1
 71
     0
 91
        1
 92
        1
 93
        1
 72
     4
 94
        3
 73
     0
 74
     1
 95
       26
 96
       22
 40
0.0
 40
0.0
 40
0.0
 40
0.0
 40
1.0
 40
1.0
 40
1.0
 40
2.0
 40
2.0
 40
2.0
 40
3.0
 40
3.0
 40
3.0
 40
4.0
 40
4.0
 40
4.0
 40
5.0
 40
5.0
 40
5.0
 40
6.0
 40
6.0
 40
6.0
 40
7.0
 40
7.0
 40
7.0
 40
7.0
 10
95.67822534500407
 20
-151.709602826656
 10
95.67822534500407
 20
-151.709602826656
 10
95.67822534500407
 20
-150.6054497236334
 10
95.67822534500407
 20
-150.6054497236334
 10
95.67822534500407
 20
-150.6054497236334
 10
95.34818519751713
 20
-150.6054497236334
 10
95.34818519751713
 20
-150.6054497236334
 10
95.34818519751713
 20
-150.6054497236334
 10
95.34818519751713
 20
-150.4573106177676
 10
95.34818519751713
 20
-150.4573106177676
 10
95.68029240229521
 20
-150.442496707181
 10
95.72680119134608
 20
-150.2795436907287
 10
95.75642901251923
 20
-150.1651665206184
 10
95.75642901251923
 20
-150.1651665206184
 10
95.90250106109383
 20
-150.1651665206184
 10
95.90250106109383
 20
-150.1651665206184
 10
95.90250106109383
 20
-150.1651665206184
 10
95.90250106109383
 20
-151.709602826656
 10
95.90250106109383
 20
-151.709602826656
 10
95.90250106109383
 20
-151.709602826656
 10
95.67822534500407
 20
-151.709602826656
 10
95.67822534500407
 20
-151.709602826656
 97
        0
 97
        0
 75
     2
 76
     1
 98
        0
  0
POLYLINE
  5
1B9
330
1B3
100
AcDbEntity
  8
_U+30EC_U+30A4_U+30E4_U+30FC 1
370
     0
100
AcDb2dPolyline
 66
     1
 10
0.0
 20
0.0
 30
0.0
  0
VERTEX
  5
1BA
330
1B9
100
AcDbEntity
  8
_U+30EC_U+30A4_U+30E4_U+30FC 1
370
     0
100
AcDbVertex
100
AcDb2dVertex
 10
96.46370711564103
 20
-151.709602826656
 30
0.0
  0
VERTEX
  5
1BB
330
1B9
100
AcDbEntity
  8
_U+30EC_U+30A4_U+30E4_U+30FC 1
370
     0
100
AcDbVertex
100
AcDb2dVertex
 10
96.46370711564103
 20
-151.4577663466842
 30
0.0
  0
VERTEX
  5
1BC
330
1B9
100
AcDbEntity
  8
_U+30EC_U+30A4_U+30E4_U+30FC 1
370
     0
100
AcDbVertex
100
AcDb2dVertex
 10
96.71554359561279
 20
-151.4577663466842
 30
0.0
  0
VERTEX
  5
1BD
330
1B9
100
AcDbEntity
  8
_U+30EC_U+30A4_U+30E4_U+30FC 1
370
     0
100
AcDbVertex
100
AcDb2dVertex
 10
96.71554359561279
 20
-151.709602826656
 30
0.0
  0
VERTEX
  5
1BE
330
1B9
100
AcDbEntity
  8
_U+30EC_U+30A4_U+30E4_U+30FC 1
370
     0
100
AcDbVertex
100
AcDb2dVertex
 10
96.46370711564103
 20
-151.709602826656
 30
0.0
  0
SEQEND
  5
1BF
330
1B9
100
AcDbEntity
  8
_U+30EC_U+30A4_U+30E4_U+30FC 1
370
     0
  0
HATCH
  5
1C0
330
1B3
100
AcDbEntity
  8
_U+30EC_U+30A4_U+30E4_U+30FC 1
 62
   179
420
  2234388
100
AcDbHatch
 10
0.0
 20
0.0
 30
0.0
210
0.0
220
0.0
230
1.0
  2
SOLID
 70
     1
 71
     0
 91
        1
 92
        1
 93
        4
 72
     1
 10
96.46370711564103
 20
-151.709602826656
 11
96.46370711564103
 21
-151.4577663466842
 72
     1
 10
96.46370711564103
 20
-151.4577663466842
 11
96.71554359561279
 21
-151.4577663466842
 72
     1
 10
96.71554359561279
 20
-151.4577663466842
 11
96.71554359561279
 21
-151.709602826656
 72
     1
 10
96.71554359561279
 20
-151.709602826656
 11
96.46370711564103
 21
-151.709602826656
 97
        0
 75
     2
 76
     1
 98
        0
  0
SPLINE
  5
1C1
330
1B3
100
AcDbEntity
  8
_U+30EC_U+30A4_U+30E4_U+30FC 1
370
     0
100
AcDbSpline
210
0.0
220
0.0
230
1.0
 70
    11
 71
     3
 72
    53
 73
    49
 74
     0
 42
0.0000000001
 43
0.0000000001
 12
1.0
 22
0.0
 32
0.0
 13
1.0
 23
0.0
 33
0.0
 40
0.0
 40
0.0
 40
0.0
 40
0.0
 40
1.0
 40
1.0
 40
1.0
 40
2.0
 40
2.0
 40
2.0
 40
3.0
 40
3.0
 40
3.0
 40
4.0
 40
4.0
 40
4.0
 40
5.0
 40
5.0
 40
5.0
 40
6.0
 40
6.0
 40
6.0
 40
7.0
 40
7.0
 40
7.0
 40
8.0
 40
8.0
 40
8.0
 40
9.0
 40
9.0
 40
9.0
 40
10.0
 40
10.0
 40
10.0
 40
11.0
 40
11.0
 40
11.0
 40
12.0
 40
12.0
 40
12.0
 40
13.0
 40
13.0
 40
13.0
 40
14.0
 40
14.0
 40
14.0
 40
15.0
 40
15.0
 40
15.0
 40
16.0
 40
16.0
 40
16.0
 40
16.0
 10
97.4328124756418
 20
-151.7602457302891
 30
0.0
 10
97.35460880812663
 20
-151.7602457302891
 30
0.0
 10
97.25297849131177
 20
-151.7433647624114
 30
0.0
 10
97.15134817449689
 20
-151.6799750054828
 30
0.0
 10
96.97805987158883
 20
-151.5700764595033
 30
0.0
 10
96.95670027958028
 20
-151.4388183215153
 30
0.0
 10
96.9377522544114
 20
-151.330986832827
 30
0.0
 10
96.9377522544114
 20
-151.330986832827
 30
0.0
 10
97.15996091321001
 20
-151.330986832827
 30
0.0
 10
97.15996091321001
 20
-151.330986832827
 30
0.0
 10
97.21473793142549
 20
-151.5297688423259
 30
0.0
 10
97.3418619548312
 20
-151.5593966634991
 30
0.0
 10
97.43487953293295
 20
-151.5593966634991
 30
0.0
 10
97.57440590008557
 20
-151.5593966634991
 30
0.0
 10
97.72667912053362
 20
-151.4598334039753
 30
0.0
 10
97.72667912053362
 20
-151.227289458721
 30
0.0
 10
97.72667912053362
 20
-150.9713188641669
 30
0.0
 10
97.54684513620357
 20
-150.9013834258163
 30
0.0
 10
97.42626679421983
 20
-150.9013834258163
 30
0.0
 10
97.39457191575553
 20
-150.9013834258163
 30
0.0
 10
97.25297849131177
 20
-150.9013834258163
 30
0.0
 10
97.16409502779231
 20
-151.0305745065132
 30
0.0
 10
97.16409502779231
 20
-151.0305745065132
 30
0.0
 10
96.98839515804457
 20
-151.0116264813443
 30
0.0
 10
96.98839515804457
 20
-151.0116264813443
 30
0.0
 10
96.98839515804457
 20
-151.0116264813443
 30
0.0
 10
97.10897350002831
 20
-150.1651665206184
 30
0.0
 10
97.10897350002831
 20
-150.1651665206184
 30
0.0
 10
97.10897350002831
 20
-150.1651665206184
 30
0.0
 10
97.88756507969478
 20
-150.1651665206184
 30
0.0
 10
97.88756507969478
 20
-150.1651665206184
 30
0.0
 10
97.88756507969478
 20
-150.1651665206184
 30
0.0
 10
97.88756507969478
 20
-150.3598144155351
 30
0.0
 10
97.88756507969478
 20
-150.3598144155351
 30
0.0
 10
97.88756507969478
 20
-150.3598144155351
 30
0.0
 10
97.27192651648063
 20
-150.3598144155351
 30
0.0
 10
97.27192651648063
 20
-150.3598144155351
 30
0.0
 10
97.27192651648063
 20
-150.3598144155351
 30
0.0
 10
97.20646970226089
 20
-150.7828721411237
 30
0.0
 10
97.20646970226089
 20
-150.7828721411237
 30
0.0
 10
97.26779240189833
 20
-150.7491102053683
 30
0.0
 10
97.3501301839958
 20
-150.7088025881908
 30
0.0
 10
97.4686414686884
 20
-150.7088025881908
 30
0.0
 10
97.72254500595132
 20
-150.7088025881908
 30
0.0
 10
97.95956757533651
 20
-150.8951822539429
 30
0.0
 10
97.95956757533651
 20
-151.2083414335521
 30
0.0
 10
97.95956757533651
 20
-151.5256347277436
 30
0.0
 10
97.73529185924674
 20
-151.7602457302891
 30
0.0
 10
97.4328124756418
 20
-151.7602457302891
 30
0.0
  0
HATCH
  5
1C2
330
1B3
100
AcDbEntity
  8
_U+30EC_U+30A4_U+30E4_U+30FC 1
 62
   179
420
  2234388
100
AcDbHatch
 10
0.0
 20
0.0
 30
0.0
210
0.0
220
0.0
230
1.0
  2
SOLID
 70
     1
 71
     0
 91
        1
 92
        1
 93
        1
 72
     4
 94
        3
 73
     0
 74
     1
 95
       53
 96
       49
 40
0.0
 40
0.0
 40
0.0
 40
0.0
 40
1.0
 40
1.0
 40
1.0
 40
2.0
 40
2.0
 40
2.0
 40
3.0
 40
3.0
 40
3.0
 40
4.0
 40
4.0
 40
4.0
 40
5.0
 40
5.0
 40
5.0
 40
6.0
 40
6.0
 40
6.0
 40
7.0
 40
7.0
 40
7.0
 40
8.0
 40
8.0
 40
8.0
 40
9.0
 40
9.0
 40
9.0
 40
10.0
 40
10.0
 40
10.0
 40
11.0
 40
11.0
 40
11.0
 40
12.0
 40
12.0
 40
12.0
 40
13.0
 40
13.0
 40
13.0
 40
14.0
 40
14.0
 40
14.0
 40
15.0
 40
15.0
 40
15.0
 40
16.0
 40
16.0
 40
16.0
 40
16.0
 10
97.4328124756418
 20
-151.7602457302891
 10
97.35460880812663
 20
-151.7602457302891
 10
97.25297849131177
 20
-151.7433647624114
 10
97.15134817449689
 20
-151.6799750054828
 10
96.97805987158883
 20
-151.5700764595033
 10
96.95670027958028
 20
-151.4388183215153
 10
96.9377522544114
 20
-151.330986832827
 10
96.9377522544114
 20
-151.330986832827
 10
97.15996091321001
 20
-151.330986832827
 10
97.15996091321001
 20
-151.330986832827
 10
97.21473793142549
 20
-151.5297688423259
 10
97.3418619548312
 20
-151.5593966634991
 10
97.43487953293295
 20
-151.5593966634991
 10
97.57440590008557
 20
-151.5593966634991
 10
97.72667912053362
 20
-151.4598334039753
 10
97.72667912053362
 20
-151.227289458721
 10
97.72667912053362
 20
-150.9713188641669
 10
97.54684513620357
 20
-150.9013834258163
 10
97.42626679421983
 20
-150.9013834258163
 10
97.39457191575553
 20
-150.9013834258163
 10
97.25297849131177
 20
-150.9013834258163
 10
97.16409502779231
 20
-151.0305745065132
 10
97.16409502779231
 20
-151.0305745065132
 10
96.98839515804457
 20
-151.0116264813443
 10
96.98839515804457
 20
-151.0116264813443
 10
96.98839515804457
 20
-151.0116264813443
 10
97.10897350002831
 20
-150.1651665206184
 10
97.10897350002831
 20
-150.1651665206184
 10
97.10897350002831
 20
-150.1651665206184
 10
97.88756507969478
 20
-150.1651665206184
 10
97.88756507969478
 20
-150.1651665206184
 10
97.88756507969478
 20
-150.1651665206184
 10
97.88756507969478
 20
-150.3598144155351
 10
97.88756507969478
 20
-150.3598144155351
 10
97.88756507969478
 20
-150.3598144155351
 10
97.27192651648063
 20
-150.3598144155351
 10
97.27192651648063
 20
-150.3598144155351
 10
97.27192651648063
 20
-150.3598144155351
 10
97.20646970226089
 20
-150.7828721411237
 10
97.20646970226089
 20
-150.7828721411237
 10
97.26779240189833
 20
-150.7491102053683
 10
97.3501301839958
 20
-150.7088025881908
 10
97.4686414686884
 20
-150.7088025881908
 10
97.72254500595132
 20
-150.7088025881908
 10
97.95956757533651
 20
-150.8951822539429
 10
97.95956757533651
 20
-151.2083414335521
 10
97.95956757533651
 20
-151.5256347277436
 10
97.73529185924674
 20
-151.7602457302891
 10
97.4328124756418
 20
-151.7602457302891
 97
        0
 97
        0
 75
     2
 76
     1
 98
        0
  0
ENDBLK
  5
1B6
330
1B3
100
AcDbEntity
  8
0
100
AcDbBlockEnd
  0
BLOCK
  5
1D8
330
1D6
100
AcDbEntity
  8
0
100
AcDbBlockBegin
  2
block 9
 70
     0
 10
0.0
 20
0.0
 30
0.0
  3
block 9
  1

  0
SPLINE
  5
1DA
330
1D6
100
AcDbEntity
  8
_U+30EC_U+30A4_U+30E4_U+30FC 1
370
     0
100
AcDbSpline
210
0.0
220
0.0
230
1.0
 70
    11
 71
     3
 72
    62
 73
    58
 74
     0
 42
0.0000000001
 43
0.0000000001
 12
1.0
 22
0.0
 32
0.0
 13
1.0
 23
0.0
 33
0.0
 40
0.0
 40
0.0
 40
0.0
 40
0.0
 40
1.0
 40
1.0
 40
1.0
 40
2.0
 40
2.0
 40
2.0
 40
3.0
 40
3.0
 40
3.0
 40
4.0
 40
4.0
 40
4.0
 40
5.0
 40
5.0
 40
5.0
 40
6.0
 40
6.0
 40
6.0
 40
7.0
 40
7.0
 40
7.0
 40
8.0
 40
8.0
 40
8.0
 40
9.0
 40
9.0
 40
9.0
 40
10.0
 40
10.0
 40
10.0
 40
11.0
 40
11.0
 40
11.0
 40
12.0
 40
12.0
 40
12.0
 40
13.0
 40
13.0
 40
13.0
 40
14.0
 40
14.0
 40
14.0
 40
15.0
 40
15.0
 40
15.0
 40
16.0
 40
16.0
 40
16.0
 40
17.0
 40
17.0
 40
17.0
 40
18.0
 40
18.0
 40
18.0
 40
19.0
 40
19.0
 40
19.0
 40
19.0
 10
118.8802544190647
 20
-139.3723713844277
 30
0.0
 10
118.8802544190647
 20
-139.4678005293692
 30
0.0
 10
118.8592393366046
 20
-139.685530564037
 30
0.0
 10
118.6732041804011
 20
-139.8105875301515
 30
0.0
 10
118.560894067582
 20
-139.8846570830844
 30
0.0
 10
118.4616753176068
 20
-139.8887911976667
 30
0.0
 10
118.3769259686697
 20
-139.892925312249
 30
0.0
 10
118.3769259686697
 20
-139.892925312249
 30
0.0
 10
118.3769259686697
 20
-139.6727837107415
 30
0.0
 10
118.3769259686697
 20
-139.6727837107415
 30
0.0
 10
118.4509955216025
 20
-139.6707166534504
 30
0.0
 10
118.685606524148
 20
-139.6603813669946
 30
0.0
 10
118.685606524148
 20
-139.3768500085586
 30
0.0
 10
118.685606524148
 20
-139.2393906986971
 30
0.0
 10
118.616015595346
 20
-139.0867729687005
 30
0.0
 10
118.3876057646739
 20
-139.0867729687005
 30
0.0
 10
118.2711615372725
 20
-139.0867729687005
 30
0.0
 10
118.2225856909305
 20
-139.1250135285868
 30
0.0
 10
118.1908908124662
 20
-139.1567084070511
 30
0.0
 10
118.1168212595333
 20
-139.230777959984
 30
0.0
 10
118.1040744062379
 20
-139.3472221873854
 30
0.0
 10
118.1040744062379
 20
-139.4019992056009
 30
0.0
 10
118.1040744062379
 20
-139.4212917403183
 30
0.0
 10
118.106141463529
 20
-139.4571207333649
 30
0.0
 10
118.1102755781113
 20
-139.4846814972469
 30
0.0
 10
118.1102755781113
 20
-139.4846814972469
 30
0.0
 10
117.9156276831947
 20
-139.4846814972469
 30
0.0
 10
117.9156276831947
 20
-139.4846814972469
 30
0.0
 10
117.9221733646167
 20
-139.4464409373606
 30
0.0
 10
117.9242404219078
 20
-139.4044107724406
 30
0.0
 10
117.9242404219078
 20
-139.3978650910186
 30
0.0
 10
117.9242404219078
 20
-139.3324082767988
 30
0.0
 10
117.9028808298993
 20
-139.1336262672999
 30
0.0
 10
117.6662027700626
 20
-139.1336262672999
 30
0.0
 10
117.4884358430237
 20
-139.1336262672999
 30
0.0
 10
117.4333143152597
 20
-139.2645398957394
 30
0.0
 10
117.4333143152597
 20
-139.3747829512674
 30
0.0
 10
117.4333143152597
 20
-139.6390217749861
 30
0.0
 10
117.6662027700626
 20
-139.6476345136992
 30
0.0
 10
117.7378607561558
 20
-139.6517686282815
 30
0.0
 10
117.7378607561558
 20
-139.6517686282815
 30
0.0
 10
117.7378607561558
 20
-139.8550292619113
 30
0.0
 10
117.7378607561558
 20
-139.8550292619113
 30
0.0
 10
117.6131482995898
 20
-139.8464165231981
 30
0.0
 10
117.236599363052
 20
-139.8188557593161
 30
0.0
 10
117.236599363052
 20
-139.362036097972
 30
0.0
 10
117.236599363052
 20
-139.1377603818822
 30
0.0
 10
117.3637233864577
 20
-138.8966036979147
 30
0.0
 10
117.6596570886406
 20
-138.8966036979147
 30
0.0
 10
117.8460367543927
 20
-138.8966036979147
 30
0.0
 10
117.9283745364901
 20
-138.9916883333076
 30
0.0
 10
117.9896972361276
 20
-139.0912515928314
 30
0.0
 10
118.0172580000096
 20
-139.0299288931939
 30
0.0
 10
118.0975287248159
 20
-138.8480278515727
 30
0.0
 10
118.3748589113785
 20
-138.8480278515727
 30
0.0
 10
118.71316728803
 20
-138.8480278515727
 30
0.0
 10
118.8802544190647
 20
-139.0953857074137
 30
0.0
 10
118.8802544190647
 20
-139.3723713844277
 30
0.0
  0
HATCH
  5
1DB
330
1D6
100
AcDbEntity
  8
_U+30EC_U+30A4_U+30E4_U+30FC 1
 62
   179
420
  2234388
100
AcDbHatch
 10
0.0
 20
0.0
 30
0.0
210
0.0
220
0.0
230
1.0
  2
SOLID
 70
     1
 71
     0
 91
        1
 92
        1
 93
        1
 72
     4
 94
        3
 73
     0
 74
     1
 95
       62
 96
       58
 40
0.0
 40
0.0
 40
0.0
 40
0.0
 40
1.0
 40
1.0
 40
1.0
 40
2.0
 40
2.0
 40
2.0
 40
3.0
 40
3.0
 40
3.0
 40
4.0
 40
4.0
 40
4.0
 40
5.0
 40
5.0
 40
5.0
 40
6.0
 40
6.0
 40
6.0
 40
7.0
 40
7.0
 40
7.0
 40
8.0
 40
8.0
 40
8.0
 40
9.0
 40
9.0
 40
9.0
 40
10.0
 40
10.0
 40
10.0
 40
11.0
 40
11.0
 40
11.0
 40
12.0
 40
12.0
 40
12.0
 40
13.0
 40
13.0
 40
13.0
 40
14.0
 40
14.0
 40
14.0
 40
15.0
 40
15.0
 40
15.0
 40
16.0
 40
16.0
 40
16.0
 40
17.0
 40
17.0
 40
17.0
 40
18.0
 40
18.0
 40
18.0
 40
19.0
 40
19.0
 40
19.0
 40
19.0
 10
118.8802544190647
 20
-139.3723713844277
 10
118.8802544190647
 20
-139.4678005293692
 10
118.8592393366046
 20
-139.685530564037
 10
118.6732041804011
 20
-139.8105875301515
 10
118.560894067582
 20
-139.8846570830844
 10
118.4616753176068
 20
-139.8887911976667
 10
118.3769259686697
 20
-139.892925312249
 10
118.3769259686697
 20
-139.892925312249
 10
118.3769259686697
 20
-139.6727837107415
 10
118.3769259686697
 20
-139.6727837107415
 10
118.4509955216025
 20
-139.6707166534504
 10
118.685606524148
 20
-139.6603813669946
 10
118.685606524148
 20
-139.3768500085586
 10
118.685606524148
 20
-139.2393906986971
 10
118.616015595346
 20
-139.0867729687005
 10
118.3876057646739
 20
-139.0867729687005
 10
118.2711615372725
 20
-139.0867729687005
 10
118.2225856909305
 20
-139.1250135285868
 10
118.1908908124662
 20
-139.1567084070511
 10
118.1168212595333
 20
-139.230777959984
 10
118.1040744062379
 20
-139.3472221873854
 10
118.1040744062379
 20
-139.4019992056009
 10
118.1040744062379
 20
-139.4212917403183
 10
118.106141463529
 20
-139.4571207333649
 10
118.1102755781113
 20
-139.4846814972469
 10
118.1102755781113
 20
-139.4846814972469
 10
117.9156276831947
 20
-139.4846814972469
 10
117.9156276831947
 20
-139.4846814972469
 10
117.9221733646167
 20
-139.4464409373606
 10
117.9242404219078
 20
-139.4044107724406
 10
117.9242404219078
 20
-139.3978650910186
 10
117.9242404219078
 20
-139.3324082767988
 10
117.9028808298993
 20
-139.1336262672999
 10
117.6662027700626
 20
-139.1336262672999
 10
117.4884358430237
 20
-139.1336262672999
 10
117.4333143152597
 20
-139.2645398957394
 10
117.4333143152597
 20
-139.3747829512674
 10
117.4333143152597
 20
-139.6390217749861
 10
117.6662027700626
 20
-139.6476345136992
 10
117.7378607561558
 20
-139.6517686282815
 10
117.7378607561558
 20
-139.6517686282815
 10
117.7378607561558
 20
-139.8550292619113
 10
117.7378607561558
 20
-139.8550292619113
 10
117.6131482995898
 20
-139.8464165231981
 10
117.236599363052
 20
-139.8188557593161
 10
117.236599363052
 20
-139.362036097972
 10
117.236599363052
 20
-139.1377603818822
 10
117.3637233864577
 20
-138.8966036979147
 10
117.6596570886406
 20
-138.8966036979147
 10
117.8460367543927
 20
-138.8966036979147
 10
117.9283745364901
 20
-138.9916883333076
 10
117.9896972361276
 20
-139.0912515928314
 10
118.0172580000096
 20
-139.0299288931939
 10
118.0975287248159
 20
-138.8480278515727
 10
118.3748589113785
 20
-138.8480278515727
 10
118.71316728803
 20
-138.8480278515727
 10
118.8802544190647
 20
-139.0953857074137
 10
118.8802544190647
 20
-139.3723713844277
 97
        0
 97
        0
 75
     2
 76
     1
 98
        0
  0
POLYLINE
  5
1DC
330
1D6
100
AcDbEntity
  8
_U+30EC_U+30A4_U+30E4_U+30FC 1
370
     0
100
AcDb2dPolyline
 66
     1
 10
0.0
 20
0.0
 30
0.0
  0
VERTEX
  5
1DD
330
1DC
100
AcDbEntity
  8
_U+30EC_U+30A4_U+30E4_U+30FC 1
370
     0
100
AcDbVertex
100
AcDb2dVertex
 10
118.8296115154315
 20
-138.6271972309682
 30
0.0
  0
VERTEX
  5
1DE
330
1DC
100
AcDbEntity
  8
_U+30EC_U+30A4_U+30E4_U+30FC 1
370
     0
100
AcDbVertex
100
AcDb2dVertex
 10
118.5777750354597
 20
-138.6271972309682
 30
0.0
  0
VERTEX
  5
1DF
330
1DC
100
AcDbEntity
  8
_U+30EC_U+30A4_U+30E4_U+30FC 1
370
     0
100
AcDbVertex
100
AcDb2dVertex
 10
118.5777750354597
 20
-138.3753607509964
 30
0.0
  0
VERTEX
  5
1E0
330
1DC
100
AcDbEntity
  8
_U+30EC_U+30A4_U+30E4_U+30FC 1
370
     0
100
AcDbVertex
100
AcDb2dVertex
 10
118.8296115154315
 20
-138.3753607509964
 30
0.0
  0
VERTEX
  5
1E1
330
1DC
100
AcDbEntity
  8
_U+30EC_U+30A4_U+30E4_U+30FC 1
370
     0
100
AcDbVertex
100
AcDb2dVertex
 10
118.8296115154315
 20
-138.6271972309682
 30
0.0
  0
SEQEND
  5
1E2
330
1DC
100
AcDbEntity
  8
_U+30EC_U+30A4_U+30E4_U+30FC 1
370
     0
  0
HATCH
  5
1E3
330
1D6
100
AcDbEntity
  8
_U+30EC_U+30A4_U+30E4_U+30FC 1
 62
   179
420
  2234388
100
AcDbHatch
 10
0.0
 20
0.0
 30
0.0
210
0.0
220
0.0
230
1.0
  2
SOLID
 70
     1
 71
     0
 91
        1
 92
        1
 93
        4
 72
     1
 10
118.8296115154315
 20
-138.6271972309682
 11
118.5777750354597
 21
-138.6271972309682
 72
     1
 10
118.5777750354597
 20
-138.6271972309682
 11
118.5777750354597
 21
-138.3753607509964
 72
     1
 10
118.5777750354597
 20
-138.3753607509964
 11
118.8296115154315
 21
-138.3753607509964
 72
     1
 10
118.8296115154315
 20
-138.3753607509964
 11
118.8296115154315
 21
-138.6271972309682
 97
        0
 75
     2
 76
     1
 98
        0
  0
SPLINE
  5
1E4
330
1D6
100
AcDbEntity
  8
_U+30EC_U+30A4_U+30E4_U+30FC 1
370
     0
100
AcDbSpline
210
0.0
220
0.0
230
1.0
 70
    11
 71
     3
 72
    53
 73
    49
 74
     0
 42
0.0000000001
 43
0.0000000001
 12
1.0
 22
0.0
 32
0.0
 13
1.0
 23
0.0
 33
0.0
 40
0.0
 40
0.0
 40
0.0
 40
0.0
 40
1.0
 40
1.0
 40
1.0
 40
2.0
 40
2.0
 40
2.0
 40
3.0
 40
3.0
 40
3.0
 40
4.0
 40
4.0
 40
4.0
 40
5.0
 40
5.0
 40
5.0
 40
6.0
 40
6.0
 40
6.0
 40
7.0
 40
7.0
 40
7.0
 40
8.0
 40
8.0
 40
8.0
 40
9.0
 40
9.0
 40
9.0
 40
10.0
 40
10.0
 40
10.0
 40
11.0
 40
11.0
 40
11.0
 40
12.0
 40
12.0
 40
12.0
 40
13.0
 40
13.0
 40
13.0
 40
14.0
 40
14.0
 40
14.0
 40
15.0
 40
15.0
 40
15.0
 40
16.0
 40
16.0
 40
16.0
 40
16.0
 10
118.8802544190647
 20
-137.6580918709674
 30
0.0
 10
118.8802544190647
 20
-137.7362955384826
 30
0.0
 10
118.8633734511869
 20
-137.8379258552975
 30
0.0
 10
118.7999836942583
 20
-137.9395561721123
 30
0.0
 10
118.6900851482789
 20
-138.1128444750204
 30
0.0
 10
118.5588270102909
 20
-138.1342040670289
 30
0.0
 10
118.4509955216025
 20
-138.1531520921978
 30
0.0
 10
118.4509955216025
 20
-138.1531520921978
 30
0.0
 10
118.4509955216025
 20
-137.9309434333992
 30
0.0
 10
118.4509955216025
 20
-137.9309434333992
 30
0.0
 10
118.6497775311014
 20
-137.8761664151837
 30
0.0
 10
118.6794053522746
 20
-137.749042391778
 30
0.0
 10
118.6794053522746
 20
-137.6560248136763
 30
0.0
 10
118.6794053522746
 20
-137.5164984465237
 30
0.0
 10
118.5798420927509
 20
-137.3642252260756
 30
0.0
 10
118.3472981474965
 20
-137.3642252260756
 30
0.0
 10
118.0913275529424
 20
-137.3642252260756
 30
0.0
 10
118.0213921145919
 20
-137.5440592104057
 30
0.0
 10
118.0213921145919
 20
-137.6646375523894
 30
0.0
 10
118.0213921145919
 20
-137.6963324308537
 30
0.0
 10
118.0213921145919
 20
-137.8379258552975
 30
0.0
 10
118.1505831952887
 20
-137.9268093188169
 30
0.0
 10
118.1505831952887
 20
-137.9268093188169
 30
0.0
 10
118.1316351701199
 20
-138.1025091885647
 30
0.0
 10
118.1316351701199
 20
-138.1025091885647
 30
0.0
 10
118.1316351701199
 20
-138.1025091885647
 30
0.0
 10
117.285175209394
 20
-137.9819308465809
 30
0.0
 10
117.285175209394
 20
-137.9819308465809
 30
0.0
 10
117.285175209394
 20
-137.9819308465809
 30
0.0
 10
117.285175209394
 20
-137.2033392669144
 30
0.0
 10
117.285175209394
 20
-137.2033392669144
 30
0.0
 10
117.285175209394
 20
-137.2033392669144
 30
0.0
 10
117.4798231043106
 20
-137.2033392669144
 30
0.0
 10
117.4798231043106
 20
-137.2033392669144
 30
0.0
 10
117.4798231043106
 20
-137.2033392669144
 30
0.0
 10
117.4798231043106
 20
-137.8189778301286
 30
0.0
 10
117.4798231043106
 20
-137.8189778301286
 30
0.0
 10
117.4798231043106
 20
-137.8189778301286
 30
0.0
 10
117.9028808298993
 20
-137.8844346443483
 30
0.0
 10
117.9028808298993
 20
-137.8844346443483
 30
0.0
 10
117.8691188941438
 20
-137.8231119447109
 30
0.0
 10
117.8288112769664
 20
-137.7407741626134
 30
0.0
 10
117.8288112769664
 20
-137.6222628779208
 30
0.0
 10
117.8288112769664
 20
-137.3683593406579
 30
0.0
 10
118.0151909427184
 20
-137.1313367712727
 30
0.0
 10
118.3283501223276
 20
-137.1313367712727
 30
0.0
 10
118.6456434165191
 20
-137.1313367712727
 30
0.0
 10
118.8802544190647
 20
-137.3556124873625
 30
0.0
 10
118.8802544190647
 20
-137.6580918709674
 30
0.0
  0
HATCH
  5
1E5
330
1D6
100
AcDbEntity
  8
_U+30EC_U+30A4_U+30E4_U+30FC 1
 62
   179
420
  2234388
100
AcDbHatch
 10
0.0
 20
0.0
 30
0.0
210
0.0
220
0.0
230
1.0
  2
SOLID
 70
     1
 71
     0
 91
        1
 92
        1
 93
        1
 72
     4
 94
        3
 73
     0
 74
     1
 95
       53
 96
       49
 40
0.0
 40
0.0
 40
0.0
 40
0.0
 40
1.0
 40
1.0
 40
1.0
 40
2.0
 40
2.0
 40
2.0
 40
3.0
 40
3.0
 40
3.0
 40
4.0
 40
4.0
 40
4.0
 40
5.0
 40
5.0
 40
5.0
 40
6.0
 40
6.0
 40
6.0
 40
7.0
 40
7.0
 40
7.0
 40
8.0
 40
8.0
 40
8.0
 40
9.0
 40
9.0
 40
9.0
 40
10.0
 40
10.0
 40
10.0
 40
11.0
 40
11.0
 40
11.0
 40
12.0
 40
12.0
 40
12.0
 40
13.0
 40
13.0
 40
13.0
 40
14.0
 40
14.0
 40
14.0
 40
15.0
 40
15.0
 40
15.0
 40
16.0
 40
16.0
 40
16.0
 40
16.0
 10
118.8802544190647
 20
-137.6580918709674
 10
118.8802544190647
 20
-137.7362955384826
 10
118.8633734511869
 20
-137.8379258552975
 10
118.7999836942583
 20
-137.9395561721123
 10
118.6900851482789
 20
-138.1128444750204
 10
118.5588270102909
 20
-138.1342040670289
 10
118.4509955216025
 20
-138.1531520921978
 10
118.4509955216025
 20
-138.1531520921978
 10
118.4509955216025
 20
-137.9309434333992
 10
118.4509955216025
 20
-137.9309434333992
 10
118.6497775311014
 20
-137.8761664151837
 10
118.6794053522746
 20
-137.749042391778
 10
118.6794053522746
 20
-137.6560248136763
 10
118.6794053522746
 20
-137.5164984465237
 10
118.5798420927509
 20
-137.3642252260756
 10
118.3472981474965
 20
-137.3642252260756
 10
118.0913275529424
 20
-137.3642252260756
 10
118.0213921145919
 20
-137.5440592104057
 10
118.0213921145919
 20
-137.6646375523894
 10
118.0213921145919
 20
-137.6963324308537
 10
118.0213921145919
 20
-137.8379258552975
 10
118.1505831952887
 20
-137.9268093188169
 10
118.1505831952887
 20
-137.9268093188169
 10
118.1316351701199
 20
-138.1025091885647
 10
118.1316351701199
 20
-138.1025091885647
 10
118.1316351701199
 20
-138.1025091885647
 10
117.285175209394
 20
-137.9819308465809
 10
117.285175209394
 20
-137.9819308465809
 10
117.285175209394
 20
-137.9819308465809
 10
117.285175209394
 20
-137.2033392669144
 10
117.285175209394
 20
-137.2033392669144
 10
117.285175209394
 20
-137.2033392669144
 10
117.4798231043106
 20
-137.2033392669144
 10
117.4798231043106
 20
-137.2033392669144
 10
117.4798231043106
 20
-137.2033392669144
 10
117.4798231043106
 20
-137.8189778301286
 10
117.4798231043106
 20
-137.8189778301286
 10
117.4798231043106
 20
-137.8189778301286
 10
117.9028808298993
 20
-137.8844346443483
 10
117.9028808298993
 20
-137.8844346443483
 10
117.8691188941438
 20
-137.8231119447109
 10
117.8288112769664
 20
-137.7407741626134
 10
117.8288112769664
 20
-137.6222628779208
 10
117.8288112769664
 20
-137.3683593406579
 10
118.0151909427184
 20
-137.1313367712727
 10
118.3283501223276
 20
-137.1313367712727
 10
118.6456434165191
 20
-137.1313367712727
 10
118.8802544190647
 20
-137.3556124873625
 10
118.8802544190647
 20
-137.6580918709674
 97
        0
 97
        0
 75
     2
 76
     1
 98
        0
  0
ENDBLK
  5
1D9
330
1D6
100
AcDbEntity
  8
0
100
AcDbBlockEnd
  0
BLOCK
  5
1FB
330
1F9
100
AcDbEntity
  8
0
100
AcDbBlockBegin
  2
block 10
 70
     0
 10
0.0
 20
0.0
 30
0.0
  3
block 10
  1

  0
SPLINE
  5
1FD
330
1F9
100
AcDbEntity
  8
_U+30EC_U+30A4_U+30E4_U+30FC 1
370
     0
100
AcDbSpline
210
0.0
220
0.0
230
1.0
 70
    11
 71
     3
 72
    44
 73
    40
 74
     0
 42
0.0000000001
 43
0.0000000001
 12
1.0
 22
0.0
 32
0.0
 13
1.0
 23
0.0
 33
0.0
 40
0.0
 40
0.0
 40
0.0
 40
0.0
 40
1.0
 40
1.0
 40
1.0
 40
2.0
 40
2.0
 40
2.0
 40
3.0
 40
3.0
 40
3.0
 40
4.0
 40
4.0
 40
4.0
 40
5.0
 40
5.0
 40
5.0
 40
6.0
 40
6.0
 40
6.0
 40
7.0
 40
7.0
 40
7.0
 40
8.0
 40
8.0
 40
8.0
 40
9.0
 40
9.0
 40
9.0
 40
10.0
 40
10.0
 40
10.0
 40
11.0
 40
11.0
 40
11.0
 40
12.0
 40
12.0
 40
12.0
 40
13.0
 40
13.0
 40
13.0
 40
13.0
 10
89.86479896841922
 20
-161.7716932104251
 30
0.0
 10
90.02361787028924
 20
-161.9894232450929
 30
0.0
 10
90.09768742322211
 20
-162.0824408231947
 30
0.0
 10
90.24134790495702
 20
-162.1313611790852
 30
0.0
 10
90.24134790495702
 20
-162.1313611790852
 30
0.0
 10
90.24134790495702
 20
-161.3527695994188
 30
0.0
 10
90.24134790495702
 20
-161.3527695994188
 30
0.0
 10
90.24134790495702
 20
-161.3527695994188
 30
0.0
 10
90.44667559587792
 20
-161.3527695994188
 30
0.0
 10
90.44667559587792
 20
-161.3527695994188
 30
0.0
 10
90.44667559587792
 20
-161.3527695994188
 30
0.0
 10
90.44667559587792
 20
-162.3807860922173
 30
0.0
 10
90.44667559587792
 20
-162.3807860922173
 30
0.0
 10
90.08907468450899
 20
-162.349091213753
 30
0.0
 10
90.01087101699382
 20
-162.2836343995333
 30
0.0
 10
89.71252574797118
 20
-161.8984727242823
 30
0.0
 10
89.51374373847226
 20
-161.6425021297283
 30
0.0
 10
89.44587535741285
 20
-161.5770453155085
 30
0.0
 10
89.30841604755138
 20
-161.5770453155085
 30
0.0
 10
89.18990476285877
 20
-161.5770453155085
 30
0.0
 10
89.05899113441929
 20
-161.6490478111502
 30
0.0
 10
89.05899113441929
 20
-161.845762763358
 30
0.0
 10
89.05899113441929
 20
-162.1058674724944
 30
0.0
 10
89.2894680223825
 20
-162.1144802112075
 30
0.0
 10
89.40591224978394
 20
-162.1186143257898
 30
0.0
 10
89.40591224978394
 20
-162.1186143257898
 30
0.0
 10
89.40591224978394
 20
-162.3428900418796
 30
0.0
 10
89.40591224978394
 20
-162.3428900418796
 30
0.0
 10
89.27878822637823
 20
-162.3342773031664
 30
0.0
 10
89.1668226231076
 20
-162.3235975071622
 30
0.0
 10
89.048311338415
 20
-162.2433267823558
 30
0.0
 10
88.88742537925384
 20
-162.1334282363764
 30
0.0
 10
88.85366344349839
 20
-161.9470485706244
 30
0.0
 10
88.85366344349839
 20
-161.8309488527714
 30
0.0
 10
88.85366344349839
 20
-161.5536186662088
 30
0.0
 10
89.03763154241074
 20
-161.3462239179968
 30
0.0
 10
89.31048310484252
 20
-161.3462239179968
 30
0.0
 10
89.53923744506311
 20
-161.3462239179968
 30
0.0
 10
89.6384561950383
 20
-161.4626681453982
 30
0.0
 10
89.86479896841922
 20
-161.7716932104251
 30
0.0
  0
HATCH
  5
1FE
330
1F9
100
AcDbEntity
  8
_U+30EC_U+30A4_U+30E4_U+30FC 1
 62
   179
420
  2234388
100
AcDbHatch
 10
0.0
 20
0.0
 30
0.0
210
0.0
220
0.0
230
1.0
  2
SOLID
 70
     1
 71
     0
 91
        1
 92
        1
 93
        1
 72
     4
 94
        3
 73
     0
 74
     1
 95
       44
 96
       40
 40
0.0
 40
0.0
 40
0.0
 40
0.0
 40
1.0
 40
1.0
 40
1.0
 40
2.0
 40
2.0
 40
2.0
 40
3.0
 40
3.0
 40
3.0
 40
4.0
 40
4.0
 40
4.0
 40
5.0
 40
5.0
 40
5.0
 40
6.0
 40
6.0
 40
6.0
 40
7.0
 40
7.0
 40
7.0
 40
8.0
 40
8.0
 40
8.0
 40
9.0
 40
9.0
 40
9.0
 40
10.0
 40
10.0
 40
10.0
 40
11.0
 40
11.0
 40
11.0
 40
12.0
 40
12.0
 40
12.0
 40
13.0
 40
13.0
 40
13.0
 40
13.0
 10
89.86479896841922
 20
-161.7716932104251
 10
90.02361787028924
 20
-161.9894232450929
 10
90.09768742322211
 20
-162.0824408231947
 10
90.24134790495702
 20
-162.1313611790852
 10
90.24134790495702
 20
-162.1313611790852
 10
90.24134790495702
 20
-161.3527695994188
 10
90.24134790495702
 20
-161.3527695994188
 10
90.24134790495702
 20
-161.3527695994188
 10
90.44667559587792
 20
-161.3527695994188
 10
90.44667559587792
 20
-161.3527695994188
 10
90.44667559587792
 20
-161.3527695994188
 10
90.44667559587792
 20
-162.3807860922173
 10
90.44667559587792
 20
-162.3807860922173
 10
90.08907468450899
 20
-162.349091213753
 10
90.01087101699382
 20
-162.2836343995333
 10
89.71252574797118
 20
-161.8984727242823
 10
89.51374373847226
 20
-161.6425021297283
 10
89.44587535741285
 20
-161.5770453155085
 10
89.30841604755138
 20
-161.5770453155085
 10
89.18990476285877
 20
-161.5770453155085
 10
89.05899113441929
 20
-161.6490478111502
 10
89.05899113441929
 20
-161.845762763358
 10
89.05899113441929
 20
-162.1058674724944
 10
89.2894680223825
 20
-162.1144802112075
 10
89.40591224978394
 20
-162.1186143257898
 10
89.40591224978394
 20
-162.1186143257898
 10
89.40591224978394
 20
-162.3428900418796
 10
89.40591224978394
 20
-162.3428900418796
 10
89.27878822637823
 20
-162.3342773031664
 10
89.1668226231076
 20
-162.3235975071622
 10
89.048311338415
 20
-162.2433267823558
 10
88.88742537925384
 20
-162.1334282363764
 10
88.85366344349839
 20
-161.9470485706244
 10
88.85366344349839
 20
-161.8309488527714
 10
88.85366344349839
 20
-161.5536186662088
 10
89.03763154241074
 20
-161.3462239179968
 10
89.31048310484252
 20
-161.3462239179968
 10
89.53923744506311
 20
-161.3462239179968
 10
89.6384561950383
 20
-161.4626681453982
 10
89.86479896841922
 20
-161.7716932104251
 97
        0
 97
        0
 75
     2
 76
     1
 98
        0
  0
POLYLINE
  5
1FF
330
1F9
100
AcDbEntity
  8
_U+30EC_U+30A4_U+30E4_U+30FC 1
370
     0
100
AcDb2dPolyline
 66
     1
 10
0.0
 20
0.0
 30
0.0
  0
VERTEX
  5
200
330
1FF
100
AcDbEntity
  8
_U+30EC_U+30A4_U+30E4_U+30FC 1
370
     0
100
AcDbVertex
100
AcDb2dVertex
 10
90.44667559587792
 20
-161.1278048642319
 30
0.0
  0
VERTEX
  5
201
330
1FF
100
AcDbEntity
  8
_U+30EC_U+30A4_U+30E4_U+30FC 1
370
     0
100
AcDbVertex
100
AcDb2dVertex
 10
90.19483911590615
 20
-161.1278048642319
 30
0.0
  0
VERTEX
  5
202
330
1FF
100
AcDbEntity
  8
_U+30EC_U+30A4_U+30E4_U+30FC 1
370
     0
100
AcDbVertex
100
AcDb2dVertex
 10
90.19483911590615
 20
-160.8759683842602
 30
0.0
  0
VERTEX
  5
203
330
1FF
100
AcDbEntity
  8
_U+30EC_U+30A4_U+30E4_U+30FC 1
370
     0
100
AcDbVertex
100
AcDb2dVertex
 10
90.44667559587792
 20
-160.8759683842602
 30
0.0
  0
VERTEX
  5
204
330
1FF
100
AcDbEntity
  8
_U+30EC_U+30A4_U+30E4_U+30FC 1
370
     0
100
AcDbVertex
100
AcDb2dVertex
 10
90.44667559587792
 20
-161.1278048642319
 30
0.0
  0
SEQEND
  5
205
330
1FF
100
AcDbEntity
  8
_U+30EC_U+30A4_U+30E4_U+30FC 1
370
     0
  0
HATCH
  5
206
330
1F9
100
AcDbEntity
  8
_U+30EC_U+30A4_U+30E4_U+30FC 1
 62
   179
420
  2234388
100
AcDbHatch
 10
0.0
 20
0.0
 30
0.0
210
0.0
220
0.0
230
1.0
  2
SOLID
 70
     1
 71
     0
 91
        1
 92
        1
 93
        4
 72
     1
 10
90.44667559587792
 20
-161.1278048642319
 11
90.19483911590615
 21
-161.1278048642319
 72
     1
 10
90.19483911590615
 20
-161.1278048642319
 11
90.19483911590615
 21
-160.8759683842602
 72
     1
 10
90.19483911590615
 20
-160.8759683842602
 11
90.44667559587792
 21
-160.8759683842602
 72
     1
 10
90.44667559587792
 20
-160.8759683842602
 11
90.44667559587792
 21
-161.1278048642319
 97
        0
 75
     2
 76
     1
 98
        0
  0
SPLINE
  5
207
330
1F9
100
AcDbEntity
  8
_U+30EC_U+30A4_U+30E4_U+30FC 1
370
     0
100
AcDbSpline
210
0.0
220
0.0
230
1.0
 70
    11
 71
     3
 72
    53
 73
    49
 74
     0
 42
0.0000000001
 43
0.0000000001
 12
1.0
 22
0.0
 32
0.0
 13
1.0
 23
0.0
 33
0.0
 40
0.0
 40
0.0
 40
0.0
 40
0.0
 40
1.0
 40
1.0
 40
1.0
 40
2.0
 40
2.0
 40
2.0
 40
3.0
 40
3.0
 40
3.0
 40
4.0
 40
4.0
 40
4.0
 40
5.0
 40
5.0
 40
5.0
 40
6.0
 40
6.0
 40
6.0
 40
7.0
 40
7.0
 40
7.0
 40
8.0
 40
8.0
 40
8.0
 40
9.0
 40
9.0
 40
9.0
 40
10.0
 40
10.0
 40
10.0
 40
11.0
 40
11.0
 40
11.0
 40
12.0
 40
12.0
 40
12.0
 40
13.0
 40
13.0
 40
13.0
 40
14.0
 40
14.0
 40
14.0
 40
15.0
 40
15.0
 40
15.0
 40
16.0
 40
16.0
 40
16.0
 40
16.0
 10
90.4973184995111
 20
-160.1586995042312
 30
0.0
 10
90.4973184995111
 20
-160.2369031717463
 30
0.0
 10
90.48043753163337
 20
-160.3385334885612
 30
0.0
 10
90.41704777470477
 20
-160.4401638053761
 30
0.0
 10
90.3071492287253
 20
-160.6134521082842
 30
0.0
 10
90.17589109073728
 20
-160.6348117002927
 30
0.0
 10
90.06805960204896
 20
-160.6537597254616
 30
0.0
 10
90.06805960204896
 20
-160.6537597254616
 30
0.0
 10
90.06805960204896
 20
-160.431551066663
 30
0.0
 10
90.06805960204896
 20
-160.431551066663
 30
0.0
 10
90.26684161154787
 20
-160.3767740484475
 30
0.0
 10
90.29646943272103
 20
-160.2496500250418
 30
0.0
 10
90.29646943272103
 20
-160.15663244694
 30
0.0
 10
90.29646943272103
 20
-160.0171060797874
 30
0.0
 10
90.1969061731973
 20
-159.8648328593393
 30
0.0
 10
89.96436222794294
 20
-159.8648328593393
 30
0.0
 10
89.70839163338889
 20
-159.8648328593393
 30
0.0
 10
89.6384561950383
 20
-160.0446668436694
 30
0.0
 10
89.6384561950383
 20
-160.1652451856531
 30
0.0
 10
89.6384561950383
 20
-160.1969400641174
 30
0.0
 10
89.6384561950383
 20
-160.3385334885612
 30
0.0
 10
89.76764727573517
 20
-160.4274169520806
 30
0.0
 10
89.76764727573517
 20
-160.4274169520806
 30
0.0
 10
89.7486992505663
 20
-160.6031168218284
 30
0.0
 10
89.7486992505663
 20
-160.6031168218284
 30
0.0
 10
89.7486992505663
 20
-160.6031168218284
 30
0.0
 10
88.90223928984042
 20
-160.4825384798447
 30
0.0
 10
88.90223928984042
 20
-160.4825384798447
 30
0.0
 10
88.90223928984042
 20
-160.4825384798447
 30
0.0
 10
88.90223928984042
 20
-159.7039469001782
 30
0.0
 10
88.90223928984042
 20
-159.7039469001782
 30
0.0
 10
88.90223928984042
 20
-159.7039469001782
 30
0.0
 10
89.09688718475704
 20
-159.7039469001782
 30
0.0
 10
89.09688718475704
 20
-159.7039469001782
 30
0.0
 10
89.09688718475704
 20
-159.7039469001782
 30
0.0
 10
89.09688718475704
 20
-160.3195854633923
 30
0.0
 10
89.09688718475704
 20
-160.3195854633923
 30
0.0
 10
89.09688718475704
 20
-160.3195854633923
 30
0.0
 10
89.51994491034571
 20
-160.3850422776121
 30
0.0
 10
89.51994491034571
 20
-160.3850422776121
 30
0.0
 10
89.48618297459026
 20
-160.3237195779746
 30
0.0
 10
89.44587535741285
 20
-160.2413817958772
 30
0.0
 10
89.44587535741285
 20
-160.1228705111846
 30
0.0
 10
89.44587535741285
 20
-159.8689669739217
 30
0.0
 10
89.63225502316486
 20
-159.6319444045365
 30
0.0
 10
89.94541420277406
 20
-159.6319444045365
 30
0.0
 10
90.26270749696558
 20
-159.6319444045365
 30
0.0
 10
90.4973184995111
 20
-159.8562201206262
 30
0.0
 10
90.4973184995111
 20
-160.1586995042312
 30
0.0
  0
HATCH
  5
208
330
1F9
100
AcDbEntity
  8
_U+30EC_U+30A4_U+30E4_U+30FC 1
 62
   179
420
  2234388
100
AcDbHatch
 10
0.0
 20
0.0
 30
0.0
210
0.0
220
0.0
230
1.0
  2
SOLID
 70
     1
 71
     0
 91
        1
 92
        1
 93
        1
 72
     4
 94
        3
 73
     0
 74
     1
 95
       53
 96
       49
 40
0.0
 40
0.0
 40
0.0
 40
0.0
 40
1.0
 40
1.0
 40
1.0
 40
2.0
 40
2.0
 40
2.0
 40
3.0
 40
3.0
 40
3.0
 40
4.0
 40
4.0
 40
4.0
 40
5.0
 40
5.0
 40
5.0
 40
6.0
 40
6.0
 40
6.0
 40
7.0
 40
7.0
 40
7.0
 40
8.0
 40
8.0
 40
8.0
 40
9.0
 40
9.0
 40
9.0
 40
10.0
 40
10.0
 40
10.0
 40
11.0
 40
11.0
 40
11.0
 40
12.0
 40
12.0
 40
12.0
 40
13.0
 40
13.0
 40
13.0
 40
14.0
 40
14.0
 40
14.0
 40
15.0
 40
15.0
 40
15.0
 40
16.0
 40
16.0
 40
16.0
 40
16.0
 10
90.4973184995111
 20
-160.1586995042312
 10
90.4973184995111
 20
-160.2369031717463
 10
90.48043753163337
 20
-160.3385334885612
 10
90.41704777470477
 20
-160.4401638053761
 10
90.3071492287253
 20
-160.6134521082842
 10
90.17589109073728
 20
-160.6348117002927
 10
90.06805960204896
 20
-160.6537597254616
 10
90.06805960204896
 20
-160.6537597254616
 10
90.06805960204896
 20
-160.431551066663
 10
90.06805960204896
 20
-160.431551066663
 10
90.26684161154787
 20
-160.3767740484475
 10
90.29646943272103
 20
-160.2496500250418
 10
90.29646943272103
 20
-160.15663244694
 10
90.29646943272103
 20
-160.0171060797874
 10
90.1969061731973
 20
-159.8648328593393
 10
89.96436222794294
 20
-159.8648328593393
 10
89.70839163338889
 20
-159.8648328593393
 10
89.6384561950383
 20
-160.0446668436694
 10
89.6384561950383
 20
-160.1652451856531
 10
89.6384561950383
 20
-160.1969400641174
 10
89.6384561950383
 20
-160.3385334885612
 10
89.76764727573517
 20
-160.4274169520806
 10
89.76764727573517
 20
-160.4274169520806
 10
89.7486992505663
 20
-160.6031168218284
 10
89.7486992505663
 20
-160.6031168218284
 10
89.7486992505663
 20
-160.6031168218284
 10
88.90223928984042
 20
-160.4825384798447
 10
88.90223928984042
 20
-160.4825384798447
 10
88.90223928984042
 20
-160.4825384798447
 10
88.90223928984042
 20
-159.7039469001782
 10
88.90223928984042
 20
-159.7039469001782
 10
88.90223928984042
 20
-159.7039469001782
 10
89.09688718475704
 20
-159.7039469001782
 10
89.09688718475704
 20
-159.7039469001782
 10
89.09688718475704
 20
-159.7039469001782
 10
89.09688718475704
 20
-160.3195854633923
 10
89.09688718475704
 20
-160.3195854633923
 10
89.09688718475704
 20
-160.3195854633923
 10
89.51994491034571
 20
-160.3850422776121
 10
89.51994491034571
 20
-160.3850422776121
 10
89.48618297459026
 20
-160.3237195779746
 10
89.44587535741285
 20
-160.2413817958772
 10
89.44587535741285
 20
-160.1228705111846
 10
89.44587535741285
 20
-159.8689669739217
 10
89.63225502316486
 20
-159.6319444045365
 10
89.94541420277406
 20
-159.6319444045365
 10
90.26270749696558
 20
-159.6319444045365
 10
90.4973184995111
 20
-159.8562201206262
 10
90.4973184995111
 20
-160.1586995042312
 97
        0
 97
        0
 75
     2
 76
     1
 98
        0
  0
ENDBLK
  5
1FC
330
1F9
100
AcDbEntity
  8
0
100
AcDbBlockEnd
  0
BLOCK
  5
21A
330
218
100
AcDbEntity
  8
0
100
AcDbBlockBegin
  2
block 11
 70
     0
 10
0.0
 20
0.0
 30
0.0
  3
block 11
  1

  0
SPLINE
  5
21C
330
218
100
AcDbEntity
  8
_U+30EC_U+30A4_U+30E4_U+30FC 1
370
     0
100
AcDbSpline
210
0.0
220
0.0
230
1.0
 70
    11
 71
     3
 72
    26
 73
    22
 74
     0
 42
0.0000000001
 43
0.0000000001
 12
1.0
 22
0.0
 32
0.0
 13
1.0
 23
0.0
 33
0.0
 40
0.0
 40
0.0
 40
0.0
 40
0.0
 40
1.0
 40
1.0
 40
1.0
 40
2.0
 40
2.0
 40
2.0
 40
3.0
 40
3.0
 40
3.0
 40
4.0
 40
4.0
 40
4.0
 40
5.0
 40
5.0
 40
5.0
 40
6.0
 40
6.0
 40
6.0
 40
7.0
 40
7.0
 40
7.0
 40
7.0
 10
90.44684785065218
 20
-138.9124511371469
 30
0.0
 10
90.44684785065218
 20
-138.9124511371469
 30
0.0
 10
89.34269474762961
 20
-138.9124511371469
 30
0.0
 10
89.34269474762961
 20
-138.9124511371469
 30
0.0
 10
89.34269474762961
 20
-138.9124511371469
 30
0.0
 10
89.34269474762961
 20
-139.2424912846338
 30
0.0
 10
89.34269474762961
 20
-139.2424912846338
 30
0.0
 10
89.34269474762961
 20
-139.2424912846338
 30
0.0
 10
89.19455564176387
 20
-139.2424912846338
 30
0.0
 10
89.19455564176387
 20
-139.2424912846338
 30
0.0
 10
89.17974173117729
 20
-138.9103840798557
 30
0.0
 10
89.01678871472497
 20
-138.8638752908049
 30
0.0
 10
88.90241154461468
 20
-138.8342474696317
 30
0.0
 10
88.90241154461468
 20
-138.8342474696317
 30
0.0
 10
88.90241154461468
 20
-138.6881754210571
 30
0.0
 10
88.90241154461468
 20
-138.6881754210571
 30
0.0
 10
88.90241154461468
 20
-138.6881754210571
 30
0.0
 10
90.44684785065218
 20
-138.6881754210571
 30
0.0
 10
90.44684785065218
 20
-138.6881754210571
 30
0.0
 10
90.44684785065218
 20
-138.6881754210571
 30
0.0
 10
90.44684785065218
 20
-138.9124511371469
 30
0.0
 10
90.44684785065218
 20
-138.9124511371469
 30
0.0
  0
HATCH
  5
21D
330
218
100
AcDbEntity
  8
_U+30EC_U+30A4_U+30E4_U+30FC 1
 62
   179
420
  2234388
100
AcDbHatch
 10
0.0
 20
0.0
 30
0.0
210
0.0
220
0.0
230
1.0
  2
SOLID
 70
     1
 71
     0
 91
        1
 92
        1
 93
        1
 72
     4
 94
        3
 73
     0
 74
     1
 95
       26
 96
       22
 40
0.0
 40
0.0
 40
0.0
 40
0.0
 40
1.0
 40
1.0
 40
1.0
 40
2.0
 40
2.0
 40
2.0
 40
3.0
 40
3.0
 40
3.0
 40
4.0
 40
4.0
 40
4.0
 40
5.0
 40
5.0
 40
5.0
 40
6.0
 40
6.0
 40
6.0
 40
7.0
 40
7.0
 40
7.0
 40
7.0
 10
90.44684785065218
 20
-138.9124511371469
 10
90.44684785065218
 20
-138.9124511371469
 10
89.34269474762961
 20
-138.9124511371469
 10
89.34269474762961
 20
-138.9124511371469
 10
89.34269474762961
 20
-138.9124511371469
 10
89.34269474762961
 20
-139.2424912846338
 10
89.34269474762961
 20
-139.2424912846338
 10
89.34269474762961
 20
-139.2424912846338
 10
89.19455564176387
 20
-139.2424912846338
 10
89.19455564176387
 20
-139.2424912846338
 10
89.17974173117729
 20
-138.9103840798557
 10
89.01678871472497
 20
-138.8638752908049
 10
88.90241154461468
 20
-138.8342474696317
 10
88.90241154461468
 20
-138.8342474696317
 10
88.90241154461468
 20
-138.6881754210571
 10
88.90241154461468
 20
-138.6881754210571
 10
88.90241154461468
 20
-138.6881754210571
 10
90.44684785065218
 20
-138.6881754210571
 10
90.44684785065218
 20
-138.6881754210571
 10
90.44684785065218
 20
-138.6881754210571
 10
90.44684785065218
 20
-138.9124511371469
 10
90.44684785065218
 20
-138.9124511371469
 97
        0
 97
        0
 75
     2
 76
     1
 98
        0
  0
POLYLINE
  5
21E
330
218
100
AcDbEntity
  8
_U+30EC_U+30A4_U+30E4_U+30FC 1
370
     0
100
AcDb2dPolyline
 66
     1
 10
0.0
 20
0.0
 30
0.0
  0
VERTEX
  5
21F
330
21E
100
AcDbEntity
  8
_U+30EC_U+30A4_U+30E4_U+30FC 1
370
     0
100
AcDbVertex
100
AcDb2dVertex
 10
90.44684785065218
 20
-138.1269693665099
 30
0.0
  0
VERTEX
  5
220
330
21E
100
AcDbEntity
  8
_U+30EC_U+30A4_U+30E4_U+30FC 1
370
     0
100
AcDbVertex
100
AcDb2dVertex
 10
90.19501137068042
 20
-138.1269693665099
 30
0.0
  0
VERTEX
  5
221
330
21E
100
AcDbEntity
  8
_U+30EC_U+30A4_U+30E4_U+30FC 1
370
     0
100
AcDbVertex
100
AcDb2dVertex
 10
90.19501137068042
 20
-137.8751328865382
 30
0.0
  0
VERTEX
  5
222
330
21E
100
AcDbEntity
  8
_U+30EC_U+30A4_U+30E4_U+30FC 1
370
     0
100
AcDbVertex
100
AcDb2dVertex
 10
90.44684785065218
 20
-137.8751328865382
 30
0.0
  0
VERTEX
  5
223
330
21E
100
AcDbEntity
  8
_U+30EC_U+30A4_U+30E4_U+30FC 1
370
     0
100
AcDbVertex
100
AcDb2dVertex
 10
90.44684785065218
 20
-138.1269693665099
 30
0.0
  0
SEQEND
  5
224
330
21E
100
AcDbEntity
  8
_U+30EC_U+30A4_U+30E4_U+30FC 1
370
     0
  0
HATCH
  5
225
330
218
100
AcDbEntity
  8
_U+30EC_U+30A4_U+30E4_U+30FC 1
 62
   179
420
  2234388
100
AcDbHatch
 10
0.0
 20
0.0
 30
0.0
210
0.0
220
0.0
230
1.0
  2
SOLID
 70
     1
 71
     0
 91
        1
 92
        1
 93
        4
 72
     1
 10
90.44684785065218
 20
-138.1269693665099
 11
90.19501137068042
 21
-138.1269693665099
 72
     1
 10
90.19501137068042
 20
-138.1269693665099
 11
90.19501137068042
 21
-137.8751328865382
 72
     1
 10
90.19501137068042
 20
-137.8751328865382
 11
90.44684785065218
 21
-137.8751328865382
 72
     1
 10
90.44684785065218
 20
-137.8751328865382
 11
90.44684785065218
 21
-138.1269693665099
 97
        0
 75
     2
 76
     1
 98
        0
  0
SPLINE
  5
226
330
218
100
AcDbEntity
  8
_U+30EC_U+30A4_U+30E4_U+30FC 1
370
     0
100
AcDbSpline
210
0.0
220
0.0
230
1.0
 70
    11
 71
     3
 72
    53
 73
    49
 74
     0
 42
0.0000000001
 43
0.0000000001
 12
1.0
 22
0.0
 32
0.0
 13
1.0
 23
0.0
 33
0.0
 40
0.0
 40
0.0
 40
0.0
 40
0.0
 40
1.0
 40
1.0
 40
1.0
 40
2.0
 40
2.0
 40
2.0
 40
3.0
 40
3.0
 40
3.0
 40
4.0
 40
4.0
 40
4.0
 40
5.0
 40
5.0
 40
5.0
 40
6.0
 40
6.0
 40
6.0
 40
7.0
 40
7.0
 40
7.0
 40
8.0
 40
8.0
 40
8.0
 40
9.0
 40
9.0
 40
9.0
 40
10.0
 40
10.0
 40
10.0
 40
11.0
 40
11.0
 40
11.0
 40
12.0
 40
12.0
 40
12.0
 40
13.0
 40
13.0
 40
13.0
 40
14.0
 40
14.0
 40
14.0
 40
15.0
 40
15.0
 40
15.0
 40
16.0
 40
16.0
 40
16.0
 40
16.0
 10
90.49749075428535
 20
-137.1578640065092
 30
0.0
 10
90.49749075428535
 20
-137.2360676740243
 30
0.0
 10
90.48060978640763
 20
-137.3376979908392
 30
0.0
 10
90.41722002947903
 20
-137.4393283076541
 30
0.0
 10
90.30732148349956
 20
-137.6126166105621
 30
0.0
 10
90.17606334551154
 20
-137.6339762025707
 30
0.0
 10
90.06823185682322
 20
-137.6529242277396
 30
0.0
 10
90.06823185682322
 20
-137.6529242277396
 30
0.0
 10
90.06823185682322
 20
-137.4307155689409
 30
0.0
 10
90.06823185682322
 20
-137.4307155689409
 30
0.0
 10
90.26701386632215
 20
-137.3759385507255
 30
0.0
 10
90.29664168749528
 20
-137.2488145273198
 30
0.0
 10
90.29664168749528
 20
-137.155796949218
 30
0.0
 10
90.29664168749528
 20
-137.0162705820654
 30
0.0
 10
90.19707842797156
 20
-136.8639973616174
 30
0.0
 10
89.9645344827172
 20
-136.8639973616174
 30
0.0
 10
89.70856388816314
 20
-136.8639973616174
 30
0.0
 10
89.63862844981257
 20
-137.0438313459474
 30
0.0
 10
89.63862844981257
 20
-137.1644096879311
 30
0.0
 10
89.63862844981257
 20
-137.1961045663954
 30
0.0
 10
89.63862844981257
 20
-137.3376979908392
 30
0.0
 10
89.76781953050944
 20
-137.4265814543586
 30
0.0
 10
89.76781953050944
 20
-137.4265814543586
 30
0.0
 10
89.74887150534056
 20
-137.6022813241064
 30
0.0
 10
89.74887150534056
 20
-137.6022813241064
 30
0.0
 10
89.74887150534056
 20
-137.6022813241064
 30
0.0
 10
88.90241154461468
 20
-137.4817029821226
 30
0.0
 10
88.90241154461468
 20
-137.4817029821226
 30
0.0
 10
88.90241154461468
 20
-137.4817029821226
 30
0.0
 10
88.90241154461468
 20
-136.7031114024562
 30
0.0
 10
88.90241154461468
 20
-136.7031114024562
 30
0.0
 10
88.90241154461468
 20
-136.7031114024562
 30
0.0
 10
89.0970594395313
 20
-136.7031114024562
 30
0.0
 10
89.0970594395313
 20
-136.7031114024562
 30
0.0
 10
89.0970594395313
 20
-136.7031114024562
 30
0.0
 10
89.0970594395313
 20
-137.3187499656703
 30
0.0
 10
89.0970594395313
 20
-137.3187499656703
 30
0.0
 10
89.0970594395313
 20
-137.3187499656703
 30
0.0
 10
89.52011716511997
 20
-137.3842067798901
 30
0.0
 10
89.52011716511997
 20
-137.3842067798901
 30
0.0
 10
89.48635522936452
 20
-137.3228840802526
 30
0.0
 10
89.4460476121871
 20
-137.2405462981552
 30
0.0
 10
89.4460476121871
 20
-137.1220350134626
 30
0.0
 10
89.4460476121871
 20
-136.8681314761996
 30
0.0
 10
89.63242727793912
 20
-136.6311089068145
 30
0.0
 10
89.94558645754833
 20
-136.6311089068145
 30
0.0
 10
90.26287975173985
 20
-136.6311089068145
 30
0.0
 10
90.49749075428535
 20
-136.8553846229042
 30
0.0
 10
90.49749075428535
 20
-137.1578640065092
 30
0.0
  0
HATCH
  5
227
330
218
100
AcDbEntity
  8
_U+30EC_U+30A4_U+30E4_U+30FC 1
 62
   179
420
  2234388
100
AcDbHatch
 10
0.0
 20
0.0
 30
0.0
210
0.0
220
0.0
230
1.0
  2
SOLID
 70
     1
 71
     0
 91
        1
 92
        1
 93
        1
 72
     4
 94
        3
 73
     0
 74
     1
 95
       53
 96
       49
 40
0.0
 40
0.0
 40
0.0
 40
0.0
 40
1.0
 40
1.0
 40
1.0
 40
2.0
 40
2.0
 40
2.0
 40
3.0
 40
3.0
 40
3.0
 40
4.0
 40
4.0
 40
4.0
 40
5.0
 40
5.0
 40
5.0
 40
6.0
 40
6.0
 40
6.0
 40
7.0
 40
7.0
 40
7.0
 40
8.0
 40
8.0
 40
8.0
 40
9.0
 40
9.0
 40
9.0
 40
10.0
 40
10.0
 40
10.0
 40
11.0
 40
11.0
 40
11.0
 40
12.0
 40
12.0
 40
12.0
 40
13.0
 40
13.0
 40
13.0
 40
14.0
 40
14.0
 40
14.0
 40
15.0
 40
15.0
 40
15.0
 40
16.0
 40
16.0
 40
16.0
 40
16.0
 10
90.49749075428535
 20
-137.1578640065092
 10
90.49749075428535
 20
-137.2360676740243
 10
90.48060978640763
 20
-137.3376979908392
 10
90.41722002947903
 20
-137.4393283076541
 10
90.30732148349956
 20
-137.6126166105621
 10
90.17606334551154
 20
-137.6339762025707
 10
90.06823185682322
 20
-137.6529242277396
 10
90.06823185682322
 20
-137.6529242277396
 10
90.06823185682322
 20
-137.4307155689409
 10
90.06823185682322
 20
-137.4307155689409
 10
90.26701386632215
 20
-137.3759385507255
 10
90.29664168749528
 20
-137.2488145273198
 10
90.29664168749528
 20
-137.155796949218
 10
90.29664168749528
 20
-137.0162705820654
 10
90.19707842797156
 20
-136.8639973616174
 10
89.9645344827172
 20
-136.8639973616174
 10
89.70856388816314
 20
-136.8639973616174
 10
89.63862844981257
 20
-137.0438313459474
 10
89.63862844981257
 20
-137.1644096879311
 10
89.63862844981257
 20
-137.1961045663954
 10
89.63862844981257
 20
-137.3376979908392
 10
89.76781953050944
 20
-137.4265814543586
 10
89.76781953050944
 20
-137.4265814543586
 10
89.74887150534056
 20
-137.6022813241064
 10
89.74887150534056
 20
-137.6022813241064
 10
89.74887150534056
 20
-137.6022813241064
 10
88.90241154461468
 20
-137.4817029821226
 10
88.90241154461468
 20
-137.4817029821226
 10
88.90241154461468
 20
-137.4817029821226
 10
88.90241154461468
 20
-136.7031114024562
 10
88.90241154461468
 20
-136.7031114024562
 10
88.90241154461468
 20
-136.7031114024562
 10
89.0970594395313
 20
-136.7031114024562
 10
89.0970594395313
 20
-136.7031114024562
 10
89.0970594395313
 20
-136.7031114024562
 10
89.0970594395313
 20
-137.3187499656703
 10
89.0970594395313
 20
-137.3187499656703
 10
89.0970594395313
 20
-137.3187499656703
 10
89.52011716511997
 20
-137.3842067798901
 10
89.52011716511997
 20
-137.3842067798901
 10
89.48635522936452
 20
-137.3228840802526
 10
89.4460476121871
 20
-137.2405462981552
 10
89.4460476121871
 20
-137.1220350134626
 10
89.4460476121871
 20
-136.8681314761996
 10
89.63242727793912
 20
-136.6311089068145
 10
89.94558645754833
 20
-136.6311089068145
 10
90.26287975173985
 20
-136.6311089068145
 10
90.49749075428535
 20
-136.8553846229042
 10
90.49749075428535
 20
-137.1578640065092
 97
        0
 97
        0
 75
     2
 76
     1
 98
        0
  0
ENDBLK
  5
21B
330
218
100
AcDbEntity
  8
0
100
AcDbBlockEnd
  0
BLOCK
  5
239
330
237
100
AcDbEntity
  8
0
100
AcDbBlockBegin
  2
block 12
 70
     0
 10
0.0
 20
0.0
 30
0.0
  3
block 12
  1

  0
SPLINE
  5
23B
330
237
100
AcDbEntity
  8
_U+30EC_U+30A4_U+30E4_U+30FC 1
370
     0
100
AcDbSpline
210
0.0
220
0.0
230
1.0
 70
    11
 71
     3
 72
    26
 73
    22
 74
     0
 42
0.0000000001
 43
0.0000000001
 12
1.0
 22
0.0
 32
0.0
 13
1.0
 23
0.0
 33
0.0
 40
0.0
 40
0.0
 40
0.0
 40
0.0
 40
1.0
 40
1.0
 40
1.0
 40
2.0
 40
2.0
 40
2.0
 40
3.0
 40
3.0
 40
3.0
 40
4.0
 40
4.0
 40
4.0
 40
5.0
 40
5.0
 40
5.0
 40
6.0
 40
6.0
 40
6.0
 40
7.0
 40
7.0
 40
7.0
 40
7.0
 10
90.44615883155514
 20
-149.6391004400208
 30
0.0
 10
90.44615883155514
 20
-149.6391004400208
 30
0.0
 10
89.34200572853256
 20
-149.6391004400208
 30
0.0
 10
89.34200572853256
 20
-149.6391004400208
 30
0.0
 10
89.34200572853256
 20
-149.6391004400208
 30
0.0
 10
89.34200572853256
 20
-149.9691405875077
 30
0.0
 10
89.34200572853256
 20
-149.9691405875077
 30
0.0
 10
89.34200572853256
 20
-149.9691405875077
 30
0.0
 10
89.19386662266682
 20
-149.9691405875077
 30
0.0
 10
89.19386662266682
 20
-149.9691405875077
 30
0.0
 10
89.17905271208024
 20
-149.6370333827296
 30
0.0
 10
89.01609969562793
 20
-149.5905245936788
 30
0.0
 10
88.90172252551763
 20
-149.5608967725056
 30
0.0
 10
88.90172252551763
 20
-149.5608967725056
 30
0.0
 10
88.90172252551763
 20
-149.414824723931
 30
0.0
 10
88.90172252551763
 20
-149.414824723931
 30
0.0
 10
88.90172252551763
 20
-149.414824723931
 30
0.0
 10
90.44615883155514
 20
-149.414824723931
 30
0.0
 10
90.44615883155514
 20
-149.414824723931
 30
0.0
 10
90.44615883155514
 20
-149.414824723931
 30
0.0
 10
90.44615883155514
 20
-149.6391004400208
 30
0.0
 10
90.44615883155514
 20
-149.6391004400208
 30
0.0
  0
HATCH
  5
23C
330
237
100
AcDbEntity
  8
_U+30EC_U+30A4_U+30E4_U+30FC 1
 62
   179
420
  2234388
100
AcDbHatch
 10
0.0
 20
0.0
 30
0.0
210
0.0
220
0.0
230
1.0
  2
SOLID
 70
     1
 71
     0
 91
        1
 92
        1
 93
        1
 72
     4
 94
        3
 73
     0
 74
     1
 95
       26
 96
       22
 40
0.0
 40
0.0
 40
0.0
 40
0.0
 40
1.0
 40
1.0
 40
1.0
 40
2.0
 40
2.0
 40
2.0
 40
3.0
 40
3.0
 40
3.0
 40
4.0
 40
4.0
 40
4.0
 40
5.0
 40
5.0
 40
5.0
 40
6.0
 40
6.0
 40
6.0
 40
7.0
 40
7.0
 40
7.0
 40
7.0
 10
90.44615883155514
 20
-149.6391004400208
 10
90.44615883155514
 20
-149.6391004400208
 10
89.34200572853256
 20
-149.6391004400208
 10
89.34200572853256
 20
-149.6391004400208
 10
89.34200572853256
 20
-149.6391004400208
 10
89.34200572853256
 20
-149.9691405875077
 10
89.34200572853256
 20
-149.9691405875077
 10
89.34200572853256
 20
-149.9691405875077
 10
89.19386662266682
 20
-149.9691405875077
 10
89.19386662266682
 20
-149.9691405875077
 10
89.17905271208024
 20
-149.6370333827296
 10
89.01609969562793
 20
-149.5905245936788
 10
88.90172252551763
 20
-149.5608967725056
 10
88.90172252551763
 20
-149.5608967725056
 10
88.90172252551763
 20
-149.414824723931
 10
88.90172252551763
 20
-149.414824723931
 10
88.90172252551763
 20
-149.414824723931
 10
90.44615883155514
 20
-149.414824723931
 10
90.44615883155514
 20
-149.414824723931
 10
90.44615883155514
 20
-149.414824723931
 10
90.44615883155514
 20
-149.6391004400208
 10
90.44615883155514
 20
-149.6391004400208
 97
        0
 97
        0
 75
     2
 76
     1
 98
        0
  0
SPLINE
  5
23D
330
237
100
AcDbEntity
  8
_U+30EC_U+30A4_U+30E4_U+30FC 1
370
     0
100
AcDbSpline
210
0.0
220
0.0
230
1.0
 70
    11
 71
     3
 72
    62
 73
    58
 74
     0
 42
0.0000000001
 43
0.0000000001
 12
1.0
 22
0.0
 32
0.0
 13
1.0
 23
0.0
 33
0.0
 40
0.0
 40
0.0
 40
0.0
 40
0.0
 40
1.0
 40
1.0
 40
1.0
 40
2.0
 40
2.0
 40
2.0
 40
3.0
 40
3.0
 40
3.0
 40
4.0
 40
4.0
 40
4.0
 40
5.0
 40
5.0
 40
5.0
 40
6.0
 40
6.0
 40
6.0
 40
7.0
 40
7.0
 40
7.0
 40
8.0
 40
8.0
 40
8.0
 40
9.0
 40
9.0
 40
9.0
 40
10.0
 40
10.0
 40
10.0
 40
11.0
 40
11.0
 40
11.0
 40
12.0
 40
12.0
 40
12.0
 40
13.0
 40
13.0
 40
13.0
 40
14.0
 40
14.0
 40
14.0
 40
15.0
 40
15.0
 40
15.0
 40
16.0
 40
16.0
 40
16.0
 40
17.0
 40
17.0
 40
17.0
 40
18.0
 40
18.0
 40
18.0
 40
19.0
 40
19.0
 40
19.0
 40
19.0
 10
90.4968017351883
 20
-148.421948205082
 30
0.0
 10
90.4968017351883
 20
-148.5173773500235
 30
0.0
 10
90.47578665272827
 20
-148.7351073846912
 30
0.0
 10
90.28975149652479
 20
-148.8601643508058
 30
0.0
 10
90.17744138370564
 20
-148.9342339037387
 30
0.0
 10
90.07822263373045
 20
-148.938368018321
 30
0.0
 10
89.9934732847933
 20
-148.9425021329033
 30
0.0
 10
89.9934732847933
 20
-148.9425021329033
 30
0.0
 10
89.9934732847933
 20
-148.7223605313958
 30
0.0
 10
89.9934732847933
 20
-148.7223605313958
 30
0.0
 10
90.06754283772618
 20
-148.7202934741047
 30
0.0
 10
90.30215384027169
 20
-148.7099581876489
 30
0.0
 10
90.30215384027169
 20
-148.4264268292129
 30
0.0
 10
90.30215384027169
 20
-148.2889675193514
 30
0.0
 10
90.23256291146964
 20
-148.1363497893548
 30
0.0
 10
90.00415308079758
 20
-148.1363497893548
 30
0.0
 10
89.88770885339613
 20
-148.1363497893548
 30
0.0
 10
89.83913300705412
 20
-148.1745903492411
 30
0.0
 10
89.80743812858981
 20
-148.2062852277054
 30
0.0
 10
89.73336857565694
 20
-148.2803547806382
 30
0.0
 10
89.72062172236151
 20
-148.3967990080397
 30
0.0
 10
89.72062172236151
 20
-148.4515760262552
 30
0.0
 10
89.72062172236151
 20
-148.4708685609726
 30
0.0
 10
89.72268877965267
 20
-148.5066975540192
 30
0.0
 10
89.72682289423497
 20
-148.5342583179012
 30
0.0
 10
89.72682289423497
 20
-148.5342583179012
 30
0.0
 10
89.53217499931834
 20
-148.5342583179012
 30
0.0
 10
89.53217499931834
 20
-148.5342583179012
 30
0.0
 10
89.53872068074033
 20
-148.4960177580149
 30
0.0
 10
89.54078773803147
 20
-148.4539875930948
 30
0.0
 10
89.54078773803147
 20
-148.4474419116729
 30
0.0
 10
89.54078773803147
 20
-148.3819850974531
 30
0.0
 10
89.51942814602292
 20
-148.1832030879542
 30
0.0
 10
89.28275008618625
 20
-148.1832030879542
 30
0.0
 10
89.10498315914737
 20
-148.1832030879542
 30
0.0
 10
89.04986163138337
 20
-148.3141167163937
 30
0.0
 10
89.04986163138337
 20
-148.4243597719217
 30
0.0
 10
89.04986163138337
 20
-148.6885985956403
 30
0.0
 10
89.28275008618625
 20
-148.6972113343535
 30
0.0
 10
89.35440807227945
 20
-148.7013454489358
 30
0.0
 10
89.35440807227945
 20
-148.7013454489358
 30
0.0
 10
89.35440807227945
 20
-148.9046060825655
 30
0.0
 10
89.35440807227945
 20
-148.9046060825655
 30
0.0
 10
89.22969561571341
 20
-148.8959933438524
 30
0.0
 10
88.85314667917561
 20
-148.8684325799704
 30
0.0
 10
88.85314667917561
 20
-148.4116129186263
 30
0.0
 10
88.85314667917561
 20
-148.1873372025365
 30
0.0
 10
88.98027070258132
 20
-147.946180518569
 30
0.0
 10
89.27620440476429
 20
-147.946180518569
 30
0.0
 10
89.4625840705163
 20
-147.946180518569
 30
0.0
 10
89.54492185261377
 20
-148.0412651539619
 30
0.0
 10
89.60624455225123
 20
-148.1408284134856
 30
0.0
 10
89.63380531613322
 20
-148.0795057138482
 30
0.0
 10
89.71407604093955
 20
-147.897604672227
 30
0.0
 10
89.99140622750215
 20
-147.897604672227
 30
0.0
 10
90.3297146041537
 20
-147.897604672227
 30
0.0
 10
90.4968017351883
 20
-148.1449625280679
 30
0.0
 10
90.4968017351883
 20
-148.421948205082
 30
0.0
  0
HATCH
  5
23E
330
237
100
AcDbEntity
  8
_U+30EC_U+30A4_U+30E4_U+30FC 1
 62
   179
420
  2234388
100
AcDbHatch
 10
0.0
 20
0.0
 30
0.0
210
0.0
220
0.0
230
1.0
  2
SOLID
 70
     1
 71
     0
 91
        1
 92
        1
 93
        1
 72
     4
 94
        3
 73
     0
 74
     1
 95
       62
 96
       58
 40
0.0
 40
0.0
 40
0.0
 40
0.0
 40
1.0
 40
1.0
 40
1.0
 40
2.0
 40
2.0
 40
2.0
 40
3.0
 40
3.0
 40
3.0
 40
4.0
 40
4.0
 40
4.0
 40
5.0
 40
5.0
 40
5.0
 40
6.0
 40
6.0
 40
6.0
 40
7.0
 40
7.0
 40
7.0
 40
8.0
 40
8.0
 40
8.0
 40
9.0
 40
9.0
 40
9.0
 40
10.0
 40
10.0
 40
10.0
 40
11.0
 40
11.0
 40
11.0
 40
12.0
 40
12.0
 40
12.0
 40
13.0
 40
13.0
 40
13.0
 40
14.0
 40
14.0
 40
14.0
 40
15.0
 40
15.0
 40
15.0
 40
16.0
 40
16.0
 40
16.0
 40
17.0
 40
17.0
 40
17.0
 40
18.0
 40
18.0
 40
18.0
 40
19.0
 40
19.0
 40
19.0
 40
19.0
 10
90.4968017351883
 20
-148.421948205082
 10
90.4968017351883
 20
-148.5173773500235
 10
90.47578665272827
 20
-148.7351073846912
 10
90.28975149652479
 20
-148.8601643508058
 10
90.17744138370564
 20
-148.9342339037387
 10
90.07822263373045
 20
-148.938368018321
 10
89.9934732847933
 20
-148.9425021329033
 10
89.9934732847933
 20
-148.9425021329033
 10
89.9934732847933
 20
-148.7223605313958
 10
89.9934732847933
 20
-148.7223605313958
 10
90.06754283772618
 20
-148.7202934741047
 10
90.30215384027169
 20
-148.7099581876489
 10
90.30215384027169
 20
-148.4264268292129
 10
90.30215384027169
 20
-148.2889675193514
 10
90.23256291146964
 20
-148.1363497893548
 10
90.00415308079758
 20
-148.1363497893548
 10
89.88770885339613
 20
-148.1363497893548
 10
89.83913300705412
 20
-148.1745903492411
 10
89.80743812858981
 20
-148.2062852277054
 10
89.73336857565694
 20
-148.2803547806382
 10
89.72062172236151
 20
-148.3967990080397
 10
89.72062172236151
 20
-148.4515760262552
 10
89.72062172236151
 20
-148.4708685609726
 10
89.72268877965267
 20
-148.5066975540192
 10
89.72682289423497
 20
-148.5342583179012
 10
89.72682289423497
 20
-148.5342583179012
 10
89.53217499931834
 20
-148.5342583179012
 10
89.53217499931834
 20
-148.5342583179012
 10
89.53872068074033
 20
-148.4960177580149
 10
89.54078773803147
 20
-148.4539875930948
 10
89.54078773803147
 20
-148.4474419116729
 10
89.54078773803147
 20
-148.3819850974531
 10
89.51942814602292
 20
-148.1832030879542
 10
89.28275008618625
 20
-148.1832030879542
 10
89.10498315914737
 20
-148.1832030879542
 10
89.04986163138337
 20
-148.3141167163937
 10
89.04986163138337
 20
-148.4243597719217
 10
89.04986163138337
 20
-148.6885985956403
 10
89.28275008618625
 20
-148.6972113343535
 10
89.35440807227945
 20
-148.7013454489358
 10
89.35440807227945
 20
-148.7013454489358
 10
89.35440807227945
 20
-148.9046060825655
 10
89.35440807227945
 20
-148.9046060825655
 10
89.22969561571341
 20
-148.8959933438524
 10
88.85314667917561
 20
-148.8684325799704
 10
88.85314667917561
 20
-148.4116129186263
 10
88.85314667917561
 20
-148.1873372025365
 10
88.98027070258132
 20
-147.946180518569
 10
89.27620440476429
 20
-147.946180518569
 10
89.4625840705163
 20
-147.946180518569
 10
89.54492185261377
 20
-148.0412651539619
 10
89.60624455225123
 20
-148.1408284134856
 10
89.63380531613322
 20
-148.0795057138482
 10
89.71407604093955
 20
-147.897604672227
 10
89.99140622750215
 20
-147.897604672227
 10
90.3297146041537
 20
-147.897604672227
 10
90.4968017351883
 20
-148.1449625280679
 10
90.4968017351883
 20
-148.421948205082
 97
        0
 97
        0
 75
     2
 76
     1
 98
        0
  0
ENDBLK
  5
23A
330
237
100
AcDbEntity
  8
0
100
AcDbBlockEnd
  0
BLOCK
  5
24C
330
24A
100
AcDbEntity
  8
0
100
AcDbBlockBegin
  2
block 13
 70
     0
 10
0.0
 20
0.0
 30
0.0
  3
block 13
  1

  0
SPLINE
  5
24E
330
24A
100
AcDbEntity
  8
_U+30EC_U+30A4_U+30E4_U+30FC 1
370
     0
100
AcDbSpline
210
0.0
220
0.0
230
1.0
 70
    11
 71
     3
 72
    26
 73
    22
 74
     0
 42
0.0000000001
 43
0.0000000001
 12
1.0
 22
0.0
 32
0.0
 13
1.0
 23
0.0
 33
0.0
 40
0.0
 40
0.0
 40
0.0
 40
0.0
 40
1.0
 40
1.0
 40
1.0
 40
2.0
 40
2.0
 40
2.0
 40
3.0
 40
3.0
 40
3.0
 40
4.0
 40
4.0
 40
4.0
 40
5.0
 40
5.0
 40
5.0
 40
6.0
 40
6.0
 40
6.0
 40
7.0
 40
7.0
 40
7.0
 40
7.0
 10
118.8303005345285
 20
-152.1395507432151
 30
0.0
 10
118.8303005345285
 20
-152.1395507432151
 30
0.0
 10
117.726147431506
 20
-152.1395507432151
 30
0.0
 10
117.726147431506
 20
-152.1395507432151
 30
0.0
 10
117.726147431506
 20
-152.1395507432151
 30
0.0
 10
117.726147431506
 20
-152.4695908907021
 30
0.0
 10
117.726147431506
 20
-152.4695908907021
 30
0.0
 10
117.726147431506
 20
-152.4695908907021
 30
0.0
 10
117.5780083256402
 20
-152.4695908907021
 30
0.0
 10
117.5780083256402
 20
-152.4695908907021
 30
0.0
 10
117.5631944150537
 20
-152.137483685924
 30
0.0
 10
117.4002413986013
 20
-152.0909748968731
 30
0.0
 10
117.285864228491
 20
-152.0613470757
 30
0.0
 10
117.285864228491
 20
-152.0613470757
 30
0.0
 10
117.285864228491
 20
-151.9152750271253
 30
0.0
 10
117.285864228491
 20
-151.9152750271253
 30
0.0
 10
117.285864228491
 20
-151.9152750271253
 30
0.0
 10
118.8303005345285
 20
-151.9152750271253
 30
0.0
 10
118.8303005345285
 20
-151.9152750271253
 30
0.0
 10
118.8303005345285
 20
-151.9152750271253
 30
0.0
 10
118.8303005345285
 20
-152.1395507432151
 30
0.0
 10
118.8303005345285
 20
-152.1395507432151
 30
0.0
  0
HATCH
  5
24F
330
24A
100
AcDbEntity
  8
_U+30EC_U+30A4_U+30E4_U+30FC 1
 62
   179
420
  2234388
100
AcDbHatch
 10
0.0
 20
0.0
 30
0.0
210
0.0
220
0.0
230
1.0
  2
SOLID
 70
     1
 71
     0
 91
        1
 92
        1
 93
        1
 72
     4
 94
        3
 73
     0
 74
     1
 95
       26
 96
       22
 40
0.0
 40
0.0
 40
0.0
 40
0.0
 40
1.0
 40
1.0
 40
1.0
 40
2.0
 40
2.0
 40
2.0
 40
3.0
 40
3.0
 40
3.0
 40
4.0
 40
4.0
 40
4.0
 40
5.0
 40
5.0
 40
5.0
 40
6.0
 40
6.0
 40
6.0
 40
7.0
 40
7.0
 40
7.0
 40
7.0
 10
118.8303005345285
 20
-152.1395507432151
 10
118.8303005345285
 20
-152.1395507432151
 10
117.726147431506
 20
-152.1395507432151
 10
117.726147431506
 20
-152.1395507432151
 10
117.726147431506
 20
-152.1395507432151
 10
117.726147431506
 20
-152.4695908907021
 10
117.726147431506
 20
-152.4695908907021
 10
117.726147431506
 20
-152.4695908907021
 10
117.5780083256402
 20
-152.4695908907021
 10
117.5780083256402
 20
-152.4695908907021
 10
117.5631944150537
 20
-152.137483685924
 10
117.4002413986013
 20
-152.0909748968731
 10
117.285864228491
 20
-152.0613470757
 10
117.285864228491
 20
-152.0613470757
 10
117.285864228491
 20
-151.9152750271253
 10
117.285864228491
 20
-151.9152750271253
 10
117.285864228491
 20
-151.9152750271253
 10
118.8303005345285
 20
-151.9152750271253
 10
118.8303005345285
 20
-151.9152750271253
 10
118.8303005345285
 20
-151.9152750271253
 10
118.8303005345285
 20
-152.1395507432151
 10
118.8303005345285
 20
-152.1395507432151
 97
        0
 97
        0
 75
     2
 76
     1
 98
        0
  0
SPLINE
  5
250
330
24A
100
AcDbEntity
  8
_U+30EC_U+30A4_U+30E4_U+30FC 1
370
     0
100
AcDbSpline
210
0.0
220
0.0
230
1.0
 70
    11
 71
     3
 72
    62
 73
    58
 74
     0
 42
0.0000000001
 43
0.0000000001
 12
1.0
 22
0.0
 32
0.0
 13
1.0
 23
0.0
 33
0.0
 40
0.0
 40
0.0
 40
0.0
 40
0.0
 40
1.0
 40
1.0
 40
1.0
 40
2.0
 40
2.0
 40
2.0
 40
3.0
 40
3.0
 40
3.0
 40
4.0
 40
4.0
 40
4.0
 40
5.0
 40
5.0
 40
5.0
 40
6.0
 40
6.0
 40
6.0
 40
7.0
 40
7.0
 40
7.0
 40
8.0
 40
8.0
 40
8.0
 40
9.0
 40
9.0
 40
9.0
 40
10.0
 40
10.0
 40
10.0
 40
11.0
 40
11.0
 40
11.0
 40
12.0
 40
12.0
 40
12.0
 40
13.0
 40
13.0
 40
13.0
 40
14.0
 40
14.0
 40
14.0
 40
15.0
 40
15.0
 40
15.0
 40
16.0
 40
16.0
 40
16.0
 40
17.0
 40
17.0
 40
17.0
 40
18.0
 40
18.0
 40
18.0
 40
19.0
 40
19.0
 40
19.0
 40
19.0
 10
118.8809434381617
 20
-150.9223985082764
 30
0.0
 10
118.8809434381617
 20
-151.0178276532178
 30
0.0
 10
118.8599283557017
 20
-151.2355576878856
 30
0.0
 10
118.6738931994982
 20
-151.3606146540001
 30
0.0
 10
118.5615830866791
 20
-151.434684206933
 30
0.0
 10
118.4623643367039
 20
-151.4388183215153
 30
0.0
 10
118.3776149877667
 20
-151.4429524360976
 30
0.0
 10
118.3776149877667
 20
-151.4429524360976
 30
0.0
 10
118.3776149877667
 20
-151.2228108345901
 30
0.0
 10
118.3776149877667
 20
-151.2228108345901
 30
0.0
 10
118.4516845406996
 20
-151.220743777299
 30
0.0
 10
118.6862955432451
 20
-151.2104084908432
 30
0.0
 10
118.6862955432451
 20
-150.9268771324072
 30
0.0
 10
118.6862955432451
 20
-150.7894178225457
 30
0.0
 10
118.6167046144431
 20
-150.6368000925492
 30
0.0
 10
118.388294783771
 20
-150.6368000925492
 30
0.0
 10
118.2718505563695
 20
-150.6368000925492
 30
0.0
 10
118.2232747100275
 20
-150.6750406524354
 30
0.0
 10
118.1915798315632
 20
-150.7067355308997
 30
0.0
 10
118.1175102786303
 20
-150.7808050838326
 30
0.0
 10
118.1047634253349
 20
-150.897249311234
 30
0.0
 10
118.1047634253349
 20
-150.9520263294495
 30
0.0
 10
118.1047634253349
 20
-150.9713188641669
 30
0.0
 10
118.1068304826261
 20
-151.0071478572135
 30
0.0
 10
118.1109645972084
 20
-151.0347086210955
 30
0.0
 10
118.1109645972084
 20
-151.0347086210955
 30
0.0
 10
117.9163167022918
 20
-151.0347086210955
 30
0.0
 10
117.9163167022918
 20
-151.0347086210955
 30
0.0
 10
117.9228623837137
 20
-150.9964680612092
 30
0.0
 10
117.9249294410049
 20
-150.9544378962892
 30
0.0
 10
117.9249294410049
 20
-150.9478922148672
 30
0.0
 10
117.9249294410049
 20
-150.8824354006475
 30
0.0
 10
117.9035698489963
 20
-150.6836533911485
 30
0.0
 10
117.6668917891597
 20
-150.6836533911485
 30
0.0
 10
117.4891248621208
 20
-150.6836533911485
 30
0.0
 10
117.4340033343568
 20
-150.814567019588
 30
0.0
 10
117.4340033343568
 20
-150.924810075116
 30
0.0
 10
117.4340033343568
 20
-151.1890488988347
 30
0.0
 10
117.6668917891597
 20
-151.1976616375478
 30
0.0
 10
117.7385497752529
 20
-151.2017957521301
 30
0.0
 10
117.7385497752529
 20
-151.2017957521301
 30
0.0
 10
117.7385497752529
 20
-151.4050563857598
 30
0.0
 10
117.7385497752529
 20
-151.4050563857598
 30
0.0
 10
117.6138373186868
 20
-151.3964436470467
 30
0.0
 10
117.237288382149
 20
-151.3688828831647
 30
0.0
 10
117.237288382149
 20
-150.9120632218206
 30
0.0
 10
117.237288382149
 20
-150.6877875057308
 30
0.0
 10
117.3644124055547
 20
-150.4466308217633
 30
0.0
 10
117.6603461077377
 20
-150.4466308217633
 30
0.0
 10
117.8467257734897
 20
-150.4466308217633
 30
0.0
 10
117.9290635555872
 20
-150.5417154571562
 30
0.0
 10
117.9903862552246
 20
-150.64127871668
 30
0.0
 10
118.0179470191066
 20
-150.5799560170425
 30
0.0
 10
118.098217743913
 20
-150.3980549754213
 30
0.0
 10
118.3755479304756
 20
-150.3980549754213
 30
0.0
 10
118.7138563071271
 20
-150.3980549754213
 30
0.0
 10
118.8809434381617
 20
-150.6454128312623
 30
0.0
 10
118.8809434381617
 20
-150.9223985082764
 30
0.0
  0
HATCH
  5
251
330
24A
100
AcDbEntity
  8
_U+30EC_U+30A4_U+30E4_U+30FC 1
 62
   179
420
  2234388
100
AcDbHatch
 10
0.0
 20
0.0
 30
0.0
210
0.0
220
0.0
230
1.0
  2
SOLID
 70
     1
 71
     0
 91
        1
 92
        1
 93
        1
 72
     4
 94
        3
 73
     0
 74
     1
 95
       62
 96
       58
 40
0.0
 40
0.0
 40
0.0
 40
0.0
 40
1.0
 40
1.0
 40
1.0
 40
2.0
 40
2.0
 40
2.0
 40
3.0
 40
3.0
 40
3.0
 40
4.0
 40
4.0
 40
4.0
 40
5.0
 40
5.0
 40
5.0
 40
6.0
 40
6.0
 40
6.0
 40
7.0
 40
7.0
 40
7.0
 40
8.0
 40
8.0
 40
8.0
 40
9.0
 40
9.0
 40
9.0
 40
10.0
 40
10.0
 40
10.0
 40
11.0
 40
11.0
 40
11.0
 40
12.0
 40
12.0
 40
12.0
 40
13.0
 40
13.0
 40
13.0
 40
14.0
 40
14.0
 40
14.0
 40
15.0
 40
15.0
 40
15.0
 40
16.0
 40
16.0
 40
16.0
 40
17.0
 40
17.0
 40
17.0
 40
18.0
 40
18.0
 40
18.0
 40
19.0
 40
19.0
 40
19.0
 40
19.0
 10
118.8809434381617
 20
-150.9223985082764
 10
118.8809434381617
 20
-151.0178276532178
 10
118.8599283557017
 20
-151.2355576878856
 10
118.6738931994982
 20
-151.3606146540001
 10
118.5615830866791
 20
-151.434684206933
 10
118.4623643367039
 20
-151.4388183215153
 10
118.3776149877667
 20
-151.4429524360976
 10
118.3776149877667
 20
-151.4429524360976
 10
118.3776149877667
 20
-151.2228108345901
 10
118.3776149877667
 20
-151.2228108345901
 10
118.4516845406996
 20
-151.220743777299
 10
118.6862955432451
 20
-151.2104084908432
 10
118.6862955432451
 20
-150.9268771324072
 10
118.6862955432451
 20
-150.7894178225457
 10
118.6167046144431
 20
-150.6368000925492
 10
118.388294783771
 20
-150.6368000925492
 10
118.2718505563695
 20
-150.6368000925492
 10
118.2232747100275
 20
-150.6750406524354
 10
118.1915798315632
 20
-150.7067355308997
 10
118.1175102786303
 20
-150.7808050838326
 10
118.1047634253349
 20
-150.897249311234
 10
118.1047634253349
 20
-150.9520263294495
 10
118.1047634253349
 20
-150.9713188641669
 10
118.1068304826261
 20
-151.0071478572135
 10
118.1109645972084
 20
-151.0347086210955
 10
118.1109645972084
 20
-151.0347086210955
 10
117.9163167022918
 20
-151.0347086210955
 10
117.9163167022918
 20
-151.0347086210955
 10
117.9228623837137
 20
-150.9964680612092
 10
117.9249294410049
 20
-150.9544378962892
 10
117.9249294410049
 20
-150.9478922148672
 10
117.9249294410049
 20
-150.8824354006475
 10
117.9035698489963
 20
-150.6836533911485
 10
117.6668917891597
 20
-150.6836533911485
 10
117.4891248621208
 20
-150.6836533911485
 10
117.4340033343568
 20
-150.814567019588
 10
117.4340033343568
 20
-150.924810075116
 10
117.4340033343568
 20
-151.1890488988347
 10
117.6668917891597
 20
-151.1976616375478
 10
117.7385497752529
 20
-151.2017957521301
 10
117.7385497752529
 20
-151.2017957521301
 10
117.7385497752529
 20
-151.4050563857598
 10
117.7385497752529
 20
-151.4050563857598
 10
117.6138373186868
 20
-151.3964436470467
 10
117.237288382149
 20
-151.3688828831647
 10
117.237288382149
 20
-150.9120632218206
 10
117.237288382149
 20
-150.6877875057308
 10
117.3644124055547
 20
-150.4466308217633
 10
117.6603461077377
 20
-150.4466308217633
 10
117.8467257734897
 20
-150.4466308217633
 10
117.9290635555872
 20
-150.5417154571562
 10
117.9903862552246
 20
-150.64127871668
 10
118.0179470191066
 20
-150.5799560170425
 10
118.098217743913
 20
-150.3980549754213
 10
118.3755479304756
 20
-150.3980549754213
 10
118.7138563071271
 20
-150.3980549754213
 10
118.8809434381617
 20
-150.6454128312623
 10
118.8809434381617
 20
-150.9223985082764
 97
        0
 97
        0
 75
     2
 76
     1
 98
        0
  0
ENDBLK
  5
24D
330
24A
100
AcDbEntity
  8
0
100
AcDbBlockEnd
  0
ENDSEC
  0
SECTION
  2
ENTITIES
  0
SPLINE
  5
41
330
1F
100
AcDbEntity
  8
_U+30EC_U+30A4_U+30E4_U+30FC 1
370
     0
100
AcDbSpline
210
0.0
220
0.0
230
1.0
 70
    11
 71
     3
 72
   110
 73
   106
 74
     0
 42
0.0000000001
 43
0.0000000001
 12
1.0
 22
0.0
 32
0.0
 13
1.0
 23
0.0
 33
0.0
 40
0.0
 40
0.0
 40
0.0
 40
0.0
 40
1.0
 40
1.0
 40
1.0
 40
2.0
 40
2.0
 40
2.0
 40
3.0
 40
3.0
 40
3.0
 40
4.0
 40
4.0
 40
4.0
 40
5.0
 40
5.0
 40
5.0
 40
6.0
 40
6.0
 40
6.0
 40
7.0
 40
7.0
 40
7.0
 40
8.0
 40
8.0
 40
8.0
 40
9.0
 40
9.0
 40
9.0
 40
10.0
 40
10.0
 40
10.0
 40
11.0
 40
11.0
 40
11.0
 40
12.0
 40
12.0
 40
12.0
 40
13.0
 40
13.0
 40
13.0
 40
14.0
 40
14.0
 40
14.0
 40
15.0
 40
15.0
 40
15.0
 40
16.0
 40
16.0
 40
16.0
 40
17.0
 40
17.0
 40
17.0
 40
18.0
 40
18.0
 40
18.0
 40
19.0
 40
19.0
 40
19.0
 40
20.0
 40
20.0
 40
20.0
 40
21.0
 40
21.0
 40
21.0
 40
22.0
 40
22.0
 40
22.0
 40
23.0
 40
23.0
 40
23.0
 40
24.0
 40
24.0
 40
24.0
 40
25.0
 40
25.0
 40
25.0
 40
26.0
 40
26.0
 40
26.0
 40
27.0
 40
27.0
 40
27.0
 40
28.0
 40
28.0
 40
28.0
 40
29.0
 40
29.0
 40
29.0
 40
30.0
 40
30.0
 40
30.0
 40
31.0
 40
31.0
 40
31.0
 40
32.0
 40
32.0
 40
32.0
 40
33.0
 40
33.0
 40
33.0
 40
34.0
 40
34.0
 40
34.0
 40
35.0
 40
35.0
 40
35.0
 40
35.0
 10
94.39920134833488
 20
-155.5031158906218
 30
0.0
 10
94.39920134833488
 20
-155.5031158906218
 30
0.0
 10
93.4015447595001
 20
-155.5031158906218
 30
0.0
 10
93.4015447595001
 20
-155.5031158906218
 30
0.0
 10
93.4015447595001
 20
-155.5031158906218
 30
0.0
 10
93.4015447595001
 20
-158.0000780346374
 30
0.0
 10
93.4015447595001
 20
-158.0000780346374
 30
0.0
 10
93.4015447595001
 20
-158.0000780346374
 30
0.0
 10
110.9081419773457
 20
-158.0000780346374
 30
0.0
 10
110.9081419773457
 20
-158.0000780346374
 30
0.0
 10
110.9081419773457
 20
-158.0000780346374
 30
0.0
 10
110.9081419773457
 20
-144.0046790716648
 30
0.0
 10
110.9081419773457
 20
-144.0046790716648
 30
0.0
 10
110.9081419773457
 20
-144.0046790716648
 30
0.0
 10
114.4027499442726
 20
-144.0046790716648
 30
0.0
 10
114.4027499442726
 20
-144.0046790716648
 30
0.0
 10
114.4027499442726
 20
-144.0046790716648
 30
0.0
 10
114.4027499442726
 20
-145.0023356604997
 30
0.0
 10
114.4027499442726
 20
-145.0023356604997
 30
0.0
 10
114.4027499442726
 20
-145.0023356604997
 30
0.0
 10
115.9077076092338
 20
-145.0023356604997
 30
0.0
 10
115.9077076092338
 20
-145.0023356604997
 30
0.0
 10
115.9077076092338
 20
-145.0023356604997
 30
0.0
 10
115.9077076092338
 20
-141.5020755837922
 30
0.0
 10
115.9077076092338
 20
-141.5020755837922
 30
0.0
 10
115.9077076092338
 20
-141.5020755837922
 30
0.0
 10
114.1547568989515
 20
-141.5020755837922
 30
0.0
 10
114.1547568989515
 20
-141.5020755837922
 30
0.0
 10
114.1547568989515
 20
-141.5020755837922
 30
0.0
 10
114.1547568989515
 20
-142.9967948556082
 30
0.0
 10
114.1547568989515
 20
-142.9967948556082
 30
0.0
 10
114.1547568989515
 20
-142.9967948556082
 30
0.0
 10
110.1475510215896
 20
-142.9967948556082
 30
0.0
 10
110.1475510215896
 20
-142.9967948556082
 30
0.0
 10
110.1475510215896
 20
-142.9967948556082
 30
0.0
 10
109.8388704661112
 20
-142.9967948556082
 30
0.0
 10
109.8388704661112
 20
-142.9967948556082
 30
0.0
 10
109.6677676456516
 20
-142.9967948556082
 30
0.0
 10
109.0616999883324
 20
-143.2239881369371
 30
0.0
 10
109.0616999883324
 20
-143.8558078830085
 30
0.0
 10
109.0616999883324
 20
-144.6495578828101
 30
0.0
 10
109.9048332787304
 20
-144.710234627044
 30
0.0
 10
109.9048332787304
 20
-144.710234627044
 30
0.0
 10
109.9048332787304
 20
-144.710234627044
 30
0.0
 10
109.9048332787304
 20
-146.9944728907687
 30
0.0
 10
109.9048332787304
 20
-146.9944728907687
 30
0.0
 10
109.9048332787304
 20
-146.9944728907687
 30
0.0
 10
106.9044673228561
 20
-146.9944728907687
 30
0.0
 10
106.9044673228561
 20
-146.9944728907687
 30
0.0
 10
106.9044673228561
 20
-146.9944728907687
 30
0.0
 10
106.9062221683689
 20
-144.2967801051205
 30
0.0
 10
106.9062221683689
 20
-144.2967801051205
 30
0.0
 10
106.9062221683689
 20
-144.2967801051205
 30
0.0
 10
107.4078819006383
 20
-144.2967801051205
 30
0.0
 10
107.4078819006383
 20
-144.2967801051205
 30
0.0
 10
107.4078819006383
 20
-144.2967801051205
 30
0.0
 10
106.9062221683689
 20
-142.9960950705878
 30
0.0
 10
106.9062221683689
 20
-142.9960950705878
 30
0.0
 10
106.9062221683689
 20
-142.9960950705878
 30
0.0
 10
105.9142176893146
 20
-142.9960950705878
 30
0.0
 10
105.9142176893146
 20
-142.9960950705878
 30
0.0
 10
105.9142176893146
 20
-142.9960950705878
 30
0.0
 10
105.9142176893146
 20
-146.4804754102929
 30
0.0
 10
105.9142176893146
 20
-146.4804754102929
 30
0.0
 10
105.9142176893146
 20
-146.8036253668093
 30
0.0
 10
105.8313093132774
 20
-147.6538103370286
 30
0.0
 10
106.024277724145
 20
-147.8192718136314
 30
0.0
 10
106.2966232881774
 20
-148.0528062238375
 30
0.0
 10
106.663870466905
 20
-148.0087090016263
 30
0.0
 10
106.9284538001722
 20
-148.0087090016263
 30
0.0
 10
106.9284538001722
 20
-148.0087090016263
 30
0.0
 10
108.9057663539313
 20
-148.0087090016263
 30
0.0
 10
108.9057663539313
 20
-148.0087090016263
 30
0.0
 10
108.9057663539313
 20
-148.0087090016263
 30
0.0
 10
108.9057663539313
 20
-156.4676134354111
 30
0.0
 10
108.9057663539313
 20
-156.4676134354111
 30
0.0
 10
108.9057663539313
 20
-156.7710079225043
 30
0.0
 10
108.7251464571937
 20
-157.0024214458026
 30
0.0
 10
108.2841742350817
 20
-157.0024214458026
 30
0.0
 10
108.2841742350817
 20
-157.0024214458026
 30
0.0
 10
104.4000982235473
 20
-157.0024214458026
 30
0.0
 10
104.4000982235473
 20
-157.0024214458026
 30
0.0
 10
104.4000982235473
 20
-157.0024214458026
 30
0.0
 10
104.4000982235473
 20
-155.4974745467647
 30
0.0
 10
104.4000982235473
 20
-155.4974745467647
 30
0.0
 10
104.4000982235473
 20
-155.4974745467647
 30
0.0
 10
103.4006760232764
 20
-155.4974745467647
 30
0.0
 10
103.4006760232764
 20
-155.4974745467647
 30
0.0
 10
103.4006760232764
 20
-155.4974745467647
 30
0.0
 10
103.4006760232764
 20
-157.0045423327107
 30
0.0
 10
103.4006760232764
 20
-157.0045423327107
 30
0.0
 10
103.4006760232764
 20
-157.0045423327107
 30
0.0
 10
99.28482044704838
 20
-157.0045423327107
 30
0.0
 10
99.28482044704838
 20
-157.0045423327107
 30
0.0
 10
99.28482044704838
 20
-157.0045423327107
 30
0.0
 10
99.16734269100135
 20
-157.250425257047
 30
0.0
 10
98.90275935773417
 20
-157.250425257047
 30
0.0
 10
98.63817602446699
 20
-157.250425257047
 30
0.0
 10
98.53340205802182
 20
-157.0045423327107
 30
0.0
 10
98.53340205802182
 20
-157.0045423327107
 30
0.0
 10
98.53340205802182
 20
-157.0045423327107
 30
0.0
 10
94.40484269219198
 20
-157.0045423327107
 30
0.0
 10
94.40484269219198
 20
-157.0045423327107
 30
0.0
 10
94.40484269219198
 20
-157.0045423327107
 30
0.0
 10
94.39920134833488
 20
-155.5031158906218
 30
0.0
 10
94.39920134833488
 20
-155.5031158906218
 30
0.0
  0
HATCH
  5
42
330
1F
100
AcDbEntity
  8
_U+30EC_U+30A4_U+30E4_U+30FC 1
 62
    42
420
 14452241
100
AcDbHatch
 10
0.0
 20
0.0
 30
0.0
210
0.0
220
0.0
230
1.0
  2
SOLID
 70
     1
 71
     0
 91
        1
 92
        1
 93
        1
 72
     4
 94
        3
 73
     0
 74
     1
 95
      110
 96
      106
 40
0.0
 40
0.0
 40
0.0
 40
0.0
 40
1.0
 40
1.0
 40
1.0
 40
2.0
 40
2.0
 40
2.0
 40
3.0
 40
3.0
 40
3.0
 40
4.0
 40
4.0
 40
4.0
 40
5.0
 40
5.0
 40
5.0
 40
6.0
 40
6.0
 40
6.0
 40
7.0
 40
7.0
 40
7.0
 40
8.0
 40
8.0
 40
8.0
 40
9.0
 40
9.0
 40
9.0
 40
10.0
 40
10.0
 40
10.0
 40
11.0
 40
11.0
 40
11.0
 40
12.0
 40
12.0
 40
12.0
 40
13.0
 40
13.0
 40
13.0
 40
14.0
 40
14.0
 40
14.0
 40
15.0
 40
15.0
 40
15.0
 40
16.0
 40
16.0
 40
16.0
 40
17.0
 40
17.0
 40
17.0
 40
18.0
 40
18.0
 40
18.0
 40
19.0
 40
19.0
 40
19.0
 40
20.0
 40
20.0
 40
20.0
 40
21.0
 40
21.0
 40
21.0
 40
22.0
 40
22.0
 40
22.0
 40
23.0
 40
23.0
 40
23.0
 40
24.0
 40
24.0
 40
24.0
 40
25.0
 40
25.0
 40
25.0
 40
26.0
 40
26.0
 40
26.0
 40
27.0
 40
27.0
 40
27.0
 40
28.0
 40
28.0
 40
28.0
 40
29.0
 40
29.0
 40
29.0
 40
30.0
 40
30.0
 40
30.0
 40
31.0
 40
31.0
 40
31.0
 40
32.0
 40
32.0
 40
32.0
 40
33.0
 40
33.0
 40
33.0
 40
34.0
 40
34.0
 40
34.0
 40
35.0
 40
35.0
 40
35.0
 40
35.0
 10
94.39920134833488
 20
-155.5031158906218
 10
94.39920134833488
 20
-155.5031158906218
 10
93.4015447595001
 20
-155.5031158906218
 10
93.4015447595001
 20
-155.5031158906218
 10
93.4015447595001
 20
-155.5031158906218
 10
93.4015447595001
 20
-158.0000780346374
 10
93.4015447595001
 20
-158.0000780346374
 10
93.4015447595001
 20
-158.0000780346374
 10
110.9081419773457
 20
-158.0000780346374
 10
110.9081419773457
 20
-158.0000780346374
 10
110.9081419773457
 20
-158.0000780346374
 10
110.9081419773457
 20
-144.0046790716648
 10
110.9081419773457
 20
-144.0046790716648
 10
110.9081419773457
 20
-144.0046790716648
 10
114.4027499442726
 20
-144.0046790716648
 10
114.4027499442726
 20
-144.0046790716648
 10
114.4027499442726
 20
-144.0046790716648
 10
114.4027499442726
 20
-145.0023356604997
 10
114.4027499442726
 20
-145.0023356604997
 10
114.4027499442726
 20
-145.0023356604997
 10
115.9077076092338
 20
-145.0023356604997
 10
115.9077076092338
 20
-145.0023356604997
 10
115.9077076092338
 20
-145.0023356604997
 10
115.9077076092338
 20
-141.5020755837922
 10
115.9077076092338
 20
-141.5020755837922
 10
115.9077076092338
 20
-141.5020755837922
 10
114.1547568989515
 20
-141.5020755837922
 10
114.1547568989515
 20
-141.5020755837922
 10
114.1547568989515
 20
-141.5020755837922
 10
114.1547568989515
 20
-142.9967948556082
 10
114.1547568989515
 20
-142.9967948556082
 10
114.1547568989515
 20
-142.9967948556082
 10
110.1475510215896
 20
-142.9967948556082
 10
110.1475510215896
 20
-142.9967948556082
 10
110.1475510215896
 20
-142.9967948556082
 10
109.8388704661112
 20
-142.9967948556082
 10
109.8388704661112
 20
-142.9967948556082
 10
109.6677676456516
 20
-142.9967948556082
 10
109.0616999883324
 20
-143.2239881369371
 10
109.0616999883324
 20
-143.8558078830085
 10
109.0616999883324
 20
-144.6495578828101
 10
109.9048332787304
 20
-144.710234627044
 10
109.9048332787304
 20
-144.710234627044
 10
109.9048332787304
 20
-144.710234627044
 10
109.9048332787304
 20
-146.9944728907687
 10
109.9048332787304
 20
-146.9944728907687
 10
109.9048332787304
 20
-146.9944728907687
 10
106.9044673228561
 20
-146.9944728907687
 10
106.9044673228561
 20
-146.9944728907687
 10
106.9044673228561
 20
-146.9944728907687
 10
106.9062221683689
 20
-144.2967801051205
 10
106.9062221683689
 20
-144.2967801051205
 10
106.9062221683689
 20
-144.2967801051205
 10
107.4078819006383
 20
-144.2967801051205
 10
107.4078819006383
 20
-144.2967801051205
 10
107.4078819006383
 20
-144.2967801051205
 10
106.9062221683689
 20
-142.9960950705878
 10
106.9062221683689
 20
-142.9960950705878
 10
106.9062221683689
 20
-142.9960950705878
 10
105.9142176893146
 20
-142.9960950705878
 10
105.9142176893146
 20
-142.9960950705878
 10
105.9142176893146
 20
-142.9960950705878
 10
105.9142176893146
 20
-146.4804754102929
 10
105.9142176893146
 20
-146.4804754102929
 10
105.9142176893146
 20
-146.8036253668093
 10
105.8313093132774
 20
-147.6538103370286
 10
106.024277724145
 20
-147.8192718136314
 10
106.2966232881774
 20
-148.0528062238375
 10
106.663870466905
 20
-148.0087090016263
 10
106.9284538001722
 20
-148.0087090016263
 10
106.9284538001722
 20
-148.0087090016263
 10
108.9057663539313
 20
-148.0087090016263
 10
108.9057663539313
 20
-148.0087090016263
 10
108.9057663539313
 20
-148.0087090016263
 10
108.9057663539313
 20
-156.4676134354111
 10
108.9057663539313
 20
-156.4676134354111
 10
108.9057663539313
 20
-156.7710079225043
 10
108.7251464571937
 20
-157.0024214458026
 10
108.2841742350817
 20
-157.0024214458026
 10
108.2841742350817
 20
-157.0024214458026
 10
104.4000982235473
 20
-157.0024214458026
 10
104.4000982235473
 20
-157.0024214458026
 10
104.4000982235473
 20
-157.0024214458026
 10
104.4000982235473
 20
-155.4974745467647
 10
104.4000982235473
 20
-155.4974745467647
 10
104.4000982235473
 20
-155.4974745467647
 10
103.4006760232764
 20
-155.4974745467647
 10
103.4006760232764
 20
-155.4974745467647
 10
103.4006760232764
 20
-155.4974745467647
 10
103.4006760232764
 20
-157.0045423327107
 10
103.4006760232764
 20
-157.0045423327107
 10
103.4006760232764
 20
-157.0045423327107
 10
99.28482044704838
 20
-157.0045423327107
 10
99.28482044704838
 20
-157.0045423327107
 10
99.28482044704838
 20
-157.0045423327107
 10
99.16734269100135
 20
-157.250425257047
 10
98.90275935773417
 20
-157.250425257047
 10
98.63817602446699
 20
-157.250425257047
 10
98.53340205802182
 20
-157.0045423327107
 10
98.53340205802182
 20
-157.0045423327107
 10
98.53340205802182
 20
-157.0045423327107
 10
94.40484269219198
 20
-157.0045423327107
 10
94.40484269219198
 20
-157.0045423327107
 10
94.40484269219198
 20
-157.0045423327107
 10
94.39920134833488
 20
-155.5031158906218
 10
94.39920134833488
 20
-155.5031158906218
 97
        0
 97
        0
 75
     2
 76
     1
 98
        0
  0
SPLINE
  5
43
330
1F
100
AcDbEntity
  8
_U+30EC_U+30A4_U+30E4_U+30FC 1
370
     0
100
AcDbSpline
210
0.0
220
0.0
230
1.0
 70
    11
 71
     3
 72
    62
 73
    58
 74
     0
 42
0.0000000001
 43
0.0000000001
 12
1.0
 22
0.0
 32
0.0
 13
1.0
 23
0.0
 33
0.0
 40
0.0
 40
0.0
 40
0.0
 40
0.0
 40
1.0
 40
1.0
 40
1.0
 40
2.0
 40
2.0
 40
2.0
 40
3.0
 40
3.0
 40
3.0
 40
4.0
 40
4.0
 40
4.0
 40
5.0
 40
5.0
 40
5.0
 40
6.0
 40
6.0
 40
6.0
 40
7.0
 40
7.0
 40
7.0
 40
8.0
 40
8.0
 40
8.0
 40
9.0
 40
9.0
 40
9.0
 40
10.0
 40
10.0
 40
10.0
 40
11.0
 40
11.0
 40
11.0
 40
12.0
 40
12.0
 40
12.0
 40
13.0
 40
13.0
 40
13.0
 40
14.0
 40
14.0
 40
14.0
 40
15.0
 40
15.0
 40
15.0
 40
16.0
 40
16.0
 40
16.0
 40
17.0
 40
17.0
 40
17.0
 40
18.0
 40
18.0
 40
18.0
 40
19.0
 40
19.0
 40
19.0
 40
19.0
 10
113.4106162741376
 20
-141.4967033880199
 30
0.0
 10
113.4106162741376
 20
-141.4967033880199
 30
0.0
 10
112.5286718299136
 20
-141.0007065314545
 30
0.0
 10
112.5286718299136
 20
-141.0007065314545
 30
0.0
 10
112.5286718299136
 20
-141.0007065314545
 30
0.0
 10
100.8979325784
 20
-141.0007065314545
 30
0.0
 10
100.8979325784
 20
-141.0007065314545
 30
0.0
 10
100.8979325784
 20
-141.0007065314545
 30
0.0
 10
100.8979325784
 20
-141.695323908668
 30
0.0
 10
100.8979325784
 20
-141.695323908668
 30
0.0
 10
100.8979325784
 20
-141.695323908668
 30
0.0
 10
101.9012412770149
 20
-141.695323908668
 30
0.0
 10
101.9012412770149
 20
-141.695323908668
 30
0.0
 10
101.9012412770149
 20
-141.695323908668
 30
0.0
 10
101.9012412770149
 20
-142.5109394988775
 30
0.0
 10
101.9012412770149
 20
-142.5109394988775
 30
0.0
 10
101.9012412770149
 20
-142.5109394988775
 30
0.0
 10
107.523454088245
 20
-142.5109394988775
 30
0.0
 10
107.523454088245
 20
-142.5109394988775
 30
0.0
 10
107.6889047989241
 20
-142.5109394988775
 30
0.0
 10
107.8984634977379
 20
-142.7314256099335
 30
0.0
 10
107.8984634977379
 20
-142.9409843087472
 30
0.0
 10
107.8984634977379
 20
-142.9409843087472
 30
0.0
 10
107.8984634977379
 20
-144.5002560572181
 30
0.0
 10
107.8984634977379
 20
-144.5002560572181
 30
0.0
 10
107.5336817154668
 20
-144.6861727882642
 30
0.0
 10
107.2811023867811
 20
-145.0611714318337
 30
0.0
 10
107.2811023867811
 20
-145.4986231969967
 30
0.0
 10
107.2811023867811
 20
-146.1198600403743
 30
0.0
 10
107.7845061986398
 20
-146.6229193426846
 30
0.0
 10
108.405398532469
 20
-146.6229193426846
 30
0.0
 10
109.02664614177
 20
-146.6229193426846
 30
0.0
 10
109.5300607195522
 20
-146.1198600403743
 30
0.0
 10
109.5300607195522
 20
-145.4986231969967
 30
0.0
 10
109.5300607195522
 20
-145.0611714318337
 30
0.0
 10
109.277470624943
 20
-144.6861727882642
 30
0.0
 10
108.9126996085954
 20
-144.5002560572181
 30
0.0
 10
108.9126996085954
 20
-144.5002560572181
 30
0.0
 10
108.9126996085954
 20
-143.1392387879999
 30
0.0
 10
108.9126996085954
 20
-143.1392387879999
 30
0.0
 10
108.9126996085954
 20
-142.7645954199024
 30
0.0
 10
109.0890884974402
 20
-142.5109394988775
 30
0.0
 10
109.3868308747529
 20
-142.5109394988775
 30
0.0
 10
109.3868308747529
 20
-142.5109394988775
 30
0.0
 10
112.5286718299136
 20
-142.5109394988775
 30
0.0
 10
112.5286718299136
 20
-142.5109394988775
 30
0.0
 10
112.5286718299136
 20
-142.5109394988775
 30
0.0
 10
113.4106162741376
 20
-142.0040044641464
 30
0.0
 10
113.4106162741376
 20
-142.0040044641464
 30
0.0
 10
113.4106162741376
 20
-142.0040044641464
 30
0.0
 10
115.1635669844198
 20
-142.0040044641464
 30
0.0
 10
115.1635669844198
 20
-142.0040044641464
 30
0.0
 10
115.1635669844198
 20
-142.0040044641464
 30
0.0
 10
115.1635669844198
 20
-141.4967033880199
 30
0.0
 10
115.1635669844198
 20
-141.4967033880199
 30
0.0
 10
115.1635669844198
 20
-141.4967033880199
 30
0.0
 10
113.4106162741376
 20
-141.4967033880199
 30
0.0
 10
113.4106162741376
 20
-141.4967033880199
 30
0.0
  0
HATCH
  5
44
330
1F
100
AcDbEntity
  8
_U+30EC_U+30A4_U+30E4_U+30FC 1
 62
    42
420
 14452241
100
AcDbHatch
 10
0.0
 20
0.0
 30
0.0
210
0.0
220
0.0
230
1.0
  2
SOLID
 70
     1
 71
     0
 91
        1
 92
        1
 93
        1
 72
     4
 94
        3
 73
     0
 74
     1
 95
       62
 96
       58
 40
0.0
 40
0.0
 40
0.0
 40
0.0
 40
1.0
 40
1.0
 40
1.0
 40
2.0
 40
2.0
 40
2.0
 40
3.0
 40
3.0
 40
3.0
 40
4.0
 40
4.0
 40
4.0
 40
5.0
 40
5.0
 40
5.0
 40
6.0
 40
6.0
 40
6.0
 40
7.0
 40
7.0
 40
7.0
 40
8.0
 40
8.0
 40
8.0
 40
9.0
 40
9.0
 40
9.0
 40
10.0
 40
10.0
 40
10.0
 40
11.0
 40
11.0
 40
11.0
 40
12.0
 40
12.0
 40
12.0
 40
13.0
 40
13.0
 40
13.0
 40
14.0
 40
14.0
 40
14.0
 40
15.0
 40
15.0
 40
15.0
 40
16.0
 40
16.0
 40
16.0
 40
17.0
 40
17.0
 40
17.0
 40
18.0
 40
18.0
 40
18.0
 40
19.0
 40
19.0
 40
19.0
 40
19.0
 10
113.4106162741376
 20
-141.4967033880199
 10
113.4106162741376
 20
-141.4967033880199
 10
112.5286718299136
 20
-141.0007065314545
 10
112.5286718299136
 20
-141.0007065314545
 10
112.5286718299136
 20
-141.0007065314545
 10
100.8979325784
 20
-141.0007065314545
 10
100.8979325784
 20
-141.0007065314545
 10
100.8979325784
 20
-141.0007065314545
 10
100.8979325784
 20
-141.695323908668
 10
100.8979325784
 20
-141.695323908668
 10
100.8979325784
 20
-141.695323908668
 10
101.9012412770149
 20
-141.695323908668
 10
101.9012412770149
 20
-141.695323908668
 10
101.9012412770149
 20
-141.695323908668
 10
101.9012412770149
 20
-142.5109394988775
 10
101.9012412770149
 20
-142.5109394988775
 10
101.9012412770149
 20
-142.5109394988775
 10
107.523454088245
 20
-142.5109394988775
 10
107.523454088245
 20
-142.5109394988775
 10
107.6889047989241
 20
-142.5109394988775
 10
107.8984634977379
 20
-142.7314256099335
 10
107.8984634977379
 20
-142.9409843087472
 10
107.8984634977379
 20
-142.9409843087472
 10
107.8984634977379
 20
-144.5002560572181
 10
107.8984634977379
 20
-144.5002560572181
 10
107.5336817154668
 20
-144.6861727882642
 10
107.2811023867811
 20
-145.0611714318337
 10
107.2811023867811
 20
-145.4986231969967
 10
107.2811023867811
 20
-146.1198600403743
 10
107.7845061986398
 20
-146.6229193426846
 10
108.405398532469
 20
-146.6229193426846
 10
109.02664614177
 20
-146.6229193426846
 10
109.5300607195522
 20
-146.1198600403743
 10
109.5300607195522
 20
-145.4986231969967
 10
109.5300607195522
 20
-145.0611714318337
 10
109.277470624943
 20
-144.6861727882642
 10
108.9126996085954
 20
-144.5002560572181
 10
108.9126996085954
 20
-144.5002560572181
 10
108.9126996085954
 20
-143.1392387879999
 10
108.9126996085954
 20
-143.1392387879999
 10
108.9126996085954
 20
-142.7645954199024
 10
109.0890884974402
 20
-142.5109394988775
 10
109.3868308747529
 20
-142.5109394988775
 10
109.3868308747529
 20
-142.5109394988775
 10
112.5286718299136
 20
-142.5109394988775
 10
112.5286718299136
 20
-142.5109394988775
 10
112.5286718299136
 20
-142.5109394988775
 10
113.4106162741376
 20
-142.0040044641464
 10
113.4106162741376
 20
-142.0040044641464
 10
113.4106162741376
 20
-142.0040044641464
 10
115.1635669844198
 20
-142.0040044641464
 10
115.1635669844198
 20
-142.0040044641464
 10
115.1635669844198
 20
-142.0040044641464
 10
115.1635669844198
 20
-141.4967033880199
 10
115.1635669844198
 20
-141.4967033880199
 10
115.1635669844198
 20
-141.4967033880199
 10
113.4106162741376
 20
-141.4967033880199
 10
113.4106162741376
 20
-141.4967033880199
 97
        0
 97
        0
 75
     2
 76
     1
 98
        0
  0
SPLINE
  5
45
330
1F
100
AcDbEntity
  8
_U+30EC_U+30A4_U+30E4_U+30FC 1
 62
   179
420
  2234388
370
     9
100
AcDbSpline
210
0.0
220
0.0
230
1.0
 70
    11
 71
     3
 72
    17
 73
    13
 74
     0
 42
0.0000000001
 43
0.0000000001
 12
1.0
 22
0.0
 32
0.0
 13
1.0
 23
0.0
 33
0.0
 40
0.0
 40
0.0
 40
0.0
 40
0.0
 40
1.0
 40
1.0
 40
1.0
 40
2.0
 40
2.0
 40
2.0
 40
3.0
 40
3.0
 40
3.0
 40
4.0
 40
4.0
 40
4.0
 40
4.0
 10
101.3203874122787
 20
-156.2072934078069
 30
0.0
 10
101.3203874122787
 20
-156.1522687733534
 30
0.0
 10
101.2755796391234
 20
-156.1074610001984
 30
0.0
 10
101.2205442387465
 20
-156.1074610001984
 30
0.0
 10
101.1655088383696
 20
-156.1074610001984
 30
0.0
 10
101.120711831138
 20
-156.1522687733534
 30
0.0
 10
101.120711831138
 20
-156.2072934078069
 30
0.0
 10
101.120711831138
 20
-156.2630393591276
 30
0.0
 10
101.1655088383696
 20
-156.3078363663593
 30
0.0
 10
101.2205442387465
 20
-156.3078363663593
 30
0.0
 10
101.2755796391234
 20
-156.3078363663593
 30
0.0
 10
101.3203874122787
 20
-156.2630393591276
 30
0.0
 10
101.3203874122787
 20
-156.2072934078069
 30
0.0
  0
POLYLINE
  5
46
330
1F
100
AcDbEntity
  8
_U+30EC_U+30A4_U+30E4_U+30FC 1
 62
   179
420
  2234388
370
    25
100
AcDb2dPolyline
 66
     1
 10
0.0
 20
0.0
 30
0.0
  0
VERTEX
  5
47
330
46
100
AcDbEntity
  8
_U+30EC_U+30A4_U+30E4_U+30FC 1
 62
   179
420
  2234388
370
    25
100
AcDbVertex
100
AcDb2dVertex
 10
110.9087771668258
 20
-144.0006203185463
 30
0.0
  0
VERTEX
  5
48
330
46
100
AcDbEntity
  8
_U+30EC_U+30A4_U+30E4_U+30FC 1
 62
   179
420
  2234388
370
    25
100
AcDbVertex
100
AcDb2dVertex
 10
110.9087771668258
 20
-158.0020266667712
 30
0.0
  0
SEQEND
  5
49
330
46
100
AcDbEntity
  8
_U+30EC_U+30A4_U+30E4_U+30FC 1
 62
   179
420
  2234388
370
    25
  0
POLYLINE
  5
4A
330
1F
100
AcDbEntity
  8
_U+30EC_U+30A4_U+30E4_U+30FC 1
 62
   179
420
  2234388
370
    25
100
AcDb2dPolyline
 66
     1
 10
0.0
 20
0.0
 30
0.0
  0
VERTEX
  5
4B
330
4A
100
AcDbEntity
  8
_U+30EC_U+30A4_U+30E4_U+30FC 1
 62
   179
420
  2234388
370
    25
100
AcDbVertex
100
AcDb2dVertex
 10
113.4085276849997
 20
-141.5008698003724
 30
0.0
  0
VERTEX
  5
4C
330
4A
100
AcDbEntity
  8
_U+30EC_U+30A4_U+30E4_U+30FC 1
 62
   179
420
  2234388
370
    25
100
AcDbVertex
100
AcDb2dVertex
 10
115.9090102859642
 20
-141.5008698003724
 30
0.0
  0
SEQEND
  5
4D
330
4A
100
AcDbEntity
  8
_U+30EC_U+30A4_U+30E4_U+30FC 1
 62
   179
420
  2234388
370
    25
  0
POLYLINE
  5
4E
330
1F
100
AcDbEntity
  8
_U+30EC_U+30A4_U+30E4_U+30FC 1
 62
   179
420
  2234388
370
    25
100
AcDb2dPolyline
 66
     1
 10
0.0
 20
0.0
 30
0.0
  0
VERTEX
  5
4F
330
4E
100
AcDbEntity
  8
_U+30EC_U+30A4_U+30E4_U+30FC 1
 62
   179
420
  2234388
370
    25
100
AcDbVertex
100
AcDb2dVertex
 10
115.9089887541174
 20
-141.5008698003724
 30
0.0
  0
VERTEX
  5
50
330
4E
100
AcDbEntity
  8
_U+30EC_U+30A4_U+30E4_U+30FC 1
 62
   179
420
  2234388
370
    25
100
AcDbVertex
100
AcDb2dVertex
 10
115.9089887541174
 20
-145.0018404280236
 30
0.0
  0
SEQEND
  5
51
330
4E
100
AcDbEntity
  8
_U+30EC_U+30A4_U+30E4_U+30FC 1
 62
   179
420
  2234388
370
    25
  0
POLYLINE
  5
52
330
1F
100
AcDbEntity
  8
_U+30EC_U+30A4_U+30E4_U+30FC 1
 62
   179
420
  2234388
370
    25
100
AcDb2dPolyline
 66
     1
 10
0.0
 20
0.0
 30
0.0
  0
VERTEX
  5
53
330
52
100
AcDbEntity
  8
_U+30EC_U+30A4_U+30E4_U+30FC 1
 62
   179
420
  2234388
370
    25
100
AcDbVertex
100
AcDb2dVertex
 10
93.4090593740273
 20
-155.502405339678
 30
0.0
  0
VERTEX
  5
54
330
52
100
AcDbEntity
  8
_U+30EC_U+30A4_U+30E4_U+30FC 1
 62
   179
420
  2234388
370
    25
100
AcDbVertex
100
AcDb2dVertex
 10
93.4090593740273
 20
-158.0021989215455
 30
0.0
  0
SEQEND
  5
55
330
52
100
AcDbEntity
  8
_U+30EC_U+30A4_U+30E4_U+30FC 1
 62
   179
420
  2234388
370
    25
  0
POLYLINE
  5
56
330
1F
100
AcDbEntity
  8
_U+30EC_U+30A4_U+30E4_U+30FC 1
 62
   179
420
  2234388
370
    25
100
AcDb2dPolyline
 66
     1
 10
0.0
 20
0.0
 30
0.0
  0
VERTEX
  5
57
330
56
100
AcDbEntity
  8
_U+30EC_U+30A4_U+30E4_U+30FC 1
 62
   179
420
  2234388
370
    25
100
AcDbVertex
100
AcDb2dVertex
 10
114.409004945763
 20
-145.0017650665599
 30
0.0
  0
VERTEX
  5
58
330
56
100
AcDbEntity
  8
_U+30EC_U+30A4_U+30E4_U+30FC 1
 62
   179
420
  2234388
370
    25
100
AcDbVertex
100
AcDb2dVertex
 10
115.9090102859642
 20
-145.0017650665599
 30
0.0
  0
SEQEND
  5
59
330
56
100
AcDbEntity
  8
_U+30EC_U+30A4_U+30E4_U+30FC 1
 62
   179
420
  2234388
370
    25
  0
POLYLINE
  5
5A
330
1F
100
AcDbEntity
  8
_U+30EC_U+30A4_U+30E4_U+30FC 1
 62
   179
420
  2234388
370
    25
100
AcDb2dPolyline
 66
     1
 10
0.0
 20
0.0
 30
0.0
  0
VERTEX
  5
5B
330
5A
100
AcDbEntity
  8
_U+30EC_U+30A4_U+30E4_U+30FC 1
 62
   179
420
  2234388
370
    25
100
AcDbVertex
100
AcDb2dVertex
 10
93.4090593740273
 20
-158.0021558578519
 30
0.0
  0
VERTEX
  5
5C
330
5A
100
AcDbEntity
  8
_U+30EC_U+30A4_U+30E4_U+30FC 1
 62
   179
420
  2234388
370
    25
100
AcDbVertex
100
AcDb2dVertex
 10
110.9085941461281
 20
-158.0021558578519
 30
0.0
  0
SEQEND
  5
5D
330
5A
100
AcDbEntity
  8
_U+30EC_U+30A4_U+30E4_U+30FC 1
 62
   179
420
  2234388
370
    25
  0
POLYLINE
  5
5E
330
1F
100
AcDbEntity
  8
_U+30EC_U+30A4_U+30E4_U+30FC 1
 62
   179
420
  2234388
370
    25
100
AcDb2dPolyline
 66
     1
 10
0.0
 20
0.0
 30
0.0
  0
VERTEX
  5
5F
330
5E
100
AcDbEntity
  8
_U+30EC_U+30A4_U+30E4_U+30FC 1
 62
   179
420
  2234388
370
    25
100
AcDbVertex
100
AcDb2dVertex
 10
93.4090593740273
 20
-155.502405339678
 30
0.0
  0
VERTEX
  5
60
330
5E
100
AcDbEntity
  8
_U+30EC_U+30A4_U+30E4_U+30FC 1
 62
   179
420
  2234388
370
    25
100
AcDbVertex
100
AcDb2dVertex
 10
94.4088260838468
 20
-155.502405339678
 30
0.0
  0
SEQEND
  5
61
330
5E
100
AcDbEntity
  8
_U+30EC_U+30A4_U+30E4_U+30FC 1
 62
   179
420
  2234388
370
    25
  0
POLYLINE
  5
62
330
1F
100
AcDbEntity
  8
_U+30EC_U+30A4_U+30E4_U+30FC 1
 62
   179
420
  2234388
370
    25
100
AcDb2dPolyline
 66
     1
 10
0.0
 20
0.0
 30
0.0
  0
VERTEX
  5
63
330
62
100
AcDbEntity
  8
_U+30EC_U+30A4_U+30E4_U+30FC 1
 62
   179
420
  2234388
370
    25
100
AcDbVertex
100
AcDb2dVertex
 10
94.40883684977051
 20
-155.502405339678
 30
0.0
  0
VERTEX
  5
64
330
62
100
AcDbEntity
  8
_U+30EC_U+30A4_U+30E4_U+30FC 1
 62
   179
420
  2234388
370
    25
100
AcDbVertex
100
AcDb2dVertex
 10
94.40883684977051
 20
-157.0024214458026
 30
0.0
  0
SEQEND
  5
65
330
62
100
AcDbEntity
  8
_U+30EC_U+30A4_U+30E4_U+30FC 1
 62
   179
420
  2234388
370
    25
  0
POLYLINE
  5
66
330
1F
100
AcDbEntity
  8
_U+30EC_U+30A4_U+30E4_U+30FC 1
 62
   179
420
  2234388
370
    25
100
AcDb2dPolyline
 66
     1
 10
0.0
 20
0.0
 30
0.0
  0
VERTEX
  5
67
330
66
100
AcDbEntity
  8
_U+30EC_U+30A4_U+30E4_U+30FC 1
 62
   179
420
  2234388
370
    25
100
AcDbVertex
100
AcDb2dVertex
 10
94.40883684977051
 20
-157.0024214458026
 30
0.0
  0
VERTEX
  5
68
330
66
100
AcDbEntity
  8
_U+30EC_U+30A4_U+30E4_U+30FC 1
 62
   179
420
  2234388
370
    25
100
AcDbVertex
100
AcDb2dVertex
 10
98.53386499272764
 20
-157.0024214458026
 30
0.0
  0
SEQEND
  5
69
330
66
100
AcDbEntity
  8
_U+30EC_U+30A4_U+30E4_U+30FC 1
 62
   179
420
  2234388
370
    25
  0
POLYLINE
  5
6A
330
1F
100
AcDbEntity
  8
_U+30EC_U+30A4_U+30E4_U+30FC 1
 62
   179
420
  2234388
370
    25
100
AcDb2dPolyline
 66
     1
 10
0.0
 20
0.0
 30
0.0
  0
VERTEX
  5
6B
330
6A
100
AcDbEntity
  8
_U+30EC_U+30A4_U+30E4_U+30FC 1
 62
   179
420
  2234388
370
    25
100
AcDbVertex
100
AcDb2dVertex
 10
103.4087935295135
 20
-155.502405339678
 30
0.0
  0
VERTEX
  5
6C
330
6A
100
AcDbEntity
  8
_U+30EC_U+30A4_U+30E4_U+30FC 1
 62
   179
420
  2234388
370
    25
100
AcDbVertex
100
AcDb2dVertex
 10
103.4087935295135
 20
-157.0024214458026
 30
0.0
  0
SEQEND
  5
6D
330
6A
100
AcDbEntity
  8
_U+30EC_U+30A4_U+30E4_U+30FC 1
 62
   179
420
  2234388
370
    25
  0
POLYLINE
  5
6E
330
1F
100
AcDbEntity
  8
_U+30EC_U+30A4_U+30E4_U+30FC 1
 62
   179
420
  2234388
370
    25
100
AcDb2dPolyline
 66
     1
 10
0.0
 20
0.0
 30
0.0
  0
VERTEX
  5
6F
330
6E
100
AcDbEntity
  8
_U+30EC_U+30A4_U+30E4_U+30FC 1
 62
   179
420
  2234388
370
    25
100
AcDbVertex
100
AcDb2dVertex
 10
104.4085710052567
 20
-155.502405339678
 30
0.0
  0
VERTEX
  5
70
330
6E
100
AcDbEntity
  8
_U+30EC_U+30A4_U+30E4_U+30FC 1
 62
   179
420
  2234388
370
    25
100
AcDbVertex
100
AcDb2dVertex
 10
104.4085710052567
 20
-157.0024214458026
 30
0.0
  0
SEQEND
  5
71
330
6E
100
AcDbEntity
  8
_U+30EC_U+30A4_U+30E4_U+30FC 1
 62
   179
420
  2234388
370
    25
  0
POLYLINE
  5
72
330
1F
100
AcDbEntity
  8
_U+30EC_U+30A4_U+30E4_U+30FC 1
 62
   179
420
  2234388
370
    25
100
AcDb2dPolyline
 66
     1
 10
0.0
 20
0.0
 30
0.0
  0
VERTEX
  5
73
330
72
100
AcDbEntity
  8
_U+30EC_U+30A4_U+30E4_U+30FC 1
 62
   179
420
  2234388
370
    25
100
AcDbVertex
100
AcDb2dVertex
 10
103.4087935295135
 20
-155.502405339678
 30
0.0
  0
VERTEX
  5
74
330
72
100
AcDbEntity
  8
_U+30EC_U+30A4_U+30E4_U+30FC 1
 62
   179
420
  2234388
370
    25
100
AcDbVertex
100
AcDb2dVertex
 10
104.408560239333
 20
-155.502405339678
 30
0.0
  0
SEQEND
  5
75
330
72
100
AcDbEntity
  8
_U+30EC_U+30A4_U+30E4_U+30FC 1
 62
   179
420
  2234388
370
    25
  0
POLYLINE
  5
76
330
1F
100
AcDbEntity
  8
_U+30EC_U+30A4_U+30E4_U+30FC 1
 62
   179
420
  2234388
370
    25
100
AcDb2dPolyline
 66
     1
 10
0.0
 20
0.0
 30
0.0
  0
VERTEX
  5
77
330
76
100
AcDbEntity
  8
_U+30EC_U+30A4_U+30E4_U+30FC 1
 62
   179
420
  2234388
370
    25
100
AcDbVertex
100
AcDb2dVertex
 10
108.9085654940131
 20
-148.0017111514219
 30
0.0
  0
VERTEX
  5
78
330
76
100
AcDbEntity
  8
_U+30EC_U+30A4_U+30E4_U+30FC 1
 62
   179
420
  2234388
370
    25
100
AcDbVertex
100
AcDb2dVertex
 10
108.9085654940131
 20
-156.5022474109612
 30
0.0
  0
SEQEND
  5
79
330
76
100
AcDbEntity
  8
_U+30EC_U+30A4_U+30E4_U+30FC 1
 62
   179
420
  2234388
370
    25
  0
POLYLINE
  5
7A
330
1F
100
AcDbEntity
  8
_U+30EC_U+30A4_U+30E4_U+30FC 1
 62
   179
420
  2234388
370
    25
100
AcDb2dPolyline
 66
     1
 10
0.0
 20
0.0
 30
0.0
  0
VERTEX
  5
7B
330
7A
100
AcDbEntity
  8
_U+30EC_U+30A4_U+30E4_U+30FC 1
 62
   179
420
  2234388
370
    25
100
AcDbVertex
100
AcDb2dVertex
 10
104.4085710052567
 20
-157.0024214458026
 30
0.0
  0
VERTEX
  5
7C
330
7A
100
AcDbEntity
  8
_U+30EC_U+30A4_U+30E4_U+30FC 1
 62
   179
420
  2234388
370
    25
100
AcDbVertex
100
AcDb2dVertex
 10
108.4090697123454
 20
-157.0024214458026
 30
0.0
  0
SEQEND
  5
7D
330
7A
100
AcDbEntity
  8
_U+30EC_U+30A4_U+30E4_U+30FC 1
 62
   179
420
  2234388
370
    25
  0
POLYLINE
  5
7E
330
1F
100
AcDbEntity
  8
_U+30EC_U+30A4_U+30E4_U+30FC 1
 62
   179
420
  2234388
370
    25
100
AcDb2dPolyline
 66
     1
 10
0.0
 20
0.0
 30
0.0
  0
VERTEX
  5
7F
330
7E
100
AcDbEntity
  8
_U+30EC_U+30A4_U+30E4_U+30FC 1
 62
   179
420
  2234388
370
    25
100
AcDbVertex
100
AcDb2dVertex
 10
99.28365772732211
 20
-157.0024214458026
 30
0.0
  0
VERTEX
  5
80
330
7E
100
AcDbEntity
  8
_U+30EC_U+30A4_U+30E4_U+30FC 1
 62
   179
420
  2234388
370
    25
100
AcDbVertex
100
AcDb2dVertex
 10
103.4086858702796
 20
-157.0024214458026
 30
0.0
  0
SEQEND
  5
81
330
7E
100
AcDbEntity
  8
_U+30EC_U+30A4_U+30E4_U+30FC 1
 62
   179
420
  2234388
370
    25
  0
POLYLINE
  5
82
330
1F
100
AcDbEntity
  8
_U+30EC_U+30A4_U+30E4_U+30FC 1
  6
AI-Linetype-1
 62
   179
420
  2234388
370
     9
100
AcDb2dPolyline
 66
     1
 10
0.0
 20
0.0
 30
0.0
  0
VERTEX
  5
83
330
82
100
AcDbEntity
  8
_U+30EC_U+30A4_U+30E4_U+30FC 1
  6
AI-Linetype-1
 62
   179
420
  2234388
370
     9
100
AcDbVertex
100
AcDb2dVertex
 10
98.90883133852692
 20
-154.1898239597978
 30
0.0
  0
VERTEX
  5
84
330
82
100
AcDbEntity
  8
_U+30EC_U+30A4_U+30E4_U+30FC 1
  6
AI-Linetype-1
 62
   179
420
  2234388
370
     9
100
AcDbVertex
100
AcDb2dVertex
 10
98.90883133852692
 20
-157.4600808491712
 30
0.0
  0
SEQEND
  5
86
330
82
100
AcDbEntity
  8
_U+30EC_U+30A4_U+30E4_U+30FC 1
  6
AI-Linetype-1
 62
   179
420
  2234388
370
     9
  0
POLYLINE
  5
87
330
1F
100
AcDbEntity
  8
_U+30EC_U+30A4_U+30E4_U+30FC 1
 62
   179
420
  2234388
370
    25
100
AcDb2dPolyline
 66
     1
 10
0.0
 20
0.0
 30
0.0
  0
VERTEX
  5
88
330
87
100
AcDbEntity
  8
_U+30EC_U+30A4_U+30E4_U+30FC 1
 62
   179
420
  2234388
370
    25
100
AcDbVertex
100
AcDb2dVertex
 10
114.409004945763
 20
-144.0006203185463
 30
0.0
  0
VERTEX
  5
89
330
87
100
AcDbEntity
  8
_U+30EC_U+30A4_U+30E4_U+30FC 1
 62
   179
420
  2234388
370
    25
100
AcDbVertex
100
AcDb2dVertex
 10
114.409004945763
 20
-145.0018081302535
 30
0.0
  0
SEQEND
  5
8A
330
87
100
AcDbEntity
  8
_U+30EC_U+30A4_U+30E4_U+30FC 1
 62
   179
420
  2234388
370
    25
  0
POLYLINE
  5
8B
330
1F
100
AcDbEntity
  8
_U+30EC_U+30A4_U+30E4_U+30FC 1
 62
   179
420
  2234388
370
    25
100
AcDb2dPolyline
 66
     1
 10
0.0
 20
0.0
 30
0.0
  0
VERTEX
  5
8C
330
8B
100
AcDbEntity
  8
_U+30EC_U+30A4_U+30E4_U+30FC 1
 62
   179
420
  2234388
370
    25
100
AcDbVertex
100
AcDb2dVertex
 10
110.9087771668258
 20
-144.0006203185463
 30
0.0
  0
VERTEX
  5
8D
330
8B
100
AcDbEntity
  8
_U+30EC_U+30A4_U+30E4_U+30FC 1
 62
   179
420
  2234388
370
    25
100
AcDbVertex
100
AcDb2dVertex
 10
114.4090372435332
 20
-144.0006203185463
 30
0.0
  0
SEQEND
  5
8E
330
8B
100
AcDbEntity
  8
_U+30EC_U+30A4_U+30E4_U+30FC 1
 62
   179
420
  2234388
370
    25
  0
POLYLINE
  5
8F
330
1F
100
AcDbEntity
  8
_U+30EC_U+30A4_U+30E4_U+30FC 1
 62
   179
420
  2234388
370
    25
100
AcDb2dPolyline
 66
     1
 10
0.0
 20
0.0
 30
0.0
  0
VERTEX
  5
90
330
8F
100
AcDbEntity
  8
_U+30EC_U+30A4_U+30E4_U+30FC 1
 62
   179
420
  2234388
370
    25
100
AcDbVertex
100
AcDb2dVertex
 10
106.408782678069
 20
-148.0017111514219
 30
0.0
  0
VERTEX
  5
91
330
8F
100
AcDbEntity
  8
_U+30EC_U+30A4_U+30E4_U+30FC 1
 62
   179
420
  2234388
370
    25
100
AcDbVertex
100
AcDb2dVertex
 10
108.9085654940131
 20
-148.0017111514219
 30
0.0
  0
SEQEND
  5
92
330
8F
100
AcDbEntity
  8
_U+30EC_U+30A4_U+30E4_U+30FC 1
 62
   179
420
  2234388
370
    25
  0
POLYLINE
  5
93
330
1F
100
AcDbEntity
  8
_U+30EC_U+30A4_U+30E4_U+30FC 1
 62
   179
420
  2234388
370
    25
100
AcDb2dPolyline
 66
     1
 10
0.0
 20
0.0
 30
0.0
  0
VERTEX
  5
94
330
93
100
AcDbEntity
  8
_U+30EC_U+30A4_U+30E4_U+30FC 1
 62
   179
420
  2234388
370
    25
100
AcDbVertex
100
AcDb2dVertex
 10
100.909053777263
 20
-141.0006311699907
 30
0.0
  0
VERTEX
  5
95
330
93
100
AcDbEntity
  8
_U+30EC_U+30A4_U+30E4_U+30FC 1
 62
   179
420
  2234388
370
    25
100
AcDbVertex
100
AcDb2dVertex
 10
100.909053777263
 20
-141.7005453815128
 30
0.0
  0
SEQEND
  5
96
330
93
100
AcDbEntity
  8
_U+30EC_U+30A4_U+30E4_U+30FC 1
 62
   179
420
  2234388
370
    25
  0
POLYLINE
  5
97
330
1F
100
AcDbEntity
  8
_U+30EC_U+30A4_U+30E4_U+30FC 1
 62
   179
420
  2234388
370
    25
100
AcDb2dPolyline
 66
     1
 10
0.0
 20
0.0
 30
0.0
  0
VERTEX
  5
98
330
97
100
AcDbEntity
  8
_U+30EC_U+30A4_U+30E4_U+30FC 1
 62
   179
420
  2234388
370
    25
100
AcDbVertex
100
AcDb2dVertex
 10
105.9085763454575
 20
-143.0008428428034
 30
0.0
  0
VERTEX
  5
99
330
97
100
AcDbEntity
  8
_U+30EC_U+30A4_U+30E4_U+30FC 1
 62
   179
420
  2234388
370
    25
100
AcDbVertex
100
AcDb2dVertex
 10
105.9085763454575
 20
-147.5015909461975
 30
0.0
  0
SEQEND
  5
9A
330
97
100
AcDbEntity
  8
_U+30EC_U+30A4_U+30E4_U+30FC 1
 62
   179
420
  2234388
370
    25
  0
POLYLINE
  5
9B
330
1F
100
AcDbEntity
  8
_U+30EC_U+30A4_U+30E4_U+30FC 1
 62
   179
420
  2234388
370
    25
100
AcDb2dPolyline
 66
     1
 10
0.0
 20
0.0
 30
0.0
  0
VERTEX
  5
9C
330
9B
100
AcDbEntity
  8
_U+30EC_U+30A4_U+30E4_U+30FC 1
 62
   179
420
  2234388
370
    25
100
AcDbVertex
100
AcDb2dVertex
 10
106.9090213084507
 20
-147.0012338906589
 30
0.0
  0
VERTEX
  5
9D
330
9B
100
AcDbEntity
  8
_U+30EC_U+30A4_U+30E4_U+30FC 1
 62
   179
420
  2234388
370
    25
100
AcDbVertex
100
AcDb2dVertex
 10
109.9090427547764
 20
-147.0012338906589
 30
0.0
  0
SEQEND
  5
9E
330
9B
100
AcDbEntity
  8
_U+30EC_U+30A4_U+30E4_U+30FC 1
 62
   179
420
  2234388
370
    25
  0
POLYLINE
  5
9F
330
1F
100
AcDbEntity
  8
_U+30EC_U+30A4_U+30E4_U+30FC 1
 62
   179
420
  2234388
370
    25
100
AcDb2dPolyline
 66
     1
 10
0.0
 20
0.0
 30
0.0
  0
VERTEX
  5
A0
330
9F
100
AcDbEntity
  8
_U+30EC_U+30A4_U+30E4_U+30FC 1
 62
   179
420
  2234388
370
    25
100
AcDbVertex
100
AcDb2dVertex
 10
106.9090213084507
 20
-144.3010434107835
 30
0.0
  0
VERTEX
  5
A1
330
9F
100
AcDbEntity
  8
_U+30EC_U+30A4_U+30E4_U+30FC 1
 62
   179
420
  2234388
370
    25
100
AcDbVertex
100
AcDb2dVertex
 10
106.9090213084507
 20
-147.0012123588118
 30
0.0
  0
SEQEND
  5
A2
330
9F
100
AcDbEntity
  8
_U+30EC_U+30A4_U+30E4_U+30FC 1
 62
   179
420
  2234388
370
    25
  0
POLYLINE
  5
A3
330
1F
100
AcDbEntity
  8
_U+30EC_U+30A4_U+30E4_U+30FC 1
 62
   179
420
  2234388
370
    25
100
AcDb2dPolyline
 66
     1
 10
0.0
 20
0.0
 30
0.0
  0
VERTEX
  5
A4
330
A3
100
AcDbEntity
  8
_U+30EC_U+30A4_U+30E4_U+30FC 1
 62
   179
420
  2234388
370
    25
100
AcDbVertex
100
AcDb2dVertex
 10
109.9090104570063
 20
-144.7012989106292
 30
0.0
  0
VERTEX
  5
A5
330
A3
100
AcDbEntity
  8
_U+30EC_U+30A4_U+30E4_U+30FC 1
 62
   179
420
  2234388
370
    25
100
AcDbVertex
100
AcDb2dVertex
 10
109.9090104570063
 20
-147.0014169113562
 30
0.0
  0
SEQEND
  5
A6
330
A3
100
AcDbEntity
  8
_U+30EC_U+30A4_U+30E4_U+30FC 1
 62
   179
420
  2234388
370
    25
  0
POLYLINE
  5
A7
330
1F
100
AcDbEntity
  8
_U+30EC_U+30A4_U+30E4_U+30FC 1
 62
   179
420
  2234388
370
    25
100
AcDb2dPolyline
 66
     1
 10
0.0
 20
0.0
 30
0.0
  0
VERTEX
  5
A8
330
A7
100
AcDbEntity
  8
_U+30EC_U+30A4_U+30E4_U+30FC 1
 62
   179
420
  2234388
370
    25
100
AcDbVertex
100
AcDb2dVertex
 10
109.9090104570063
 20
-143.0008428428034
 30
0.0
  0
VERTEX
  5
A9
330
A7
100
AcDbEntity
  8
_U+30EC_U+30A4_U+30E4_U+30FC 1
 62
   179
420
  2234388
370
    25
100
AcDbVertex
100
AcDb2dVertex
 10
114.158923311304
 20
-143.0008428428034
 30
0.0
  0
SEQEND
  5
AA
330
A7
100
AcDbEntity
  8
_U+30EC_U+30A4_U+30E4_U+30FC 1
 62
   179
420
  2234388
370
    25
  0
POLYLINE
  5
AB
330
1F
100
AcDbEntity
  8
_U+30EC_U+30A4_U+30E4_U+30FC 1
 62
   179
420
  2234388
370
    25
100
AcDb2dPolyline
 66
     1
 10
0.0
 20
0.0
 30
0.0
  0
VERTEX
  5
AC
330
AB
100
AcDbEntity
  8
_U+30EC_U+30A4_U+30E4_U+30FC 1
 62
   179
420
  2234388
370
    25
100
AcDbVertex
100
AcDb2dVertex
 10
107.9087987841936
 20
-143.0008428428034
 30
0.0
  0
VERTEX
  5
AD
330
AB
100
AcDbEntity
  8
_U+30EC_U+30A4_U+30E4_U+30FC 1
 62
   179
420
  2234388
370
    25
100
AcDbVertex
100
AcDb2dVertex
 10
107.9087987841936
 20
-144.4938072691069
 30
0.0
  0
SEQEND
  5
AE
330
AB
100
AcDbEntity
  8
_U+30EC_U+30A4_U+30E4_U+30FC 1
 62
   179
420
  2234388
370
    25
  0
POLYLINE
  5
AF
330
1F
100
AcDbEntity
  8
_U+30EC_U+30A4_U+30E4_U+30FC 1
 62
   179
420
  2234388
370
    25
100
AcDb2dPolyline
 66
     1
 10
0.0
 20
0.0
 30
0.0
  0
VERTEX
  5
B0
330
AF
100
AcDbEntity
  8
_U+30EC_U+30A4_U+30E4_U+30FC 1
 62
   179
420
  2234388
370
    25
100
AcDbVertex
100
AcDb2dVertex
 10
108.9085654940131
 20
-143.0008428428034
 30
0.0
  0
VERTEX
  5
B1
330
AF
100
AcDbEntity
  8
_U+30EC_U+30A4_U+30E4_U+30FC 1
 62
   179
420
  2234388
370
    25
100
AcDbVertex
100
AcDb2dVertex
 10
108.9085654940131
 20
-144.4938072691069
 30
0.0
  0
SEQEND
  5
B2
330
AF
100
AcDbEntity
  8
_U+30EC_U+30A4_U+30E4_U+30FC 1
 62
   179
420
  2234388
370
    25
  0
POLYLINE
  5
B3
330
1F
100
AcDbEntity
  8
_U+30EC_U+30A4_U+30E4_U+30FC 1
 62
   179
420
  2234388
370
    25
100
AcDb2dPolyline
 66
     1
 10
0.0
 20
0.0
 30
0.0
  0
VERTEX
  5
B4
330
B3
100
AcDbEntity
  8
_U+30EC_U+30A4_U+30E4_U+30FC 1
 62
   179
420
  2234388
370
    25
100
AcDbVertex
100
AcDb2dVertex
 10
100.909053777263
 20
-141.0006311699907
 30
0.0
  0
VERTEX
  5
B5
330
B3
100
AcDbEntity
  8
_U+30EC_U+30A4_U+30E4_U+30FC 1
 62
   179
420
  2234388
370
    25
100
AcDbVertex
100
AcDb2dVertex
 10
112.5433027198026
 20
-141.0006311699907
 30
0.0
  0
SEQEND
  5
B6
330
B3
100
AcDbEntity
  8
_U+30EC_U+30A4_U+30E4_U+30FC 1
 62
   179
420
  2234388
370
    25
  0
POLYLINE
  5
B7
330
1F
100
AcDbEntity
  8
_U+30EC_U+30A4_U+30E4_U+30FC 1
 62
   179
420
  2234388
370
    25
100
AcDb2dPolyline
 66
     1
 10
0.0
 20
0.0
 30
0.0
  0
VERTEX
  5
B8
330
B7
100
AcDbEntity
  8
_U+30EC_U+30A4_U+30E4_U+30FC 1
 62
   179
420
  2234388
370
    25
100
AcDbVertex
100
AcDb2dVertex
 10
101.9088204870825
 20
-142.5006042124217
 30
0.0
  0
VERTEX
  5
B9
330
B7
100
AcDbEntity
  8
_U+30EC_U+30A4_U+30E4_U+30FC 1
 62
   179
420
  2234388
370
    25
100
AcDbVertex
100
AcDb2dVertex
 10
107.4086247493523
 20
-142.5006042124217
 30
0.0
  0
SEQEND
  5
BA
330
B7
100
AcDbEntity
  8
_U+30EC_U+30A4_U+30E4_U+30FC 1
 62
   179
420
  2234388
370
    25
  0
POLYLINE
  5
BB
330
1F
100
AcDbEntity
  8
_U+30EC_U+30A4_U+30E4_U+30FC 1
 62
   179
420
  2234388
370
    25
100
AcDb2dPolyline
 66
     1
 10
0.0
 20
0.0
 30
0.0
  0
VERTEX
  5
BC
330
BB
100
AcDbEntity
  8
_U+30EC_U+30A4_U+30E4_U+30FC 1
 62
   179
420
  2234388
370
    25
100
AcDbVertex
100
AcDb2dVertex
 10
100.909053777263
 20
-141.7006853385169
 30
0.0
  0
VERTEX
  5
BD
330
BB
100
AcDbEntity
  8
_U+30EC_U+30A4_U+30E4_U+30FC 1
 62
   179
420
  2234388
370
    25
100
AcDbVertex
100
AcDb2dVertex
 10
101.9088204870825
 20
-141.7006853385169
 30
0.0
  0
SEQEND
  5
BE
330
BB
100
AcDbEntity
  8
_U+30EC_U+30A4_U+30E4_U+30FC 1
 62
   179
420
  2234388
370
    25
  0
POLYLINE
  5
BF
330
1F
100
AcDbEntity
  8
_U+30EC_U+30A4_U+30E4_U+30FC 1
 62
   179
420
  2234388
370
    25
100
AcDb2dPolyline
 66
     1
 10
0.0
 20
0.0
 30
0.0
  0
VERTEX
  5
C0
330
BF
100
AcDbEntity
  8
_U+30EC_U+30A4_U+30E4_U+30FC 1
 62
   179
420
  2234388
370
    25
100
AcDbVertex
100
AcDb2dVertex
 10
101.9088204870825
 20
-141.7006853385169
 30
0.0
  0
VERTEX
  5
C1
330
BF
100
AcDbEntity
  8
_U+30EC_U+30A4_U+30E4_U+30FC 1
 62
   179
420
  2234388
370
    25
100
AcDbVertex
100
AcDb2dVertex
 10
101.9088204870825
 20
-142.5007872331194
 30
0.0
  0
SEQEND
  5
C2
330
BF
100
AcDbEntity
  8
_U+30EC_U+30A4_U+30E4_U+30FC 1
 62
   179
420
  2234388
370
    25
  0
POLYLINE
  5
C3
330
1F
100
AcDbEntity
  8
_U+30EC_U+30A4_U+30E4_U+30FC 1
 62
   179
420
  2234388
370
    25
100
AcDb2dPolyline
 66
     1
 10
0.0
 20
0.0
 30
0.0
  0
VERTEX
  5
C4
330
C3
100
AcDbEntity
  8
_U+30EC_U+30A4_U+30E4_U+30FC 1
 62
   179
420
  2234388
370
    25
100
AcDbVertex
100
AcDb2dVertex
 10
109.4088041243948
 20
-142.5006042124217
 30
0.0
  0
VERTEX
  5
C5
330
C3
100
AcDbEntity
  8
_U+30EC_U+30A4_U+30E4_U+30FC 1
 62
   179
420
  2234388
370
    25
100
AcDbVertex
100
AcDb2dVertex
 10
112.5432273583388
 20
-142.5006042124217
 30
0.0
  0
SEQEND
  5
C6
330
C3
100
AcDbEntity
  8
_U+30EC_U+30A4_U+30E4_U+30FC 1
 62
   179
420
  2234388
370
    25
  0
POLYLINE
  5
C7
330
1F
100
AcDbEntity
  8
_U+30EC_U+30A4_U+30E4_U+30FC 1
 62
   179
420
  2234388
370
    25
100
AcDb2dPolyline
 66
     1
 10
0.0
 20
0.0
 30
0.0
  0
VERTEX
  5
C8
330
C7
100
AcDbEntity
  8
_U+30EC_U+30A4_U+30E4_U+30FC 1
 62
   179
420
  2234388
370
    25
100
AcDbVertex
100
AcDb2dVertex
 10
105.9085763454575
 20
-143.0008428428034
 30
0.0
  0
VERTEX
  5
C9
330
C7
100
AcDbEntity
  8
_U+30EC_U+30A4_U+30E4_U+30FC 1
 62
   179
420
  2234388
370
    25
100
AcDbVertex
100
AcDb2dVertex
 10
106.9090536062209
 20
-143.0008428428034
 30
0.0
  0
SEQEND
  5
CA
330
C7
100
AcDbEntity
  8
_U+30EC_U+30A4_U+30E4_U+30FC 1
 62
   179
420
  2234388
370
    25
  0
POLYLINE
  5
CB
330
1F
100
AcDbEntity
  8
_U+30EC_U+30A4_U+30E4_U+30FC 1
 62
   179
420
  2234388
370
    25
100
AcDb2dPolyline
 66
     1
 10
0.0
 20
0.0
 30
0.0
  0
VERTEX
  5
CC
330
CB
100
AcDbEntity
  8
_U+30EC_U+30A4_U+30E4_U+30FC 1
 62
   179
420
  2234388
370
    25
100
AcDbVertex
100
AcDb2dVertex
 10
113.4085276849997
 20
-141.5008698003724
 30
0.0
  0
VERTEX
  5
CD
330
CB
100
AcDbEntity
  8
_U+30EC_U+30A4_U+30E4_U+30FC 1
 62
   179
420
  2234388
370
    25
100
AcDbVertex
100
AcDb2dVertex
 10
113.4085276849997
 20
-142.0011191966775
 30
0.0
  0
SEQEND
  5
CE
330
CB
100
AcDbEntity
  8
_U+30EC_U+30A4_U+30E4_U+30FC 1
 62
   179
420
  2234388
370
    25
  0
POLYLINE
  5
CF
330
1F
100
AcDbEntity
  8
_U+30EC_U+30A4_U+30E4_U+30FC 1
 62
   179
420
  2234388
370
    25
100
AcDb2dPolyline
 66
     1
 10
0.0
 20
0.0
 30
0.0
  0
VERTEX
  5
D0
330
CF
100
AcDbEntity
  8
_U+30EC_U+30A4_U+30E4_U+30FC 1
 62
   179
420
  2234388
370
    25
100
AcDbVertex
100
AcDb2dVertex
 10
114.1588910135338
 20
-142.0010761329839
 30
0.0
  0
VERTEX
  5
D1
330
CF
100
AcDbEntity
  8
_U+30EC_U+30A4_U+30E4_U+30FC 1
 62
   179
420
  2234388
370
    25
100
AcDbVertex
100
AcDb2dVertex
 10
114.1588910135338
 20
-143.0008536087268
 30
0.0
  0
SEQEND
  5
D2
330
CF
100
AcDbEntity
  8
_U+30EC_U+30A4_U+30E4_U+30FC 1
 62
   179
420
  2234388
370
    25
  0
POLYLINE
  5
D3
330
1F
100
AcDbEntity
  8
_U+30EC_U+30A4_U+30E4_U+30FC 1
 62
   179
420
  2234388
370
    25
100
AcDb2dPolyline
 66
     1
 10
0.0
 20
0.0
 30
0.0
  0
VERTEX
  5
D4
330
D3
100
AcDbEntity
  8
_U+30EC_U+30A4_U+30E4_U+30FC 1
 62
   179
420
  2234388
370
    25
100
AcDbVertex
100
AcDb2dVertex
 10
113.4085276849997
 20
-142.0010761329839
 30
0.0
  0
VERTEX
  5
D5
330
D3
100
AcDbEntity
  8
_U+30EC_U+30A4_U+30E4_U+30FC 1
 62
   179
420
  2234388
370
    25
100
AcDbVertex
100
AcDb2dVertex
 10
115.1586577233534
 20
-142.0010761329839
 30
0.0
  0
SEQEND
  5
D6
330
D3
100
AcDbEntity
  8
_U+30EC_U+30A4_U+30E4_U+30FC 1
 62
   179
420
  2234388
370
    25
  0
POLYLINE
  5
D7
330
1F
100
AcDbEntity
  8
_U+30EC_U+30A4_U+30E4_U+30FC 1
 62
   179
420
  2234388
370
    25
100
AcDb2dPolyline
 66
     1
 10
0.0
 20
0.0
 30
0.0
  0
VERTEX
  5
D8
330
D7
100
AcDbEntity
  8
_U+30EC_U+30A4_U+30E4_U+30FC 1
 62
   179
420
  2234388
370
    25
100
AcDbVertex
100
AcDb2dVertex
 10
115.1586577233534
 20
-141.5008698003724
 30
0.0
  0
VERTEX
  5
D9
330
D7
100
AcDbEntity
  8
_U+30EC_U+30A4_U+30E4_U+30FC 1
 62
   179
420
  2234388
370
    25
100
AcDbVertex
100
AcDb2dVertex
 10
115.1586577233534
 20
-142.0011191966775
 30
0.0
  0
SEQEND
  5
DA
330
D7
100
AcDbEntity
  8
_U+30EC_U+30A4_U+30E4_U+30FC 1
 62
   179
420
  2234388
370
    25
  0
POLYLINE
  5
DB
330
1F
100
AcDbEntity
  8
_U+30EC_U+30A4_U+30E4_U+30FC 1
 62
   179
420
  2234388
370
    25
100
AcDb2dPolyline
 66
     1
 10
0.0
 20
0.0
 30
0.0
  0
VERTEX
  5
DC
330
DB
100
AcDbEntity
  8
_U+30EC_U+30A4_U+30E4_U+30FC 1
 62
   179
420
  2234388
370
    25
100
AcDbVertex
100
AcDb2dVertex
 10
112.5431304650283
 20
-141.0006311699907
 30
0.0
  0
VERTEX
  5
DD
330
DB
100
AcDbEntity
  8
_U+30EC_U+30A4_U+30E4_U+30FC 1
 62
   179
420
  2234388
370
    25
100
AcDbVertex
100
AcDb2dVertex
 10
113.4084846213061
 20
-141.5008805662961
 30
0.0
  0
SEQEND
  5
DE
330
DB
100
AcDbEntity
  8
_U+30EC_U+30A4_U+30E4_U+30FC 1
 62
   179
420
  2234388
370
    25
  0
POLYLINE
  5
DF
330
1F
100
AcDbEntity
  8
_U+30EC_U+30A4_U+30E4_U+30FC 1
 62
   179
420
  2234388
370
    25
100
AcDb2dPolyline
 66
     1
 10
0.0
 20
0.0
 30
0.0
  0
VERTEX
  5
E0
330
DF
100
AcDbEntity
  8
_U+30EC_U+30A4_U+30E4_U+30FC 1
 62
   179
420
  2234388
370
    25
100
AcDbVertex
100
AcDb2dVertex
 10
112.5431304650283
 20
-142.5006042124217
 30
0.0
  0
VERTEX
  5
E1
330
DF
100
AcDbEntity
  8
_U+30EC_U+30A4_U+30E4_U+30FC 1
 62
   179
420
  2234388
370
    25
100
AcDbVertex
100
AcDb2dVertex
 10
113.4084846213061
 20
-142.0010761329839
 30
0.0
  0
SEQEND
  5
E2
330
DF
100
AcDbEntity
  8
_U+30EC_U+30A4_U+30E4_U+30FC 1
 62
   179
420
  2234388
370
    25
  0
POLYLINE
  5
E3
330
1F
100
AcDbEntity
  8
_U+30EC_U+30A4_U+30E4_U+30FC 1
 62
   179
420
  2234388
370
     9
100
AcDb2dPolyline
 66
     1
 10
0.0
 20
0.0
 30
0.0
  0
VERTEX
  5
E4
330
E3
100
AcDbEntity
  8
_U+30EC_U+30A4_U+30E4_U+30FC 1
 62
   179
420
  2234388
370
     9
100
AcDbVertex
100
AcDb2dVertex
 10
114.378666573646
 20
-141.3423631102807
 30
0.0
  0
VERTEX
  5
E5
330
E3
100
AcDbEntity
  8
_U+30EC_U+30A4_U+30E4_U+30FC 1
 62
   179
420
  2234388
370
     9
100
AcDbVertex
100
AcDb2dVertex
 10
115.1420674354072
 20
-133.4584881766777
 30
0.0
  0
SEQEND
  5
E6
330
E3
100
AcDbEntity
  8
_U+30EC_U+30A4_U+30E4_U+30FC 1
 62
   179
420
  2234388
370
     9
  0
POLYLINE
  5
E7
330
1F
100
AcDbEntity
  8
_U+30EC_U+30A4_U+30E4_U+30FC 1
 62
   179
420
  2234388
370
     9
100
AcDb2dPolyline
 66
     1
 10
0.0
 20
0.0
 30
0.0
  0
VERTEX
  5
E8
330
E7
100
AcDbEntity
  8
_U+30EC_U+30A4_U+30E4_U+30FC 1
 62
   179
420
  2234388
370
     9
100
AcDbVertex
100
AcDb2dVertex
 10
115.1421104991008
 20
-133.4586281336818
 30
0.0
  0
VERTEX
  5
E9
330
E7
100
AcDbEntity
  8
_U+30EC_U+30A4_U+30E4_U+30FC 1
 62
   179
420
  2234388
370
     9
100
AcDbVertex
100
AcDb2dVertex
 10
120.2291600244675
 20
-133.4586281336818
 30
0.0
  0
SEQEND
  5
EA
330
E7
100
AcDbEntity
  8
_U+30EC_U+30A4_U+30E4_U+30FC 1
 62
   179
420
  2234388
370
     9
  0
POLYLINE
  5
EB
330
1F
100
AcDbEntity
  8
_U+30EC_U+30A4_U+30E4_U+30FC 1
 62
   179
420
  2234388
370
    25
100
AcDb2dPolyline
 66
     1
 10
0.0
 20
0.0
 30
0.0
  0
VERTEX
  5
EC
330
EB
100
AcDbEntity
  8
_U+30EC_U+30A4_U+30E4_U+30FC 1
 62
   179
420
  2234388
370
    25
100
AcDbVertex
100
AcDb2dVertex
 10
106.9090213084507
 20
-144.3010434107835
 30
0.0
  0
VERTEX
  5
ED
330
EB
100
AcDbEntity
  8
_U+30EC_U+30A4_U+30E4_U+30FC 1
 62
   179
420
  2234388
370
    25
100
AcDbVertex
100
AcDb2dVertex
 10
107.4085493878885
 20
-144.3010434107835
 30
0.0
  0
SEQEND
  5
EE
330
EB
100
AcDbEntity
  8
_U+30EC_U+30A4_U+30E4_U+30FC 1
 62
   179
420
  2234388
370
    25
  0
POLYLINE
  5
EF
330
1F
100
AcDbEntity
  8
_U+30EC_U+30A4_U+30E4_U+30FC 1
 62
   179
420
  2234388
370
    25
100
AcDb2dPolyline
 66
     1
 10
0.0
 20
0.0
 30
0.0
  0
VERTEX
  5
F0
330
EF
100
AcDbEntity
  8
_U+30EC_U+30A4_U+30E4_U+30FC 1
 62
   179
420
  2234388
370
    25
100
AcDbVertex
100
AcDb2dVertex
 10
107.4085601538119
 20
-144.3010434107835
 30
0.0
  0
VERTEX
  5
F1
330
EF
100
AcDbEntity
  8
_U+30EC_U+30A4_U+30E4_U+30FC 1
 62
   179
420
  2234388
370
    25
100
AcDbVertex
100
AcDb2dVertex
 10
106.9090213084507
 20
-143.0007136517227
 30
0.0
  0
SEQEND
  5
F2
330
EF
100
AcDbEntity
  8
_U+30EC_U+30A4_U+30E4_U+30FC 1
 62
   179
420
  2234388
370
    25
  0
SPLINE
  5
F3
330
1F
100
AcDbEntity
  8
_U+30EC_U+30A4_U+30E4_U+30FC 1
 62
   179
420
  2234388
370
    25
100
AcDbSpline
210
0.0
220
0.0
230
1.0
 70
     8
 71
     3
 72
     8
 73
     4
 74
     0
 42
0.0000000001
 43
0.0000000001
 12
1.0
 22
0.0
 32
0.0
 13
1.0
 23
0.0
 33
0.0
 40
0.0
 40
0.0
 40
0.0
 40
0.0
 40
1.0
 40
1.0
 40
1.0
 40
1.0
 10
108.4090374145753
 20
-157.0024214458026
 30
0.0
 10
108.6852587110286
 20
-157.0024214458026
 30
0.0
 10
108.9085654940131
 20
-156.7784148777976
 30
0.0
 10
108.9085654940131
 20
-156.5021828154209
 30
0.0
  0
SPLINE
  5
F4
330
1F
100
AcDbEntity
  8
_U+30EC_U+30A4_U+30E4_U+30FC 1
 62
   179
420
  2234388
370
    25
100
AcDbSpline
210
0.0
220
0.0
230
1.0
 70
     8
 71
     3
 72
    11
 73
     7
 74
     0
 42
0.0000000001
 43
0.0000000001
 12
1.0
 22
0.0
 32
0.0
 13
1.0
 23
0.0
 33
0.0
 40
0.0
 40
0.0
 40
0.0
 40
0.0
 40
1.0
 40
1.0
 40
1.0
 40
2.0
 40
2.0
 40
2.0
 40
2.0
 10
98.53400494973174
 20
-157.0024214458026
 30
0.0
 10
98.62007850724602
 20
-157.2091594726877
 30
0.0
 10
98.85785469126861
 20
-157.3068709933881
 30
0.0
 10
99.06528173725083
 20
-157.2207974358738
 30
0.0
 10
99.16370380889506
 20
-157.1795208855912
 30
0.0
 10
99.24238117703945
 20
-157.1008542833702
 30
0.0
 10
99.28365772732211
 20
-157.0024214458026
 30
0.0
  0
SPLINE
  5
F5
330
1F
100
AcDbEntity
  8
_U+30EC_U+30A4_U+30E4_U+30FC 1
 62
   179
420
  2234388
370
    25
100
AcDbSpline
210
0.0
220
0.0
230
1.0
 70
     8
 71
     3
 72
     8
 73
     4
 74
     0
 42
0.0000000001
 43
0.0000000001
 12
1.0
 22
0.0
 32
0.0
 13
1.0
 23
0.0
 33
0.0
 40
0.0
 40
0.0
 40
0.0
 40
0.0
 40
1.0
 40
1.0
 40
1.0
 40
1.0
 10
105.9085763454575
 20
-147.5014725210402
 30
0.0
 10
105.9085763454575
 20
-147.7777045834169
 30
0.0
 10
106.1325829134625
 20
-148.0017219173453
 30
0.0
 10
106.4088149758392
 20
-148.0017219173453
 30
0.0
  0
SPLINE
  5
F6
330
1F
100
AcDbEntity
  8
_U+30EC_U+30A4_U+30E4_U+30FC 1
 62
   179
420
  2234388
370
    25
100
AcDbSpline
210
0.0
220
0.0
230
1.0
 70
     8
 71
     3
 72
     8
 73
     4
 74
     0
 42
0.0000000001
 43
0.0000000001
 12
1.0
 22
0.0
 32
0.0
 13
1.0
 23
0.0
 33
0.0
 40
0.0
 40
0.0
 40
0.0
 40
0.0
 40
1.0
 40
1.0
 40
1.0
 40
1.0
 10
109.4088041243948
 20
-142.5006042124217
 30
0.0
 10
109.1325720620181
 20
-142.5006042124217
 30
0.0
 10
108.9085547280897
 20
-142.7246215463501
 30
0.0
 10
108.9085547280897
 20
-143.0008536087268
 30
0.0
  0
SPLINE
  5
F7
330
1F
100
AcDbEntity
  8
_U+30EC_U+30A4_U+30E4_U+30FC 1
 62
   179
420
  2234388
370
    25
100
AcDbSpline
210
0.0
220
0.0
230
1.0
 70
     8
 71
     3
 72
     8
 73
     4
 74
     0
 42
0.0000000001
 43
0.0000000001
 12
1.0
 22
0.0
 32
0.0
 13
1.0
 23
0.0
 33
0.0
 40
0.0
 40
0.0
 40
0.0
 40
0.0
 40
1.0
 40
1.0
 40
1.0
 40
1.0
 10
107.9087987841936
 20
-143.0008428428034
 30
0.0
 10
107.9087987841936
 20
-142.7246215463501
 30
0.0
 10
107.6847814502652
 20
-142.5006042124217
 30
0.0
 10
107.4085493878885
 20
-142.5006042124217
 30
0.0
  0
SPLINE
  5
F8
330
1F
100
AcDbEntity
  8
_U+30EC_U+30A4_U+30E4_U+30FC 1
 62
   179
420
  2234388
370
    25
100
AcDbSpline
210
0.0
220
0.0
230
1.0
 70
     8
 71
     3
 72
    17
 73
    13
 74
     0
 42
0.0000000001
 43
0.0000000001
 12
1.0
 22
0.0
 32
0.0
 13
1.0
 23
0.0
 33
0.0
 40
0.0
 40
0.0
 40
0.0
 40
0.0
 40
1.0
 40
1.0
 40
1.0
 40
2.0
 40
2.0
 40
2.0
 40
3.0
 40
3.0
 40
3.0
 40
4.0
 40
4.0
 40
4.0
 40
4.0
 10
107.9087987841936
 20
-144.4939364601873
 30
0.0
 10
107.3521144174708
 20
-144.770168522564
 30
0.0
 10
107.12456586067
 20
-145.4446751548823
 30
0.0
 10
107.4011424325953
 20
-146.0013595216051
 30
0.0
 10
107.6773744949719
 20
-146.5583991637999
 30
0.0
 10
108.3525916782341
 20
-146.7855816792053
 30
0.0
 10
108.9085654940131
 20
-146.5093603827523
 30
0.0
 10
109.4652498607359
 20
-146.2331390862987
 30
0.0
 10
109.6927876516133
 20
-145.558621688057
 30
0.0
 10
109.4162110796881
 20
-145.0015928117856
 30
0.0
 10
109.307561380822
 20
-144.7811067007297
 30
0.0
 10
109.1290516050691
 20
-144.6029522004487
 30
0.0
 10
108.9085654940131
 20
-144.4939364601873
 30
0.0
  0
SPLINE
  5
F9
330
1F
100
AcDbEntity
  8
_U+30EC_U+30A4_U+30E4_U+30FC 1
 62
   179
420
  2234388
370
    25
100
AcDbSpline
210
0.0
220
0.0
230
1.0
 70
     8
 71
     3
 72
    11
 73
     7
 74
     0
 42
0.0000000001
 43
0.0000000001
 12
1.0
 22
0.0
 32
0.0
 13
1.0
 23
0.0
 33
0.0
 40
0.0
 40
0.0
 40
0.0
 40
0.0
 40
1.0
 40
1.0
 40
1.0
 40
2.0
 40
2.0
 40
2.0
 40
2.0
 10
109.9090104570063
 20
-143.0008428428034
 30
0.0
 10
109.4391101987416
 20
-143.0008428428034
 30
0.0
 10
109.0588147208636
 20
-143.3811383206814
 30
0.0
 10
109.0588147208636
 20
-143.8510385789464
 30
0.0
 10
109.0588147208636
 20
-144.3202390521903
 30
0.0
 10
109.4391101987416
 20
-144.7012343150888
 30
0.0
 10
109.9090104570063
 20
-144.7012343150888
 30
0.0
  0
SPLINE
  5
FA
330
1F
100
AcDbEntity
  8
_U+30EC_U+30A4_U+30E4_U+30FC 1
 62
   179
420
  2234388
370
     9
100
AcDbSpline
210
0.0
220
0.0
230
1.0
 70
    11
 71
     3
 72
    17
 73
    13
 74
     0
 42
0.0000000001
 43
0.0000000001
 12
1.0
 22
0.0
 32
0.0
 13
1.0
 23
0.0
 33
0.0
 40
0.0
 40
0.0
 40
0.0
 40
0.0
 40
1.0
 40
1.0
 40
1.0
 40
2.0
 40
2.0
 40
2.0
 40
3.0
 40
3.0
 40
3.0
 40
4.0
 40
4.0
 40
4.0
 40
4.0
 10
106.0091623677034
 20
-151.0024108509213
 30
0.0
 10
106.0091623677034
 20
-150.9473862164678
 30
0.0
 10
105.9643545945484
 20
-150.9025784433128
 30
0.0
 10
105.9086194091511
 20
-150.9025784433128
 30
0.0
 10
105.8535840087742
 20
-150.9025784433128
 30
0.0
 10
105.8087762356192
 20
-150.9473862164678
 30
0.0
 10
105.8087762356192
 20
-151.0024108509213
 30
0.0
 10
105.8087762356192
 20
-151.0574462512981
 30
0.0
 10
105.8535840087742
 20
-151.1022540244532
 30
0.0
 10
105.9086194091511
 20
-151.1022540244532
 30
0.0
 10
105.9643545945484
 20
-151.1022540244532
 30
0.0
 10
106.0091623677034
 20
-151.0574462512981
 30
0.0
 10
106.0091623677034
 20
-151.0024108509213
 30
0.0
  0
SPLINE
  5
FB
330
1F
100
AcDbEntity
  8
_U+30EC_U+30A4_U+30E4_U+30FC 1
 62
   179
420
  2234388
370
     9
100
AcDbSpline
210
0.0
220
0.0
230
1.0
 70
    11
 71
     3
 72
    17
 73
    13
 74
     0
 42
0.0000000001
 43
0.0000000001
 12
1.0
 22
0.0
 32
0.0
 13
1.0
 23
0.0
 33
0.0
 40
0.0
 40
0.0
 40
0.0
 40
0.0
 40
1.0
 40
1.0
 40
1.0
 40
2.0
 40
2.0
 40
2.0
 40
3.0
 40
3.0
 40
3.0
 40
4.0
 40
4.0
 40
4.0
 40
4.0
 10
101.0089507804121
 20
-151.0024108509213
 30
0.0
 10
101.0089507804121
 20
-150.9473862164678
 30
0.0
 10
100.9641430072568
 20
-150.9025784433128
 30
0.0
 10
100.9091076068799
 20
-150.9025784433128
 30
0.0
 10
100.8540722065031
 20
-150.9025784433128
 30
0.0
 10
100.8092751992714
 20
-150.9473862164678
 30
0.0
 10
100.8092751992714
 20
-151.0024108509213
 30
0.0
 10
100.8092751992714
 20
-151.0574462512981
 30
0.0
 10
100.8540722065031
 20
-151.1022540244532
 30
0.0
 10
100.9091076068799
 20
-151.1022540244532
 30
0.0
 10
100.9641430072568
 20
-151.1022540244532
 30
0.0
 10
101.0089507804121
 20
-151.0574462512981
 30
0.0
 10
101.0089507804121
 20
-151.0024108509213
 30
0.0
  0
SPLINE
  5
FC
330
1F
100
AcDbEntity
  8
_U+30EC_U+30A4_U+30E4_U+30FC 1
 62
   179
420
  2234388
370
     9
100
AcDbSpline
210
0.0
220
0.0
230
1.0
 70
    11
 71
     3
 72
    17
 73
    13
 74
     0
 42
0.0000000001
 43
0.0000000001
 12
1.0
 22
0.0
 32
0.0
 13
1.0
 23
0.0
 33
0.0
 40
0.0
 40
0.0
 40
0.0
 40
0.0
 40
1.0
 40
1.0
 40
1.0
 40
2.0
 40
2.0
 40
2.0
 40
3.0
 40
3.0
 40
3.0
 40
4.0
 40
4.0
 40
4.0
 40
4.0
 10
103.5087012985857
 20
-162.0012442289767
 30
0.0
 10
103.5087012985857
 20
-161.9462195945232
 30
0.0
 10
103.4638935254307
 20
-161.9014118213682
 30
0.0
 10
103.4088581250538
 20
-161.9014118213682
 30
0.0
 10
103.353822724677
 20
-161.9014118213682
 30
0.0
 10
103.3090257174453
 20
-161.9462195945232
 30
0.0
 10
103.3090257174453
 20
-162.0012442289767
 30
0.0
 10
103.3090257174453
 20
-162.0569901802974
 30
0.0
 10
103.353822724677
 20
-162.101787187529
 30
0.0
 10
103.4088581250538
 20
-162.101787187529
 30
0.0
 10
103.4638935254307
 20
-162.101787187529
 30
0.0
 10
103.5087012985857
 20
-162.0569901802974
 30
0.0
 10
103.5087012985857
 20
-162.0012442289767
 30
0.0
  0
SPLINE
  5
FD
330
1F
100
AcDbEntity
  8
_U+30EC_U+30A4_U+30E4_U+30FC 1
 62
   179
420
  2234388
370
     9
100
AcDbSpline
210
0.0
220
0.0
230
1.0
 70
    11
 71
     3
 72
    17
 73
    13
 74
     0
 42
0.0000000001
 43
0.0000000001
 12
1.0
 22
0.0
 32
0.0
 13
1.0
 23
0.0
 33
0.0
 40
0.0
 40
0.0
 40
0.0
 40
0.0
 40
1.0
 40
1.0
 40
1.0
 40
2.0
 40
2.0
 40
2.0
 40
3.0
 40
3.0
 40
3.0
 40
4.0
 40
4.0
 40
4.0
 40
4.0
 10
94.50874461884275
 20
-162.0012442289767
 30
0.0
 10
94.50874461884275
 20
-161.9462195945232
 30
0.0
 10
94.4639368456874
 20
-161.9014118213682
 30
0.0
 10
94.40890144531053
 20
-161.9014118213682
 30
0.0
 10
94.35386604493367
 20
-161.9014118213682
 30
0.0
 10
94.30906903770203
 20
-161.9462195945232
 30
0.0
 10
94.30906903770203
 20
-162.0012442289767
 30
0.0
 10
94.30906903770203
 20
-162.0569901802974
 30
0.0
 10
94.35386604493367
 20
-162.101787187529
 30
0.0
 10
94.40890144531053
 20
-162.101787187529
 30
0.0
 10
94.4639368456874
 20
-162.101787187529
 30
0.0
 10
94.50874461884275
 20
-162.0569901802974
 30
0.0
 10
94.50874461884275
 20
-162.0012442289767
 30
0.0
  0
SPLINE
  5
FE
330
1F
100
AcDbEntity
  8
_U+30EC_U+30A4_U+30E4_U+30FC 1
 62
   179
420
  2234388
370
     9
100
AcDbSpline
210
0.0
220
0.0
230
1.0
 70
    11
 71
     3
 72
    17
 73
    13
 74
     0
 42
0.0000000001
 43
0.0000000001
 12
1.0
 22
0.0
 32
0.0
 13
1.0
 23
0.0
 33
0.0
 40
0.0
 40
0.0
 40
0.0
 40
0.0
 40
1.0
 40
1.0
 40
1.0
 40
2.0
 40
2.0
 40
2.0
 40
3.0
 40
3.0
 40
3.0
 40
4.0
 40
4.0
 40
4.0
 40
4.0
 10
93.50896714309954
 20
-166.0023781255458
 30
0.0
 10
93.50896714309954
 20
-165.9473534910924
 30
0.0
 10
93.46415936994451
 20
-165.9025457179374
 30
0.0
 10
93.40912396956764
 20
-165.9025457179374
 30
0.0
 10
93.35338878417033
 20
-165.9025457179374
 30
0.0
 10
93.30929156195914
 20
-165.9473534910924
 30
0.0
 10
93.30929156195914
 20
-166.0023781255458
 30
0.0
 10
93.30929156195914
 20
-166.0574135259227
 30
0.0
 10
93.35338878417033
 20
-166.1022212990777
 30
0.0
 10
93.40912396956764
 20
-166.1022212990777
 30
0.0
 10
93.46415936994451
 20
-166.1022212990777
 30
0.0
 10
93.50896714309954
 20
-166.0574135259227
 30
0.0
 10
93.50896714309954
 20
-166.0023781255458
 30
0.0
  0
SPLINE
  5
FF
330
1F
100
AcDbEntity
  8
_U+30EC_U+30A4_U+30E4_U+30FC 1
 62
   179
420
  2234388
370
     9
100
AcDbSpline
210
0.0
220
0.0
230
1.0
 70
    11
 71
     3
 72
    17
 73
    13
 74
     0
 42
0.0000000001
 43
0.0000000001
 12
1.0
 22
0.0
 32
0.0
 13
1.0
 23
0.0
 33
0.0
 40
0.0
 40
0.0
 40
0.0
 40
0.0
 40
1.0
 40
1.0
 40
1.0
 40
2.0
 40
2.0
 40
2.0
 40
3.0
 40
3.0
 40
3.0
 40
4.0
 40
4.0
 40
4.0
 40
4.0
 10
111.008684935898
 20
-166.0023781255458
 30
0.0
 10
111.008684935898
 20
-165.9473534910924
 30
0.0
 10
110.963877162743
 20
-165.9025457179374
 30
0.0
 10
110.9088417623661
 20
-165.9025457179374
 30
0.0
 10
110.8538063619892
 20
-165.9025457179374
 30
0.0
 10
110.8090093547576
 20
-165.9473534910924
 30
0.0
 10
110.8090093547576
 20
-166.0023781255458
 30
0.0
 10
110.8090093547576
 20
-166.0574135259227
 30
0.0
 10
110.8538063619892
 20
-166.1022212990777
 30
0.0
 10
110.9088417623661
 20
-166.1022212990777
 30
0.0
 10
110.963877162743
 20
-166.1022212990777
 30
0.0
 10
111.008684935898
 20
-166.0574135259227
 30
0.0
 10
111.008684935898
 20
-166.0023781255458
 30
0.0
  0
SPLINE
  5
100
330
1F
100
AcDbEntity
  8
_U+30EC_U+30A4_U+30E4_U+30FC 1
 62
   179
420
  2234388
370
     9
100
AcDbSpline
210
0.0
220
0.0
230
1.0
 70
    11
 71
     3
 72
    17
 73
    13
 74
     0
 42
0.0000000001
 43
0.0000000001
 12
1.0
 22
0.0
 32
0.0
 13
1.0
 23
0.0
 33
0.0
 40
0.0
 40
0.0
 40
0.0
 40
0.0
 40
1.0
 40
1.0
 40
1.0
 40
2.0
 40
2.0
 40
2.0
 40
3.0
 40
3.0
 40
3.0
 40
4.0
 40
4.0
 40
4.0
 40
4.0
 10
90.91965490823254
 20
-158.0021558578519
 30
0.0
 10
90.91965490823254
 20
-157.9471312233984
 30
0.0
 10
90.87484713507752
 20
-157.9023234502434
 30
0.0
 10
90.81981173470065
 20
-157.9023234502434
 30
0.0
 10
90.76477633432378
 20
-157.9023234502434
 30
0.0
 10
90.71997932709215
 20
-157.9471312233984
 30
0.0
 10
90.71997932709215
 20
-158.0021558578519
 30
0.0
 10
90.71997932709215
 20
-158.0571912582288
 30
0.0
 10
90.76477633432378
 20
-158.1019990313838
 30
0.0
 10
90.81981173470065
 20
-158.1019990313838
 30
0.0
 10
90.87484713507752
 20
-158.1019990313838
 30
0.0
 10
90.91965490823254
 20
-158.0571912582288
 30
0.0
 10
90.91965490823254
 20
-158.0021558578519
 30
0.0
  0
SPLINE
  5
101
330
1F
100
AcDbEntity
  8
_U+30EC_U+30A4_U+30E4_U+30FC 1
 62
   179
420
  2234388
370
     9
100
AcDbSpline
210
0.0
220
0.0
230
1.0
 70
    11
 71
     3
 72
    17
 73
    13
 74
     0
 42
0.0000000001
 43
0.0000000001
 12
1.0
 22
0.0
 32
0.0
 13
1.0
 23
0.0
 33
0.0
 40
0.0
 40
0.0
 40
0.0
 40
0.0
 40
1.0
 40
1.0
 40
1.0
 40
2.0
 40
2.0
 40
2.0
 40
3.0
 40
3.0
 40
3.0
 40
4.0
 40
4.0
 40
4.0
 40
4.0
 10
90.91965490823254
 20
-155.502405339678
 30
0.0
 10
90.91965490823254
 20
-155.4473807052245
 30
0.0
 10
90.87484713507752
 20
-155.4025729320695
 30
0.0
 10
90.81981173470065
 20
-155.4025729320695
 30
0.0
 10
90.76477633432378
 20
-155.4025729320695
 30
0.0
 10
90.71997932709215
 20
-155.4473807052245
 30
0.0
 10
90.71997932709215
 20
-155.502405339678
 30
0.0
 10
90.71997932709215
 20
-155.5574407400549
 30
0.0
 10
90.76477633432378
 20
-155.6022485132099
 30
0.0
 10
90.81981173470065
 20
-155.6022485132099
 30
0.0
 10
90.87484713507752
 20
-155.6022485132099
 30
0.0
 10
90.91965490823254
 20
-155.5574407400549
 30
0.0
 10
90.91965490823254
 20
-155.502405339678
 30
0.0
  0
SPLINE
  5
102
330
1F
100
AcDbEntity
  8
_U+30EC_U+30A4_U+30E4_U+30FC 1
 62
   179
420
  2234388
370
     9
100
AcDbSpline
210
0.0
220
0.0
230
1.0
 70
    11
 71
     3
 72
    17
 73
    13
 74
     0
 42
0.0000000001
 43
0.0000000001
 12
1.0
 22
0.0
 32
0.0
 13
1.0
 23
0.0
 33
0.0
 40
0.0
 40
0.0
 40
0.0
 40
0.0
 40
1.0
 40
1.0
 40
1.0
 40
2.0
 40
2.0
 40
2.0
 40
3.0
 40
3.0
 40
3.0
 40
4.0
 40
4.0
 40
4.0
 40
4.0
 10
90.91965490823254
 20
-142.5006042124217
 30
0.0
 10
90.91965490823254
 20
-142.4455795779683
 30
0.0
 10
90.87484713507752
 20
-142.4007718048132
 30
0.0
 10
90.81981173470065
 20
-142.4007718048132
 30
0.0
 10
90.76477633432378
 20
-142.4007718048132
 30
0.0
 10
90.71997932709215
 20
-142.4455795779683
 30
0.0
 10
90.71997932709215
 20
-142.5006042124217
 30
0.0
 10
90.71997932709215
 20
-142.5563501637424
 30
0.0
 10
90.76477633432378
 20
-142.6011471709741
 30
0.0
 10
90.81981173470065
 20
-142.6011471709741
 30
0.0
 10
90.87484713507752
 20
-142.6011471709741
 30
0.0
 10
90.91965490823254
 20
-142.5563501637424
 30
0.0
 10
90.91965490823254
 20
-142.5006042124217
 30
0.0
  0
SPLINE
  5
103
330
1F
100
AcDbEntity
  8
_U+30EC_U+30A4_U+30E4_U+30FC 1
 62
   179
420
  2234388
370
     9
100
AcDbSpline
210
0.0
220
0.0
230
1.0
 70
    11
 71
     3
 72
    17
 73
    13
 74
     0
 42
0.0000000001
 43
0.0000000001
 12
1.0
 22
0.0
 32
0.0
 13
1.0
 23
0.0
 33
0.0
 40
0.0
 40
0.0
 40
0.0
 40
0.0
 40
1.0
 40
1.0
 40
1.0
 40
2.0
 40
2.0
 40
2.0
 40
3.0
 40
3.0
 40
3.0
 40
4.0
 40
4.0
 40
4.0
 40
4.0
 10
90.91965490823254
 20
-141.0006311699907
 30
0.0
 10
90.91965490823254
 20
-140.9456065355373
 30
0.0
 10
90.87484713507752
 20
-140.9007987623822
 30
0.0
 10
90.81981173470065
 20
-140.9007987623822
 30
0.0
 10
90.76477633432378
 20
-140.9007987623822
 30
0.0
 10
90.71997932709215
 20
-140.9456065355373
 30
0.0
 10
90.71997932709215
 20
-141.0006311699907
 30
0.0
 10
90.71997932709215
 20
-141.0563771213118
 30
0.0
 10
90.76477633432378
 20
-141.100474343523
 30
0.0
 10
90.81981173470065
 20
-141.100474343523
 30
0.0
 10
90.87484713507752
 20
-141.100474343523
 30
0.0
 10
90.91965490823254
 20
-141.0563771213118
 30
0.0
 10
90.91965490823254
 20
-141.0006311699907
 30
0.0
  0
SPLINE
  5
104
330
1F
100
AcDbEntity
  8
_U+30EC_U+30A4_U+30E4_U+30FC 1
 62
   179
420
  2234388
370
     9
100
AcDbSpline
210
0.0
220
0.0
230
1.0
 70
    11
 71
     3
 72
    17
 73
    13
 74
     0
 42
0.0000000001
 43
0.0000000001
 12
1.0
 22
0.0
 32
0.0
 13
1.0
 23
0.0
 33
0.0
 40
0.0
 40
0.0
 40
0.0
 40
0.0
 40
1.0
 40
1.0
 40
1.0
 40
2.0
 40
2.0
 40
2.0
 40
3.0
 40
3.0
 40
3.0
 40
4.0
 40
4.0
 40
4.0
 40
4.0
 10
101.0089507804121
 20
-137.0015427988659
 30
0.0
 10
101.0089507804121
 20
-136.9465181644125
 30
0.0
 10
100.9641430072568
 20
-136.9017103912574
 30
0.0
 10
100.9091076068799
 20
-136.9017103912574
 30
0.0
 10
100.8540722065031
 20
-136.9017103912574
 30
0.0
 10
100.8092751992714
 20
-136.9465181644125
 30
0.0
 10
100.8092751992714
 20
-137.0015427988659
 30
0.0
 10
100.8092751992714
 20
-137.0565781992428
 30
0.0
 10
100.8540722065031
 20
-137.1013859723978
 30
0.0
 10
100.9091076068799
 20
-137.1013859723978
 30
0.0
 10
100.9641430072568
 20
-137.1013859723978
 30
0.0
 10
101.0089507804121
 20
-137.0565781992428
 30
0.0
 10
101.0089507804121
 20
-137.0015427988659
 30
0.0
  0
SPLINE
  5
105
330
1F
100
AcDbEntity
  8
_U+30EC_U+30A4_U+30E4_U+30FC 1
 62
   179
420
  2234388
370
     9
100
AcDbSpline
210
0.0
220
0.0
230
1.0
 70
    11
 71
     3
 72
    17
 73
    13
 74
     0
 42
0.0000000001
 43
0.0000000001
 12
1.0
 22
0.0
 32
0.0
 13
1.0
 23
0.0
 33
0.0
 40
0.0
 40
0.0
 40
0.0
 40
0.0
 40
1.0
 40
1.0
 40
1.0
 40
2.0
 40
2.0
 40
2.0
 40
3.0
 40
3.0
 40
3.0
 40
4.0
 40
4.0
 40
4.0
 40
4.0
 10
116.0088857572662
 20
-137.0015427988659
 30
0.0
 10
116.0088857572662
 20
-136.9465181644125
 30
0.0
 10
115.9640779841112
 20
-136.9017103912574
 30
0.0
 10
115.9090425837343
 20
-136.9017103912574
 30
0.0
 10
115.8540071833575
 20
-136.9017103912574
 30
0.0
 10
115.8092101761258
 20
-136.9465181644125
 30
0.0
 10
115.8092101761258
 20
-137.0015427988659
 30
0.0
 10
115.8092101761258
 20
-137.0565781992428
 30
0.0
 10
115.8540071833575
 20
-137.1013859723978
 30
0.0
 10
115.9090425837343
 20
-137.1013859723978
 30
0.0
 10
115.9640779841112
 20
-137.1013859723978
 30
0.0
 10
116.0088857572662
 20
-137.0565781992428
 30
0.0
 10
116.0088857572662
 20
-137.0015427988659
 30
0.0
  0
SPLINE
  5
106
330
1F
100
AcDbEntity
  8
_U+30EC_U+30A4_U+30E4_U+30FC 1
 62
   179
420
  2234388
370
     9
100
AcDbSpline
210
0.0
220
0.0
230
1.0
 70
    11
 71
     3
 72
    17
 73
    13
 74
     0
 42
0.0000000001
 43
0.0000000001
 12
1.0
 22
0.0
 32
0.0
 13
1.0
 23
0.0
 33
0.0
 40
0.0
 40
0.0
 40
0.0
 40
0.0
 40
1.0
 40
1.0
 40
1.0
 40
2.0
 40
2.0
 40
2.0
 40
3.0
 40
3.0
 40
3.0
 40
4.0
 40
4.0
 40
4.0
 40
4.0
 10
119.3030968261855
 20
-141.5008698003724
 30
0.0
 10
119.3030968261855
 20
-141.4458451659193
 30
0.0
 10
119.2582890530305
 20
-141.4010373927639
 30
0.0
 10
119.2032536526536
 20
-141.4010373927639
 30
0.0
 10
119.1482182522767
 20
-141.4010373927639
 30
0.0
 10
119.1034212450451
 20
-141.4458451659193
 30
0.0
 10
119.1034212450451
 20
-141.5008698003724
 30
0.0
 10
119.1034212450451
 20
-141.5559052007493
 30
0.0
 10
119.1482182522767
 20
-141.6007129739043
 30
0.0
 10
119.2032536526536
 20
-141.6007129739043
 30
0.0
 10
119.2582890530305
 20
-141.6007129739043
 30
0.0
 10
119.3030968261855
 20
-141.5559052007493
 30
0.0
 10
119.3030968261855
 20
-141.5008698003724
 30
0.0
  0
SPLINE
  5
107
330
1F
100
AcDbEntity
  8
_U+30EC_U+30A4_U+30E4_U+30FC 1
 62
   179
420
  2234388
370
     9
100
AcDbSpline
210
0.0
220
0.0
230
1.0
 70
    11
 71
     3
 72
    17
 73
    13
 74
     0
 42
0.0000000001
 43
0.0000000001
 12
1.0
 22
0.0
 32
0.0
 13
1.0
 23
0.0
 33
0.0
 40
0.0
 40
0.0
 40
0.0
 40
0.0
 40
1.0
 40
1.0
 40
1.0
 40
2.0
 40
2.0
 40
2.0
 40
3.0
 40
3.0
 40
3.0
 40
4.0
 40
4.0
 40
4.0
 40
4.0
 10
119.3030968261855
 20
-145.0017650665599
 30
0.0
 10
119.3030968261855
 20
-144.9467404321064
 30
0.0
 10
119.2582890530305
 20
-144.9019326589514
 30
0.0
 10
119.2032536526536
 20
-144.9019326589514
 30
0.0
 10
119.1482182522767
 20
-144.9019326589514
 30
0.0
 10
119.1034212450451
 20
-144.9467404321064
 30
0.0
 10
119.1034212450451
 20
-145.0017650665599
 30
0.0
 10
119.1034212450451
 20
-145.0568004669367
 30
0.0
 10
119.1482182522767
 20
-145.1016082400921
 30
0.0
 10
119.2032536526536
 20
-145.1016082400921
 30
0.0
 10
119.2582890530305
 20
-145.1016082400921
 30
0.0
 10
119.3030968261855
 20
-145.0568004669367
 30
0.0
 10
119.3030968261855
 20
-145.0017650665599
 30
0.0
  0
SPLINE
  5
108
330
1F
100
AcDbEntity
  8
_U+30EC_U+30A4_U+30E4_U+30FC 1
 62
   179
420
  2234388
370
     9
100
AcDbSpline
210
0.0
220
0.0
230
1.0
 70
    11
 71
     3
 72
    17
 73
    13
 74
     0
 42
0.0000000001
 43
0.0000000001
 12
1.0
 22
0.0
 32
0.0
 13
1.0
 23
0.0
 33
0.0
 40
0.0
 40
0.0
 40
0.0
 40
0.0
 40
1.0
 40
1.0
 40
1.0
 40
2.0
 40
2.0
 40
2.0
 40
3.0
 40
3.0
 40
3.0
 40
4.0
 40
4.0
 40
4.0
 40
4.0
 10
119.3030968261855
 20
-158.0021558578519
 30
0.0
 10
119.3030968261855
 20
-157.9471312233984
 30
0.0
 10
119.2582890530305
 20
-157.9023234502434
 30
0.0
 10
119.2032536526536
 20
-157.9023234502434
 30
0.0
 10
119.1482182522767
 20
-157.9023234502434
 30
0.0
 10
119.1034212450451
 20
-157.9471312233984
 30
0.0
 10
119.1034212450451
 20
-158.0021558578519
 30
0.0
 10
119.1034212450451
 20
-158.0571912582288
 30
0.0
 10
119.1482182522767
 20
-158.1019990313838
 30
0.0
 10
119.2032536526536
 20
-158.1019990313838
 30
0.0
 10
119.2582890530305
 20
-158.1019990313838
 30
0.0
 10
119.3030968261855
 20
-158.0571912582288
 30
0.0
 10
119.3030968261855
 20
-158.0021558578519
 30
0.0
  0
SPLINE
  5
109
330
1F
100
AcDbEntity
  8
_U+30EC_U+30A4_U+30E4_U+30FC 1
 62
   179
420
  2234388
370
     9
100
AcDbSpline
210
0.0
220
0.0
230
1.0
 70
    11
 71
     3
 72
    17
 73
    13
 74
     0
 42
0.0000000001
 43
0.0000000001
 12
1.0
 22
0.0
 32
0.0
 13
1.0
 23
0.0
 33
0.0
 40
0.0
 40
0.0
 40
0.0
 40
0.0
 40
1.0
 40
1.0
 40
1.0
 40
2.0
 40
2.0
 40
2.0
 40
3.0
 40
3.0
 40
3.0
 40
4.0
 40
4.0
 40
4.0
 40
4.0
 10
116.1019141012914
 20
-166.0264722620958
 30
0.0
 10
116.1019141012914
 20
-165.9714476276423
 30
0.0
 10
116.0571063281363
 20
-165.9266398544873
 30
0.0
 10
116.001371142739
 20
-165.9266398544873
 30
0.0
 10
115.9463357423622
 20
-165.9266398544873
 30
0.0
 10
115.9015279692071
 20
-165.9714476276423
 30
0.0
 10
115.9015279692071
 20
-166.0264722620958
 30
0.0
 10
115.9015279692071
 20
-166.0815076624727
 30
0.0
 10
115.9463357423622
 20
-166.1263154356277
 30
0.0
 10
116.001371142739
 20
-166.1263154356277
 30
0.0
 10
116.0571063281363
 20
-166.1263154356277
 30
0.0
 10
116.1019141012914
 20
-166.0815076624727
 30
0.0
 10
116.1019141012914
 20
-166.0264722620958
 30
0.0
  0
INSERT
  5
10B
330
1F
100
AcDbEntity
  8
_U+30EC_U+30A4_U+30E4_U+30FC 1
100
AcDbBlockReference
  2
block 2
 10
0.0
 20
0.0
 30
0.0
  0
POLYLINE
  5
146
330
1F
100
AcDbEntity
  8
_U+30EC_U+30A4_U+30E4_U+30FC 1
 62
   179
420
  2234388
370
     9
100
AcDb2dPolyline
 66
     1
 10
0.0
 20
0.0
 30
0.0
  0
VERTEX
  5
147
330
146
100
AcDbEntity
  8
_U+30EC_U+30A4_U+30E4_U+30FC 1
 62
   179
420
  2234388
370
     9
100
AcDbVertex
100
AcDb2dVertex
 10
105.9085763454575
 20
-151.0024108509213
 30
0.0
  0
VERTEX
  5
148
330
146
100
AcDbEntity
  8
_U+30EC_U+30A4_U+30E4_U+30FC 1
 62
   179
420
  2234388
370
     9
100
AcDbVertex
100
AcDb2dVertex
 10
100.908999947646
 20
-151.0024108509213
 30
0.0
  0
SEQEND
  5
149
330
146
100
AcDbEntity
  8
_U+30EC_U+30A4_U+30E4_U+30FC 1
 62
   179
420
  2234388
370
     9
  0
POLYLINE
  5
14A
330
1F
100
AcDbEntity
  8
_U+30EC_U+30A4_U+30E4_U+30FC 1
 62
   179
420
  2234388
370
     9
100
AcDb2dPolyline
 66
     1
 10
0.0
 20
0.0
 30
0.0
  0
VERTEX
  5
14B
330
14A
100
AcDbEntity
  8
_U+30EC_U+30A4_U+30E4_U+30FC 1
 62
   179
420
  2234388
370
     9
100
AcDbVertex
100
AcDb2dVertex
 10
105.9085763454575
 20
-150.0419397614804
 30
0.0
  0
VERTEX
  5
14C
330
14A
100
AcDbEntity
  8
_U+30EC_U+30A4_U+30E4_U+30FC 1
 62
   179
420
  2234388
370
     9
100
AcDbVertex
100
AcDb2dVertex
 10
105.9085763454575
 20
-152.0023282836682
 30
0.0
  0
SEQEND
  5
14D
330
14A
100
AcDbEntity
  8
_U+30EC_U+30A4_U+30E4_U+30FC 1
 62
   179
420
  2234388
370
     9
  0
POLYLINE
  5
14E
330
1F
100
AcDbEntity
  8
_U+30EC_U+30A4_U+30E4_U+30FC 1
 62
   179
420
  2234388
370
     9
100
AcDb2dPolyline
 66
     1
 10
0.0
 20
0.0
 30
0.0
  0
VERTEX
  5
14F
330
14E
100
AcDbEntity
  8
_U+30EC_U+30A4_U+30E4_U+30FC 1
 62
   179
420
  2234388
370
     9
100
AcDbVertex
100
AcDb2dVertex
 10
100.909053777263
 20
-144.2410664515699
 30
0.0
  0
VERTEX
  5
150
330
14E
100
AcDbEntity
  8
_U+30EC_U+30A4_U+30E4_U+30FC 1
 62
   179
420
  2234388
370
     9
100
AcDbVertex
100
AcDb2dVertex
 10
100.909053777263
 20
-152.0021775607408
 30
0.0
  0
SEQEND
  5
151
330
14E
100
AcDbEntity
  8
_U+30EC_U+30A4_U+30E4_U+30FC 1
 62
   179
420
  2234388
370
     9
  0
INSERT
  5
153
330
1F
100
AcDbEntity
  8
_U+30EC_U+30A4_U+30E4_U+30FC 1
100
AcDbBlockReference
  2
block 3
 10
0.0
 20
0.0
 30
0.0
  0
INSERT
  5
159
330
1F
100
AcDbEntity
  8
_U+30EC_U+30A4_U+30E4_U+30FC 1
100
AcDbBlockReference
  2
block 4
 10
0.0
 20
0.0
 30
0.0
  0
SPLINE
  5
15E
330
1F
100
AcDbEntity
  8
_U+30EC_U+30A4_U+30E4_U+30FC 1
 62
   179
420
  2234388
370
    25
100
AcDbSpline
210
0.0
220
0.0
230
1.0
 70
    11
 71
     3
 72
    17
 73
    13
 74
     0
 42
0.0000000001
 43
0.0000000001
 12
1.0
 22
0.0
 32
0.0
 13
1.0
 23
0.0
 33
0.0
 40
0.0
 40
0.0
 40
0.0
 40
0.0
 40
1.0
 40
1.0
 40
1.0
 40
2.0
 40
2.0
 40
2.0
 40
3.0
 40
3.0
 40
3.0
 40
4.0
 40
4.0
 40
4.0
 40
4.0
 10
105.9443838066574
 20
-147.5014725210402
 30
0.0
 10
105.9443838066574
 20
-147.5208834809149
 30
0.0
 10
105.928504069655
 20
-147.5367524519939
 30
0.0
 10
105.9083933247599
 20
-147.5367524519939
 30
0.0
 10
105.8893484062805
 20
-147.5367524519939
 30
0.0
 10
105.8734686692782
 20
-147.5208834809149
 30
0.0
 10
105.8734686692782
 20
-147.5014725210402
 30
0.0
 10
105.8734686692782
 20
-147.4820723270889
 30
0.0
 10
105.8893484062805
 20
-147.46620335601
 30
0.0
 10
105.9083933247599
 20
-147.46620335601
 30
0.0
 10
105.928504069655
 20
-147.46620335601
 30
0.0
 10
105.9443838066574
 20
-147.4820723270889
 30
0.0
 10
105.9443838066574
 20
-147.5014725210402
 30
0.0
  0
SPLINE
  5
15F
330
1F
100
AcDbEntity
  8
_U+30EC_U+30A4_U+30E4_U+30FC 1
 62
   179
420
  2234388
370
    25
100
AcDbSpline
210
0.0
220
0.0
230
1.0
 70
    11
 71
     3
 72
    17
 73
    13
 74
     0
 42
0.0000000001
 43
0.0000000001
 12
1.0
 22
0.0
 32
0.0
 13
1.0
 23
0.0
 33
0.0
 40
0.0
 40
0.0
 40
0.0
 40
0.0
 40
1.0
 40
1.0
 40
1.0
 40
2.0
 40
2.0
 40
2.0
 40
3.0
 40
3.0
 40
3.0
 40
4.0
 40
4.0
 40
4.0
 40
4.0
 10
100.9441829852895
 20
-141.7006853385169
 30
0.0
 10
100.9441829852895
 20
-141.720796083412
 30
0.0
 10
100.9283032482868
 20
-141.7359652694705
 30
0.0
 10
100.9089030543355
 20
-141.7359652694705
 30
0.0
 10
100.8891475849126
 20
-141.7359652694705
 30
0.0
 10
100.8732678479099
 20
-141.720796083412
 30
0.0
 10
100.8732678479099
 20
-141.7006853385169
 30
0.0
 10
100.8732678479099
 20
-141.6812851445656
 30
0.0
 10
100.8891475849126
 20
-141.6654161734866
 30
0.0
 10
100.9089030543355
 20
-141.6654161734866
 30
0.0
 10
100.9283032482868
 20
-141.6654161734866
 30
0.0
 10
100.9441829852895
 20
-141.6812851445656
 30
0.0
 10
100.9441829852895
 20
-141.7006853385169
 30
0.0
  0
SPLINE
  5
160
330
1F
100
AcDbEntity
  8
_U+30EC_U+30A4_U+30E4_U+30FC 1
 62
   179
420
  2234388
370
     9
100
AcDbSpline
210
0.0
220
0.0
230
1.0
 70
    11
 71
     3
 72
    17
 73
    13
 74
     0
 42
0.0000000001
 43
0.0000000001
 12
1.0
 22
0.0
 32
0.0
 13
1.0
 23
0.0
 33
0.0
 40
0.0
 40
0.0
 40
0.0
 40
0.0
 40
1.0
 40
1.0
 40
1.0
 40
2.0
 40
2.0
 40
2.0
 40
3.0
 40
3.0
 40
3.0
 40
4.0
 40
4.0
 40
4.0
 40
4.0
 10
100.9441829852895
 20
-151.0024108509213
 30
0.0
 10
100.9441829852895
 20
-151.021821810796
 30
0.0
 10
100.9283032482868
 20
-151.0376907818749
 30
0.0
 10
100.9089030543355
 20
-151.0376907818749
 30
0.0
 10
100.8891475849126
 20
-151.0376907818749
 30
0.0
 10
100.8732678479099
 20
-151.021821810796
 30
0.0
 10
100.8732678479099
 20
-151.0024108509213
 30
0.0
 10
100.8732678479099
 20
-150.9823108719495
 30
0.0
 10
100.8891475849126
 20
-150.967141685891
 30
0.0
 10
100.9089030543355
 20
-150.967141685891
 30
0.0
 10
100.9283032482868
 20
-150.967141685891
 30
0.0
 10
100.9441829852895
 20
-150.9823108719495
 30
0.0
 10
100.9441829852895
 20
-151.0024108509213
 30
0.0
  0
POLYLINE
  5
161
330
1F
100
AcDbEntity
  8
_U+30EC_U+30A4_U+30E4_U+30FC 1
 62
   179
420
  2234388
370
     9
100
AcDb2dPolyline
 66
     1
 10
0.0
 20
0.0
 30
0.0
  0
VERTEX
  5
162
330
161
100
AcDbEntity
  8
_U+30EC_U+30A4_U+30E4_U+30FC 1
 62
   179
420
  2234388
370
     9
100
AcDbVertex
100
AcDb2dVertex
 10
94.40883684977051
 20
-162.0012442289767
 30
0.0
  0
VERTEX
  5
163
330
161
100
AcDbEntity
  8
_U+30EC_U+30A4_U+30E4_U+30FC 1
 62
   179
420
  2234388
370
     9
100
AcDbVertex
100
AcDb2dVertex
 10
103.4089011887474
 20
-162.0012442289767
 30
0.0
  0
SEQEND
  5
164
330
161
100
AcDbEntity
  8
_U+30EC_U+30A4_U+30E4_U+30FC 1
 62
   179
420
  2234388
370
     9
  0
POLYLINE
  5
165
330
1F
100
AcDbEntity
  8
_U+30EC_U+30A4_U+30E4_U+30FC 1
 62
   179
420
  2234388
370
     9
100
AcDb2dPolyline
 66
     1
 10
0.0
 20
0.0
 30
0.0
  0
VERTEX
  5
166
330
165
100
AcDbEntity
  8
_U+30EC_U+30A4_U+30E4_U+30FC 1
 62
   179
420
  2234388
370
     9
100
AcDbVertex
100
AcDb2dVertex
 10
94.40883684977051
 20
-159.5414245206615
 30
0.0
  0
VERTEX
  5
167
330
165
100
AcDbEntity
  8
_U+30EC_U+30A4_U+30E4_U+30FC 1
 62
   179
420
  2234388
370
     9
100
AcDbVertex
100
AcDb2dVertex
 10
94.40883684977051
 20
-163.0018291489739
 30
0.0
  0
SEQEND
  5
168
330
165
100
AcDbEntity
  8
_U+30EC_U+30A4_U+30E4_U+30FC 1
 62
   179
420
  2234388
370
     9
  0
POLYLINE
  5
169
330
1F
100
AcDbEntity
  8
_U+30EC_U+30A4_U+30E4_U+30FC 1
 62
   179
420
  2234388
370
     9
100
AcDb2dPolyline
 66
     1
 10
0.0
 20
0.0
 30
0.0
  0
VERTEX
  5
16A
330
169
100
AcDbEntity
  8
_U+30EC_U+30A4_U+30E4_U+30FC 1
 62
   179
420
  2234388
370
     9
100
AcDbVertex
100
AcDb2dVertex
 10
103.4087935295135
 20
-159.5414245206615
 30
0.0
  0
VERTEX
  5
16B
330
169
100
AcDbEntity
  8
_U+30EC_U+30A4_U+30E4_U+30FC 1
 62
   179
420
  2234388
370
     9
100
AcDbVertex
100
AcDb2dVertex
 10
103.4087935295135
 20
-163.0018291489739
 30
0.0
  0
SEQEND
  5
16C
330
169
100
AcDbEntity
  8
_U+30EC_U+30A4_U+30E4_U+30FC 1
 62
   179
420
  2234388
370
     9
  0
INSERT
  5
16E
330
1F
100
AcDbEntity
  8
_U+30EC_U+30A4_U+30E4_U+30FC 1
100
AcDbBlockReference
  2
block 5
 10
0.0
 20
0.0
 30
0.0
  0
SPLINE
  5
174
330
1F
100
AcDbEntity
  8
_U+30EC_U+30A4_U+30E4_U+30FC 1
 62
   179
420
  2234388
370
    25
100
AcDbSpline
210
0.0
220
0.0
230
1.0
 70
    11
 71
     3
 72
    17
 73
    13
 74
     0
 42
0.0000000001
 43
0.0000000001
 12
1.0
 22
0.0
 32
0.0
 13
1.0
 23
0.0
 33
0.0
 40
0.0
 40
0.0
 40
0.0
 40
0.0
 40
1.0
 40
1.0
 40
1.0
 40
2.0
 40
2.0
 40
2.0
 40
3.0
 40
3.0
 40
3.0
 40
4.0
 40
4.0
 40
4.0
 40
4.0
 10
94.44397682372006
 20
-157.0024214458026
 30
0.0
 10
94.44397682372006
 20
-157.0218324056773
 30
0.0
 10
94.42809708671741
 20
-157.0377013767562
 30
0.0
 10
94.4086968927661
 20
-157.0377013767562
 30
0.0
 10
94.38964120836332
 20
-157.0377013767562
 30
0.0
 10
94.37377223728438
 20
-157.0218324056773
 30
0.0
 10
94.37377223728438
 20
-157.0024214458026
 30
0.0
 10
94.37377223728438
 20
-156.9823214668308
 30
0.0
 10
94.38964120836332
 20
-156.9671522807723
 30
0.0
 10
94.4086968927661
 20
-156.9671522807723
 30
0.0
 10
94.42809708671741
 20
-156.9671522807723
 30
0.0
 10
94.44397682372006
 20
-156.9823214668308
 30
0.0
 10
94.44397682372006
 20
-157.0024214458026
 30
0.0
  0
SPLINE
  5
175
330
1F
100
AcDbEntity
  8
_U+30EC_U+30A4_U+30E4_U+30FC 1
 62
   179
420
  2234388
370
    25
100
AcDbSpline
210
0.0
220
0.0
230
1.0
 70
    11
 71
     3
 72
    17
 73
    13
 74
     0
 42
0.0000000001
 43
0.0000000001
 12
1.0
 22
0.0
 32
0.0
 13
1.0
 23
0.0
 33
0.0
 40
0.0
 40
0.0
 40
0.0
 40
0.0
 40
1.0
 40
1.0
 40
1.0
 40
2.0
 40
2.0
 40
2.0
 40
3.0
 40
3.0
 40
3.0
 40
4.0
 40
4.0
 40
4.0
 40
4.0
 10
103.443933503463
 20
-157.0024214458026
 30
0.0
 10
103.443933503463
 20
-157.0218324056773
 30
0.0
 10
103.4280537664607
 20
-157.0377013767562
 30
0.0
 10
103.4086535725094
 20
-157.0377013767562
 30
0.0
 10
103.3895978881069
 20
-157.0377013767562
 30
0.0
 10
103.3737289170277
 20
-157.0218324056773
 30
0.0
 10
103.3737289170277
 20
-157.0024214458026
 30
0.0
 10
103.3737289170277
 20
-156.9823214668308
 30
0.0
 10
103.3895978881069
 20
-156.9671522807723
 30
0.0
 10
103.4086535725094
 20
-156.9671522807723
 30
0.0
 10
103.4280537664607
 20
-156.9671522807723
 30
0.0
 10
103.443933503463
 20
-156.9823214668308
 30
0.0
 10
103.443933503463
 20
-157.0024214458026
 30
0.0
  0
SPLINE
  5
176
330
1F
100
AcDbEntity
  8
_U+30EC_U+30A4_U+30E4_U+30FC 1
 62
   179
420
  2234388
370
     9
100
AcDbSpline
210
0.0
220
0.0
230
1.0
 70
    11
 71
     3
 72
    17
 73
    13
 74
     0
 42
0.0000000001
 43
0.0000000001
 12
1.0
 22
0.0
 32
0.0
 13
1.0
 23
0.0
 33
0.0
 40
0.0
 40
0.0
 40
0.0
 40
0.0
 40
1.0
 40
1.0
 40
1.0
 40
2.0
 40
2.0
 40
2.0
 40
3.0
 40
3.0
 40
3.0
 40
4.0
 40
4.0
 40
4.0
 40
4.0
 10
103.443933503463
 20
-162.0012442289767
 30
0.0
 10
103.443933503463
 20
-162.0213549738718
 30
0.0
 10
103.4280537664607
 20
-162.0372347108742
 30
0.0
 10
103.4086535725094
 20
-162.0372347108742
 30
0.0
 10
103.3895978881069
 20
-162.0372347108742
 30
0.0
 10
103.3737289170277
 20
-162.0213549738718
 30
0.0
 10
103.3737289170277
 20
-162.0012442289767
 30
0.0
 10
103.3737289170277
 20
-161.9818440350254
 30
0.0
 10
103.3895978881069
 20
-161.9659750639464
 30
0.0
 10
103.4086535725094
 20
-161.9659750639464
 30
0.0
 10
103.4280537664607
 20
-161.9659750639464
 30
0.0
 10
103.443933503463
 20
-161.9818440350254
 30
0.0
 10
103.443933503463
 20
-162.0012442289767
 30
0.0
  0
POLYLINE
  5
177
330
1F
100
AcDbEntity
  8
_U+30EC_U+30A4_U+30E4_U+30FC 1
 62
   179
420
  2234388
370
     9
100
AcDb2dPolyline
 66
     1
 10
0.0
 20
0.0
 30
0.0
  0
VERTEX
  5
178
330
177
100
AcDbEntity
  8
_U+30EC_U+30A4_U+30E4_U+30FC 1
 62
   179
420
  2234388
370
     9
100
AcDbVertex
100
AcDb2dVertex
 10
116.0013388449689
 20
-166.9966111507422
 30
0.0
  0
VERTEX
  5
179
330
177
100
AcDbEntity
  8
_U+30EC_U+30A4_U+30E4_U+30FC 1
 62
   179
420
  2234388
370
     9
100
AcDbVertex
100
AcDb2dVertex
 10
116.0013388449689
 20
-160.7686751917414
 30
0.0
  0
SEQEND
  5
17A
330
177
100
AcDbEntity
  8
_U+30EC_U+30A4_U+30E4_U+30FC 1
 62
   179
420
  2234388
370
     9
  0
SPLINE
  5
17B
330
1F
100
AcDbEntity
  8
_U+30EC_U+30A4_U+30E4_U+30FC 1
 62
   179
420
  2234388
370
    25
100
AcDbSpline
210
0.0
220
0.0
230
1.0
 70
    11
 71
     3
 72
    17
 73
    13
 74
     0
 42
0.0000000001
 43
0.0000000001
 12
1.0
 22
0.0
 32
0.0
 13
1.0
 23
0.0
 33
0.0
 40
0.0
 40
0.0
 40
0.0
 40
0.0
 40
1.0
 40
1.0
 40
1.0
 40
2.0
 40
2.0
 40
2.0
 40
3.0
 40
3.0
 40
3.0
 40
4.0
 40
4.0
 40
4.0
 40
4.0
 10
108.4441666226014
 20
-157.0024214458026
 30
0.0
 10
108.4441666226014
 20
-157.0218324056773
 30
0.0
 10
108.4282868855991
 20
-157.0377013767562
 30
0.0
 10
108.4088866916478
 20
-157.0377013767562
 30
0.0
 10
108.3891312222245
 20
-157.0377013767562
 30
0.0
 10
108.3739620361661
 20
-157.0218324056773
 30
0.0
 10
108.3739620361661
 20
-157.0024214458026
 30
0.0
 10
108.3739620361661
 20
-156.9823214668308
 30
0.0
 10
108.3891312222245
 20
-156.9671522807723
 30
0.0
 10
108.4088866916478
 20
-156.9671522807723
 30
0.0
 10
108.4282868855991
 20
-156.9671522807723
 30
0.0
 10
108.4441666226014
 20
-156.9823214668308
 30
0.0
 10
108.4441666226014
 20
-157.0024214458026
 30
0.0
  0
SPLINE
  5
17C
330
1F
100
AcDbEntity
  8
_U+30EC_U+30A4_U+30E4_U+30FC 1
 62
   179
420
  2234388
370
    25
100
AcDbSpline
210
0.0
220
0.0
230
1.0
 70
    11
 71
     3
 72
    17
 73
    13
 74
     0
 42
0.0000000001
 43
0.0000000001
 12
1.0
 22
0.0
 32
0.0
 13
1.0
 23
0.0
 33
0.0
 40
0.0
 40
0.0
 40
0.0
 40
0.0
 40
1.0
 40
1.0
 40
1.0
 40
2.0
 40
2.0
 40
2.0
 40
3.0
 40
3.0
 40
3.0
 40
4.0
 40
4.0
 40
4.0
 40
4.0
 10
104.4444107642264
 20
-155.502405339678
 30
0.0
 10
104.4444107642264
 20
-155.5218162995527
 30
0.0
 10
104.428531027224
 20
-155.5376852706316
 30
0.0
 10
104.4084202823289
 20
-155.5376852706316
 30
0.0
 10
104.3893753638495
 20
-155.5376852706316
 30
0.0
 10
104.3734956268472
 20
-155.5218162995527
 30
0.0
 10
104.3734956268472
 20
-155.502405339678
 30
0.0
 10
104.3734956268472
 20
-155.4823053607062
 30
0.0
 10
104.3893753638495
 20
-155.4671361746478
 30
0.0
 10
104.4084202823289
 20
-155.4671361746478
 30
0.0
 10
104.428531027224
 20
-155.4671361746478
 30
0.0
 10
104.4444107642264
 20
-155.4823053607062
 30
0.0
 10
104.4444107642264
 20
-155.502405339678
 30
0.0
  0
SPLINE
  5
17D
330
1F
100
AcDbEntity
  8
_U+30EC_U+30A4_U+30E4_U+30FC 1
 62
   179
420
  2234388
370
     9
100
AcDbSpline
210
0.0
220
0.0
230
1.0
 70
    11
 71
     3
 72
    17
 73
    13
 74
     0
 42
0.0000000001
 43
0.0000000001
 12
1.0
 22
0.0
 32
0.0
 13
1.0
 23
0.0
 33
0.0
 40
0.0
 40
0.0
 40
0.0
 40
0.0
 40
1.0
 40
1.0
 40
1.0
 40
2.0
 40
2.0
 40
2.0
 40
3.0
 40
3.0
 40
3.0
 40
4.0
 40
4.0
 40
4.0
 40
4.0
 10
116.0371463061687
 20
-166.0264722620958
 30
0.0
 10
116.0371463061687
 20
-166.0458832219705
 30
0.0
 10
116.0212665691663
 20
-166.0617521930494
 30
0.0
 10
116.0011558242712
 20
-166.0617521930494
 30
0.0
 10
115.9821109057918
 20
-166.0617521930494
 30
0.0
 10
115.9662311687895
 20
-166.0458832219705
 30
0.0
 10
115.9662311687895
 20
-166.0264722620958
 30
0.0
 10
115.9662311687895
 20
-166.0063722831241
 30
0.0
 10
115.9821109057918
 20
-165.9912030970656
 30
0.0
 10
116.0011558242712
 20
-165.9912030970656
 30
0.0
 10
116.0212665691663
 20
-165.9912030970656
 30
0.0
 10
116.0371463061687
 20
-166.0063722831241
 30
0.0
 10
116.0371463061687
 20
-166.0264722620958
 30
0.0
  0
POLYLINE
  5
17E
330
1F
100
AcDbEntity
  8
_U+30EC_U+30A4_U+30E4_U+30FC 1
 62
   179
420
  2234388
370
     9
100
AcDb2dPolyline
 66
     1
 10
0.0
 20
0.0
 30
0.0
  0
VERTEX
  5
17F
330
17E
100
AcDbEntity
  8
_U+30EC_U+30A4_U+30E4_U+30FC 1
 62
   179
420
  2234388
370
     9
100
AcDbVertex
100
AcDb2dVertex
 10
93.4090593740273
 20
-166.0023781255458
 30
0.0
  0
VERTEX
  5
180
330
17E
100
AcDbEntity
  8
_U+30EC_U+30A4_U+30E4_U+30FC 1
 62
   179
420
  2234388
370
     9
100
AcDbVertex
100
AcDb2dVertex
 10
116.0372754972494
 20
-166.0023781255458
 30
0.0
  0
SEQEND
  5
181
330
17E
100
AcDbEntity
  8
_U+30EC_U+30A4_U+30E4_U+30FC 1
 62
   179
420
  2234388
370
     9
  0
POLYLINE
  5
182
330
1F
100
AcDbEntity
  8
_U+30EC_U+30A4_U+30E4_U+30FC 1
 62
   179
420
  2234388
370
     9
100
AcDb2dPolyline
 66
     1
 10
0.0
 20
0.0
 30
0.0
  0
VERTEX
  5
183
330
182
100
AcDbEntity
  8
_U+30EC_U+30A4_U+30E4_U+30FC 1
 62
   179
420
  2234388
370
     9
100
AcDbVertex
100
AcDb2dVertex
 10
93.4090593740273
 20
-160.5419125473483
 30
0.0
  0
VERTEX
  5
184
330
182
100
AcDbEntity
  8
_U+30EC_U+30A4_U+30E4_U+30FC 1
 62
   179
420
  2234388
370
     9
100
AcDbVertex
100
AcDb2dVertex
 10
93.4090593740273
 20
-167.0023386219864
 30
0.0
  0
SEQEND
  5
185
330
182
100
AcDbEntity
  8
_U+30EC_U+30A4_U+30E4_U+30FC 1
 62
   179
420
  2234388
370
     9
  0
POLYLINE
  5
186
330
1F
100
AcDbEntity
  8
_U+30EC_U+30A4_U+30E4_U+30FC 1
 62
   179
420
  2234388
370
     9
100
AcDb2dPolyline
 66
     1
 10
0.0
 20
0.0
 30
0.0
  0
VERTEX
  5
187
330
186
100
AcDbEntity
  8
_U+30EC_U+30A4_U+30E4_U+30FC 1
 62
   179
420
  2234388
370
     9
100
AcDbVertex
100
AcDb2dVertex
 10
110.9087771668258
 20
-160.5419125473483
 30
0.0
  0
VERTEX
  5
188
330
186
100
AcDbEntity
  8
_U+30EC_U+30A4_U+30E4_U+30FC 1
 62
   179
420
  2234388
370
     9
100
AcDbVertex
100
AcDb2dVertex
 10
110.9087771668258
 20
-167.0023386219864
 30
0.0
  0
SEQEND
  5
189
330
186
100
AcDbEntity
  8
_U+30EC_U+30A4_U+30E4_U+30FC 1
 62
   179
420
  2234388
370
     9
  0
INSERT
  5
18B
330
1F
100
AcDbEntity
  8
_U+30EC_U+30A4_U+30E4_U+30FC 1
100
AcDbBlockReference
  2
block 6
 10
0.0
 20
0.0
 30
0.0
  0
SPLINE
  5
19C
330
1F
100
AcDbEntity
  8
_U+30EC_U+30A4_U+30E4_U+30FC 1
 62
   179
420
  2234388
370
    25
100
AcDbSpline
210
0.0
220
0.0
230
1.0
 70
    11
 71
     3
 72
    17
 73
    13
 74
     0
 42
0.0000000001
 43
0.0000000001
 12
1.0
 22
0.0
 32
0.0
 13
1.0
 23
0.0
 33
0.0
 40
0.0
 40
0.0
 40
0.0
 40
0.0
 40
1.0
 40
1.0
 40
1.0
 40
2.0
 40
2.0
 40
2.0
 40
3.0
 40
3.0
 40
3.0
 40
4.0
 40
4.0
 40
4.0
 40
4.0
 10
93.44419934797685
 20
-158.0021558578519
 30
0.0
 10
93.44419934797685
 20
-158.0215668177266
 30
0.0
 10
93.42831961097453
 20
-158.0374357888055
 30
0.0
 10
93.40891941702321
 20
-158.0374357888055
 30
0.0
 10
93.38916394759998
 20
-158.0374357888055
 30
0.0
 10
93.37328421059766
 20
-158.0215668177266
 30
0.0
 10
93.37328421059766
 20
-158.0021558578519
 30
0.0
 10
93.37328421059766
 20
-157.9827556639006
 30
0.0
 10
93.38916394759998
 20
-157.9668866928216
 30
0.0
 10
93.40891941702321
 20
-157.9668866928216
 30
0.0
 10
93.42831961097453
 20
-157.9668866928216
 30
0.0
 10
93.44419934797685
 20
-157.9827556639006
 30
0.0
 10
93.44419934797685
 20
-158.0021558578519
 30
0.0
  0
SPLINE
  5
19D
330
1F
100
AcDbEntity
  8
_U+30EC_U+30A4_U+30E4_U+30FC 1
 62
   179
420
  2234388
370
    25
100
AcDbSpline
210
0.0
220
0.0
230
1.0
 70
    11
 71
     3
 72
    17
 73
    13
 74
     0
 42
0.0000000001
 43
0.0000000001
 12
1.0
 22
0.0
 32
0.0
 13
1.0
 23
0.0
 33
0.0
 40
0.0
 40
0.0
 40
0.0
 40
0.0
 40
1.0
 40
1.0
 40
1.0
 40
2.0
 40
2.0
 40
2.0
 40
3.0
 40
3.0
 40
3.0
 40
4.0
 40
4.0
 40
4.0
 40
4.0
 10
110.9439171407753
 20
-158.0021558578519
 30
0.0
 10
110.9439171407753
 20
-158.0215668177266
 30
0.0
 10
110.928037403773
 20
-158.0374357888055
 30
0.0
 10
110.9086372098217
 20
-158.0374357888055
 30
0.0
 10
110.8895815254189
 20
-158.0374357888055
 30
0.0
 10
110.87371255434
 20
-158.0215668177266
 30
0.0
 10
110.87371255434
 20
-158.0021558578519
 30
0.0
 10
110.87371255434
 20
-157.9827556639006
 30
0.0
 10
110.8895815254189
 20
-157.9668866928216
 30
0.0
 10
110.9086372098217
 20
-157.9668866928216
 30
0.0
 10
110.928037403773
 20
-157.9668866928216
 30
0.0
 10
110.9439171407753
 20
-157.9827556639006
 30
0.0
 10
110.9439171407753
 20
-158.0021558578519
 30
0.0
  0
SPLINE
  5
19E
330
1F
100
AcDbEntity
  8
_U+30EC_U+30A4_U+30E4_U+30FC 1
 62
   179
420
  2234388
370
     9
100
AcDbSpline
210
0.0
220
0.0
230
1.0
 70
    11
 71
     3
 72
    17
 73
    13
 74
     0
 42
0.0000000001
 43
0.0000000001
 12
1.0
 22
0.0
 32
0.0
 13
1.0
 23
0.0
 33
0.0
 40
0.0
 40
0.0
 40
0.0
 40
0.0
 40
1.0
 40
1.0
 40
1.0
 40
2.0
 40
2.0
 40
2.0
 40
3.0
 40
3.0
 40
3.0
 40
4.0
 40
4.0
 40
4.0
 40
4.0
 10
110.9439171407753
 20
-166.0023781255458
 30
0.0
 10
110.9439171407753
 20
-166.0217890854206
 30
0.0
 10
110.928037403773
 20
-166.0376580564995
 30
0.0
 10
110.9086372098217
 20
-166.0376580564995
 30
0.0
 10
110.8895815254189
 20
-166.0376580564995
 30
0.0
 10
110.87371255434
 20
-166.0217890854206
 30
0.0
 10
110.87371255434
 20
-166.0023781255458
 30
0.0
 10
110.87371255434
 20
-165.9829779315945
 30
0.0
 10
110.8895815254189
 20
-165.9671089605156
 30
0.0
 10
110.9086372098217
 20
-165.9671089605156
 30
0.0
 10
110.928037403773
 20
-165.9671089605156
 30
0.0
 10
110.9439171407753
 20
-165.9829779315945
 30
0.0
 10
110.9439171407753
 20
-166.0023781255458
 30
0.0
  0
POLYLINE
  5
19F
330
1F
100
AcDbEntity
  8
_U+30EC_U+30A4_U+30E4_U+30FC 1
 62
   179
420
  2234388
370
     9
100
AcDb2dPolyline
 66
     1
 10
0.0
 20
0.0
 30
0.0
  0
VERTEX
  5
1A0
330
19F
100
AcDbEntity
  8
_U+30EC_U+30A4_U+30E4_U+30FC 1
 62
   179
420
  2234388
370
     9
100
AcDbVertex
100
AcDb2dVertex
 10
100.909053777263
 20
-137.0015427988659
 30
0.0
  0
VERTEX
  5
1A1
330
19F
100
AcDbEntity
  8
_U+30EC_U+30A4_U+30E4_U+30FC 1
 62
   179
420
  2234388
370
     9
100
AcDbVertex
100
AcDb2dVertex
 10
115.9091610088916
 20
-137.0015427988659
 30
0.0
  0
SEQEND
  5
1A2
330
19F
100
AcDbEntity
  8
_U+30EC_U+30A4_U+30E4_U+30FC 1
 62
   179
420
  2234388
370
     9
  0
POLYLINE
  5
1A3
330
1F
100
AcDbEntity
  8
_U+30EC_U+30A4_U+30E4_U+30FC 1
 62
   179
420
  2234388
370
     9
100
AcDb2dPolyline
 66
     1
 10
0.0
 20
0.0
 30
0.0
  0
VERTEX
  5
1A4
330
1A3
100
AcDbEntity
  8
_U+30EC_U+30A4_U+30E4_U+30FC 1
 62
   179
420
  2234388
370
     9
100
AcDbVertex
100
AcDb2dVertex
 10
100.909053777263
 20
-138.4615419677446
 30
0.0
  0
VERTEX
  5
1A5
330
1A3
100
AcDbEntity
  8
_U+30EC_U+30A4_U+30E4_U+30FC 1
 62
   179
420
  2234388
370
     9
100
AcDbVertex
100
AcDb2dVertex
 10
100.909053777263
 20
-136.0009255810985
 30
0.0
  0
SEQEND
  5
1A6
330
1A3
100
AcDbEntity
  8
_U+30EC_U+30A4_U+30E4_U+30FC 1
 62
   179
420
  2234388
370
     9
  0
POLYLINE
  5
1A7
330
1F
100
AcDbEntity
  8
_U+30EC_U+30A4_U+30E4_U+30FC 1
 62
   179
420
  2234388
370
     9
100
AcDb2dPolyline
 66
     1
 10
0.0
 20
0.0
 30
0.0
  0
VERTEX
  5
1A8
330
1A7
100
AcDbEntity
  8
_U+30EC_U+30A4_U+30E4_U+30FC 1
 62
   179
420
  2234388
370
     9
100
AcDbVertex
100
AcDb2dVertex
 10
115.9089887541174
 20
-138.9611131108761
 30
0.0
  0
VERTEX
  5
1A9
330
1A7
100
AcDbEntity
  8
_U+30EC_U+30A4_U+30E4_U+30FC 1
 62
   179
420
  2234388
370
     9
100
AcDbVertex
100
AcDb2dVertex
 10
115.9089887541174
 20
-136.000957878869
 30
0.0
  0
SEQEND
  5
1AA
330
1A7
100
AcDbEntity
  8
_U+30EC_U+30A4_U+30E4_U+30FC 1
 62
   179
420
  2234388
370
     9
  0
INSERT
  5
1AC
330
1F
100
AcDbEntity
  8
_U+30EC_U+30A4_U+30E4_U+30FC 1
100
AcDbBlockReference
  2
block 7
 10
0.0
 20
0.0
 30
0.0
  0
INSERT
  5
1B4
330
1F
100
AcDbEntity
  8
_U+30EC_U+30A4_U+30E4_U+30FC 1
100
AcDbBlockReference
  2
block 8
 10
0.0
 20
0.0
 30
0.0
  0
SPLINE
  5
1C3
330
1F
100
AcDbEntity
  8
_U+30EC_U+30A4_U+30E4_U+30FC 1
 62
   179
420
  2234388
370
    25
100
AcDbSpline
210
0.0
220
0.0
230
1.0
 70
    11
 71
     3
 72
    17
 73
    13
 74
     0
 42
0.0000000001
 43
0.0000000001
 12
1.0
 22
0.0
 32
0.0
 13
1.0
 23
0.0
 33
0.0
 40
0.0
 40
0.0
 40
0.0
 40
0.0
 40
1.0
 40
1.0
 40
1.0
 40
2.0
 40
2.0
 40
2.0
 40
3.0
 40
3.0
 40
3.0
 40
4.0
 40
4.0
 40
4.0
 40
4.0
 10
100.9441829852895
 20
-141.0006311699907
 30
0.0
 10
100.9441829852895
 20
-141.0207419148859
 30
0.0
 10
100.9283032482868
 20
-141.0366216518882
 30
0.0
 10
100.9089030543355
 20
-141.0366216518882
 30
0.0
 10
100.8891475849126
 20
-141.0366216518882
 30
0.0
 10
100.8732678479099
 20
-141.0207419148859
 30
0.0
 10
100.8732678479099
 20
-141.0006311699907
 30
0.0
 10
100.8732678479099
 20
-140.9812309760394
 30
0.0
 10
100.8891475849126
 20
-140.9653620049605
 30
0.0
 10
100.9089030543355
 20
-140.9653620049605
 30
0.0
 10
100.9283032482868
 20
-140.9653620049605
 30
0.0
 10
100.9441829852895
 20
-140.9812309760394
 30
0.0
 10
100.9441829852895
 20
-141.0006311699907
 30
0.0
  0
SPLINE
  5
1C4
330
1F
100
AcDbEntity
  8
_U+30EC_U+30A4_U+30E4_U+30FC 1
 62
   179
420
  2234388
370
    25
100
AcDbSpline
210
0.0
220
0.0
230
1.0
 70
    11
 71
     3
 72
    17
 73
    13
 74
     0
 42
0.0000000001
 43
0.0000000001
 12
1.0
 22
0.0
 32
0.0
 13
1.0
 23
0.0
 33
0.0
 40
0.0
 40
0.0
 40
0.0
 40
0.0
 40
1.0
 40
1.0
 40
1.0
 40
2.0
 40
2.0
 40
2.0
 40
3.0
 40
3.0
 40
3.0
 40
4.0
 40
4.0
 40
4.0
 40
4.0
 10
115.9441179621435
 20
-141.5008698003724
 30
0.0
 10
115.9441179621435
 20
-141.5202807602471
 30
0.0
 10
115.9282382251412
 20
-141.536149731326
 30
0.0
 10
115.9088380311899
 20
-141.536149731326
 30
0.0
 10
115.8890825617667
 20
-141.536149731326
 30
0.0
 10
115.8739133757082
 20
-141.5202807602471
 30
0.0
 10
115.8739133757082
 20
-141.5008698003724
 30
0.0
 10
115.8739133757082
 20
-141.4814696064211
 30
0.0
 10
115.8890825617667
 20
-141.4656006353422
 30
0.0
 10
115.9088380311899
 20
-141.4656006353422
 30
0.0
 10
115.9282382251412
 20
-141.4656006353422
 30
0.0
 10
115.9441179621435
 20
-141.4814696064211
 30
0.0
 10
115.9441179621435
 20
-141.5008698003724
 30
0.0
  0
SPLINE
  5
1C5
330
1F
100
AcDbEntity
  8
_U+30EC_U+30A4_U+30E4_U+30FC 1
 62
   179
420
  2234388
370
     9
100
AcDbSpline
210
0.0
220
0.0
230
1.0
 70
    11
 71
     3
 72
    17
 73
    13
 74
     0
 42
0.0000000001
 43
0.0000000001
 12
1.0
 22
0.0
 32
0.0
 13
1.0
 23
0.0
 33
0.0
 40
0.0
 40
0.0
 40
0.0
 40
0.0
 40
1.0
 40
1.0
 40
1.0
 40
2.0
 40
2.0
 40
2.0
 40
3.0
 40
3.0
 40
3.0
 40
4.0
 40
4.0
 40
4.0
 40
4.0
 10
115.9441179621435
 20
-137.0015427988659
 30
0.0
 10
115.9441179621435
 20
-137.0209537587406
 30
0.0
 10
115.9282382251412
 20
-137.0368227298196
 30
0.0
 10
115.9088380311899
 20
-137.0368227298196
 30
0.0
 10
115.8890825617667
 20
-137.0368227298196
 30
0.0
 10
115.8739133757082
 20
-137.0209537587406
 30
0.0
 10
115.8739133757082
 20
-137.0015427988659
 30
0.0
 10
115.8739133757082
 20
-136.9821426049146
 30
0.0
 10
115.8890825617667
 20
-136.966273633836
 30
0.0
 10
115.9088380311899
 20
-136.966273633836
 30
0.0
 10
115.9282382251412
 20
-136.966273633836
 30
0.0
 10
115.9441179621435
 20
-136.9821426049146
 30
0.0
 10
115.9441179621435
 20
-137.0015427988659
 30
0.0
  0
POLYLINE
  5
1C6
330
1F
100
AcDbEntity
  8
_U+30EC_U+30A4_U+30E4_U+30FC 1
 62
   179
420
  2234388
370
     9
100
AcDb2dPolyline
 66
     1
 10
0.0
 20
0.0
 30
0.0
  0
VERTEX
  5
1C7
330
1C6
100
AcDbEntity
  8
_U+30EC_U+30A4_U+30E4_U+30FC 1
 62
   179
420
  2234388
370
     9
100
AcDbVertex
100
AcDb2dVertex
 10
119.2031890571133
 20
-141.5008698003724
 30
0.0
  0
VERTEX
  5
1C8
330
1C6
100
AcDbEntity
  8
_U+30EC_U+30A4_U+30E4_U+30FC 1
 62
   179
420
  2234388
370
     9
100
AcDbVertex
100
AcDb2dVertex
 10
119.2031890571133
 20
-136.243072730018
 30
0.0
  0
SEQEND
  5
1C9
330
1C6
100
AcDbEntity
  8
_U+30EC_U+30A4_U+30E4_U+30FC 1
 62
   179
420
  2234388
370
     9
  0
POLYLINE
  5
1CA
330
1F
100
AcDbEntity
  8
_U+30EC_U+30A4_U+30E4_U+30FC 1
 62
   179
420
  2234388
370
     9
100
AcDb2dPolyline
 66
     1
 10
0.0
 20
0.0
 30
0.0
  0
VERTEX
  5
1CB
330
1CA
100
AcDbEntity
  8
_U+30EC_U+30A4_U+30E4_U+30FC 1
 62
   179
420
  2234388
370
     9
100
AcDbVertex
100
AcDb2dVertex
 10
119.2031890571133
 20
-141.5008698003724
 30
0.0
  0
VERTEX
  5
1CC
330
1CA
100
AcDbEntity
  8
_U+30EC_U+30A4_U+30E4_U+30FC 1
 62
   179
420
  2234388
370
     9
100
AcDbVertex
100
AcDb2dVertex
 10
119.2031890571133
 20
-145.0018404280236
 30
0.0
  0
SEQEND
  5
1CD
330
1CA
100
AcDbEntity
  8
_U+30EC_U+30A4_U+30E4_U+30FC 1
 62
   179
420
  2234388
370
     9
  0
POLYLINE
  5
1CE
330
1F
100
AcDbEntity
  8
_U+30EC_U+30A4_U+30E4_U+30FC 1
 62
   179
420
  2234388
370
     9
100
AcDb2dPolyline
 66
     1
 10
0.0
 20
0.0
 30
0.0
  0
VERTEX
  5
1CF
330
1CE
100
AcDbEntity
  8
_U+30EC_U+30A4_U+30E4_U+30FC 1
 62
   179
420
  2234388
370
     9
100
AcDbVertex
100
AcDb2dVertex
 10
117.7431791223112
 20
-141.5008698003724
 30
0.0
  0
VERTEX
  5
1D0
330
1CE
100
AcDbEntity
  8
_U+30EC_U+30A4_U+30E4_U+30FC 1
 62
   179
420
  2234388
370
     9
100
AcDbVertex
100
AcDb2dVertex
 10
119.8503179462473
 20
-141.5008698003724
 30
0.0
  0
SEQEND
  5
1D1
330
1CE
100
AcDbEntity
  8
_U+30EC_U+30A4_U+30E4_U+30FC 1
 62
   179
420
  2234388
370
     9
  0
POLYLINE
  5
1D2
330
1F
100
AcDbEntity
  8
_U+30EC_U+30A4_U+30E4_U+30FC 1
 62
   179
420
  2234388
370
     9
100
AcDb2dPolyline
 66
     1
 10
0.0
 20
0.0
 30
0.0
  0
VERTEX
  5
1D3
330
1D2
100
AcDbEntity
  8
_U+30EC_U+30A4_U+30E4_U+30FC 1
 62
   179
420
  2234388
370
     9
100
AcDbVertex
100
AcDb2dVertex
 10
117.7431791223112
 20
-145.0017650665599
 30
0.0
  0
VERTEX
  5
1D4
330
1D2
100
AcDbEntity
  8
_U+30EC_U+30A4_U+30E4_U+30FC 1
 62
   179
420
  2234388
370
     9
100
AcDbVertex
100
AcDb2dVertex
 10
119.8503179462473
 20
-145.0017650665599
 30
0.0
  0
SEQEND
  5
1D5
330
1D2
100
AcDbEntity
  8
_U+30EC_U+30A4_U+30E4_U+30FC 1
 62
   179
420
  2234388
370
     9
  0
INSERT
  5
1D7
330
1F
100
AcDbEntity
  8
_U+30EC_U+30A4_U+30E4_U+30FC 1
100
AcDbBlockReference
  2
block 9
 10
0.0
 20
0.0
 30
0.0
  0
SPLINE
  5
1E6
330
1F
100
AcDbEntity
  8
_U+30EC_U+30A4_U+30E4_U+30FC 1
 62
   179
420
  2234388
370
    25
100
AcDbSpline
210
0.0
220
0.0
230
1.0
 70
    11
 71
     3
 72
    17
 73
    13
 74
     0
 42
0.0000000001
 43
0.0000000001
 12
1.0
 22
0.0
 32
0.0
 13
1.0
 23
0.0
 33
0.0
 40
0.0
 40
0.0
 40
0.0
 40
0.0
 40
1.0
 40
1.0
 40
1.0
 40
2.0
 40
2.0
 40
2.0
 40
3.0
 40
3.0
 40
3.0
 40
4.0
 40
4.0
 40
4.0
 40
4.0
 10
115.9441179621435
 20
-141.5008698003724
 30
0.0
 10
115.9441179621435
 20
-141.5202807602471
 30
0.0
 10
115.9282382251412
 20
-141.536149731326
 30
0.0
 10
115.9088380311899
 20
-141.536149731326
 30
0.0
 10
115.8890825617667
 20
-141.536149731326
 30
0.0
 10
115.8739133757082
 20
-141.5202807602471
 30
0.0
 10
115.8739133757082
 20
-141.5008698003724
 30
0.0
 10
115.8739133757082
 20
-141.4814696064211
 30
0.0
 10
115.8890825617667
 20
-141.4656006353422
 30
0.0
 10
115.9088380311899
 20
-141.4656006353422
 30
0.0
 10
115.9282382251412
 20
-141.4656006353422
 30
0.0
 10
115.9441179621435
 20
-141.4814696064211
 30
0.0
 10
115.9441179621435
 20
-141.5008698003724
 30
0.0
  0
SPLINE
  5
1E7
330
1F
100
AcDbEntity
  8
_U+30EC_U+30A4_U+30E4_U+30FC 1
 62
   179
420
  2234388
370
    25
100
AcDbSpline
210
0.0
220
0.0
230
1.0
 70
    11
 71
     3
 72
    17
 73
    13
 74
     0
 42
0.0000000001
 43
0.0000000001
 12
1.0
 22
0.0
 32
0.0
 13
1.0
 23
0.0
 33
0.0
 40
0.0
 40
0.0
 40
0.0
 40
0.0
 40
1.0
 40
1.0
 40
1.0
 40
2.0
 40
2.0
 40
2.0
 40
3.0
 40
3.0
 40
3.0
 40
4.0
 40
4.0
 40
4.0
 40
4.0
 10
115.9441179621435
 20
-145.0017650665599
 30
0.0
 10
115.9441179621435
 20
-145.0211760264346
 30
0.0
 10
115.9282382251412
 20
-145.0370449975135
 30
0.0
 10
115.9088380311899
 20
-145.0370449975135
 30
0.0
 10
115.8890825617667
 20
-145.0370449975135
 30
0.0
 10
115.8739133757082
 20
-145.0211760264346
 30
0.0
 10
115.8739133757082
 20
-145.0017650665599
 30
0.0
 10
115.8739133757082
 20
-144.9816650875881
 30
0.0
 10
115.8890825617667
 20
-144.9664959015296
 30
0.0
 10
115.9088380311899
 20
-144.9664959015296
 30
0.0
 10
115.9282382251412
 20
-144.9664959015296
 30
0.0
 10
115.9441179621435
 20
-144.9816650875881
 30
0.0
 10
115.9441179621435
 20
-145.0017650665599
 30
0.0
  0
SPLINE
  5
1E8
330
1F
100
AcDbEntity
  8
_U+30EC_U+30A4_U+30E4_U+30FC 1
 62
   179
420
  2234388
370
     9
100
AcDbSpline
210
0.0
220
0.0
230
1.0
 70
    11
 71
     3
 72
    17
 73
    13
 74
     0
 42
0.0000000001
 43
0.0000000001
 12
1.0
 22
0.0
 32
0.0
 13
1.0
 23
0.0
 33
0.0
 40
0.0
 40
0.0
 40
0.0
 40
0.0
 40
1.0
 40
1.0
 40
1.0
 40
2.0
 40
2.0
 40
2.0
 40
3.0
 40
3.0
 40
3.0
 40
4.0
 40
4.0
 40
4.0
 40
4.0
 10
119.2383290310628
 20
-145.0017650665599
 30
0.0
 10
119.2383290310628
 20
-145.0211760264346
 30
0.0
 10
119.2224492940605
 20
-145.0370449975135
 30
0.0
 10
119.2030491001092
 20
-145.0370449975135
 30
0.0
 10
119.1839934157064
 20
-145.0370449975135
 30
0.0
 10
119.1681244446275
 20
-145.0211760264346
 30
0.0
 10
119.1681244446275
 20
-145.0017650665599
 30
0.0
 10
119.1681244446275
 20
-144.9816650875881
 30
0.0
 10
119.1839934157064
 20
-144.9664959015296
 30
0.0
 10
119.2030491001092
 20
-144.9664959015296
 30
0.0
 10
119.2224492940605
 20
-144.9664959015296
 30
0.0
 10
119.2383290310628
 20
-144.9816650875881
 30
0.0
 10
119.2383290310628
 20
-145.0017650665599
 30
0.0
  0
POLYLINE
  5
1E9
330
1F
100
AcDbEntity
  8
_U+30EC_U+30A4_U+30E4_U+30FC 1
 62
   179
420
  2234388
370
     9
100
AcDb2dPolyline
 66
     1
 10
0.0
 20
0.0
 30
0.0
  0
VERTEX
  5
1EA
330
1E9
100
AcDbEntity
  8
_U+30EC_U+30A4_U+30E4_U+30FC 1
 62
   179
420
  2234388
370
     9
100
AcDbVertex
100
AcDb2dVertex
 10
90.8197471391603
 20
-158.0021558578519
 30
0.0
  0
VERTEX
  5
1EB
330
1E9
100
AcDbEntity
  8
_U+30EC_U+30A4_U+30E4_U+30FC 1
 62
   179
420
  2234388
370
     9
100
AcDbVertex
100
AcDb2dVertex
 10
90.8197471391603
 20
-163.2592531431858
 30
0.0
  0
SEQEND
  5
1EC
330
1E9
100
AcDbEntity
  8
_U+30EC_U+30A4_U+30E4_U+30FC 1
 62
   179
420
  2234388
370
     9
  0
POLYLINE
  5
1ED
330
1F
100
AcDbEntity
  8
_U+30EC_U+30A4_U+30E4_U+30FC 1
 62
   179
420
  2234388
370
     9
100
AcDb2dPolyline
 66
     1
 10
0.0
 20
0.0
 30
0.0
  0
VERTEX
  5
1EE
330
1ED
100
AcDbEntity
  8
_U+30EC_U+30A4_U+30E4_U+30FC 1
 62
   179
420
  2234388
370
     9
100
AcDbVertex
100
AcDb2dVertex
 10
90.8197471391603
 20
-155.502405339678
 30
0.0
  0
VERTEX
  5
1EF
330
1ED
100
AcDbEntity
  8
_U+30EC_U+30A4_U+30E4_U+30FC 1
 62
   179
420
  2234388
370
     9
100
AcDbVertex
100
AcDb2dVertex
 10
90.8197471391603
 20
-158.0021989215455
 30
0.0
  0
SEQEND
  5
1F0
330
1ED
100
AcDbEntity
  8
_U+30EC_U+30A4_U+30E4_U+30FC 1
 62
   179
420
  2234388
370
     9
  0
POLYLINE
  5
1F1
330
1F
100
AcDbEntity
  8
_U+30EC_U+30A4_U+30E4_U+30FC 1
 62
   179
420
  2234388
370
     9
100
AcDb2dPolyline
 66
     1
 10
0.0
 20
0.0
 30
0.0
  0
VERTEX
  5
1F2
330
1F1
100
AcDbEntity
  8
_U+30EC_U+30A4_U+30E4_U+30FC 1
 62
   179
420
  2234388
370
     9
100
AcDbVertex
100
AcDb2dVertex
 10
92.27978937173258
 20
-155.502405339678
 30
0.0
  0
VERTEX
  5
1F3
330
1F1
100
AcDbEntity
  8
_U+30EC_U+30A4_U+30E4_U+30FC 1
 62
   179
420
  2234388
370
     9
100
AcDbVertex
100
AcDb2dVertex
 10
89.81986200418349
 20
-155.502405339678
 30
0.0
  0
SEQEND
  5
1F4
330
1F1
100
AcDbEntity
  8
_U+30EC_U+30A4_U+30E4_U+30FC 1
 62
   179
420
  2234388
370
     9
  0
POLYLINE
  5
1F5
330
1F
100
AcDbEntity
  8
_U+30EC_U+30A4_U+30E4_U+30FC 1
 62
   179
420
  2234388
370
     9
100
AcDb2dPolyline
 66
     1
 10
0.0
 20
0.0
 30
0.0
  0
VERTEX
  5
1F6
330
1F5
100
AcDbEntity
  8
_U+30EC_U+30A4_U+30E4_U+30FC 1
 62
   179
420
  2234388
370
     9
100
AcDbVertex
100
AcDb2dVertex
 10
92.27978937173258
 20
-158.0021558578519
 30
0.0
  0
VERTEX
  5
1F7
330
1F5
100
AcDbEntity
  8
_U+30EC_U+30A4_U+30E4_U+30FC 1
 62
   179
420
  2234388
370
     9
100
AcDbVertex
100
AcDb2dVertex
 10
89.81986200418349
 20
-158.0021558578519
 30
0.0
  0
SEQEND
  5
1F8
330
1F5
100
AcDbEntity
  8
_U+30EC_U+30A4_U+30E4_U+30FC 1
 62
   179
420
  2234388
370
     9
  0
INSERT
  5
1FA
330
1F
100
AcDbEntity
  8
_U+30EC_U+30A4_U+30E4_U+30FC 1
100
AcDbBlockReference
  2
block 10
 10
0.0
 20
0.0
 30
0.0
  0
SPLINE
  5
209
330
1F
100
AcDbEntity
  8
_U+30EC_U+30A4_U+30E4_U+30FC 1
 62
   179
420
  2234388
370
    25
100
AcDbSpline
210
0.0
220
0.0
230
1.0
 70
    11
 71
     3
 72
    17
 73
    13
 74
     0
 42
0.0000000001
 43
0.0000000001
 12
1.0
 22
0.0
 32
0.0
 13
1.0
 23
0.0
 33
0.0
 40
0.0
 40
0.0
 40
0.0
 40
0.0
 40
1.0
 40
1.0
 40
1.0
 40
2.0
 40
2.0
 40
2.0
 40
3.0
 40
3.0
 40
3.0
 40
4.0
 40
4.0
 40
4.0
 40
4.0
 10
93.44419934797685
 20
-155.502405339678
 30
0.0
 10
93.44419934797685
 20
-155.5218162995527
 30
0.0
 10
93.42831961097453
 20
-155.5376852706316
 30
0.0
 10
93.40891941702321
 20
-155.5376852706316
 30
0.0
 10
93.38916394759998
 20
-155.5376852706316
 30
0.0
 10
93.37328421059766
 20
-155.5218162995527
 30
0.0
 10
93.37328421059766
 20
-155.502405339678
 30
0.0
 10
93.37328421059766
 20
-155.4823053607062
 30
0.0
 10
93.38916394759998
 20
-155.4671361746478
 30
0.0
 10
93.40891941702321
 20
-155.4671361746478
 30
0.0
 10
93.42831961097453
 20
-155.4671361746478
 30
0.0
 10
93.44419934797685
 20
-155.4823053607062
 30
0.0
 10
93.44419934797685
 20
-155.502405339678
 30
0.0
  0
SPLINE
  5
20A
330
1F
100
AcDbEntity
  8
_U+30EC_U+30A4_U+30E4_U+30FC 1
 62
   179
420
  2234388
370
    25
100
AcDbSpline
210
0.0
220
0.0
230
1.0
 70
    11
 71
     3
 72
    17
 73
    13
 74
     0
 42
0.0000000001
 43
0.0000000001
 12
1.0
 22
0.0
 32
0.0
 13
1.0
 23
0.0
 33
0.0
 40
0.0
 40
0.0
 40
0.0
 40
0.0
 40
1.0
 40
1.0
 40
1.0
 40
2.0
 40
2.0
 40
2.0
 40
3.0
 40
3.0
 40
3.0
 40
4.0
 40
4.0
 40
4.0
 40
4.0
 10
93.44419934797685
 20
-158.0021558578519
 30
0.0
 10
93.44419934797685
 20
-158.0215668177266
 30
0.0
 10
93.42831961097453
 20
-158.0374357888055
 30
0.0
 10
93.40891941702321
 20
-158.0374357888055
 30
0.0
 10
93.38916394759998
 20
-158.0374357888055
 30
0.0
 10
93.37328421059766
 20
-158.0215668177266
 30
0.0
 10
93.37328421059766
 20
-158.0021558578519
 30
0.0
 10
93.37328421059766
 20
-157.9827556639006
 30
0.0
 10
93.38916394759998
 20
-157.9668866928216
 30
0.0
 10
93.40891941702321
 20
-157.9668866928216
 30
0.0
 10
93.42831961097453
 20
-157.9668866928216
 30
0.0
 10
93.44419934797685
 20
-157.9827556639006
 30
0.0
 10
93.44419934797685
 20
-158.0021558578519
 30
0.0
  0
SPLINE
  5
20B
330
1F
100
AcDbEntity
  8
_U+30EC_U+30A4_U+30E4_U+30FC 1
 62
   179
420
  2234388
370
     9
100
AcDbSpline
210
0.0
220
0.0
230
1.0
 70
    11
 71
     3
 72
    17
 73
    13
 74
     0
 42
0.0000000001
 43
0.0000000001
 12
1.0
 22
0.0
 32
0.0
 13
1.0
 23
0.0
 33
0.0
 40
0.0
 40
0.0
 40
0.0
 40
0.0
 40
1.0
 40
1.0
 40
1.0
 40
2.0
 40
2.0
 40
2.0
 40
3.0
 40
3.0
 40
3.0
 40
4.0
 40
4.0
 40
4.0
 40
4.0
 10
90.85488711310985
 20
-158.0021558578519
 30
0.0
 10
90.85488711310985
 20
-158.0215668177266
 30
0.0
 10
90.83970716112796
 20
-158.0374357888055
 30
0.0
 10
90.81960718215622
 20
-158.0374357888055
 30
0.0
 10
90.80055149775343
 20
-158.0374357888055
 30
0.0
 10
90.78468252667481
 20
-158.0215668177266
 30
0.0
 10
90.78468252667481
 20
-158.0021558578519
 30
0.0
 10
90.78468252667481
 20
-157.9827556639006
 30
0.0
 10
90.80055149775343
 20
-157.9668866928216
 30
0.0
 10
90.81960718215622
 20
-157.9668866928216
 30
0.0
 10
90.83970716112796
 20
-157.9668866928216
 30
0.0
 10
90.85488711310985
 20
-157.9827556639006
 30
0.0
 10
90.85488711310985
 20
-158.0021558578519
 30
0.0
  0
POLYLINE
  5
20C
330
1F
100
AcDbEntity
  8
_U+30EC_U+30A4_U+30E4_U+30FC 1
 62
   179
420
  2234388
370
     9
100
AcDb2dPolyline
 66
     1
 10
0.0
 20
0.0
 30
0.0
  0
VERTEX
  5
20D
330
20C
100
AcDbEntity
  8
_U+30EC_U+30A4_U+30E4_U+30FC 1
 62
   179
420
  2234388
370
     9
100
AcDbVertex
100
AcDb2dVertex
 10
90.8197471391603
 20
-141.0006311699907
 30
0.0
  0
VERTEX
  5
20E
330
20C
100
AcDbEntity
  8
_U+30EC_U+30A4_U+30E4_U+30FC 1
 62
   179
420
  2234388
370
     9
100
AcDbVertex
100
AcDb2dVertex
 10
90.8197471391603
 20
-135.7428340996367
 30
0.0
  0
SEQEND
  5
20F
330
20C
100
AcDbEntity
  8
_U+30EC_U+30A4_U+30E4_U+30FC 1
 62
   179
420
  2234388
370
     9
  0
POLYLINE
  5
210
330
1F
100
AcDbEntity
  8
_U+30EC_U+30A4_U+30E4_U+30FC 1
 62
   179
420
  2234388
370
     9
100
AcDb2dPolyline
 66
     1
 10
0.0
 20
0.0
 30
0.0
  0
VERTEX
  5
211
330
210
100
AcDbEntity
  8
_U+30EC_U+30A4_U+30E4_U+30FC 1
 62
   179
420
  2234388
370
     9
100
AcDbVertex
100
AcDb2dVertex
 10
90.8197471391603
 20
-142.5006042124217
 30
0.0
  0
VERTEX
  5
212
330
210
100
AcDbEntity
  8
_U+30EC_U+30A4_U+30E4_U+30FC 1
 62
   179
420
  2234388
370
     9
100
AcDbVertex
100
AcDb2dVertex
 10
90.8197471391603
 20
-141.0005988722206
 30
0.0
  0
SEQEND
  5
213
330
210
100
AcDbEntity
  8
_U+30EC_U+30A4_U+30E4_U+30FC 1
 62
   179
420
  2234388
370
     9
  0
POLYLINE
  5
214
330
1F
100
AcDbEntity
  8
_U+30EC_U+30A4_U+30E4_U+30FC 1
 62
   179
420
  2234388
370
     9
100
AcDb2dPolyline
 66
     1
 10
0.0
 20
0.0
 30
0.0
  0
VERTEX
  5
215
330
214
100
AcDbEntity
  8
_U+30EC_U+30A4_U+30E4_U+30FC 1
 62
   179
420
  2234388
370
     9
100
AcDbVertex
100
AcDb2dVertex
 10
98.36862960051667
 20
-141.0006311699907
 30
0.0
  0
VERTEX
  5
216
330
214
100
AcDbEntity
  8
_U+30EC_U+30A4_U+30E4_U+30FC 1
 62
   179
420
  2234388
370
     9
100
AcDbVertex
100
AcDb2dVertex
 10
89.82010962042149
 20
-141.0006311699907
 30
0.0
  0
SEQEND
  5
217
330
214
100
AcDbEntity
  8
_U+30EC_U+30A4_U+30E4_U+30FC 1
 62
   179
420
  2234388
370
     9
  0
INSERT
  5
219
330
1F
100
AcDbEntity
  8
_U+30EC_U+30A4_U+30E4_U+30FC 1
100
AcDbBlockReference
  2
block 11
 10
0.0
 20
0.0
 30
0.0
  0
SPLINE
  5
228
330
1F
100
AcDbEntity
  8
_U+30EC_U+30A4_U+30E4_U+30FC 1
 62
   179
420
  2234388
370
    25
100
AcDbSpline
210
0.0
220
0.0
230
1.0
 70
    11
 71
     3
 72
    17
 73
    13
 74
     0
 42
0.0000000001
 43
0.0000000001
 12
1.0
 22
0.0
 32
0.0
 13
1.0
 23
0.0
 33
0.0
 40
0.0
 40
0.0
 40
0.0
 40
0.0
 40
1.0
 40
1.0
 40
1.0
 40
2.0
 40
2.0
 40
2.0
 40
3.0
 40
3.0
 40
3.0
 40
4.0
 40
4.0
 40
4.0
 40
4.0
 10
101.943960461032
 20
-142.5006042124217
 30
0.0
 10
101.943960461032
 20
-142.5207149573172
 30
0.0
 10
101.9280807240297
 20
-142.5365946943192
 30
0.0
 10
101.9086805300784
 20
-142.5365946943192
 30
0.0
 10
101.8896248456756
 20
-142.5365946943192
 30
0.0
 10
101.873755874597
 20
-142.5207149573172
 30
0.0
 10
101.873755874597
 20
-142.5006042124217
 30
0.0
 10
101.873755874597
 20
-142.4812040184704
 30
0.0
 10
101.8896248456756
 20
-142.4653350473918
 30
0.0
 10
101.9086805300784
 20
-142.4653350473918
 30
0.0
 10
101.9280807240297
 20
-142.4653350473918
 30
0.0
 10
101.943960461032
 20
-142.4812040184704
 30
0.0
 10
101.943960461032
 20
-142.5006042124217
 30
0.0
  0
SPLINE
  5
229
330
1F
100
AcDbEntity
  8
_U+30EC_U+30A4_U+30E4_U+30FC 1
 62
   179
420
  2234388
370
    25
100
AcDbSpline
210
0.0
220
0.0
230
1.0
 70
    11
 71
     3
 72
    17
 73
    13
 74
     0
 42
0.0000000001
 43
0.0000000001
 12
1.0
 22
0.0
 32
0.0
 13
1.0
 23
0.0
 33
0.0
 40
0.0
 40
0.0
 40
0.0
 40
0.0
 40
1.0
 40
1.0
 40
1.0
 40
2.0
 40
2.0
 40
2.0
 40
3.0
 40
3.0
 40
3.0
 40
4.0
 40
4.0
 40
4.0
 40
4.0
 10
100.9441829852895
 20
-141.0006311699907
 30
0.0
 10
100.9441829852895
 20
-141.0207419148859
 30
0.0
 10
100.9283032482868
 20
-141.0366216518882
 30
0.0
 10
100.9089030543355
 20
-141.0366216518882
 30
0.0
 10
100.8891475849126
 20
-141.0366216518882
 30
0.0
 10
100.8732678479099
 20
-141.0207419148859
 30
0.0
 10
100.8732678479099
 20
-141.0006311699907
 30
0.0
 10
100.8732678479099
 20
-140.9812309760394
 30
0.0
 10
100.8891475849126
 20
-140.9653620049605
 30
0.0
 10
100.9089030543355
 20
-140.9653620049605
 30
0.0
 10
100.9283032482868
 20
-140.9653620049605
 30
0.0
 10
100.9441829852895
 20
-140.9812309760394
 30
0.0
 10
100.9441829852895
 20
-141.0006311699907
 30
0.0
  0
SPLINE
  5
22A
330
1F
100
AcDbEntity
  8
_U+30EC_U+30A4_U+30E4_U+30FC 1
 62
   179
420
  2234388
370
     9
100
AcDbSpline
210
0.0
220
0.0
230
1.0
 70
    11
 71
     3
 72
    17
 73
    13
 74
     0
 42
0.0000000001
 43
0.0000000001
 12
1.0
 22
0.0
 32
0.0
 13
1.0
 23
0.0
 33
0.0
 40
0.0
 40
0.0
 40
0.0
 40
0.0
 40
1.0
 40
1.0
 40
1.0
 40
2.0
 40
2.0
 40
2.0
 40
3.0
 40
3.0
 40
3.0
 40
4.0
 40
4.0
 40
4.0
 40
4.0
 10
90.85488711310985
 20
-141.0006311699907
 30
0.0
 10
90.85488711310985
 20
-141.0207419148859
 30
0.0
 10
90.83970716112796
 20
-141.0366216518882
 30
0.0
 10
90.81960718215622
 20
-141.0366216518882
 30
0.0
 10
90.80055149775343
 20
-141.0366216518882
 30
0.0
 10
90.78468252667481
 20
-141.0207419148859
 30
0.0
 10
90.78468252667481
 20
-141.0006311699907
 30
0.0
 10
90.78468252667481
 20
-140.9812309760394
 30
0.0
 10
90.80055149775343
 20
-140.9653620049605
 30
0.0
 10
90.81960718215622
 20
-140.9653620049605
 30
0.0
 10
90.83970716112796
 20
-140.9653620049605
 30
0.0
 10
90.85488711310985
 20
-140.9812309760394
 30
0.0
 10
90.85488711310985
 20
-141.0006311699907
 30
0.0
  0
POLYLINE
  5
22B
330
1F
100
AcDbEntity
  8
_U+30EC_U+30A4_U+30E4_U+30FC 1
 62
   179
420
  2234388
370
     9
100
AcDb2dPolyline
 66
     1
 10
0.0
 20
0.0
 30
0.0
  0
VERTEX
  5
22C
330
22B
100
AcDbEntity
  8
_U+30EC_U+30A4_U+30E4_U+30FC 1
 62
   179
420
  2234388
370
     9
100
AcDbVertex
100
AcDb2dVertex
 10
90.8197471391603
 20
-155.502405339678
 30
0.0
  0
VERTEX
  5
22D
330
22B
100
AcDbEntity
  8
_U+30EC_U+30A4_U+30E4_U+30FC 1
 62
   179
420
  2234388
370
     9
100
AcDbVertex
100
AcDb2dVertex
 10
90.8197471391603
 20
-142.5007872331194
 30
0.0
  0
SEQEND
  5
22E
330
22B
100
AcDbEntity
  8
_U+30EC_U+30A4_U+30E4_U+30FC 1
 62
   179
420
  2234388
370
     9
  0
POLYLINE
  5
22F
330
1F
100
AcDbEntity
  8
_U+30EC_U+30A4_U+30E4_U+30FC 1
 62
   179
420
  2234388
370
     9
100
AcDb2dPolyline
 66
     1
 10
0.0
 20
0.0
 30
0.0
  0
VERTEX
  5
230
330
22F
100
AcDbEntity
  8
_U+30EC_U+30A4_U+30E4_U+30FC 1
 62
   179
420
  2234388
370
     9
100
AcDbVertex
100
AcDb2dVertex
 10
92.27978937173258
 20
-155.502405339678
 30
0.0
  0
VERTEX
  5
231
330
22F
100
AcDbEntity
  8
_U+30EC_U+30A4_U+30E4_U+30FC 1
 62
   179
420
  2234388
370
     9
100
AcDbVertex
100
AcDb2dVertex
 10
89.81986200418349
 20
-155.502405339678
 30
0.0
  0
SEQEND
  5
232
330
22F
100
AcDbEntity
  8
_U+30EC_U+30A4_U+30E4_U+30FC 1
 62
   179
420
  2234388
370
     9
  0
POLYLINE
  5
233
330
1F
100
AcDbEntity
  8
_U+30EC_U+30A4_U+30E4_U+30FC 1
 62
   179
420
  2234388
370
     9
100
AcDb2dPolyline
 66
     1
 10
0.0
 20
0.0
 30
0.0
  0
VERTEX
  5
234
330
233
100
AcDbEntity
  8
_U+30EC_U+30A4_U+30E4_U+30FC 1
 62
   179
420
  2234388
370
     9
100
AcDbVertex
100
AcDb2dVertex
 10
99.36910686127969
 20
-142.5006042124217
 30
0.0
  0
VERTEX
  5
235
330
233
100
AcDbEntity
  8
_U+30EC_U+30A4_U+30E4_U+30FC 1
 62
   179
420
  2234388
370
     9
100
AcDbVertex
100
AcDb2dVertex
 10
89.82010962042149
 20
-142.5006042124217
 30
0.0
  0
SEQEND
  5
236
330
233
100
AcDbEntity
  8
_U+30EC_U+30A4_U+30E4_U+30FC 1
 62
   179
420
  2234388
370
     9
  0
INSERT
  5
238
330
1F
100
AcDbEntity
  8
_U+30EC_U+30A4_U+30E4_U+30FC 1
100
AcDbBlockReference
  2
block 12
 10
0.0
 20
0.0
 30
0.0
  0
SPLINE
  5
23F
330
1F
100
AcDbEntity
  8
_U+30EC_U+30A4_U+30E4_U+30FC 1
 62
   179
420
  2234388
370
    25
100
AcDbSpline
210
0.0
220
0.0
230
1.0
 70
    11
 71
     3
 72
    17
 73
    13
 74
     0
 42
0.0000000001
 43
0.0000000001
 12
1.0
 22
0.0
 32
0.0
 13
1.0
 23
0.0
 33
0.0
 40
0.0
 40
0.0
 40
0.0
 40
0.0
 40
1.0
 40
1.0
 40
1.0
 40
2.0
 40
2.0
 40
2.0
 40
3.0
 40
3.0
 40
3.0
 40
4.0
 40
4.0
 40
4.0
 40
4.0
 10
93.44419934797685
 20
-155.502405339678
 30
0.0
 10
93.44419934797685
 20
-155.5218162995527
 30
0.0
 10
93.42831961097453
 20
-155.5376852706316
 30
0.0
 10
93.40891941702321
 20
-155.5376852706316
 30
0.0
 10
93.38916394759998
 20
-155.5376852706316
 30
0.0
 10
93.37328421059766
 20
-155.5218162995527
 30
0.0
 10
93.37328421059766
 20
-155.502405339678
 30
0.0
 10
93.37328421059766
 20
-155.4823053607062
 30
0.0
 10
93.38916394759998
 20
-155.4671361746478
 30
0.0
 10
93.40891941702321
 20
-155.4671361746478
 30
0.0
 10
93.42831961097453
 20
-155.4671361746478
 30
0.0
 10
93.44419934797685
 20
-155.4823053607062
 30
0.0
 10
93.44419934797685
 20
-155.502405339678
 30
0.0
  0
SPLINE
  5
240
330
1F
100
AcDbEntity
  8
_U+30EC_U+30A4_U+30E4_U+30FC 1
 62
   179
420
  2234388
370
    25
100
AcDbSpline
210
0.0
220
0.0
230
1.0
 70
    11
 71
     3
 72
    17
 73
    13
 74
     0
 42
0.0000000001
 43
0.0000000001
 12
1.0
 22
0.0
 32
0.0
 13
1.0
 23
0.0
 33
0.0
 40
0.0
 40
0.0
 40
0.0
 40
0.0
 40
1.0
 40
1.0
 40
1.0
 40
2.0
 40
2.0
 40
2.0
 40
3.0
 40
3.0
 40
3.0
 40
4.0
 40
4.0
 40
4.0
 40
4.0
 10
101.943960461032
 20
-142.5006042124217
 30
0.0
 10
101.943960461032
 20
-142.5207149573172
 30
0.0
 10
101.9280807240297
 20
-142.5365946943192
 30
0.0
 10
101.9086805300784
 20
-142.5365946943192
 30
0.0
 10
101.8896248456756
 20
-142.5365946943192
 30
0.0
 10
101.873755874597
 20
-142.5207149573172
 30
0.0
 10
101.873755874597
 20
-142.5006042124217
 30
0.0
 10
101.873755874597
 20
-142.4812040184704
 30
0.0
 10
101.8896248456756
 20
-142.4653350473918
 30
0.0
 10
101.9086805300784
 20
-142.4653350473918
 30
0.0
 10
101.9280807240297
 20
-142.4653350473918
 30
0.0
 10
101.943960461032
 20
-142.4812040184704
 30
0.0
 10
101.943960461032
 20
-142.5006042124217
 30
0.0
  0
SPLINE
  5
241
330
1F
100
AcDbEntity
  8
_U+30EC_U+30A4_U+30E4_U+30FC 1
 62
   179
420
  2234388
370
     9
100
AcDbSpline
210
0.0
220
0.0
230
1.0
 70
    11
 71
     3
 72
    17
 73
    13
 74
     0
 42
0.0000000001
 43
0.0000000001
 12
1.0
 22
0.0
 32
0.0
 13
1.0
 23
0.0
 33
0.0
 40
0.0
 40
0.0
 40
0.0
 40
0.0
 40
1.0
 40
1.0
 40
1.0
 40
2.0
 40
2.0
 40
2.0
 40
3.0
 40
3.0
 40
3.0
 40
4.0
 40
4.0
 40
4.0
 40
4.0
 10
90.85488711310985
 20
-142.5006042124217
 30
0.0
 10
90.85488711310985
 20
-142.5207149573172
 30
0.0
 10
90.83970716112796
 20
-142.5365946943192
 30
0.0
 10
90.81960718215622
 20
-142.5365946943192
 30
0.0
 10
90.80055149775343
 20
-142.5365946943192
 30
0.0
 10
90.78468252667481
 20
-142.5207149573172
 30
0.0
 10
90.78468252667481
 20
-142.5006042124217
 30
0.0
 10
90.78468252667481
 20
-142.4812040184704
 30
0.0
 10
90.80055149775343
 20
-142.4653350473918
 30
0.0
 10
90.81960718215622
 20
-142.4653350473918
 30
0.0
 10
90.83970716112796
 20
-142.4653350473918
 30
0.0
 10
90.85488711310985
 20
-142.4812040184704
 30
0.0
 10
90.85488711310985
 20
-142.5006042124217
 30
0.0
  0
POLYLINE
  5
242
330
1F
100
AcDbEntity
  8
_U+30EC_U+30A4_U+30E4_U+30FC 1
 62
   179
420
  2234388
370
     9
100
AcDb2dPolyline
 66
     1
 10
0.0
 20
0.0
 30
0.0
  0
VERTEX
  5
243
330
242
100
AcDbEntity
  8
_U+30EC_U+30A4_U+30E4_U+30FC 1
 62
   179
420
  2234388
370
     9
100
AcDbVertex
100
AcDb2dVertex
 10
119.2031890571133
 20
-145.0017650665599
 30
0.0
  0
VERTEX
  5
244
330
242
100
AcDbEntity
  8
_U+30EC_U+30A4_U+30E4_U+30FC 1
 62
   179
420
  2234388
370
     9
100
AcDbVertex
100
AcDb2dVertex
 10
119.2031890571133
 20
-158.0023388785496
 30
0.0
  0
SEQEND
  5
245
330
242
100
AcDbEntity
  8
_U+30EC_U+30A4_U+30E4_U+30FC 1
 62
   179
420
  2234388
370
     9
  0
POLYLINE
  5
246
330
1F
100
AcDbEntity
  8
_U+30EC_U+30A4_U+30E4_U+30FC 1
 62
   179
420
  2234388
370
     9
100
AcDb2dPolyline
 66
     1
 10
0.0
 20
0.0
 30
0.0
  0
VERTEX
  5
247
330
246
100
AcDbEntity
  8
_U+30EC_U+30A4_U+30E4_U+30FC 1
 62
   179
420
  2234388
370
     9
100
AcDbVertex
100
AcDb2dVertex
 10
112.7429460031728
 20
-158.0021558578519
 30
0.0
  0
VERTEX
  5
248
330
246
100
AcDbEntity
  8
_U+30EC_U+30A4_U+30E4_U+30FC 1
 62
   179
420
  2234388
370
     9
100
AcDbVertex
100
AcDb2dVertex
 10
120.2027835121585
 20
-158.0021558578519
 30
0.0
  0
SEQEND
  5
249
330
246
100
AcDbEntity
  8
_U+30EC_U+30A4_U+30E4_U+30FC 1
 62
   179
420
  2234388
370
     9
  0
INSERT
  5
24B
330
1F
100
AcDbEntity
  8
_U+30EC_U+30A4_U+30E4_U+30FC 1
100
AcDbBlockReference
  2
block 13
 10
0.0
 20
0.0
 30
0.0
  0
SPLINE
  5
252
330
1F
100
AcDbEntity
  8
_U+30EC_U+30A4_U+30E4_U+30FC 1
 62
   179
420
  2234388
370
    25
100
AcDbSpline
210
0.0
220
0.0
230
1.0
 70
    11
 71
     3
 72
    17
 73
    13
 74
     0
 42
0.0000000001
 43
0.0000000001
 12
1.0
 22
0.0
 32
0.0
 13
1.0
 23
0.0
 33
0.0
 40
0.0
 40
0.0
 40
0.0
 40
0.0
 40
1.0
 40
1.0
 40
1.0
 40
2.0
 40
2.0
 40
2.0
 40
3.0
 40
3.0
 40
3.0
 40
4.0
 40
4.0
 40
4.0
 40
4.0
 10
115.9441179621435
 20
-145.0017650665599
 30
0.0
 10
115.9441179621435
 20
-145.0211760264346
 30
0.0
 10
115.9282382251412
 20
-145.0370449975135
 30
0.0
 10
115.9088380311899
 20
-145.0370449975135
 30
0.0
 10
115.8890825617667
 20
-145.0370449975135
 30
0.0
 10
115.8739133757082
 20
-145.0211760264346
 30
0.0
 10
115.8739133757082
 20
-145.0017650665599
 30
0.0
 10
115.8739133757082
 20
-144.9816650875881
 30
0.0
 10
115.8890825617667
 20
-144.9664959015296
 30
0.0
 10
115.9088380311899
 20
-144.9664959015296
 30
0.0
 10
115.9282382251412
 20
-144.9664959015296
 30
0.0
 10
115.9441179621435
 20
-144.9816650875881
 30
0.0
 10
115.9441179621435
 20
-145.0017650665599
 30
0.0
  0
SPLINE
  5
253
330
1F
100
AcDbEntity
  8
_U+30EC_U+30A4_U+30E4_U+30FC 1
 62
   179
420
  2234388
370
    25
100
AcDbSpline
210
0.0
220
0.0
230
1.0
 70
    11
 71
     3
 72
    17
 73
    13
 74
     0
 42
0.0000000001
 43
0.0000000001
 12
1.0
 22
0.0
 32
0.0
 13
1.0
 23
0.0
 33
0.0
 40
0.0
 40
0.0
 40
0.0
 40
0.0
 40
1.0
 40
1.0
 40
1.0
 40
2.0
 40
2.0
 40
2.0
 40
3.0
 40
3.0
 40
3.0
 40
4.0
 40
4.0
 40
4.0
 40
4.0
 10
110.9439171407753
 20
-158.0021558578519
 30
0.0
 10
110.9439171407753
 20
-158.0215668177266
 30
0.0
 10
110.928037403773
 20
-158.0374357888055
 30
0.0
 10
110.9086372098217
 20
-158.0374357888055
 30
0.0
 10
110.8895815254189
 20
-158.0374357888055
 30
0.0
 10
110.87371255434
 20
-158.0215668177266
 30
0.0
 10
110.87371255434
 20
-158.0021558578519
 30
0.0
 10
110.87371255434
 20
-157.9827556639006
 30
0.0
 10
110.8895815254189
 20
-157.9668866928216
 30
0.0
 10
110.9086372098217
 20
-157.9668866928216
 30
0.0
 10
110.928037403773
 20
-157.9668866928216
 30
0.0
 10
110.9439171407753
 20
-157.9827556639006
 30
0.0
 10
110.9439171407753
 20
-158.0021558578519
 30
0.0
  0
SPLINE
  5
254
330
1F
100
AcDbEntity
  8
_U+30EC_U+30A4_U+30E4_U+30FC 1
 62
   179
420
  2234388
370
     9
100
AcDbSpline
210
0.0
220
0.0
230
1.0
 70
    11
 71
     3
 72
    17
 73
    13
 74
     0
 42
0.0000000001
 43
0.0000000001
 12
1.0
 22
0.0
 32
0.0
 13
1.0
 23
0.0
 33
0.0
 40
0.0
 40
0.0
 40
0.0
 40
0.0
 40
1.0
 40
1.0
 40
1.0
 40
2.0
 40
2.0
 40
2.0
 40
3.0
 40
3.0
 40
3.0
 40
4.0
 40
4.0
 40
4.0
 40
4.0
 10
119.2383290310628
 20
-158.0021558578519
 30
0.0
 10
119.2383290310628
 20
-158.0215668177266
 30
0.0
 10
119.2224492940605
 20
-158.0374357888055
 30
0.0
 10
119.2030491001092
 20
-158.0374357888055
 30
0.0
 10
119.1839934157064
 20
-158.0374357888055
 30
0.0
 10
119.1681244446275
 20
-158.0215668177266
 30
0.0
 10
119.1681244446275
 20
-158.0021558578519
 30
0.0
 10
119.1681244446275
 20
-157.9827556639006
 30
0.0
 10
119.1839934157064
 20
-157.9668866928216
 30
0.0
 10
119.2030491001092
 20
-157.9668866928216
 30
0.0
 10
119.2224492940605
 20
-157.9668866928216
 30
0.0
 10
119.2383290310628
 20
-157.9827556639006
 30
0.0
 10
119.2383290310628
 20
-158.0021558578519
 30
0.0
  0
POLYLINE
  5
255
330
1F
100
AcDbEntity
  8
_U+30EC_U+30A4_U+30E4_U+30FC 1
 62
   179
420
  2234388
370
     9
100
AcDb2dPolyline
 66
     1
 10
0.0
 20
0.0
 30
0.0
  0
VERTEX
  5
256
330
255
100
AcDbEntity
  8
_U+30EC_U+30A4_U+30E4_U+30FC 1
 62
   179
420
  2234388
370
     9
100
AcDbVertex
100
AcDb2dVertex
 10
103.9248795991276
 20
-155.5017378524277
 30
0.0
  0
VERTEX
  5
257
330
255
100
AcDbEntity
  8
_U+30EC_U+30A4_U+30E4_U+30FC 1
 62
   179
420
  2234388
370
     9
100
AcDbVertex
100
AcDb2dVertex
 10
101.2204796432065
 20
-155.5017378524277
 30
0.0
  0
VERTEX
  5
258
330
255
100
AcDbEntity
  8
_U+30EC_U+30A4_U+30E4_U+30FC 1
 62
   179
420
  2234388
370
     9
100
AcDbVertex
100
AcDb2dVertex
 10
101.2204796432065
 20
-156.9135595141299
 30
0.0
  0
SEQEND
  5
259
330
255
100
AcDbEntity
  8
_U+30EC_U+30A4_U+30E4_U+30FC 1
 62
   179
420
  2234388
370
     9
  0
POLYLINE
  5
25A
330
1F
100
AcDbEntity
  8
_U+30EC_U+30A4_U+30E4_U+30FC 1
 62
   179
420
  2234388
370
     9
100
AcDb2dPolyline
 66
     1
 10
0.0
 20
0.0
 30
0.0
  0
VERTEX
  5
25B
330
25A
100
AcDbEntity
  8
_U+30EC_U+30A4_U+30E4_U+30FC 1
 62
   179
420
  2234388
370
     9
100
AcDbVertex
100
AcDb2dVertex
 10
96.04664600938135
 20
-152.4445278210468
 30
0.0
  0
VERTEX
  5
25C
330
25A
100
AcDbEntity
  8
_U+30EC_U+30A4_U+30E4_U+30FC 1
 62
   179
420
  2234388
370
     9
100
AcDbVertex
100
AcDb2dVertex
 10
99.69153550092891
 20
-152.4445278210468
 30
0.0
  0
VERTEX
  5
25D
330
25A
100
AcDbEntity
  8
_U+30EC_U+30A4_U+30E4_U+30FC 1
 62
   179
420
  2234388
370
     9
100
AcDbVertex
100
AcDb2dVertex
 10
101.2204796432065
 20
-156.2072611100367
 30
0.0
  0
SEQEND
  5
25E
330
25A
100
AcDbEntity
  8
_U+30EC_U+30A4_U+30E4_U+30FC 1
 62
   179
420
  2234388
370
     9
  0
ENDSEC
  0
SECTION
  2
OBJECTS
  0
DICTIONARY
  5
C
330
0
100
AcDbDictionary
281
     1
  3
ACAD_GROUP
350
D
  3
ACAD_LAYOUT
350
1A
  3
ACAD_MATERIAL
350
3B
  3
ACAD_MLEADERSTYLE
350
260
  3
ACAD_MLINESTYLE
350
17
  3
ACAD_PLOTSETTINGS
350
19
  3
ACAD_PLOTSTYLENAME
350
E
  3
ACAD_TABLESTYLE
350
25F
  3
ACAD_VISUALSTYLE
350
2A
  0
SUN
  5
3F
330
29
100
AcDbSun
 90
        1
290
     0
 63
     7
421
 16777215
 40
1.0
291
     1
 91
  2455826
 92
 54000000
292
     0
 70
     2
 71
   256
280
     1
  0
DICTIONARY
  5
D
102
{ACAD_REACTORS
330
C
102
}
330
C
100
AcDbDictionary
281
     1
  0
DICTIONARY
  5
1A
102
{ACAD_REACTORS
330
C
102
}
330
C
100
AcDbDictionary
281
     1
  3
Layout1
350
1E
  3
Layout2
350
26
  3
Model
350
22
  0
DICTIONARY
  5
3B
102
{ACAD_REACTORS
330
C
102
}
330
C
100
AcDbDictionary
281
     1
  3
ByBlock
350
3D
  3
ByLayer
350
3C
  3
Global
350
3E
  0
DICTIONARY
  5
260
102
{ACAD_REACTORS
330
C
102
}
330
C
100
AcDbDictionary
281
     1
  0
DICTIONARY
  5
17
102
{ACAD_REACTORS
330
C
102
}
330
C
100
AcDbDictionary
281
     1
  3
Standard
350
18
  0
DICTIONARY
  5
19
102
{ACAD_REACTORS
330
C
102
}
330
C
100
AcDbDictionary
281
     1
  0
ACDBDICTIONARYWDFLT
  5
E
102
{ACAD_REACTORS
330
C
102
}
330
C
100
AcDbDictionary
281
     1
  3
Normal
350
F
100
AcDbDictionaryWithDefault
340
F
  0
DICTIONARY
  5
25F
102
{ACAD_REACTORS
330
C
102
}
330
C
100
AcDbDictionary
281
     1
  0
DICTIONARY
  5
2A
102
{ACAD_REACTORS
330
C
102
}
330
C
100
AcDbDictionary
281
     1
  3
2dWireframe
350
2F
  3
3D Hidden
350
31
  3
3dWireframe
350
30
  3
Basic
350
32
  3
Brighten
350
36
  3
ColorChange
350
3A
  3
Conceptual
350
34
  3
Dim
350
35
  3
Facepattern
350
39
  3
Flat
350
2B
  3
FlatWithEdges
350
2C
  3
Gouraud
350
2D
  3
GouraudWithEdges
350
2E
  3
Linepattern
350
38
  3
Realistic
350
33
  3
Thicken
350
37
  0
LAYOUT
  5
1E
102
{ACAD_REACTORS
330
1A
102
}
330
1A
100
AcDbPlotSettings
  1

  2
none_device
  4

  6

 40
0.0
 41
0.0
 42
0.0
 43
0.0
 44
0.0
 45
0.0
 46
0.0
 47
0.0
 48
0.0
 49
0.0
140
0.0
141
0.0
142
1.0
143
1.0
 70
   688
 72
     0
 73
     0
 74
     5
  7

 75
    16
 76
     0
 77
     2
 78
   300
147
1.0
148
0.0
149
0.0
100
AcDbLayout
  1
Layout1
 70
     1
 71
     1
 10
0.0
 20
0.0
 11
12.0
 21
9.0
 12
0.0
 22
0.0
 32
0.0
 14
1.000000000000000E+20
 24
1.000000000000000E+20
 34
1.000000000000000E+20
 15
-1.000000000000000E+20
 25
-1.000000000000000E+20
 35
-1.000000000000000E+20
146
0.0
 13
0.0
 23
0.0
 33
0.0
 16
1.0
 26
0.0
 36
0.0
 17
0.0
 27
1.0
 37
0.0
 76
     0
330
1B
  0
LAYOUT
  5
26
102
{ACAD_REACTORS
330
1A
102
}
330
1A
100
AcDbPlotSettings
  1

  2
none_device
  4

  6

 40
0.0
 41
0.0
 42
0.0
 43
0.0
 44
0.0
 45
0.0
 46
0.0
 47
0.0
 48
0.0
 49
0.0
140
0.0
141
0.0
142
1.0
143
1.0
 70
   688
 72
     0
 73
     0
 74
     5
  7

 75
    16
 76
     0
 77
     2
 78
   300
147
1.0
148
0.0
149
0.0
100
AcDbLayout
  1
Layout2
 70
     1
 71
     2
 10
0.0
 20
0.0
 11
0.0
 21
0.0
 12
0.0
 22
0.0
 32
0.0
 14
0.0
 24
0.0
 34
0.0
 15
0.0
 25
0.0
 35
0.0
146
0.0
 13
0.0
 23
0.0
 33
0.0
 16
1.0
 26
0.0
 36
0.0
 17
0.0
 27
1.0
 37
0.0
 76
     0
330
23
  0
LAYOUT
  5
22
102
{ACAD_REACTORS
330
1A
102
}
330
1A
100
AcDbPlotSettings
  1

  2
none_device
  4

  6

 40
0.0
 41
0.0
 42
0.0
 43
0.0
 44
0.0
 45
0.0
 46
0.0
 47
0.0
 48
0.0
 49
0.0
140
0.0
141
0.0
142
1.0
143
1.0
 70
  1712
 72
     0
 73
     0
 74
     0
  7

 75
     0
 76
     0
 77
     2
 78
   300
147
1.0
148
0.0
149
0.0
100
AcDbLayout
  1
Model
 70
     1
 71
     0
 10
0.0
 20
0.0
 11
12.0
 21
9.0
 12
0.0
 22
0.0
 32
0.0
 14
1.000000000000000E+20
 24
1.000000000000000E+20
 34
1.000000000000000E+20
 15
-1.000000000000000E+20
 25
-1.000000000000000E+20
 35
-1.000000000000000E+20
146
0.0
 13
0.0
 23
0.0
 33
0.0
 16
1.0
 26
0.0
 36
0.0
 17
0.0
 27
1.0
 37
0.0
 76
     0
330
1F
331
29
  0
MATERIAL
  5
3D
102
{ACAD_REACTORS
330
3B
102
}
330
3B
100
AcDbMaterial
  1
ByBlock
 72
     1
 94
      127
  0
MATERIAL
  5
3C
102
{ACAD_REACTORS
330
3B
102
}
330
3B
100
AcDbMaterial
  1
ByLayer
 72
     1
 94
      127
  0
MATERIAL
  5
3E
102
{ACAD_REACTORS
330
3B
102
}
330
3B
100
AcDbMaterial
  1
Global
 72
     1
 94
      127
  0
MLINESTYLE
  5
18
102
{ACAD_REACTORS
330
17
102
}
330
17
100
AcDbMlineStyle
  2
Standard
 70
     0
  3

 62
   256
 51
90.0
 52
90.0
 71
     2
 49
0.5
 62
   256
  6
BYLAYER
 49
-0.5
 62
   256
  6
BYLAYER
  0
ACDBPLACEHOLDER
  5
F
102
{ACAD_REACTORS
330
E
102
}
330
E
  0
VISUALSTYLE
  5
2F
102
{ACAD_REACTORS
330
2A
102
}
330
2A
100
AcDbVisualStyle
  2
2dWireframe
 70
     4
177
     2
291
     0
 71
     0
176
     1
 72
     2
176
     1
 73
     0
176
     1
 90
        0
176
     1
 40
-0.6
176
     1
 41
-30.0
176
     1
 62
     5
 63
     7
421
 16777215
176
     1
 74
     1
176
     1
 91
        4
176
     1
 64
     7
176
     1
 65
   257
176
     1
 75
     1
176
     1
175
     1
176
     1
 42
1.0
176
     1
 92
        0
176
     1
 66
   257
176
     1
 43
1.0
176
     1
 76
     1
176
     1
 77
     6
176
     1
 78
     2
176
     1
 67
     7
176
     1
 79
     5
176
     1
170
     0
176
     1
171
     0
176
     1
290
     0
176
     1
 93
        1
176
     1
 44
0.0
176
     1
173
     0
176
     1
  0
VISUALSTYLE
  5
31
102
{ACAD_REACTORS
330
2A
102
}
330
2A
100
AcDbVisualStyle
  2
3D Hidden
 70
     6
177
     2
291
     0
 71
     1
176
     1
 72
     2
176
     1
 73
     2
176
     1
 90
        0
176
     1
 40
-0.6
176
     1
 41
-30.0
176
     1
 62
     5
 63
     7
421
 16777215
176
     1
 74
     2
176
     1
 91
        2
176
     1
 64
     7
176
     1
 65
   257
176
     1
 75
     2
176
     1
175
     1
176
     1
 42
40.0
176
     1
 92
        0
176
     1
 66
   257
176
     1
 43
1.0
176
     1
 76
     1
176
     1
 77
     6
176
     1
 78
     2
176
     1
 67
     7
176
     1
 79
     3
176
     1
170
     0
176
     1
171
     0
176
     1
290
     0
176
     1
 93
        1
176
     1
 44
0.0
176
     1
173
     0
176
     1
  0
VISUALSTYLE
  5
30
102
{ACAD_REACTORS
330
2A
102
}
330
2A
100
AcDbVisualStyle
  2
3dWireframe
 70
     5
177
     2
291
     0
 71
     0
176
     1
 72
     2
176
     1
 73
     0
176
     1
 90
        0
176
     1
 40
-0.6
176
     1
 41
-30.0
176
     1
 62
     5
 63
     7
421
 16777215
176
     1
 74
     1
176
     1
 91
        4
176
     1
 64
     7
176
     1
 65
   257
176
     1
 75
     1
176
     1
175
     1
176
     1
 42
1.0
176
     1
 92
        0
176
     1
 66
   257
176
     1
 43
1.0
176
     1
 76
     1
176
     1
 77
     6
176
     1
 78
     2
176
     1
 67
     7
176
     1
 79
     5
176
     1
170
     0
176
     1
171
     0
176
     1
290
     0
176
     1
 93
        1
176
     1
 44
0.0
176
     1
173
     0
176
     1
  0
VISUALSTYLE
  5
32
102
{ACAD_REACTORS
330
2A
102
}
330
2A
100
AcDbVisualStyle
  2
Basic
 70
     7
177
     2
291
     1
 71
     1
176
     1
 72
     0
176
     1
 73
     1
176
     1
 90
        0
176
     1
 40
-0.6
176
     1
 41
-30.0
176
     1
 62
     5
 63
     7
421
 16777215
176
     1
 74
     0
176
     1
 91
        4
176
     1
 64
     7
176
     1
 65
   257
176
     1
 75
     1
176
     1
175
     1
176
     1
 42
1.0
176
     1
 92
        8
176
     1
 66
     7
176
     1
 43
1.0
176
     1
 76
     1
176
     1
 77
     6
176
     1
 78
     2
176
     1
 67
     7
176
     1
 79
     5
176
     1
170
     0
176
     1
171
     0
176
     1
290
     0
176
     1
 93
        1
176
     1
 44
0.0
176
     1
173
     0
176
     1
  0
VISUALSTYLE
  5
36
102
{ACAD_REACTORS
330
2A
102
}
330
2A
100
AcDbVisualStyle
  2
Brighten
 70
    12
177
     2
291
     1
 71
     2
176
     1
 72
     2
176
     1
 73
     0
176
     1
 90
        0
176
     1
 40
-0.6
176
     1
 41
-30.0
176
     1
 62
     5
 63
     7
421
 16777215
176
     1
 74
     1
176
     1
 91
        4
176
     1
 64
     7
176
     1
 65
   257
176
     1
 75
     1
176
     1
175
     1
176
     1
 42
1.0
176
     1
 92
        8
176
     1
 66
     7
176
     1
 43
1.0
176
     1
 76
     1
176
     1
 77
     6
176
     1
 78
     2
176
     1
 67
     7
176
     1
 79
     5
176
     1
170
     0
176
     1
171
     0
176
     1
290
     0
176
     1
 93
        1
176
     1
 44
50.0
176
     1
173
     0
176
     1
  0
VISUALSTYLE
  5
3A
102
{ACAD_REACTORS
330
2A
102
}
330
2A
100
AcDbVisualStyle
  2
ColorChange
 70
    16
177
     2
291
     1
 71
     2
176
     1
 72
     2
176
     1
 73
     3
176
     1
 90
        0
176
     1
 40
-0.6
176
     1
 41
-30.0
176
     1
 62
     5
 63
     8
421
  8421504
176
     1
 74
     1
176
     1
 91
        4
176
     1
 64
     7
176
     1
 65
   257
176
     1
 75
     1
176
     1
175
     1
176
     1
 42
1.0
176
     1
 92
        8
176
     1
 66
     8
424
  8421504
176
     1
 43
1.0
176
     1
 76
     1
176
     1
 77
     6
176
     1
 78
     2
176
     1
 67
     7
176
     1
 79
     5
176
     1
170
     0
176
     1
171
     0
176
     1
290
     0
176
     1
 93
        1
176
     1
 44
0.0
176
     1
173
     0
176
     1
  0
VISUALSTYLE
  5
34
102
{ACAD_REACTORS
330
2A
102
}
330
2A
100
AcDbVisualStyle
  2
Conceptual
 70
     9
177
     2
291
     0
 71
     3
176
     1
 72
     2
176
     1
 73
     0
176
     1
 90
        0
176
     1
 40
-0.6
176
     1
 41
-30.0
176
     1
 62
     5
 63
     7
421
 16777215
176
     1
 74
     2
176
     1
 91
        2
176
     1
 64
     7
176
     1
 65
   257
176
     1
 75
     1
176
     1
175
     1
176
     1
 42
40.0
176
     1
 92
        8
176
     1
 66
     7
176
     1
 43
1.0
176
     1
 76
     1
176
     1
 77
     6
176
     1
 78
     2
176
     1
 67
     7
176
     1
 79
     3
176
     1
170
     0
176
     1
171
     0
176
     1
290
     0
176
     1
 93
        1
176
     1
 44
0.0
176
     1
173
     0
176
     1
  0
VISUALSTYLE
  5
35
102
{ACAD_REACTORS
330
2A
102
}
330
2A
100
AcDbVisualStyle
  2
Dim
 70
    11
177
     2
291
     1
 71
     2
176
     1
 72
     2
176
     1
 73
     0
176
     1
 90
        0
176
     1
 40
-0.6
176
     1
 41
-30.0
176
     1
 62
     5
 63
     7
421
 16777215
176
     1
 74
     1
176
     1
 91
        4
176
     1
 64
     7
176
     1
 65
   257
176
     1
 75
     1
176
     1
175
     1
176
     1
 42
1.0
176
     1
 92
        8
176
     1
 66
     7
176
     1
 43
1.0
176
     1
 76
     1
176
     1
 77
     6
176
     1
 78
     2
176
     1
 67
     7
176
     1
 79
     5
176
     1
170
     0
176
     1
171
     0
176
     1
290
     0
176
     1
 93
        1
176
     1
 44
-50.0
176
     1
173
     0
176
     1
  0
VISUALSTYLE
  5
39
102
{ACAD_REACTORS
330
2A
102
}
330
2A
100
AcDbVisualStyle
  2
Facepattern
 70
    15
177
     2
291
     1
 71
     2
176
     1
 72
     2
176
     1
 73
     0
176
     1
 90
        0
176
     1
 40
-0.6
176
     1
 41
-30.0
176
     1
 62
     5
 63
     7
421
 16777215
176
     1
 74
     1
176
     1
 91
        4
176
     1
 64
     7
176
     1
 65
   257
176
     1
 75
     1
176
     1
175
     1
176
     1
 42
1.0
176
     1
 92
        8
176
     1
 66
     7
176
     1
 43
1.0
176
     1
 76
     1
176
     1
 77
     6
176
     1
 78
     2
176
     1
 67
     7
176
     1
 79
     5
176
     1
170
     0
176
     1
171
     0
176
     1
290
     0
176
     1
 93
        1
176
     1
 44
0.0
176
     1
173
     0
176
     1
  0
VISUALSTYLE
  5
2B
102
{ACAD_REACTORS
330
2A
102
}
330
2A
100
AcDbVisualStyle
  2
Flat
 70
     0
177
     2
291
     1
 71
     2
176
     1
 72
     1
176
     1
 73
     1
176
     1
 90
        2
176
     1
 40
-0.6
176
     1
 41
30.0
176
     1
 62
     5
 63
     7
421
 16777215
176
     1
 74
     0
176
     1
 91
        4
176
     1
 64
     7
176
     1
 65
   257
176
     1
 75
     1
176
     1
175
     1
176
     1
 42
1.0
176
     1
 92
        8
176
     1
 66
     7
176
     1
 43
1.0
176
     1
 76
     1
176
     1
 77
     6
176
     1
 78
     2
176
     1
 67
     7
176
     1
 79
     5
176
     1
170
     0
176
     1
171
     0
176
     1
290
     0
176
     1
 93
       13
176
     1
 44
0.0
176
     1
173
     0
176
     1
  0
VISUALSTYLE
  5
2C
102
{ACAD_REACTORS
330
2A
102
}
330
2A
100
AcDbVisualStyle
  2
FlatWithEdges
 70
     1
177
     2
291
     1
 71
     2
176
     1
 72
     1
176
     1
 73
     1
176
     1
 90
        2
176
     1
 40
-0.6
176
     1
 41
30.0
176
     1
 62
     5
 63
     7
421
 16777215
176
     1
 74
     1
176
     1
 91
        4
176
     1
 64
     7
176
     1
 65
   257
176
     1
 75
     1
176
     1
175
     1
176
     1
 42
1.0
176
     1
 92
        0
176
     1
 66
   257
176
     1
 43
1.0
176
     1
 76
     1
176
     1
 77
     6
176
     1
 78
     2
176
     1
 67
     7
176
     1
 79
     5
176
     1
170
     0
176
     1
171
     0
176
     1
290
     0
176
     1
 93
       13
176
     1
 44
0.0
176
     1
173
     0
176
     1
  0
VISUALSTYLE
  5
2D
102
{ACAD_REACTORS
330
2A
102
}
330
2A
100
AcDbVisualStyle
  2
Gouraud
 70
     2
177
     2
291
     1
 71
     2
176
     1
 72
     2
176
     1
 73
     1
176
     1
 90
        2
176
     1
 40
-0.6
176
     1
 41
30.0
176
     1
 62
     5
 63
     7
421
 16777215
176
     1
 74
     0
176
     1
 91
        4
176
     1
 64
     7
176
     1
 65
   257
176
     1
 75
     1
176
     1
175
     1
176
     1
 42
1.0
176
     1
 92
        0
176
     1
 66
     7
176
     1
 43
1.0
176
     1
 76
     1
176
     1
 77
     6
176
     1
 78
     2
176
     1
 67
     7
176
     1
 79
     5
176
     1
170
     0
176
     1
171
     0
176
     1
290
     0
176
     1
 93
       13
176
     1
 44
0.0
176
     1
173
     0
176
     1
  0
VISUALSTYLE
  5
2E
102
{ACAD_REACTORS
330
2A
102
}
330
2A
100
AcDbVisualStyle
  2
GouraudWithEdges
 70
     3
177
     2
291
     1
 71
     2
176
     1
 72
     2
176
     1
 73
     1
176
     1
 90
        2
176
     1
 40
-0.6
176
     1
 41
30.0
176
     1
 62
     5
 63
     7
421
 16777215
176
     1
 74
     1
176
     1
 91
        4
176
     1
 64
     7
176
     1
 65
   257
176
     1
 75
     1
176
     1
175
     1
176
     1
 42
1.0
176
     1
 92
        0
176
     1
 66
   257
176
     1
 43
1.0
176
     1
 76
     1
176
     1
 77
     6
176
     1
 78
     2
176
     1
 67
     7
176
     1
 79
     5
176
     1
170
     0
176
     1
171
     0
176
     1
290
     0
176
     1
 93
       13
176
     1
 44
0.0
176
     1
173
     0
176
     1
  0
VISUALSTYLE
  5
38
102
{ACAD_REACTORS
330
2A
102
}
330
2A
100
AcDbVisualStyle
  2
Linepattern
 70
    14
177
     2
291
     1
 71
     2
176
     1
 72
     2
176
     1
 73
     0
176
     1
 90
        0
176
     1
 40
-0.6
176
     1
 41
-30.0
176
     1
 62
     5
 63
     7
421
 16777215
176
     1
 74
     1
176
     1
 91
        4
176
     1
 64
     7
176
     1
 65
   257
176
     1
 75
     7
176
     1
175
     7
176
     1
 42
1.0
176
     1
 92
        8
176
     1
 66
     7
176
     1
 43
1.0
176
     1
 76
     1
176
     1
 77
     6
176
     1
 78
     2
176
     1
 67
     7
176
     1
 79
     5
176
     1
170
     0
176
     1
171
     0
176
     1
290
     0
176
     1
 93
        1
176
     1
 44
0.0
176
     1
173
     0
176
     1
  0
VISUALSTYLE
  5
33
102
{ACAD_REACTORS
330
2A
102
}
330
2A
100
AcDbVisualStyle
  2
Realistic
 70
     8
177
     2
291
     0
 71
     2
176
     1
 72
     2
176
     1
 73
     0
176
     1
 90
        0
176
     1
 40
-0.6
176
     1
 41
-30.0
176
     1
 62
     5
 63
     7
421
 16777215
176
     1
 74
     1
176
     1
 91
        0
176
     1
 64
     7
176
     1
 65
   257
176
     1
 75
     1
176
     1
175
     1
176
     1
 42
1.0
176
     1
 92
        8
176
     1
 66
     8
424
  7895160
176
     1
 43
1.0
176
     1
 76
     1
176
     1
 77
     6
176
     1
 78
     2
176
     1
 67
     7
176
     1
 79
     5
176
     1
170
     0
176
     1
171
     0
176
     1
290
     0
176
     1
 93
       13
176
     1
 44
0.0
176
     1
173
     0
176
     1
  0
VISUALSTYLE
  5
37
102
{ACAD_REACTORS
330
2A
102
}
330
2A
100
AcDbVisualStyle
  2
Thicken
 70
    13
177
     2
291
     1
 71
     2
176
     1
 72
     2
176
     1
 73
     0
176
     1
 90
        0
176
     1
 40
-0.6
176
     1
 41
-30.0
176
     1
 62
     5
 63
     7
421
 16777215
176
     1
 74
     1
176
     1
 91
        4
176
     1
 64
     7
176
     1
 65
   257
176
     1
 75
     1
176
     1
175
     1
176
     1
 42
1.0
176
     1
 92
       12
176
     1
 66
     7
176
     1
 43
1.0
176
     1
 76
     1
176
     1
 77
     6
176
     1
 78
     2
176
     1
 67
     7
176
     1
 79
     5
176
     1
170
     0
176
     1
171
     0
176
     1
290
     0
176
     1
 93
        1
176
     1
 44
0.0
176
     1
173
     0
176
     1
  0
ENDSEC
  0
EOF
